  0
SECTION
  2
HEADER
  9
$ACADVER
  1
AC1018
  9
$ACADMAINTVER
 70
     0
  9
$DWGCODEPAGE
  3
ANSI_932
  9
$INSBASE
 10
0.0
 20
0.0
 30
0.0
  9
$EXTMIN
 10
-2100.0
 20
-1485.0
 30
0.0
  9
$EXTMAX
 10
2100.0
 20
1485.0
 30
0.0
  9
$LIMMIN
 10
-2100.0
 20
-1485.0
  9
$LIMMAX
 10
2100.0
 20
1485.0
  9
$ORTHOMODE
 70
     0
  9
$REGENMODE
 70
     1
  9
$FILLMODE
 70
     1
  9
$QTEXTMODE
 70
     0
  9
$MIRRTEXT
 70
     1
  9
$LTSCALE
 40
10.0
  9
$ATTMODE
 70
     1
  9
$TEXTSIZE
 40
2.5
  9
$TRACEWID
 40
1.0
  9
$TEXTSTYLE
  7
Standard
  9
$CLAYER
  8
0
  9
$CELTYPE
  6
ByLayer
  9
$CECOLOR
 62
   256
  9
$CELTSCALE
 40
1.0
  9
$DISPSILH
 70
     0
  9
$DIMSCALE
 40
1.0
  9
$DIMASZ
 40
2.5
  9
$DIMEXO
 40
0.625
  9
$DIMDLI
 40
3.75
  9
$DIMRND
 40
0.0
  9
$DIMDLE
 40
0.0
  9
$DIMEXE
 40
1.25
  9
$DIMTP
 40
0.0
  9
$DIMTM
 40
0.0
  9
$DIMTXT
 40
2.5
  9
$DIMCEN
 40
2.5
  9
$DIMTSZ
 40
0.0
  9
$DIMTOL
 70
     0
  9
$DIMLIM
 70
     0
  9
$DIMTIH
 70
     0
  9
$DIMTOH
 70
     0
  9
$DIMSE1
 70
     0
  9
$DIMSE2
 70
     0
  9
$DIMTAD
 70
     1
  9
$DIMZIN
 70
     8
  9
$DIMBLK
  1

  9
$DIMASO
 70
     1
  9
$DIMSHO
 70
     1
  9
$DIMPOST
  1

  9
$DIMAPOST
  1

  9
$DIMALT
 70
     0
  9
$DIMALTD
 70
     3
  9
$DIMALTF
 40
0.03937007874016
  9
$DIMLFAC
 40
1.0
  9
$DIMTOFL
 70
     1
  9
$DIMTVP
 40
0.0
  9
$DIMTIX
 70
     0
  9
$DIMSOXD
 70
     0
  9
$DIMSAH
 70
     0
  9
$DIMBLK1
  1

  9
$DIMBLK2
  1

  9
$DIMSTYLE
  2
ISO-25
  9
$DIMCLRD
 70
     0
  9
$DIMCLRE
 70
     0
  9
$DIMCLRT
 70
     0
  9
$DIMTFAC
 40
1.0
  9
$DIMGAP
 40
0.625
  9
$DIMJUST
 70
     0
  9
$DIMSD1
 70
     0
  9
$DIMSD2
 70
     0
  9
$DIMTOLJ
 70
     0
  9
$DIMTZIN
 70
     8
  9
$DIMALTZ
 70
     0
  9
$DIMALTTZ
 70
     0
  9
$DIMUPT
 70
     0
  9
$DIMDEC
 70
     2
  9
$DIMTDEC
 70
     2
  9
$DIMALTU
 70
     2
  9
$DIMALTTD
 70
     3
  9
$DIMTXSTY
  7
Standard
  9
$DIMAUNIT
 70
     0
  9
$DIMADEC
 70
     0
  9
$DIMALTRND
 40
0.0
  9
$DIMAZIN
 70
     0
  9
$DIMDSEP
 70
    44
  9
$DIMATFIT
 70
     3
  9
$DIMFRAC
 70
     0
  9
$DIMLDRBLK
  1

  9
$DIMLUNIT
 70
     2
  9
$DIMLWD
 70
    -2
  9
$DIMLWE
 70
    -2
  9
$DIMTMOVE
 70
     0
  9
$LUNITS
 70
     2
  9
$LUPREC
 70
     4
  9
$SKETCHINC
 40
1.0
  9
$FILLETRAD
 40
10.0
  9
$AUNITS
 70
     0
  9
$AUPREC
 70
     0
  9
$MENU
  1
.
  9
$ELEVATION
 40
0.0
  9
$PELEVATION
 40
0.0
  9
$THICKNESS
 40
0.0
  9
$LIMCHECK
 70
     0
  9
$CHAMFERA
 40
0.0
  9
$CHAMFERB
 40
0.0
  9
$CHAMFERC
 40
0.0
  9
$CHAMFERD
 40
0.0
  9
$SKPOLY
 70
     0
  9
$TDCREATE
 40
2458942.740280995
  9
$TDUCREATE
 40
2458942.365280995
  9
$TDUPDATE
 40
2458942.740281169
  9
$TDUUPDATE
 40
2458942.365281169
  9
$TDINDWG
 40
0.0000000116
  9
$TDUSRTIMER
 40
0.0000000116
  9
$USRTIMER
 70
     1
  9
$ANGBASE
 50
0.0
  9
$ANGDIR
 70
     0
  9
$PDMODE
 70
     0
  9
$PDSIZE
 40
0.0
  9
$PLINEWID
 40
0.0
  9
$SPLFRAME
 70
     0
  9
$SPLINETYPE
 70
     6
  9
$SPLINESEGS
 70
     8
  9
$HANDSEED
  5
420
  9
$SURFTAB1
 70
     6
  9
$SURFTAB2
 70
     6
  9
$SURFTYPE
 70
     6
  9
$SURFU
 70
     6
  9
$SURFV
 70
     6
  9
$UCSBASE
  2

  9
$UCSNAME
  2

  9
$UCSORG
 10
0.0
 20
0.0
 30
0.0
  9
$UCSXDIR
 10
1.0
 20
0.0
 30
0.0
  9
$UCSYDIR
 10
0.0
 20
1.0
 30
0.0
  9
$UCSORTHOREF
  2

  9
$UCSORTHOVIEW
 70
     0
  9
$UCSORGTOP
 10
0.0
 20
0.0
 30
0.0
  9
$UCSORGBOTTOM
 10
0.0
 20
0.0
 30
0.0
  9
$UCSORGLEFT
 10
0.0
 20
0.0
 30
0.0
  9
$UCSORGRIGHT
 10
0.0
 20
0.0
 30
0.0
  9
$UCSORGFRONT
 10
0.0
 20
0.0
 30
0.0
  9
$UCSORGBACK
 10
0.0
 20
0.0
 30
0.0
  9
$PUCSBASE
  2

  9
$PUCSNAME
  2

  9
$PUCSORG
 10
0.0
 20
0.0
 30
0.0
  9
$PUCSXDIR
 10
1.0
 20
0.0
 30
0.0
  9
$PUCSYDIR
 10
0.0
 20
1.0
 30
0.0
  9
$PUCSORTHOREF
  2

  9
$PUCSORTHOVIEW
 70
     0
  9
$PUCSORGTOP
 10
0.0
 20
0.0
 30
0.0
  9
$PUCSORGBOTTOM
 10
0.0
 20
0.0
 30
0.0
  9
$PUCSORGLEFT
 10
0.0
 20
0.0
 30
0.0
  9
$PUCSORGRIGHT
 10
0.0
 20
0.0
 30
0.0
  9
$PUCSORGFRONT
 10
0.0
 20
0.0
 30
0.0
  9
$PUCSORGBACK
 10
0.0
 20
0.0
 30
0.0
  9
$USERI1
 70
     0
  9
$USERI2
 70
     0
  9
$USERI3
 70
     0
  9
$USERI4
 70
     0
  9
$USERI5
 70
     0
  9
$USERR1
 40
0.0
  9
$USERR2
 40
0.0
  9
$USERR3
 40
0.0
  9
$USERR4
 40
0.0
  9
$USERR5
 40
0.0
  9
$WORLDVIEW
 70
     1
  9
$SHADEDGE
 70
     3
  9
$SHADEDIF
 70
    70
  9
$TILEMODE
 70
     1
  9
$MAXACTVP
 70
    64
  9
$PINSBASE
 10
0.0
 20
0.0
 30
0.0
  9
$PLIMCHECK
 70
     0
  9
$PEXTMIN
 10
1.000000000000000E+20
 20
1.000000000000000E+20
 30
1.000000000000000E+20
  9
$PEXTMAX
 10
-1.000000000000000E+20
 20
-1.000000000000000E+20
 30
-1.000000000000000E+20
  9
$PLIMMIN
 10
0.0
 20
0.0
  9
$PLIMMAX
 10
420.0
 20
297.0
  9
$UNITMODE
 70
     0
  9
$VISRETAIN
 70
     1
  9
$PLINEGEN
 70
     0
  9
$PSLTSCALE
 70
     1
  9
$TREEDEPTH
 70
  3020
  9
$CMLSTYLE
  2
Standard
  9
$CMLJUST
 70
     0
  9
$CMLSCALE
 40
20.0
  9
$PROXYGRAPHICS
 70
     1
  9
$MEASUREMENT
 70
     1
  9
$CELWEIGHT
370
    -1
  9
$ENDCAPS
280
     0
  9
$JOINSTYLE
280
     0
  9
$LWDISPLAY
290
     0
  9
$INSUNITS
 70
     4
  9
$HYPERLINKBASE
  1

  9
$STYLESHEET
  1

  9
$XEDIT
290
     1
  9
$CEPSNTYPE
380
     0
  9
$PSTYLEMODE
290
     1
  9
$FINGERPRINTGUID
  2
{8F9E129A-86FD-42AD-8FBD-15FF496A1D89}
  9
$VERSIONGUID
  2
{FAEB1C32-E019-11D5-929B-00C0DF256EC4}
  9
$EXTNAMES
290
     1
  9
$PSVPSCALE
 40
0.0
  9
$OLESTARTUP
290
     0
  9
$SORTENTS
280
   127
  9
$INDEXCTL
280
     0
  9
$HIDETEXT
280
     1
  9
$XCLIPFRAME
290
     0
  9
$HALOGAP
280
     0
  9
$OBSCOLOR
 70
   257
  9
$OBSLTYPE
280
     0
  9
$INTERSECTIONDISPLAY
280
     0
  9
$INTERSECTIONCOLOR
 70
   257
  9
$DIMASSOC
280
     2
  9
$PROJECTNAME
  1

  0
ENDSEC
  0
SECTION
  2
CLASSES
  0
CLASS
  1
ACDBDICTIONARYWDFLT
  2
AcDbDictionaryWithDefault
  3
ObjectDBX Classes
 90
        0
 91
        4
280
     0
281
     0
  0
CLASS
  1
VISUALSTYLE
  2
AcDbVisualStyle
  3
ObjectDBX Classes
 90
     4095
 91
        4
280
     0
281
     0
  0
CLASS
  1
MATERIAL
  2
AcDbMaterial
  3
ObjectDBX Classes
 90
     1153
 91
        4
280
     0
281
     0
  0
CLASS
  1
SCALE
  2
AcDbScale
  3
ObjectDBX Classes
 90
     1153
 91
        4
280
     0
281
     0
  0
CLASS
  1
TABLESTYLE
  2
AcDbTableStyle
  3
ObjectDBX Classes
 90
     4095
 91
        4
280
     0
281
     0
  0
CLASS
  1
MLEADERSTYLE
  2
AcDbMLeaderStyle
  3
ACDB_MLEADERSTYLE_CLASS
 90
     4095
 91
        4
280
     0
281
     0
  0
CLASS
  1
SUN
  2
AcDbSun
  3
SCENEOE
 90
     1153
 91
        4
280
     0
281
     0
  0
CLASS
  1
DICTIONARYVAR
  2
AcDbDictionaryVar
  3
ObjectDBX Classes
 90
        0
 91
        4
280
     0
281
     0
  0
CLASS
  1
CELLSTYLEMAP
  2
AcDbCellStyleMap
  3
ObjectDBX Classes
 90
     1152
 91
        4
280
     0
281
     0
  0
ENDSEC
  0
SECTION
  2
TABLES
  0
TABLE
  2
VPORT
  5
8
102
{ACAD_XDICTIONARY
360
3D7
102
}
330
0
100
AcDbSymbolTable
 70
     1
  0
VPORT
  5
29
330
8
100
AcDbSymbolTableRecord
100
AcDbViewportTableRecord
  2
*Active
 70
     0
 10
0.0
 20
0.0
 11
1.0
 21
1.0
 12
0.0
 22
0.0
 13
0.0
 23
0.0
 14
10.0
 24
10.0
 15
10.0
 25
10.0
 16
0.0
 26
0.0
 36
1.0
 17
0.0
 27
0.0
 37
0.0
 40
3267.0
 41
1.414141414141414
 42
50.0
 43
0.0
 44
0.0
 50
0.0
 51
0.0
 71
     0
 72
 10000
 73
     1
 74
     3
 75
     0
 76
     0
 77
     0
 78
     0
281
     0
 65
     1
110
0.0
120
0.0
130
0.0
111
1.0
121
0.0
131
0.0
112
0.0
122
1.0
132
0.0
 79
     0
146
0.0
  0
ENDTAB
  0
TABLE
  2
LTYPE
  5
5
330
0
100
AcDbSymbolTable
 70
     4
  0
LTYPE
  5
14
330
5
100
AcDbSymbolTableRecord
100
AcDbLinetypeTableRecord
  2
ByBlock
 70
     0
  3

 72
    65
 73
     0
 40
0.0
  0
LTYPE
  5
15
330
5
100
AcDbSymbolTableRecord
100
AcDbLinetypeTableRecord
  2
ByLayer
 70
     0
  3

 72
    65
 73
     0
 40
0.0
  0
LTYPE
  5
16
330
5
100
AcDbSymbolTableRecord
100
AcDbLinetypeTableRecord
  2
Continuous
 70
     0
  3
Solid line
 72
    65
 73
     0
 40
0.0
  0
LTYPE
  5
6F
330
5
100
AcDbSymbolTableRecord
100
AcDbLinetypeTableRecord
  2
JWW_CENTER1
 70
     0
  3
-----  --  ----------  --  -----
 72
    65
 73
     4
 40
6.773333333333333
 49
4.233333333333333
 74
     0
 49
-0.8466666666666667
 74
     0
 49
0.8466666666666667
 74
     0
 49
-0.8466666666666667
 74
     0
  0
LTYPE
  5
70
330
5
100
AcDbSymbolTableRecord
100
AcDbLinetypeTableRecord
  2
JWW_DASHED3
 70
     0
  3
---  ------  ------  ------  ---
 72
    65
 73
     2
 40
3.386666666666667
 49
2.54
 74
     0
 49
-0.8466666666666667
 74
     0
  0
LTYPE
  5
71
330
5
100
AcDbSymbolTableRecord
100
AcDbLinetypeTableRecord
  2
JWW_CENTER2
 70
     0
  3
-------------  --  -------------
 72
    65
 73
     4
 40
13.54666666666667
 49
11.00666666666667
 74
     0
 49
-0.8466666666666667
 74
     0
 49
0.8466666666666667
 74
     0
 49
-0.8466666666666667
 74
     0
  0
ENDTAB
  0
TABLE
  2
LAYER
  5
2
330
0
100
AcDbSymbolTable
 70
    15
  0
LAYER
  5
10
330
2
100
AcDbSymbolTableRecord
100
AcDbLayerTableRecord
  2
0
 70
     0
 62
     7
  6
Continuous
370
    -3
390
F
  0
LAYER
  5
72
330
2
100
AcDbSymbolTableRecord
100
AcDbLayerTableRecord
  2
F-4ﾚｲﾔ
 70
     0
 62
     7
  6
Continuous
370
    -3
390
F
  0
LAYER
  5
73
330
2
100
AcDbSymbolTableRecord
100
AcDbLayerTableRecord
  2
D-4_寸法
 70
     0
 62
     7
  6
Continuous
370
    -3
390
F
  0
LAYER
  5
74
330
2
100
AcDbSymbolTableRecord
100
AcDbLayerTableRecord
  2
C-4_寸法
 70
     0
 62
     7
  6
Continuous
370
    -3
390
F
  0
LAYER
  5
75
330
2
100
AcDbSymbolTableRecord
100
AcDbLayerTableRecord
  2
F-0ﾚｲﾔ
 70
     0
 62
     7
  6
Continuous
370
    -3
390
F
  0
LAYER
  5
76
330
2
100
AcDbSymbolTableRecord
100
AcDbLayerTableRecord
  2
F-Fﾚｲﾔ
 70
     0
 62
     7
  6
Continuous
370
    -3
390
F
  0
LAYER
  5
77
330
2
100
AcDbSymbolTableRecord
100
AcDbLayerTableRecord
  2
D-1_ピット
 70
     0
 62
     7
  6
Continuous
370
    -3
390
F
  0
LAYER
  5
78
330
2
100
AcDbSymbolTableRecord
100
AcDbLayerTableRecord
  2
D-2_蓋
 70
     0
 62
     7
  6
Continuous
370
    -3
390
F
  0
LAYER
  5
79
330
2
100
AcDbSymbolTableRecord
100
AcDbLayerTableRecord
  2
D-6_躯体
 70
     0
 62
     7
  6
Continuous
370
    -3
390
F
  0
LAYER
  5
7A
330
2
100
AcDbSymbolTableRecord
100
AcDbLayerTableRecord
  2
D-3_受枠
 70
     0
 62
     7
  6
Continuous
370
    -3
390
F
  0
LAYER
  5
7B
330
2
100
AcDbSymbolTableRecord
100
AcDbLayerTableRecord
  2
C-1_ピット
 70
     0
 62
     7
  6
Continuous
370
    -3
390
F
  0
LAYER
  5
7C
330
2
100
AcDbSymbolTableRecord
100
AcDbLayerTableRecord
  2
C-2_蓋
 70
     0
 62
     7
  6
Continuous
370
    -3
390
F
  0
LAYER
  5
7D
330
2
100
AcDbSymbolTableRecord
100
AcDbLayerTableRecord
  2
C-0_通り芯
 70
     0
 62
     7
  6
Continuous
370
    -3
390
F
  0
LAYER
  5
7E
330
2
100
AcDbSymbolTableRecord
100
AcDbLayerTableRecord
  2
C-F
 70
     0
 62
     7
  6
Continuous
370
    -3
390
F
  0
LAYER
  5
7F
330
2
100
AcDbSymbolTableRecord
100
AcDbLayerTableRecord
  2
F-5ﾚｲﾔ
 70
     0
 62
     7
  6
Continuous
370
    -3
390
F
  0
ENDTAB
  0
TABLE
  2
STYLE
  5
3
330
0
100
AcDbSymbolTable
 70
     2
  0
STYLE
  5
11
330
3
100
AcDbSymbolTableRecord
100
AcDbTextStyleTableRecord
  2
Standard
 70
     0
 40
0.0
 41
1.0
 50
0.0
 71
     0
 42
2.5
  3
txt
  4

  0
STYLE
  5
6E
330
3
100
AcDbSymbolTableRecord
100
AcDbTextStyleTableRecord
  2
ＭＳ ゴシック
 70
     0
 40
1.0
 41
1.0
 50
0.0
 71
     0
 42
2.5
  3

  4

1001
ACAD
1000
MS Gothic
1071
    32817
  0
ENDTAB
  0
TABLE
  2
VIEW
  5
6
330
0
100
AcDbSymbolTable
 70
     0
  0
ENDTAB
  0
TABLE
  2
UCS
  5
7
330
0
100
AcDbSymbolTable
 70
     0
  0
ENDTAB
  0
TABLE
  2
APPID
  5
9
330
0
100
AcDbSymbolTable
 70
     2
  0
APPID
  5
12
330
9
100
AcDbSymbolTableRecord
100
AcDbRegAppTableRecord
  2
ACAD
 70
     0
  0
APPID
  5
416
330
9
100
AcDbSymbolTableRecord
100
AcDbRegAppTableRecord
  2
ACAD_MLEADERVER
 70
     0
  0
ENDTAB
  0
TABLE
  2
DIMSTYLE
  5
A
330
0
100
AcDbSymbolTable
 70
     1
100
AcDbDimStyleTable
  0
DIMSTYLE
105
27
330
A
100
AcDbSymbolTableRecord
100
AcDbDimStyleTableRecord
  2
ISO-25
 70
     0
 41
2.5
 42
0.625
 43
3.75
 44
1.25
 73
     0
 74
     0
 77
     1
 78
     8
140
2.5
141
2.5
143
0.03937007874016
147
0.625
171
     3
172
     1
178
     0
271
     2
272
     2
274
     3
278
    44
283
     0
284
     8
340
11
  0
ENDTAB
  0
TABLE
  2
BLOCK_RECORD
  5
1
330
0
100
AcDbSymbolTable
 70
     1
  0
BLOCK_RECORD
  5
1F
330
1
100
AcDbSymbolTableRecord
100
AcDbBlockTableRecord
  2
*Model_Space
340
22
  0
BLOCK_RECORD
  5
1B
330
1
100
AcDbSymbolTableRecord
100
AcDbBlockTableRecord
  2
*Paper_Space
340
1E
  0
BLOCK_RECORD
  5
23
330
1
100
AcDbSymbolTableRecord
100
AcDbBlockTableRecord
  2
*Paper_Space0
340
26
  0
ENDTAB
  0
ENDSEC
  0
SECTION
  2
BLOCKS
  0
BLOCK
  5
20
330
1F
100
AcDbEntity
  8
0
100
AcDbBlockBegin
  2
*Model_Space
 70
     0
 10
0.0
 20
0.0
 30
0.0
  3
*Model_Space
  1

  0
ENDBLK
  5
21
330
1F
100
AcDbEntity
  8
0
100
AcDbBlockEnd
  0
BLOCK
  5
1C
330
1B
100
AcDbEntity
 67
     1
  8
0
100
AcDbBlockBegin
  2
*Paper_Space
 70
     0
 10
0.0
 20
0.0
 30
0.0
  3
*Paper_Space
  1

  0
ENDBLK
  5
1D
330
1B
100
AcDbEntity
 67
     1
  8
0
100
AcDbBlockEnd
  0
BLOCK
  5
24
330
23
100
AcDbEntity
  8
0
100
AcDbBlockBegin
  2
*Paper_Space0
 70
     0
 10
0.0
 20
0.0
 30
0.0
  3
*Paper_Space0
  1

  0
ENDBLK
  5
25
330
23
100
AcDbEntity
  8
0
100
AcDbBlockEnd
  0
ENDSEC
  0
SECTION
  2
ENTITIES
  0
LWPOLYLINE
  5
80
330
1F
100
AcDbEntity
  8
F-4ﾚｲﾔ
  6
Continuous
 62
     7
370
     9
100
AcDbPolyline
 90
        4
 70
     1
 43
2.0
 10
1130.216869457348
 20
-401.5064218881968
 42
0.4142135623731
 10
1129.216869457348
 20
-400.5064218881967
 42
0.4142135623731
 10
1128.216869457348
 20
-401.5064218881968
 42
0.4142135623731
 10
1129.216869457348
 20
-402.5064218881968
 42
0.4142135623731
  0
LWPOLYLINE
  5
81
330
1F
100
AcDbEntity
  8
F-4ﾚｲﾔ
  6
Continuous
 62
     7
370
     9
100
AcDbPolyline
 90
        4
 70
     1
 43
2.0
 10
1630.21703441723
 20
-401.5064218881968
 42
0.4142135623731
 10
1629.21703441723
 20
-400.5064218881967
 42
0.4142135623731
 10
1628.21703441723
 20
-401.5064218881968
 42
0.4142135623731
 10
1629.21703441723
 20
-402.5064218881968
 42
0.4142135623731
  0
LWPOLYLINE
  5
82
330
1F
100
AcDbEntity
  8
F-4ﾚｲﾔ
  6
Continuous
 62
     7
370
     9
100
AcDbPolyline
 90
        4
 70
     1
 43
2.0
 10
1230.216704497466
 20
-484.0568006360853
 42
0.4142135623731
 10
1229.216704497466
 20
-483.0568006360853
 42
0.4142135623731
 10
1228.216704497466
 20
-484.0568006360853
 42
0.4142135623731
 10
1229.216704497466
 20
-485.0568006360853
 42
0.4142135623731
  0
LWPOLYLINE
  5
83
330
1F
100
AcDbEntity
  8
F-4ﾚｲﾔ
  6
Continuous
 62
     7
370
     9
100
AcDbPolyline
 90
        4
 70
     1
 43
2.0
 10
1530.216704497466
 20
-484.0568006360853
 42
0.4142135623731
 10
1529.216704497466
 20
-483.0568006360853
 42
0.4142135623731
 10
1528.216704497466
 20
-484.0568006360853
 42
0.4142135623731
 10
1529.216704497466
 20
-485.0568006360853
 42
0.4142135623731
  0
LWPOLYLINE
  5
84
330
1F
100
AcDbEntity
  8
F-4ﾚｲﾔ
  6
Continuous
 62
     7
370
     9
100
AcDbPolyline
 90
        4
 70
     1
 43
2.0
 10
1793.459023965372
 20
-666.6784626728779
 42
0.4142135623731
 10
1792.459023965372
 20
-665.6784626728779
 42
0.4142135623731
 10
1791.459023965372
 20
-666.6784626728779
 42
0.4142135623731
 10
1792.459023965372
 20
-667.6784626728778
 42
0.4142135623731
  0
LWPOLYLINE
  5
85
330
1F
100
AcDbEntity
  8
F-4ﾚｲﾔ
  6
Continuous
 62
     7
370
     9
100
AcDbPolyline
 90
        4
 70
     1
 43
2.0
 10
1793.459023965372
 20
-566.6785039128483
 42
0.4142135623731
 10
1792.459023965372
 20
-565.6785039128483
 42
0.4142135623731
 10
1791.459023965372
 20
-566.6785039128483
 42
0.4142135623731
 10
1792.459023965372
 20
-567.6785039128483
 42
0.4142135623731
  0
LWPOLYLINE
  5
86
330
1F
100
AcDbEntity
  8
F-4ﾚｲﾔ
  6
Continuous
 62
     7
370
     9
100
AcDbPolyline
 90
        4
 70
     1
 43
2.0
 10
1725.002570074958
 20
-582.6784577240815
 42
0.4142135623731
 10
1724.002570074958
 20
-581.6784577240815
 42
0.4142135623731
 10
1723.002570074958
 20
-582.6784577240815
 42
0.4142135623731
 10
1724.002570074958
 20
-583.6784577240816
 42
0.4142135623731
  0
LWPOLYLINE
  5
87
330
1F
100
AcDbEntity
  8
F-4ﾚｲﾔ
  6
Continuous
 62
     7
370
     9
100
AcDbPolyline
 90
        4
 70
     1
 43
2.0
 10
1725.002570074958
 20
-566.6785039128483
 42
0.4142135623731
 10
1724.002570074958
 20
-565.6785039128483
 42
0.4142135623731
 10
1723.002570074958
 20
-566.6785039128483
 42
0.4142135623731
 10
1724.002570074958
 20
-567.6785039128483
 42
0.4142135623731
  0
LWPOLYLINE
  5
88
330
1F
100
AcDbEntity
  8
D-4_寸法
  6
Continuous
 62
     7
370
     9
100
AcDbPolyline
 90
        4
 70
     1
 43
2.0
 10
1559.699159364443
 20
574.1382825696792
 42
0.4142135623731
 10
1558.699159364443
 20
575.1382825696792
 42
0.4142135623731
 10
1557.699159364443
 20
574.1382825696792
 42
0.4142135623731
 10
1558.699159364443
 20
573.1382825696792
 42
0.4142135623731
  0
LWPOLYLINE
  5
89
330
1F
100
AcDbEntity
  8
D-4_寸法
  6
Continuous
 62
     7
370
     9
100
AcDbPolyline
 90
        4
 70
     1
 43
2.0
 10
1559.699159364443
 20
856.6385959934544
 42
0.4142135623731
 10
1558.699159364443
 20
857.6385959934544
 42
0.4142135623731
 10
1557.699159364443
 20
856.6385959934544
 42
0.4142135623731
 10
1558.699159364443
 20
855.6385959934545
 42
0.4142135623731
  0
LWPOLYLINE
  5
8A
330
1F
100
AcDbEntity
  8
D-4_寸法
  6
Continuous
 62
     7
370
     9
100
AcDbPolyline
 90
        4
 70
     1
 43
2.0
 10
1445.118932775549
 20
606.6387609533363
 42
0.4142135623731
 10
1444.118932775549
 20
607.6387609533363
 42
0.4142135623731
 10
1443.118932775549
 20
606.6387609533363
 42
0.4142135623731
 10
1444.118932775549
 20
605.6387609533361
 42
0.4142135623731
  0
LWPOLYLINE
  5
8B
330
1F
100
AcDbEntity
  8
D-4_寸法
  6
Continuous
 62
     7
370
     9
100
AcDbPolyline
 90
        4
 70
     1
 43
2.0
 10
1445.118932775549
 20
856.6385959934544
 42
0.4142135623731
 10
1444.118932775549
 20
857.6385959934544
 42
0.4142135623731
 10
1443.118932775549
 20
856.6385959934544
 42
0.4142135623731
 10
1444.118932775549
 20
855.6385959934545
 42
0.4142135623731
  0
LWPOLYLINE
  5
8C
330
1F
100
AcDbEntity
  8
D-4_寸法
  6
Continuous
 62
     7
370
     9
100
AcDbPolyline
 90
        4
 70
     1
 43
2.0
 10
1652.660321209882
 20
451.2510062552789
 42
0.4142135623731
 10
1651.660321209882
 20
452.2510062552789
 42
0.4142135623731
 10
1650.660321209882
 20
451.2510062552789
 42
0.4142135623731
 10
1651.660321209882
 20
450.2510062552789
 42
0.4142135623731
  0
LWPOLYLINE
  5
8D
330
1F
100
AcDbEntity
  8
D-4_寸法
  6
Continuous
 62
     7
370
     9
100
AcDbPolyline
 90
        4
 70
     1
 43
2.0
 10
1652.660321209882
 20
856.6385959934544
 42
0.4142135623731
 10
1651.660321209882
 20
857.6385959934544
 42
0.4142135623731
 10
1650.660321209882
 20
856.6385959934544
 42
0.4142135623731
 10
1651.660321209882
 20
855.6385959934545
 42
0.4142135623731
  0
LWPOLYLINE
  5
8E
330
1F
100
AcDbEntity
  8
D-4_寸法
  6
Continuous
 62
     7
370
     9
100
AcDbPolyline
 90
        4
 70
     1
 43
2.0
 10
1160.950132627745
 20
1182.441620697846
 42
0.4142135623731
 10
1159.950132627745
 20
1183.441620697846
 42
0.4142135623731
 10
1158.950132627745
 20
1182.441620697846
 42
0.4142135623731
 10
1159.950132627745
 20
1181.441620697846
 42
0.4142135623731
  0
LWPOLYLINE
  5
8F
330
1F
100
AcDbEntity
  8
D-4_寸法
  6
Continuous
 62
     7
370
     9
100
AcDbPolyline
 90
        4
 70
     1
 43
2.0
 10
1392.651545344172
 20
291.431604333826
 42
0.4142135623731
 10
1391.651545344173
 20
292.431604333826
 42
0.4142135623731
 10
1390.651545344173
 20
291.431604333826
 42
0.4142135623731
 10
1391.651545344173
 20
290.431604333826
 42
0.4142135623731
  0
LWPOLYLINE
  5
90
330
1F
100
AcDbEntity
  8
D-4_寸法
  6
Continuous
 62
     7
370
     9
100
AcDbPolyline
 90
        4
 70
     1
 43
2.0
 10
1035.950462547509
 20
291.431604333826
 42
0.4142135623731
 10
1034.950462547509
 20
292.431604333826
 42
0.4142135623731
 10
1033.950462547509
 20
291.431604333826
 42
0.4142135623731
 10
1034.950462547509
 20
290.431604333826
 42
0.4142135623731
  0
LWPOLYLINE
  5
91
330
1F
100
AcDbEntity
  8
D-4_寸法
  6
Continuous
 62
     7
370
     9
100
AcDbPolyline
 90
        4
 70
     1
 43
2.0
 10
1035.950462547509
 20
492.9698552312078
 42
0.4142135623731
 10
1034.950462547509
 20
493.9698552312078
 42
0.4142135623731
 10
1033.950462547509
 20
492.9698552312078
 42
0.4142135623731
 10
1034.950462547509
 20
491.9698552312078
 42
0.4142135623731
  0
LWPOLYLINE
  5
92
330
1F
100
AcDbEntity
  8
D-4_寸法
  6
Continuous
 62
     7
370
     9
100
AcDbPolyline
 90
        4
 70
     1
 43
2.0
 10
1158.450248099663
 20
492.9698552312078
 42
0.4142135623731
 10
1157.450248099663
 20
493.9698552312078
 42
0.4142135623731
 10
1156.450248099663
 20
492.9698552312078
 42
0.4142135623731
 10
1157.450248099663
 20
491.9698552312078
 42
0.4142135623731
  0
LWPOLYLINE
  5
93
330
1F
100
AcDbEntity
  8
D-4_寸法
  6
Continuous
 62
     7
370
     9
100
AcDbPolyline
 90
        4
 70
     1
 43
2.0
 10
1378.449984163851
 20
492.9698552312078
 42
0.4142135623731
 10
1377.449984163852
 20
493.9698552312078
 42
0.4142135623731
 10
1376.449984163852
 20
492.9698552312078
 42
0.4142135623731
 10
1377.449984163852
 20
491.9698552312078
 42
0.4142135623731
  0
LWPOLYLINE
  5
94
330
1F
100
AcDbEntity
  8
D-4_寸法
  6
Continuous
 62
     7
370
     9
100
AcDbPolyline
 90
        4
 70
     1
 43
2.0
 10
610.9500501478042
 20
1081.84941472234
 42
0.4142135623731
 10
609.9500501478042
 20
1082.84941472234
 42
0.4142135623731
 10
608.9500501478042
 20
1081.84941472234
 42
0.4142135623731
 10
609.9500501478042
 20
1080.84941472234
 42
0.4142135623731
  0
LWPOLYLINE
  5
95
330
1F
100
AcDbEntity
  8
D-4_寸法
  6
Continuous
 62
     7
370
     9
100
AcDbPolyline
 90
        4
 70
     1
 43
2.0
 10
1160.950132627745
 20
1081.84941472234
 42
0.4142135623731
 10
1159.950132627745
 20
1082.84941472234
 42
0.4142135623731
 10
1158.950132627745
 20
1081.84941472234
 42
0.4142135623731
 10
1159.950132627745
 20
1080.84941472234
 42
0.4142135623731
  0
LWPOLYLINE
  5
96
330
1F
100
AcDbEntity
  8
D-4_寸法
  6
Continuous
 62
     7
370
     9
100
AcDbPolyline
 90
        4
 70
     1
 43
2.0
 10
1160.950132627745
 20
983.3631690772804
 42
0.4142135623731
 10
1159.950132627745
 20
984.3631690772804
 42
0.4142135623731
 10
1158.950132627745
 20
983.3631690772804
 42
0.4142135623731
 10
1159.950132627745
 20
982.3631690772805
 42
0.4142135623731
  0
LWPOLYLINE
  5
97
330
1F
100
AcDbEntity
  8
D-4_寸法
  6
Continuous
 62
     7
370
     9
100
AcDbPolyline
 90
        4
 70
     1
 43
2.0
 10
1140.950066643792
 20
983.3631690772804
 42
0.4142135623731
 10
1139.950066643792
 20
984.3631690772804
 42
0.4142135623731
 10
1138.950066643792
 20
983.3631690772804
 42
0.4142135623731
 10
1139.950066643792
 20
982.3631690772805
 42
0.4142135623731
  0
LWPOLYLINE
  5
98
330
1F
100
AcDbEntity
  8
D-4_寸法
  6
Continuous
 62
     7
370
     9
100
AcDbPolyline
 90
        4
 70
     1
 43
2.0
 10
1133.450165619721
 20
983.3631690772804
 42
0.4142135623731
 10
1132.450165619721
 20
984.3631690772804
 42
0.4142135623731
 10
1131.450165619721
 20
983.3631690772804
 42
0.4142135623731
 10
1132.450165619721
 20
982.3631690772805
 42
0.4142135623731
  0
LWPOLYLINE
  5
99
330
1F
100
AcDbEntity
  8
D-4_寸法
  6
Continuous
 62
     7
370
     9
100
AcDbPolyline
 90
        4
 70
     1
 43
2.0
 10
1113.450099635769
 20
983.3631690772804
 42
0.4142135623731
 10
1112.450099635769
 20
984.3631690772804
 42
0.4142135623731
 10
1111.450099635769
 20
983.3631690772804
 42
0.4142135623731
 10
1112.450099635769
 20
982.3631690772805
 42
0.4142135623731
  0
LWPOLYLINE
  5
9A
330
1F
100
AcDbEntity
  8
C-4_寸法
  6
Continuous
 62
     7
370
     9
100
AcDbPolyline
 90
        4
 70
     1
 43
2.0
 10
-1407.108149348079
 20
933.431297508446
 42
0.4142135623731
 10
-1408.108149348079
 20
934.431297508446
 42
0.4142135623731
 10
-1409.108149348079
 20
933.431297508446
 42
0.4142135623731
 10
-1408.108149348079
 20
932.4312975084462
 42
0.4142135623731
  0
LWPOLYLINE
  5
9B
330
1F
100
AcDbEntity
  8
C-4_寸法
  6
Continuous
 62
     7
370
     9
100
AcDbPolyline
 90
        4
 70
     1
 43
2.0
 10
-407.1080668681375
 20
933.431297508446
 42
0.4142135623731
 10
-408.1080668681375
 20
934.431297508446
 42
0.4142135623731
 10
-409.1080668681375
 20
933.431297508446
 42
0.4142135623731
 10
-408.1080668681375
 20
932.4312975084462
 42
0.4142135623731
  0
LWPOLYLINE
  5
9C
330
1F
100
AcDbEntity
  8
C-4_寸法
  6
Continuous
 62
     7
370
     9
100
AcDbPolyline
 90
        4
 70
     1
 43
2.0
 10
-1382.108190588049
 20
756.8839738175677
 42
0.4142135623731
 10
-1383.108190588049
 20
757.8839738175677
 42
0.4142135623731
 10
-1384.108190588049
 20
756.8839738175677
 42
0.4142135623731
 10
-1383.108190588049
 20
755.8839738175677
 42
0.4142135623731
  0
LWPOLYLINE
  5
9D
330
1F
100
AcDbEntity
  8
C-4_寸法
  6
Continuous
 62
     7
370
     9
100
AcDbPolyline
 90
        4
 70
     1
 43
2.0
 10
-432.1081493480784
 20
756.8839738175677
 42
0.4142135623731
 10
-433.1081493480784
 20
757.8839738175677
 42
0.4142135623731
 10
-434.1081493480784
 20
756.8839738175677
 42
0.4142135623731
 10
-433.1081493480784
 20
755.8839738175677
 42
0.4142135623731
  0
LWPOLYLINE
  5
9E
330
1F
100
AcDbEntity
  8
C-4_寸法
  6
Continuous
 62
     7
370
     9
100
AcDbPolyline
 90
        4
 70
     1
 43
2.0
 10
-1722.836909113704
 20
-382.2975447371199
 42
0.4142135623731
 10
-1723.836909113704
 20
-381.2975447371199
 42
0.4142135623731
 10
-1724.836909113704
 20
-382.2975447371199
 42
0.4142135623731
 10
-1723.836909113704
 20
-383.2975447371199
 42
0.4142135623731
  0
LWPOLYLINE
  5
9F
330
1F
100
AcDbEntity
  8
C-4_寸法
  6
Continuous
 62
     7
370
     9
100
AcDbPolyline
 90
        4
 70
     1
 43
2.0
 10
-1722.836909113704
 20
617.702537742821
 42
0.4142135623731
 10
-1723.836909113704
 20
618.7025377428212
 42
0.4142135623731
 10
-1724.836909113704
 20
617.702537742821
 42
0.4142135623731
 10
-1723.836909113704
 20
616.702537742821
 42
0.4142135623731
  0
LWPOLYLINE
  5
A0
330
1F
100
AcDbEntity
  8
C-4_寸法
  6
Continuous
 62
     7
370
     9
100
AcDbPolyline
 90
        4
 70
     1
 43
2.0
 10
-1641.228038890942
 20
-376.797452359586
 42
0.4142135623731
 10
-1642.228038890942
 20
-375.797452359586
 42
0.4142135623731
 10
-1643.228038890942
 20
-376.797452359586
 42
0.4142135623731
 10
-1642.228038890942
 20
-377.7974523595861
 42
0.4142135623731
  0
LWPOLYLINE
  5
A1
330
1F
100
AcDbEntity
  8
C-4_寸法
  6
Continuous
 62
     7
370
     9
100
AcDbPolyline
 90
        4
 70
     1
 43
2.0
 10
-1641.228038890942
 20
612.2024453652873
 42
0.4142135623731
 10
-1642.228038890942
 20
613.2024453652873
 42
0.4142135623731
 10
-1643.228038890942
 20
612.2024453652873
 42
0.4142135623731
 10
-1642.228038890942
 20
611.2024453652872
 42
0.4142135623731
  0
LWPOLYLINE
  5
A2
330
1F
100
AcDbEntity
  8
C-4_寸法
  6
Continuous
 62
     7
370
     9
100
AcDbPolyline
 90
        4
 70
     1
 43
2.0
 10
-1546.289585422825
 20
-357.2975859770904
 42
0.4142135623731
 10
-1547.289585422825
 20
-356.2975859770904
 42
0.4142135623731
 10
-1548.289585422825
 20
-357.2975859770904
 42
0.4142135623731
 10
-1547.289585422825
 20
-358.2975859770904
 42
0.4142135623731
  0
LWPOLYLINE
  5
A3
330
1F
100
AcDbEntity
  8
C-4_寸法
  6
Continuous
 62
     7
370
     9
100
AcDbPolyline
 90
        4
 70
     1
 43
2.0
 10
-1546.289585422825
 20
592.7024552628802
 42
0.4142135623731
 10
-1547.289585422825
 20
593.7024552628802
 42
0.4142135623731
 10
-1548.289585422825
 20
592.7024552628802
 42
0.4142135623731
 10
-1547.289585422825
 20
591.7024552628802
 42
0.4142135623731
  0
LWPOLYLINE
  5
A4
330
1F
100
AcDbEntity
  8
C-4_寸法
  6
Continuous
 62
     7
370
     9
100
AcDbPolyline
 90
        4
 70
     1
 43
2.0
 10
-1401.607933250633
 20
848.9016476192992
 42
0.4142135623731
 10
-1402.607933250633
 20
849.9016476192992
 42
0.4142135623731
 10
-1403.607933250633
 20
848.9016476192992
 42
0.4142135623731
 10
-1402.607933250633
 20
847.9016476192993
 42
0.4142135623731
  0
LWPOLYLINE
  5
A5
330
1F
100
AcDbEntity
  8
C-4_寸法
  6
Continuous
 62
     7
370
     9
100
AcDbPolyline
 90
        4
 70
     1
 43
2.0
 10
-907.6081839896538
 20
848.9016476192992
 42
0.4142135623731
 10
-908.6081839896536
 20
849.9016476192992
 42
0.4142135623731
 10
-909.6081839896535
 20
848.9016476192992
 42
0.4142135623731
 10
-908.6081839896536
 20
847.9016476192993
 42
0.4142135623731
  0
LWPOLYLINE
  5
A6
330
1F
100
AcDbEntity
  8
C-4_寸法
  6
Continuous
 62
     7
370
     9
100
AcDbPolyline
 90
        4
 70
     1
 43
2.0
 10
-906.6080322265625
 20
848.9016476192992
 42
0.4142135623731
 10
-907.6080322265625
 20
849.9016476192992
 42
0.4142135623731
 10
-908.6080322265625
 20
848.9016476192992
 42
0.4142135623731
 10
-907.6080322265625
 20
847.9016476192993
 42
0.4142135623731
  0
LWPOLYLINE
  5
A7
330
1F
100
AcDbEntity
  8
C-4_寸法
  6
Continuous
 62
     7
370
     9
100
AcDbPolyline
 90
        4
 70
     1
 43
2.0
 10
-412.6082829655828
 20
848.9016476192992
 42
0.4142135623731
 10
-413.6082829655828
 20
849.9016476192992
 42
0.4142135623731
 10
-414.6082829655828
 20
848.9016476192992
 42
0.4142135623731
 10
-413.6082829655828
 20
847.9016476192993
 42
0.4142135623731
  0
LWPOLYLINE
  5
A8
330
1F
100
AcDbEntity
  8
C-4_寸法
  6
Continuous
 62
     7
370
     9
100
AcDbPolyline
 90
        4
 70
     1
 43
2.0
 10
-251.4105175121409
 20
-382.2972972972973
 42
0.4142135623731
 10
-252.4105175121409
 20
-381.2972972972972
 42
0.4142135623731
 10
-253.4105175121409
 20
-382.2972972972973
 42
0.4142135623731
 10
-252.4105175121409
 20
-383.2972972972973
 42
0.4142135623731
  0
LWPOLYLINE
  5
A9
330
1F
100
AcDbEntity
  8
C-4_寸法
  6
Continuous
 62
     7
370
     9
100
AcDbPolyline
 90
        4
 70
     1
 43
2.0
 10
-251.4105175121409
 20
117.702620222762
 42
0.4142135623731
 10
-252.4105175121409
 20
118.702620222762
 42
0.4142135623731
 10
-253.4105175121409
 20
117.702620222762
 42
0.4142135623731
 10
-252.4105175121409
 20
116.702620222762
 42
0.4142135623731
  0
LWPOLYLINE
  5
AA
330
1F
100
AcDbEntity
  8
C-4_寸法
  6
Continuous
 62
     7
370
     9
100
AcDbPolyline
 90
        4
 70
     1
 43
2.0
 10
-251.4105175121409
 20
617.702537742821
 42
0.4142135623731
 10
-252.4105175121409
 20
618.7025377428212
 42
0.4142135623731
 10
-253.4105175121409
 20
617.702537742821
 42
0.4142135623731
 10
-252.4105175121409
 20
616.702537742821
 42
0.4142135623731
  0
LWPOLYLINE
  5
AB
330
1F
100
AcDbEntity
  8
D-4_寸法
  6
Continuous
 62
     7
370
     9
100
AcDbPolyline
 90
        4
 70
     1
 43
2.0
 10
30.76602090371642
 20
651.6384145375846
 42
0.4142135623731
 10
29.76602090371642
 20
652.6384145375846
 42
0.4142135623731
 10
28.76602090371642
 20
651.6384145375846
 42
0.4142135623731
 10
29.76602090371642
 20
650.6384145375847
 42
0.4142135623731
  0
LWPOLYLINE
  5
AC
330
1F
100
AcDbEntity
  8
D-4_寸法
  6
Continuous
 62
     7
370
     9
100
AcDbPolyline
 90
        4
 70
     1
 43
2.0
 10
30.76602090371642
 20
661.638447529561
 42
0.4142135623731
 10
29.76602090371642
 20
662.6384475295608
 42
0.4142135623731
 10
28.76602090371642
 20
661.638447529561
 42
0.4142135623731
 10
29.76602090371642
 20
660.6384475295611
 42
0.4142135623731
  0
LWPOLYLINE
  5
AD
330
1F
100
AcDbEntity
  8
D-4_寸法
  6
Continuous
 62
     7
370
     9
100
AcDbPolyline
 90
        4
 70
     1
 43
2.0
 10
30.76602090371642
 20
856.6385959934544
 42
0.4142135623731
 10
29.76602090371642
 20
857.6385959934544
 42
0.4142135623731
 10
28.76602090371642
 20
856.6385959934544
 42
0.4142135623731
 10
29.76602090371642
 20
855.6385959934545
 42
0.4142135623731
  0
LWPOLYLINE
  5
AE
330
1F
100
AcDbEntity
  8
D-4_寸法
  6
Continuous
 62
     7
370
     9
100
AcDbPolyline
 90
        4
 70
     1
 43
2.0
 10
94.64879711254247
 20
-283.2653231234162
 42
0.4142135623731
 10
93.64879711254247
 20
-282.2653231234162
 42
0.4142135623731
 10
92.64879711254247
 20
-283.2653231234162
 42
0.4142135623731
 10
93.64879711254247
 20
-284.2653231234163
 42
0.4142135623731
  0
LWPOLYLINE
  5
AF
330
1F
100
AcDbEntity
  8
D-4_寸法
  6
Continuous
 62
     7
370
     9
100
AcDbPolyline
 90
        4
 70
     1
 43
2.0
 10
604.6487476245776
 20
-283.2653231234162
 42
0.4142135623731
 10
603.6487476245776
 20
-282.2653231234162
 42
0.4142135623731
 10
602.6487476245776
 20
-283.2653231234162
 42
0.4142135623731
 10
603.6487476245776
 20
-284.2653231234163
 42
0.4142135623731
  0
LWPOLYLINE
  5
B0
330
1F
100
AcDbEntity
  8
D-4_寸法
  6
Continuous
 62
     7
370
     9
100
AcDbPolyline
 90
        4
 70
     1
 43
2.0
 10
714.2974985483531
 20
-702.0271589949324
 42
0.4142135623731
 10
713.2974985483531
 20
-701.0271589949325
 42
0.4142135623731
 10
712.2974985483531
 20
-702.0271589949324
 42
0.4142135623731
 10
713.2974985483531
 20
-703.0271589949324
 42
0.4142135623731
  0
LWPOLYLINE
  5
B1
330
1F
100
AcDbEntity
  8
D-4_寸法
  6
Continuous
 62
     7
370
     9
100
AcDbPolyline
 90
        4
 70
     1
 43
2.0
 10
714.2974985483531
 20
-392.0270022830447
 42
0.4142135623731
 10
713.2974985483531
 20
-391.0270022830446
 42
0.4142135623731
 10
712.2974985483531
 20
-392.0270022830447
 42
0.4142135623731
 10
713.2974985483531
 20
-393.0270022830447
 42
0.4142135623731
  0
LINE
  5
B2
330
1F
100
AcDbEntity
  8
F-0ﾚｲﾔ
  6
Continuous
 62
     7
370
     9
100
AcDbLine
 10
1129.216869457348
 20
-582.6784577240815
 30
0.0
 11
1197.216796875
 21
-582.6784577240815
 31
0.0
  0
LINE
  5
B3
330
1F
100
AcDbEntity
  8
F-0ﾚｲﾔ
  6
Continuous
 62
     7
370
     9
100
AcDbLine
 10
1561.217106999578
 20
-582.6784577240815
 30
0.0
 11
1629.21703441723
 21
-582.6784577240815
 31
0.0
  0
LINE
  5
B4
330
1F
100
AcDbEntity
  8
F-0ﾚｲﾔ
  6
Continuous
 62
     7
370
     9
100
AcDbLine
 10
1213.217245565879
 20
-634.678493190456
 30
0.0
 11
1213.217245565879
 21
-598.6784733952702
 31
0.0
  0
LINE
  5
B5
330
1F
100
AcDbEntity
  8
F-0ﾚｲﾔ
  6
Continuous
 62
     7
370
     9
100
AcDbLine
 10
1545.217153188345
 20
-634.678493190456
 30
0.0
 11
1545.217153188345
 21
-598.6784733952702
 31
0.0
  0
LINE
  5
B6
330
1F
100
AcDbEntity
  8
F-0ﾚｲﾔ
  6
Continuous
 62
     7
370
     9
100
AcDbLine
 10
1245.217153188345
 20
-650.6784470016892
 30
0.0
 11
1513.216750686233
 21
-650.6784470016892
 31
0.0
  0
LINE
  5
B7
330
1F
100
AcDbEntity
  8
F-0ﾚｲﾔ
  6
Continuous
 62
     7
370
     9
100
AcDbLine
 10
1629.21703441723
 20
-566.6785039128483
 30
0.0
 11
1629.21703441723
 21
-582.6784577240815
 31
0.0
  0
LINE
  5
B8
330
1F
100
AcDbEntity
  8
F-0ﾚｲﾔ
  6
Continuous
 62
     7
370
     9
100
AcDbLine
 10
1129.216869457348
 20
-566.6785039128483
 30
0.0
 11
1129.216869457348
 21
-582.6784577240815
 31
0.0
  0
LINE
  5
B9
330
1F
100
AcDbEntity
  8
F-0ﾚｲﾔ
  6
Continuous
 62
     7
370
     9
100
AcDbLine
 10
1245.217153188345
 20
-666.6784626728779
 30
0.0
 11
1513.216750686233
 21
-666.6784626728779
 31
0.0
  0
LINE
  5
BA
330
1F
100
AcDbEntity
  8
F-0ﾚｲﾔ
  6
Continuous
 62
     7
370
     9
100
AcDbLine
 10
1561.217106999578
 20
-566.6785039128483
 30
0.0
 11
1629.21703441723
 21
-566.6785039128483
 31
0.0
  0
LINE
  5
BB
330
1F
100
AcDbEntity
  8
F-0ﾚｲﾔ
  6
Continuous
 62
     7
370
     9
100
AcDbLine
 10
1529.216704497466
 20
-634.678493190456
 30
0.0
 11
1529.216704497466
 21
-598.6784733952702
 31
0.0
  0
LINE
  5
BC
330
1F
100
AcDbEntity
  8
F-0ﾚｲﾔ
  6
Continuous
 62
     7
370
     9
100
AcDbLine
 10
1229.216704497466
 20
-634.678493190456
 30
0.0
 11
1229.216704497466
 21
-598.6784733952702
 31
0.0
  0
LINE
  5
BD
330
1F
100
AcDbEntity
  8
F-0ﾚｲﾔ
  6
Continuous
 62
     7
370
     9
100
AcDbLine
 10
1129.216869457348
 20
-566.6785039128483
 30
0.0
 11
1197.216796875
 21
-566.6785039128483
 31
0.0
  0
LINE
  5
BE
330
1F
100
AcDbEntity
  8
F-Fﾚｲﾔ
  6
Continuous
 62
     7
370
     9
100
AcDbLine
 10
1095.127085092906
 20
-802.6421912940772
 30
0.0
 11
1640.937269056166
 21
-802.6421912940772
 31
0.0
  0
LINE
  5
BF
330
1F
100
AcDbEntity
  8
F-4ﾚｲﾔ
  6
Continuous
 62
     7
370
     9
100
AcDbLine
 10
1129.216869457348
 20
-401.5064218881968
 30
0.0
 11
1629.21703441723
 21
-401.5064218881968
 31
0.0
  0
LINE
  5
C0
330
1F
100
AcDbEntity
  8
F-4ﾚｲﾔ
  6
Continuous
 62
     7
370
     9
100
AcDbLine
 10
1129.216869457348
 20
-551.6785162848395
 30
0.0
 11
1129.216869457348
 21
-396.5064053922086
 31
0.0
  0
LINE
  5
C1
330
1F
100
AcDbEntity
  8
F-4ﾚｲﾔ
  6
Continuous
 62
     7
370
     9
100
AcDbLine
 10
1629.21703441723
 20
-551.6785162848395
 30
0.0
 11
1629.21703441723
 21
-396.5064053922086
 31
0.0
  0
LINE
  5
C2
330
1F
100
AcDbEntity
  8
F-4ﾚｲﾔ
  6
Continuous
 62
     7
370
     9
100
AcDbLine
 10
1229.216704497466
 20
-484.0568006360853
 30
0.0
 11
1529.216704497466
 21
-484.0568006360853
 31
0.0
  0
LINE
  5
C3
330
1F
100
AcDbEntity
  8
F-4ﾚｲﾔ
  6
Continuous
 62
     7
370
     9
100
AcDbLine
 10
1229.216704497466
 20
-583.6784857672613
 30
0.0
 11
1229.216704497466
 21
-479.0567841400971
 31
0.0
  0
LINE
  5
C4
330
1F
100
AcDbEntity
  8
F-4ﾚｲﾔ
  6
Continuous
 62
     7
370
     9
100
AcDbLine
 10
1529.216704497466
 20
-583.6784857672613
 30
0.0
 11
1529.216704497466
 21
-479.0567841400971
 31
0.0
  0
LINE
  5
C5
330
1F
100
AcDbEntity
  8
F-4ﾚｲﾔ
  6
Continuous
 62
     7
370
     9
100
AcDbLine
 10
1792.459023965372
 20
-666.6784626728779
 30
0.0
 11
1792.459023965372
 21
-566.6785039128483
 31
0.0
  0
LINE
  5
C6
330
1F
100
AcDbEntity
  8
F-4ﾚｲﾔ
  6
Continuous
 62
     7
370
     9
100
AcDbLine
 10
1528.216800174198
 20
-666.6784626728779
 30
0.0
 11
1797.45904046136
 21
-666.6784626728779
 31
0.0
  0
LINE
  5
C7
330
1F
100
AcDbEntity
  8
F-4ﾚｲﾔ
  6
Continuous
 62
     7
370
     9
100
AcDbLine
 10
1644.217083905194
 20
-566.6785039128483
 30
0.0
 11
1797.45904046136
 21
-566.6785039128483
 31
0.0
  0
LINE
  5
C8
330
1F
100
AcDbEntity
  8
F-4ﾚｲﾔ
  6
Continuous
 62
     7
370
     9
100
AcDbLine
 10
1724.002570074958
 20
-582.6784577240815
 30
0.0
 11
1724.002570074958
 21
-484.6962469977301
 31
0.0
  0
LINE
  5
C9
330
1F
100
AcDbEntity
  8
F-4ﾚｲﾔ
  6
Continuous
 62
     7
370
     9
100
AcDbLine
 10
1644.217083905194
 20
-582.6784577240815
 30
0.0
 11
1729.002586570946
 21
-582.6784577240815
 31
0.0
  0
LINE
  5
CA
330
1F
100
AcDbEntity
  8
D-4_寸法
  6
Continuous
 62
     7
370
     9
100
AcDbLine
 10
1317.942686338683
 20
927.4786376953125
 30
0.0
 11
1822.94262035473
 21
927.4786376953125
 31
0.0
  0
LINE
  5
CB
330
1F
100
AcDbEntity
  8
D-4_寸法
  6
Continuous
 62
     7
370
     9
100
AcDbLine
 10
1309.235526419975
 20
1023.25665448163
 30
0.0
 11
1844.235559411951
 21
1023.25665448163
 31
0.0
  0
LINE
  5
CC
330
1F
100
AcDbEntity
  8
D-4_寸法
  6
Continuous
 62
     7
370
     9
100
AcDbLine
 10
64.12056587837839
 20
944.8929575327281
 30
0.0
 11
389.1206483583193
 21
944.8929575327281
 31
0.0
  0
LINE
  5
CD
330
1F
100
AcDbEntity
  8
D-4_寸法
  6
Continuous
 62
     7
370
     9
100
AcDbLine
 10
64.12056587837839
 20
944.8929575327281
 30
0.0
 11
227.9593802787164
 21
711.6386124894427
 31
0.0
  0
LINE
  5
CE
330
1F
100
AcDbEntity
  8
D-4_寸法
  6
Continuous
 62
     7
370
     9
100
AcDbLine
 10
1290.739152238176
 20
1114.681215028505
 30
0.0
 11
1645.739086254223
 21
1114.681215028505
 31
0.0
  0
LINE
  5
CF
330
1F
100
AcDbEntity
  8
D-4_寸法
  6
Continuous
 62
     7
370
     9
100
AcDbLine
 10
1290.739152238176
 20
1114.681215028505
 30
0.0
 11
1151.928628457559
 21
856.6385959934544
 31
0.0
  0
LINE
  5
D0
330
1F
100
AcDbEntity
  8
D-1_ピット
  6
Continuous
 62
     2
370
     9
100
AcDbLine
 10
1147.450215107686
 20
841.6385465054901
 30
0.0
 11
1159.950132627745
 21
841.6385465054901
 31
0.0
  0
LINE
  5
D1
330
1F
100
AcDbEntity
  8
D-1_ピット
  6
Continuous
 62
     2
370
     9
100
AcDbLine
 10
1159.950132627745
 20
856.6385959934544
 30
0.0
 11
1159.950132627745
 21
841.6385465054901
 31
0.0
  0
LINE
  5
D2
330
1F
100
AcDbEntity
  8
D-1_ピット
  6
Continuous
 62
     2
370
     9
100
AcDbLine
 10
1139.950314083615
 20
856.6385959934544
 30
0.0
 11
1139.950314083615
 21
806.6384310335727
 31
0.0
  0
LINE
  5
D3
330
1F
100
AcDbEntity
  8
D-1_ピット
  6
Continuous
 62
     2
370
     9
100
AcDbLine
 10
1147.450215107686
 20
841.6385465054901
 30
0.0
 11
1147.450215107686
 21
626.6383320576438
 31
0.0
  0
LINE
  5
D4
330
1F
100
AcDbEntity
  8
D-1_ピット
  6
Continuous
 62
     2
370
     9
100
AcDbLine
 10
1139.950314083615
 20
806.6384310335727
 30
0.0
 11
1147.450215107686
 21
806.6384310335727
 31
0.0
  0
LINE
  5
D5
330
1F
100
AcDbEntity
  8
D-2_蓋
  6
Continuous
 62
     3
370
     9
100
AcDbLine
 10
1132.450165619721
 20
806.6384310335727
 30
0.0
 11
1124.95026459565
 21
806.6384310335727
 31
0.0
  0
LINE
  5
D6
330
1F
100
AcDbEntity
  8
D-2_蓋
  6
Continuous
 62
     3
370
     9
100
AcDbLine
 10
1124.95026459565
 20
841.6385465054901
 30
0.0
 11
1124.95026459565
 21
671.6384805215373
 31
0.0
  0
LINE
  5
D7
330
1F
100
AcDbEntity
  8
D-2_蓋
  6
Continuous
 62
     3
370
     9
100
AcDbLine
 10
1132.450165619721
 20
856.6385959934544
 30
0.0
 11
1132.450165619721
 21
806.6384310335727
 31
0.0
  0
LINE
  5
D8
330
1F
100
AcDbEntity
  8
D-2_蓋
  6
Continuous
 62
     3
370
     9
100
AcDbLine
 10
1112.450099635769
 20
856.6385959934544
 30
0.0
 11
1112.450099635769
 21
841.6385465054901
 31
0.0
  0
LINE
  5
D9
330
1F
100
AcDbEntity
  8
D-2_蓋
  6
Continuous
 62
     3
370
     9
100
AcDbLine
 10
1132.450165619721
 20
856.6385959934544
 30
0.0
 11
139.5897117820948
 21
856.6385959934544
 31
0.0
  0
LINE
  5
DA
330
1F
100
AcDbEntity
  8
D-2_蓋
  6
Continuous
 62
     3
370
     9
100
AcDbLine
 10
1124.95026459565
 20
841.6385465054901
 30
0.0
 11
1112.450099635769
 21
841.6385465054901
 31
0.0
  0
LINE
  5
DB
330
1F
100
AcDbEntity
  8
D-1_ピット
  6
Continuous
 62
     2
370
     9
100
AcDbLine
 10
1054.950281091639
 20
606.6385135135135
 30
0.0
 11
1137.450182115709
 21
606.6385135135135
 31
0.0
  0
LINE
  5
DC
330
1F
100
AcDbEntity
  8
D-1_ピット
  6
Continuous
 62
     2
370
     9
100
AcDbLine
 10
1044.950248099663
 20
626.6383320576438
 30
0.0
 11
1044.950248099663
 21
651.6384145375846
 31
0.0
  0
LINE
  5
DD
330
1F
100
AcDbEntity
  8
D-1_ピット
  6
Continuous
 62
     2
370
     9
100
AcDbLine
 10
1054.950281091639
 20
616.6385465054898
 30
0.0
 11
1137.450182115709
 21
616.6385465054898
 31
0.0
  0
LINE
  5
DE
330
1F
100
AcDbEntity
  8
D-2_蓋
  6
Continuous
 62
     3
370
     9
100
AcDbLine
 10
1114.950231603674
 20
841.6385465054901
 30
0.0
 11
1114.950231603674
 21
671.6384805215373
 31
0.0
  0
LINE
  5
DF
330
1F
100
AcDbEntity
  8
D-6_躯体
  6
Continuous
 62
     6
370
     5
100
AcDbLine
 10
1159.950132627745
 20
429.1384227855787
 30
0.0
 11
1207.450165619721
 21
381.6383897936024
 31
0.0
  0
LINE
  5
E0
330
1F
100
AcDbEntity
  8
D-6_躯体
  6
Continuous
 62
     6
370
     5
100
AcDbLine
 10
1159.950132627745
 20
407.9252830711573
 30
0.0
 11
1186.236902185389
 21
381.6383897936024
 31
0.0
  0
LINE
  5
E1
330
1F
100
AcDbEntity
  8
D-6_躯体
  6
Continuous
 62
     6
370
     5
100
AcDbLine
 10
1366.624491923565
 20
451.2507588154563
 30
0.0
 11
1436.236737225507
 21
381.6383897936024
 31
0.0
  0
LINE
  5
E2
330
1F
100
AcDbEntity
  8
D-6_躯体
  6
Continuous
 62
     6
370
     5
100
AcDbLine
 10
1377.231247360642
 20
451.2507588154563
 30
0.0
 11
1446.843492662585
 21
381.6383897936024
 31
0.0
  0
LINE
  5
E3
330
1F
100
AcDbEntity
  8
D-6_躯体
  6
Continuous
 62
     6
370
     5
100
AcDbLine
 10
1387.837755357898
 20
451.2507588154563
 30
0.0
 11
1457.450248099663
 21
381.6383897936024
 31
0.0
  0
LINE
  5
E4
330
1F
100
AcDbEntity
  8
D-6_躯体
  6
Continuous
 62
     6
370
     5
100
AcDbLine
 10
1391.65129790435
 20
697.4370513091217
 30
0.0
 11
1472.450297587627
 21
616.6385465054898
 31
0.0
  0
LINE
  5
E5
330
1F
100
AcDbEntity
  8
D-6_躯体
  6
Continuous
 62
     6
370
     5
100
AcDbLine
 10
1391.65129790435
 20
686.8307907516894
 30
0.0
 11
1472.450297587627
 21
606.0317910684123
 31
0.0
  0
LINE
  5
E6
330
1F
100
AcDbEntity
  8
D-6_躯体
  6
Continuous
 62
     6
370
     5
100
AcDbLine
 10
1391.65129790435
 20
676.2240353146117
 30
0.0
 11
1472.450297587627
 21
595.4252830711573
 31
0.0
  0
LINE
  5
E7
330
1F
100
AcDbEntity
  8
D-6_躯体
  6
Continuous
 62
     6
370
     5
100
AcDbLine
 10
1159.950132627745
 20
451.2507588154563
 30
0.0
 11
1391.65129790435
 21
451.2507588154563
 31
0.0
  0
LINE
  5
E8
330
1F
100
AcDbEntity
  8
D-6_躯体
  6
Continuous
 62
     6
370
     5
100
AcDbLine
 10
1391.65129790435
 20
451.2507588154563
 30
0.0
 11
1391.65129790435
 21
706.6385959934544
 31
0.0
  0
LINE
  5
E9
330
1F
100
AcDbEntity
  8
D-6_躯体
  6
Continuous
 62
     6
370
     5
100
AcDbLine
 10
1472.450297587627
 20
706.6385959934544
 30
0.0
 11
1391.65129790435
 21
706.6385959934544
 31
0.0
  0
LINE
  5
EA
330
1F
100
AcDbEntity
  8
D-1_ピット
  6
JWW_CENTER1
 62
     2
370
     9
100
AcDbLine
 10
609.9502975876271
 20
593.7691683382602
 30
0.0
 11
609.9502975876271
 21
875.1807465424408
 31
0.0
  0
LINE
  5
EB
330
1F
100
AcDbEntity
  8
D-6_躯体
  6
Continuous
 62
     6
370
     5
100
AcDbLine
 10
1159.950132627745
 20
381.6383897936024
 30
0.0
 11
1159.950132627745
 21
451.2507588154563
 31
0.0
  0
LINE
  5
EC
330
1F
100
AcDbEntity
  8
D-6_躯体
  6
Continuous
 62
     6
370
     5
100
AcDbLine
 10
1159.950132627745
 20
418.5317910684122
 30
0.0
 11
1196.843410182644
 21
381.6383897936024
 31
0.0
  0
LINE
  5
ED
330
1F
100
AcDbEntity
  8
D-1_ピット
  6
Continuous
 62
     2
370
     9
100
AcDbLine
 10
1034.950215107686
 20
626.6383320576438
 30
0.0
 11
1034.950215107686
 21
651.6384145375846
 31
0.0
  0
LINE
  5
EE
330
1F
100
AcDbEntity
  8
D-1_ピット
  6
Continuous
 62
     2
370
     9
100
AcDbLine
 10
1139.950314083615
 20
856.6385959934544
 30
0.0
 11
1159.950132627745
 21
856.6385959934544
 31
0.0
  0
LINE
  5
EF
330
1F
100
AcDbEntity
  8
D-1_ピット
  6
Continuous
 62
     2
370
     9
100
AcDbLine
 10
1157.450248099663
 20
774.138447529561
 30
0.0
 11
1165.449977565456
 21
774.138447529561
 31
0.0
  0
LINE
  5
F0
330
1F
100
AcDbEntity
  8
D-1_ピット
  6
Continuous
 62
     2
370
     9
100
AcDbLine
 10
1147.450215107686
 20
704.1387114653717
 30
0.0
 11
1138.832875844595
 21
704.1387114653717
 31
0.0
  0
LINE
  5
F1
330
1F
100
AcDbEntity
  8
D-1_ピット
  6
Continuous
 62
     2
370
     9
100
AcDbLine
 10
1138.832875844595
 20
744.1385959934544
 30
0.0
 11
1147.450215107686
 21
744.1385959934544
 31
0.0
  0
LINE
  5
F2
330
1F
100
AcDbEntity
  8
D-1_ピット
  6
Continuous
 62
     2
370
     9
100
AcDbLine
 10
1134.052833350929
 20
721.6383980415964
 30
0.0
 11
1134.052833350929
 21
726.6386619774073
 31
0.0
  0
LINE
  5
F3
330
1F
100
AcDbEntity
  8
D-1_ピット
  6
Continuous
 62
     2
370
     9
100
AcDbLine
 10
1132.046838708826
 20
726.6386619774073
 30
0.0
 11
1134.052833350929
 21
726.6386619774073
 31
0.0
  0
LINE
  5
F4
330
1F
100
AcDbEntity
  8
D-1_ピット
  6
Continuous
 62
     2
370
     9
100
AcDbLine
 10
1132.046838708826
 20
721.6383980415964
 30
0.0
 11
1134.052833350929
 21
721.6383980415964
 31
0.0
  0
LINE
  5
F5
330
1F
100
AcDbEntity
  8
D-1_ピット
  6
Continuous
 62
     2
370
     9
100
AcDbLine
 10
1154.450040250211
 20
734.1385630014781
 30
0.0
 11
1154.450287690034
 21
714.1384970175255
 31
0.0
  0
LINE
  5
F6
330
1F
100
AcDbEntity
  8
D-1_ピット
  6
Continuous
 62
     2
370
     9
100
AcDbLine
 10
1154.450287690034
 20
714.1384970175255
 30
0.0
 11
1151.89670872044
 21
715.6127434807856
 31
0.0
  0
LINE
  5
F7
330
1F
100
AcDbEntity
  8
D-1_ピット
  6
Continuous
 62
     2
370
     9
100
AcDbLine
 10
1154.450040250211
 20
734.1385630014781
 30
0.0
 11
1151.89670872044
 21
732.6643165382179
 31
0.0
  0
LINE
  5
F8
330
1F
100
AcDbEntity
  8
D-1_ピット
  6
Continuous
 62
     2
370
     9
100
AcDbLine
 10
1154.450535129857
 20
717.1387048669766
 30
0.0
 11
1147.937424118455
 21
713.2467238967484
 31
0.0
  0
LINE
  5
F9
330
1F
100
AcDbEntity
  8
D-1_ピット
  6
Continuous
 62
     2
370
     9
100
AcDbLine
 10
1154.450287690034
 20
731.1386025918498
 30
0.0
 11
1147.937424118455
 21
735.0303361222552
 31
0.0
  0
LINE
  5
FA
330
1F
100
AcDbEntity
  8
D-1_ピット
  6
Continuous
 62
     2
370
     9
100
AcDbLine
 10
1179.57384264147
 20
744.3885102143158
 30
0.0
 11
1165.449977565456
 21
744.3885102143158
 31
0.0
  0
LINE
  5
FB
330
1F
100
AcDbEntity
  8
D-1_ピット
  6
Continuous
 62
     2
370
     9
100
AcDbLine
 10
1179.57384264147
 20
703.8887972445102
 30
0.0
 11
1165.449977565456
 21
703.8887972445102
 31
0.0
  0
LINE
  5
FC
330
1F
100
AcDbEntity
  8
D-1_ピット
  6
Continuous
 62
     2
370
     9
100
AcDbLine
 10
1165.449977565456
 20
774.138447529561
 30
0.0
 11
1165.449977565456
 21
674.1386124894427
 31
0.0
  0
LINE
  5
FD
330
1F
100
AcDbEntity
  8
D-1_ピット
  6
Continuous
 62
     2
370
     9
100
AcDbLine
 10
1179.57384264147
 20
734.2850473764781
 30
0.0
 11
1165.449977565456
 21
734.2850473764781
 31
0.0
  0
LINE
  5
FE
330
1F
100
AcDbEntity
  8
D-1_ピット
  6
Continuous
 62
     2
370
     9
100
AcDbLine
 10
1179.57384264147
 20
713.9920126425255
 30
0.0
 11
1165.449977565456
 21
713.9920126425255
 31
0.0
  0
LINE
  5
FF
330
1F
100
AcDbEntity
  8
D-1_ピット
  6
Continuous
 62
     2
370
     9
100
AcDbLine
 10
1181.450178816512
 20
739.3370262352198
 30
0.0
 11
1181.450178816512
 21
708.9402812236065
 31
0.0
  0
LINE
  5
100
330
1F
100
AcDbEntity
  8
D-1_ピット
  6
JWW_CENTER1
 62
     2
370
     9
100
AcDbLine
 10
1131.614066459038
 20
724.1385300095019
 30
0.0
 11
1192.023777317357
 21
724.1385300095019
 31
0.0
  0
LINE
  5
101
330
1F
100
AcDbEntity
  8
D-1_ピット
  6
Continuous
 62
     2
370
     9
100
AcDbLine
 10
1157.450248099663
 20
670.824898384713
 30
0.0
 11
1254.136863914696
 21
574.1382825696792
 31
0.0
  0
LINE
  5
102
330
1F
100
AcDbEntity
  8
D-1_ピット
  6
Continuous
 62
     2
370
     9
100
AcDbLine
 10
1377.450231603674
 20
582.1382594752959
 30
0.0
 11
1377.450231603674
 21
574.1382825696792
 31
0.0
  0
LINE
  5
103
330
1F
100
AcDbEntity
  8
D-1_ピット
  6
Continuous
 62
     2
370
     9
100
AcDbLine
 10
1257.450330579603
 20
582.1382594752959
 30
0.0
 11
1377.450231603674
 21
582.1382594752959
 31
0.0
  0
LINE
  5
104
330
1F
100
AcDbEntity
  8
D-1_ピット
  6
Continuous
 62
     2
370
     9
100
AcDbLine
 10
1165.449977565456
 20
674.1386124894427
 30
0.0
 11
1257.450330579603
 21
582.1382594752959
 31
0.0
  0
LINE
  5
105
330
1F
100
AcDbEntity
  8
D-1_ピット
  6
Continuous
 62
     2
370
     9
100
AcDbLine
 10
1154.450287690034
 20
731.1386025918498
 30
0.0
 11
1165.449977565456
 21
731.1386025918498
 31
0.0
  0
LINE
  5
106
330
1F
100
AcDbEntity
  8
D-1_ピット
  6
Continuous
 62
     2
370
     9
100
AcDbLine
 10
1181.450178816512
 20
731.1386025918498
 30
0.0
 11
1187.450099635769
 21
731.1386025918498
 31
0.0
  0
LINE
  5
107
330
1F
100
AcDbEntity
  8
D-1_ピット
  6
Continuous
 62
     2
370
     9
100
AcDbLine
 10
1154.450040250211
 20
734.1385630014781
 30
0.0
 11
1165.449977565456
 21
734.1385630014781
 31
0.0
  0
LINE
  5
108
330
1F
100
AcDbEntity
  8
D-1_ピット
  6
Continuous
 62
     2
370
     9
100
AcDbLine
 10
1154.450287690034
 20
714.1384970175255
 30
0.0
 11
1165.449977565456
 21
714.1384970175255
 31
0.0
  0
LINE
  5
109
330
1F
100
AcDbEntity
  8
D-1_ピット
  6
Continuous
 62
     2
370
     9
100
AcDbLine
 10
1154.450535129857
 20
717.1387048669766
 30
0.0
 11
1165.449977565456
 21
717.1387048669766
 31
0.0
  0
LINE
  5
10A
330
1F
100
AcDbEntity
  8
D-1_ピット
  6
Continuous
 62
     2
370
     9
100
AcDbLine
 10
1181.450178816512
 20
717.1387048669766
 30
0.0
 11
1187.450099635769
 21
717.1387048669766
 31
0.0
  0
LINE
  5
10B
330
1F
100
AcDbEntity
  8
D-1_ピット
  6
Continuous
 62
     2
370
     9
100
AcDbLine
 10
1254.136863914696
 20
574.1382825696792
 30
0.0
 11
1377.450231603674
 21
574.1382825696792
 31
0.0
  0
LINE
  5
10C
330
1F
100
AcDbEntity
  8
D-1_ピット
  6
Continuous
 62
     2
370
     9
100
AcDbLine
 10
1184.449891786318
 20
714.1384970175255
 30
0.0
 11
1184.449891786318
 21
734.1385630014781
 31
0.0
  0
LINE
  5
10D
330
1F
100
AcDbEntity
  8
D-1_ピット
  6
Continuous
 62
     2
370
     9
100
AcDbLine
 10
1187.450099635769
 20
731.1386025918498
 30
0.0
 11
1184.450139226141
 21
734.1385630014781
 31
0.0
  0
LINE
  5
10E
330
1F
100
AcDbEntity
  8
D-1_ピット
  6
Continuous
 62
     2
370
     9
100
AcDbLine
 10
1181.450178816512
 20
734.1385630014781
 30
0.0
 11
1184.450139226141
 21
734.1385630014781
 31
0.0
  0
LINE
  5
10F
330
1F
100
AcDbEntity
  8
D-1_ピット
  6
Continuous
 62
     2
370
     9
100
AcDbLine
 10
1187.450099635769
 20
731.1386025918498
 30
0.0
 11
1187.450099635769
 21
717.1387048669766
 31
0.0
  0
LINE
  5
110
330
1F
100
AcDbEntity
  8
D-1_ピット
  6
Continuous
 62
     2
370
     9
100
AcDbLine
 10
1187.450099635769
 20
717.1387048669766
 30
0.0
 11
1184.449891786318
 21
714.1384970175255
 31
0.0
  0
LINE
  5
111
330
1F
100
AcDbEntity
  8
D-1_ピット
  6
Continuous
 62
     2
370
     9
100
AcDbLine
 10
1181.450178816512
 20
714.1384970175255
 30
0.0
 11
1184.449891786318
 21
714.1384970175255
 31
0.0
  0
LINE
  5
112
330
1F
100
AcDbEntity
  8
D-1_ピット
  6
Continuous
 62
     2
370
     9
100
AcDbLine
 10
1157.450248099663
 20
841.6385465054901
 30
0.0
 11
1157.450248099663
 21
734.1385630014781
 31
0.0
  0
LINE
  5
113
330
1F
100
AcDbEntity
  8
D-1_ピット
  6
Continuous
 62
     2
370
     9
100
AcDbLine
 10
1157.450248099663
 20
714.1384970175255
 30
0.0
 11
1157.450248099663
 21
626.6383320576438
 31
0.0
  0
LINE
  5
114
330
1F
100
AcDbEntity
  8
D-4_寸法
  6
Continuous
 62
     7
370
     9
100
AcDbLine
 10
1317.942686338683
 20
927.4786376953125
 30
0.0
 11
1206.398793813345
 21
633.1897962415542
 31
0.0
  0
LINE
  5
115
330
1F
100
AcDbEntity
  8
D-4_寸法
  6
Continuous
 62
     7
370
     9
100
AcDbLine
 10
1309.235526419975
 20
1023.25665448163
 30
0.0
 11
1157.450248099663
 21
804.3763361750425
 31
0.0
  0
LINE
  5
116
330
1F
100
AcDbEntity
  8
D-6_躯体
  6
Continuous
 62
     6
370
     5
100
AcDbLine
 10
1159.950132627745
 20
856.6385959934544
 30
0.0
 11
1715.175401842273
 21
856.6385959934544
 31
0.0
  0
LINE
  5
117
330
1F
100
AcDbEntity
  8
D-4_寸法
  6
Continuous
 62
     7
370
     9
100
AcDbLine
 10
227.9593802787164
 20
711.6386124894427
 30
0.0
 11
211.0424144847974
 21
730.0456608952703
 31
0.0
  0
LINE
  5
118
330
1F
100
AcDbEntity
  8
D-4_寸法
  6
Continuous
 62
     7
370
     9
100
AcDbLine
 10
227.9593802787164
 20
711.6386124894427
 30
0.0
 11
216.3829081767315
 21
733.796848606419
 31
0.0
  0
LINE
  5
119
330
1F
100
AcDbEntity
  8
D-4_寸法
  6
Continuous
 62
     7
370
     9
100
AcDbLine
 10
1151.928628457559
 20
856.6385959934544
 30
0.0
 11
1160.797119140625
 21
880.0127513988599
 31
0.0
  0
LINE
  5
11A
330
1F
100
AcDbEntity
  8
D-4_寸法
  6
Continuous
 62
     7
370
     9
100
AcDbLine
 10
1151.928628457559
 20
856.6385959934544
 30
0.0
 11
1166.544651340794
 21
876.9209908150339
 31
0.0
  0
LINE
  5
11B
330
1F
100
AcDbEntity
  8
D-4_寸法
  6
Continuous
 62
     7
370
     9
100
AcDbLine
 10
1157.450248099663
 20
804.3763361750425
 30
0.0
 11
1168.893102697424
 21
826.6038554423565
 31
0.0
  0
LINE
  5
11C
330
1F
100
AcDbEntity
  8
D-4_寸法
  6
Continuous
 62
     7
370
     9
100
AcDbLine
 10
1157.450248099663
 20
804.3763361750425
 30
0.0
 11
1174.256113413218
 21
822.8848349081505
 31
0.0
  0
LINE
  5
11D
330
1F
100
AcDbEntity
  8
D-4_寸法
  6
Continuous
 62
     7
370
     9
100
AcDbLine
 10
1206.398793813345
 20
633.1897962415542
 30
0.0
 11
1212.132221943623
 21
657.5235232791385
 31
0.0
  0
LINE
  5
11E
330
1F
100
AcDbEntity
  8
D-4_寸法
  6
Continuous
 62
     7
370
     9
100
AcDbLine
 10
1206.398793813345
 20
633.1897962415542
 30
0.0
 11
1218.234830289274
 21
655.2104558171453
 31
0.0
  0
LINE
  5
11F
330
1F
100
AcDbEntity
  8
D-4_寸法
  6
Continuous
 62
     7
370
     9
100
AcDbLine
 10
301.5338794605154
 20
96.33767617715392
 30
0.0
 11
822.2059095228042
 21
96.33767617715392
 31
0.0
  0
LINE
  5
120
330
1F
100
AcDbEntity
  8
D-1_ピット
  6
Continuous
 62
     2
370
     9
100
AcDbLine
 10
1034.950215107686
 20
651.6384145375846
 30
0.0
 11
1044.950248099663
 21
651.6384145375846
 31
0.0
  0
LINE
  5
121
330
1F
100
AcDbEntity
  8
D-1_ピット
  6
Continuous
 62
     2
370
     9
100
AcDbLine
 10
1034.950215107686
 20
661.638447529561
 30
0.0
 11
1034.950215107686
 21
711.6386124894427
 31
0.0
  0
LINE
  5
122
330
1F
100
AcDbEntity
  8
D-2_蓋
  6
Continuous
 62
     3
370
     9
100
AcDbLine
 10
1104.950198611698
 20
661.638447529561
 30
0.0
 11
139.5897117820948
 21
661.638447529561
 31
0.0
  0
LINE
  5
123
330
1F
100
AcDbEntity
  8
D-6_躯体
  6
JWW_CENTER1
 62
     6
370
     5
100
AcDbLine
 10
1327.450314083615
 20
366.9117613096495
 30
0.0
 11
1327.450314083615
 21
622.6063001478042
 31
0.0
  0
LINE
  5
124
330
1F
100
AcDbEntity
  8
D-6_躯体
  6
Continuous
 62
     6
370
     5
100
AcDbLine
 10
1304.95036357158
 20
597.1383089632602
 30
0.0
 11
1349.95026459565
 21
597.1383089632602
 31
0.0
  0
LINE
  5
125
330
1F
100
AcDbEntity
  8
D-6_躯体
  6
Continuous
 62
     6
370
     5
100
AcDbLine
 10
1304.95036357158
 20
582.1382594752959
 30
0.0
 11
1304.95036357158
 21
597.1383089632602
 31
0.0
  0
LINE
  5
126
330
1F
100
AcDbEntity
  8
D-6_躯体
  6
Continuous
 62
     6
370
     5
100
AcDbLine
 10
1349.95026459565
 20
582.1382594752959
 30
0.0
 11
1349.95026459565
 21
597.1383089632602
 31
0.0
  0
LINE
  5
127
330
1F
100
AcDbEntity
  8
D-6_躯体
  6
Continuous
 62
     6
370
     5
100
AcDbLine
 10
1304.95036357158
 20
451.2507588154563
 30
0.0
 11
1304.95036357158
 21
574.1382825696792
 31
0.0
  0
LINE
  5
128
330
1F
100
AcDbEntity
  8
D-6_躯体
  6
Continuous
 62
     6
370
     5
100
AcDbLine
 10
1349.95026459565
 20
451.2507588154563
 30
0.0
 11
1349.95026459565
 21
574.1382825696792
 31
0.0
  0
LINE
  5
129
330
1F
100
AcDbEntity
  8
D-6_躯体
  6
JWW_DASHED3
 62
     6
370
     5
100
AcDbLine
 10
1304.95036357158
 20
451.2507588154563
 30
0.0
 11
1304.95036357158
 21
381.8107316300677
 31
0.0
  0
LINE
  5
12A
330
1F
100
AcDbEntity
  8
D-6_躯体
  6
JWW_DASHED3
 62
     6
370
     5
100
AcDbLine
 10
1349.95026459565
 20
451.2507588154563
 30
0.0
 11
1349.95026459565
 21
381.8107316300677
 31
0.0
  0
LINE
  5
12B
330
1F
100
AcDbEntity
  8
D-4_寸法
  6
Continuous
 62
     7
370
     9
100
AcDbLine
 10
1558.699159364443
 20
574.1382825696792
 30
0.0
 11
1558.699159364443
 21
856.6385959934544
 31
0.0
  0
LINE
  5
12C
330
1F
100
AcDbEntity
  8
D-4_寸法
  6
Continuous
 62
     7
370
     9
100
AcDbLine
 10
1392.450033651816
 20
574.1382825696792
 30
0.0
 11
1563.699175860431
 21
574.1382825696792
 31
0.0
  0
LINE
  5
12D
330
1F
100
AcDbEntity
  8
D-4_寸法
  6
Continuous
 62
     7
370
     9
100
AcDbLine
 10
1573.699208852407
 20
856.6385959934544
 30
0.0
 11
1563.699175860431
 21
856.6385959934544
 31
0.0
  0
LINE
  5
12E
330
1F
100
AcDbEntity
  8
D-4_寸法
  6
Continuous
 62
     7
370
     9
100
AcDbLine
 10
1444.118932775549
 20
606.6387609533363
 30
0.0
 11
1444.118932775549
 21
856.6385959934544
 31
0.0
  0
LINE
  5
12F
330
1F
100
AcDbEntity
  8
D-4_寸法
  6
Continuous
 62
     7
370
     9
100
AcDbLine
 10
1152.450231603674
 20
606.6387609533363
 30
0.0
 11
1449.118949271538
 21
606.6387609533363
 31
0.0
  0
LINE
  5
130
330
1F
100
AcDbEntity
  8
D-4_寸法
  6
Continuous
 62
     7
370
     9
100
AcDbLine
 10
1459.118982263514
 20
856.6385959934544
 30
0.0
 11
1449.118949271538
 21
856.6385959934544
 31
0.0
  0
LINE
  5
131
330
1F
100
AcDbEntity
  8
D-4_寸法
  6
Continuous
 62
     7
370
     9
100
AcDbLine
 10
1651.660321209882
 20
451.2510062552789
 30
0.0
 11
1651.660321209882
 21
856.6385959934544
 31
0.0
  0
LINE
  5
132
330
1F
100
AcDbEntity
  8
D-4_寸法
  6
Continuous
 62
     7
370
     9
100
AcDbLine
 10
1406.651594832137
 20
451.2510062552789
 30
0.0
 11
1656.66033770587
 21
451.2510062552789
 31
0.0
  0
LINE
  5
133
330
1F
100
AcDbEntity
  8
D-4_寸法
  6
Continuous
 62
     7
370
     9
100
AcDbLine
 10
1666.660370697846
 20
856.6385959934544
 30
0.0
 11
1656.66033770587
 21
856.6385959934544
 31
0.0
  0
LINE
  5
134
330
1F
100
AcDbEntity
  8
D-4_寸法
  6
Continuous
 62
     7
370
     9
100
AcDbLine
 10
139.5899592219175
 20
1182.441620697846
 30
0.0
 11
1159.950132627745
 21
1182.441620697846
 31
0.0
  0
LINE
  5
135
330
1F
100
AcDbEntity
  8
D-4_寸法
  6
Continuous
 62
     7
370
     9
100
AcDbLine
 10
1159.950132627745
 20
871.638645481419
 30
0.0
 11
1159.950132627745
 21
1187.441637193834
 31
0.0
  0
LINE
  5
136
330
1F
100
AcDbEntity
  8
D-4_寸法
  6
Continuous
 62
     7
370
     9
100
AcDbLine
 10
1391.651545344173
 20
291.431604333826
 30
0.0
 11
1034.950462547509
 21
291.431604333826
 31
0.0
  0
LINE
  5
137
330
1F
100
AcDbEntity
  8
D-4_寸法
  6
Continuous
 62
     7
370
     9
100
AcDbLine
 10
1391.651545344173
 20
436.2509567673143
 30
0.0
 11
1391.651545344173
 21
286.431587837838
 31
0.0
  0
LINE
  5
138
330
1F
100
AcDbEntity
  8
D-4_寸法
  6
Continuous
 62
     7
370
     9
100
AcDbLine
 10
1034.950462547509
 20
276.4315548458615
 30
0.0
 11
1034.950462547509
 21
286.431587837838
 31
0.0
  0
LINE
  5
139
330
1F
100
AcDbEntity
  8
D-4_寸法
  6
Continuous
 62
     7
370
     9
100
AcDbLine
 10
1034.950462547509
 20
291.431604333826
 30
0.0
 11
139.5899592219175
 21
291.431604333826
 31
0.0
  0
LINE
  5
13A
330
1F
100
AcDbEntity
  8
D-4_寸法
  6
Continuous
 62
     7
370
     9
100
AcDbLine
 10
1034.950462547509
 20
492.9698552312078
 30
0.0
 11
1157.450248099663
 21
492.9698552312078
 31
0.0
  0
LINE
  5
13B
330
1F
100
AcDbEntity
  8
D-4_寸法
  6
Continuous
 62
     7
370
     9
100
AcDbLine
 10
1034.950462547509
 20
477.9698057432432
 30
0.0
 11
1034.950462547509
 21
487.9698387352198
 31
0.0
  0
LINE
  5
13C
330
1F
100
AcDbEntity
  8
D-4_寸法
  6
Continuous
 62
     7
370
     9
100
AcDbLine
 10
1157.450248099663
 20
611.6387774493245
 30
0.0
 11
1157.450248099663
 21
487.9698387352198
 31
0.0
  0
LINE
  5
13D
330
1F
100
AcDbEntity
  8
D-4_寸法
  6
Continuous
 62
     7
370
     9
100
AcDbLine
 10
1157.450248099663
 20
492.9698552312078
 30
0.0
 11
1377.449984163852
 21
492.9698552312078
 31
0.0
  0
LINE
  5
13E
330
1F
100
AcDbEntity
  8
D-4_寸法
  6
Continuous
 62
     7
370
     9
100
AcDbLine
 10
1377.449984163852
 20
559.1382330817146
 30
0.0
 11
1377.449984163852
 21
487.9698387352198
 31
0.0
  0
LINE
  5
13F
330
1F
100
AcDbEntity
  8
D-4_寸法
  6
Continuous
 62
     7
370
     9
100
AcDbLine
 10
609.9500501478042
 20
1081.84941472234
 30
0.0
 11
1159.950132627745
 21
1081.84941472234
 31
0.0
  0
LINE
  5
140
330
1F
100
AcDbEntity
  8
D-4_寸法
  6
Continuous
 62
     7
370
     9
100
AcDbLine
 10
609.9500501478042
 20
890.1753523543075
 30
0.0
 11
609.9500501478042
 21
1086.849431218327
 31
0.0
  0
LINE
  5
141
330
1F
100
AcDbEntity
  8
D-4_寸法
  6
Continuous
 62
     7
370
     9
100
AcDbLine
 10
1192.338520771748
 20
983.3631690772804
 30
0.0
 11
1139.950066643792
 21
983.3631690772804
 31
0.0
  0
LINE
  5
142
330
1F
100
AcDbEntity
  8
D-4_寸法
  6
Continuous
 62
     7
370
     9
100
AcDbLine
 10
1139.950066643792
 20
871.638645481419
 30
0.0
 11
1139.950066643792
 21
988.3631855732688
 31
0.0
  0
LINE
  5
143
330
1F
100
AcDbEntity
  8
D-4_寸法
  6
Continuous
 62
     7
370
     9
100
AcDbLine
 10
1139.950066643792
 20
983.3631690772804
 30
0.0
 11
1132.450165619721
 21
983.3631690772804
 31
0.0
  0
LINE
  5
144
330
1F
100
AcDbEntity
  8
D-4_寸法
  6
Continuous
 62
     7
370
     9
100
AcDbLine
 10
1132.450165619721
 20
871.638645481419
 30
0.0
 11
1132.450165619721
 21
988.3631855732688
 31
0.0
  0
LINE
  5
145
330
1F
100
AcDbEntity
  8
D-4_寸法
  6
Continuous
 62
     7
370
     9
100
AcDbLine
 10
1132.450165619721
 20
983.3631690772804
 30
0.0
 11
1067.888167097762
 21
983.3631690772804
 31
0.0
  0
LINE
  5
146
330
1F
100
AcDbEntity
  8
D-4_寸法
  6
Continuous
 62
     7
370
     9
100
AcDbLine
 10
1112.450099635769
 20
871.638645481419
 30
0.0
 11
1112.450099635769
 21
988.3631855732688
 31
0.0
  0
LINE
  5
147
330
1F
100
AcDbEntity
  8
D-3_受枠
  6
Continuous
 62
     4
370
     9
100
AcDbLine
 10
1054.950281091639
 20
623.9563318201016
 30
0.0
 11
1082.631868929477
 21
651.6384145375846
 31
0.0
  0
LINE
  5
148
330
1F
100
AcDbEntity
  8
D-3_受枠
  6
Continuous
 62
     4
370
     9
100
AcDbLine
 10
1062.632297825169
 20
616.6385465054898
 30
0.0
 11
1097.632165857264
 21
651.6384145375846
 31
0.0
  0
LINE
  5
149
330
1F
100
AcDbEntity
  8
D-3_受枠
  6
Continuous
 62
     4
370
     9
100
AcDbLine
 10
1077.632594752956
 20
616.6385465054898
 30
0.0
 11
1112.632462785051
 21
651.6384145375846
 31
0.0
  0
LINE
  5
14A
330
1F
100
AcDbEntity
  8
D-3_受枠
  6
Continuous
 62
     4
370
     9
100
AcDbLine
 10
1054.950281091639
 20
638.9563813080658
 30
0.0
 11
1067.632066881334
 21
651.6384145375846
 31
0.0
  0
LINE
  5
14B
330
1F
100
AcDbEntity
  8
D-3_受枠
  6
Continuous
 62
     4
370
     9
100
AcDbLine
 10
1122.632000897382
 20
616.6385465054898
 30
0.0
 11
1137.450676995355
 21
631.4562328441724
 31
0.0
  0
LINE
  5
14C
330
1F
100
AcDbEntity
  8
D-3_受枠
  6
Continuous
 62
     4
370
     9
100
AcDbLine
 10
1107.63219884924
 20
616.6385465054898
 30
0.0
 11
1137.450676995355
 21
646.456282332137
 31
0.0
  0
LINE
  5
14D
330
1F
100
AcDbEntity
  8
D-3_受枠
  6
Continuous
 62
     4
370
     9
100
AcDbLine
 10
1092.632396801098
 20
616.6385465054898
 30
0.0
 11
1127.632264833193
 21
651.6384145375846
 31
0.0
  0
LINE
  5
14E
330
1F
100
AcDbEntity
  8
D-3_受枠
  6
Continuous
 62
     4
370
     9
100
AcDbLine
 10
1054.950281091639
 20
616.6385465054898
 30
0.0
 11
1054.950281091639
 21
651.6384145375846
 31
0.0
  0
LINE
  5
14F
330
1F
100
AcDbEntity
  8
D-3_受枠
  6
Continuous
 62
     4
370
     9
100
AcDbLine
 10
1137.450676995355
 20
616.6385465054898
 30
0.0
 11
1137.450676995355
 21
651.6384145375846
 31
0.0
  0
LINE
  5
150
330
1F
100
AcDbEntity
  8
D-3_受枠
  6
Continuous
 62
     4
370
     9
100
AcDbLine
 10
1104.95044605152
 20
651.6384145375846
 30
0.0
 11
1137.450676995355
 21
651.6384145375846
 31
0.0
  0
LINE
  5
151
330
1F
100
AcDbEntity
  8
D-4_寸法
  6
Continuous
 62
     7
370
     9
100
AcDbLine
 10
1056.704629434122
 20
616.6385465054898
 30
0.0
 11
1046.341354782517
 21
593.88744457348
 31
0.0
  0
LINE
  5
152
330
1F
100
AcDbEntity
  8
D-4_寸法
  6
Continuous
 62
     7
370
     9
100
AcDbLine
 10
1056.704629434122
 20
616.6385465054898
 30
0.0
 11
1040.806125950169
 21
597.3451686549834
 31
0.0
  0
LINE
  5
153
330
1F
100
AcDbEntity
  8
D-4_寸法
  6
Continuous
 62
     7
370
     9
100
AcDbLine
 10
926.7054377375422
 20
408.5170354069891
 30
0.0
 11
578.8401835673568
 21
408.5170354069891
 31
0.0
  0
LINE
  5
154
330
1F
100
AcDbEntity
  8
D-4_寸法
  6
Continuous
 62
     7
370
     9
100
AcDbLine
 10
926.7054377375422
 20
408.5170354069891
 30
0.0
 11
1056.704629434122
 21
616.6385465054898
 31
0.0
  0
LINE
  5
155
330
1F
100
AcDbEntity
  8
C-1_ピット
  6
Continuous
 62
     2
370
     9
100
AcDbLine
 10
-408.1080668681375
 20
-382.2972972972973
 30
0.0
 11
-1408.108149348079
 21
-382.2972972972973
 31
0.0
  0
LINE
  5
156
330
1F
100
AcDbEntity
  8
C-1_ピット
  6
Continuous
 62
     2
370
     9
100
AcDbLine
 10
-1408.108149348079
 20
-382.2972972972973
 30
0.0
 11
-1408.108149348079
 21
617.702537742821
 31
0.0
  0
LINE
  5
157
330
1F
100
AcDbEntity
  8
C-1_ピット
  6
Continuous
 62
     2
370
     9
100
AcDbLine
 10
-1408.108149348079
 20
617.702537742821
 30
0.0
 11
-408.1080668681375
 21
617.702537742821
 31
0.0
  0
LINE
  5
158
330
1F
100
AcDbEntity
  8
C-1_ピット
  6
Continuous
 62
     2
370
     9
100
AcDbLine
 10
-408.1080668681375
 20
-382.2972972972973
 30
0.0
 11
-408.1080668681375
 21
617.702537742821
 31
0.0
  0
LINE
  5
159
330
1F
100
AcDbEntity
  8
C-1_ピット
  6
Continuous
 62
     2
370
     9
100
AcDbLine
 10
-412.1080553209458
 20
-378.2971851245776
 30
0.0
 11
-412.1080553209458
 21
613.7024255701016
 31
0.0
  0
LINE
  5
15A
330
1F
100
AcDbEntity
  8
C-1_ピット
  6
Continuous
 62
     2
370
     9
100
AcDbLine
 10
-1404.10816089527
 20
613.7024255701016
 30
0.0
 11
-412.1080553209458
 21
613.7024255701016
 31
0.0
  0
LINE
  5
15B
330
1F
100
AcDbEntity
  8
C-1_ピット
  6
Continuous
 62
     2
370
     9
100
AcDbLine
 10
-1404.10816089527
 20
-378.2971851245776
 30
0.0
 11
-1404.10816089527
 21
613.7024255701016
 31
0.0
  0
LINE
  5
15C
330
1F
100
AcDbEntity
  8
C-1_ピット
  6
Continuous
 62
     2
370
     9
100
AcDbLine
 10
-412.1080553209458
 20
-378.2971851245776
 30
0.0
 11
-1404.10816089527
 21
-378.2971851245776
 31
0.0
  0
LINE
  5
15D
330
1F
100
AcDbEntity
  8
C-1_ピット
  6
JWW_DASHED3
 62
     2
370
     9
100
AcDbLine
 10
-433.1081493480784
 20
-357.2974622571791
 30
0.0
 11
-433.1081493480784
 21
592.7027027027029
 31
0.0
  0
LINE
  5
15E
330
1F
100
AcDbEntity
  8
C-1_ピット
  6
JWW_DASHED3
 62
     2
370
     9
100
AcDbLine
 10
-433.1081493480784
 20
-357.2974622571791
 30
0.0
 11
-1383.108190588049
 21
-357.2974622571791
 31
0.0
  0
LINE
  5
15F
330
1F
100
AcDbEntity
  8
C-1_ピット
  6
JWW_DASHED3
 62
     2
370
     9
100
AcDbLine
 10
-1383.108190588049
 20
-357.2974622571791
 30
0.0
 11
-1383.108190588049
 21
592.7027027027029
 31
0.0
  0
LINE
  5
160
330
1F
100
AcDbEntity
  8
C-1_ピット
  6
JWW_DASHED3
 62
     2
370
     9
100
AcDbLine
 10
-1383.108190588049
 20
592.7027027027029
 30
0.0
 11
-433.1081493480784
 21
592.7027027027029
 31
0.0
  0
LINE
  5
161
330
1F
100
AcDbEntity
  8
C-2_蓋
  6
Continuous
 62
     3
370
     9
100
AcDbLine
 10
-1280.608099860114
 20
-357.2974622571791
 30
0.0
 11
-1330.608141100084
 21
-357.2974622571791
 31
0.0
  0
LINE
  5
162
330
1F
100
AcDbEntity
  8
C-2_蓋
  6
Continuous
 62
     3
370
     9
100
AcDbLine
 10
-1330.608141100084
 20
592.7027027027029
 30
0.0
 11
-1280.607976140202
 21
592.7027027027029
 31
0.0
  0
LINE
  5
163
330
1F
100
AcDbEntity
  8
C-2_蓋
  6
Continuous
 62
     3
370
     9
100
AcDbLine
 10
-1290.60813285209
 20
-357.2974622571791
 30
0.0
 11
-1290.608009132179
 21
592.7027027027029
 31
0.0
  0
LINE
  5
164
330
1F
100
AcDbEntity
  8
C-2_蓋
  6
Continuous
 62
     3
370
     9
100
AcDbLine
 10
-1320.608108108108
 20
-357.2974622571791
 30
0.0
 11
-1320.608108108108
 21
592.7027027027029
 31
0.0
  0
LINE
  5
165
330
1F
100
AcDbEntity
  8
C-2_蓋
  6
Continuous
 62
     3
370
     9
100
AcDbLine
 10
-1280.608099860114
 20
-357.2974622571791
 30
0.0
 11
-1280.607976140202
 21
592.7027027027029
 31
0.0
  0
LINE
  5
166
330
1F
100
AcDbEntity
  8
C-2_蓋
  6
Continuous
 62
     3
370
     9
100
AcDbLine
 10
-1330.608141100084
 20
-357.2974622571791
 30
0.0
 11
-1330.608141100084
 21
592.7027027027029
 31
0.0
  0
LINE
  5
167
330
1F
100
AcDbEntity
  8
C-0_通り芯
  6
JWW_CENTER2
 62
     7
370
     9
100
AcDbLine
 10
-1305.608182340055
 20
-357.2974622571791
 30
0.0
 11
-1305.608058620144
 21
592.7027027027029
 31
0.0
  0
LINE
  5
168
330
1F
100
AcDbEntity
  8
C-0_通り芯
  6
JWW_CENTER2
 62
     7
370
     9
100
AcDbLine
 10
-1005.608182340055
 20
-357.2974622571791
 30
0.0
 11
-1005.608182340055
 21
592.7027027027029
 31
0.0
  0
LINE
  5
169
330
1F
100
AcDbEntity
  8
C-2_蓋
  6
Continuous
 62
     3
370
     9
100
AcDbLine
 10
-1030.608141100084
 20
-357.2974622571791
 30
0.0
 11
-1030.608141100084
 21
592.7027027027029
 31
0.0
  0
LINE
  5
16A
330
1F
100
AcDbEntity
  8
C-2_蓋
  6
Continuous
 62
     3
370
     9
100
AcDbLine
 10
-980.6082235800252
 20
-357.2974622571791
 30
0.0
 11
-980.6082235800252
 21
592.7027027027029
 31
0.0
  0
LINE
  5
16B
330
1F
100
AcDbEntity
  8
C-2_蓋
  6
Continuous
 62
     3
370
     9
100
AcDbLine
 10
-1020.608231828019
 20
-357.2974622571791
 30
0.0
 11
-1020.608231828019
 21
592.7027027027029
 31
0.0
  0
LINE
  5
16C
330
1F
100
AcDbEntity
  8
C-2_蓋
  6
Continuous
 62
     3
370
     9
100
AcDbLine
 10
-990.6081328520904
 20
-357.2974622571791
 30
0.0
 11
-990.6081328520904
 21
592.7027027027029
 31
0.0
  0
LINE
  5
16D
330
1F
100
AcDbEntity
  8
C-2_蓋
  6
Continuous
 62
     3
370
     9
100
AcDbLine
 10
-1030.608141100084
 20
592.7027027027029
 30
0.0
 11
-980.6082235800252
 21
592.7027027027029
 31
0.0
  0
LINE
  5
16E
330
1F
100
AcDbEntity
  8
C-2_蓋
  6
Continuous
 62
     3
370
     9
100
AcDbLine
 10
-980.6082235800252
 20
-357.2974622571791
 30
0.0
 11
-1030.608141100084
 21
-357.2974622571791
 31
0.0
  0
LINE
  5
16F
330
1F
100
AcDbEntity
  8
C-2_蓋
  6
Continuous
 62
     3
370
     9
100
AcDbLine
 10
-908.6081839896536
 20
-376.7972049197634
 30
0.0
 11
-908.6081839896536
 21
612.2029402449325
 31
0.0
  0
LINE
  5
170
330
1F
100
AcDbEntity
  8
C-2_蓋
  6
Continuous
 62
     3
370
     9
100
AcDbLine
 10
-1402.607933250633
 20
612.2029402449325
 30
0.0
 11
-908.6081839896536
 21
612.2029402449325
 31
0.0
  0
LINE
  5
171
330
1F
100
AcDbEntity
  8
C-2_蓋
  6
Continuous
 62
     3
370
     9
100
AcDbLine
 10
-1402.608056970545
 20
-376.7972049197634
 30
0.0
 11
-1402.607933250633
 21
612.2029402449325
 31
0.0
  0
LINE
  5
172
330
1F
100
AcDbEntity
  8
C-2_蓋
  6
Continuous
 62
     3
370
     9
100
AcDbLine
 10
-908.6081839896536
 20
-376.7972049197634
 30
0.0
 11
-1402.608056970545
 21
-376.7972049197634
 31
0.0
  0
LINE
  5
173
330
1F
100
AcDbEntity
  8
C-2_蓋
  6
Continuous
 62
     3
370
     9
100
AcDbLine
 10
-912.608172442462
 20
-372.7973401868666
 30
0.0
 11
-912.608172442462
 21
608.202828072213
 31
0.0
  0
LINE
  5
174
330
1F
100
AcDbEntity
  8
C-2_蓋
  6
Continuous
 62
     3
370
     9
100
AcDbLine
 10
-1398.608068517736
 20
608.202828072213
 30
0.0
 11
-912.608172442462
 21
608.202828072213
 31
0.0
  0
LINE
  5
175
330
1F
100
AcDbEntity
  8
C-2_蓋
  6
Continuous
 62
     3
370
     9
100
AcDbLine
 10
-1398.608068517736
 20
-372.7973401868666
 30
0.0
 11
-1398.608068517736
 21
608.202828072213
 31
0.0
  0
LINE
  5
176
330
1F
100
AcDbEntity
  8
C-2_蓋
  6
Continuous
 62
     3
370
     9
100
AcDbLine
 10
-912.608172442462
 20
-372.7973401868666
 30
0.0
 11
-1398.608068517736
 21
-372.7973401868666
 31
0.0
  0
LINE
  5
177
330
1F
100
AcDbEntity
  8
C-1_ピット
  6
Continuous
 62
     2
370
     9
100
AcDbLine
 10
-1451.608193887247
 20
107.7028346706081
 30
0.0
 11
-1451.608193887247
 21
127.7025294948268
 31
0.0
  0
LINE
  5
178
330
1F
100
AcDbEntity
  8
C-1_ピット
  6
Continuous
 62
     2
370
     9
100
AcDbLine
 10
-1427.608139450485
 20
107.7028346706081
 30
0.0
 11
-1427.608139450485
 21
127.7025294948268
 31
0.0
  0
LINE
  5
179
330
1F
100
AcDbEntity
  8
C-1_ピット
  6
JWW_CENTER1
 62
     2
370
     9
100
AcDbLine
 10
-1441.60816089527
 20
102.7025707347974
 30
0.0
 11
-1441.60816089527
 21
132.7026697107266
 31
0.0
  0
LINE
  5
17A
330
1F
100
AcDbEntity
  8
C-1_ピット
  6
JWW_CENTER1
 62
     2
370
     9
100
AcDbLine
 10
-1430.10814769848
 20
117.7028676625847
 30
0.0
 11
-1456.608210383235
 21
117.7028676625847
 31
0.0
  0
LINE
  5
17B
330
1F
100
AcDbEntity
  8
C-1_ピット
  6
Continuous
 62
     2
370
     9
100
AcDbLine
 10
-1408.108149348079
 20
127.7025294948268
 30
0.0
 11
-1451.608193887247
 21
127.7025294948268
 31
0.0
  0
LINE
  5
17C
330
1F
100
AcDbEntity
  8
C-1_ピット
  6
Continuous
 62
     2
370
     9
100
AcDbLine
 10
-1408.108149348079
 20
107.7028346706081
 30
0.0
 11
-1451.608193887247
 21
107.7028346706081
 31
0.0
  0
LINE
  5
17D
330
1F
100
AcDbEntity
  8
C-1_ピット
  6
Continuous
 62
     2
370
     9
100
AcDbLine
 10
-918.1081411000844
 20
661.2029534417231
 30
0.0
 11
-898.1081988360429
 21
661.2029534417231
 31
0.0
  0
LINE
  5
17E
330
1F
100
AcDbEntity
  8
C-1_ピット
  6
Continuous
 62
     2
370
     9
100
AcDbLine
 10
-918.1081411000844
 20
637.2027752850508
 30
0.0
 11
-898.1081988360429
 21
637.2027752850508
 31
0.0
  0
LINE
  5
17F
330
1F
100
AcDbEntity
  8
C-1_ピット
  6
JWW_CENTER1
 62
     2
370
     9
100
AcDbLine
 10
-923.1081575960725
 20
651.2024255701016
 30
0.0
 11
-893.1081823400548
 21
651.2024255701016
 31
0.0
  0
LINE
  5
180
330
1F
100
AcDbEntity
  8
C-1_ピット
  6
JWW_CENTER1
 62
     2
370
     9
100
AcDbLine
 10
-908.1081081081081
 20
639.702412373311
 30
0.0
 11
-908.1081081081081
 21
666.2027224978885
 31
0.0
  0
LINE
  5
181
330
1F
100
AcDbEntity
  8
C-1_ピット
  6
Continuous
 62
     2
370
     9
100
AcDbLine
 10
-898.1081988360429
 20
617.702537742821
 30
0.0
 11
-898.1081988360429
 21
661.2029534417231
 31
0.0
  0
LINE
  5
182
330
1F
100
AcDbEntity
  8
C-1_ピット
  6
Continuous
 62
     2
370
     9
100
AcDbLine
 10
-918.1081411000844
 20
617.702537742821
 30
0.0
 11
-918.1081411000844
 21
661.2029534417231
 31
0.0
  0
LINE
  5
183
330
1F
100
AcDbEntity
  8
C-1_ピット
  6
Continuous
 62
     2
370
     9
100
AcDbLine
 10
-898.1081988360429
 20
-425.7974655563767
 30
0.0
 11
-918.1081411000844
 21
-425.7974655563767
 31
0.0
  0
LINE
  5
184
330
1F
100
AcDbEntity
  8
C-1_ピット
  6
Continuous
 62
     2
370
     9
100
AcDbLine
 10
-898.1081988360429
 20
-401.7972873997043
 30
0.0
 11
-918.1081411000844
 21
-401.7972873997043
 31
0.0
  0
LINE
  5
185
330
1F
100
AcDbEntity
  8
C-1_ピット
  6
JWW_CENTER1
 62
     2
370
     9
100
AcDbLine
 10
-893.1081823400548
 20
-415.7974325644003
 30
0.0
 11
-923.1081575960725
 21
-415.7974325644003
 31
0.0
  0
LINE
  5
186
330
1F
100
AcDbEntity
  8
C-1_ピット
  6
JWW_CENTER1
 62
     2
370
     9
100
AcDbLine
 10
-908.1082318280194
 20
-404.2974193676098
 30
0.0
 11
-908.1082318280194
 21
-430.7974820523648
 31
0.0
  0
LINE
  5
187
330
1F
100
AcDbEntity
  8
C-1_ピット
  6
Continuous
 62
     2
370
     9
100
AcDbLine
 10
-918.1081411000844
 20
-382.2972972972973
 30
0.0
 11
-918.1081411000844
 21
-425.7974655563767
 31
0.0
  0
LINE
  5
188
330
1F
100
AcDbEntity
  8
C-1_ピット
  6
Continuous
 62
     2
370
     9
100
AcDbLine
 10
-898.1081988360429
 20
-382.2972972972973
 30
0.0
 11
-898.1081988360429
 21
-425.7974655563767
 31
0.0
  0
LINE
  5
189
330
1F
100
AcDbEntity
  8
C-1_ピット
  6
Continuous
 62
     2
370
     9
100
AcDbLine
 10
-364.6081460488807
 20
127.7025294948268
 30
0.0
 11
-364.6081460488807
 21
107.7028346706081
 31
0.0
  0
LINE
  5
18A
330
1F
100
AcDbEntity
  8
C-1_ピット
  6
Continuous
 62
     2
370
     9
100
AcDbLine
 10
-388.6080767657305
 20
127.7025294948268
 30
0.0
 11
-388.6080767657305
 21
107.7028346706081
 31
0.0
  0
LINE
  5
18B
330
1F
100
AcDbEntity
  8
C-1_ピット
  6
JWW_CENTER1
 62
     2
370
     9
100
AcDbLine
 10
-374.6081790408573
 20
132.7026697107266
 30
0.0
 11
-374.6081790408573
 21
102.7025707347974
 31
0.0
  0
LINE
  5
18C
330
1F
100
AcDbEntity
  8
C-1_ピット
  6
JWW_CENTER1
 62
     2
370
     9
100
AcDbLine
 10
-386.1081922376476
 20
117.702620222762
 30
0.0
 11
-359.6081295528927
 21
117.702620222762
 31
0.0
  0
LINE
  5
18D
330
1F
100
AcDbEntity
  8
C-1_ピット
  6
Continuous
 62
     2
370
     9
100
AcDbLine
 10
-408.1080668681375
 20
107.7028346706081
 30
0.0
 11
-364.6081460488807
 21
107.7028346706081
 31
0.0
  0
LINE
  5
18E
330
1F
100
AcDbEntity
  8
C-1_ピット
  6
Continuous
 62
     2
370
     9
100
AcDbLine
 10
-408.1080668681375
 20
127.7025294948268
 30
0.0
 11
-364.6081460488807
 21
127.7025294948268
 31
0.0
  0
LINE
  5
18F
330
1F
100
AcDbEntity
  8
C-2_蓋
  6
Continuous
 62
     3
370
     9
100
AcDbLine
 10
-785.6080751161318
 20
-357.2974622571791
 30
0.0
 11
-835.6082400760134
 21
-357.2974622571791
 31
0.0
  0
LINE
  5
190
330
1F
100
AcDbEntity
  8
C-2_蓋
  6
Continuous
 62
     3
370
     9
100
AcDbLine
 10
-835.6081163561021
 20
592.7027027027029
 30
0.0
 11
-785.6080751161318
 21
592.7027027027029
 31
0.0
  0
LINE
  5
191
330
1F
100
AcDbEntity
  8
C-2_蓋
  6
Continuous
 62
     3
370
     9
100
AcDbLine
 10
-795.6081081081081
 20
-357.2974622571791
 30
0.0
 11
-795.6081081081081
 21
592.7027027027029
 31
0.0
  0
LINE
  5
192
330
1F
100
AcDbEntity
  8
C-2_蓋
  6
Continuous
 62
     3
370
     9
100
AcDbLine
 10
-825.6082070840371
 20
-357.2974622571791
 30
0.0
 11
-825.6082070840371
 21
592.7027027027029
 31
0.0
  0
LINE
  5
193
330
1F
100
AcDbEntity
  8
C-2_蓋
  6
Continuous
 62
     3
370
     9
100
AcDbLine
 10
-785.6080751161318
 20
-357.2974622571791
 30
0.0
 11
-785.6080751161318
 21
592.7027027027029
 31
0.0
  0
LINE
  5
194
330
1F
100
AcDbEntity
  8
C-2_蓋
  6
Continuous
 62
     3
370
     9
100
AcDbLine
 10
-835.6082400760134
 20
-357.2974622571791
 30
0.0
 11
-835.6081163561021
 21
592.7027027027029
 31
0.0
  0
LINE
  5
195
330
1F
100
AcDbEntity
  8
C-0_通り芯
  6
JWW_CENTER2
 62
     7
370
     9
100
AcDbLine
 10
-810.6081575960727
 20
-357.2974622571791
 30
0.0
 11
-810.6081575960727
 21
592.7027027027029
 31
0.0
  0
LINE
  5
196
330
1F
100
AcDbEntity
  8
C-0_通り芯
  6
JWW_CENTER2
 62
     7
370
     9
100
AcDbLine
 10
-510.6081575960727
 20
-357.2974622571791
 30
0.0
 11
-510.6081575960727
 21
592.7027027027029
 31
0.0
  0
LINE
  5
197
330
1F
100
AcDbEntity
  8
C-2_蓋
  6
Continuous
 62
     3
370
     9
100
AcDbLine
 10
-535.6082400760135
 20
-357.2974622571791
 30
0.0
 11
-535.6082400760135
 21
592.7027027027029
 31
0.0
  0
LINE
  5
198
330
1F
100
AcDbEntity
  8
C-2_蓋
  6
Continuous
 62
     3
370
     9
100
AcDbLine
 10
-485.6083225559544
 20
-357.2974622571791
 30
0.0
 11
-485.6083225559544
 21
592.7027027027029
 31
0.0
  0
LINE
  5
199
330
1F
100
AcDbEntity
  8
C-2_蓋
  6
Continuous
 62
     3
370
     9
100
AcDbLine
 10
-525.608207084037
 20
-357.2974622571791
 30
0.0
 11
-525.608207084037
 21
592.7027027027029
 31
0.0
  0
LINE
  5
19A
330
1F
100
AcDbEntity
  8
C-2_蓋
  6
Continuous
 62
     3
370
     9
100
AcDbLine
 10
-495.6081081081081
 20
-357.2974622571791
 30
0.0
 11
-495.6081081081081
 21
592.7027027027029
 31
0.0
  0
LINE
  5
19B
330
1F
100
AcDbEntity
  8
C-2_蓋
  6
Continuous
 62
     3
370
     9
100
AcDbLine
 10
-535.6082400760135
 20
592.7027027027029
 30
0.0
 11
-485.6083225559544
 21
592.7027027027029
 31
0.0
  0
LINE
  5
19C
330
1F
100
AcDbEntity
  8
C-2_蓋
  6
Continuous
 62
     3
370
     9
100
AcDbLine
 10
-485.6083225559544
 20
-357.2974622571791
 30
0.0
 11
-535.6082400760135
 21
-357.2974622571791
 31
0.0
  0
LINE
  5
19D
330
1F
100
AcDbEntity
  8
C-2_蓋
  6
Continuous
 62
     3
370
     9
100
AcDbLine
 10
-413.6082829655828
 20
-376.7972049197634
 30
0.0
 11
-413.6082829655828
 21
612.2029402449325
 31
0.0
  0
LINE
  5
19E
330
1F
100
AcDbEntity
  8
C-2_蓋
  6
Continuous
 62
     3
370
     9
100
AcDbLine
 10
-907.6080322265625
 20
612.2029402449325
 30
0.0
 11
-413.6082829655828
 21
612.2029402449325
 31
0.0
  0
LINE
  5
19F
330
1F
100
AcDbEntity
  8
C-2_蓋
  6
Continuous
 62
     3
370
     9
100
AcDbLine
 10
-907.6080322265625
 20
-376.7972049197634
 30
0.0
 11
-907.6080322265625
 21
612.2029402449325
 31
0.0
  0
LINE
  5
1A0
330
1F
100
AcDbEntity
  8
C-2_蓋
  6
Continuous
 62
     3
370
     9
100
AcDbLine
 10
-413.6082829655828
 20
-376.7972049197634
 30
0.0
 11
-907.6080322265625
 21
-376.7972049197634
 31
0.0
  0
LINE
  5
1A1
330
1F
100
AcDbEntity
  8
C-2_蓋
  6
Continuous
 62
     3
370
     9
100
AcDbLine
 10
-417.6081476984797
 20
-372.7973401868666
 30
0.0
 11
-417.6081476984797
 21
608.202828072213
 31
0.0
  0
LINE
  5
1A2
330
1F
100
AcDbEntity
  8
C-2_蓋
  6
Continuous
 62
     3
370
     9
100
AcDbLine
 10
-903.6080437737542
 20
608.202828072213
 30
0.0
 11
-417.6081476984797
 21
608.202828072213
 31
0.0
  0
LINE
  5
1A3
330
1F
100
AcDbEntity
  8
C-2_蓋
  6
Continuous
 62
     3
370
     9
100
AcDbLine
 10
-903.6081674936655
 20
-372.7973401868666
 30
0.0
 11
-903.6080437737542
 21
608.202828072213
 31
0.0
  0
LINE
  5
1A4
330
1F
100
AcDbEntity
  8
C-2_蓋
  6
Continuous
 62
     3
370
     9
100
AcDbLine
 10
-417.6081476984797
 20
-372.7973401868666
 30
0.0
 11
-903.6081674936655
 21
-372.7973401868666
 31
0.0
  0
LINE
  5
1A5
330
1F
100
AcDbEntity
  8
C-4_寸法
  6
Continuous
 62
     7
370
     9
100
AcDbLine
 10
-1408.108149348079
 20
933.431297508446
 30
0.0
 11
-408.1080668681375
 21
933.431297508446
 31
0.0
  0
LINE
  5
1A6
330
1F
100
AcDbEntity
  8
C-4_寸法
  6
Continuous
 62
     7
370
     9
100
AcDbLine
 10
-1408.108149348079
 20
632.7025872307856
 30
0.0
 11
-1408.108149348079
 21
938.4313140044344
 31
0.0
  0
LINE
  5
1A7
330
1F
100
AcDbEntity
  8
C-4_寸法
  6
Continuous
 62
     7
370
     9
100
AcDbLine
 10
-408.1080668681375
 20
632.7025872307856
 30
0.0
 11
-408.1080668681375
 21
938.4313140044344
 31
0.0
  0
LINE
  5
1A8
330
1F
100
AcDbEntity
  8
C-4_寸法
  6
Continuous
 62
     7
370
     9
100
AcDbLine
 10
-1383.108190588049
 20
756.8839738175677
 30
0.0
 11
-433.1081493480784
 21
756.8839738175677
 31
0.0
  0
LINE
  5
1A9
330
1F
100
AcDbEntity
  8
C-4_寸法
  6
Continuous
 62
     7
370
     9
100
AcDbLine
 10
-1383.108190588049
 20
607.7027521906675
 30
0.0
 11
-1383.108190588049
 21
761.8839903135557
 31
0.0
  0
LINE
  5
1AA
330
1F
100
AcDbEntity
  8
C-4_寸法
  6
Continuous
 62
     7
370
     9
100
AcDbLine
 10
-433.1081493480784
 20
607.7027521906675
 30
0.0
 11
-433.1081493480784
 21
761.8839903135557
 31
0.0
  0
LINE
  5
1AB
330
1F
100
AcDbEntity
  8
C-4_寸法
  6
Continuous
 62
     7
370
     9
100
AcDbLine
 10
-1723.836909113704
 20
-382.2975447371199
 30
0.0
 11
-1723.836909113704
 21
617.702537742821
 31
0.0
  0
LINE
  5
1AC
330
1F
100
AcDbEntity
  8
C-4_寸法
  6
Continuous
 62
     7
370
     9
100
AcDbLine
 10
-1423.108198836043
 20
-382.2975447371199
 30
0.0
 11
-1728.836925609692
 21
-382.2975447371199
 31
0.0
  0
LINE
  5
1AD
330
1F
100
AcDbEntity
  8
C-4_寸法
  6
Continuous
 62
     7
370
     9
100
AcDbLine
 10
-1423.108198836043
 20
617.702537742821
 30
0.0
 11
-1728.836925609692
 21
617.702537742821
 31
0.0
  0
LINE
  5
1AE
330
1F
100
AcDbEntity
  8
C-4_寸法
  6
Continuous
 62
     7
370
     9
100
AcDbLine
 10
-1642.228038890942
 20
-376.797452359586
 30
0.0
 11
-1642.228038890942
 21
612.2024453652873
 31
0.0
  0
LINE
  5
1AF
330
1F
100
AcDbEntity
  8
C-4_寸法
  6
Continuous
 62
     7
370
     9
100
AcDbLine
 10
-1417.608601338155
 20
-376.797452359586
 30
0.0
 11
-1647.22805538693
 21
-376.797452359586
 31
0.0
  0
LINE
  5
1B0
330
1F
100
AcDbEntity
  8
C-4_寸法
  6
Continuous
 62
     7
370
     9
100
AcDbLine
 10
-1417.608601338155
 20
612.2024453652873
 30
0.0
 11
-1647.22805538693
 21
612.2024453652873
 31
0.0
  0
LINE
  5
1B1
330
1F
100
AcDbEntity
  8
C-4_寸法
  6
Continuous
 62
     7
370
     9
100
AcDbLine
 10
-1547.289585422825
 20
-357.2975859770904
 30
0.0
 11
-1547.289585422825
 21
592.7024552628802
 31
0.0
  0
LINE
  5
1B2
330
1F
100
AcDbEntity
  8
C-4_寸法
  6
Continuous
 62
     7
370
     9
100
AcDbLine
 10
-1398.108363795925
 20
-357.2975859770904
 30
0.0
 11
-1552.289601918813
 21
-357.2975859770904
 31
0.0
  0
LINE
  5
1B3
330
1F
100
AcDbEntity
  8
C-4_寸法
  6
Continuous
 62
     7
370
     9
100
AcDbLine
 10
-1398.108363795925
 20
592.7024552628802
 30
0.0
 11
-1552.289601918813
 21
592.7024552628802
 31
0.0
  0
LINE
  5
1B4
330
1F
100
AcDbEntity
  8
C-4_寸法
  6
Continuous
 62
     7
370
     9
100
AcDbLine
 10
-1402.607933250633
 20
848.9016476192992
 30
0.0
 11
-908.6081839896536
 21
848.9016476192992
 31
0.0
  0
LINE
  5
1B5
330
1F
100
AcDbEntity
  8
C-4_寸法
  6
Continuous
 62
     7
370
     9
100
AcDbLine
 10
-1402.607933250633
 20
627.2029897328971
 30
0.0
 11
-1402.607933250633
 21
853.9016641152873
 31
0.0
  0
LINE
  5
1B6
330
1F
100
AcDbEntity
  8
C-4_寸法
  6
Continuous
 62
     7
370
     9
100
AcDbLine
 10
-908.6081839896536
 20
848.9016476192992
 30
0.0
 11
-907.6080322265625
 21
848.9016476192992
 31
0.0
  0
LINE
  5
1B7
330
1F
100
AcDbEntity
  8
C-4_寸法
  6
Continuous
 62
     7
370
     9
100
AcDbLine
 10
-907.6080322265625
 20
848.9016476192992
 30
0.0
 11
-413.6082829655828
 21
848.9016476192992
 31
0.0
  0
LINE
  5
1B8
330
1F
100
AcDbEntity
  8
C-4_寸法
  6
Continuous
 62
     7
370
     9
100
AcDbLine
 10
-413.6082829655828
 20
627.2029897328971
 30
0.0
 11
-413.6082829655828
 21
853.9016641152873
 31
0.0
  0
LINE
  5
1B9
330
1F
100
AcDbEntity
  8
C-4_寸法
  6
Continuous
 62
     7
370
     9
100
AcDbLine
 10
-908.6081839896536
 20
787.2527581292231
 30
0.0
 11
-908.6081839896536
 21
853.9016641152873
 31
0.0
  0
LINE
  5
1BA
330
1F
100
AcDbEntity
  8
C-4_寸法
  6
Continuous
 62
     7
370
     9
100
AcDbLine
 10
-907.6080322265625
 20
787.2527581292231
 30
0.0
 11
-907.6080322265625
 21
853.9016641152873
 31
0.0
  0
LINE
  5
1BB
330
1F
100
AcDbEntity
  8
C-4_寸法
  6
Continuous
 62
     7
370
     9
100
AcDbLine
 10
-393.1080173801732
 20
-382.2972972972973
 30
0.0
 11
-247.4105010161529
 21
-382.2972972972973
 31
0.0
  0
LINE
  5
1BC
330
1F
100
AcDbEntity
  8
C-4_寸法
  6
Continuous
 62
     7
370
     9
100
AcDbLine
 10
-344.6080800649281
 20
117.702620222762
 30
0.0
 11
-247.4105010161529
 21
117.702620222762
 31
0.0
  0
LINE
  5
1BD
330
1F
100
AcDbEntity
  8
C-4_寸法
  6
Continuous
 62
     7
370
     9
100
AcDbLine
 10
-393.1080173801732
 20
617.702537742821
 30
0.0
 11
-247.4105010161529
 21
617.702537742821
 31
0.0
  0
LINE
  5
1BE
330
1F
100
AcDbEntity
  8
D-6_躯体
  6
Continuous
 62
     6
370
     5
100
AcDbLine
 10
1034.950215107686
 20
231.4316538217906
 30
0.0
 11
1034.950215107686
 21
626.6383320576438
 31
0.0
  0
LINE
  5
1BF
330
1F
100
AcDbEntity
  8
D-4_寸法
  6
Continuous
 62
     7
370
     9
100
AcDbLine
 10
29.76602090371642
 20
651.6384145375846
 30
0.0
 11
29.76602090371642
 21
661.638447529561
 31
0.0
  0
LINE
  5
1C0
330
1F
100
AcDbEntity
  8
D-4_寸法
  6
Continuous
 62
     7
370
     9
100
AcDbLine
 10
124.5896622941302
 20
651.6384145375846
 30
0.0
 11
24.76600440772813
 21
651.6384145375846
 31
0.0
  0
LINE
  5
1C1
330
1F
100
AcDbEntity
  8
D-4_寸法
  6
Continuous
 62
     7
370
     9
100
AcDbLine
 10
124.5896622941302
 20
661.638447529561
 30
0.0
 11
24.76600440772813
 21
661.638447529561
 31
0.0
  0
LINE
  5
1C2
330
1F
100
AcDbEntity
  8
D-4_寸法
  6
Continuous
 62
     7
370
     9
100
AcDbLine
 10
29.76602090371642
 20
661.638447529561
 30
0.0
 11
29.76602090371642
 21
856.6385959934544
 31
0.0
  0
LINE
  5
1C3
330
1F
100
AcDbEntity
  8
D-4_寸法
  6
Continuous
 62
     7
370
     9
100
AcDbLine
 10
124.5896622941302
 20
856.6385959934544
 30
0.0
 11
24.76600440772813
 21
856.6385959934544
 31
0.0
  0
LINE
  5
1C4
330
1F
100
AcDbEntity
  8
D-1_ピット
  6
Continuous
 62
     2
370
     9
100
AcDbLine
 10
454.9502810916385
 20
846.6385630014781
 30
0.0
 11
454.9502810916385
 21
856.6385959934544
 31
0.0
  0
LINE
  5
1C5
330
1F
100
AcDbEntity
  8
D-1_ピット
  6
JWW_CENTER1
 62
     2
370
     9
100
AcDbLine
 10
504.9501986116979
 20
613.9731247360644
 30
0.0
 11
504.9501986116979
 21
708.1707433752113
 31
0.0
  0
LINE
  5
1C6
330
1F
100
AcDbEntity
  8
D-1_ピット
  6
Continuous
 62
     2
370
     9
100
AcDbLine
 10
764.9503140836151
 20
846.6385630014781
 30
0.0
 11
764.9503140836151
 21
856.6385959934544
 31
0.0
  0
LINE
  5
1C7
330
1F
100
AcDbEntity
  8
D-1_ピット
  6
Continuous
 62
     2
370
     9
100
AcDbLine
 10
689.9503140836151
 20
646.6383980415964
 30
0.0
 11
739.950231603674
 21
646.6383980415964
 31
0.0
  0
LINE
  5
1C8
330
1F
100
AcDbEntity
  8
D-1_ピット
  6
Continuous
 62
     2
370
     9
100
AcDbLine
 10
702.450231603674
 20
630.1383683488177
 30
0.0
 11
727.4503140836151
 21
630.1383683488177
 31
0.0
  0
LINE
  5
1C9
330
1F
100
AcDbEntity
  8
D-1_ピット
  6
Continuous
 62
     2
370
     9
100
AcDbLine
 10
737.4503470755911
 20
640.138401340794
 30
0.0
 11
737.4503470755911
 21
646.6383980415964
 31
0.0
  0
LINE
  5
1CA
330
1F
100
AcDbEntity
  8
D-1_ピット
  6
Continuous
 62
     2
370
     9
100
AcDbLine
 10
692.4501986116979
 20
640.138401340794
 30
0.0
 11
692.4501986116979
 21
646.6383980415964
 31
0.0
  0
LINE
  5
1CB
330
1F
100
AcDbEntity
  8
D-1_ピット
  6
Continuous
 62
     2
370
     9
100
AcDbLine
 10
739.950231603674
 20
646.6383980415964
 30
0.0
 11
739.950231603674
 21
651.6384145375846
 31
0.0
  0
LINE
  5
1CC
330
1F
100
AcDbEntity
  8
D-1_ピット
  6
Continuous
 62
     2
370
     9
100
AcDbLine
 10
689.9503140836151
 20
646.6383980415964
 30
0.0
 11
689.9503140836151
 21
651.6384145375846
 31
0.0
  0
LINE
  5
1CD
330
1F
100
AcDbEntity
  8
D-1_ピット
  6
Continuous
 62
     2
370
     9
100
AcDbLine
 10
484.9503800675677
 20
661.638447529561
 30
0.0
 11
484.9503800675677
 21
694.1384310335727
 31
0.0
  0
LINE
  5
1CE
330
1F
100
AcDbEntity
  8
D-1_ピット
  6
Continuous
 62
     2
370
     9
100
AcDbLine
 10
524.9502645956505
 20
661.638447529561
 30
0.0
 11
524.9502645956505
 21
694.1384310335727
 31
0.0
  0
LINE
  5
1CF
330
1F
100
AcDbEntity
  8
D-1_ピット
  6
Continuous
 62
     2
370
     9
100
AcDbLine
 10
529.9502810916385
 20
646.6383980415964
 30
0.0
 11
529.9502810916385
 21
651.6384145375846
 31
0.0
  0
LINE
  5
1D0
330
1F
100
AcDbEntity
  8
D-1_ピット
  6
Continuous
 62
     2
370
     9
100
AcDbLine
 10
479.9503635715797
 20
646.6383980415964
 30
0.0
 11
479.9503635715797
 21
651.6384145375846
 31
0.0
  0
LINE
  5
1D1
330
1F
100
AcDbEntity
  8
D-1_ピット
  6
Continuous
 62
     2
370
     9
100
AcDbLine
 10
527.4503965635557
 20
640.138401340794
 30
0.0
 11
527.4503965635557
 21
646.6383980415964
 31
0.0
  0
LINE
  5
1D2
330
1F
100
AcDbEntity
  8
D-1_ピット
  6
Continuous
 62
     2
370
     9
100
AcDbLine
 10
482.4502480996625
 20
640.138401340794
 30
0.0
 11
482.4502480996625
 21
646.6383980415964
 31
0.0
  0
LINE
  5
1D3
330
1F
100
AcDbEntity
  8
D-1_ピット
  6
Continuous
 62
     2
370
     9
100
AcDbLine
 10
517.4503635715797
 20
630.1383683488177
 30
0.0
 11
492.4502810916385
 21
630.1383683488177
 31
0.0
  0
LINE
  5
1D4
330
1F
100
AcDbEntity
  8
D-1_ピット
  6
Continuous
 62
     2
370
     9
100
AcDbLine
 10
529.9502810916385
 20
646.6383980415964
 30
0.0
 11
479.9503635715797
 21
646.6383980415964
 31
0.0
  0
LINE
  5
1D5
330
1F
100
AcDbEntity
  8
D-1_ピット
  6
Continuous
 62
     2
370
     9
100
AcDbLine
 10
764.9503140836151
 20
846.6385630014781
 30
0.0
 11
454.9502810916385
 21
846.6385630014781
 31
0.0
  0
LINE
  5
1D6
330
1F
100
AcDbEntity
  8
D-1_ピット
  6
Continuous
 62
     2
370
     9
100
AcDbLine
 10
455.9501854149073
 20
846.6385630014781
 30
0.0
 11
455.9501854149073
 21
841.6387939453125
 31
0.0
  0
LINE
  5
1D7
330
1F
100
AcDbEntity
  8
D-1_ピット
  6
Continuous
 62
     2
370
     9
100
AcDbLine
 10
694.9503305796031
 20
661.638447529561
 30
0.0
 11
694.9503305796031
 21
694.1384310335727
 31
0.0
  0
LINE
  5
1D8
330
1F
100
AcDbEntity
  8
D-1_ピット
  6
Continuous
 62
     2
370
     9
100
AcDbLine
 10
734.950215107686
 20
661.638447529561
 30
0.0
 11
734.950215107686
 21
694.1384310335727
 31
0.0
  0
LINE
  5
1D9
330
1F
100
AcDbEntity
  8
D-1_ピット
  6
JWW_CENTER1
 62
     2
370
     9
100
AcDbLine
 10
714.9501491237334
 20
613.9731247360644
 30
0.0
 11
714.9501491237334
 21
708.1707433752113
 31
0.0
  0
LINE
  5
1DA
330
1F
100
AcDbEntity
  8
D-1_ピット
  6
Continuous
 62
     2
370
     9
100
AcDbLine
 10
734.950215107686
 20
694.1384310335727
 30
0.0
 11
484.9503800675677
 21
694.1384310335727
 31
0.0
  0
LINE
  5
1DB
330
1F
100
AcDbEntity
  8
D-1_ピット
  6
Continuous
 62
     2
370
     9
100
AcDbLine
 10
739.950231603674
 20
699.1386949693836
 30
0.0
 11
739.950231603674
 21
841.6387939453125
 31
0.0
  0
LINE
  5
1DC
330
1F
100
AcDbEntity
  8
D-1_ピット
  6
Continuous
 62
     2
370
     9
100
AcDbLine
 10
763.950162320524
 20
841.6387939453125
 30
0.0
 11
455.9501854149073
 21
841.6387939453125
 31
0.0
  0
LINE
  5
1DD
330
1F
100
AcDbEntity
  8
D-1_ピット
  6
Continuous
 62
     2
370
     9
100
AcDbLine
 10
763.950162320524
 20
846.6385630014781
 30
0.0
 11
763.950162320524
 21
841.6387939453125
 31
0.0
  0
LINE
  5
1DE
330
1F
100
AcDbEntity
  8
D-1_ピット
  6
Continuous
 62
     2
370
     9
100
AcDbLine
 10
479.9503635715797
 20
699.1386949693836
 30
0.0
 11
479.9503635715797
 21
841.6387939453125
 31
0.0
  0
LINE
  5
1DF
330
1F
100
AcDbEntity
  8
D-1_ピット
  6
Continuous
 62
     2
370
     9
100
AcDbLine
 10
139.5897117820948
 20
711.6386124894427
 30
0.0
 11
479.9503635715797
 21
711.6386124894427
 31
0.0
  0
LINE
  5
1E0
330
1F
100
AcDbEntity
  8
D-1_ピット
  6
Continuous
 62
     2
370
     9
100
AcDbLine
 10
139.5897117820948
 20
703.6383881440033
 30
0.0
 11
479.9503635715797
 21
703.6383881440033
 31
0.0
  0
LINE
  5
1E1
330
1F
100
AcDbEntity
  8
D-1_ピット
  6
Continuous
 62
     2
370
     9
100
AcDbLine
 10
739.950231603674
 20
711.6386124894427
 30
0.0
 11
1034.950215107686
 21
711.6386124894427
 31
0.0
  0
LINE
  5
1E2
330
1F
100
AcDbEntity
  8
D-1_ピット
  6
Continuous
 62
     2
370
     9
100
AcDbLine
 10
739.950231603674
 20
703.6383881440033
 30
0.0
 11
1034.950215107686
 21
703.6383881440033
 31
0.0
  0
LINE
  5
1E3
330
1F
100
AcDbEntity
  8
D-2_蓋
  6
Continuous
 62
     3
370
     9
100
AcDbLine
 10
1104.950198611698
 20
651.6384145375846
 30
0.0
 11
139.5897117820948
 21
651.6384145375846
 31
0.0
  0
LINE
  5
1E4
330
1F
100
AcDbEntity
  8
D-1_ピット
  6
JWW_DASHED3
 62
     2
370
     9
100
AcDbLine
 10
1034.950215107686
 20
669.638671875
 30
0.0
 11
734.950215107686
 21
669.638671875
 31
0.0
  0
LINE
  5
1E5
330
1F
100
AcDbEntity
  8
D-1_ピット
  6
JWW_DASHED3
 62
     2
370
     9
100
AcDbLine
 10
484.9503800675677
 20
669.638671875
 30
0.0
 11
139.5897117820948
 21
669.638671875
 31
0.0
  0
LINE
  5
1E6
330
1F
100
AcDbEntity
  8
D-1_ピット
  6
JWW_DASHED3
 62
     2
370
     9
100
AcDbLine
 10
524.9502645956505
 20
669.638671875
 30
0.0
 11
694.9503305796031
 21
669.638671875
 31
0.0
  0
LINE
  5
1E7
330
1F
100
AcDbEntity
  8
D-4_寸法
  6
Continuous
 62
     7
370
     9
100
AcDbLine
 10
93.85763632284636
 20
-838.2769280510979
 30
0.0
 11
603.4401558540964
 21
-838.2769280510979
 31
0.0
  0
LINE
  5
1E8
330
1F
100
AcDbEntity
  8
D-2_蓋
  6
Continuous
 62
     3
370
     9
100
AcDbLine
 10
189.6487674197635
 20
-427.027117754962
 30
0.0
 11
507.6487773173568
 21
-427.027117754962
 31
0.0
  0
LINE
  5
1E9
330
1F
100
AcDbEntity
  8
D-2_蓋
  6
Continuous
 62
     3
370
     9
100
AcDbLine
 10
134.6488334037164
 20
-665.0269874366553
 30
0.0
 11
171.6487575221709
 21
-665.0269874366553
 31
0.0
  0
LINE
  5
1EA
330
1F
100
AcDbEntity
  8
D-2_蓋
  6
Continuous
 62
     3
370
     9
100
AcDbLine
 10
171.6487575221709
 20
-665.0269874366553
 30
0.0
 11
171.6487575221709
 21
-523.5819718644426
 31
0.0
  0
LINE
  5
1EB
330
1F
100
AcDbEntity
  8
D-2_蓋
  6
Continuous
 62
     3
370
     9
100
AcDbLine
 10
134.6488334037164
 20
-665.0269874366553
 30
0.0
 11
134.6488334037164
 21
-482.0271754909206
 31
0.0
  0
LINE
  5
1EC
330
1F
100
AcDbEntity
  8
D-2_蓋
  6
Continuous
 62
     3
370
     9
100
AcDbLine
 10
205.4319639463685
 20
-493.8216420766469
 30
0.0
 11
348.6488960884714
 21
-512.027027027027
 31
0.0
  0
LINE
  5
1ED
330
1F
100
AcDbEntity
  8
D-2_蓋
  6
Continuous
 62
     3
370
     9
100
AcDbLine
 10
373.6487311285896
 20
-488.2935889991553
 30
0.0
 11
373.6487311285896
 21
-482.0271754909206
 31
0.0
  0
LINE
  5
1EE
330
1F
100
AcDbEntity
  8
D-2_蓋
  6
Continuous
 62
     3
370
     9
100
AcDbLine
 10
491.8655807907516
 20
-493.8216420766469
 30
0.0
 11
348.6488960884714
 21
-512.027027027027
 31
0.0
  0
LINE
  5
1EF
330
1F
100
AcDbEntity
  8
D-2_蓋
  6
Continuous
 62
     3
370
     9
100
AcDbLine
 10
562.6489587732266
 20
-665.0269874366553
 30
0.0
 11
562.6489587732266
 21
-482.0271754909206
 31
0.0
  0
LINE
  5
1F0
330
1F
100
AcDbEntity
  8
D-2_蓋
  6
Continuous
 62
     3
370
     9
100
AcDbLine
 10
525.6487872149495
 20
-665.0269874366553
 30
0.0
 11
525.6487872149495
 21
-523.5819718644426
 31
0.0
  0
LINE
  5
1F1
330
1F
100
AcDbEntity
  8
D-2_蓋
  6
Continuous
 62
     3
370
     9
100
AcDbLine
 10
562.6489587732266
 20
-665.0269874366553
 30
0.0
 11
525.6487872149495
 21
-665.0269874366553
 31
0.0
  0
LINE
  5
1F2
330
1F
100
AcDbEntity
  8
D-2_蓋
  6
Continuous
 62
     3
370
     9
100
AcDbLine
 10
138.1488696948904
 20
-661.5271985853041
 30
0.0
 11
138.1488696948904
 21
-482.0271754909206
 31
0.0
  0
LINE
  5
1F3
330
1F
100
AcDbEntity
  8
D-2_蓋
  6
Continuous
 62
     3
370
     9
100
AcDbLine
 10
138.1488696948904
 20
-661.5271985853041
 30
0.0
 11
168.1489686708193
 21
-661.5271985853041
 31
0.0
  0
LINE
  5
1F4
330
1F
100
AcDbEntity
  8
D-2_蓋
  6
Continuous
 62
     3
370
     9
100
AcDbLine
 10
168.1489686708193
 20
-661.5271985853041
 30
0.0
 11
168.1489686708193
 21
-523.5819718644426
 31
0.0
  0
LINE
  5
1F5
330
1F
100
AcDbEntity
  8
D-2_蓋
  6
Continuous
 62
     3
370
     9
100
AcDbLine
 10
205.8731491501268
 20
-490.3495664854307
 30
0.0
 11
348.6488960884714
 21
-508.4990300358952
 31
0.0
  0
LINE
  5
1F6
330
1F
100
AcDbEntity
  8
D-2_蓋
  6
Continuous
 62
     3
370
     9
100
AcDbLine
 10
491.4243955869932
 20
-490.3495664854307
 30
0.0
 11
348.6488960884714
 21
-508.4990300358952
 31
0.0
  0
LINE
  5
1F7
330
1F
100
AcDbEntity
  8
D-2_蓋
  6
Continuous
 62
     3
370
     9
100
AcDbLine
 10
354.766845703125
 20
-476.3590714738176
 30
0.0
 11
356.1267749683279
 21
-475.9171439505911
 31
0.0
  0
LINE
  5
1F8
330
1F
100
AcDbEntity
  8
D-2_蓋
  6
Continuous
 62
     3
370
     9
100
AcDbLine
 10
356.9302120724242
 20
-483.0164399018159
 30
0.0
 11
358.2898938978042
 21
-482.5747598184121
 31
0.0
  0
LINE
  5
1F9
330
1F
100
AcDbEntity
  8
D-2_蓋
  6
Continuous
 62
     3
370
     9
100
AcDbLine
 10
355.9300603093328
 20
-486.0943438555742
 30
0.0
 11
356.7703659470018
 21
-487.2508775865708
 31
0.0
  0
LINE
  5
1FA
330
1F
100
AcDbEntity
  8
D-2_蓋
  6
Continuous
 62
     3
370
     9
100
AcDbLine
 10
350.2666576488599
 20
-490.2087732263513
 30
0.0
 11
351.1074581661742
 21
-491.3655543971706
 31
0.0
  0
LINE
  5
1FB
330
1F
100
AcDbEntity
  8
D-2_蓋
  6
Continuous
 62
     3
370
     9
100
AcDbLine
 10
352.1489323796453
 20
-474.4570015572212
 30
0.0
 11
352.1489323796453
 21
-473.0270468222128
 31
0.0
  0
LINE
  5
1FC
330
1F
100
AcDbEntity
  8
D-2_蓋
  6
Continuous
 62
     3
370
     9
100
AcDbLine
 10
342.5309464738177
 20
-476.3590714738176
 30
0.0
 11
341.1707697687925
 21
-475.9171439505911
 31
0.0
  0
LINE
  5
1FD
330
1F
100
AcDbEntity
  8
D-2_蓋
  6
Continuous
 62
     3
370
     9
100
AcDbLine
 10
529.1488235061234
 20
-661.5271985853041
 30
0.0
 11
529.1488235061234
 21
-523.5819718644426
 31
0.0
  0
LINE
  5
1FE
330
1F
100
AcDbEntity
  8
D-2_蓋
  6
Continuous
 62
     3
370
     9
100
AcDbLine
 10
559.1489224820526
 20
-661.5271985853041
 30
0.0
 11
529.1488235061234
 21
-661.5271985853041
 31
0.0
  0
LINE
  5
1FF
330
1F
100
AcDbEntity
  8
D-4_寸法
  6
Continuous
 62
     7
370
     9
100
AcDbLine
 10
656.4039075696792
 20
-258.8472191063133
 30
0.0
 11
587.5156711887672
 21
-392.0270022830447
 31
0.0
  0
LINE
  5
200
330
1F
100
AcDbEntity
  8
D-2_蓋
  6
Continuous
 62
     3
370
     9
100
AcDbLine
 10
345.1488597972974
 20
-474.4570015572212
 30
0.0
 11
345.1488597972974
 21
-473.0270468222128
 31
0.0
  0
LINE
  5
201
330
1F
100
AcDbEntity
  8
D-2_蓋
  6
Continuous
 62
     3
370
     9
100
AcDbLine
 10
340.3675801045188
 20
-483.0164399018159
 30
0.0
 11
339.0076508393159
 21
-482.5747598184121
 31
0.0
  0
LINE
  5
202
330
1F
100
AcDbEntity
  8
D-2_蓋
  6
Continuous
 62
     3
370
     9
100
AcDbLine
 10
341.3674844277872
 20
-486.0943438555742
 30
0.0
 11
340.5271787901185
 21
-487.2508775865708
 31
0.0
  0
LINE
  5
203
330
1F
100
AcDbEntity
  8
D-2_蓋
  6
Continuous
 62
     3
370
     9
100
AcDbLine
 10
347.0308870882602
 20
-490.2087732263513
 30
0.0
 11
346.1903340107688
 21
-491.3655543971706
 31
0.0
  0
LINE
  5
204
330
1F
100
AcDbEntity
  8
D-2_蓋
  6
Continuous
 62
     3
370
     9
100
AcDbLine
 10
559.1489224820526
 20
-661.5271985853041
 30
0.0
 11
559.1489224820526
 21
-482.0271754909206
 31
0.0
  0
LINE
  5
205
330
1F
100
AcDbEntity
  8
D-2_蓋
  6
Continuous
 62
     3
370
     9
100
AcDbLine
 10
189.6487674197635
 20
-430.5270303262246
 30
0.0
 11
507.6487773173568
 21
-430.5270303262246
 31
0.0
  0
LINE
  5
206
330
1F
100
AcDbEntity
  8
D-2_蓋
  6
Continuous
 62
     3
370
     9
100
AcDbLine
 10
323.6488136085305
 20
-488.2935889991553
 30
0.0
 11
323.6488136085305
 21
-482.0271754909206
 31
0.0
  0
LINE
  5
207
330
1F
100
AcDbEntity
  8
D-2_蓋
  6
Continuous
 62
     3
370
     9
100
AcDbLine
 10
93.64879711254247
 20
-702.0271589949324
 30
0.0
 11
93.64879711254247
 21
-392.0270022830447
 31
0.0
  0
LINE
  5
208
330
1F
100
AcDbEntity
  8
D-2_蓋
  6
Continuous
 62
     3
370
     9
100
AcDbLine
 10
93.64879711254247
 20
-702.0271589949324
 30
0.0
 11
603.6487476245776
 21
-702.0271589949324
 31
0.0
  0
LINE
  5
209
330
1F
100
AcDbEntity
  8
D-2_蓋
  6
Continuous
 62
     3
370
     9
100
AcDbLine
 10
93.64879711254247
 20
-392.0270022830447
 30
0.0
 11
603.6487476245776
 21
-392.0270022830447
 31
0.0
  0
LINE
  5
20A
330
1F
100
AcDbEntity
  8
D-2_蓋
  6
Continuous
 62
     3
370
     9
100
AcDbLine
 10
603.6487476245776
 20
-702.0271589949324
 30
0.0
 11
603.6487476245776
 21
-392.0270022830447
 31
0.0
  0
LINE
  5
20B
330
1F
100
AcDbEntity
  8
D-4_寸法
  6
Continuous
 62
     7
370
     9
100
AcDbLine
 10
656.4039075696792
 20
-258.8472191063133
 30
0.0
 11
866.2140717377537
 21
-258.8472191063133
 31
0.0
  0
LINE
  5
20C
330
1F
100
AcDbEntity
  8
D-4_寸法
  6
Continuous
 62
     7
370
     9
100
AcDbLine
 10
587.5156711887672
 20
-392.0270022830447
 30
0.0
 11
596.0048366237334
 21
-368.5125484982052
 31
0.0
  0
LINE
  5
20D
330
1F
100
AcDbEntity
  8
D-4_寸法
  6
Continuous
 62
     7
370
     9
100
AcDbLine
 10
587.5156711887672
 20
-392.0270022830447
 30
0.0
 11
601.8016093486068
 21
-371.5109005489865
 31
0.0
  0
LINE
  5
20E
330
1F
100
AcDbEntity
  8
D-4_寸法
  6
Continuous
 62
     7
370
     9
100
AcDbLine
 10
93.64879711254247
 20
-283.2653231234162
 30
0.0
 11
603.6487476245776
 21
-283.2653231234162
 31
0.0
  0
LINE
  5
20F
330
1F
100
AcDbEntity
  8
D-4_寸法
  6
Continuous
 62
     7
370
     9
100
AcDbLine
 10
93.64879711254247
 20
-378.6328372439822
 30
0.0
 11
93.64879711254247
 21
-280.2656101536105
 31
0.0
  0
LINE
  5
210
330
1F
100
AcDbEntity
  8
D-4_寸法
  6
Continuous
 62
     7
370
     9
100
AcDbLine
 10
603.6487476245776
 20
-378.6328372439822
 30
0.0
 11
603.6487476245776
 21
-280.2656101536105
 31
0.0
  0
LINE
  5
211
330
1F
100
AcDbEntity
  8
D-4_寸法
  6
Continuous
 62
     7
370
     9
100
AcDbLine
 10
713.2974985483531
 20
-702.0271589949324
 30
0.0
 11
713.2974985483531
 21
-392.0270022830447
 31
0.0
  0
LINE
  5
212
330
1F
100
AcDbEntity
  8
D-4_寸法
  6
Continuous
 62
     7
370
     9
100
AcDbLine
 10
620.3751847550677
 20
-702.0271589949324
 30
0.0
 11
716.2974589579818
 21
-702.0271589949324
 31
0.0
  0
LINE
  5
213
330
1F
100
AcDbEntity
  8
D-4_寸法
  6
Continuous
 62
     7
370
     9
100
AcDbLine
 10
620.3751847550677
 20
-392.0270022830447
 30
0.0
 11
716.2974589579818
 21
-392.0270022830447
 31
0.0
  0
LINE
  5
214
330
1F
100
AcDbEntity
  8
D-2_蓋
  6
JWW_CENTER1
 62
     3
370
     9
100
AcDbLine
 10
348.6488960884714
 20
-727.0269940350506
 30
0.0
 11
348.6488960884714
 21
-367.0271672429265
 31
0.0
  0
LINE
  5
215
330
1F
100
AcDbEntity
  8
D-2_蓋
  6
JWW_CENTER1
 62
     3
370
     9
100
AcDbLine
 10
68.64896207242424
 20
-547.0271424989443
 30
0.0
 11
628.6488301045188
 21
-547.0271424989443
 31
0.0
  0
LINE
  5
216
330
1F
100
AcDbEntity
  8
C-2_蓋
  6
Continuous
 62
     3
370
     9
100
AcDbLine
 10
-1160.608075116132
 20
495.9559590107688
 30
0.0
 11
-1160.608075116132
 21
494.7026763091216
 31
0.0
  0
LINE
  5
217
330
1F
100
AcDbEntity
  8
C-2_蓋
  6
Continuous
 62
     3
370
     9
100
AcDbLine
 10
-1187.408158585832
 20
484.4027462521115
 30
0.0
 11
-1123.808082374366
 21
484.4027462521115
 31
0.0
  0
LINE
  5
218
330
1F
100
AcDbEntity
  8
C-2_蓋
  6
Continuous
 62
     3
370
     9
100
AcDbLine
 10
-1113.508152317356
 20
530.602730415963
 30
0.0
 11
-1113.508152317356
 21
494.7026763091216
 31
0.0
  0
LINE
  5
219
330
1F
100
AcDbEntity
  8
C-2_蓋
  6
Continuous
 62
     3
370
     9
100
AcDbLine
 10
-1155.931586188239
 20
496.3389958562078
 30
0.0
 11
-1156.099597827808
 21
496.5703520903716
 31
0.0
  0
LINE
  5
21A
330
1F
100
AcDbEntity
  8
C-2_蓋
  6
Continuous
 62
     3
370
     9
100
AcDbLine
 10
-1157.064365696263
 20
495.5160110061234
 30
0.0
 11
-1157.232377335832
 21
495.7473672402872
 31
0.0
  0
LINE
  5
21B
330
1F
100
AcDbEntity
  8
C-2_蓋
  6
Continuous
 62
     3
370
     9
100
AcDbLine
 10
-1157.264297072952
 20
494.90062816723
 30
0.0
 11
-1157.536357157939
 21
494.812292150549
 31
0.0
  0
LINE
  5
21C
330
1F
100
AcDbEntity
  8
C-2_蓋
  6
Continuous
 62
     3
370
     9
100
AcDbLine
 10
-1156.30818959829
 20
493.1885920344175
 30
0.0
 11
-1156.30818959829
 21
492.902551599451
 31
0.0
  0
LINE
  5
21D
330
1F
100
AcDbEntity
  8
C-2_蓋
  6
Continuous
 62
     3
370
     9
100
AcDbLine
 10
-1113.508152317356
 20
530.602730415963
 30
0.0
 11
-1119.508073136613
 21
530.602730415963
 31
0.0
  0
LINE
  5
21E
330
1F
100
AcDbEntity
  8
C-2_蓋
  6
Continuous
 62
     3
370
     9
100
AcDbLine
 10
-1119.508073136613
 20
530.602730415963
 30
0.0
 11
-1119.508073136613
 21
503.0136850717906
 31
0.0
  0
LINE
  5
21F
330
1F
100
AcDbEntity
  8
C-2_蓋
  6
Continuous
 62
     3
370
     9
100
AcDbLine
 10
-1156.831648543074
 20
493.5691544816302
 30
0.0
 11
-1157.10358490815
 21
493.4805710251268
 31
0.0
  0
LINE
  5
220
330
1F
100
AcDbEntity
  8
C-2_蓋
  6
Continuous
 62
     3
370
     9
100
AcDbLine
 10
-1154.908051361909
 20
493.1885920344175
 30
0.0
 11
-1154.908051361909
 21
492.902551599451
 31
0.0
  0
LINE
  5
221
330
1F
100
AcDbEntity
  8
C-2_蓋
  6
Continuous
 62
     3
370
     9
100
AcDbLine
 10
-1155.284407332137
 20
496.3389958562078
 30
0.0
 11
-1155.116271972656
 21
496.5703520903716
 31
0.0
  0
LINE
  5
222
330
1F
100
AcDbEntity
  8
C-2_蓋
  6
Continuous
 62
     3
370
     9
100
AcDbLine
 10
-1154.151875263936
 20
495.5160110061234
 30
0.0
 11
-1153.983739904455
 21
495.7473672402872
 31
0.0
  0
LINE
  5
223
330
1F
100
AcDbEntity
  8
C-2_蓋
  6
Continuous
 62
     3
370
     9
100
AcDbLine
 10
-1153.951820167335
 20
494.90062816723
 30
0.0
 11
-1153.680007522171
 21
494.812292150549
 31
0.0
  0
LINE
  5
224
330
1F
100
AcDbEntity
  8
C-2_蓋
  6
Continuous
 62
     3
370
     9
100
AcDbLine
 10
-1154.384468697213
 20
493.5691544816302
 30
0.0
 11
-1154.112532332137
 21
493.4805710251268
 31
0.0
  0
LINE
  5
225
330
1F
100
AcDbEntity
  8
C-2_蓋
  6
Continuous
 62
     3
370
     9
100
AcDbLine
 10
-1127.053008208404
 20
496.3672039959883
 30
0.0
 11
-1155.608058620144
 21
499.9971461940459
 31
0.0
  0
LINE
  5
226
330
1F
100
AcDbEntity
  8
C-2_蓋
  6
Continuous
 62
     3
370
     9
100
AcDbLine
 10
-1184.162985311972
 20
496.3672039959883
 30
0.0
 11
-1155.608058620144
 21
499.9971461940459
 31
0.0
  0
LINE
  5
227
330
1F
100
AcDbEntity
  8
C-2_蓋
  6
Continuous
 62
     3
370
     9
100
AcDbLine
 10
-1191.708167823585
 20
530.602730415963
 30
0.0
 11
-1191.708167823585
 21
503.0136850717906
 31
0.0
  0
LINE
  5
228
330
1F
100
AcDbEntity
  8
C-2_蓋
  6
Continuous
 62
     3
370
     9
100
AcDbLine
 10
-1197.708088642842
 20
530.602730415963
 30
0.0
 11
-1191.708167823585
 21
530.602730415963
 31
0.0
  0
LINE
  5
229
330
1F
100
AcDbEntity
  8
C-2_蓋
  6
Continuous
 62
     3
370
     9
100
AcDbLine
 10
-1197.708088642842
 20
530.602730415963
 30
0.0
 11
-1197.708088642842
 21
494.7026763091216
 31
0.0
  0
LINE
  5
22A
330
1F
100
AcDbEntity
  8
C-2_蓋
  6
Continuous
 62
     3
370
     9
100
AcDbLine
 10
-1112.808145059122
 20
531.302490234375
 30
0.0
 11
-1120.208080394848
 21
531.302490234375
 31
0.0
  0
LINE
  5
22B
330
1F
100
AcDbEntity
  8
C-2_蓋
  6
Continuous
 62
     3
370
     9
100
AcDbLine
 10
-1120.208080394848
 20
531.302490234375
 30
0.0
 11
-1120.208080394848
 21
503.0136850717906
 31
0.0
  0
LINE
  5
22C
330
1F
100
AcDbEntity
  8
C-2_蓋
  6
Continuous
 62
     3
370
     9
100
AcDbLine
 10
-1112.808145059122
 20
531.302490234375
 30
0.0
 11
-1112.808145059122
 21
494.7026763091216
 31
0.0
  0
LINE
  5
22D
330
1F
100
AcDbEntity
  8
C-2_蓋
  6
Continuous
 62
     3
370
     9
100
AcDbLine
 10
-1126.964672191723
 20
497.0613964183912
 30
0.0
 11
-1155.608058620144
 21
500.702844568201
 31
0.0
  0
LINE
  5
22E
330
1F
100
AcDbEntity
  8
C-2_蓋
  6
Continuous
 62
     3
370
     9
100
AcDbLine
 10
-1150.608042124155
 20
495.9559590107688
 30
0.0
 11
-1150.608042124155
 21
494.7026763091216
 31
0.0
  0
LINE
  5
22F
330
1F
100
AcDbEntity
  8
C-2_蓋
  6
Continuous
 62
     3
370
     9
100
AcDbLine
 10
-1184.251321328653
 20
497.0613964183912
 30
0.0
 11
-1155.608058620144
 21
500.702844568201
 31
0.0
  0
LINE
  5
230
330
1F
100
AcDbEntity
  8
C-2_蓋
  6
Continuous
 62
     3
370
     9
100
AcDbLine
 10
-1198.407972181165
 20
531.302490234375
 30
0.0
 11
-1198.407972181165
 21
494.7026763091216
 31
0.0
  0
LINE
  5
231
330
1F
100
AcDbEntity
  8
C-2_蓋
  6
Continuous
 62
     3
370
     9
100
AcDbLine
 10
-1191.008036845439
 20
531.302490234375
 30
0.0
 11
-1191.008036845439
 21
503.0136850717906
 31
0.0
  0
LINE
  5
232
330
1F
100
AcDbEntity
  8
C-2_蓋
  6
Continuous
 62
     3
370
     9
100
AcDbLine
 10
-1198.407972181165
 20
531.302490234375
 30
0.0
 11
-1191.008036845439
 21
531.302490234375
 31
0.0
  0
LINE
  5
233
330
1F
100
AcDbEntity
  8
C-2_蓋
  6
Continuous
 62
     3
370
     9
100
AcDbLine
 10
-1187.408158585832
 20
483.7027389938768
 30
0.0
 11
-1123.808082374366
 21
483.7027389938768
 31
0.0
  0
LINE
  5
234
330
1F
100
AcDbEntity
  8
C-2_蓋
  6
Continuous
 62
     3
370
     9
100
AcDbLine
 10
-1206.608251623205
 20
538.7026730099242
 30
0.0
 11
-1104.608236776816
 21
538.7026730099242
 31
0.0
  0
LINE
  5
235
330
1F
100
AcDbEntity
  8
C-2_蓋
  6
Continuous
 62
     3
370
     9
100
AcDbLine
 10
-1206.608251623205
 20
538.7026730099242
 30
0.0
 11
-1206.608251623205
 21
476.7026664115289
 31
0.0
  0
LINE
  5
236
330
1F
100
AcDbEntity
  8
C-2_蓋
  6
Continuous
 62
     3
370
     9
100
AcDbLine
 10
-1104.608236776816
 20
538.7026730099242
 30
0.0
 11
-1104.608236776816
 21
476.7026664115289
 31
0.0
  0
LINE
  5
237
330
1F
100
AcDbEntity
  8
C-2_蓋
  6
Continuous
 62
     3
370
     9
100
AcDbLine
 10
-1206.608251623205
 20
476.7026664115289
 30
0.0
 11
-1104.608236776816
 21
476.7026664115289
 31
0.0
  0
LINE
  5
238
330
1F
100
AcDbEntity
  8
C-2_蓋
  6
Continuous
 62
     3
370
     9
100
AcDbLine
 10
-665.6081740920606
 20
495.9559590107688
 30
0.0
 11
-665.6081740920606
 21
494.7026763091216
 31
0.0
  0
LINE
  5
239
330
1F
100
AcDbEntity
  8
C-2_蓋
  6
Continuous
 62
     3
370
     9
100
AcDbLine
 10
-692.4082575617609
 20
484.4027462521115
 30
0.0
 11
-628.8081813502956
 21
484.4027462521115
 31
0.0
  0
LINE
  5
23A
330
1F
100
AcDbEntity
  8
C-2_蓋
  6
Continuous
 62
     3
370
     9
100
AcDbLine
 10
-618.5082512932854
 20
530.602730415963
 30
0.0
 11
-618.5082512932854
 21
494.7026763091216
 31
0.0
  0
LINE
  5
23B
330
1F
100
AcDbEntity
  8
C-2_蓋
  6
Continuous
 62
     3
370
     9
100
AcDbLine
 10
-660.9316851641679
 20
496.3389958562078
 30
0.0
 11
-661.0996968037373
 21
496.5703520903716
 31
0.0
  0
LINE
  5
23C
330
1F
100
AcDbEntity
  8
C-2_蓋
  6
Continuous
 62
     3
370
     9
100
AcDbLine
 10
-662.0644646721917
 20
495.5160110061234
 30
0.0
 11
-662.2324763117609
 21
495.7473672402872
 31
0.0
  0
LINE
  5
23D
330
1F
100
AcDbEntity
  8
C-2_蓋
  6
Continuous
 62
     3
370
     9
100
AcDbLine
 10
-662.2643960488807
 20
494.90062816723
 30
0.0
 11
-662.5364561338682
 21
494.812292150549
 31
0.0
  0
LINE
  5
23E
330
1F
100
AcDbEntity
  8
C-2_蓋
  6
Continuous
 62
     3
370
     9
100
AcDbLine
 10
-661.3082885742188
 20
493.1885920344175
 30
0.0
 11
-661.3082885742188
 21
492.902551599451
 31
0.0
  0
LINE
  5
23F
330
1F
100
AcDbEntity
  8
C-2_蓋
  6
Continuous
 62
     3
370
     9
100
AcDbLine
 10
-618.5082512932854
 20
530.602730415963
 30
0.0
 11
-624.5081721125422
 21
530.602730415963
 31
0.0
  0
LINE
  5
240
330
1F
100
AcDbEntity
  8
C-2_蓋
  6
Continuous
 62
     3
370
     9
100
AcDbLine
 10
-624.5081721125422
 20
530.602730415963
 30
0.0
 11
-624.5081721125422
 21
503.0136850717906
 31
0.0
  0
LINE
  5
241
330
1F
100
AcDbEntity
  8
C-2_蓋
  6
Continuous
 62
     3
370
     9
100
AcDbLine
 10
-661.8317475190033
 20
493.5691544816302
 30
0.0
 11
-662.1036838840794
 21
493.4805710251268
 31
0.0
  0
LINE
  5
242
330
1F
100
AcDbEntity
  8
C-2_蓋
  6
Continuous
 62
     3
370
     9
100
AcDbLine
 10
-659.9081503378377
 20
493.1885920344175
 30
0.0
 11
-659.9081503378377
 21
492.902551599451
 31
0.0
  0
LINE
  5
243
330
1F
100
AcDbEntity
  8
C-2_蓋
  6
Continuous
 62
     3
370
     9
100
AcDbLine
 10
-660.2845063080658
 20
496.3389958562078
 30
0.0
 11
-660.1163709485852
 21
496.5703520903716
 31
0.0
  0
LINE
  5
244
330
1F
100
AcDbEntity
  8
C-2_蓋
  6
Continuous
 62
     3
370
     9
100
AcDbLine
 10
-659.1519742398648
 20
495.5160110061234
 30
0.0
 11
-658.9838388803842
 21
495.7473672402872
 31
0.0
  0
LINE
  5
245
330
1F
100
AcDbEntity
  8
C-2_蓋
  6
Continuous
 62
     3
370
     9
100
AcDbLine
 10
-658.9519191432644
 20
494.90062816723
 30
0.0
 11
-658.6801064980995
 21
494.812292150549
 31
0.0
  0
LINE
  5
246
330
1F
100
AcDbEntity
  8
C-2_蓋
  6
Continuous
 62
     3
370
     9
100
AcDbLine
 10
-659.3845676731419
 20
493.5691544816302
 30
0.0
 11
-659.1126313080658
 21
493.4805710251268
 31
0.0
  0
LINE
  5
247
330
1F
100
AcDbEntity
  8
C-2_蓋
  6
Continuous
 62
     3
370
     9
100
AcDbLine
 10
-632.0531071843328
 20
496.3672039959883
 30
0.0
 11
-660.6081575960727
 21
499.9971461940459
 31
0.0
  0
LINE
  5
248
330
1F
100
AcDbEntity
  8
C-2_蓋
  6
Continuous
 62
     3
370
     9
100
AcDbLine
 10
-689.163084287901
 20
496.3672039959883
 30
0.0
 11
-660.6081575960727
 21
499.9971461940459
 31
0.0
  0
LINE
  5
249
330
1F
100
AcDbEntity
  8
C-2_蓋
  6
Continuous
 62
     3
370
     9
100
AcDbLine
 10
-696.7082667995144
 20
530.602730415963
 30
0.0
 11
-696.7082667995144
 21
503.0136850717906
 31
0.0
  0
LINE
  5
24A
330
1F
100
AcDbEntity
  8
C-2_蓋
  6
Continuous
 62
     3
370
     9
100
AcDbLine
 10
-702.7083113386823
 20
530.602730415963
 30
0.0
 11
-696.7082667995144
 21
530.602730415963
 31
0.0
  0
LINE
  5
24B
330
1F
100
AcDbEntity
  8
C-2_蓋
  6
Continuous
 62
     3
370
     9
100
AcDbLine
 10
-702.7083113386823
 20
530.602730415963
 30
0.0
 11
-702.7083113386823
 21
494.7026763091216
 31
0.0
  0
LINE
  5
24C
330
1F
100
AcDbEntity
  8
C-2_蓋
  6
Continuous
 62
     3
370
     9
100
AcDbLine
 10
-617.8082440350505
 20
531.302490234375
 30
0.0
 11
-625.2081793707769
 21
531.302490234375
 31
0.0
  0
LINE
  5
24D
330
1F
100
AcDbEntity
  8
C-2_蓋
  6
Continuous
 62
     3
370
     9
100
AcDbLine
 10
-625.2081793707769
 20
531.302490234375
 30
0.0
 11
-625.2081793707769
 21
503.0136850717906
 31
0.0
  0
LINE
  5
24E
330
1F
100
AcDbEntity
  8
C-2_蓋
  6
Continuous
 62
     3
370
     9
100
AcDbLine
 10
-617.8082440350505
 20
531.302490234375
 30
0.0
 11
-617.8082440350505
 21
494.7026763091216
 31
0.0
  0
LINE
  5
24F
330
1F
100
AcDbEntity
  8
C-2_蓋
  6
Continuous
 62
     3
370
     9
100
AcDbLine
 10
-631.9647711676519
 20
497.0613964183912
 30
0.0
 11
-660.6081575960727
 21
500.702844568201
 31
0.0
  0
LINE
  5
250
330
1F
100
AcDbEntity
  8
C-2_蓋
  6
Continuous
 62
     3
370
     9
100
AcDbLine
 10
-655.6081411000844
 20
495.9559590107688
 30
0.0
 11
-655.6081411000844
 21
494.7026763091216
 31
0.0
  0
LINE
  5
251
330
1F
100
AcDbEntity
  8
C-2_蓋
  6
Continuous
 62
     3
370
     9
100
AcDbLine
 10
-689.2514203045818
 20
497.0613964183912
 30
0.0
 11
-660.6081575960727
 21
500.702844568201
 31
0.0
  0
LINE
  5
252
330
1F
100
AcDbEntity
  8
C-2_蓋
  6
Continuous
 62
     3
370
     9
100
AcDbLine
 10
-703.4080711570946
 20
531.302490234375
 30
0.0
 11
-703.4080711570946
 21
494.7026763091216
 31
0.0
  0
LINE
  5
253
330
1F
100
AcDbEntity
  8
C-2_蓋
  6
Continuous
 62
     3
370
     9
100
AcDbLine
 10
-696.0081358213682
 20
531.302490234375
 30
0.0
 11
-696.0081358213682
 21
503.0136850717906
 31
0.0
  0
LINE
  5
254
330
1F
100
AcDbEntity
  8
C-2_蓋
  6
Continuous
 62
     3
370
     9
100
AcDbLine
 10
-703.4080711570946
 20
531.302490234375
 30
0.0
 11
-696.0081358213682
 21
531.302490234375
 31
0.0
  0
LINE
  5
255
330
1F
100
AcDbEntity
  8
C-2_蓋
  6
Continuous
 62
     3
370
     9
100
AcDbLine
 10
-692.4082575617609
 20
483.7027389938768
 30
0.0
 11
-628.8081813502956
 21
483.7027389938768
 31
0.0
  0
LINE
  5
256
330
1F
100
AcDbEntity
  8
C-2_蓋
  6
Continuous
 62
     3
370
     9
100
AcDbLine
 10
-711.6083505991342
 20
538.7026730099242
 30
0.0
 11
-609.6083357527448
 21
538.7026730099242
 31
0.0
  0
LINE
  5
257
330
1F
100
AcDbEntity
  8
C-2_蓋
  6
Continuous
 62
     3
370
     9
100
AcDbLine
 10
-711.6083505991342
 20
538.7026730099242
 30
0.0
 11
-711.6083505991342
 21
476.7026664115289
 31
0.0
  0
LINE
  5
258
330
1F
100
AcDbEntity
  8
C-2_蓋
  6
Continuous
 62
     3
370
     9
100
AcDbLine
 10
-609.6083357527448
 20
538.7026730099242
 30
0.0
 11
-609.6083357527448
 21
476.7026664115289
 31
0.0
  0
LINE
  5
259
330
1F
100
AcDbEntity
  8
C-2_蓋
  6
Continuous
 62
     3
370
     9
100
AcDbLine
 10
-711.6083505991342
 20
476.7026664115289
 30
0.0
 11
-609.6083357527448
 21
476.7026664115289
 31
0.0
  0
LINE
  5
25A
330
1F
100
AcDbEntity
  8
C-2_蓋
  6
Continuous
 62
     3
370
     9
100
AcDbLine
 10
-1160.608075116132
 20
-260.5507185652449
 30
0.0
 11
-1160.608075116132
 21
-259.2974358635979
 31
0.0
  0
LINE
  5
25B
330
1F
100
AcDbEntity
  8
C-2_蓋
  6
Continuous
 62
     3
370
     9
100
AcDbLine
 10
-1187.408158585832
 20
-248.9975058065878
 30
0.0
 11
-1123.808082374366
 21
-248.9975058065878
 31
0.0
  0
LINE
  5
25C
330
1F
100
AcDbEntity
  8
C-2_蓋
  6
Continuous
 62
     3
370
     9
100
AcDbLine
 10
-1113.508152317356
 20
-295.1974899704392
 30
0.0
 11
-1113.508152317356
 21
-259.2974358635979
 31
0.0
  0
LINE
  5
25D
330
1F
100
AcDbEntity
  8
C-2_蓋
  6
Continuous
 62
     3
370
     9
100
AcDbLine
 10
-1155.931586188239
 20
-260.9337554106841
 30
0.0
 11
-1156.099597827808
 21
-261.1651116448479
 31
0.0
  0
LINE
  5
25E
330
1F
100
AcDbEntity
  8
C-2_蓋
  6
Continuous
 62
     3
370
     9
100
AcDbLine
 10
-1157.064365696263
 20
-260.1107705605996
 30
0.0
 11
-1157.232377335832
 21
-260.3422505146747
 31
0.0
  0
LINE
  5
25F
330
1F
100
AcDbEntity
  8
C-2_蓋
  6
Continuous
 62
     3
370
     9
100
AcDbLine
 10
-1157.264297072952
 20
-259.495387721706
 30
0.0
 11
-1157.536357157939
 21
-259.4070517050253
 31
0.0
  0
LINE
  5
260
330
1F
100
AcDbEntity
  8
C-2_蓋
  6
Continuous
 62
     3
370
     9
100
AcDbLine
 10
-1156.30818959829
 20
-257.7833515888935
 30
0.0
 11
-1156.30818959829
 21
-257.4973111539273
 31
0.0
  0
LINE
  5
261
330
1F
100
AcDbEntity
  8
C-2_蓋
  6
Continuous
 62
     3
370
     9
100
AcDbLine
 10
-1113.508152317356
 20
-295.1974899704392
 30
0.0
 11
-1119.508073136613
 21
-295.1974899704392
 31
0.0
  0
LINE
  5
262
330
1F
100
AcDbEntity
  8
C-2_蓋
  6
Continuous
 62
     3
370
     9
100
AcDbLine
 10
-1119.508073136613
 20
-295.1974899704392
 30
0.0
 11
-1119.508073136613
 21
-267.6084446262668
 31
0.0
  0
LINE
  5
263
330
1F
100
AcDbEntity
  8
C-2_蓋
  6
Continuous
 62
     3
370
     9
100
AcDbLine
 10
-1156.831648543074
 20
-258.1639140361063
 30
0.0
 11
-1157.10358490815
 21
-258.075330579603
 31
0.0
  0
LINE
  5
264
330
1F
100
AcDbEntity
  8
C-2_蓋
  6
Continuous
 62
     3
370
     9
100
AcDbLine
 10
-1154.908051361909
 20
-257.7833515888935
 30
0.0
 11
-1154.908051361909
 21
-257.4973111539273
 31
0.0
  0
LINE
  5
265
330
1F
100
AcDbEntity
  8
C-2_蓋
  6
Continuous
 62
     3
370
     9
100
AcDbLine
 10
-1155.284407332137
 20
-260.9337554106841
 30
0.0
 11
-1155.116271972656
 21
-261.1651116448479
 31
0.0
  0
LINE
  5
266
330
1F
100
AcDbEntity
  8
C-2_蓋
  6
Continuous
 62
     3
370
     9
100
AcDbLine
 10
-1154.151875263936
 20
-260.1107705605996
 30
0.0
 11
-1153.983739904455
 21
-260.3422505146747
 31
0.0
  0
LINE
  5
267
330
1F
100
AcDbEntity
  8
C-2_蓋
  6
Continuous
 62
     3
370
     9
100
AcDbLine
 10
-1153.951820167335
 20
-259.495387721706
 30
0.0
 11
-1153.680007522171
 21
-259.4070517050253
 31
0.0
  0
LINE
  5
268
330
1F
100
AcDbEntity
  8
C-2_蓋
  6
Continuous
 62
     3
370
     9
100
AcDbLine
 10
-1154.384468697213
 20
-258.1639140361063
 30
0.0
 11
-1154.112532332137
 21
-258.075330579603
 31
0.0
  0
LINE
  5
269
330
1F
100
AcDbEntity
  8
C-2_蓋
  6
Continuous
 62
     3
370
     9
100
AcDbLine
 10
-1127.053008208404
 20
-260.9619635504645
 30
0.0
 11
-1155.608058620144
 21
-264.5919057485219
 31
0.0
  0
LINE
  5
26A
330
1F
100
AcDbEntity
  8
C-2_蓋
  6
Continuous
 62
     3
370
     9
100
AcDbLine
 10
-1184.162985311972
 20
-260.9619635504645
 30
0.0
 11
-1155.608058620144
 21
-264.5919057485219
 31
0.0
  0
LINE
  5
26B
330
1F
100
AcDbEntity
  8
C-2_蓋
  6
Continuous
 62
     3
370
     9
100
AcDbLine
 10
-1191.708167823585
 20
-295.1974899704392
 30
0.0
 11
-1191.708167823585
 21
-267.6084446262668
 31
0.0
  0
LINE
  5
26C
330
1F
100
AcDbEntity
  8
C-2_蓋
  6
Continuous
 62
     3
370
     9
100
AcDbLine
 10
-1197.708088642842
 20
-295.1974899704392
 30
0.0
 11
-1191.708167823585
 21
-295.1974899704392
 31
0.0
  0
LINE
  5
26D
330
1F
100
AcDbEntity
  8
C-2_蓋
  6
Continuous
 62
     3
370
     9
100
AcDbLine
 10
-1197.708088642842
 20
-295.1974899704392
 30
0.0
 11
-1197.708088642842
 21
-259.2974358635979
 31
0.0
  0
LINE
  5
26E
330
1F
100
AcDbEntity
  8
C-2_蓋
  6
Continuous
 62
     3
370
     9
100
AcDbLine
 10
-1112.808145059122
 20
-295.8972497888513
 30
0.0
 11
-1120.208080394848
 21
-295.8972497888513
 31
0.0
  0
LINE
  5
26F
330
1F
100
AcDbEntity
  8
C-2_蓋
  6
Continuous
 62
     3
370
     9
100
AcDbLine
 10
-1120.208080394848
 20
-295.8972497888513
 30
0.0
 11
-1120.208080394848
 21
-267.6084446262668
 31
0.0
  0
LINE
  5
270
330
1F
100
AcDbEntity
  8
C-2_蓋
  6
Continuous
 62
     3
370
     9
100
AcDbLine
 10
-1112.808145059122
 20
-295.8972497888513
 30
0.0
 11
-1112.808145059122
 21
-259.2974358635979
 31
0.0
  0
LINE
  5
271
330
1F
100
AcDbEntity
  8
C-2_蓋
  6
Continuous
 62
     3
370
     9
100
AcDbLine
 10
-1126.964672191723
 20
-261.6562796927786
 30
0.0
 11
-1155.608058620144
 21
-265.2976041226773
 31
0.0
  0
LINE
  5
272
330
1F
100
AcDbEntity
  8
C-2_蓋
  6
Continuous
 62
     3
370
     9
100
AcDbLine
 10
-1150.608042124155
 20
-260.5507185652449
 30
0.0
 11
-1150.608042124155
 21
-259.2974358635979
 31
0.0
  0
LINE
  5
273
330
1F
100
AcDbEntity
  8
C-2_蓋
  6
Continuous
 62
     3
370
     9
100
AcDbLine
 10
-1184.251321328653
 20
-261.6562796927786
 30
0.0
 11
-1155.608058620144
 21
-265.2976041226773
 31
0.0
  0
LINE
  5
274
330
1F
100
AcDbEntity
  8
C-2_蓋
  6
Continuous
 62
     3
370
     9
100
AcDbLine
 10
-1198.407972181165
 20
-295.8972497888513
 30
0.0
 11
-1198.407972181165
 21
-259.2974358635979
 31
0.0
  0
LINE
  5
275
330
1F
100
AcDbEntity
  8
C-2_蓋
  6
Continuous
 62
     3
370
     9
100
AcDbLine
 10
-1191.008036845439
 20
-295.8972497888513
 30
0.0
 11
-1191.008036845439
 21
-267.6084446262668
 31
0.0
  0
LINE
  5
276
330
1F
100
AcDbEntity
  8
C-2_蓋
  6
Continuous
 62
     3
370
     9
100
AcDbLine
 10
-1198.407972181165
 20
-295.8972497888513
 30
0.0
 11
-1191.008036845439
 21
-295.8972497888513
 31
0.0
  0
LINE
  5
277
330
1F
100
AcDbEntity
  8
C-2_蓋
  6
Continuous
 62
     3
370
     9
100
AcDbLine
 10
-1187.408158585832
 20
-248.297498548353
 30
0.0
 11
-1123.808082374366
 21
-248.297498548353
 31
0.0
  0
LINE
  5
278
330
1F
100
AcDbEntity
  8
C-2_蓋
  6
Continuous
 62
     3
370
     9
100
AcDbLine
 10
-1206.608251623205
 20
-303.2974325644003
 30
0.0
 11
-1104.608236776816
 21
-303.2974325644003
 31
0.0
  0
LINE
  5
279
330
1F
100
AcDbEntity
  8
C-2_蓋
  6
Continuous
 62
     3
370
     9
100
AcDbLine
 10
-1206.608251623205
 20
-303.2974325644003
 30
0.0
 11
-1206.608251623205
 21
-241.2974259660049
 31
0.0
  0
LINE
  5
27A
330
1F
100
AcDbEntity
  8
C-2_蓋
  6
Continuous
 62
     3
370
     9
100
AcDbLine
 10
-1104.608236776816
 20
-303.2974325644003
 30
0.0
 11
-1104.608236776816
 21
-241.2974259660049
 31
0.0
  0
LINE
  5
27B
330
1F
100
AcDbEntity
  8
C-2_蓋
  6
Continuous
 62
     3
370
     9
100
AcDbLine
 10
-1206.608251623205
 20
-241.2974259660049
 30
0.0
 11
-1104.608236776816
 21
-241.2974259660049
 31
0.0
  0
LINE
  5
27C
330
1F
100
AcDbEntity
  8
C-2_蓋
  6
Continuous
 62
     3
370
     9
100
AcDbLine
 10
-665.6081740920606
 20
-260.5507185652449
 30
0.0
 11
-665.6081740920606
 21
-259.2974358635979
 31
0.0
  0
LINE
  5
27D
330
1F
100
AcDbEntity
  8
C-2_蓋
  6
Continuous
 62
     3
370
     9
100
AcDbLine
 10
-692.4082575617609
 20
-248.9975058065878
 30
0.0
 11
-628.8081813502956
 21
-248.9975058065878
 31
0.0
  0
LINE
  5
27E
330
1F
100
AcDbEntity
  8
C-2_蓋
  6
Continuous
 62
     3
370
     9
100
AcDbLine
 10
-618.5082512932854
 20
-295.1974899704392
 30
0.0
 11
-618.5082512932854
 21
-259.2974358635979
 31
0.0
  0
LINE
  5
27F
330
1F
100
AcDbEntity
  8
C-2_蓋
  6
Continuous
 62
     3
370
     9
100
AcDbLine
 10
-660.9316851641679
 20
-260.9337554106841
 30
0.0
 11
-661.0996968037373
 21
-261.1651116448479
 31
0.0
  0
LINE
  5
280
330
1F
100
AcDbEntity
  8
C-2_蓋
  6
Continuous
 62
     3
370
     9
100
AcDbLine
 10
-662.0644646721917
 20
-260.1107705605996
 30
0.0
 11
-662.2324763117609
 21
-260.3422505146747
 31
0.0
  0
LINE
  5
281
330
1F
100
AcDbEntity
  8
C-2_蓋
  6
Continuous
 62
     3
370
     9
100
AcDbLine
 10
-662.2643960488807
 20
-259.495387721706
 30
0.0
 11
-662.5364561338682
 21
-259.4070517050253
 31
0.0
  0
LINE
  5
282
330
1F
100
AcDbEntity
  8
C-2_蓋
  6
Continuous
 62
     3
370
     9
100
AcDbLine
 10
-661.3082885742188
 20
-257.7833515888935
 30
0.0
 11
-661.3082885742188
 21
-257.4973111539273
 31
0.0
  0
LINE
  5
283
330
1F
100
AcDbEntity
  8
C-2_蓋
  6
Continuous
 62
     3
370
     9
100
AcDbLine
 10
-618.5082512932854
 20
-295.1974899704392
 30
0.0
 11
-624.5081721125422
 21
-295.1974899704392
 31
0.0
  0
LINE
  5
284
330
1F
100
AcDbEntity
  8
C-2_蓋
  6
Continuous
 62
     3
370
     9
100
AcDbLine
 10
-624.5081721125422
 20
-295.1974899704392
 30
0.0
 11
-624.5081721125422
 21
-267.6084446262668
 31
0.0
  0
LINE
  5
285
330
1F
100
AcDbEntity
  8
C-2_蓋
  6
Continuous
 62
     3
370
     9
100
AcDbLine
 10
-661.8317475190033
 20
-258.1639140361063
 30
0.0
 11
-662.1036838840794
 21
-258.075330579603
 31
0.0
  0
LINE
  5
286
330
1F
100
AcDbEntity
  8
C-2_蓋
  6
Continuous
 62
     3
370
     9
100
AcDbLine
 10
-659.9081503378377
 20
-257.7833515888935
 30
0.0
 11
-659.9081503378377
 21
-257.4973111539273
 31
0.0
  0
LINE
  5
287
330
1F
100
AcDbEntity
  8
C-2_蓋
  6
Continuous
 62
     3
370
     9
100
AcDbLine
 10
-660.2845063080658
 20
-260.9337554106841
 30
0.0
 11
-660.1163709485852
 21
-261.1651116448479
 31
0.0
  0
LINE
  5
288
330
1F
100
AcDbEntity
  8
C-2_蓋
  6
Continuous
 62
     3
370
     9
100
AcDbLine
 10
-659.1519742398648
 20
-260.1107705605996
 30
0.0
 11
-658.9838388803842
 21
-260.3422505146747
 31
0.0
  0
LINE
  5
289
330
1F
100
AcDbEntity
  8
C-2_蓋
  6
Continuous
 62
     3
370
     9
100
AcDbLine
 10
-658.9519191432644
 20
-259.495387721706
 30
0.0
 11
-658.6801064980995
 21
-259.4070517050253
 31
0.0
  0
LINE
  5
28A
330
1F
100
AcDbEntity
  8
C-2_蓋
  6
Continuous
 62
     3
370
     9
100
AcDbLine
 10
-659.3845676731419
 20
-258.1639140361063
 30
0.0
 11
-659.1126313080658
 21
-258.075330579603
 31
0.0
  0
LINE
  5
28B
330
1F
100
AcDbEntity
  8
C-2_蓋
  6
Continuous
 62
     3
370
     9
100
AcDbLine
 10
-632.0531071843328
 20
-260.9619635504645
 30
0.0
 11
-660.6081575960727
 21
-264.5919057485219
 31
0.0
  0
LINE
  5
28C
330
1F
100
AcDbEntity
  8
C-2_蓋
  6
Continuous
 62
     3
370
     9
100
AcDbLine
 10
-689.163084287901
 20
-260.9619635504645
 30
0.0
 11
-660.6081575960727
 21
-264.5919057485219
 31
0.0
  0
LINE
  5
28D
330
1F
100
AcDbEntity
  8
C-2_蓋
  6
Continuous
 62
     3
370
     9
100
AcDbLine
 10
-696.7082667995144
 20
-295.1974899704392
 30
0.0
 11
-696.7082667995144
 21
-267.6084446262668
 31
0.0
  0
LINE
  5
28E
330
1F
100
AcDbEntity
  8
C-2_蓋
  6
Continuous
 62
     3
370
     9
100
AcDbLine
 10
-702.7083113386823
 20
-295.1974899704392
 30
0.0
 11
-696.7082667995144
 21
-295.1974899704392
 31
0.0
  0
LINE
  5
28F
330
1F
100
AcDbEntity
  8
C-2_蓋
  6
Continuous
 62
     3
370
     9
100
AcDbLine
 10
-702.7083113386823
 20
-295.1974899704392
 30
0.0
 11
-702.7083113386823
 21
-259.2974358635979
 31
0.0
  0
LINE
  5
290
330
1F
100
AcDbEntity
  8
C-2_蓋
  6
Continuous
 62
     3
370
     9
100
AcDbLine
 10
-617.8082440350505
 20
-295.8972497888513
 30
0.0
 11
-625.2081793707769
 21
-295.8972497888513
 31
0.0
  0
LINE
  5
291
330
1F
100
AcDbEntity
  8
C-2_蓋
  6
Continuous
 62
     3
370
     9
100
AcDbLine
 10
-625.2081793707769
 20
-295.8972497888513
 30
0.0
 11
-625.2081793707769
 21
-267.6084446262668
 31
0.0
  0
LINE
  5
292
330
1F
100
AcDbEntity
  8
C-2_蓋
  6
Continuous
 62
     3
370
     9
100
AcDbLine
 10
-617.8082440350505
 20
-295.8972497888513
 30
0.0
 11
-617.8082440350505
 21
-259.2974358635979
 31
0.0
  0
LINE
  5
293
330
1F
100
AcDbEntity
  8
C-2_蓋
  6
Continuous
 62
     3
370
     9
100
AcDbLine
 10
-631.9647711676519
 20
-261.6562796927786
 30
0.0
 11
-660.6081575960727
 21
-265.2976041226773
 31
0.0
  0
LINE
  5
294
330
1F
100
AcDbEntity
  8
C-2_蓋
  6
Continuous
 62
     3
370
     9
100
AcDbLine
 10
-655.6081411000844
 20
-260.5507185652449
 30
0.0
 11
-655.6081411000844
 21
-259.2974358635979
 31
0.0
  0
LINE
  5
295
330
1F
100
AcDbEntity
  8
C-2_蓋
  6
Continuous
 62
     3
370
     9
100
AcDbLine
 10
-689.2514203045818
 20
-261.6562796927786
 30
0.0
 11
-660.6081575960727
 21
-265.2976041226773
 31
0.0
  0
LINE
  5
296
330
1F
100
AcDbEntity
  8
C-2_蓋
  6
Continuous
 62
     3
370
     9
100
AcDbLine
 10
-703.4080711570946
 20
-295.8972497888513
 30
0.0
 11
-703.4080711570946
 21
-259.2974358635979
 31
0.0
  0
LINE
  5
297
330
1F
100
AcDbEntity
  8
C-2_蓋
  6
Continuous
 62
     3
370
     9
100
AcDbLine
 10
-696.0081358213682
 20
-295.8972497888513
 30
0.0
 11
-696.0081358213682
 21
-267.6084446262668
 31
0.0
  0
LINE
  5
298
330
1F
100
AcDbEntity
  8
C-2_蓋
  6
Continuous
 62
     3
370
     9
100
AcDbLine
 10
-703.4080711570946
 20
-295.8972497888513
 30
0.0
 11
-696.0081358213682
 21
-295.8972497888513
 31
0.0
  0
LINE
  5
299
330
1F
100
AcDbEntity
  8
C-2_蓋
  6
Continuous
 62
     3
370
     9
100
AcDbLine
 10
-692.4082575617609
 20
-248.297498548353
 30
0.0
 11
-628.8081813502956
 21
-248.297498548353
 31
0.0
  0
LINE
  5
29A
330
1F
100
AcDbEntity
  8
C-2_蓋
  6
Continuous
 62
     3
370
     9
100
AcDbLine
 10
-711.6083505991342
 20
-303.2974325644003
 30
0.0
 11
-609.6083357527448
 21
-303.2974325644003
 31
0.0
  0
LINE
  5
29B
330
1F
100
AcDbEntity
  8
C-2_蓋
  6
Continuous
 62
     3
370
     9
100
AcDbLine
 10
-711.6083505991342
 20
-303.2974325644003
 30
0.0
 11
-711.6083505991342
 21
-241.2974259660049
 31
0.0
  0
LINE
  5
29C
330
1F
100
AcDbEntity
  8
C-2_蓋
  6
Continuous
 62
     3
370
     9
100
AcDbLine
 10
-609.6083357527448
 20
-303.2974325644003
 30
0.0
 11
-609.6083357527448
 21
-241.2974259660049
 31
0.0
  0
LINE
  5
29D
330
1F
100
AcDbEntity
  8
C-2_蓋
  6
Continuous
 62
     3
370
     9
100
AcDbLine
 10
-711.6083505991342
 20
-241.2974259660049
 30
0.0
 11
-609.6083357527448
 21
-241.2974259660049
 31
0.0
  0
LINE
  5
29E
330
1F
100
AcDbEntity
  8
C-2_蓋
  6
JWW_CENTER1
 62
     3
370
     9
100
AcDbLine
 10
-1155.608058620144
 20
469.7027175490922
 30
0.0
 11
-1155.608058620144
 21
545.7026218723606
 31
0.0
  0
LINE
  5
29F
330
1F
100
AcDbEntity
  8
C-2_蓋
  6
JWW_CENTER1
 62
     3
370
     9
100
AcDbLine
 10
-1097.608164194468
 20
507.7026697107266
 30
0.0
 11
-1213.608200485642
 21
507.7026697107266
 31
0.0
  0
LINE
  5
2A0
330
1F
100
AcDbEntity
  8
C-2_蓋
  6
JWW_CENTER1
 62
     3
370
     9
100
AcDbLine
 10
-1155.608058620144
 20
-234.2974771035684
 30
0.0
 11
-1155.608058620144
 21
-310.297381426837
 31
0.0
  0
LINE
  5
2A1
330
1F
100
AcDbEntity
  8
C-2_蓋
  6
JWW_CENTER1
 62
     3
370
     9
100
AcDbLine
 10
-1097.608164194468
 20
-272.2974292652026
 30
0.0
 11
-1213.608200485642
 21
-272.2974292652026
 31
0.0
  0
LINE
  5
2A2
330
1F
100
AcDbEntity
  8
C-2_蓋
  6
JWW_CENTER1
 62
     3
370
     9
100
AcDbLine
 10
-660.6081575960727
 20
469.7027175490922
 30
0.0
 11
-660.6081575960727
 21
545.7026218723606
 31
0.0
  0
LINE
  5
2A3
330
1F
100
AcDbEntity
  8
C-2_蓋
  6
JWW_CENTER1
 62
     3
370
     9
100
AcDbLine
 10
-602.6083868903081
 20
507.7026697107266
 30
0.0
 11
-718.6082994615708
 21
507.7026697107266
 31
0.0
  0
LINE
  5
2A4
330
1F
100
AcDbEntity
  8
C-2_蓋
  6
JWW_CENTER1
 62
     3
370
     9
100
AcDbLine
 10
-660.6081575960727
 20
-234.2974771035684
 30
0.0
 11
-660.6081575960727
 21
-310.297381426837
 31
0.0
  0
LINE
  5
2A5
330
1F
100
AcDbEntity
  8
C-2_蓋
  6
JWW_CENTER1
 62
     3
370
     9
100
AcDbLine
 10
-602.6083868903081
 20
-272.2974292652026
 30
0.0
 11
-718.6082994615708
 21
-272.2974292652026
 31
0.0
  0
ARC
  5
2A6
330
1F
100
AcDbEntity
  8
F-0ﾚｲﾔ
  6
Continuous
 62
     7
370
     9
100
AcDbCircle
 10
1197.216796875
 20
-598.6784733952702
 30
0.0
 40
15.99999923963805
100
AcDbArc
 50
0.0
 51
90.0
  0
ARC
  5
2A7
330
1F
100
AcDbEntity
  8
F-0ﾚｲﾔ
  6
Continuous
 62
     7
370
     9
100
AcDbCircle
 10
1245.217153188345
 20
-634.678493190456
 30
0.0
 40
15.99999923963805
100
AcDbArc
 50
180.0
 51
270.0
  0
ARC
  5
2A8
330
1F
100
AcDbEntity
  8
F-0ﾚｲﾔ
  6
Continuous
 62
     7
370
     9
100
AcDbCircle
 10
1513.216750686233
 20
-634.678493190456
 30
0.0
 40
15.99999923963805
100
AcDbArc
 50
270.0
 51
0.0
  0
ARC
  5
2A9
330
1F
100
AcDbEntity
  8
F-0ﾚｲﾔ
  6
Continuous
 62
     7
370
     9
100
AcDbCircle
 10
1561.217106999578
 20
-598.6784733952702
 30
0.0
 40
15.99999923963805
100
AcDbArc
 50
90.0
 51
180.0
  0
ARC
  5
2AA
330
1F
100
AcDbEntity
  8
F-0ﾚｲﾔ
  6
Continuous
 62
     7
370
     9
100
AcDbCircle
 10
1197.216796875
 20
-598.6784733952702
 30
0.0
 40
31.99999847927609
100
AcDbArc
 50
0.0
 51
90.0
  0
ARC
  5
2AB
330
1F
100
AcDbEntity
  8
F-0ﾚｲﾔ
  6
Continuous
 62
     7
370
     9
100
AcDbCircle
 10
1245.217153188345
 20
-634.678493190456
 30
0.0
 40
31.99999847927609
100
AcDbArc
 50
180.0
 51
270.0
  0
ARC
  5
2AC
330
1F
100
AcDbEntity
  8
F-0ﾚｲﾔ
  6
Continuous
 62
     7
370
     9
100
AcDbCircle
 10
1513.216750686233
 20
-634.678493190456
 30
0.0
 40
31.99999847927609
100
AcDbArc
 50
270.0
 51
0.0
  0
ARC
  5
2AD
330
1F
100
AcDbEntity
  8
F-0ﾚｲﾔ
  6
Continuous
 62
     7
370
     9
100
AcDbCircle
 10
1561.217106999578
 20
-598.6784733952702
 30
0.0
 40
31.99999847927609
100
AcDbArc
 50
90.0
 51
180.0
  0
ARC
  5
2AE
330
1F
100
AcDbEntity
  8
D-1_ピット
  6
Continuous
 62
     2
370
     9
100
AcDbCircle
 10
1054.950281091639
 20
626.6383320576438
 30
0.0
 40
9.9999991623131
100
AcDbArc
 50
180.0
 51
270.0
  0
ARC
  5
2AF
330
1F
100
AcDbEntity
  8
D-1_ピット
  6
Continuous
 62
     2
370
     9
100
AcDbCircle
 10
1137.450182115709
 20
626.6383320576438
 30
0.0
 40
9.9999991623131
100
AcDbArc
 50
270.0
 51
0.0
  0
ARC
  5
2B0
330
1F
100
AcDbEntity
  8
D-1_ピット
  6
Continuous
 62
     2
370
     9
100
AcDbCircle
 10
1054.950281091639
 20
626.6383320576438
 30
0.0
 40
19.9999983246262
100
AcDbArc
 50
180.0
 51
270.0
  0
ARC
  5
2B1
330
1F
100
AcDbEntity
  8
D-1_ピット
  6
Continuous
 62
     2
370
     9
100
AcDbCircle
 10
1137.450182115709
 20
626.6383320576438
 30
0.0
 40
19.9999983246262
100
AcDbArc
 50
270.0
 51
0.0
  0
ARC
  5
2B2
330
1F
100
AcDbEntity
  8
D-2_蓋
  6
Continuous
 62
     3
370
     9
100
AcDbCircle
 10
1104.950198611698
 20
671.6384805215373
 30
0.0
 40
19.9999983246262
100
AcDbArc
 50
270.0
 51
0.0
  0
ARC
  5
2B3
330
1F
100
AcDbEntity
  8
D-2_蓋
  6
Continuous
 62
     3
370
     9
100
AcDbCircle
 10
1104.950198611698
 20
671.6384805215373
 30
0.0
 40
9.9999991623131
100
AcDbArc
 50
270.0
 51
0.0
  0
ARC
  5
2B4
330
1F
100
AcDbEntity
  8
D-1_ピット
  6
Continuous
 62
     2
370
     9
100
AcDbCircle
 10
1164.45032068201
 20
724.1385300095019
 30
0.0
 40
32.49999510275351
100
AcDbArc
 50
142.0201263427734
 51
175.5882568359375
  0
ARC
  5
2B5
330
1F
100
AcDbEntity
  8
D-1_ピット
  6
Continuous
 62
     2
370
     9
100
AcDbCircle
 10
1164.45032068201
 20
724.1385300095019
 30
0.0
 40
32.49999510275351
100
AcDbArc
 50
184.4117431640625
 51
217.9798736572265
  0
ARC
  5
2B6
330
1F
100
AcDbEntity
  8
D-1_ピット
  6
Continuous
 62
     2
370
     9
100
AcDbCircle
 10
1148.450366870777
 20
712.3886025918498
 30
0.0
 40
1.000000012887491
100
AcDbArc
 50
120.8598175048828
 51
180.0
  0
ARC
  5
2B7
330
1F
100
AcDbEntity
  8
D-1_ピット
  6
Continuous
 62
     2
370
     9
100
AcDbCircle
 10
1148.450366870777
 20
735.888457427154
 30
0.0
 40
1.000000012887491
100
AcDbArc
 50
180.0
 51
239.1401824951172
  0
ARC
  5
2B8
330
1F
100
AcDbEntity
  8
D-1_ピット
  6
Continuous
 62
     2
370
     9
100
AcDbCircle
 10
1173.711993243243
 20
739.3370262352198
 30
0.0
 40
7.738312192865321
100
AcDbArc
 50
319.2452850341797
 51
40.75453186035159
  0
ARC
  5
2B9
330
1F
100
AcDbEntity
  8
D-1_ピット
  6
Continuous
 62
     2
370
     9
100
AcDbCircle
 10
1173.711993243243
 20
708.9402812236065
 30
0.0
 40
7.738270147426709
100
AcDbArc
 50
319.2448577880859
 51
40.7551422119141
  0
ARC
  5
2BA
330
1F
100
AcDbEntity
  8
D-1_ピット
  6
Continuous
 62
     2
370
     9
100
AcDbCircle
 10
1153.079965952281
 20
724.1385300095019
 30
0.0
 40
28.37047190279574
100
AcDbArc
 50
339.0444793701172
 51
20.95552062988282
  0
CIRCLE
  5
2BB
330
1F
100
AcDbEntity
  8
C-1_ピット
  6
Continuous
 62
     2
370
     9
100
AcDbCircle
 10
-1441.60816089527
 20
117.7028676625847
 30
0.0
 40
6.499999600487786
  0
CIRCLE
  5
2BC
330
1F
100
AcDbEntity
  8
C-1_ピット
  6
Continuous
 62
     2
370
     9
100
AcDbCircle
 10
-908.1081081081081
 20
651.2024255701016
 30
0.0
 40
6.499999600487786
  0
CIRCLE
  5
2BD
330
1F
100
AcDbEntity
  8
C-1_ピット
  6
Continuous
 62
     2
370
     9
100
AcDbCircle
 10
-908.1082318280194
 20
-415.7974325644003
 30
0.0
 40
6.499999600487786
  0
CIRCLE
  5
2BE
330
1F
100
AcDbEntity
  8
C-1_ピット
  6
Continuous
 62
     2
370
     9
100
AcDbCircle
 10
-374.6081790408573
 20
117.702620222762
 30
0.0
 40
6.499999600487786
  0
ARC
  5
2BF
330
1F
100
AcDbEntity
  8
D-1_ピット
  6
Continuous
 62
     2
370
     9
100
AcDbCircle
 10
484.9503800675677
 20
699.1386949693836
 30
0.0
 40
4.99999958115655
100
AcDbArc
 50
180.0
 51
270.0
  0
ARC
  5
2C0
330
1F
100
AcDbEntity
  8
D-1_ピット
  6
Continuous
 62
     2
370
     9
100
AcDbCircle
 10
492.4502810916385
 20
640.138401340794
 30
0.0
 40
9.9999991623131
100
AcDbArc
 50
180.0
 51
270.0
  0
ARC
  5
2C1
330
1F
100
AcDbEntity
  8
D-1_ピット
  6
Continuous
 62
     2
370
     9
100
AcDbCircle
 10
517.4503635715797
 20
640.138401340794
 30
0.0
 40
9.9999991623131
100
AcDbArc
 50
270.0
 51
0.0
  0
ARC
  5
2C2
330
1F
100
AcDbEntity
  8
D-1_ピット
  6
Continuous
 62
     2
370
     9
100
AcDbCircle
 10
702.450231603674
 20
640.138401340794
 30
0.0
 40
9.9999991623131
100
AcDbArc
 50
180.0
 51
270.0
  0
ARC
  5
2C3
330
1F
100
AcDbEntity
  8
D-1_ピット
  6
Continuous
 62
     2
370
     9
100
AcDbCircle
 10
727.4503140836151
 20
640.138401340794
 30
0.0
 40
9.9999991623131
100
AcDbArc
 50
270.0
 51
0.0
  0
ARC
  5
2C4
330
1F
100
AcDbEntity
  8
D-1_ピット
  6
Continuous
 62
     2
370
     9
100
AcDbCircle
 10
734.950215107686
 20
699.1386949693836
 30
0.0
 40
4.99999958115655
100
AcDbArc
 50
270.0
 51
0.0
  0
ARC
  5
2C5
330
1F
100
AcDbEntity
  8
D-2_蓋
  6
Continuous
 62
     3
370
     9
100
AcDbCircle
 10
189.6487674197635
 20
-482.0271754909206
 30
0.0
 40
54.99999587600296
100
AcDbArc
 50
90.0
 51
180.0
  0
ARC
  5
2C6
330
1F
100
AcDbEntity
  8
D-2_蓋
  6
Continuous
 62
     3
370
     9
100
AcDbCircle
 10
201.6488564980997
 20
-523.5819718644426
 30
0.0
 40
29.99999845350111
100
AcDbArc
 50
82.75547790527344
 51
180.0
  0
CIRCLE
  5
2C7
330
1F
100
AcDbEntity
  8
D-2_蓋
  6
Continuous
 62
     3
370
     9
100
AcDbCircle
 10
348.6488960884714
 20
-482.0271754909206
 30
0.0
 40
19.9999983246262
  0
ARC
  5
2C8
330
1F
100
AcDbEntity
  8
D-2_蓋
  6
Continuous
 62
     3
370
     9
100
AcDbCircle
 10
495.6489356788433
 20
-523.5819718644426
 30
0.0
 40
29.99999845350111
100
AcDbArc
 50
7.016464233398438
 51
97.2445068359375
  0
ARC
  5
2C9
330
1F
100
AcDbEntity
  8
D-2_蓋
  6
Continuous
 62
     3
370
     9
100
AcDbCircle
 10
507.6487773173568
 20
-482.0271754909206
 30
0.0
 40
54.99999587600296
100
AcDbArc
 50
4.395706176757812
 51
90.0
  0
ARC
  5
2CA
330
1F
100
AcDbEntity
  8
D-2_蓋
  6
Continuous
 62
     3
370
     9
100
AcDbCircle
 10
348.6488960884714
 20
-482.0271754909206
 30
0.0
 40
25.00000128874908
100
AcDbArc
 50
359.999984741211
 51
180.0
  0
ARC
  5
2CB
330
1F
100
AcDbEntity
  8
D-2_蓋
  6
Continuous
 62
     3
370
     9
100
AcDbCircle
 10
201.6488564980997
 20
-523.5819718644426
 30
0.0
 40
33.49999994845004
100
AcDbArc
 50
82.75547790527344
 51
179.9999847412109
  0
ARC
  5
2CC
330
1F
100
AcDbEntity
  8
D-2_蓋
  6
Continuous
 62
     3
370
     9
100
AcDbCircle
 10
354.1487410261826
 20
-474.4570015572212
 30
0.0
 40
1.999999904954756
100
AcDbArc
 50
180.0
 51
288.0
  0
ARC
  5
2CD
330
1F
100
AcDbEntity
  8
D-2_蓋
  6
Continuous
 62
     3
370
     9
100
AcDbCircle
 10
348.6488960884714
 20
-473.0270468222128
 30
0.0
 40
3.499999803465766
100
AcDbArc
 50
0.0
 51
90.0
  0
ARC
  5
2CE
330
1F
100
AcDbEntity
  8
D-2_蓋
  6
Continuous
 62
     3
370
     9
100
AcDbCircle
 10
353.938912056588
 20
-489.308339711782
 30
0.0
 40
3.499999803465766
100
AcDbArc
 50
216.0
 51
36.0
  0
ARC
  5
2CF
330
1F
100
AcDbEntity
  8
D-2_蓋
  6
Continuous
 62
     3
370
     9
100
AcDbCircle
 10
357.2083344330659
 20
-479.2459518845017
 30
0.0
 40
3.499999803465766
100
AcDbArc
 50
17.99998474121094
 51
108.0
  0
ARC
  5
2D0
330
1F
100
AcDbEntity
  8
D-2_蓋
  6
Continuous
 62
     3
370
     9
100
AcDbCircle
 10
357.2083344330659
 20
-479.2459518845017
 30
0.0
 40
3.499999803465766
100
AcDbArc
 50
288.0
 51
18.0
  0
ARC
  5
2D1
330
1F
100
AcDbEntity
  8
D-2_蓋
  6
Continuous
 62
     3
370
     9
100
AcDbCircle
 10
357.548069309544
 20
-484.9185098184121
 30
0.0
 40
1.999999904954756
100
AcDbArc
 50
108.0
 51
216.0
  0
ARC
  5
2D2
330
1F
100
AcDbEntity
  8
D-2_蓋
  6
Continuous
 62
     3
370
     9
100
AcDbCircle
 10
348.6488960884714
 20
-473.0270468222128
 30
0.0
 40
3.499999803465766
100
AcDbArc
 50
89.99998474121094
 51
180.0
  0
ARC
  5
2D3
330
1F
100
AcDbEntity
  8
D-2_蓋
  6
Continuous
 62
     3
370
     9
100
AcDbCircle
 10
495.6489356788433
 20
-523.5819718644426
 30
0.0
 40
33.49999994845004
100
AcDbArc
 50
2.834869384765625
 51
97.2445068359375
  0
ARC
  5
2D4
330
1F
100
AcDbEntity
  8
D-2_蓋
  6
Continuous
 62
     3
370
     9
100
AcDbCircle
 10
340.0892103040542
 20
-479.2459518845017
 30
0.0
 40
3.499999803465766
100
AcDbArc
 50
71.99998474121094
 51
252.0
  0
ARC
  5
2D5
330
1F
100
AcDbEntity
  8
D-2_蓋
  6
Continuous
 62
     3
370
     9
100
AcDbCircle
 10
343.1488037109375
 20
-474.4570015572212
 30
0.0
 40
1.999999904954756
100
AcDbArc
 50
252.0
 51
0.0
  0
ARC
  5
2D6
330
1F
100
AcDbEntity
  8
D-2_蓋
  6
Continuous
 62
     3
370
     9
100
AcDbCircle
 10
339.7497228673987
 20
-484.9185098184121
 30
0.0
 40
1.999999904954756
100
AcDbArc
 50
324.0
 51
72.0
  0
ARC
  5
2D7
330
1F
100
AcDbEntity
  8
D-2_蓋
  6
Continuous
 62
     3
370
     9
100
AcDbCircle
 10
343.358880120355
 20
-489.308339711782
 30
0.0
 40
3.499999803465766
100
AcDbArc
 50
144.0
 51
324.0
  0
ARC
  5
2D8
330
1F
100
AcDbEntity
  8
D-2_蓋
  6
Continuous
 62
     3
370
     9
100
AcDbCircle
 10
348.6488960884714
 20
-491.3841123838682
 30
0.0
 40
1.999999904954756
100
AcDbArc
 50
36.0
 51
144.0
  0
ARC
  5
2D9
330
1F
100
AcDbEntity
  8
D-2_蓋
  6
Continuous
 62
     3
370
     9
100
AcDbCircle
 10
507.6487773173568
 20
-482.0271754909206
 30
0.0
 40
51.49999824730126
100
AcDbArc
 50
2.2451171875
 51
90.0
  0
ARC
  5
2DA
330
1F
100
AcDbEntity
  8
D-2_蓋
  6
Continuous
 62
     3
370
     9
100
AcDbCircle
 10
189.6487674197635
 20
-482.0271754909206
 30
0.0
 40
51.49999824730126
100
AcDbArc
 50
90.0
 51
179.9999847412109
  0
ARC
  5
2DB
330
1F
100
AcDbEntity
  8
D-2_蓋
  6
Continuous
 62
     3
370
     9
100
AcDbCircle
 10
308.6487641205659
 20
-488.2935889991553
 30
0.0
 40
14.99999922675056
100
AcDbArc
 50
262.7554779052734
 51
0.0
  0
ARC
  5
2DC
330
1F
100
AcDbEntity
  8
D-2_蓋
  6
Continuous
 62
     3
370
     9
100
AcDbCircle
 10
388.6487806165542
 20
-488.2935889991553
 30
0.0
 40
14.99999922675056
100
AcDbArc
 50
180.0
 51
277.2445068359375
  0
ARC
  5
2DD
330
1F
100
AcDbEntity
  8
C-2_蓋
  6
Continuous
 62
     3
370
     9
100
AcDbCircle
 10
-1147.608081714527
 20
495.9559590107688
 30
0.0
 40
2.999999797022021
100
AcDbArc
 50
82.75547790527344
 51
180.0
  0
ARC
  5
2DE
330
1F
100
AcDbEntity
  8
C-2_蓋
  6
Continuous
 62
     3
370
     9
100
AcDbCircle
 10
-1163.607911805849
 20
495.9559590107688
 30
0.0
 40
2.999999797022021
100
AcDbArc
 50
0.0
 51
97.2445068359375
  0
ARC
  5
2DF
330
1F
100
AcDbEntity
  8
C-2_蓋
  6
Continuous
 62
     3
370
     9
100
AcDbCircle
 10
-1187.408158585832
 20
494.7026763091216
 30
0.0
 40
10.30000061602206
100
AcDbArc
 50
182.1380157470703
 51
269.999984741211
  0
ARC
  5
2E0
330
1F
100
AcDbEntity
  8
C-2_蓋
  6
Continuous
 62
     3
370
     9
100
AcDbCircle
 10
-1123.808082374366
 20
494.7026763091216
 30
0.0
 40
10.30000061602206
100
AcDbArc
 50
269.999984741211
 51
359.999984741211
  0
ARC
  5
2E1
330
1F
100
AcDbEntity
  8
C-2_蓋
  6
Continuous
 62
     3
370
     9
100
AcDbCircle
 10
-1155.608058620144
 20
496.5740636877112
 30
0.0
 40
0.4000000051549963
100
AcDbArc
 50
216.0
 51
323.9999847412109
  0
ARC
  5
2E2
330
1F
100
AcDbEntity
  8
C-2_蓋
  6
Continuous
 62
     3
370
     9
100
AcDbCircle
 10
-1156.666111301731
 20
496.1588596653294
 30
0.0
 40
0.6999999486111307
100
AcDbArc
 50
36.0
 51
126.0
  0
ARC
  5
2E3
330
1F
100
AcDbEntity
  8
C-2_蓋
  6
Continuous
 62
     3
370
     9
100
AcDbCircle
 10
-1156.666111301731
 20
496.1588596653294
 30
0.0
 40
0.6999999486111307
100
AcDbArc
 50
126.0
 51
216.0
  0
ARC
  5
2E4
330
1F
100
AcDbEntity
  8
C-2_蓋
  6
Continuous
 62
     3
370
     9
100
AcDbCircle
 10
-1157.387893264358
 20
495.2809431746201
 30
0.0
 40
0.4000000051549963
100
AcDbArc
 50
288.0
 51
35.99998474121099
  0
ARC
  5
2E5
330
1F
100
AcDbEntity
  8
C-2_蓋
  6
Continuous
 62
     3
370
     9
100
AcDbCircle
 10
-1156.707928631757
 20
493.1885920344175
 30
0.0
 40
0.4000000051549963
100
AcDbArc
 50
0.0
 51
107.9999847412109
  0
ARC
  5
2E6
330
1F
100
AcDbEntity
  8
C-2_蓋
  6
Continuous
 62
     3
370
     9
100
AcDbCircle
 10
-1157.319971033045
 20
494.146431587838
 30
0.0
 40
0.6999999486111307
100
AcDbArc
 50
198.0
 51
288.0
  0
ARC
  5
2E7
330
1F
100
AcDbEntity
  8
C-2_蓋
  6
Continuous
 62
     3
370
     9
100
AcDbCircle
 10
-1157.319971033045
 20
494.146431587838
 30
0.0
 40
0.6999999486111307
100
AcDbArc
 50
108.0
 51
198.0
  0
ARC
  5
2E8
330
1F
100
AcDbEntity
  8
C-2_蓋
  6
Continuous
 62
     3
370
     9
100
AcDbCircle
 10
-1126.208124934016
 20
503.0136850717906
 30
0.0
 40
6.700000086346188
100
AcDbArc
 50
262.7554779052734
 51
359.999984741211
  0
ARC
  5
2E9
330
1F
100
AcDbEntity
  8
C-2_蓋
  6
Continuous
 62
     3
370
     9
100
AcDbCircle
 10
-1155.608058620144
 20
492.902551599451
 30
0.0
 40
0.6999999486111307
100
AcDbArc
 50
180.0
 51
270.0
  0
ARC
  5
2EA
330
1F
100
AcDbEntity
  8
C-2_蓋
  6
Continuous
 62
     3
370
     9
100
AcDbCircle
 10
-1153.828100256018
 20
495.2809431746201
 30
0.0
 40
0.4000000051549963
100
AcDbArc
 50
144.0
 51
251.9999847412109
  0
ARC
  5
2EB
330
1F
100
AcDbEntity
  8
C-2_蓋
  6
Continuous
 62
     3
370
     9
100
AcDbCircle
 10
-1153.896146207242
 20
494.146431587838
 30
0.0
 40
0.6999999486111307
100
AcDbArc
 50
342.0
 51
72.0
  0
ARC
  5
2EC
330
1F
100
AcDbEntity
  8
C-2_蓋
  6
Continuous
 62
     3
370
     9
100
AcDbCircle
 10
-1153.896146207242
 20
494.146431587838
 30
0.0
 40
0.6999999486111307
100
AcDbArc
 50
251.9999847412109
 51
342.0
  0
ARC
  5
2ED
330
1F
100
AcDbEntity
  8
C-2_蓋
  6
Continuous
 62
     3
370
     9
100
AcDbCircle
 10
-1154.550005938556
 20
496.1588596653294
 30
0.0
 40
0.6999999486111307
100
AcDbArc
 50
54.0
 51
144.0
  0
ARC
  5
2EE
330
1F
100
AcDbEntity
  8
C-2_蓋
  6
Continuous
 62
     3
370
     9
100
AcDbCircle
 10
-1154.550005938556
 20
496.1588596653294
 30
0.0
 40
0.6999999486111307
100
AcDbArc
 50
324.0
 51
53.99999999999994
  0
ARC
  5
2EF
330
1F
100
AcDbEntity
  8
C-2_蓋
  6
Continuous
 62
     3
370
     9
100
AcDbCircle
 10
-1155.608058620144
 20
492.902551599451
 30
0.0
 40
0.6999999486111307
100
AcDbArc
 50
270.0
 51
0.0
  0
ARC
  5
2F0
330
1F
100
AcDbEntity
  8
C-2_蓋
  6
Continuous
 62
     3
370
     9
100
AcDbCircle
 10
-1154.508064888619
 20
493.1885920344175
 30
0.0
 40
0.4000000051549963
100
AcDbArc
 50
72.0
 51
179.9999847412109
  0
ARC
  5
2F1
330
1F
100
AcDbEntity
  8
C-2_蓋
  6
Continuous
 62
     3
370
     9
100
AcDbCircle
 10
-1185.008116026183
 20
503.0136850717906
 30
0.0
 40
6.700000086346188
100
AcDbArc
 50
182.6850738525391
 51
277.2445068359375
  0
ARC
  5
2F2
330
1F
100
AcDbEntity
  8
C-2_蓋
  6
Continuous
 62
     3
370
     9
100
AcDbCircle
 10
-1155.608058620144
 20
494.7026763091216
 30
0.0
 40
5.000000064437454
100
AcDbArc
 50
180.0
 51
0.0
  0
ARC
  5
2F3
330
1F
100
AcDbEntity
  8
C-2_蓋
  6
Continuous
 62
     3
370
     9
100
AcDbCircle
 10
-1123.808082374366
 20
494.7026763091216
 30
0.0
 40
11.0000001417624
100
AcDbArc
 50
270.0
 51
0.0
  0
ARC
  5
2F4
330
1F
100
AcDbEntity
  8
C-2_蓋
  6
Continuous
 62
     3
370
     9
100
AcDbCircle
 10
-1126.208124934016
 20
503.0136850717906
 30
0.0
 40
5.999999594044041
100
AcDbArc
 50
262.7554779052734
 51
0.0
  0
CIRCLE
  5
2F5
330
1F
100
AcDbEntity
  8
C-2_蓋
  6
Continuous
 62
     3
370
     9
100
AcDbCircle
 10
-1155.608058620144
 20
494.7026763091216
 30
0.0
 40
4.000000293190415
  0
ARC
  5
2F6
330
1F
100
AcDbEntity
  8
C-2_蓋
  6
Continuous
 62
     3
370
     9
100
AcDbCircle
 10
-1185.008116026183
 20
503.0136850717906
 30
0.0
 40
5.999999594044041
100
AcDbArc
 50
180.0
 51
277.2445068359375
  0
ARC
  5
2F7
330
1F
100
AcDbEntity
  8
C-2_蓋
  6
Continuous
 62
     3
370
     9
100
AcDbCircle
 10
-1187.408158585832
 20
494.7026763091216
 30
0.0
 40
11.0000001417624
100
AcDbArc
 50
184.0009307861328
 51
270.0
  0
ARC
  5
2F8
330
1F
100
AcDbEntity
  8
C-2_蓋
  6
Continuous
 62
     3
370
     9
100
AcDbCircle
 10
-652.608180690456
 20
495.9559590107688
 30
0.0
 40
2.999999797022021
100
AcDbArc
 50
82.75547790527344
 51
180.0
  0
ARC
  5
2F9
330
1F
100
AcDbEntity
  8
C-2_蓋
  6
Continuous
 62
     3
370
     9
100
AcDbCircle
 10
-668.6080107817779
 20
495.9559590107688
 30
0.0
 40
2.999999797022021
100
AcDbArc
 50
0.0
 51
97.2445068359375
  0
ARC
  5
2FA
330
1F
100
AcDbEntity
  8
C-2_蓋
  6
Continuous
 62
     3
370
     9
100
AcDbCircle
 10
-692.4082575617609
 20
494.7026763091216
 30
0.0
 40
10.30000061602206
100
AcDbArc
 50
182.1380157470703
 51
269.999984741211
  0
ARC
  5
2FB
330
1F
100
AcDbEntity
  8
C-2_蓋
  6
Continuous
 62
     3
370
     9
100
AcDbCircle
 10
-628.8081813502956
 20
494.7026763091216
 30
0.0
 40
10.30000061602206
100
AcDbArc
 50
269.999984741211
 51
359.999984741211
  0
ARC
  5
2FC
330
1F
100
AcDbEntity
  8
C-2_蓋
  6
Continuous
 62
     3
370
     9
100
AcDbCircle
 10
-660.6081575960727
 20
496.5740636877112
 30
0.0
 40
0.4000000051549963
100
AcDbArc
 50
216.0
 51
323.9999847412109
  0
ARC
  5
2FD
330
1F
100
AcDbEntity
  8
C-2_蓋
  6
Continuous
 62
     3
370
     9
100
AcDbCircle
 10
-661.6662102776604
 20
496.1588596653294
 30
0.0
 40
0.6999999486111307
100
AcDbArc
 50
36.0
 51
126.0
  0
ARC
  5
2FE
330
1F
100
AcDbEntity
  8
C-2_蓋
  6
Continuous
 62
     3
370
     9
100
AcDbCircle
 10
-661.6662102776604
 20
496.1588596653294
 30
0.0
 40
0.6999999486111307
100
AcDbArc
 50
126.0
 51
216.0
  0
ARC
  5
2FF
330
1F
100
AcDbEntity
  8
C-2_蓋
  6
Continuous
 62
     3
370
     9
100
AcDbCircle
 10
-662.387992240287
 20
495.2809431746201
 30
0.0
 40
0.4000000051549963
100
AcDbArc
 50
288.0
 51
35.99998474121099
  0
ARC
  5
300
330
1F
100
AcDbEntity
  8
C-2_蓋
  6
Continuous
 62
     3
370
     9
100
AcDbCircle
 10
-661.7080276076856
 20
493.1885920344175
 30
0.0
 40
0.4000000051549963
100
AcDbArc
 50
0.0
 51
107.9999847412109
  0
ARC
  5
301
330
1F
100
AcDbEntity
  8
C-2_蓋
  6
Continuous
 62
     3
370
     9
100
AcDbCircle
 10
-662.3200700089737
 20
494.146431587838
 30
0.0
 40
0.6999999486111307
100
AcDbArc
 50
198.0
 51
288.0
  0
ARC
  5
302
330
1F
100
AcDbEntity
  8
C-2_蓋
  6
Continuous
 62
     3
370
     9
100
AcDbCircle
 10
-662.3200700089737
 20
494.146431587838
 30
0.0
 40
0.6999999486111307
100
AcDbArc
 50
108.0
 51
198.0
  0
ARC
  5
303
330
1F
100
AcDbEntity
  8
C-2_蓋
  6
Continuous
 62
     3
370
     9
100
AcDbCircle
 10
-631.208223909945
 20
503.0136850717906
 30
0.0
 40
6.700000086346188
100
AcDbArc
 50
262.7554779052734
 51
359.999984741211
  0
ARC
  5
304
330
1F
100
AcDbEntity
  8
C-2_蓋
  6
Continuous
 62
     3
370
     9
100
AcDbCircle
 10
-660.6081575960727
 20
492.902551599451
 30
0.0
 40
0.6999999486111307
100
AcDbArc
 50
180.0
 51
270.0
  0
ARC
  5
305
330
1F
100
AcDbEntity
  8
C-2_蓋
  6
Continuous
 62
     3
370
     9
100
AcDbCircle
 10
-658.8281992319467
 20
495.2809431746201
 30
0.0
 40
0.4000000051549963
100
AcDbArc
 50
144.0
 51
251.9999847412109
  0
ARC
  5
306
330
1F
100
AcDbEntity
  8
C-2_蓋
  6
Continuous
 62
     3
370
     9
100
AcDbCircle
 10
-658.8962451831713
 20
494.146431587838
 30
0.0
 40
0.6999999486111307
100
AcDbArc
 50
342.0
 51
72.0
  0
ARC
  5
307
330
1F
100
AcDbEntity
  8
C-2_蓋
  6
Continuous
 62
     3
370
     9
100
AcDbCircle
 10
-658.8962451831713
 20
494.146431587838
 30
0.0
 40
0.6999999486111307
100
AcDbArc
 50
251.9999847412109
 51
342.0
  0
ARC
  5
308
330
1F
100
AcDbEntity
  8
C-2_蓋
  6
Continuous
 62
     3
370
     9
100
AcDbCircle
 10
-659.5501049144846
 20
496.1588596653294
 30
0.0
 40
0.6999999486111307
100
AcDbArc
 50
54.0
 51
144.0
  0
ARC
  5
309
330
1F
100
AcDbEntity
  8
C-2_蓋
  6
Continuous
 62
     3
370
     9
100
AcDbCircle
 10
-659.5501049144846
 20
496.1588596653294
 30
0.0
 40
0.6999999486111307
100
AcDbArc
 50
324.0
 51
53.99999999999994
  0
ARC
  5
30A
330
1F
100
AcDbEntity
  8
C-2_蓋
  6
Continuous
 62
     3
370
     9
100
AcDbCircle
 10
-660.6081575960727
 20
492.902551599451
 30
0.0
 40
0.6999999486111307
100
AcDbArc
 50
270.0
 51
0.0
  0
ARC
  5
30B
330
1F
100
AcDbEntity
  8
C-2_蓋
  6
Continuous
 62
     3
370
     9
100
AcDbCircle
 10
-659.5081638645481
 20
493.1885920344175
 30
0.0
 40
0.4000000051549963
100
AcDbArc
 50
72.0
 51
179.9999847412109
  0
ARC
  5
30C
330
1F
100
AcDbEntity
  8
C-2_蓋
  6
Continuous
 62
     3
370
     9
100
AcDbCircle
 10
-690.0082150021115
 20
503.0136850717906
 30
0.0
 40
6.700000086346188
100
AcDbArc
 50
182.6850738525391
 51
277.2445068359375
  0
ARC
  5
30D
330
1F
100
AcDbEntity
  8
C-2_蓋
  6
Continuous
 62
     3
370
     9
100
AcDbCircle
 10
-660.6081575960727
 20
494.7026763091216
 30
0.0
 40
5.000000064437454
100
AcDbArc
 50
180.0
 51
0.0
  0
ARC
  5
30E
330
1F
100
AcDbEntity
  8
C-2_蓋
  6
Continuous
 62
     3
370
     9
100
AcDbCircle
 10
-628.8081813502956
 20
494.7026763091216
 30
0.0
 40
11.0000001417624
100
AcDbArc
 50
270.0
 51
0.0
  0
ARC
  5
30F
330
1F
100
AcDbEntity
  8
C-2_蓋
  6
Continuous
 62
     3
370
     9
100
AcDbCircle
 10
-631.208223909945
 20
503.0136850717906
 30
0.0
 40
5.999999594044041
100
AcDbArc
 50
262.7554779052734
 51
0.0
  0
CIRCLE
  5
310
330
1F
100
AcDbEntity
  8
C-2_蓋
  6
Continuous
 62
     3
370
     9
100
AcDbCircle
 10
-660.6081575960727
 20
494.7026763091216
 30
0.0
 40
4.000000293190415
  0
ARC
  5
311
330
1F
100
AcDbEntity
  8
C-2_蓋
  6
Continuous
 62
     3
370
     9
100
AcDbCircle
 10
-690.0082150021115
 20
503.0136850717906
 30
0.0
 40
5.999999594044041
100
AcDbArc
 50
180.0
 51
277.2445068359375
  0
ARC
  5
312
330
1F
100
AcDbEntity
  8
C-2_蓋
  6
Continuous
 62
     3
370
     9
100
AcDbCircle
 10
-692.4082575617609
 20
494.7026763091216
 30
0.0
 40
11.0000001417624
100
AcDbArc
 50
184.0009307861328
 51
270.0
  0
ARC
  5
313
330
1F
100
AcDbEntity
  8
C-2_蓋
  6
Continuous
 62
     3
370
     9
100
AcDbCircle
 10
-1147.608081714527
 20
-260.5507185652449
 30
0.0
 40
2.999999797022021
100
AcDbArc
 50
180.0
 51
277.2445220947266
  0
ARC
  5
314
330
1F
100
AcDbEntity
  8
C-2_蓋
  6
Continuous
 62
     3
370
     9
100
AcDbCircle
 10
-1163.607911805849
 20
-260.5507185652449
 30
0.0
 40
2.999999797022021
100
AcDbArc
 50
262.7554931640625
 51
0.0
  0
ARC
  5
315
330
1F
100
AcDbEntity
  8
C-2_蓋
  6
Continuous
 62
     3
370
     9
100
AcDbCircle
 10
-1187.408158585832
 20
-259.2974358635979
 30
0.0
 40
10.30000061602206
100
AcDbArc
 50
90.00001525878905
 51
177.8619842529297
  0
ARC
  5
316
330
1F
100
AcDbEntity
  8
C-2_蓋
  6
Continuous
 62
     3
370
     9
100
AcDbCircle
 10
-1123.808082374366
 20
-259.2974358635979
 30
0.0
 40
10.30000061602206
100
AcDbArc
 50
0.0000152587890715
 51
90.00001525878908
  0
ARC
  5
317
330
1F
100
AcDbEntity
  8
C-2_蓋
  6
Continuous
 62
     3
370
     9
100
AcDbCircle
 10
-1155.608058620144
 20
-261.1688232421875
 30
0.0
 40
0.4000000051549963
100
AcDbArc
 50
36.00001525878907
 51
144.0
  0
ARC
  5
318
330
1F
100
AcDbEntity
  8
C-2_蓋
  6
Continuous
 62
     3
370
     9
100
AcDbCircle
 10
-1156.666111301731
 20
-260.7536192198057
 30
0.0
 40
0.6999999486111307
100
AcDbArc
 50
234.0
 51
324.0
  0
ARC
  5
319
330
1F
100
AcDbEntity
  8
C-2_蓋
  6
Continuous
 62
     3
370
     9
100
AcDbCircle
 10
-1156.666111301731
 20
-260.7536192198057
 30
0.0
 40
0.6999999486111307
100
AcDbArc
 50
144.0
 51
234.0
  0
ARC
  5
31A
330
1F
100
AcDbEntity
  8
C-2_蓋
  6
Continuous
 62
     3
370
     9
100
AcDbCircle
 10
-1157.387893264358
 20
-259.8757027290962
 30
0.0
 40
0.4000000051549963
100
AcDbArc
 50
324.0000152587891
 51
72.0
  0
ARC
  5
31B
330
1F
100
AcDbEntity
  8
C-2_蓋
  6
Continuous
 62
     3
370
     9
100
AcDbCircle
 10
-1156.707928631757
 20
-257.7833515888935
 30
0.0
 40
0.4000000051549963
100
AcDbArc
 50
252.0000152587891
 51
0.0
  0
ARC
  5
31C
330
1F
100
AcDbEntity
  8
C-2_蓋
  6
Continuous
 62
     3
370
     9
100
AcDbCircle
 10
-1157.319971033045
 20
-258.7411911423141
 30
0.0
 40
0.6999999486111307
100
AcDbArc
 50
72.0
 51
162.0
  0
ARC
  5
31D
330
1F
100
AcDbEntity
  8
C-2_蓋
  6
Continuous
 62
     3
370
     9
100
AcDbCircle
 10
-1157.319971033045
 20
-258.7411911423141
 30
0.0
 40
0.6999999486111307
100
AcDbArc
 50
162.0
 51
252.0
  0
ARC
  5
31E
330
1F
100
AcDbEntity
  8
C-2_蓋
  6
Continuous
 62
     3
370
     9
100
AcDbCircle
 10
-1126.208124934016
 20
-267.6084446262668
 30
0.0
 40
6.700000086346188
100
AcDbArc
 50
0.0000152587890715
 51
97.24452209472656
  0
ARC
  5
31F
330
1F
100
AcDbEntity
  8
C-2_蓋
  6
Continuous
 62
     3
370
     9
100
AcDbCircle
 10
-1155.608058620144
 20
-257.4973111539273
 30
0.0
 40
0.6999999486111307
100
AcDbArc
 50
90.0
 51
180.0
  0
ARC
  5
320
330
1F
100
AcDbEntity
  8
C-2_蓋
  6
Continuous
 62
     3
370
     9
100
AcDbCircle
 10
-1153.828100256018
 20
-259.8757027290962
 30
0.0
 40
0.4000000051549963
100
AcDbArc
 50
108.000015258789
 51
216.0
  0
ARC
  5
321
330
1F
100
AcDbEntity
  8
C-2_蓋
  6
Continuous
 62
     3
370
     9
100
AcDbCircle
 10
-1153.896146207242
 20
-258.7411911423141
 30
0.0
 40
0.6999999486111307
100
AcDbArc
 50
288.0
 51
18.0
  0
ARC
  5
322
330
1F
100
AcDbEntity
  8
C-2_蓋
  6
Continuous
 62
     3
370
     9
100
AcDbCircle
 10
-1153.896146207242
 20
-258.7411911423141
 30
0.0
 40
0.6999999486111307
100
AcDbArc
 50
18.0
 51
108.0000152587891
  0
ARC
  5
323
330
1F
100
AcDbEntity
  8
C-2_蓋
  6
Continuous
 62
     3
370
     9
100
AcDbCircle
 10
-1154.550005938556
 20
-260.7536192198057
 30
0.0
 40
0.6999999486111307
100
AcDbArc
 50
216.0
 51
306.0
  0
ARC
  5
324
330
1F
100
AcDbEntity
  8
C-2_蓋
  6
Continuous
 62
     3
370
     9
100
AcDbCircle
 10
-1154.550005938556
 20
-260.7536192198057
 30
0.0
 40
0.6999999486111307
100
AcDbArc
 50
306.0
 51
36.00000000000006
  0
ARC
  5
325
330
1F
100
AcDbEntity
  8
C-2_蓋
  6
Continuous
 62
     3
370
     9
100
AcDbCircle
 10
-1155.608058620144
 20
-257.4973111539273
 30
0.0
 40
0.6999999486111307
100
AcDbArc
 50
0.0
 51
90.0
  0
ARC
  5
326
330
1F
100
AcDbEntity
  8
C-2_蓋
  6
Continuous
 62
     3
370
     9
100
AcDbCircle
 10
-1154.508064888619
 20
-257.7833515888935
 30
0.0
 40
0.4000000051549963
100
AcDbArc
 50
180.0000152587891
 51
288.0
  0
ARC
  5
327
330
1F
100
AcDbEntity
  8
C-2_蓋
  6
Continuous
 62
     3
370
     9
100
AcDbCircle
 10
-1185.008116026183
 20
-267.6084446262668
 30
0.0
 40
6.700000086346188
100
AcDbArc
 50
82.75549316406249
 51
177.3149261474609
  0
ARC
  5
328
330
1F
100
AcDbEntity
  8
C-2_蓋
  6
Continuous
 62
     3
370
     9
100
AcDbCircle
 10
-1155.608058620144
 20
-259.2974358635979
 30
0.0
 40
5.000000064437454
100
AcDbArc
 50
0.0
 51
180.0
  0
ARC
  5
329
330
1F
100
AcDbEntity
  8
C-2_蓋
  6
Continuous
 62
     3
370
     9
100
AcDbCircle
 10
-1123.808082374366
 20
-259.2974358635979
 30
0.0
 40
11.0000001417624
100
AcDbArc
 50
0.0
 51
90.0
  0
ARC
  5
32A
330
1F
100
AcDbEntity
  8
C-2_蓋
  6
Continuous
 62
     3
370
     9
100
AcDbCircle
 10
-1126.208124934016
 20
-267.6084446262668
 30
0.0
 40
5.999999594044041
100
AcDbArc
 50
0.0
 51
97.24452209472656
  0
CIRCLE
  5
32B
330
1F
100
AcDbEntity
  8
C-2_蓋
  6
Continuous
 62
     3
370
     9
100
AcDbCircle
 10
-1155.608058620144
 20
-259.2974358635979
 30
0.0
 40
4.000000293190415
  0
ARC
  5
32C
330
1F
100
AcDbEntity
  8
C-2_蓋
  6
Continuous
 62
     3
370
     9
100
AcDbCircle
 10
-1185.008116026183
 20
-267.6084446262668
 30
0.0
 40
5.999999594044041
100
AcDbArc
 50
82.75549316406249
 51
180.0
  0
ARC
  5
32D
330
1F
100
AcDbEntity
  8
C-2_蓋
  6
Continuous
 62
     3
370
     9
100
AcDbCircle
 10
-1187.408158585832
 20
-259.2974358635979
 30
0.0
 40
11.0000001417624
100
AcDbArc
 50
90.0
 51
175.9990692138672
  0
ARC
  5
32E
330
1F
100
AcDbEntity
  8
C-2_蓋
  6
Continuous
 62
     3
370
     9
100
AcDbCircle
 10
-652.608180690456
 20
-260.5507185652449
 30
0.0
 40
2.999999797022021
100
AcDbArc
 50
180.0
 51
277.2445220947266
  0
ARC
  5
32F
330
1F
100
AcDbEntity
  8
C-2_蓋
  6
Continuous
 62
     3
370
     9
100
AcDbCircle
 10
-668.6080107817779
 20
-260.5507185652449
 30
0.0
 40
2.999999797022021
100
AcDbArc
 50
262.7554931640625
 51
0.0
  0
ARC
  5
330
330
1F
100
AcDbEntity
  8
C-2_蓋
  6
Continuous
 62
     3
370
     9
100
AcDbCircle
 10
-692.4082575617609
 20
-259.2974358635979
 30
0.0
 40
10.30000061602206
100
AcDbArc
 50
90.00001525878905
 51
177.8619842529297
  0
ARC
  5
331
330
1F
100
AcDbEntity
  8
C-2_蓋
  6
Continuous
 62
     3
370
     9
100
AcDbCircle
 10
-628.8081813502956
 20
-259.2974358635979
 30
0.0
 40
10.30000061602206
100
AcDbArc
 50
0.0000152587890715
 51
90.00001525878908
  0
ARC
  5
332
330
1F
100
AcDbEntity
  8
C-2_蓋
  6
Continuous
 62
     3
370
     9
100
AcDbCircle
 10
-660.6081575960727
 20
-261.1688232421875
 30
0.0
 40
0.4000000051549963
100
AcDbArc
 50
36.00001525878907
 51
144.0
  0
ARC
  5
333
330
1F
100
AcDbEntity
  8
C-2_蓋
  6
Continuous
 62
     3
370
     9
100
AcDbCircle
 10
-661.6662102776604
 20
-260.7536192198057
 30
0.0
 40
0.6999999486111307
100
AcDbArc
 50
234.0
 51
324.0
  0
ARC
  5
334
330
1F
100
AcDbEntity
  8
C-2_蓋
  6
Continuous
 62
     3
370
     9
100
AcDbCircle
 10
-661.6662102776604
 20
-260.7536192198057
 30
0.0
 40
0.6999999486111307
100
AcDbArc
 50
144.0
 51
234.0
  0
ARC
  5
335
330
1F
100
AcDbEntity
  8
C-2_蓋
  6
Continuous
 62
     3
370
     9
100
AcDbCircle
 10
-662.387992240287
 20
-259.8757027290962
 30
0.0
 40
0.4000000051549963
100
AcDbArc
 50
324.0000152587891
 51
72.0
  0
ARC
  5
336
330
1F
100
AcDbEntity
  8
C-2_蓋
  6
Continuous
 62
     3
370
     9
100
AcDbCircle
 10
-661.7080276076856
 20
-257.7833515888935
 30
0.0
 40
0.4000000051549963
100
AcDbArc
 50
252.0000152587891
 51
0.0
  0
ARC
  5
337
330
1F
100
AcDbEntity
  8
C-2_蓋
  6
Continuous
 62
     3
370
     9
100
AcDbCircle
 10
-662.3200700089737
 20
-258.7411911423141
 30
0.0
 40
0.6999999486111307
100
AcDbArc
 50
72.0
 51
162.0
  0
ARC
  5
338
330
1F
100
AcDbEntity
  8
C-2_蓋
  6
Continuous
 62
     3
370
     9
100
AcDbCircle
 10
-662.3200700089737
 20
-258.7411911423141
 30
0.0
 40
0.6999999486111307
100
AcDbArc
 50
162.0
 51
252.0
  0
ARC
  5
339
330
1F
100
AcDbEntity
  8
C-2_蓋
  6
Continuous
 62
     3
370
     9
100
AcDbCircle
 10
-631.208223909945
 20
-267.6084446262668
 30
0.0
 40
6.700000086346188
100
AcDbArc
 50
0.0000152587890715
 51
97.24452209472656
  0
ARC
  5
33A
330
1F
100
AcDbEntity
  8
C-2_蓋
  6
Continuous
 62
     3
370
     9
100
AcDbCircle
 10
-660.6081575960727
 20
-257.4973111539273
 30
0.0
 40
0.6999999486111307
100
AcDbArc
 50
90.0
 51
180.0
  0
ARC
  5
33B
330
1F
100
AcDbEntity
  8
C-2_蓋
  6
Continuous
 62
     3
370
     9
100
AcDbCircle
 10
-658.8281992319467
 20
-259.8757027290962
 30
0.0
 40
0.4000000051549963
100
AcDbArc
 50
108.000015258789
 51
216.0
  0
ARC
  5
33C
330
1F
100
AcDbEntity
  8
C-2_蓋
  6
Continuous
 62
     3
370
     9
100
AcDbCircle
 10
-658.8962451831713
 20
-258.7411911423141
 30
0.0
 40
0.6999999486111307
100
AcDbArc
 50
288.0
 51
18.0
  0
ARC
  5
33D
330
1F
100
AcDbEntity
  8
C-2_蓋
  6
Continuous
 62
     3
370
     9
100
AcDbCircle
 10
-658.8962451831713
 20
-258.7411911423141
 30
0.0
 40
0.6999999486111307
100
AcDbArc
 50
18.0
 51
108.0000152587891
  0
ARC
  5
33E
330
1F
100
AcDbEntity
  8
C-2_蓋
  6
Continuous
 62
     3
370
     9
100
AcDbCircle
 10
-659.5501049144846
 20
-260.7536192198057
 30
0.0
 40
0.6999999486111307
100
AcDbArc
 50
216.0
 51
306.0
  0
ARC
  5
33F
330
1F
100
AcDbEntity
  8
C-2_蓋
  6
Continuous
 62
     3
370
     9
100
AcDbCircle
 10
-659.5501049144846
 20
-260.7536192198057
 30
0.0
 40
0.6999999486111307
100
AcDbArc
 50
306.0
 51
36.00000000000006
  0
ARC
  5
340
330
1F
100
AcDbEntity
  8
C-2_蓋
  6
Continuous
 62
     3
370
     9
100
AcDbCircle
 10
-660.6081575960727
 20
-257.4973111539273
 30
0.0
 40
0.6999999486111307
100
AcDbArc
 50
0.0
 51
90.0
  0
ARC
  5
341
330
1F
100
AcDbEntity
  8
C-2_蓋
  6
Continuous
 62
     3
370
     9
100
AcDbCircle
 10
-659.5081638645481
 20
-257.7833515888935
 30
0.0
 40
0.4000000051549963
100
AcDbArc
 50
180.0000152587891
 51
288.0
  0
ARC
  5
342
330
1F
100
AcDbEntity
  8
C-2_蓋
  6
Continuous
 62
     3
370
     9
100
AcDbCircle
 10
-690.0082150021115
 20
-267.6084446262668
 30
0.0
 40
6.700000086346188
100
AcDbArc
 50
82.75549316406249
 51
177.3149261474609
  0
ARC
  5
343
330
1F
100
AcDbEntity
  8
C-2_蓋
  6
Continuous
 62
     3
370
     9
100
AcDbCircle
 10
-660.6081575960727
 20
-259.2974358635979
 30
0.0
 40
5.000000064437454
100
AcDbArc
 50
0.0
 51
180.0
  0
ARC
  5
344
330
1F
100
AcDbEntity
  8
C-2_蓋
  6
Continuous
 62
     3
370
     9
100
AcDbCircle
 10
-628.8081813502956
 20
-259.2974358635979
 30
0.0
 40
11.0000001417624
100
AcDbArc
 50
0.0
 51
90.0
  0
ARC
  5
345
330
1F
100
AcDbEntity
  8
C-2_蓋
  6
Continuous
 62
     3
370
     9
100
AcDbCircle
 10
-631.208223909945
 20
-267.6084446262668
 30
0.0
 40
5.999999594044041
100
AcDbArc
 50
0.0
 51
97.24452209472656
  0
CIRCLE
  5
346
330
1F
100
AcDbEntity
  8
C-2_蓋
  6
Continuous
 62
     3
370
     9
100
AcDbCircle
 10
-660.6081575960727
 20
-259.2974358635979
 30
0.0
 40
4.000000293190415
  0
ARC
  5
347
330
1F
100
AcDbEntity
  8
C-2_蓋
  6
Continuous
 62
     3
370
     9
100
AcDbCircle
 10
-690.0082150021115
 20
-267.6084446262668
 30
0.0
 40
5.999999594044041
100
AcDbArc
 50
82.75549316406249
 51
180.0
  0
ARC
  5
348
330
1F
100
AcDbEntity
  8
C-2_蓋
  6
Continuous
 62
     3
370
     9
100
AcDbCircle
 10
-692.4082575617609
 20
-259.2974358635979
 30
0.0
 40
11.0000001417624
100
AcDbArc
 50
90.0
 51
175.9990692138672
  0
TEXT
  5
349
330
1F
100
AcDbEntity
  8
F-Fﾚｲﾔ
  6
Continuous
 62
     2
370
     9
100
AcDbText
 10
1106.558310019004
 20
-789.9084008789063
 30
0.0
 40
30.48
  1
補強材詳細図　Ｓ＝１：１
 41
1.114583333333333
  7
ＭＳ ゴシック
100
AcDbText
  0
TEXT
  5
34A
330
1F
100
AcDbEntity
  8
F-4ﾚｲﾔ
  6
Continuous
 62
     2
370
     9
100
AcDbText
 10
1357.967067409206
 20
-389.8663773490287
 30
0.0
 40
30.48
  1
50
 41
1.0625
  7
ＭＳ ゴシック
100
AcDbText
  0
TEXT
  5
34B
330
1F
100
AcDbEntity
  8
F-4ﾚｲﾔ
  6
Continuous
 62
     2
370
     9
100
AcDbText
 10
1357.966819969384
 20
-472.4168179568728
 30
0.0
 40
30.48
  1
30
 41
1.0625
  7
ＭＳ ゴシック
100
AcDbText
  0
TEXT
  5
34C
330
1F
100
AcDbEntity
  8
F-4ﾚｲﾔ
  6
Continuous
 62
     2
370
     9
100
AcDbText
 10
1780.819103146115
 20
-637.9284915408572
 30
0.0
 40
30.48
  1
10
 50
90.0
 41
1.0625
  7
ＭＳ ゴシック
100
AcDbText
  0
TEXT
  5
34D
330
1F
100
AcDbEntity
  8
F-4ﾚｲﾔ
  6
Continuous
 62
     2
370
     9
100
AcDbText
 10
1712.362649255701
 20
-557.4009333430109
 30
0.0
 40
30.48
  1
1.6
 50
90.0
 41
1.083333333333333
  7
ＭＳ ゴシック
100
AcDbText
  0
TEXT
  5
34E
330
1F
100
AcDbEntity
  8
D-4_寸法
  6
Continuous
 62
     2
370
     9
100
AcDbText
 10
320.8143904402451
 20
108.9526336175044
 30
0.0
 40
30.48
  1
断面詳細図　Ｓ＝１：２
 41
1.113636363636364
  7
ＭＳ ゴシック
100
AcDbText
  0
TEXT
  5
34F
330
1F
100
AcDbEntity
  8
D-4_寸法
  6
Continuous
 62
     7
370
     9
100
AcDbText
 10
1320.281734982053
 20
935.5998763460727
 30
0.0
 40
22.86
  1
アンカー　ｔ１．６（ＳＰＨＣ）
 41
1.155555555555555
  7
ＭＳ ゴシック
100
AcDbText
  0
TEXT
  5
350
330
1F
100
AcDbEntity
  8
D-4_寸法
  6
Continuous
 62
     7
370
     9
100
AcDbText
 10
1312.904811549831
 20
1031.499138645481
 30
0.0
 40
22.86
  1
枠フレーム　ｔ２．０（ＳＰＨＣ）
 41
1.15625
  7
ＭＳ ゴシック
100
AcDbText
  0
TEXT
  5
351
330
1F
100
AcDbEntity
  8
D-4_寸法
  6
Continuous
 62
     7
370
     9
100
AcDbText
 10
69.90496661212006
 20
954.0420612067146
 30
0.0
 40
22.86
  1
補強材（ＳＰＨＣ）
 41
1.148148148148148
  7
ＭＳ ゴシック
100
AcDbText
  0
TEXT
  5
352
330
1F
100
AcDbEntity
  8
D-4_寸法
  6
Continuous
 62
     7
370
     9
100
AcDbText
 10
1289.843172640414
 20
1123.709815508868
 30
0.0
 40
22.86
  1
目地（ＳＵＳ３０４）
 41
1.15
  7
ＭＳ ゴシック
100
AcDbText
  0
TEXT
  5
353
330
1F
100
AcDbEntity
  8
D-4_寸法
  6
Continuous
 62
     7
370
     9
100
AcDbText
 10
890.1078507706927
 20
106.1257931930956
 30
0.0
 40
22.86
  1
※表面処理：防錆塗装（ＳＰＨＣ材のみ）
 41
1.157894736842105
  7
ＭＳ ゴシック
100
AcDbText
  0
TEXT
  5
354
330
1F
100
AcDbEntity
  8
D-4_寸法
  6
Continuous
 62
     2
370
     9
100
AcDbText
 10
1547.059238545186
 20
671.6384805215373
 30
0.0
 40
30.48
  1
56.5
 50
90.0
 41
1.09375
  7
ＭＳ ゴシック
100
AcDbText
  0
TEXT
  5
355
330
1F
100
AcDbEntity
  8
D-4_寸法
  6
Continuous
 62
     2
370
     9
100
AcDbText
 10
1432.479011956292
 20
737.5371489653717
 30
0.0
 40
30.48
  1
50
 50
90.0
 41
1.0625
  7
ＭＳ ゴシック
100
AcDbText
  0
TEXT
  5
356
330
1F
100
AcDbEntity
  8
D-4_寸法
  6
Continuous
 62
     2
370
     9
100
AcDbText
 10
1640.020400390625
 20
587.6947681323904
 30
0.0
 40
30.48
  1
80～90
 50
90.0
 41
1.104166666666667
  7
ＭＳ ゴシック
100
AcDbText
  0
TEXT
  5
357
330
1F
100
AcDbEntity
  8
D-4_寸法
  6
Continuous
 62
     2
370
     9
100
AcDbText
 10
1147.051094673775
 20
303.0716488729943
 30
0.0
 40
30.48
  1
70～80
 41
1.104166666666667
  7
ＭＳ ゴシック
100
AcDbText
  0
TEXT
  5
358
330
1F
100
AcDbEntity
  8
D-4_寸法
  6
Continuous
 62
     2
370
     9
100
AcDbText
 10
1246.200231603674
 20
504.609899770376
 30
0.0
 40
30.48
  1
44
 41
1.0625
  7
ＭＳ ゴシック
100
AcDbText
  0
TEXT
  5
359
330
1F
100
AcDbEntity
  8
D-4_寸法
  6
Continuous
 62
     2
370
     9
100
AcDbText
 10
1074.950099635769
 20
504.609899770376
 30
0.0
 40
30.48
  1
25
 41
1.0625
  7
ＭＳ ゴシック
100
AcDbText
  0
TEXT
  5
35A
330
1F
100
AcDbEntity
  8
D-4_寸法
  6
Continuous
 62
     2
370
     9
100
AcDbText
 10
1171.068841057855
 20
943.0033637299408
 30
0.0
 40
30.48
  1
4
 41
0.9999999999999998
  7
ＭＳ ゴシック
100
AcDbText
  0
TEXT
  5
35B
330
1F
100
AcDbEntity
  8
D-4_寸法
  6
Continuous
 62
     2
370
     9
100
AcDbText
 10
1084.020006334459
 20
1000.153302364865
 30
0.0
 40
30.48
  1
1.5
 41
1.083333333333333
  7
ＭＳ ゴシック
100
AcDbText
  0
TEXT
  5
35C
330
1F
100
AcDbEntity
  8
D-4_寸法
  6
Continuous
 62
     2
370
     9
100
AcDbText
 10
1080.106992979308
 20
943.0033637299408
 30
0.0
 40
30.48
  1
4
 41
0.9999999999999998
  7
ＭＳ ゴシック
100
AcDbText
  0
TEXT
  5
35D
330
1F
100
AcDbEntity
  8
D-4_寸法
  6
Continuous
 62
     2
370
     9
100
AcDbText
 10
139.5899592219175
 20
1194.081541517103
 30
0.0
 40
30.48
  1
1000
 41
1.09375
  7
ＭＳ ゴシック
100
AcDbText
  0
TEXT
  5
35E
330
1F
100
AcDbEntity
  8
D-4_寸法
  6
Continuous
 62
     2
370
     9
100
AcDbText
 10
139.5899592219175
 20
303.0716488729943
 30
0.0
 40
30.48
  1
950
 41
1.083333333333333
  7
ＭＳ ゴシック
100
AcDbText
  0
TEXT
  5
35F
330
1F
100
AcDbEntity
  8
D-4_寸法
  6
Continuous
 62
     7
370
     9
100
AcDbText
 10
586.4727123363599
 20
420.3932970861487
 30
0.0
 40
22.86
  1
クッション材（ＣＲ）
 41
1.15
  7
ＭＳ ゴシック
100
AcDbText
  0
TEXT
  5
360
330
1F
100
AcDbEntity
  8
C-4_寸法
  6
Continuous
 62
     2
370
     9
100
AcDbText
 10
-951.8580668681376
 20
945.0712183277029
 30
0.0
 40
30.48
  1
1000
 41
1.09375
  7
ＭＳ ゴシック
100
AcDbText
  0
TEXT
  5
361
330
1F
100
AcDbEntity
  8
C-4_寸法
  6
Continuous
 62
     2
370
     9
100
AcDbText
 10
-986.2234991949957
 20
768.5238946368245
 30
0.0
 40
30.48
  1
950
 41
1.083333333333333
  7
ＭＳ ゴシック
100
AcDbText
  0
TEXT
  5
362
330
1F
100
AcDbEntity
  8
C-4_寸法
  6
Continuous
 62
     2
370
     9
100
AcDbText
 10
-1735.476829932961
 20
73.95253774282111
 30
0.0
 40
30.48
  1
1000
 50
90.0
 41
1.09375
  7
ＭＳ ゴシック
100
AcDbText
  0
TEXT
  5
363
330
1F
100
AcDbEntity
  8
C-4_寸法
  6
Continuous
 62
     2
370
     9
100
AcDbText
 10
-1653.867959710198
 20
85.20251299883881
 30
0.0
 40
30.48
  1
989
 50
90.0
 41
1.083333333333333
  7
ＭＳ ゴシック
100
AcDbText
  0
TEXT
  5
364
330
1F
100
AcDbEntity
  8
C-4_寸法
  6
Continuous
 62
     2
370
     9
100
AcDbText
 10
-1558.929506242082
 20
85.20238927892734
 30
0.0
 40
30.48
  1
950
 50
90.0
 41
1.083333333333333
  7
ＭＳ ゴシック
100
AcDbText
  0
TEXT
  5
365
330
1F
100
AcDbEntity
  8
C-4_寸法
  6
Continuous
 62
     2
370
     9
100
AcDbText
 10
-1188.108042124155
 20
860.541568438556
 30
0.0
 40
30.48
  1
494
 41
1.083333333333333
  7
ＭＳ ゴシック
100
AcDbText
  0
TEXT
  5
366
330
1F
100
AcDbEntity
  8
C-4_寸法
  6
Continuous
 62
     2
370
     9
100
AcDbText
 10
-918.1081411000844
 20
860.541568438556
 30
0.0
 40
30.48
  1
1
 41
0.9999999999999998
  7
ＭＳ ゴシック
100
AcDbText
  0
TEXT
  5
367
330
1F
100
AcDbEntity
  8
C-4_寸法
  6
Continuous
 62
     2
370
     9
100
AcDbText
 10
-693.1081411000844
 20
860.541568438556
 30
0.0
 40
30.48
  1
494
 41
1.083333333333333
  7
ＭＳ ゴシック
100
AcDbText
  0
TEXT
  5
368
330
1F
100
AcDbEntity
  8
D-4_寸法
  6
Continuous
 62
     2
370
     9
100
AcDbText
 10
18.12610008445965
 20
646.6383980415964
 30
0.0
 40
30.48
  1
2
 50
90.0
 41
0.9999999999999998
  7
ＭＳ ゴシック
100
AcDbText
  0
TEXT
  5
369
330
1F
100
AcDbEntity
  8
D-4_寸法
  6
Continuous
 62
     2
370
     9
100
AcDbText
 10
18.12610008445965
 20
737.8885135135135
 30
0.0
 40
30.48
  1
39
 50
90.0
 41
1.0625
  7
ＭＳ ゴシック
100
AcDbText
  0
TEXT
  5
36A
330
1F
100
AcDbEntity
  8
D-4_寸法
  6
Continuous
 62
     2
370
     9
100
AcDbText
 10
852.4499841638516
 20
1093.489335541596
 30
0.0
 40
30.48
  1
110
 41
1.083333333333333
  7
ＭＳ ゴシック
100
AcDbText
  0
TEXT
  5
36B
330
1F
100
AcDbEntity
  8
D-4_寸法
  6
Continuous
 62
     2
370
     9
100
AcDbText
 10
109.8373000686234
 20
-822.585675015836
 30
0.0
 40
30.48
  1
把手詳細図　Ｓ＝１：２
 41
1.113636363636364
  7
ＭＳ ゴシック
100
AcDbText
  0
TEXT
  5
36C
330
1F
100
AcDbEntity
  8
D-4_寸法
  6
Continuous
 62
     7
370
     9
100
AcDbText
 10
663.3547396273229
 20
-251.5897928763724
 30
0.0
 40
22.86
  1
ＳＵＳ３０４
 41
1.138888888888889
  7
ＭＳ ゴシック
100
AcDbText
  0
TEXT
  5
36D
330
1F
100
AcDbEntity
  8
D-4_寸法
  6
Continuous
 62
     2
370
     9
100
AcDbText
 10
316.148665144637
 20
-272.6253066274281
 30
0.0
 40
30.48
  1
102
 41
1.083333333333333
  7
ＭＳ ゴシック
100
AcDbText
  0
TEXT
  5
36E
330
1F
100
AcDbEntity
  8
D-4_寸法
  6
Continuous
 62
     2
370
     9
100
AcDbText
 10
702.6574820523651
 20
-568.277027027027
 30
0.0
 40
30.48
  1
62
 50
90.0
 41
1.0625
  7
ＭＳ ゴシック
100
AcDbText
  0
TEXT
  5
36F
330
1F
100
AcDbEntity
  8
D-4_寸法
  6
Continuous
 62
     7
370
     9
100
AcDbText
 10
246.1489290804477
 20
-599.8872006967905
 30
0.0
 40
22.86
  1
ＫＡＮＥＳＯ
 41
1.138888888888889
  7
ＭＳ ゴシック
100
AcDbText
  0
TEXT
  5
370
330
1F
100
AcDbEntity
  8
C-F
  6
Continuous
 62
     2
370
     9
100
AcDbText
 10
-1129.107995935388
 20
519.5746631123312
 30
0.0
 40
6.096
  1
ＫＡＮＥＳＯ
 50
180.0
 41
1.104166701033309
  7
ＭＳ ゴシック
100
AcDbText
  0
TEXT
  5
371
330
1F
100
AcDbEntity
  8
C-F
  6
Continuous
 62
     2
370
     9
100
AcDbText
 10
-634.1080949113175
 20
519.5746631123312
 30
0.0
 40
6.096
  1
ＫＡＮＥＳＯ
 50
180.0
 41
1.104166701033312
  7
ＭＳ ゴシック
100
AcDbText
  0
TEXT
  5
372
330
1F
100
AcDbEntity
  8
C-F
  6
Continuous
 62
     2
370
     9
100
AcDbText
 10
-1182.108121304899
 20
-284.1694226668074
 30
0.0
 40
6.096
  1
ＫＡＮＥＳＯ
 41
1.104166701033309
  7
ＭＳ ゴシック
100
AcDbText
  0
TEXT
  5
373
330
1F
100
AcDbEntity
  8
C-F
  6
Continuous
 62
     2
370
     9
100
AcDbText
 10
-687.1082202808276
 20
-284.1694226668074
 30
0.0
 40
6.096
  1
ＫＡＮＥＳＯ
 41
1.104166701033306
  7
ＭＳ ゴシック
100
AcDbText
  0
LINE
  5
374
330
1F
100
AcDbEntity
  8
D-4_寸法
  6
Continuous
 62
     7
370
     9
100
AcDbLine
 10
423.3195030256201
 20
651.6384145375846
 30
0.0
 11
414.4200823647251
 21
628.2761362436656
 31
0.0
  0
LINE
  5
375
330
1F
100
AcDbEntity
  8
D-4_寸法
  6
Continuous
 62
     7
370
     9
100
AcDbLine
 10
423.3195030256201
 20
651.6384145375846
 30
0.0
 11
408.6765092017183
 21
631.3755674619932
 31
0.0
  0
LINE
  5
376
330
1F
100
AcDbEntity
  8
D-4_寸法
  6
Continuous
 62
     7
370
     9
100
AcDbLine
 10
367.3013541394292
 20
547.834192224451
 30
0.0
 11
-24.04130382615328
 21
547.834192224451
 31
0.0
  0
LINE
  5
377
330
1F
100
AcDbEntity
  8
D-4_寸法
  6
Continuous
 62
     7
370
     9
100
AcDbLine
 10
367.3013541394292
 20
547.834192224451
 30
0.0
 11
423.3195030256201
 21
651.6384145375846
 31
0.0
  0
TEXT
  5
378
330
1F
100
AcDbEntity
  8
D-4_寸法
  6
Continuous
 62
     7
370
     9
100
AcDbText
 10
-16.66438039393221
 20
562.0034787399707
 30
0.0
 40
22.86
  1
蓋フレーム（ＳＰＨＣ）
 41
1.151515151515152
  7
ＭＳ ゴシック
100
AcDbText
  0
LWPOLYLINE
  5
379
330
1F
100
AcDbEntity
  8
C-4_寸法
  6
Continuous
 62
     7
370
     9
100
AcDbPolyline
 90
        4
 70
     1
 43
2.0
 10
-1407.108149348079
 20
-602.4578194717749
 42
0.4142135623731
 10
-1408.108149348079
 20
-601.4578194717749
 42
0.4142135623731
 10
-1409.108149348079
 20
-602.4578194717749
 42
0.4142135623731
 10
-1408.108149348079
 20
-603.4578194717749
 42
0.4142135623731
  0
LWPOLYLINE
  5
37A
330
1F
100
AcDbEntity
  8
C-4_寸法
  6
Continuous
 62
     7
370
     9
100
AcDbPolyline
 90
        4
 70
     1
 43
2.0
 10
-907.1082318280195
 20
-602.4578194717749
 42
0.4142135623731
 10
-908.1082318280194
 20
-601.4578194717749
 42
0.4142135623731
 10
-909.1082318280194
 20
-602.4578194717749
 42
0.4142135623731
 10
-908.1082318280194
 20
-603.4578194717749
 42
0.4142135623731
  0
LWPOLYLINE
  5
37B
330
1F
100
AcDbEntity
  8
C-4_寸法
  6
Continuous
 62
     7
370
     9
100
AcDbPolyline
 90
        4
 70
     1
 43
2.0
 10
-407.1080668681375
 20
-602.4578194717749
 42
0.4142135623731
 10
-408.1080668681375
 20
-601.4578194717749
 42
0.4142135623731
 10
-409.1080668681375
 20
-602.4578194717749
 42
0.4142135623731
 10
-408.1080668681375
 20
-603.4578194717749
 42
0.4142135623731
  0
LINE
  5
37C
330
1F
100
AcDbEntity
  8
C-4_寸法
  6
Continuous
 62
     7
370
     9
100
AcDbLine
 10
-1203.745125435494
 20
-723.9270181626533
 30
0.0
 11
-621.4599609375
 21
-723.9270181626533
 31
0.0
  0
LINE
  5
37D
330
1F
100
AcDbEntity
  8
C-4_寸法
  6
Continuous
 62
     7
370
     9
100
AcDbLine
 10
-1408.108149348079
 20
-397.2973467852617
 30
0.0
 11
-1408.108149348079
 21
-607.457835967763
 31
0.0
  0
LINE
  5
37E
330
1F
100
AcDbEntity
  8
C-4_寸法
  6
Continuous
 62
     7
370
     9
100
AcDbLine
 10
-908.1082318280194
 20
-445.7976552602406
 30
0.0
 11
-908.1082318280194
 21
-607.457835967763
 31
0.0
  0
LINE
  5
37F
330
1F
100
AcDbEntity
  8
C-4_寸法
  6
Continuous
 62
     7
370
     9
100
AcDbLine
 10
-408.1080668681375
 20
-397.2973467852617
 30
0.0
 11
-408.1080668681375
 21
-607.457835967763
 31
0.0
  0
TEXT
  5
380
330
1F
100
AcDbEntity
  8
C-4_寸法
  6
Continuous
 62
     2
370
     9
100
AcDbText
 10
-1184.464861895587
 20
-711.3116895625689
 30
0.0
 40
30.48
  1
平面詳細図　Ｓ＝１：１０
 41
1.114583333333333
  7
ＭＳ ゴシック
100
AcDbText
  0
LINE
  5
381
330
1F
100
AcDbEntity
  8
C-1_ピット
  6
Continuous
 62
     2
370
     9
100
AcDbLine
 10
-1322.608157596073
 20
-425.7974655563767
 30
0.0
 11
-1342.608099860114
 21
-425.7974655563767
 31
0.0
  0
LINE
  5
382
330
1F
100
AcDbEntity
  8
C-1_ピット
  6
Continuous
 62
     2
370
     9
100
AcDbLine
 10
-1322.608157596073
 20
-401.7972873997043
 30
0.0
 11
-1342.608099860114
 21
-401.7972873997043
 31
0.0
  0
LINE
  5
383
330
1F
100
AcDbEntity
  8
C-1_ピット
  6
JWW_CENTER1
 62
     2
370
     9
100
AcDbLine
 10
-1317.608141100084
 20
-415.7974325644003
 30
0.0
 11
-1347.608116356102
 21
-415.7974325644003
 31
0.0
  0
LINE
  5
384
330
1F
100
AcDbEntity
  8
C-1_ピット
  6
JWW_CENTER1
 62
     2
370
     9
100
AcDbLine
 10
-1332.608190588049
 20
-404.2974193676098
 30
0.0
 11
-1332.608190588049
 21
-430.7974820523648
 31
0.0
  0
LINE
  5
385
330
1F
100
AcDbEntity
  8
C-1_ピット
  6
Continuous
 62
     2
370
     9
100
AcDbLine
 10
-1342.608099860114
 20
-382.2972972972973
 30
0.0
 11
-1342.608099860114
 21
-425.7974655563767
 31
0.0
  0
LINE
  5
386
330
1F
100
AcDbEntity
  8
C-1_ピット
  6
Continuous
 62
     2
370
     9
100
AcDbLine
 10
-1322.608157596073
 20
-382.2972972972973
 30
0.0
 11
-1322.608157596073
 21
-425.7974655563767
 31
0.0
  0
CIRCLE
  5
387
330
1F
100
AcDbEntity
  8
C-1_ピット
  6
Continuous
 62
     2
370
     9
100
AcDbCircle
 10
-1332.608190588049
 20
-415.7974325644003
 30
0.0
 40
6.499999600487786
  0
LWPOLYLINE
  5
388
330
1F
100
AcDbEntity
  8
C-4_寸法
  6
Continuous
 62
     7
370
     9
100
AcDbPolyline
 90
        4
 70
     1
 43
2.0
 10
-1331.608190588049
 20
-602.4578194717749
 42
0.4142135623731
 10
-1332.608190588049
 20
-601.4578194717749
 42
0.4142135623731
 10
-1333.608190588049
 20
-602.4578194717749
 42
0.4142135623731
 10
-1332.608190588049
 20
-603.4578194717749
 42
0.4142135623731
  0
LINE
  5
389
330
1F
100
AcDbEntity
  8
C-4_寸法
  6
Continuous
 62
     7
370
     9
100
AcDbLine
 10
-1332.608190588049
 20
-445.7976552602406
 30
0.0
 11
-1332.608190588049
 21
-607.457835967763
 31
0.0
  0
LINE
  5
38A
330
1F
100
AcDbEntity
  8
C-1_ピット
  6
Continuous
 62
     2
370
     9
100
AcDbLine
 10
-473.6081163561021
 20
-425.7974655563767
 30
0.0
 11
-493.6081823400549
 21
-425.7974655563767
 31
0.0
  0
LINE
  5
38B
330
1F
100
AcDbEntity
  8
C-1_ピット
  6
Continuous
 62
     2
370
     9
100
AcDbLine
 10
-473.6081163561021
 20
-401.7972873997043
 30
0.0
 11
-493.6081823400549
 21
-401.7972873997043
 31
0.0
  0
LINE
  5
38C
330
1F
100
AcDbEntity
  8
C-1_ピット
  6
JWW_CENTER1
 62
     2
370
     9
100
AcDbLine
 10
-468.6080998601141
 20
-415.7974325644003
 30
0.0
 11
-498.6081988360429
 21
-415.7974325644003
 31
0.0
  0
LINE
  5
38D
330
1F
100
AcDbEntity
  8
C-1_ピット
  6
JWW_CENTER1
 62
     2
370
     9
100
AcDbLine
 10
-483.6081493480783
 20
-404.2974193676098
 30
0.0
 11
-483.6081493480783
 21
-430.7974820523648
 31
0.0
  0
LINE
  5
38E
330
1F
100
AcDbEntity
  8
C-1_ピット
  6
Continuous
 62
     2
370
     9
100
AcDbLine
 10
-493.6081823400549
 20
-382.2972972972973
 30
0.0
 11
-493.6081823400549
 21
-425.7974655563767
 31
0.0
  0
LINE
  5
38F
330
1F
100
AcDbEntity
  8
C-1_ピット
  6
Continuous
 62
     2
370
     9
100
AcDbLine
 10
-473.6081163561021
 20
-382.2972972972973
 30
0.0
 11
-473.6081163561021
 21
-425.7974655563767
 31
0.0
  0
CIRCLE
  5
390
330
1F
100
AcDbEntity
  8
C-1_ピット
  6
Continuous
 62
     2
370
     9
100
AcDbCircle
 10
-483.6081493480783
 20
-415.7974325644003
 30
0.0
 40
6.499999600487786
  0
LWPOLYLINE
  5
391
330
1F
100
AcDbEntity
  8
C-4_寸法
  6
Continuous
 62
     7
370
     9
100
AcDbPolyline
 90
        4
 70
     1
 43
2.0
 10
-482.6081493480783
 20
-602.4578194717749
 42
0.4142135623731
 10
-483.6081493480783
 20
-601.4578194717749
 42
0.4142135623731
 10
-484.6081493480784
 20
-602.4578194717749
 42
0.4142135623731
 10
-483.6081493480783
 20
-603.4578194717749
 42
0.4142135623731
  0
LINE
  5
392
330
1F
100
AcDbEntity
  8
C-4_寸法
  6
Continuous
 62
     7
370
     9
100
AcDbLine
 10
-483.6081493480783
 20
-445.7976552602406
 30
0.0
 11
-483.6081493480783
 21
-607.457835967763
 31
0.0
  0
LINE
  5
393
330
1F
100
AcDbEntity
  8
C-1_ピット
  6
Continuous
 62
     2
370
     9
100
AcDbLine
 10
-1342.608099860114
 20
661.2029534417231
 30
0.0
 11
-1322.608157596072
 21
661.2029534417231
 31
0.0
  0
LINE
  5
394
330
1F
100
AcDbEntity
  8
C-1_ピット
  6
Continuous
 62
     2
370
     9
100
AcDbLine
 10
-1342.608099860114
 20
637.2027752850508
 30
0.0
 11
-1322.608157596072
 21
637.2027752850508
 31
0.0
  0
LINE
  5
395
330
1F
100
AcDbEntity
  8
C-1_ピット
  6
JWW_CENTER1
 62
     2
370
     9
100
AcDbLine
 10
-1347.608116356102
 20
651.2024255701016
 30
0.0
 11
-1317.608141100084
 21
651.2024255701016
 31
0.0
  0
LINE
  5
396
330
1F
100
AcDbEntity
  8
C-1_ピット
  6
JWW_CENTER1
 62
     2
370
     9
100
AcDbLine
 10
-1332.608066868137
 20
639.702412373311
 30
0.0
 11
-1332.608066868137
 21
666.2027224978885
 31
0.0
  0
LINE
  5
397
330
1F
100
AcDbEntity
  8
C-1_ピット
  6
Continuous
 62
     2
370
     9
100
AcDbLine
 10
-1322.608157596072
 20
617.702537742821
 30
0.0
 11
-1322.608157596072
 21
661.2029534417231
 31
0.0
  0
LINE
  5
398
330
1F
100
AcDbEntity
  8
C-1_ピット
  6
Continuous
 62
     2
370
     9
100
AcDbLine
 10
-1342.608099860114
 20
617.702537742821
 30
0.0
 11
-1342.608099860114
 21
661.2029534417231
 31
0.0
  0
CIRCLE
  5
399
330
1F
100
AcDbEntity
  8
C-1_ピット
  6
Continuous
 62
     2
370
     9
100
AcDbCircle
 10
-1332.608066868137
 20
651.2024255701016
 30
0.0
 40
6.499999600487786
  0
LINE
  5
39A
330
1F
100
AcDbEntity
  8
C-1_ピット
  6
Continuous
 62
     2
370
     9
100
AcDbLine
 10
-493.6081823400549
 20
661.2029534417231
 30
0.0
 11
-473.6081163561021
 21
661.2029534417231
 31
0.0
  0
LINE
  5
39B
330
1F
100
AcDbEntity
  8
C-1_ピット
  6
Continuous
 62
     2
370
     9
100
AcDbLine
 10
-493.6081823400549
 20
637.2027752850508
 30
0.0
 11
-473.6081163561021
 21
637.2027752850508
 31
0.0
  0
LINE
  5
39C
330
1F
100
AcDbEntity
  8
C-1_ピット
  6
JWW_CENTER1
 62
     2
370
     9
100
AcDbLine
 10
-498.6081988360429
 20
651.2024255701016
 30
0.0
 11
-468.6080998601141
 21
651.2024255701016
 31
0.0
  0
LINE
  5
39D
330
1F
100
AcDbEntity
  8
C-1_ピット
  6
JWW_CENTER1
 62
     2
370
     9
100
AcDbLine
 10
-483.6081493480783
 20
639.702412373311
 30
0.0
 11
-483.6081493480783
 21
666.2027224978885
 31
0.0
  0
LINE
  5
39E
330
1F
100
AcDbEntity
  8
C-1_ピット
  6
Continuous
 62
     2
370
     9
100
AcDbLine
 10
-473.6081163561021
 20
617.702537742821
 30
0.0
 11
-473.6081163561021
 21
661.2029534417231
 31
0.0
  0
LINE
  5
39F
330
1F
100
AcDbEntity
  8
C-1_ピット
  6
Continuous
 62
     2
370
     9
100
AcDbLine
 10
-493.6081823400549
 20
617.702537742821
 30
0.0
 11
-493.6081823400549
 21
661.2029534417231
 31
0.0
  0
CIRCLE
  5
3A0
330
1F
100
AcDbEntity
  8
C-1_ピット
  6
Continuous
 62
     2
370
     9
100
AcDbCircle
 10
-483.6081493480783
 20
651.2024255701016
 30
0.0
 40
6.499999600487786
  0
LWPOLYLINE
  5
3A1
330
1F
100
AcDbEntity
  8
C-4_寸法
  6
Continuous
 62
     7
370
     9
100
AcDbPolyline
 90
        4
 70
     1
 43
2.0
 10
-251.4105175121409
 20
542.2027027027029
 42
0.4142135623731
 10
-252.4105175121409
 20
543.2027027027029
 42
0.4142135623731
 10
-253.4105175121409
 20
542.2027027027029
 42
0.4142135623731
 10
-252.4105175121409
 20
541.2027027027029
 42
0.4142135623731
  0
LINE
  5
3A2
330
1F
100
AcDbEntity
  8
C-1_ピット
  6
Continuous
 62
     2
370
     9
100
AcDbLine
 10
-1451.608193887247
 20
532.2026697107266
 30
0.0
 11
-1451.608193887247
 21
552.2027356946792
 31
0.0
  0
LINE
  5
3A3
330
1F
100
AcDbEntity
  8
C-1_ピット
  6
Continuous
 62
     2
370
     9
100
AcDbLine
 10
-1427.608139450485
 20
532.2026697107266
 30
0.0
 11
-1427.608139450485
 21
552.2027356946792
 31
0.0
  0
LINE
  5
3A4
330
1F
100
AcDbEntity
  8
C-1_ピット
  6
JWW_CENTER1
 62
     2
370
     9
100
AcDbLine
 10
-1441.60816089527
 20
527.2026532147383
 30
0.0
 11
-1441.60816089527
 21
557.2025047508448
 31
0.0
  0
LINE
  5
3A5
330
1F
100
AcDbEntity
  8
C-1_ピット
  6
JWW_CENTER1
 62
     2
370
     9
100
AcDbLine
 10
-1430.10814769848
 20
542.2027027027029
 30
0.0
 11
-1456.608210383235
 21
542.2027027027029
 31
0.0
  0
LINE
  5
3A6
330
1F
100
AcDbEntity
  8
C-1_ピット
  6
Continuous
 62
     2
370
     9
100
AcDbLine
 10
-1408.108149348079
 20
552.2027356946792
 30
0.0
 11
-1451.608193887247
 21
552.2027356946792
 31
0.0
  0
LINE
  5
3A7
330
1F
100
AcDbEntity
  8
C-1_ピット
  6
Continuous
 62
     2
370
     9
100
AcDbLine
 10
-1408.108149348079
 20
532.2026697107266
 30
0.0
 11
-1451.608193887247
 21
532.2026697107266
 31
0.0
  0
LINE
  5
3A8
330
1F
100
AcDbEntity
  8
C-1_ピット
  6
Continuous
 62
     2
370
     9
100
AcDbLine
 10
-364.6081460488807
 20
552.2027356946792
 30
0.0
 11
-364.6081460488807
 21
532.2026697107266
 31
0.0
  0
LINE
  5
3A9
330
1F
100
AcDbEntity
  8
C-1_ピット
  6
Continuous
 62
     2
370
     9
100
AcDbLine
 10
-388.6080767657305
 20
552.2027356946792
 30
0.0
 11
-388.6080767657305
 21
532.2026697107266
 31
0.0
  0
LINE
  5
3AA
330
1F
100
AcDbEntity
  8
C-1_ピット
  6
JWW_CENTER1
 62
     2
370
     9
100
AcDbLine
 10
-374.6081790408573
 20
557.2025047508448
 30
0.0
 11
-374.6081790408573
 21
527.2026532147383
 31
0.0
  0
LINE
  5
3AB
330
1F
100
AcDbEntity
  8
C-1_ピット
  6
JWW_CENTER1
 62
     2
370
     9
100
AcDbLine
 10
-386.1081922376476
 20
542.2027027027029
 30
0.0
 11
-359.6081295528927
 21
542.2027027027029
 31
0.0
  0
LINE
  5
3AC
330
1F
100
AcDbEntity
  8
C-1_ピット
  6
Continuous
 62
     2
370
     9
100
AcDbLine
 10
-408.1080668681375
 20
532.2026697107266
 30
0.0
 11
-364.6081460488807
 21
532.2026697107266
 31
0.0
  0
LINE
  5
3AD
330
1F
100
AcDbEntity
  8
C-1_ピット
  6
Continuous
 62
     2
370
     9
100
AcDbLine
 10
-408.1080668681375
 20
552.2027356946792
 30
0.0
 11
-364.6081460488807
 21
552.2027356946792
 31
0.0
  0
LINE
  5
3AE
330
1F
100
AcDbEntity
  8
C-4_寸法
  6
Continuous
 62
     7
370
     9
100
AcDbLine
 10
-349.6080965609164
 20
542.2027027027029
 30
0.0
 11
-247.4105010161529
 21
542.2027027027029
 31
0.0
  0
CIRCLE
  5
3AF
330
1F
100
AcDbEntity
  8
C-1_ピット
  6
Continuous
 62
     2
370
     9
100
AcDbCircle
 10
-1441.60816089527
 20
542.2027027027029
 30
0.0
 40
6.499999600487786
  0
CIRCLE
  5
3B0
330
1F
100
AcDbEntity
  8
C-1_ピット
  6
Continuous
 62
     2
370
     9
100
AcDbCircle
 10
-374.6081790408573
 20
542.2027027027029
 30
0.0
 40
6.499999600487786
  0
LWPOLYLINE
  5
3B1
330
1F
100
AcDbEntity
  8
C-4_寸法
  6
Continuous
 62
     7
370
     9
100
AcDbPolyline
 90
        4
 70
     1
 43
2.0
 10
-251.4105175121409
 20
-306.7974622571791
 42
0.4142135623731
 10
-252.4105175121409
 20
-305.7974622571791
 42
0.4142135623731
 10
-253.4105175121409
 20
-306.7974622571791
 42
0.4142135623731
 10
-252.4105175121409
 20
-307.7974622571791
 42
0.4142135623731
  0
LINE
  5
3B2
330
1F
100
AcDbEntity
  8
C-1_ピット
  6
Continuous
 62
     2
370
     9
100
AcDbLine
 10
-1451.608193887247
 20
-316.7972478093327
 30
0.0
 11
-1451.608193887247
 21
-296.7974292652026
 31
0.0
  0
LINE
  5
3B3
330
1F
100
AcDbEntity
  8
C-1_ピット
  6
Continuous
 62
     2
370
     9
100
AcDbLine
 10
-1427.608139450485
 20
-316.7972478093327
 30
0.0
 11
-1427.608139450485
 21
-296.7974292652026
 31
0.0
  0
LINE
  5
3B4
330
1F
100
AcDbEntity
  8
C-1_ピット
  6
JWW_CENTER1
 62
     2
370
     9
100
AcDbLine
 10
-1441.60816089527
 20
-321.7972643053208
 30
0.0
 11
-1441.60816089527
 21
-291.7971653293918
 31
0.0
  0
LINE
  5
3B5
330
1F
100
AcDbEntity
  8
C-1_ピット
  6
JWW_CENTER1
 62
     2
370
     9
100
AcDbLine
 10
-1430.10814769848
 20
-306.7974622571791
 30
0.0
 11
-1456.608210383235
 21
-306.7974622571791
 31
0.0
  0
LINE
  5
3B6
330
1F
100
AcDbEntity
  8
C-1_ピット
  6
Continuous
 62
     2
370
     9
100
AcDbLine
 10
-1408.108149348079
 20
-296.7974292652026
 30
0.0
 11
-1451.608193887247
 21
-296.7974292652026
 31
0.0
  0
LINE
  5
3B7
330
1F
100
AcDbEntity
  8
C-1_ピット
  6
Continuous
 62
     2
370
     9
100
AcDbLine
 10
-1408.108149348079
 20
-316.7972478093327
 30
0.0
 11
-1451.608193887247
 21
-316.7972478093327
 31
0.0
  0
LINE
  5
3B8
330
1F
100
AcDbEntity
  8
C-1_ピット
  6
Continuous
 62
     2
370
     9
100
AcDbLine
 10
-364.6081460488807
 20
-296.7974292652026
 30
0.0
 11
-364.6081460488807
 21
-316.7972478093327
 31
0.0
  0
LINE
  5
3B9
330
1F
100
AcDbEntity
  8
C-1_ピット
  6
Continuous
 62
     2
370
     9
100
AcDbLine
 10
-388.6080767657305
 20
-296.7974292652026
 30
0.0
 11
-388.6080767657305
 21
-316.7972478093327
 31
0.0
  0
LINE
  5
3BA
330
1F
100
AcDbEntity
  8
C-1_ピット
  6
JWW_CENTER1
 62
     2
370
     9
100
AcDbLine
 10
-374.6081790408573
 20
-291.7974127692145
 30
0.0
 11
-374.6081790408573
 21
-321.7972643053208
 31
0.0
  0
LINE
  5
3BB
330
1F
100
AcDbEntity
  8
C-1_ピット
  6
JWW_CENTER1
 62
     2
370
     9
100
AcDbLine
 10
-386.1081922376476
 20
-306.7974622571791
 30
0.0
 11
-359.6081295528927
 21
-306.7974622571791
 31
0.0
  0
LINE
  5
3BC
330
1F
100
AcDbEntity
  8
C-1_ピット
  6
Continuous
 62
     2
370
     9
100
AcDbLine
 10
-408.1080668681375
 20
-316.7972478093327
 30
0.0
 11
-364.6081460488807
 21
-316.7972478093327
 31
0.0
  0
LINE
  5
3BD
330
1F
100
AcDbEntity
  8
C-1_ピット
  6
Continuous
 62
     2
370
     9
100
AcDbLine
 10
-408.1080668681375
 20
-296.7974292652026
 30
0.0
 11
-364.6081460488807
 21
-296.7974292652026
 31
0.0
  0
LINE
  5
3BE
330
1F
100
AcDbEntity
  8
C-4_寸法
  6
Continuous
 62
     7
370
     9
100
AcDbLine
 10
-344.6080800649281
 20
-306.7974622571791
 30
0.0
 11
-247.4105010161529
 21
-306.7974622571791
 31
0.0
  0
CIRCLE
  5
3BF
330
1F
100
AcDbEntity
  8
C-1_ピット
  6
Continuous
 62
     2
370
     9
100
AcDbCircle
 10
-1441.60816089527
 20
-306.7974622571791
 30
0.0
 40
6.499999600487786
  0
CIRCLE
  5
3C0
330
1F
100
AcDbEntity
  8
C-1_ピット
  6
Continuous
 62
     2
370
     9
100
AcDbCircle
 10
-374.6081790408573
 20
-306.7974622571791
 30
0.0
 40
6.499999600487786
  0
LINE
  5
3C1
330
1F
100
AcDbEntity
  8
C-4_寸法
  6
Continuous
 62
     7
370
     9
100
AcDbLine
 10
-1408.108149348079
 20
-602.4578194717749
 30
0.0
 11
-1332.608190588049
 21
-602.4578194717749
 31
0.0
  0
LINE
  5
3C2
330
1F
100
AcDbEntity
  8
C-4_寸法
  6
Continuous
 62
     7
370
     9
100
AcDbLine
 10
-1332.608190588049
 20
-602.4578194717749
 30
0.0
 11
-908.1082318280194
 21
-602.4578194717749
 31
0.0
  0
TEXT
  5
3C3
330
1F
100
AcDbEntity
  8
C-4_寸法
  6
Continuous
 62
     2
370
   211
100
AcDbText
 10
-1175.358211208034
 20
-590.8178986525181
 30
0.0
 40
30.48
  1
424.5
 41
1.1
  7
ＭＳ ゴシック
100
AcDbText
  0
LINE
  5
3C4
330
1F
100
AcDbEntity
  8
C-4_寸法
  6
Continuous
 62
     7
370
     9
100
AcDbLine
 10
-908.1082318280194
 20
-602.4578194717749
 30
0.0
 11
-483.6081493480783
 21
-602.4578194717749
 31
0.0
  0
TEXT
  5
3C5
330
1F
100
AcDbEntity
  8
C-4_寸法
  6
Continuous
 62
     2
370
   211
100
AcDbText
 10
-750.8581905880488
 20
-590.8178986525181
 30
0.0
 40
30.48
  1
424.5
 41
1.1
  7
ＭＳ ゴシック
100
AcDbText
  0
LINE
  5
3C6
330
1F
100
AcDbEntity
  8
C-4_寸法
  6
Continuous
 62
     7
370
     9
100
AcDbLine
 10
-483.6081493480783
 20
-602.4578194717749
 30
0.0
 11
-408.1080668681375
 21
-602.4578194717749
 31
0.0
  0
LINE
  5
3C7
330
1F
100
AcDbEntity
  8
C-4_寸法
  6
Continuous
 62
     7
370
     9
100
AcDbLine
 10
-252.4105175121409
 20
-382.2972972972973
 30
0.0
 11
-252.4105175121409
 21
-306.7974622571791
 31
0.0
  0
LINE
  5
3C8
330
1F
100
AcDbEntity
  8
C-4_寸法
  6
Continuous
 62
     7
370
     9
100
AcDbLine
 10
-252.4105175121409
 20
-306.7974622571791
 30
0.0
 11
-252.4105175121409
 21
117.702620222762
 31
0.0
  0
TEXT
  5
3C9
330
1F
100
AcDbEntity
  8
C-4_寸法
  6
Continuous
 62
     2
370
   211
100
AcDbText
 10
-264.0505620513091
 20
-149.5474210172085
 30
0.0
 40
30.48
  1
424.5
 50
90.0
 41
1.1
  7
ＭＳ ゴシック
100
AcDbText
  0
LINE
  5
3CA
330
1F
100
AcDbEntity
  8
C-4_寸法
  6
Continuous
 62
     7
370
     9
100
AcDbLine
 10
-252.4105175121409
 20
117.702620222762
 30
0.0
 11
-252.4105175121409
 21
542.2027027027029
 31
0.0
  0
TEXT
  5
3CB
330
1F
100
AcDbEntity
  8
C-4_寸法
  6
Continuous
 62
     2
370
   211
100
AcDbText
 10
-264.0505620513091
 20
274.9526614627325
 30
0.0
 40
30.48
  1
424.5
 50
90.0
 41
1.1
  7
ＭＳ ゴシック
100
AcDbText
  0
LINE
  5
3CC
330
1F
100
AcDbEntity
  8
C-4_寸法
  6
Continuous
 62
     7
370
     9
100
AcDbLine
 10
-252.4105175121409
 20
542.2027027027029
 30
0.0
 11
-252.4105175121409
 21
617.702537742821
 31
0.0
  0
TEXT
  5
3CD
330
1F
100
AcDbEntity
  8
C-4_寸法
  6
Continuous
 62
     2
370
   211
100
AcDbText
 10
-1502.059187313976
 20
-590.8178986525181
 30
0.0
 40
30.48
  1
75.5
 41
1.09375
  7
ＭＳ ゴシック
100
AcDbText
  0
TEXT
  5
3CE
330
1F
100
AcDbEntity
  8
C-4_寸法
  6
Continuous
 62
     2
370
   211
100
AcDbText
 10
-394.7089419115753
 20
-590.8178986525181
 30
0.0
 40
30.48
  1
75.5
 41
1.09375
  7
ＭＳ ゴシック
100
AcDbText
  0
TEXT
  5
3CF
330
1F
100
AcDbEntity
  8
C-4_寸法
  6
Continuous
 62
     2
370
   211
100
AcDbText
 10
-264.0505620513091
 20
-483.3593272623339
 30
0.0
 40
30.48
  1
75.5
 50
90.0
 41
1.09375
  7
ＭＳ ゴシック
100
AcDbText
  0
TEXT
  5
3D0
330
1F
100
AcDbEntity
  8
C-4_寸法
  6
Continuous
 62
     2
370
   211
100
AcDbText
 10
-264.0505620513091
 20
633.2629895728621
 30
0.0
 40
30.48
  1
75.5
 50
90.0
 41
1.09375
  7
ＭＳ ゴシック
100
AcDbText
  0
LINE
  5
3D1
330
1F
100
AcDbEntity
  8
C-4_寸法
  6
Continuous
 62
     7
370
     9
100
AcDbLine
 10
-1408.108149348079
 20
-602.4578194717749
 30
0.0
 11
-1528.512013876568
 21
-602.4578194717749
 31
0.0
  0
LINE
  5
3D2
330
1F
100
AcDbEntity
  8
C-4_寸法
  6
Continuous
 62
     7
370
     9
100
AcDbLine
 10
-408.1080668681375
 20
-602.4578194717749
 30
0.0
 11
-312.5460745471377
 21
-602.4578194717749
 31
0.0
  0
LINE
  5
3D3
330
1F
100
AcDbEntity
  8
C-4_寸法
  6
Continuous
 62
     7
370
     9
100
AcDbLine
 10
-252.4105175121409
 20
-382.2972972972973
 30
0.0
 11
-252.4105175121409
 21
-501.2023732087593
 31
0.0
  0
LINE
  5
3D4
330
1F
100
AcDbEntity
  8
C-4_寸法
  6
Continuous
 62
     7
370
     9
100
AcDbLine
 10
-252.4105175121409
 20
617.702537742821
 30
0.0
 11
-252.4105175121409
 21
735.1290087319893
 31
0.0
  0
TEXT
  5
3D5
330
1F
100
AcDbEntity
  8
F-5ﾚｲﾔ
  6
Continuous
 62
     7
370
     9
100
AcDbText
 10
-792.9467690957557
 20
-1363.865323717272
 30
0.0
 40
22.86
  1
スチール製　ステンレス目地　把手ロック式　ＭＴＳＳ－Ｍ－１０００
  7
ＭＳ ゴシック
100
AcDbText
  0
TEXT
  5
3D6
330
1F
100
AcDbEntity
  8
F-5ﾚｲﾔ
  6
Continuous
 62
     7
370
     9
100
AcDbText
 10
-792.9467690957557
 20
-1323.865315469278
 30
0.0
 40
22.86
  1
フロアーハッチ　充填用（充填深さ：29mm）　屋内用　一般形
  7
ＭＳ ゴシック
100
AcDbText
  0
ENDSEC
  0
SECTION
  2
OBJECTS
  0
DICTIONARY
  5
C
330
0
100
AcDbDictionary
281
     1
  3
ACAD_DETAILVIEWSTYLE
350
41C
  3
ACAD_GROUP
350
D
  3
ACAD_LAYOUT
350
1A
  3
ACAD_MATERIAL
350
43
  3
ACAD_MLEADERSTYLE
350
6B
  3
ACAD_MLINESTYLE
350
17
  3
ACAD_PLOTSETTINGS
350
19
  3
ACAD_PLOTSTYLENAME
350
E
  3
ACAD_SCALELIST
350
47
  3
ACAD_SECTIONVIEWSTYLE
350
41D
  3
ACAD_TABLESTYLE
350
69
  3
ACAD_VISUALSTYLE
350
2A
  3
ACDB_RECOMPOSE_DATA
350
419
  3
AcDbVariableDictionary
350
3D9
  0
DICTIONARY
  5
3D7
330
8
100
AcDbDictionary
280
     1
281
     1
  3
ACAD_XREC_ROUNDTRIP
360
3D8
  0
DICTIONARY
  5
41C
102
{ACAD_REACTORS
330
C
102
}
330
C
100
AcDbDictionary
281
     1
  0
DICTIONARY
  5
D
102
{ACAD_REACTORS
330
C
102
}
330
C
100
AcDbDictionary
281
     1
  0
DICTIONARY
  5
1A
102
{ACAD_REACTORS
330
C
102
}
330
C
100
AcDbDictionary
281
     1
  3
Layout1
350
1E
  3
Layout2
350
26
  3
Model
350
22
  0
DICTIONARY
  5
43
102
{ACAD_REACTORS
330
C
102
}
330
C
100
AcDbDictionary
281
     1
  3
ByBlock
350
45
  3
ByLayer
350
44
  3
Global
350
46
  0
DICTIONARY
  5
6B
102
{ACAD_REACTORS
330
C
102
}
330
C
100
AcDbDictionary
281
     1
  3
Standard
350
6C
  0
DICTIONARY
  5
17
102
{ACAD_REACTORS
330
C
102
}
330
C
100
AcDbDictionary
281
     1
  3
Standard
350
18
  0
DICTIONARY
  5
19
102
{ACAD_REACTORS
330
C
102
}
330
C
100
AcDbDictionary
281
     1
  0
ACDBDICTIONARYWDFLT
  5
E
102
{ACAD_REACTORS
330
C
102
}
330
C
100
AcDbDictionary
281
     1
  3
Normal
350
F
100
AcDbDictionaryWithDefault
340
F
  0
DICTIONARY
  5
47
102
{ACAD_REACTORS
330
C
102
}
330
C
100
AcDbDictionary
281
     1
  3
A0
350
48
  3
A1
350
49
  3
A2
350
4A
  3
A3
350
4B
  3
A4
350
4C
  3
A5
350
4D
  3
A6
350
4E
  3
A7
350
4F
  3
A8
350
50
  3
A9
350
51
  3
B0
350
52
  3
B1
350
53
  3
B2
350
54
  3
B3
350
55
  3
B4
350
56
  3
B5
350
57
  3
B6
350
58
  3
B7
350
59
  3
B8
350
5A
  3
B9
350
5B
  3
C0
350
5C
  3
C1
350
5D
  3
C2
350
5E
  3
C3
350
5F
  3
C4
350
60
  3
C5
350
61
  3
C6
350
62
  3
C7
350
63
  3
C8
350
64
  3
C9
350
65
  3
D0
350
66
  3
D1
350
67
  3
D2
350
68
  0
DICTIONARY
  5
41D
102
{ACAD_REACTORS
330
C
102
}
330
C
100
AcDbDictionary
281
     1
  0
DICTIONARY
  5
69
102
{ACAD_REACTORS
330
C
102
}
330
C
100
AcDbDictionary
281
     1
  3
Standard
350
6A
  0
DICTIONARY
  5
2A
102
{ACAD_REACTORS
330
C
102
}
330
C
100
AcDbDictionary
281
     1
  3
2dWireframe
350
2F
  3
Basic
350
32
  3
Brighten
350
36
  3
ColorChange
350
3A
  3
Conceptual
350
34
  3
Dim
350
35
  3
EdgeColorOff
350
3D
  3
Facepattern
350
39
  3
Flat
350
2B
  3
FlatWithEdges
350
2C
  3
Gouraud
350
2D
  3
GouraudWithEdges
350
2E
  3
Hidden
350
31
  3
JitterOff
350
3B
  3
Linepattern
350
38
  3
OverhangOff
350
3C
  3
Realistic
350
33
  3
Shaded
350
42
  3
Shaded with edges
350
41
  3
Shades of Gray
350
3E
  3
Sketchy
350
3F
  3
Thicken
350
37
  3
Wireframe
350
30
  3
X-Ray
350
40
  0
XRECORD
  5
419
102
{ACAD_REACTORS
330
C
102
}
330
C
100
AcDbXrecord
280
     1
 90
        1
330
6A
  0
DICTIONARY
  5
3D9
102
{ACAD_REACTORS
330
C
102
}
330
C
100
AcDbDictionary
281
     1
  3
CANNOSCALE
350
3DA
  3
CENTEREXE
350
41E
  3
CENTERLTYPEFILE
350
41F
  3
CMLEADERSTYLE
350
41B
  3
CTABLESTYLE
350
41A
  3
MSLTSCALE
350
3DB
  3
XCLIPFRAME
350
3DC
  0
XRECORD
  5
3D8
102
{ACAD_REACTORS
330
3D7
102
}
330
3D7
100
AcDbXrecord
280
     1
102
VTR_0.000_0.000_1.000_1.000_VISUALSTYLE
340
2F
102
VTR_0.000_0.000_1.000_1.000_GRIDDISPLAY
 70
     3
102
VTR_0.000_0.000_1.000_1.000_GRIDMAJOR
 70
     5
102
VTR_0.000_0.000_1.000_1.000_DEFAULTLIGHTING
280
     1
102
VTR_0.000_0.000_1.000_1.000_DEFAULTLIGHTINGTYPE
 70
     1
102
VTR_0.000_0.000_1.000_1.000_BRIGHTNESS
141
0.0
102
VTR_0.000_0.000_1.000_1.000_CONTRAST
142
0.0
  0
LAYOUT
  5
1E
102
{ACAD_REACTORS
330
1A
102
}
330
1A
100
AcDbPlotSettings
  1

  2
none_device
  4

  6

 40
0.0
 41
0.0
 42
0.0
 43
0.0
 44
0.0
 45
0.0
 46
0.0
 47
0.0
 48
0.0
 49
0.0
140
0.0
141
0.0
142
1.0
143
1.0
 70
   688
 72
     1
 73
     0
 74
     5
  7

 75
    16
 76
     0
 77
     5
 78
   300
147
1.0
148
0.0
149
0.0
100
AcDbLayout
  1
Layout1
 70
     1
 71
     1
 10
0.0
 20
0.0
 11
420.0
 21
297.0
 12
0.0
 22
0.0
 32
0.0
 14
1.000000000000000E+20
 24
1.000000000000000E+20
 34
1.000000000000000E+20
 15
-1.000000000000000E+20
 25
-1.000000000000000E+20
 35
-1.000000000000000E+20
146
0.0
 13
0.0
 23
0.0
 33
0.0
 16
1.0
 26
0.0
 36
0.0
 17
0.0
 27
1.0
 37
0.0
 76
     0
330
1B
  0
LAYOUT
  5
26
102
{ACAD_REACTORS
330
1A
102
}
330
1A
100
AcDbPlotSettings
  1

  2
none_device
  4

  6

 40
0.0
 41
0.0
 42
0.0
 43
0.0
 44
0.0
 45
0.0
 46
0.0
 47
0.0
 48
0.0
 49
0.0
140
0.0
141
0.0
142
1.0
143
1.0
 70
   688
 72
     1
 73
     0
 74
     5
  7

 75
    16
 76
     0
 77
     5
 78
   300
147
1.0
148
0.0
149
0.0
100
AcDbLayout
  1
Layout2
 70
     1
 71
     2
 10
0.0
 20
0.0
 11
0.0
 21
0.0
 12
0.0
 22
0.0
 32
0.0
 14
0.0
 24
0.0
 34
0.0
 15
0.0
 25
0.0
 35
0.0
146
0.0
 13
0.0
 23
0.0
 33
0.0
 16
1.0
 26
0.0
 36
0.0
 17
0.0
 27
1.0
 37
0.0
 76
     0
330
23
  0
LAYOUT
  5
22
102
{ACAD_REACTORS
330
1A
102
}
330
1A
100
AcDbPlotSettings
  1

  2
none_device
  4
Letter_(8.50_x_11.00_Inches)
  6

 40
6.35
 41
6.35
 42
6.35000508
 43
6.35000508
 44
215.9
 45
279.4
 46
0.0
 47
0.0
 48
0.0
 49
0.0
140
0.0
141
0.0
142
1.0
143
1.0
 70
  1712
 72
     1
 73
     0
 74
     0
  7

 75
     0
 76
     0
 77
     5
 78
   300
147
1.0
148
0.0
149
0.0
100
AcDbLayout
  1
Model
 70
     1
 71
     0
 10
-2100.0
 20
-1485.0
 11
2100.0
 21
1485.0
 12
0.0
 22
0.0
 32
0.0
 14
-2100.0
 24
-1485.0
 34
0.0
 15
2100.0
 25
1485.0
 35
0.0
146
0.0
 13
0.0
 23
0.0
 33
0.0
 16
1.0
 26
0.0
 36
0.0
 17
0.0
 27
1.0
 37
0.0
 76
     0
330
1F
331
29
  0
MATERIAL
  5
45
102
{ACAD_REACTORS
330
43
102
}
102
{ACAD_XDICTIONARY
360
40F
102
}
330
43
100
AcDbMaterial
  1
ByBlock
  0
MATERIAL
  5
44
102
{ACAD_REACTORS
330
43
102
}
102
{ACAD_XDICTIONARY
360
40D
102
}
330
43
100
AcDbMaterial
  1
ByLayer
  0
MATERIAL
  5
46
102
{ACAD_REACTORS
330
43
102
}
102
{ACAD_XDICTIONARY
360
411
102
}
330
43
100
AcDbMaterial
  1
Global
  0
MLEADERSTYLE
  5
6C
102
{ACAD_REACTORS
330
6B
102
}
102
{ACAD_XDICTIONARY
360
417
102
}
330
6B
100
AcDbMLeaderStyle
170
     2
171
     1
172
     0
 90
        2
 40
0.0
 41
0.0
173
     1
 91
-1056964608
340
14
 92
       -2
290
     1
 42
2.0
291
     1
 43
8.0
  3
Standard
341
0
 44
4.0
300

342
11
174
     1
178
     6
175
     1
176
     0
 93
-1056964608
 45
4.0
292
     0
297
     0
 46
4.0
343
0
 94
-1056964608
 47
1.0
 49
1.0
140
1.0
293
     1
141
0.0
294
     1
177
     0
142
1.0
295
     0
296
     0
143
3.75
1001
ACAD_MLEADERVER
1070
     2
  0
MLINESTYLE
  5
18
102
{ACAD_REACTORS
330
17
102
}
330
17
100
AcDbMlineStyle
  2
Standard
 70
     0
  3

 62
   256
 51
90.0
 52
90.0
 71
     2
 49
0.5
 62
   256
  6
BYLAYER
 49
-0.5
 62
   256
  6
BYLAYER
  0
ACDBPLACEHOLDER
  5
F
102
{ACAD_REACTORS
330
E
102
}
330
E
  0
SCALE
  5
48
102
{ACAD_REACTORS
330
47
102
}
330
47
100
AcDbScale
 70
     0
300
1:1
140
1.0
141
1.0
290
     1
  0
SCALE
  5
49
102
{ACAD_REACTORS
330
47
102
}
330
47
100
AcDbScale
 70
     0
300
1:2
140
1.0
141
2.0
290
     0
  0
SCALE
  5
4A
102
{ACAD_REACTORS
330
47
102
}
330
47
100
AcDbScale
 70
     0
300
1:4
140
1.0
141
4.0
290
     0
  0
SCALE
  5
4B
102
{ACAD_REACTORS
330
47
102
}
330
47
100
AcDbScale
 70
     0
300
1:5
140
1.0
141
5.0
290
     0
  0
SCALE
  5
4C
102
{ACAD_REACTORS
330
47
102
}
330
47
100
AcDbScale
 70
     0
300
1:8
140
1.0
141
8.0
290
     0
  0
SCALE
  5
4D
102
{ACAD_REACTORS
330
47
102
}
330
47
100
AcDbScale
 70
     0
300
1:10
140
1.0
141
10.0
290
     0
  0
SCALE
  5
4E
102
{ACAD_REACTORS
330
47
102
}
330
47
100
AcDbScale
 70
     0
300
1:16
140
1.0
141
16.0
290
     0
  0
SCALE
  5
4F
102
{ACAD_REACTORS
330
47
102
}
330
47
100
AcDbScale
 70
     0
300
1:20
140
1.0
141
20.0
290
     0
  0
SCALE
  5
50
102
{ACAD_REACTORS
330
47
102
}
330
47
100
AcDbScale
 70
     0
300
1:30
140
1.0
141
30.0
290
     0
  0
SCALE
  5
51
102
{ACAD_REACTORS
330
47
102
}
330
47
100
AcDbScale
 70
     0
300
1:40
140
1.0
141
40.0
290
     0
  0
SCALE
  5
52
102
{ACAD_REACTORS
330
47
102
}
330
47
100
AcDbScale
 70
     0
300
1:50
140
1.0
141
50.0
290
     0
  0
SCALE
  5
53
102
{ACAD_REACTORS
330
47
102
}
330
47
100
AcDbScale
 70
     0
300
1:100
140
1.0
141
100.0
290
     0
  0
SCALE
  5
54
102
{ACAD_REACTORS
330
47
102
}
330
47
100
AcDbScale
 70
     0
300
2:1
140
2.0
141
1.0
290
     0
  0
SCALE
  5
55
102
{ACAD_REACTORS
330
47
102
}
330
47
100
AcDbScale
 70
     0
300
4:1
140
4.0
141
1.0
290
     0
  0
SCALE
  5
56
102
{ACAD_REACTORS
330
47
102
}
330
47
100
AcDbScale
 70
     0
300
8:1
140
8.0
141
1.0
290
     0
  0
SCALE
  5
57
102
{ACAD_REACTORS
330
47
102
}
330
47
100
AcDbScale
 70
     0
300
10:1
140
10.0
141
1.0
290
     0
  0
SCALE
  5
58
102
{ACAD_REACTORS
330
47
102
}
330
47
100
AcDbScale
 70
     0
300
100:1
140
100.0
141
1.0
290
     0
  0
SCALE
  5
59
102
{ACAD_REACTORS
330
47
102
}
330
47
100
AcDbScale
 70
     0
300
1/128" = 1'-0"
140
0.0078125
141
12.0
290
     0
  0
SCALE
  5
5A
102
{ACAD_REACTORS
330
47
102
}
330
47
100
AcDbScale
 70
     0
300
1/64" = 1'-0"
140
0.015625
141
12.0
290
     0
  0
SCALE
  5
5B
102
{ACAD_REACTORS
330
47
102
}
330
47
100
AcDbScale
 70
     0
300
1/32" = 1'-0"
140
0.03125
141
12.0
290
     0
  0
SCALE
  5
5C
102
{ACAD_REACTORS
330
47
102
}
330
47
100
AcDbScale
 70
     0
300
1/16" = 1'-0"
140
0.0625
141
12.0
290
     0
  0
SCALE
  5
5D
102
{ACAD_REACTORS
330
47
102
}
330
47
100
AcDbScale
 70
     0
300
3/32" = 1'-0"
140
0.09375
141
12.0
290
     0
  0
SCALE
  5
5E
102
{ACAD_REACTORS
330
47
102
}
330
47
100
AcDbScale
 70
     0
300
1/8" = 1'-0"
140
0.125
141
12.0
290
     0
  0
SCALE
  5
5F
102
{ACAD_REACTORS
330
47
102
}
330
47
100
AcDbScale
 70
     0
300
3/16" = 1'-0"
140
0.1875
141
12.0
290
     0
  0
SCALE
  5
60
102
{ACAD_REACTORS
330
47
102
}
330
47
100
AcDbScale
 70
     0
300
1/4" = 1'-0"
140
0.25
141
12.0
290
     0
  0
SCALE
  5
61
102
{ACAD_REACTORS
330
47
102
}
330
47
100
AcDbScale
 70
     0
300
3/8" = 1'-0"
140
0.375
141
12.0
290
     0
  0
SCALE
  5
62
102
{ACAD_REACTORS
330
47
102
}
330
47
100
AcDbScale
 70
     0
300
1/2" = 1'-0"
140
0.5
141
12.0
290
     0
  0
SCALE
  5
63
102
{ACAD_REACTORS
330
47
102
}
330
47
100
AcDbScale
 70
     0
300
3/4" = 1'-0"
140
0.75
141
12.0
290
     0
  0
SCALE
  5
64
102
{ACAD_REACTORS
330
47
102
}
330
47
100
AcDbScale
 70
     0
300
1" = 1'-0"
140
1.0
141
12.0
290
     0
  0
SCALE
  5
65
102
{ACAD_REACTORS
330
47
102
}
330
47
100
AcDbScale
 70
     0
300
1-1/2" = 1'-0"
140
1.5
141
12.0
290
     0
  0
SCALE
  5
66
102
{ACAD_REACTORS
330
47
102
}
330
47
100
AcDbScale
 70
     0
300
3" = 1'-0"
140
3.0
141
12.0
290
     0
  0
SCALE
  5
67
102
{ACAD_REACTORS
330
47
102
}
330
47
100
AcDbScale
 70
     0
300
6" = 1'-0"
140
6.0
141
12.0
290
     0
  0
SCALE
  5
68
102
{ACAD_REACTORS
330
47
102
}
330
47
100
AcDbScale
 70
     0
300
1'-0" = 1'-0"
140
12.0
141
12.0
290
     0
  0
TABLESTYLE
  5
6A
102
{ACAD_REACTORS
330
69
102
}
102
{ACAD_XDICTIONARY
360
413
102
}
330
69
100
AcDbTableStyle
  3
Standard
 70
     0
 71
     0
 40
0.06
 41
0.06
280
     0
281
     0
  7
Standard
140
4.5
170
     2
 62
     0
 63
   257
283
     0
274
    -2
284
     1
 64
     0
275
    -2
285
     1
 65
     0
276
    -2
286
     1
 66
     0
277
    -2
287
     1
 67
     0
278
    -2
288
     1
 68
     0
279
    -2
289
     1
 69
     0
  7
Standard
140
6.0
170
     5
 62
     0
 63
   257
283
     0
274
    -2
284
     1
 64
     0
275
    -2
285
     1
 65
     0
276
    -2
286
     1
 66
     0
277
    -2
287
     1
 67
     0
278
    -2
288
     1
 68
     0
279
    -2
289
     1
 69
     0
  7
Standard
140
4.5
170
     5
 62
     0
 63
   257
283
     0
274
    -2
284
     1
 64
     0
275
    -2
285
     1
 65
     0
276
    -2
286
     1
 66
     0
277
    -2
287
     1
 67
     0
278
    -2
288
     1
 68
     0
279
    -2
289
     1
 69
     0
  0
VISUALSTYLE
  5
2F
102
{ACAD_REACTORS
330
2A
102
}
102
{ACAD_XDICTIONARY
360
3E5
102
}
330
2A
100
AcDbVisualStyle
  2
2dWireframe
 70
     4
 71
     0
 72
     2
 73
     0
 90
        0
 40
0.6
 41
30.0
 62
     5
 63
     7
421
 16777215
 74
     1
 91
        4
 64
     7
 65
   257
 75
     1
175
     1
 42
1.0
 92
        0
 66
   257
 43
1.0
 76
     1
 77
     6
 78
     2
 67
     7
 79
     5
170
     0
171
     0
290
     0
174
     0
 93
        1
 44
0.0
173
     0
291
     0
 45
0.0
1001
ACAD
1000
AcDbSavedByObjectVersion
1070
     0
  0
VISUALSTYLE
  5
32
102
{ACAD_REACTORS
330
2A
102
}
102
{ACAD_XDICTIONARY
360
3EB
102
}
330
2A
100
AcDbVisualStyle
  2
Basic
 70
     7
 71
     1
 72
     0
 73
     1
 90
        0
 40
0.6
 41
30.0
 62
     5
 63
     7
421
 16777215
 74
     0
 91
        4
 64
     7
 65
   257
 75
     1
175
     1
 42
1.0
 92
        8
 66
     7
 43
1.0
 76
     1
 77
     6
 78
     2
 67
     7
 79
     5
170
     0
171
     0
290
     0
174
     0
 93
        1
 44
0.0
173
     0
291
     1
 45
0.0
1001
ACAD
1000
AcDbSavedByObjectVersion
1070
     0
  0
VISUALSTYLE
  5
36
102
{ACAD_REACTORS
330
2A
102
}
102
{ACAD_XDICTIONARY
360
3F3
102
}
330
2A
100
AcDbVisualStyle
  2
Brighten
 70
    12
 71
     2
 72
     2
 73
     0
 90
        0
 40
0.6
 41
30.0
 62
     5
 63
     7
421
 16777215
 74
     1
 91
        4
 64
     7
 65
   257
 75
     1
175
     1
 42
1.0
 92
        8
 66
     7
 43
1.0
 76
     1
 77
     6
 78
     2
 67
     7
 79
     5
170
     0
171
     0
290
     0
174
     0
 93
        1
 44
50.0
173
     0
291
     1
 45
0.0
1001
ACAD
1000
AcDbSavedByObjectVersion
1070
     0
  0
VISUALSTYLE
  5
3A
102
{ACAD_REACTORS
330
2A
102
}
102
{ACAD_XDICTIONARY
360
3FB
102
}
330
2A
100
AcDbVisualStyle
  2
ColorChange
 70
    16
 71
     2
 72
     2
 73
     3
 90
        0
 40
0.6
 41
30.0
 62
     5
 63
     8
421
  8421504
 74
     1
 91
        4
 64
     7
 65
   257
 75
     1
175
     1
 42
1.0
 92
        8
 66
     8
424
  8421504
 43
1.0
 76
     1
 77
     6
 78
     2
 67
     7
 79
     5
170
     0
171
     0
290
     0
174
     0
 93
        1
 44
0.0
173
     0
291
     1
 45
0.0
1001
ACAD
1000
AcDbSavedByObjectVersion
1070
     0
  0
VISUALSTYLE
  5
34
102
{ACAD_REACTORS
330
2A
102
}
102
{ACAD_XDICTIONARY
360
3EF
102
}
330
2A
100
AcDbVisualStyle
  2
Conceptual
 70
     9
 71
     3
 72
     2
 73
     0
 90
        0
 40
0.6
 41
30.0
 62
     5
 63
     7
421
 16777215
 74
     2
 91
        2
 64
     7
 65
   257
 75
     1
175
     1
 42
179.0
 92
        8
 66
     7
 43
1.0
 76
     1
 77
     6
 78
     2
 67
     7
 79
     3
170
     0
171
     0
290
     0
174
     0
 93
        1
 44
0.0
173
     0
291
     0
 45
0.0
1001
ACAD
1000
AcDbSavedByObjectVersion
1070
     0
  0
VISUALSTYLE
  5
35
102
{ACAD_REACTORS
330
2A
102
}
102
{ACAD_XDICTIONARY
360
3F1
102
}
330
2A
100
AcDbVisualStyle
  2
Dim
 70
    11
 71
     2
 72
     2
 73
     0
 90
        0
 40
0.6
 41
30.0
 62
     5
 63
     7
421
 16777215
 74
     1
 91
        4
 64
     7
 65
   257
 75
     1
175
     1
 42
1.0
 92
        8
 66
     7
 43
1.0
 76
     1
 77
     6
 78
     2
 67
     7
 79
     5
170
     0
171
     0
290
     0
174
     0
 93
        1
 44
-50.0
173
     0
291
     1
 45
0.0
1001
ACAD
1000
AcDbSavedByObjectVersion
1070
     0
  0
VISUALSTYLE
  5
3D
102
{ACAD_REACTORS
330
2A
102
}
102
{ACAD_XDICTIONARY
360
401
102
}
330
2A
100
AcDbVisualStyle
  2
EdgeColorOff
 70
    22
 71
     2
 72
     2
 73
     0
 90
        0
 40
0.6
 41
30.0
 62
     5
 63
     7
421
 16777215
 74
     1
 91
        4
 64
     7
 65
   257
 75
     1
175
     1
 42
1.0
 92
        8
 66
     7
 43
1.0
 76
     1
 77
     6
 78
     2
 67
     7
 79
     5
170
     0
171
     0
290
     0
174
     0
 93
        1
 44
0.0
173
     0
291
     1
 45
0.0
1001
ACAD
1000
AcDbSavedByObjectVersion
1070
     0
  0
VISUALSTYLE
  5
39
102
{ACAD_REACTORS
330
2A
102
}
102
{ACAD_XDICTIONARY
360
3F9
102
}
330
2A
100
AcDbVisualStyle
  2
Facepattern
 70
    15
 71
     2
 72
     2
 73
     0
 90
        0
 40
0.6
 41
30.0
 62
     5
 63
     7
421
 16777215
 74
     1
 91
        4
 64
     7
 65
   257
 75
     1
175
     1
 42
1.0
 92
        8
 66
     7
 43
1.0
 76
     1
 77
     6
 78
     2
 67
     7
 79
     5
170
     0
171
     0
290
     0
174
     0
 93
        1
 44
0.0
173
     0
291
     1
 45
0.0
1001
ACAD
1000
AcDbSavedByObjectVersion
1070
     0
  0
VISUALSTYLE
  5
2B
102
{ACAD_REACTORS
330
2A
102
}
102
{ACAD_XDICTIONARY
360
3DD
102
}
330
2A
100
AcDbVisualStyle
  2
Flat
 70
     0
 71
     2
 72
     1
 73
     1
 90
        2
 40
0.6
 41
30.0
 62
     5
 63
     7
421
 16777215
 74
     0
 91
        0
 64
     7
 65
   257
 75
     1
175
     1
 42
1.0
 92
        8
 66
     7
 43
1.0
 76
     1
 77
     6
 78
     2
 67
     7
 79
     5
170
     0
171
     0
290
     0
174
     0
 93
       13
 44
0.0
173
     0
291
     1
 45
0.0
1001
ACAD
1000
AcDbSavedByObjectVersion
1070
     0
  0
VISUALSTYLE
  5
2C
102
{ACAD_REACTORS
330
2A
102
}
102
{ACAD_XDICTIONARY
360
3DF
102
}
330
2A
100
AcDbVisualStyle
  2
FlatWithEdges
 70
     1
 71
     2
 72
     1
 73
     1
 90
        2
 40
0.6
 41
30.0
 62
     5
 63
     7
421
 16777215
 74
     1
 91
        0
 64
     7
 65
   257
 75
     1
175
     1
 42
1.0
 92
        0
 66
   257
 43
1.0
 76
     1
 77
     6
 78
     2
 67
     7
 79
     5
170
     0
171
     0
290
     0
174
     0
 93
       13
 44
0.0
173
     0
291
     1
 45
0.0
1001
ACAD
1000
AcDbSavedByObjectVersion
1070
     0
  0
VISUALSTYLE
  5
2D
102
{ACAD_REACTORS
330
2A
102
}
102
{ACAD_XDICTIONARY
360
3E1
102
}
330
2A
100
AcDbVisualStyle
  2
Gouraud
 70
     2
 71
     2
 72
     2
 73
     1
 90
        2
 40
0.6
 41
30.0
 62
     5
 63
     7
421
 16777215
 74
     0
 91
        0
 64
     7
 65
   257
 75
     1
175
     1
 42
1.0
 92
        0
 66
     7
 43
1.0
 76
     1
 77
     6
 78
     2
 67
     7
 79
     5
170
     0
171
     0
290
     0
174
     0
 93
       13
 44
0.0
173
     0
291
     1
 45
0.0
1001
ACAD
1000
AcDbSavedByObjectVersion
1070
     0
  0
VISUALSTYLE
  5
2E
102
{ACAD_REACTORS
330
2A
102
}
102
{ACAD_XDICTIONARY
360
3E3
102
}
330
2A
100
AcDbVisualStyle
  2
GouraudWithEdges
 70
     3
 71
     2
 72
     2
 73
     1
 90
        2
 40
0.6
 41
30.0
 62
     5
 63
     7
421
 16777215
 74
     1
 91
        0
 64
     7
 65
   257
 75
     1
175
     1
 42
1.0
 92
        0
 66
   257
 43
1.0
 76
     1
 77
     6
 78
     2
 67
     7
 79
     5
170
     0
171
     0
290
     0
174
     0
 93
       13
 44
0.0
173
     0
291
     1
 45
0.0
1001
ACAD
1000
AcDbSavedByObjectVersion
1070
     0
  0
VISUALSTYLE
  5
31
102
{ACAD_REACTORS
330
2A
102
}
102
{ACAD_XDICTIONARY
360
3E9
102
}
330
2A
100
AcDbVisualStyle
  2
Hidden
 70
     6
 71
     1
 72
     2
 73
     2
 90
        0
 40
0.6
 41
30.0
 62
     5
 63
     7
421
 16777215
 74
     2
 91
        2
 64
     7
 65
   257
 75
     2
175
     1
 42
40.0
 92
        0
 66
   257
 43
1.0
 76
     1
 77
     6
 78
     2
 67
     7
 79
     3
170
     0
171
     0
290
     0
174
     0
 93
        1
 44
0.0
173
     0
291
     0
 45
0.0
1001
ACAD
1000
AcDbSavedByObjectVersion
1070
     0
  0
VISUALSTYLE
  5
3B
102
{ACAD_REACTORS
330
2A
102
}
102
{ACAD_XDICTIONARY
360
3FD
102
}
330
2A
100
AcDbVisualStyle
  2
JitterOff
 70
    20
 71
     2
 72
     2
 73
     0
 90
        0
 40
0.6
 41
30.0
 62
     5
 63
     7
421
 16777215
 74
     1
 91
        4
 64
     7
 65
   257
 75
     1
175
     1
 42
1.0
 92
       10
 66
     7
 43
1.0
 76
     1
 77
     6
 78
     2
 67
     7
 79
     5
170
     0
171
     0
290
     0
174
     0
 93
        1
 44
0.0
173
     0
291
     1
 45
0.0
1001
ACAD
1000
AcDbSavedByObjectVersion
1070
     0
  0
VISUALSTYLE
  5
38
102
{ACAD_REACTORS
330
2A
102
}
102
{ACAD_XDICTIONARY
360
3F7
102
}
330
2A
100
AcDbVisualStyle
  2
Linepattern
 70
    14
 71
     2
 72
     2
 73
     0
 90
        0
 40
0.6
 41
30.0
 62
     5
 63
     7
421
 16777215
 74
     1
 91
        4
 64
     7
 65
   257
 75
     7
175
     7
 42
1.0
 92
        8
 66
     7
 43
1.0
 76
     1
 77
     6
 78
     2
 67
     7
 79
     5
170
     0
171
     0
290
     0
174
     0
 93
        1
 44
0.0
173
     0
291
     1
 45
0.0
1001
ACAD
1000
AcDbSavedByObjectVersion
1070
     0
  0
VISUALSTYLE
  5
3C
102
{ACAD_REACTORS
330
2A
102
}
102
{ACAD_XDICTIONARY
360
3FF
102
}
330
2A
100
AcDbVisualStyle
  2
OverhangOff
 70
    21
 71
     2
 72
     2
 73
     0
 90
        0
 40
0.6
 41
30.0
 62
     5
 63
     7
421
 16777215
 74
     1
 91
        4
 64
     7
 65
   257
 75
     1
175
     1
 42
1.0
 92
        9
 66
     7
 43
1.0
 76
     1
 77
     6
 78
     2
 67
     7
 79
     5
170
     0
171
     0
290
     0
174
     0
 93
        1
 44
0.0
173
     0
291
     1
 45
0.0
1001
ACAD
1000
AcDbSavedByObjectVersion
1070
     0
  0
VISUALSTYLE
  5
33
102
{ACAD_REACTORS
330
2A
102
}
102
{ACAD_XDICTIONARY
360
3ED
102
}
330
2A
100
AcDbVisualStyle
  2
Realistic
 70
     8
 71
     2
 72
     3
 73
     0
 90
        2
 40
0.6
 41
30.0
 62
     5
 63
     7
421
 16777215
 74
     0
 91
        0
 64
     7
 65
   257
 75
     1
175
     1
 42
1.0
 92
        8
 66
   257
 43
1.0
 76
     1
 77
     6
 78
     2
 67
     7
 79
     3
170
     0
171
     0
290
     0
174
     0
 93
       13
 44
0.0
173
     0
291
     0
 45
0.0
1001
ACAD
1000
AcDbSavedByObjectVersion
1070
     0
  0
VISUALSTYLE
  5
42
102
{ACAD_REACTORS
330
2A
102
}
102
{ACAD_XDICTIONARY
360
40B
102
}
330
2A
100
AcDbVisualStyle
  2
Shaded
 70
    27
 71
     2
 72
     2
 73
     1
 90
        2
 40
0.6
 41
30.0
 62
     5
 63
     7
421
 16777215
 74
     0
 91
        4
 64
     7
 65
   257
 75
     1
175
     1
 42
1.0
 92
        8
 66
   257
 43
1.0
 76
     1
 77
     6
 78
     2
 67
     8
425
  7895160
 79
     3
170
     0
171
     0
290
     0
174
     0
 93
        5
 44
0.0
173
     0
291
     0
 45
0.0
1001
ACAD
1000
AcDbSavedByObjectVersion
1070
     0
  0
VISUALSTYLE
  5
41
102
{ACAD_REACTORS
330
2A
102
}
102
{ACAD_XDICTIONARY
360
409
102
}
330
2A
100
AcDbVisualStyle
  2
Shaded with edges
 70
    26
 71
     2
 72
     2
 73
     1
 90
        2
 40
0.6
 41
30.0
 62
     5
 63
     7
421
 16777215
 74
     1
 91
       10
 64
     7
 65
   257
 75
     2
175
     1
 42
1.0
 92
        8
 66
   257
 43
1.0
 76
     1
 77
     6
 78
     2
 67
     7
 79
     3
170
     0
171
     0
290
     0
174
     0
 93
        5
 44
0.0
173
     0
291
     0
 45
0.0
1001
ACAD
1000
AcDbSavedByObjectVersion
1070
     0
  0
VISUALSTYLE
  5
3E
102
{ACAD_REACTORS
330
2A
102
}
102
{ACAD_XDICTIONARY
360
403
102
}
330
2A
100
AcDbVisualStyle
  2
Shades of Gray
 70
    23
 71
     2
 72
     2
 73
     3
 90
        0
 40
0.6
 41
30.0
 62
     5
 63
     7
421
 16777215
 74
     2
 91
        2
 64
     7
 65
     7
 75
     1
175
     1
 42
40.0
 92
        8
 66
     7
 43
1.0
 76
     1
 77
     6
 78
     2
 67
     7
 79
     3
170
     0
171
     0
290
     0
174
     0
 93
        1
 44
0.0
173
     0
291
     0
 45
0.0
1001
ACAD
1000
AcDbSavedByObjectVersion
1070
     0
  0
VISUALSTYLE
  5
3F
102
{ACAD_REACTORS
330
2A
102
}
102
{ACAD_XDICTIONARY
360
405
102
}
330
2A
100
AcDbVisualStyle
  2
Sketchy
 70
    24
 71
     1
 72
     2
 73
     2
 90
        0
 40
0.6
 41
30.0
 62
     5
 63
     7
421
 16777215
 74
     2
 91
        2
 64
     7
 65
     7
 75
     1
175
     1
 42
40.0
 92
       11
 66
     7
 43
1.0
 76
     1
 77
     6
 78
     2
 67
     7
 79
     6
170
     0
171
     0
290
     0
174
     0
 93
        1
 44
0.0
173
     0
291
     0
 45
0.0
1001
ACAD
1000
AcDbSavedByObjectVersion
1070
     0
  0
VISUALSTYLE
  5
37
102
{ACAD_REACTORS
330
2A
102
}
102
{ACAD_XDICTIONARY
360
3F5
102
}
330
2A
100
AcDbVisualStyle
  2
Thicken
 70
    13
 71
     2
 72
     2
 73
     0
 90
        0
 40
0.6
 41
30.0
 62
     5
 63
     7
421
 16777215
 74
     1
 91
        4
 64
     7
 65
   257
 75
     1
175
     1
 42
1.0
 92
       12
 66
     7
 43
1.0
 76
     1
 77
     6
 78
     2
 67
     7
 79
     5
170
     0
171
     0
290
     0
174
     0
 93
        1
 44
0.0
173
     0
291
     1
 45
0.0
1001
ACAD
1000
AcDbSavedByObjectVersion
1070
     0
  0
VISUALSTYLE
  5
30
102
{ACAD_REACTORS
330
2A
102
}
102
{ACAD_XDICTIONARY
360
3E7
102
}
330
2A
100
AcDbVisualStyle
  2
Wireframe
 70
     5
 71
     0
 72
     2
 73
     0
 90
        0
 40
0.6
 41
30.0
 62
     5
 63
     7
421
 16777215
 74
     1
 91
        4
 64
     7
 65
   257
 75
     1
175
     1
 42
1.0
 92
        0
 66
   257
 43
1.0
 76
     1
 77
     6
 78
     2
 67
     7
 79
     3
170
     0
171
     0
290
     0
174
     0
 93
        1
 44
0.0
173
     0
291
     0
 45
0.0
1001
ACAD
1000
AcDbSavedByObjectVersion
1070
     0
  0
VISUALSTYLE
  5
40
102
{ACAD_REACTORS
330
2A
102
}
102
{ACAD_XDICTIONARY
360
407
102
}
330
2A
100
AcDbVisualStyle
  2
X-Ray
 70
    25
 71
     2
 72
     2
 73
     1
 90
        1
 40
0.5
 41
30.0
 62
     5
 63
     7
421
 16777215
 74
     1
 91
        0
 64
     7
 65
   257
 75
     1
175
     1
 42
1.0
 92
        8
 66
     7
 43
1.0
 76
     1
 77
     6
 78
     2
 67
     7
 79
     3
170
     0
171
     0
290
     0
174
     0
 93
       13
 44
0.0
173
     0
291
     0
 45
0.0
1001
ACAD
1000
AcDbSavedByObjectVersion
1070
     0
  0
DICTIONARYVAR
  5
3DA
102
{ACAD_REACTORS
330
3D9
102
}
330
3D9
100
DictionaryVariables
280
     0
  1
1:1
  0
DICTIONARYVAR
  5
41E
102
{ACAD_REACTORS
330
3D9
102
}
330
3D9
100
DictionaryVariables
280
     0
  1
3.500000
  0
DICTIONARYVAR
  5
41F
102
{ACAD_REACTORS
330
3D9
102
}
330
3D9
100
DictionaryVariables
280
     0
  1
acadiso.lin
  0
DICTIONARYVAR
  5
41B
102
{ACAD_REACTORS
330
3D9
102
}
330
3D9
100
DictionaryVariables
280
     0
  1
Standard
  0
DICTIONARYVAR
  5
41A
102
{ACAD_REACTORS
330
3D9
102
}
330
3D9
100
DictionaryVariables
280
     0
  1
Standard
  0
DICTIONARYVAR
  5
3DB
102
{ACAD_REACTORS
330
3D9
102
}
330
3D9
100
DictionaryVariables
280
     0
  1
1
  0
DICTIONARYVAR
  5
3DC
102
{ACAD_REACTORS
330
3D9
102
}
330
3D9
100
DictionaryVariables
280
     0
  1
2
  0
DICTIONARY
  5
40F
330
45
100
AcDbDictionary
280
     1
281
     1
  3
ACAD_XREC_ROUNDTRIP
360
410
  0
DICTIONARY
  5
40D
330
44
100
AcDbDictionary
280
     1
281
     1
  3
ACAD_XREC_ROUNDTRIP
360
40E
  0
DICTIONARY
  5
411
330
46
100
AcDbDictionary
280
     1
281
     1
  3
ACAD_XREC_ROUNDTRIP
360
412
  0
DICTIONARY
  5
417
330
6C
100
AcDbDictionary
280
     1
281
     1
  3
ACAD_XREC_ROUNDTRIP
360
418
  0
DICTIONARY
  5
413
330
6A
100
AcDbDictionary
280
     1
281
     1
  3
ACAD_ROUNDTRIP_2008_TABLESTYLE_CELLSTYLEMAP
360
415
  3
ACAD_XREC_ROUNDTRIP
360
414
  0
DICTIONARY
  5
3E5
330
2F
100
AcDbDictionary
280
     1
281
     1
  3
ACAD_XREC_ROUNDTRIP
360
3E6
  0
DICTIONARY
  5
3EB
330
32
100
AcDbDictionary
280
     1
281
     1
  3
ACAD_XREC_ROUNDTRIP
360
3EC
  0
DICTIONARY
  5
3F3
330
36
100
AcDbDictionary
280
     1
281
     1
  3
ACAD_XREC_ROUNDTRIP
360
3F4
  0
DICTIONARY
  5
3FB
330
3A
100
AcDbDictionary
280
     1
281
     1
  3
ACAD_XREC_ROUNDTRIP
360
3FC
  0
DICTIONARY
  5
3EF
330
34
100
AcDbDictionary
280
     1
281
     1
  3
ACAD_XREC_ROUNDTRIP
360
3F0
  0
DICTIONARY
  5
3F1
330
35
100
AcDbDictionary
280
     1
281
     1
  3
ACAD_XREC_ROUNDTRIP
360
3F2
  0
DICTIONARY
  5
401
330
3D
100
AcDbDictionary
280
     1
281
     1
  3
ACAD_XREC_ROUNDTRIP
360
402
  0
DICTIONARY
  5
3F9
330
39
100
AcDbDictionary
280
     1
281
     1
  3
ACAD_XREC_ROUNDTRIP
360
3FA
  0
DICTIONARY
  5
3DD
330
2B
100
AcDbDictionary
280
     1
281
     1
  3
ACAD_XREC_ROUNDTRIP
360
3DE
  0
DICTIONARY
  5
3DF
330
2C
100
AcDbDictionary
280
     1
281
     1
  3
ACAD_XREC_ROUNDTRIP
360
3E0
  0
DICTIONARY
  5
3E1
330
2D
100
AcDbDictionary
280
     1
281
     1
  3
ACAD_XREC_ROUNDTRIP
360
3E2
  0
DICTIONARY
  5
3E3
330
2E
100
AcDbDictionary
280
     1
281
     1
  3
ACAD_XREC_ROUNDTRIP
360
3E4
  0
DICTIONARY
  5
3E9
330
31
100
AcDbDictionary
280
     1
281
     1
  3
ACAD_XREC_ROUNDTRIP
360
3EA
  0
DICTIONARY
  5
3FD
330
3B
100
AcDbDictionary
280
     1
281
     1
  3
ACAD_XREC_ROUNDTRIP
360
3FE
  0
DICTIONARY
  5
3F7
330
38
100
AcDbDictionary
280
     1
281
     1
  3
ACAD_XREC_ROUNDTRIP
360
3F8
  0
DICTIONARY
  5
3FF
330
3C
100
AcDbDictionary
280
     1
281
     1
  3
ACAD_XREC_ROUNDTRIP
360
400
  0
DICTIONARY
  5
3ED
330
33
100
AcDbDictionary
280
     1
281
     1
  3
ACAD_XREC_ROUNDTRIP
360
3EE
  0
DICTIONARY
  5
40B
330
42
100
AcDbDictionary
280
     1
281
     1
  3
ACAD_XREC_ROUNDTRIP
360
40C
  0
DICTIONARY
  5
409
330
41
100
AcDbDictionary
280
     1
281
     1
  3
ACAD_XREC_ROUNDTRIP
360
40A
  0
DICTIONARY
  5
403
330
3E
100
AcDbDictionary
280
     1
281
     1
  3
ACAD_XREC_ROUNDTRIP
360
404
  0
DICTIONARY
  5
405
330
3F
100
AcDbDictionary
280
     1
281
     1
  3
ACAD_XREC_ROUNDTRIP
360
406
  0
DICTIONARY
  5
3F5
330
37
100
AcDbDictionary
280
     1
281
     1
  3
ACAD_XREC_ROUNDTRIP
360
3F6
  0
DICTIONARY
  5
3E7
330
30
100
AcDbDictionary
280
     1
281
     1
  3
ACAD_XREC_ROUNDTRIP
360
3E8
  0
DICTIONARY
  5
407
330
40
100
AcDbDictionary
280
     1
281
     1
  3
ACAD_XREC_ROUNDTRIP
360
408
  0
XRECORD
  5
410
102
{ACAD_REACTORS
330
40F
102
}
330
40F
100
AcDbXrecord
280
     1
102
MATERIAL
148
0.0
149
0.0
149
0.0
 93
        0
 94
      127
282
     0
 72
     1
 77
     1
171
     1
175
     1
179
     1
273
     0
  0
XRECORD
  5
40E
102
{ACAD_REACTORS
330
40D
102
}
330
40D
100
AcDbXrecord
280
     1
102
MATERIAL
148
0.0
149
0.0
149
0.0
 93
        0
 94
      127
282
     0
 72
     1
 77
     1
171
     1
175
     1
179
     1
273
     0
  0
XRECORD
  5
412
102
{ACAD_REACTORS
330
411
102
}
330
411
100
AcDbXrecord
280
     1
102
MATERIAL
148
0.0
149
0.0
149
0.0
 93
        0
 94
      127
282
     0
 72
     1
 77
     1
171
     1
175
     1
179
     1
273
     0
  0
XRECORD
  5
418
102
{ACAD_REACTORS
330
417
102
}
330
417
100
AcDbXrecord
280
     1
102
ACAD_ROUNDTRIP_2010_MLEADER_STYLE
  0
CELLSTYLEMAP
  5
415
102
{ACAD_REACTORS
330
413
102
}
330
413
100
AcDbCellStyleMap
 90
        3
300
CELLSTYLE
  1
TABLEFORMAT_BEGIN
 90
        5
170
     1
 91
        0
 92
    32768
 62
   257
 93
        1
300
CONTENTFORMAT
  1
CONTENTFORMAT_BEGIN
 90
        0
 91
        0
 92
        4
 93
        0
300

 40
0.0
140
1.0
 94
        5
 62
     0
340
11
144
6.0
309
CONTENTFORMAT_END
171
     1
301
MARGIN
  1
CELLMARGIN_BEGIN
 40
1.5
 40
1.5
 40
1.5
 40
1.5
 40
1.5
 40
1.5
309
CELLMARGIN_END
 94
        6
 95
        1
302
GRIDFORMAT
  1
GRIDFORMAT_BEGIN
 90
        0
 91
        1
 62
     0
 92
       -2
340
14
 93
        0
 40
0.045
309
GRIDFORMAT_END
 95
        2
302
GRIDFORMAT
  1
GRIDFORMAT_BEGIN
 90
        0
 91
        1
 62
     0
 92
       -2
340
14
 93
        0
 40
0.045
309
GRIDFORMAT_END
 95
        4
302
GRIDFORMAT
  1
GRIDFORMAT_BEGIN
 90
        0
 91
        1
 62
     0
 92
       -2
340
14
 93
        0
 40
0.045
309
GRIDFORMAT_END
 95
        8
302
GRIDFORMAT
  1
GRIDFORMAT_BEGIN
 90
        0
 91
        1
 62
     0
 92
       -2
340
14
 93
        0
 40
0.045
309
GRIDFORMAT_END
 95
       16
302
GRIDFORMAT
  1
GRIDFORMAT_BEGIN
 90
        0
 91
        1
 62
     0
 92
       -2
340
14
 93
        0
 40
0.045
309
GRIDFORMAT_END
 95
       32
302
GRIDFORMAT
  1
GRIDFORMAT_BEGIN
 90
        0
 91
        1
 62
     0
 92
       -2
340
14
 93
        0
 40
0.045
309
GRIDFORMAT_END
309
TABLEFORMAT_END
  1
CELLSTYLE_BEGIN
 90
        1
 91
        1
300
_TITLE
309
CELLSTYLE_END
300
CELLSTYLE
  1
TABLEFORMAT_BEGIN
 90
        5
170
     1
 91
        0
 92
        0
 62
   257
 93
        1
300
CONTENTFORMAT
  1
CONTENTFORMAT_BEGIN
 90
        0
 91
        0
 92
        4
 93
        0
300

 40
0.0
140
1.0
 94
        5
 62
     0
340
11
144
4.5
309
CONTENTFORMAT_END
171
     1
301
MARGIN
  1
CELLMARGIN_BEGIN
 40
1.5
 40
1.5
 40
1.5
 40
1.5
 40
1.5
 40
1.5
309
CELLMARGIN_END
 94
        6
 95
        1
302
GRIDFORMAT
  1
GRIDFORMAT_BEGIN
 90
        0
 91
        1
 62
     0
 92
       -2
340
14
 93
        0
 40
0.045
309
GRIDFORMAT_END
 95
        2
302
GRIDFORMAT
  1
GRIDFORMAT_BEGIN
 90
        0
 91
        1
 62
     0
 92
       -2
340
14
 93
        0
 40
0.045
309
GRIDFORMAT_END
 95
        4
302
GRIDFORMAT
  1
GRIDFORMAT_BEGIN
 90
        0
 91
        1
 62
     0
 92
       -2
340
14
 93
        0
 40
0.045
309
GRIDFORMAT_END
 95
        8
302
GRIDFORMAT
  1
GRIDFORMAT_BEGIN
 90
        0
 91
        1
 62
     0
 92
       -2
340
14
 93
        0
 40
0.045
309
GRIDFORMAT_END
 95
       16
302
GRIDFORMAT
  1
GRIDFORMAT_BEGIN
 90
        0
 91
        1
 62
     0
 92
       -2
340
14
 93
        0
 40
0.045
309
GRIDFORMAT_END
 95
       32
302
GRIDFORMAT
  1
GRIDFORMAT_BEGIN
 90
        0
 91
        1
 62
     0
 92
       -2
340
14
 93
        0
 40
0.045
309
GRIDFORMAT_END
309
TABLEFORMAT_END
  1
CELLSTYLE_BEGIN
 90
        2
 91
        1
300
_HEADER
309
CELLSTYLE_END
300
CELLSTYLE
  1
TABLEFORMAT_BEGIN
 90
        5
170
     1
 91
        0
 92
        0
 62
   257
 93
        1
300
CONTENTFORMAT
  1
CONTENTFORMAT_BEGIN
 90
        0
 91
        0
 92
        4
 93
        0
300

 40
0.0
140
1.0
 94
        2
 62
     0
340
11
144
4.5
309
CONTENTFORMAT_END
171
     1
301
MARGIN
  1
CELLMARGIN_BEGIN
 40
1.5
 40
1.5
 40
1.5
 40
1.5
 40
1.5
 40
1.5
309
CELLMARGIN_END
 94
        6
 95
        1
302
GRIDFORMAT
  1
GRIDFORMAT_BEGIN
 90
        0
 91
        1
 62
     0
 92
       -2
340
14
 93
        0
 40
0.045
309
GRIDFORMAT_END
 95
        2
302
GRIDFORMAT
  1
GRIDFORMAT_BEGIN
 90
        0
 91
        1
 62
     0
 92
       -2
340
14
 93
        0
 40
0.045
309
GRIDFORMAT_END
 95
        4
302
GRIDFORMAT
  1
GRIDFORMAT_BEGIN
 90
        0
 91
        1
 62
     0
 92
       -2
340
14
 93
        0
 40
0.045
309
GRIDFORMAT_END
 95
        8
302
GRIDFORMAT
  1
GRIDFORMAT_BEGIN
 90
        0
 91
        1
 62
     0
 92
       -2
340
14
 93
        0
 40
0.045
309
GRIDFORMAT_END
 95
       16
302
GRIDFORMAT
  1
GRIDFORMAT_BEGIN
 90
        0
 91
        1
 62
     0
 92
       -2
340
14
 93
        0
 40
0.045
309
GRIDFORMAT_END
 95
       32
302
GRIDFORMAT
  1
GRIDFORMAT_BEGIN
 90
        0
 91
        1
 62
     0
 92
       -2
340
14
 93
        0
 40
0.045
309
GRIDFORMAT_END
309
TABLEFORMAT_END
  1
CELLSTYLE_BEGIN
 90
        3
 91
        2
300
_DATA
309
CELLSTYLE_END
  0
XRECORD
  5
414
102
{ACAD_REACTORS
330
413
102
}
330
413
100
AcDbXrecord
280
     1
102
ACAD_ROUNDTRIP_PRE2007_TABLESTYLE
 90
        4
 91
        0
  1

 92
        4
 93
        0
  2

 94
        4
 95
        0
  3

  0
XRECORD
  5
3E6
102
{ACAD_REACTORS
330
3E5
102
}
330
3E5
100
AcDbXrecord
280
     1
102
RTVSPropertyOp0
 70
     1
102
RTVSPropertyOp1
 70
     1
102
RTVSPropertyOp2
 70
     1
102
RTVSPropertyOp3
 70
     1
102
RTVSPropertyOp4
 70
     1
102
RTVSPropertyOp5
 70
     1
102
RTVSPropertyOp6
 70
     1
102
RTVSPropertyOp7
 70
     1
102
RTVSPropertyOp8
 70
     1
102
RTVSPropertyOp9
 70
     1
102
RTVSPropertyOp10
 70
     1
102
RTVSPropertyOp11
 70
     1
102
RTVSPropertyOp12
 70
     1
102
RTVSPropertyOp13
 70
     1
102
RTVSPropertyOp14
 70
     1
102
RTVSPropertyOp15
 70
     1
102
RTVSPropertyOp16
 70
     1
102
RTVSPropertyOp17
 70
     1
102
RTVSPropertyOp18
 70
     1
102
RTVSPropertyOp19
 70
     1
102
RTVSPropertyOp20
 70
     1
102
RTVSPropertyOp21
 70
     1
102
RTVSPropertyOp22
 70
     1
102
RTVSPropertyOp23
 70
     1
102
RTVSPropertyOp24
 70
     1
102
RTVSPropertyOp25
 70
     1
102
RTVSPropertyOp26
 70
     1
102
RTVSPropertyOp27
 70
     1
102
RTVSPropertyOp28
 70
     1
102
RTVSPropertyOp29
 70
     1
102
RTVSPropertyOp30
 70
     1
102
RTVSPropertyOp31
 70
     1
102
RTVSPropertyOp32
 70
     1
102
RTVSPropertyOp33
 70
     1
102
RTVSPropertyOp34
 70
     1
102
RTVSPropertyOp35
 70
     1
102
RTVSPropertyOp36
 70
     1
102
RTVSPropertyOp37
 70
     1
102
RTVSPropertyOp38
 70
     1
102
RTVSPropertyOp39
 70
     1
102
RTVSPropertyOp40
 70
     1
102
RTVSPropertyOp41
 70
     1
102
RTVSPropertyOp42
 70
     1
102
RTVSPropertyOp43
 70
     1
102
RTVSPropertyOp44
 70
     1
102
RTVSPropertyOp45
 70
     1
102
RTVSPropertyOp46
 70
     1
102
RTVSPropertyOp47
 70
     1
102
RTVSPropertyOp48
 70
     1
102
RTVSPropertyOp49
 70
     1
102
RTVSPropertyOp50
 70
     1
102
RTVSPropertyOp51
 70
     0
102
RTVSPropertyOp52
 70
     0
102
RTVSPropertyOp53
 70
     1
102
RTVSPropertyOp54
 70
     1
102
RTVSPropertyOp55
 70
     1
102
RTVSPropertyOp56
 70
     1
102
RTVSPropertyOp57
 70
     1
102
RTVSPost2010Prop28
280
     1
102
RTVSPost2010PropOp28
 70
     1
102
RTVSPost2010Prop29
280
     1
102
RTVSPost2010PropOp29
 70
     1
102
RTVSPost2010Prop30
280
     0
102
RTVSPost2010PropOp30
 70
     1
102
RTVSPost2010Prop31
280
     0
102
RTVSPost2010PropOp31
 70
     1
102
RTVSPost2010Prop32
280
     0
102
RTVSPost2010PropOp32
 70
     1
102
RTVSPost2010Prop33
280
     0
102
RTVSPost2010PropOp33
 70
     1
102
RTVSPost2010Prop34
280
     0
102
RTVSPost2010PropOp34
 70
     1
102
RTVSPost2010Prop35
280
     0
102
RTVSPost2010PropOp35
 70
     1
102
RTVSPost2010Prop36
280
     0
102
RTVSPost2010PropOp36
 70
     1
102
RTVSPost2010Prop37
 90
       50
102
RTVSPost2010PropOp37
 70
     1
102
RTVSPost2010Prop38
140
0.0
102
RTVSPost2010PropOp38
 70
     1
102
RTVSPost2010Prop39
140
1.0
102
RTVSPost2010PropOp39
 70
     1
102
RTVSPost2010Prop40
 90
        0
102
RTVSPost2010PropOp40
 70
     1
102
RTVSPost2010Prop41ColorIndex
 90
       18
102
RTVSPost2010Prop41ColorRGB
 90
        0
102
RTVSPost2010PropOp41
 70
     1
102
RTVSPost2010Prop42
 90
       50
102
RTVSPost2010PropOp42
 70
     1
102
RTVSPost2010Prop43
 90
        3
102
RTVSPost2010PropOp43
 70
     1
102
RTVSPost2010Prop44ColorIndex
 90
        5
102
RTVSPost2010Prop44ColorRGB
 90
      255
102
RTVSPost2010PropOp44
 70
     1
102
RTVSPost2010Prop45
280
     0
102
RTVSPost2010PropOp45
 70
     1
102
RTVSPost2010Prop46
 90
       50
102
RTVSPost2010PropOp46
 70
     1
102
RTVSPost2010Prop47
 90
       50
102
RTVSPost2010PropOp47
 70
     1
102
RTVSPost2010Prop48
 90
       50
102
RTVSPost2010PropOp48
 70
     1
102
RTVSPost2010Prop49
280
     0
102
RTVSPost2010PropOp49
 70
     1
102
RTVSPost2010Prop50
 90
       50
102
RTVSPost2010PropOp50
 70
     1
102
RTVSPost2010Prop51ColorIndex
 90
      256
102
RTVSPost2010Prop51ColorRGB
 90
-16777216
102
RTVSPost2010PropOp51
 70
     0
102
RTVSPost2010Prop52
140
1.0
102
RTVSPost2010PropOp52
 70
     0
102
RTVSPost2010Prop53
 90
        2
102
RTVSPost2010PropOp53
 70
     1
102
RTVSPost2010Prop54
  1
strokes_ogs.tif
102
RTVSPost2010PropOp54
 70
     1
102
RTVSPost2010Prop55
280
     0
102
RTVSPost2010PropOp55
 70
     1
102
RTVSPost2010Prop56
140
1.0
102
RTVSPost2010PropOp56
 70
     1
102
RTVSPost2010Prop57
140
1.0
102
RTVSPost2010PropOp57
 70
     1
  0
XRECORD
  5
3EC
102
{ACAD_REACTORS
330
3EB
102
}
330
3EB
100
AcDbXrecord
280
     1
102
RTVSPropertyOp0
 70
     1
102
RTVSPropertyOp1
 70
     1
102
RTVSPropertyOp2
 70
     1
102
RTVSPropertyOp3
 70
     1
102
RTVSPropertyOp4
 70
     1
102
RTVSPropertyOp5
 70
     1
102
RTVSPropertyOp6
 70
     1
102
RTVSPropertyOp7
 70
     1
102
RTVSPropertyOp8
 70
     1
102
RTVSPropertyOp9
 70
     1
102
RTVSPropertyOp10
 70
     1
102
RTVSPropertyOp11
 70
     1
102
RTVSPropertyOp12
 70
     1
102
RTVSPropertyOp13
 70
     1
102
RTVSPropertyOp14
 70
     1
102
RTVSPropertyOp15
 70
     1
102
RTVSPropertyOp16
 70
     1
102
RTVSPropertyOp17
 70
     1
102
RTVSPropertyOp18
 70
     1
102
RTVSPropertyOp19
 70
     1
102
RTVSPropertyOp20
 70
     1
102
RTVSPropertyOp21
 70
     1
102
RTVSPropertyOp22
 70
     1
102
RTVSPropertyOp23
 70
     1
102
RTVSPropertyOp24
 70
     1
102
RTVSPropertyOp25
 70
     1
102
RTVSPropertyOp26
 70
     1
102
RTVSPropertyOp27
 70
     1
102
RTVSPropertyOp28
 70
     1
102
RTVSPropertyOp29
 70
     1
102
RTVSPropertyOp30
 70
     1
102
RTVSPropertyOp31
 70
     1
102
RTVSPropertyOp32
 70
     1
102
RTVSPropertyOp33
 70
     1
102
RTVSPropertyOp34
 70
     1
102
RTVSPropertyOp35
 70
     1
102
RTVSPropertyOp36
 70
     1
102
RTVSPropertyOp37
 70
     1
102
RTVSPropertyOp38
 70
     1
102
RTVSPropertyOp39
 70
     1
102
RTVSPropertyOp40
 70
     1
102
RTVSPropertyOp41
 70
     1
102
RTVSPropertyOp42
 70
     1
102
RTVSPropertyOp43
 70
     1
102
RTVSPropertyOp44
 70
     1
102
RTVSPropertyOp45
 70
     1
102
RTVSPropertyOp46
 70
     1
102
RTVSPropertyOp47
 70
     1
102
RTVSPropertyOp48
 70
     1
102
RTVSPropertyOp49
 70
     1
102
RTVSPropertyOp50
 70
     1
102
RTVSPropertyOp51
 70
     0
102
RTVSPropertyOp52
 70
     0
102
RTVSPropertyOp53
 70
     1
102
RTVSPropertyOp54
 70
     1
102
RTVSPropertyOp55
 70
     1
102
RTVSPropertyOp56
 70
     1
102
RTVSPropertyOp57
 70
     1
102
RTVSPost2010Prop28
280
     0
102
RTVSPost2010PropOp28
 70
     1
102
RTVSPost2010Prop29
280
     1
102
RTVSPost2010PropOp29
 70
     1
102
RTVSPost2010Prop30
280
     1
102
RTVSPost2010PropOp30
 70
     1
102
RTVSPost2010Prop31
280
     0
102
RTVSPost2010PropOp31
 70
     1
102
RTVSPost2010Prop32
280
     0
102
RTVSPost2010PropOp32
 70
     1
102
RTVSPost2010Prop33
280
     0
102
RTVSPost2010PropOp33
 70
     1
102
RTVSPost2010Prop34
280
     0
102
RTVSPost2010PropOp34
 70
     1
102
RTVSPost2010Prop35
280
     0
102
RTVSPost2010PropOp35
 70
     1
102
RTVSPost2010Prop36
280
     0
102
RTVSPost2010PropOp36
 70
     1
102
RTVSPost2010Prop37
 90
       50
102
RTVSPost2010PropOp37
 70
     1
102
RTVSPost2010Prop38
140
0.0
102
RTVSPost2010PropOp38
 70
     1
102
RTVSPost2010Prop39
140
1.0
102
RTVSPost2010PropOp39
 70
     1
102
RTVSPost2010Prop40
 90
        0
102
RTVSPost2010PropOp40
 70
     1
102
RTVSPost2010Prop41ColorIndex
 90
       18
102
RTVSPost2010Prop41ColorRGB
 90
        0
102
RTVSPost2010PropOp41
 70
     1
102
RTVSPost2010Prop42
 90
       50
102
RTVSPost2010PropOp42
 70
     1
102
RTVSPost2010Prop43
 90
        3
102
RTVSPost2010PropOp43
 70
     1
102
RTVSPost2010Prop44ColorIndex
 90
        5
102
RTVSPost2010Prop44ColorRGB
 90
      255
102
RTVSPost2010PropOp44
 70
     1
102
RTVSPost2010Prop45
280
     0
102
RTVSPost2010PropOp45
 70
     1
102
RTVSPost2010Prop46
 90
       50
102
RTVSPost2010PropOp46
 70
     1
102
RTVSPost2010Prop47
 90
       50
102
RTVSPost2010PropOp47
 70
     1
102
RTVSPost2010Prop48
 90
       50
102
RTVSPost2010PropOp48
 70
     1
102
RTVSPost2010Prop49
280
     0
102
RTVSPost2010PropOp49
 70
     1
102
RTVSPost2010Prop50
 90
       50
102
RTVSPost2010PropOp50
 70
     1
102
RTVSPost2010Prop51ColorIndex
 90
      256
102
RTVSPost2010Prop51ColorRGB
 90
-16777216
102
RTVSPost2010PropOp51
 70
     0
102
RTVSPost2010Prop52
140
1.0
102
RTVSPost2010PropOp52
 70
     0
102
RTVSPost2010Prop53
 90
        2
102
RTVSPost2010PropOp53
 70
     1
102
RTVSPost2010Prop54
  1
strokes_ogs.tif
102
RTVSPost2010PropOp54
 70
     1
102
RTVSPost2010Prop55
280
     0
102
RTVSPost2010PropOp55
 70
     1
102
RTVSPost2010Prop56
140
1.0
102
RTVSPost2010PropOp56
 70
     1
102
RTVSPost2010Prop57
140
1.0
102
RTVSPost2010PropOp57
 70
     1
  0
XRECORD
  5
3F4
102
{ACAD_REACTORS
330
3F3
102
}
330
3F3
100
AcDbXrecord
280
     1
102
RTVSPropertyOp0
 70
     1
102
RTVSPropertyOp1
 70
     1
102
RTVSPropertyOp2
 70
     1
102
RTVSPropertyOp3
 70
     1
102
RTVSPropertyOp4
 70
     1
102
RTVSPropertyOp5
 70
     1
102
RTVSPropertyOp6
 70
     1
102
RTVSPropertyOp7
 70
     1
102
RTVSPropertyOp8
 70
     1
102
RTVSPropertyOp9
 70
     1
102
RTVSPropertyOp10
 70
     1
102
RTVSPropertyOp11
 70
     1
102
RTVSPropertyOp12
 70
     1
102
RTVSPropertyOp13
 70
     1
102
RTVSPropertyOp14
 70
     1
102
RTVSPropertyOp15
 70
     1
102
RTVSPropertyOp16
 70
     1
102
RTVSPropertyOp17
 70
     1
102
RTVSPropertyOp18
 70
     1
102
RTVSPropertyOp19
 70
     1
102
RTVSPropertyOp20
 70
     1
102
RTVSPropertyOp21
 70
     1
102
RTVSPropertyOp22
 70
     1
102
RTVSPropertyOp23
 70
     1
102
RTVSPropertyOp24
 70
     1
102
RTVSPropertyOp25
 70
     1
102
RTVSPropertyOp26
 70
     1
102
RTVSPropertyOp27
 70
     1
102
RTVSPropertyOp28
 70
     1
102
RTVSPropertyOp29
 70
     1
102
RTVSPropertyOp30
 70
     1
102
RTVSPropertyOp31
 70
     1
102
RTVSPropertyOp32
 70
     1
102
RTVSPropertyOp33
 70
     1
102
RTVSPropertyOp34
 70
     1
102
RTVSPropertyOp35
 70
     1
102
RTVSPropertyOp36
 70
     1
102
RTVSPropertyOp37
 70
     1
102
RTVSPropertyOp38
 70
     1
102
RTVSPropertyOp39
 70
     1
102
RTVSPropertyOp40
 70
     1
102
RTVSPropertyOp41
 70
     1
102
RTVSPropertyOp42
 70
     1
102
RTVSPropertyOp43
 70
     1
102
RTVSPropertyOp44
 70
     1
102
RTVSPropertyOp45
 70
     1
102
RTVSPropertyOp46
 70
     1
102
RTVSPropertyOp47
 70
     1
102
RTVSPropertyOp48
 70
     1
102
RTVSPropertyOp49
 70
     1
102
RTVSPropertyOp50
 70
     1
102
RTVSPropertyOp51
 70
     0
102
RTVSPropertyOp52
 70
     0
102
RTVSPropertyOp53
 70
     1
102
RTVSPropertyOp54
 70
     1
102
RTVSPropertyOp55
 70
     1
102
RTVSPropertyOp56
 70
     1
102
RTVSPropertyOp57
 70
     1
102
RTVSPost2010Prop28
280
     0
102
RTVSPost2010PropOp28
 70
     1
102
RTVSPost2010Prop29
280
     1
102
RTVSPost2010PropOp29
 70
     1
102
RTVSPost2010Prop30
280
     1
102
RTVSPost2010PropOp30
 70
     1
102
RTVSPost2010Prop31
280
     0
102
RTVSPost2010PropOp31
 70
     1
102
RTVSPost2010Prop32
280
     0
102
RTVSPost2010PropOp32
 70
     1
102
RTVSPost2010Prop33
280
     0
102
RTVSPost2010PropOp33
 70
     1
102
RTVSPost2010Prop34
280
     0
102
RTVSPost2010PropOp34
 70
     1
102
RTVSPost2010Prop35
280
     0
102
RTVSPost2010PropOp35
 70
     1
102
RTVSPost2010Prop36
280
     0
102
RTVSPost2010PropOp36
 70
     1
102
RTVSPost2010Prop37
 90
       50
102
RTVSPost2010PropOp37
 70
     1
102
RTVSPost2010Prop38
140
0.0
102
RTVSPost2010PropOp38
 70
     1
102
RTVSPost2010Prop39
140
1.0
102
RTVSPost2010PropOp39
 70
     1
102
RTVSPost2010Prop40
 90
        0
102
RTVSPost2010PropOp40
 70
     1
102
RTVSPost2010Prop41ColorIndex
 90
       18
102
RTVSPost2010Prop41ColorRGB
 90
        0
102
RTVSPost2010PropOp41
 70
     1
102
RTVSPost2010Prop42
 90
       50
102
RTVSPost2010PropOp42
 70
     1
102
RTVSPost2010Prop43
 90
        3
102
RTVSPost2010PropOp43
 70
     1
102
RTVSPost2010Prop44ColorIndex
 90
        5
102
RTVSPost2010Prop44ColorRGB
 90
      255
102
RTVSPost2010PropOp44
 70
     1
102
RTVSPost2010Prop45
280
     0
102
RTVSPost2010PropOp45
 70
     1
102
RTVSPost2010Prop46
 90
       50
102
RTVSPost2010PropOp46
 70
     1
102
RTVSPost2010Prop47
 90
       50
102
RTVSPost2010PropOp47
 70
     1
102
RTVSPost2010Prop48
 90
       50
102
RTVSPost2010PropOp48
 70
     1
102
RTVSPost2010Prop49
280
     0
102
RTVSPost2010PropOp49
 70
     1
102
RTVSPost2010Prop50
 90
       50
102
RTVSPost2010PropOp50
 70
     1
102
RTVSPost2010Prop51ColorIndex
 90
      256
102
RTVSPost2010Prop51ColorRGB
 90
-16777216
102
RTVSPost2010PropOp51
 70
     0
102
RTVSPost2010Prop52
140
1.0
102
RTVSPost2010PropOp52
 70
     0
102
RTVSPost2010Prop53
 90
        2
102
RTVSPost2010PropOp53
 70
     1
102
RTVSPost2010Prop54
  1
strokes_ogs.tif
102
RTVSPost2010PropOp54
 70
     1
102
RTVSPost2010Prop55
280
     0
102
RTVSPost2010PropOp55
 70
     1
102
RTVSPost2010Prop56
140
1.0
102
RTVSPost2010PropOp56
 70
     1
102
RTVSPost2010Prop57
140
1.0
102
RTVSPost2010PropOp57
 70
     1
  0
XRECORD
  5
3FC
102
{ACAD_REACTORS
330
3FB
102
}
330
3FB
100
AcDbXrecord
280
     1
102
RTVSPropertyOp0
 70
     1
102
RTVSPropertyOp1
 70
     1
102
RTVSPropertyOp2
 70
     1
102
RTVSPropertyOp3
 70
     1
102
RTVSPropertyOp4
 70
     1
102
RTVSPropertyOp5
 70
     1
102
RTVSPropertyOp6
 70
     1
102
RTVSPropertyOp7
 70
     1
102
RTVSPropertyOp8
 70
     1
102
RTVSPropertyOp9
 70
     1
102
RTVSPropertyOp10
 70
     1
102
RTVSPropertyOp11
 70
     1
102
RTVSPropertyOp12
 70
     1
102
RTVSPropertyOp13
 70
     1
102
RTVSPropertyOp14
 70
     1
102
RTVSPropertyOp15
 70
     1
102
RTVSPropertyOp16
 70
     1
102
RTVSPropertyOp17
 70
     1
102
RTVSPropertyOp18
 70
     1
102
RTVSPropertyOp19
 70
     1
102
RTVSPropertyOp20
 70
     1
102
RTVSPropertyOp21
 70
     1
102
RTVSPropertyOp22
 70
     1
102
RTVSPropertyOp23
 70
     1
102
RTVSPropertyOp24
 70
     1
102
RTVSPropertyOp25
 70
     1
102
RTVSPropertyOp26
 70
     1
102
RTVSPropertyOp27
 70
     1
102
RTVSPropertyOp28
 70
     1
102
RTVSPropertyOp29
 70
     1
102
RTVSPropertyOp30
 70
     1
102
RTVSPropertyOp31
 70
     1
102
RTVSPropertyOp32
 70
     1
102
RTVSPropertyOp33
 70
     1
102
RTVSPropertyOp34
 70
     1
102
RTVSPropertyOp35
 70
     1
102
RTVSPropertyOp36
 70
     1
102
RTVSPropertyOp37
 70
     1
102
RTVSPropertyOp38
 70
     1
102
RTVSPropertyOp39
 70
     1
102
RTVSPropertyOp40
 70
     1
102
RTVSPropertyOp41
 70
     1
102
RTVSPropertyOp42
 70
     1
102
RTVSPropertyOp43
 70
     1
102
RTVSPropertyOp44
 70
     1
102
RTVSPropertyOp45
 70
     1
102
RTVSPropertyOp46
 70
     1
102
RTVSPropertyOp47
 70
     1
102
RTVSPropertyOp48
 70
     1
102
RTVSPropertyOp49
 70
     1
102
RTVSPropertyOp50
 70
     1
102
RTVSPropertyOp51
 70
     0
102
RTVSPropertyOp52
 70
     0
102
RTVSPropertyOp53
 70
     1
102
RTVSPropertyOp54
 70
     1
102
RTVSPropertyOp55
 70
     1
102
RTVSPropertyOp56
 70
     1
102
RTVSPropertyOp57
 70
     1
102
RTVSPost2010Prop28
280
     0
102
RTVSPost2010PropOp28
 70
     1
102
RTVSPost2010Prop29
280
     1
102
RTVSPost2010PropOp29
 70
     1
102
RTVSPost2010Prop30
280
     1
102
RTVSPost2010PropOp30
 70
     1
102
RTVSPost2010Prop31
280
     0
102
RTVSPost2010PropOp31
 70
     1
102
RTVSPost2010Prop32
280
     0
102
RTVSPost2010PropOp32
 70
     1
102
RTVSPost2010Prop33
280
     0
102
RTVSPost2010PropOp33
 70
     1
102
RTVSPost2010Prop34
280
     0
102
RTVSPost2010PropOp34
 70
     1
102
RTVSPost2010Prop35
280
     0
102
RTVSPost2010PropOp35
 70
     1
102
RTVSPost2010Prop36
280
     0
102
RTVSPost2010PropOp36
 70
     1
102
RTVSPost2010Prop37
 90
       50
102
RTVSPost2010PropOp37
 70
     1
102
RTVSPost2010Prop38
140
0.0
102
RTVSPost2010PropOp38
 70
     1
102
RTVSPost2010Prop39
140
1.0
102
RTVSPost2010PropOp39
 70
     1
102
RTVSPost2010Prop40
 90
        0
102
RTVSPost2010PropOp40
 70
     1
102
RTVSPost2010Prop41ColorIndex
 90
       18
102
RTVSPost2010Prop41ColorRGB
 90
        0
102
RTVSPost2010PropOp41
 70
     1
102
RTVSPost2010Prop42
 90
       50
102
RTVSPost2010PropOp42
 70
     1
102
RTVSPost2010Prop43
 90
        3
102
RTVSPost2010PropOp43
 70
     1
102
RTVSPost2010Prop44ColorIndex
 90
        5
102
RTVSPost2010Prop44ColorRGB
 90
      255
102
RTVSPost2010PropOp44
 70
     1
102
RTVSPost2010Prop45
280
     0
102
RTVSPost2010PropOp45
 70
     1
102
RTVSPost2010Prop46
 90
       50
102
RTVSPost2010PropOp46
 70
     1
102
RTVSPost2010Prop47
 90
       50
102
RTVSPost2010PropOp47
 70
     1
102
RTVSPost2010Prop48
 90
       50
102
RTVSPost2010PropOp48
 70
     1
102
RTVSPost2010Prop49
280
     0
102
RTVSPost2010PropOp49
 70
     1
102
RTVSPost2010Prop50
 90
       50
102
RTVSPost2010PropOp50
 70
     1
102
RTVSPost2010Prop51ColorIndex
 90
      256
102
RTVSPost2010Prop51ColorRGB
 90
-16777216
102
RTVSPost2010PropOp51
 70
     0
102
RTVSPost2010Prop52
140
1.0
102
RTVSPost2010PropOp52
 70
     0
102
RTVSPost2010Prop53
 90
        2
102
RTVSPost2010PropOp53
 70
     1
102
RTVSPost2010Prop54
  1
strokes_ogs.tif
102
RTVSPost2010PropOp54
 70
     1
102
RTVSPost2010Prop55
280
     0
102
RTVSPost2010PropOp55
 70
     1
102
RTVSPost2010Prop56
140
1.0
102
RTVSPost2010PropOp56
 70
     1
102
RTVSPost2010Prop57
140
1.0
102
RTVSPost2010PropOp57
 70
     1
  0
XRECORD
  5
3F0
102
{ACAD_REACTORS
330
3EF
102
}
330
3EF
100
AcDbXrecord
280
     1
102
RTVSPropertyOp0
 70
     1
102
RTVSPropertyOp1
 70
     1
102
RTVSPropertyOp2
 70
     1
102
RTVSPropertyOp3
 70
     1
102
RTVSPropertyOp4
 70
     1
102
RTVSPropertyOp5
 70
     1
102
RTVSPropertyOp6
 70
     1
102
RTVSPropertyOp7
 70
     1
102
RTVSPropertyOp8
 70
     1
102
RTVSPropertyOp9
 70
     1
102
RTVSPropertyOp10
 70
     1
102
RTVSPropertyOp11
 70
     1
102
RTVSPropertyOp12
 70
     1
102
RTVSPropertyOp13
 70
     1
102
RTVSPropertyOp14
 70
     1
102
RTVSPropertyOp15
 70
     1
102
RTVSPropertyOp16
 70
     1
102
RTVSPropertyOp17
 70
     1
102
RTVSPropertyOp18
 70
     1
102
RTVSPropertyOp19
 70
     1
102
RTVSPropertyOp20
 70
     1
102
RTVSPropertyOp21
 70
     1
102
RTVSPropertyOp22
 70
     1
102
RTVSPropertyOp23
 70
     1
102
RTVSPropertyOp24
 70
     1
102
RTVSPropertyOp25
 70
     1
102
RTVSPropertyOp26
 70
     1
102
RTVSPropertyOp27
 70
     1
102
RTVSPropertyOp28
 70
     1
102
RTVSPropertyOp29
 70
     1
102
RTVSPropertyOp30
 70
     1
102
RTVSPropertyOp31
 70
     1
102
RTVSPropertyOp32
 70
     1
102
RTVSPropertyOp33
 70
     1
102
RTVSPropertyOp34
 70
     1
102
RTVSPropertyOp35
 70
     1
102
RTVSPropertyOp36
 70
     1
102
RTVSPropertyOp37
 70
     1
102
RTVSPropertyOp38
 70
     1
102
RTVSPropertyOp39
 70
     1
102
RTVSPropertyOp40
 70
     1
102
RTVSPropertyOp41
 70
     1
102
RTVSPropertyOp42
 70
     1
102
RTVSPropertyOp43
 70
     1
102
RTVSPropertyOp44
 70
     1
102
RTVSPropertyOp45
 70
     1
102
RTVSPropertyOp46
 70
     1
102
RTVSPropertyOp47
 70
     1
102
RTVSPropertyOp48
 70
     1
102
RTVSPropertyOp49
 70
     1
102
RTVSPropertyOp50
 70
     1
102
RTVSPropertyOp51
 70
     0
102
RTVSPropertyOp52
 70
     0
102
RTVSPropertyOp53
 70
     1
102
RTVSPropertyOp54
 70
     1
102
RTVSPropertyOp55
 70
     1
102
RTVSPropertyOp56
 70
     1
102
RTVSPropertyOp57
 70
     1
102
RTVSPost2010Prop28
280
     0
102
RTVSPost2010PropOp28
 70
     1
102
RTVSPost2010Prop29
280
     1
102
RTVSPost2010PropOp29
 70
     1
102
RTVSPost2010Prop30
280
     1
102
RTVSPost2010PropOp30
 70
     1
102
RTVSPost2010Prop31
280
     0
102
RTVSPost2010PropOp31
 70
     1
102
RTVSPost2010Prop32
280
     0
102
RTVSPost2010PropOp32
 70
     1
102
RTVSPost2010Prop33
280
     0
102
RTVSPost2010PropOp33
 70
     1
102
RTVSPost2010Prop34
280
     0
102
RTVSPost2010PropOp34
 70
     1
102
RTVSPost2010Prop35
280
     0
102
RTVSPost2010PropOp35
 70
     1
102
RTVSPost2010Prop36
280
     0
102
RTVSPost2010PropOp36
 70
     1
102
RTVSPost2010Prop37
 90
       50
102
RTVSPost2010PropOp37
 70
     1
102
RTVSPost2010Prop38
140
0.0
102
RTVSPost2010PropOp38
 70
     1
102
RTVSPost2010Prop39
140
1.0
102
RTVSPost2010PropOp39
 70
     1
102
RTVSPost2010Prop40
 90
        0
102
RTVSPost2010PropOp40
 70
     1
102
RTVSPost2010Prop41ColorIndex
 90
       18
102
RTVSPost2010Prop41ColorRGB
 90
        0
102
RTVSPost2010PropOp41
 70
     1
102
RTVSPost2010Prop42
 90
       50
102
RTVSPost2010PropOp42
 70
     1
102
RTVSPost2010Prop43
 90
        3
102
RTVSPost2010PropOp43
 70
     1
102
RTVSPost2010Prop44ColorIndex
 90
        5
102
RTVSPost2010Prop44ColorRGB
 90
      255
102
RTVSPost2010PropOp44
 70
     1
102
RTVSPost2010Prop45
280
     0
102
RTVSPost2010PropOp45
 70
     1
102
RTVSPost2010Prop46
 90
       50
102
RTVSPost2010PropOp46
 70
     1
102
RTVSPost2010Prop47
 90
       50
102
RTVSPost2010PropOp47
 70
     1
102
RTVSPost2010Prop48
 90
       50
102
RTVSPost2010PropOp48
 70
     1
102
RTVSPost2010Prop49
280
     0
102
RTVSPost2010PropOp49
 70
     1
102
RTVSPost2010Prop50
 90
       50
102
RTVSPost2010PropOp50
 70
     1
102
RTVSPost2010Prop51ColorIndex
 90
      256
102
RTVSPost2010Prop51ColorRGB
 90
-16777216
102
RTVSPost2010PropOp51
 70
     0
102
RTVSPost2010Prop52
140
1.0
102
RTVSPost2010PropOp52
 70
     0
102
RTVSPost2010Prop53
 90
        2
102
RTVSPost2010PropOp53
 70
     1
102
RTVSPost2010Prop54
  1
strokes_ogs.tif
102
RTVSPost2010PropOp54
 70
     1
102
RTVSPost2010Prop55
280
     0
102
RTVSPost2010PropOp55
 70
     1
102
RTVSPost2010Prop56
140
1.0
102
RTVSPost2010PropOp56
 70
     1
102
RTVSPost2010Prop57
140
1.0
102
RTVSPost2010PropOp57
 70
     1
  0
XRECORD
  5
3F2
102
{ACAD_REACTORS
330
3F1
102
}
330
3F1
100
AcDbXrecord
280
     1
102
RTVSPropertyOp0
 70
     1
102
RTVSPropertyOp1
 70
     1
102
RTVSPropertyOp2
 70
     1
102
RTVSPropertyOp3
 70
     1
102
RTVSPropertyOp4
 70
     1
102
RTVSPropertyOp5
 70
     1
102
RTVSPropertyOp6
 70
     1
102
RTVSPropertyOp7
 70
     1
102
RTVSPropertyOp8
 70
     1
102
RTVSPropertyOp9
 70
     1
102
RTVSPropertyOp10
 70
     1
102
RTVSPropertyOp11
 70
     1
102
RTVSPropertyOp12
 70
     1
102
RTVSPropertyOp13
 70
     1
102
RTVSPropertyOp14
 70
     1
102
RTVSPropertyOp15
 70
     1
102
RTVSPropertyOp16
 70
     1
102
RTVSPropertyOp17
 70
     1
102
RTVSPropertyOp18
 70
     1
102
RTVSPropertyOp19
 70
     1
102
RTVSPropertyOp20
 70
     1
102
RTVSPropertyOp21
 70
     1
102
RTVSPropertyOp22
 70
     1
102
RTVSPropertyOp23
 70
     1
102
RTVSPropertyOp24
 70
     1
102
RTVSPropertyOp25
 70
     1
102
RTVSPropertyOp26
 70
     1
102
RTVSPropertyOp27
 70
     1
102
RTVSPropertyOp28
 70
     1
102
RTVSPropertyOp29
 70
     1
102
RTVSPropertyOp30
 70
     1
102
RTVSPropertyOp31
 70
     1
102
RTVSPropertyOp32
 70
     1
102
RTVSPropertyOp33
 70
     1
102
RTVSPropertyOp34
 70
     1
102
RTVSPropertyOp35
 70
     1
102
RTVSPropertyOp36
 70
     1
102
RTVSPropertyOp37
 70
     1
102
RTVSPropertyOp38
 70
     1
102
RTVSPropertyOp39
 70
     1
102
RTVSPropertyOp40
 70
     1
102
RTVSPropertyOp41
 70
     1
102
RTVSPropertyOp42
 70
     1
102
RTVSPropertyOp43
 70
     1
102
RTVSPropertyOp44
 70
     1
102
RTVSPropertyOp45
 70
     1
102
RTVSPropertyOp46
 70
     1
102
RTVSPropertyOp47
 70
     1
102
RTVSPropertyOp48
 70
     1
102
RTVSPropertyOp49
 70
     1
102
RTVSPropertyOp50
 70
     1
102
RTVSPropertyOp51
 70
     0
102
RTVSPropertyOp52
 70
     0
102
RTVSPropertyOp53
 70
     1
102
RTVSPropertyOp54
 70
     1
102
RTVSPropertyOp55
 70
     1
102
RTVSPropertyOp56
 70
     1
102
RTVSPropertyOp57
 70
     1
102
RTVSPost2010Prop28
280
     0
102
RTVSPost2010PropOp28
 70
     1
102
RTVSPost2010Prop29
280
     1
102
RTVSPost2010PropOp29
 70
     1
102
RTVSPost2010Prop30
280
     1
102
RTVSPost2010PropOp30
 70
     1
102
RTVSPost2010Prop31
280
     0
102
RTVSPost2010PropOp31
 70
     1
102
RTVSPost2010Prop32
280
     0
102
RTVSPost2010PropOp32
 70
     1
102
RTVSPost2010Prop33
280
     0
102
RTVSPost2010PropOp33
 70
     1
102
RTVSPost2010Prop34
280
     0
102
RTVSPost2010PropOp34
 70
     1
102
RTVSPost2010Prop35
280
     0
102
RTVSPost2010PropOp35
 70
     1
102
RTVSPost2010Prop36
280
     0
102
RTVSPost2010PropOp36
 70
     1
102
RTVSPost2010Prop37
 90
       50
102
RTVSPost2010PropOp37
 70
     1
102
RTVSPost2010Prop38
140
0.0
102
RTVSPost2010PropOp38
 70
     1
102
RTVSPost2010Prop39
140
1.0
102
RTVSPost2010PropOp39
 70
     1
102
RTVSPost2010Prop40
 90
        0
102
RTVSPost2010PropOp40
 70
     1
102
RTVSPost2010Prop41ColorIndex
 90
       18
102
RTVSPost2010Prop41ColorRGB
 90
        0
102
RTVSPost2010PropOp41
 70
     1
102
RTVSPost2010Prop42
 90
       50
102
RTVSPost2010PropOp42
 70
     1
102
RTVSPost2010Prop43
 90
        3
102
RTVSPost2010PropOp43
 70
     1
102
RTVSPost2010Prop44ColorIndex
 90
        5
102
RTVSPost2010Prop44ColorRGB
 90
      255
102
RTVSPost2010PropOp44
 70
     1
102
RTVSPost2010Prop45
280
     0
102
RTVSPost2010PropOp45
 70
     1
102
RTVSPost2010Prop46
 90
       50
102
RTVSPost2010PropOp46
 70
     1
102
RTVSPost2010Prop47
 90
       50
102
RTVSPost2010PropOp47
 70
     1
102
RTVSPost2010Prop48
 90
       50
102
RTVSPost2010PropOp48
 70
     1
102
RTVSPost2010Prop49
280
     0
102
RTVSPost2010PropOp49
 70
     1
102
RTVSPost2010Prop50
 90
       50
102
RTVSPost2010PropOp50
 70
     1
102
RTVSPost2010Prop51ColorIndex
 90
      256
102
RTVSPost2010Prop51ColorRGB
 90
-16777216
102
RTVSPost2010PropOp51
 70
     0
102
RTVSPost2010Prop52
140
1.0
102
RTVSPost2010PropOp52
 70
     0
102
RTVSPost2010Prop53
 90
        2
102
RTVSPost2010PropOp53
 70
     1
102
RTVSPost2010Prop54
  1
strokes_ogs.tif
102
RTVSPost2010PropOp54
 70
     1
102
RTVSPost2010Prop55
280
     0
102
RTVSPost2010PropOp55
 70
     1
102
RTVSPost2010Prop56
140
1.0
102
RTVSPost2010PropOp56
 70
     1
102
RTVSPost2010Prop57
140
1.0
102
RTVSPost2010PropOp57
 70
     1
  0
XRECORD
  5
402
102
{ACAD_REACTORS
330
401
102
}
330
401
100
AcDbXrecord
280
     1
102
RTVSPropertyOp0
 70
     0
102
RTVSPropertyOp1
 70
     0
102
RTVSPropertyOp2
 70
     0
102
RTVSPropertyOp3
 70
     0
102
RTVSPropertyOp4
 70
     0
102
RTVSPropertyOp5
 70
     0
102
RTVSPropertyOp6
 70
     0
102
RTVSPropertyOp7
 70
     0
102
RTVSPropertyOp8
 70
     0
102
RTVSPropertyOp9
 70
     0
102
RTVSPropertyOp10
 70
     0
102
RTVSPropertyOp11
 70
     0
102
RTVSPropertyOp12
 70
     0
102
RTVSPropertyOp13
 70
     0
102
RTVSPropertyOp14
 70
     2
102
RTVSPropertyOp15
 70
     0
102
RTVSPropertyOp16
 70
     0
102
RTVSPropertyOp17
 70
     0
102
RTVSPropertyOp18
 70
     0
102
RTVSPropertyOp19
 70
     0
102
RTVSPropertyOp20
 70
     0
102
RTVSPropertyOp21
 70
     0
102
RTVSPropertyOp22
 70
     0
102
RTVSPropertyOp23
 70
     0
102
RTVSPropertyOp24
 70
     0
102
RTVSPropertyOp25
 70
     0
102
RTVSPropertyOp26
 70
     0
102
RTVSPropertyOp27
 70
     0
102
RTVSPropertyOp28
 70
     0
102
RTVSPropertyOp29
 70
     0
102
RTVSPropertyOp30
 70
     0
102
RTVSPropertyOp31
 70
     0
102
RTVSPropertyOp32
 70
     0
102
RTVSPropertyOp33
 70
     0
102
RTVSPropertyOp34
 70
     0
102
RTVSPropertyOp35
 70
     0
102
RTVSPropertyOp36
 70
     0
102
RTVSPropertyOp37
 70
     0
102
RTVSPropertyOp38
 70
     0
102
RTVSPropertyOp39
 70
     0
102
RTVSPropertyOp40
 70
     0
102
RTVSPropertyOp41
 70
     0
102
RTVSPropertyOp42
 70
     0
102
RTVSPropertyOp43
 70
     0
102
RTVSPropertyOp44
 70
     0
102
RTVSPropertyOp45
 70
     0
102
RTVSPropertyOp46
 70
     0
102
RTVSPropertyOp47
 70
     0
102
RTVSPropertyOp48
 70
     0
102
RTVSPropertyOp49
 70
     0
102
RTVSPropertyOp50
 70
     0
102
RTVSPropertyOp51
 70
     0
102
RTVSPropertyOp52
 70
     0
102
RTVSPropertyOp53
 70
     0
102
RTVSPropertyOp54
 70
     0
102
RTVSPropertyOp55
 70
     0
102
RTVSPropertyOp56
 70
     0
102
RTVSPropertyOp57
 70
     0
102
RTVSPost2010Prop28
280
     0
102
RTVSPost2010PropOp28
 70
     0
102
RTVSPost2010Prop29
280
     1
102
RTVSPost2010PropOp29
 70
     0
102
RTVSPost2010Prop30
280
     1
102
RTVSPost2010PropOp30
 70
     0
102
RTVSPost2010Prop31
280
     0
102
RTVSPost2010PropOp31
 70
     0
102
RTVSPost2010Prop32
280
     0
102
RTVSPost2010PropOp32
 70
     0
102
RTVSPost2010Prop33
280
     0
102
RTVSPost2010PropOp33
 70
     0
102
RTVSPost2010Prop34
280
     0
102
RTVSPost2010PropOp34
 70
     0
102
RTVSPost2010Prop35
280
     0
102
RTVSPost2010PropOp35
 70
     0
102
RTVSPost2010Prop36
280
     0
102
RTVSPost2010PropOp36
 70
     0
102
RTVSPost2010Prop37
 90
       50
102
RTVSPost2010PropOp37
 70
     0
102
RTVSPost2010Prop38
140
0.0
102
RTVSPost2010PropOp38
 70
     0
102
RTVSPost2010Prop39
140
1.0
102
RTVSPost2010PropOp39
 70
     0
102
RTVSPost2010Prop40
 90
        0
102
RTVSPost2010PropOp40
 70
     0
102
RTVSPost2010Prop41ColorIndex
 90
       18
102
RTVSPost2010Prop41ColorRGB
 90
        0
102
RTVSPost2010PropOp41
 70
     0
102
RTVSPost2010Prop42
 90
       50
102
RTVSPost2010PropOp42
 70
     0
102
RTVSPost2010Prop43
 90
        3
102
RTVSPost2010PropOp43
 70
     0
102
RTVSPost2010Prop44ColorIndex
 90
        5
102
RTVSPost2010Prop44ColorRGB
 90
      255
102
RTVSPost2010PropOp44
 70
     0
102
RTVSPost2010Prop45
280
     0
102
RTVSPost2010PropOp45
 70
     0
102
RTVSPost2010Prop46
 90
       50
102
RTVSPost2010PropOp46
 70
     0
102
RTVSPost2010Prop47
 90
       50
102
RTVSPost2010PropOp47
 70
     0
102
RTVSPost2010Prop48
 90
       50
102
RTVSPost2010PropOp48
 70
     0
102
RTVSPost2010Prop49
280
     0
102
RTVSPost2010PropOp49
 70
     0
102
RTVSPost2010Prop50
 90
       50
102
RTVSPost2010PropOp50
 70
     0
102
RTVSPost2010Prop51ColorIndex
 90
      256
102
RTVSPost2010Prop51ColorRGB
 90
-16777216
102
RTVSPost2010PropOp51
 70
     0
102
RTVSPost2010Prop52
140
1.0
102
RTVSPost2010PropOp52
 70
     0
102
RTVSPost2010Prop53
 90
        2
102
RTVSPost2010PropOp53
 70
     0
102
RTVSPost2010Prop54
  1
strokes_ogs.tif
102
RTVSPost2010PropOp54
 70
     0
102
RTVSPost2010Prop55
280
     0
102
RTVSPost2010PropOp55
 70
     0
102
RTVSPost2010Prop56
140
1.0
102
RTVSPost2010PropOp56
 70
     0
102
RTVSPost2010Prop57
140
1.0
102
RTVSPost2010PropOp57
 70
     0
  0
XRECORD
  5
3FA
102
{ACAD_REACTORS
330
3F9
102
}
330
3F9
100
AcDbXrecord
280
     1
102
RTVSPropertyOp0
 70
     1
102
RTVSPropertyOp1
 70
     1
102
RTVSPropertyOp2
 70
     1
102
RTVSPropertyOp3
 70
     1
102
RTVSPropertyOp4
 70
     1
102
RTVSPropertyOp5
 70
     1
102
RTVSPropertyOp6
 70
     1
102
RTVSPropertyOp7
 70
     1
102
RTVSPropertyOp8
 70
     1
102
RTVSPropertyOp9
 70
     1
102
RTVSPropertyOp10
 70
     1
102
RTVSPropertyOp11
 70
     1
102
RTVSPropertyOp12
 70
     1
102
RTVSPropertyOp13
 70
     1
102
RTVSPropertyOp14
 70
     1
102
RTVSPropertyOp15
 70
     1
102
RTVSPropertyOp16
 70
     1
102
RTVSPropertyOp17
 70
     1
102
RTVSPropertyOp18
 70
     1
102
RTVSPropertyOp19
 70
     1
102
RTVSPropertyOp20
 70
     1
102
RTVSPropertyOp21
 70
     1
102
RTVSPropertyOp22
 70
     1
102
RTVSPropertyOp23
 70
     1
102
RTVSPropertyOp24
 70
     1
102
RTVSPropertyOp25
 70
     1
102
RTVSPropertyOp26
 70
     1
102
RTVSPropertyOp27
 70
     1
102
RTVSPropertyOp28
 70
     1
102
RTVSPropertyOp29
 70
     1
102
RTVSPropertyOp30
 70
     1
102
RTVSPropertyOp31
 70
     1
102
RTVSPropertyOp32
 70
     1
102
RTVSPropertyOp33
 70
     1
102
RTVSPropertyOp34
 70
     1
102
RTVSPropertyOp35
 70
     1
102
RTVSPropertyOp36
 70
     1
102
RTVSPropertyOp37
 70
     1
102
RTVSPropertyOp38
 70
     1
102
RTVSPropertyOp39
 70
     1
102
RTVSPropertyOp40
 70
     1
102
RTVSPropertyOp41
 70
     1
102
RTVSPropertyOp42
 70
     1
102
RTVSPropertyOp43
 70
     1
102
RTVSPropertyOp44
 70
     1
102
RTVSPropertyOp45
 70
     1
102
RTVSPropertyOp46
 70
     1
102
RTVSPropertyOp47
 70
     1
102
RTVSPropertyOp48
 70
     1
102
RTVSPropertyOp49
 70
     1
102
RTVSPropertyOp50
 70
     1
102
RTVSPropertyOp51
 70
     0
102
RTVSPropertyOp52
 70
     0
102
RTVSPropertyOp53
 70
     1
102
RTVSPropertyOp54
 70
     1
102
RTVSPropertyOp55
 70
     1
102
RTVSPropertyOp56
 70
     1
102
RTVSPropertyOp57
 70
     1
102
RTVSPost2010Prop28
280
     0
102
RTVSPost2010PropOp28
 70
     1
102
RTVSPost2010Prop29
280
     1
102
RTVSPost2010PropOp29
 70
     1
102
RTVSPost2010Prop30
280
     1
102
RTVSPost2010PropOp30
 70
     1
102
RTVSPost2010Prop31
280
     0
102
RTVSPost2010PropOp31
 70
     1
102
RTVSPost2010Prop32
280
     0
102
RTVSPost2010PropOp32
 70
     1
102
RTVSPost2010Prop33
280
     0
102
RTVSPost2010PropOp33
 70
     1
102
RTVSPost2010Prop34
280
     0
102
RTVSPost2010PropOp34
 70
     1
102
RTVSPost2010Prop35
280
     0
102
RTVSPost2010PropOp35
 70
     1
102
RTVSPost2010Prop36
280
     0
102
RTVSPost2010PropOp36
 70
     1
102
RTVSPost2010Prop37
 90
       50
102
RTVSPost2010PropOp37
 70
     1
102
RTVSPost2010Prop38
140
0.0
102
RTVSPost2010PropOp38
 70
     1
102
RTVSPost2010Prop39
140
1.0
102
RTVSPost2010PropOp39
 70
     1
102
RTVSPost2010Prop40
 90
        0
102
RTVSPost2010PropOp40
 70
     1
102
RTVSPost2010Prop41ColorIndex
 90
       18
102
RTVSPost2010Prop41ColorRGB
 90
        0
102
RTVSPost2010PropOp41
 70
     1
102
RTVSPost2010Prop42
 90
       50
102
RTVSPost2010PropOp42
 70
     1
102
RTVSPost2010Prop43
 90
        3
102
RTVSPost2010PropOp43
 70
     1
102
RTVSPost2010Prop44ColorIndex
 90
        5
102
RTVSPost2010Prop44ColorRGB
 90
      255
102
RTVSPost2010PropOp44
 70
     1
102
RTVSPost2010Prop45
280
     0
102
RTVSPost2010PropOp45
 70
     1
102
RTVSPost2010Prop46
 90
       50
102
RTVSPost2010PropOp46
 70
     1
102
RTVSPost2010Prop47
 90
       50
102
RTVSPost2010PropOp47
 70
     1
102
RTVSPost2010Prop48
 90
       50
102
RTVSPost2010PropOp48
 70
     1
102
RTVSPost2010Prop49
280
     0
102
RTVSPost2010PropOp49
 70
     1
102
RTVSPost2010Prop50
 90
       50
102
RTVSPost2010PropOp50
 70
     1
102
RTVSPost2010Prop51ColorIndex
 90
      256
102
RTVSPost2010Prop51ColorRGB
 90
-16777216
102
RTVSPost2010PropOp51
 70
     0
102
RTVSPost2010Prop52
140
1.0
102
RTVSPost2010PropOp52
 70
     0
102
RTVSPost2010Prop53
 90
        2
102
RTVSPost2010PropOp53
 70
     1
102
RTVSPost2010Prop54
  1
strokes_ogs.tif
102
RTVSPost2010PropOp54
 70
     1
102
RTVSPost2010Prop55
280
     0
102
RTVSPost2010PropOp55
 70
     1
102
RTVSPost2010Prop56
140
1.0
102
RTVSPost2010PropOp56
 70
     1
102
RTVSPost2010Prop57
140
1.0
102
RTVSPost2010PropOp57
 70
     1
  0
XRECORD
  5
3DE
102
{ACAD_REACTORS
330
3DD
102
}
330
3DD
100
AcDbXrecord
280
     1
102
RTVSPropertyOp0
 70
     1
102
RTVSPropertyOp1
 70
     1
102
RTVSPropertyOp2
 70
     1
102
RTVSPropertyOp3
 70
     1
102
RTVSPropertyOp4
 70
     1
102
RTVSPropertyOp5
 70
     1
102
RTVSPropertyOp6
 70
     1
102
RTVSPropertyOp7
 70
     1
102
RTVSPropertyOp8
 70
     1
102
RTVSPropertyOp9
 70
     1
102
RTVSPropertyOp10
 70
     1
102
RTVSPropertyOp11
 70
     1
102
RTVSPropertyOp12
 70
     1
102
RTVSPropertyOp13
 70
     1
102
RTVSPropertyOp14
 70
     1
102
RTVSPropertyOp15
 70
     1
102
RTVSPropertyOp16
 70
     1
102
RTVSPropertyOp17
 70
     1
102
RTVSPropertyOp18
 70
     1
102
RTVSPropertyOp19
 70
     1
102
RTVSPropertyOp20
 70
     1
102
RTVSPropertyOp21
 70
     1
102
RTVSPropertyOp22
 70
     1
102
RTVSPropertyOp23
 70
     1
102
RTVSPropertyOp24
 70
     1
102
RTVSPropertyOp25
 70
     1
102
RTVSPropertyOp26
 70
     1
102
RTVSPropertyOp27
 70
     1
102
RTVSPropertyOp28
 70
     1
102
RTVSPropertyOp29
 70
     1
102
RTVSPropertyOp30
 70
     1
102
RTVSPropertyOp31
 70
     1
102
RTVSPropertyOp32
 70
     1
102
RTVSPropertyOp33
 70
     1
102
RTVSPropertyOp34
 70
     1
102
RTVSPropertyOp35
 70
     1
102
RTVSPropertyOp36
 70
     1
102
RTVSPropertyOp37
 70
     1
102
RTVSPropertyOp38
 70
     1
102
RTVSPropertyOp39
 70
     1
102
RTVSPropertyOp40
 70
     1
102
RTVSPropertyOp41
 70
     1
102
RTVSPropertyOp42
 70
     1
102
RTVSPropertyOp43
 70
     1
102
RTVSPropertyOp44
 70
     1
102
RTVSPropertyOp45
 70
     1
102
RTVSPropertyOp46
 70
     1
102
RTVSPropertyOp47
 70
     1
102
RTVSPropertyOp48
 70
     1
102
RTVSPropertyOp49
 70
     1
102
RTVSPropertyOp50
 70
     1
102
RTVSPropertyOp51
 70
     0
102
RTVSPropertyOp52
 70
     0
102
RTVSPropertyOp53
 70
     1
102
RTVSPropertyOp54
 70
     1
102
RTVSPropertyOp55
 70
     1
102
RTVSPropertyOp56
 70
     1
102
RTVSPropertyOp57
 70
     1
102
RTVSPost2010Prop28
280
     0
102
RTVSPost2010PropOp28
 70
     1
102
RTVSPost2010Prop29
280
     1
102
RTVSPost2010PropOp29
 70
     1
102
RTVSPost2010Prop30
280
     1
102
RTVSPost2010PropOp30
 70
     1
102
RTVSPost2010Prop31
280
     0
102
RTVSPost2010PropOp31
 70
     1
102
RTVSPost2010Prop32
280
     0
102
RTVSPost2010PropOp32
 70
     1
102
RTVSPost2010Prop33
280
     0
102
RTVSPost2010PropOp33
 70
     1
102
RTVSPost2010Prop34
280
     0
102
RTVSPost2010PropOp34
 70
     1
102
RTVSPost2010Prop35
280
     0
102
RTVSPost2010PropOp35
 70
     1
102
RTVSPost2010Prop36
280
     0
102
RTVSPost2010PropOp36
 70
     1
102
RTVSPost2010Prop37
 90
       50
102
RTVSPost2010PropOp37
 70
     1
102
RTVSPost2010Prop38
140
0.0
102
RTVSPost2010PropOp38
 70
     1
102
RTVSPost2010Prop39
140
1.0
102
RTVSPost2010PropOp39
 70
     1
102
RTVSPost2010Prop40
 90
        0
102
RTVSPost2010PropOp40
 70
     1
102
RTVSPost2010Prop41ColorIndex
 90
       18
102
RTVSPost2010Prop41ColorRGB
 90
        0
102
RTVSPost2010PropOp41
 70
     1
102
RTVSPost2010Prop42
 90
       50
102
RTVSPost2010PropOp42
 70
     1
102
RTVSPost2010Prop43
 90
        3
102
RTVSPost2010PropOp43
 70
     1
102
RTVSPost2010Prop44ColorIndex
 90
        5
102
RTVSPost2010Prop44ColorRGB
 90
      255
102
RTVSPost2010PropOp44
 70
     1
102
RTVSPost2010Prop45
280
     0
102
RTVSPost2010PropOp45
 70
     1
102
RTVSPost2010Prop46
 90
       50
102
RTVSPost2010PropOp46
 70
     1
102
RTVSPost2010Prop47
 90
       50
102
RTVSPost2010PropOp47
 70
     1
102
RTVSPost2010Prop48
 90
       50
102
RTVSPost2010PropOp48
 70
     1
102
RTVSPost2010Prop49
280
     0
102
RTVSPost2010PropOp49
 70
     1
102
RTVSPost2010Prop50
 90
       50
102
RTVSPost2010PropOp50
 70
     1
102
RTVSPost2010Prop51ColorIndex
 90
      256
102
RTVSPost2010Prop51ColorRGB
 90
-16777216
102
RTVSPost2010PropOp51
 70
     0
102
RTVSPost2010Prop52
140
1.0
102
RTVSPost2010PropOp52
 70
     0
102
RTVSPost2010Prop53
 90
        2
102
RTVSPost2010PropOp53
 70
     1
102
RTVSPost2010Prop54
  1
strokes_ogs.tif
102
RTVSPost2010PropOp54
 70
     1
102
RTVSPost2010Prop55
280
     0
102
RTVSPost2010PropOp55
 70
     1
102
RTVSPost2010Prop56
140
1.0
102
RTVSPost2010PropOp56
 70
     1
102
RTVSPost2010Prop57
140
1.0
102
RTVSPost2010PropOp57
 70
     1
  0
XRECORD
  5
3E0
102
{ACAD_REACTORS
330
3DF
102
}
330
3DF
100
AcDbXrecord
280
     1
102
RTVSPropertyOp0
 70
     1
102
RTVSPropertyOp1
 70
     1
102
RTVSPropertyOp2
 70
     1
102
RTVSPropertyOp3
 70
     1
102
RTVSPropertyOp4
 70
     1
102
RTVSPropertyOp5
 70
     1
102
RTVSPropertyOp6
 70
     1
102
RTVSPropertyOp7
 70
     1
102
RTVSPropertyOp8
 70
     1
102
RTVSPropertyOp9
 70
     1
102
RTVSPropertyOp10
 70
     1
102
RTVSPropertyOp11
 70
     1
102
RTVSPropertyOp12
 70
     1
102
RTVSPropertyOp13
 70
     1
102
RTVSPropertyOp14
 70
     1
102
RTVSPropertyOp15
 70
     1
102
RTVSPropertyOp16
 70
     1
102
RTVSPropertyOp17
 70
     1
102
RTVSPropertyOp18
 70
     1
102
RTVSPropertyOp19
 70
     1
102
RTVSPropertyOp20
 70
     1
102
RTVSPropertyOp21
 70
     1
102
RTVSPropertyOp22
 70
     1
102
RTVSPropertyOp23
 70
     1
102
RTVSPropertyOp24
 70
     1
102
RTVSPropertyOp25
 70
     1
102
RTVSPropertyOp26
 70
     1
102
RTVSPropertyOp27
 70
     1
102
RTVSPropertyOp28
 70
     1
102
RTVSPropertyOp29
 70
     1
102
RTVSPropertyOp30
 70
     1
102
RTVSPropertyOp31
 70
     1
102
RTVSPropertyOp32
 70
     1
102
RTVSPropertyOp33
 70
     1
102
RTVSPropertyOp34
 70
     1
102
RTVSPropertyOp35
 70
     1
102
RTVSPropertyOp36
 70
     1
102
RTVSPropertyOp37
 70
     1
102
RTVSPropertyOp38
 70
     1
102
RTVSPropertyOp39
 70
     1
102
RTVSPropertyOp40
 70
     1
102
RTVSPropertyOp41
 70
     1
102
RTVSPropertyOp42
 70
     1
102
RTVSPropertyOp43
 70
     1
102
RTVSPropertyOp44
 70
     1
102
RTVSPropertyOp45
 70
     1
102
RTVSPropertyOp46
 70
     1
102
RTVSPropertyOp47
 70
     1
102
RTVSPropertyOp48
 70
     1
102
RTVSPropertyOp49
 70
     1
102
RTVSPropertyOp50
 70
     1
102
RTVSPropertyOp51
 70
     0
102
RTVSPropertyOp52
 70
     0
102
RTVSPropertyOp53
 70
     1
102
RTVSPropertyOp54
 70
     1
102
RTVSPropertyOp55
 70
     1
102
RTVSPropertyOp56
 70
     1
102
RTVSPropertyOp57
 70
     1
102
RTVSPost2010Prop28
280
     0
102
RTVSPost2010PropOp28
 70
     1
102
RTVSPost2010Prop29
280
     1
102
RTVSPost2010PropOp29
 70
     1
102
RTVSPost2010Prop30
280
     1
102
RTVSPost2010PropOp30
 70
     1
102
RTVSPost2010Prop31
280
     0
102
RTVSPost2010PropOp31
 70
     1
102
RTVSPost2010Prop32
280
     0
102
RTVSPost2010PropOp32
 70
     1
102
RTVSPost2010Prop33
280
     0
102
RTVSPost2010PropOp33
 70
     1
102
RTVSPost2010Prop34
280
     0
102
RTVSPost2010PropOp34
 70
     1
102
RTVSPost2010Prop35
280
     0
102
RTVSPost2010PropOp35
 70
     1
102
RTVSPost2010Prop36
280
     0
102
RTVSPost2010PropOp36
 70
     1
102
RTVSPost2010Prop37
 90
       50
102
RTVSPost2010PropOp37
 70
     1
102
RTVSPost2010Prop38
140
0.0
102
RTVSPost2010PropOp38
 70
     1
102
RTVSPost2010Prop39
140
1.0
102
RTVSPost2010PropOp39
 70
     1
102
RTVSPost2010Prop40
 90
        0
102
RTVSPost2010PropOp40
 70
     1
102
RTVSPost2010Prop41ColorIndex
 90
       18
102
RTVSPost2010Prop41ColorRGB
 90
        0
102
RTVSPost2010PropOp41
 70
     1
102
RTVSPost2010Prop42
 90
       50
102
RTVSPost2010PropOp42
 70
     1
102
RTVSPost2010Prop43
 90
        3
102
RTVSPost2010PropOp43
 70
     1
102
RTVSPost2010Prop44ColorIndex
 90
        5
102
RTVSPost2010Prop44ColorRGB
 90
      255
102
RTVSPost2010PropOp44
 70
     1
102
RTVSPost2010Prop45
280
     0
102
RTVSPost2010PropOp45
 70
     1
102
RTVSPost2010Prop46
 90
       50
102
RTVSPost2010PropOp46
 70
     1
102
RTVSPost2010Prop47
 90
       50
102
RTVSPost2010PropOp47
 70
     1
102
RTVSPost2010Prop48
 90
       50
102
RTVSPost2010PropOp48
 70
     1
102
RTVSPost2010Prop49
280
     0
102
RTVSPost2010PropOp49
 70
     1
102
RTVSPost2010Prop50
 90
       50
102
RTVSPost2010PropOp50
 70
     1
102
RTVSPost2010Prop51ColorIndex
 90
      256
102
RTVSPost2010Prop51ColorRGB
 90
-16777216
102
RTVSPost2010PropOp51
 70
     0
102
RTVSPost2010Prop52
140
1.0
102
RTVSPost2010PropOp52
 70
     0
102
RTVSPost2010Prop53
 90
        2
102
RTVSPost2010PropOp53
 70
     1
102
RTVSPost2010Prop54
  1
strokes_ogs.tif
102
RTVSPost2010PropOp54
 70
     1
102
RTVSPost2010Prop55
280
     0
102
RTVSPost2010PropOp55
 70
     1
102
RTVSPost2010Prop56
140
1.0
102
RTVSPost2010PropOp56
 70
     1
102
RTVSPost2010Prop57
140
1.0
102
RTVSPost2010PropOp57
 70
     1
  0
XRECORD
  5
3E2
102
{ACAD_REACTORS
330
3E1
102
}
330
3E1
100
AcDbXrecord
280
     1
102
RTVSPropertyOp0
 70
     1
102
RTVSPropertyOp1
 70
     1
102
RTVSPropertyOp2
 70
     1
102
RTVSPropertyOp3
 70
     1
102
RTVSPropertyOp4
 70
     1
102
RTVSPropertyOp5
 70
     1
102
RTVSPropertyOp6
 70
     1
102
RTVSPropertyOp7
 70
     1
102
RTVSPropertyOp8
 70
     1
102
RTVSPropertyOp9
 70
     1
102
RTVSPropertyOp10
 70
     1
102
RTVSPropertyOp11
 70
     1
102
RTVSPropertyOp12
 70
     1
102
RTVSPropertyOp13
 70
     1
102
RTVSPropertyOp14
 70
     1
102
RTVSPropertyOp15
 70
     1
102
RTVSPropertyOp16
 70
     1
102
RTVSPropertyOp17
 70
     1
102
RTVSPropertyOp18
 70
     1
102
RTVSPropertyOp19
 70
     1
102
RTVSPropertyOp20
 70
     1
102
RTVSPropertyOp21
 70
     1
102
RTVSPropertyOp22
 70
     1
102
RTVSPropertyOp23
 70
     1
102
RTVSPropertyOp24
 70
     1
102
RTVSPropertyOp25
 70
     1
102
RTVSPropertyOp26
 70
     1
102
RTVSPropertyOp27
 70
     1
102
RTVSPropertyOp28
 70
     1
102
RTVSPropertyOp29
 70
     1
102
RTVSPropertyOp30
 70
     1
102
RTVSPropertyOp31
 70
     1
102
RTVSPropertyOp32
 70
     1
102
RTVSPropertyOp33
 70
     1
102
RTVSPropertyOp34
 70
     1
102
RTVSPropertyOp35
 70
     1
102
RTVSPropertyOp36
 70
     1
102
RTVSPropertyOp37
 70
     1
102
RTVSPropertyOp38
 70
     1
102
RTVSPropertyOp39
 70
     1
102
RTVSPropertyOp40
 70
     1
102
RTVSPropertyOp41
 70
     1
102
RTVSPropertyOp42
 70
     1
102
RTVSPropertyOp43
 70
     1
102
RTVSPropertyOp44
 70
     1
102
RTVSPropertyOp45
 70
     1
102
RTVSPropertyOp46
 70
     1
102
RTVSPropertyOp47
 70
     1
102
RTVSPropertyOp48
 70
     1
102
RTVSPropertyOp49
 70
     1
102
RTVSPropertyOp50
 70
     1
102
RTVSPropertyOp51
 70
     0
102
RTVSPropertyOp52
 70
     0
102
RTVSPropertyOp53
 70
     1
102
RTVSPropertyOp54
 70
     1
102
RTVSPropertyOp55
 70
     1
102
RTVSPropertyOp56
 70
     1
102
RTVSPropertyOp57
 70
     1
102
RTVSPost2010Prop28
280
     0
102
RTVSPost2010PropOp28
 70
     1
102
RTVSPost2010Prop29
280
     1
102
RTVSPost2010PropOp29
 70
     1
102
RTVSPost2010Prop30
280
     1
102
RTVSPost2010PropOp30
 70
     1
102
RTVSPost2010Prop31
280
     0
102
RTVSPost2010PropOp31
 70
     1
102
RTVSPost2010Prop32
280
     0
102
RTVSPost2010PropOp32
 70
     1
102
RTVSPost2010Prop33
280
     0
102
RTVSPost2010PropOp33
 70
     1
102
RTVSPost2010Prop34
280
     0
102
RTVSPost2010PropOp34
 70
     1
102
RTVSPost2010Prop35
280
     0
102
RTVSPost2010PropOp35
 70
     1
102
RTVSPost2010Prop36
280
     0
102
RTVSPost2010PropOp36
 70
     1
102
RTVSPost2010Prop37
 90
       50
102
RTVSPost2010PropOp37
 70
     1
102
RTVSPost2010Prop38
140
0.0
102
RTVSPost2010PropOp38
 70
     1
102
RTVSPost2010Prop39
140
1.0
102
RTVSPost2010PropOp39
 70
     1
102
RTVSPost2010Prop40
 90
        0
102
RTVSPost2010PropOp40
 70
     1
102
RTVSPost2010Prop41ColorIndex
 90
       18
102
RTVSPost2010Prop41ColorRGB
 90
        0
102
RTVSPost2010PropOp41
 70
     1
102
RTVSPost2010Prop42
 90
       50
102
RTVSPost2010PropOp42
 70
     1
102
RTVSPost2010Prop43
 90
        3
102
RTVSPost2010PropOp43
 70
     1
102
RTVSPost2010Prop44ColorIndex
 90
        5
102
RTVSPost2010Prop44ColorRGB
 90
      255
102
RTVSPost2010PropOp44
 70
     1
102
RTVSPost2010Prop45
280
     0
102
RTVSPost2010PropOp45
 70
     1
102
RTVSPost2010Prop46
 90
       50
102
RTVSPost2010PropOp46
 70
     1
102
RTVSPost2010Prop47
 90
       50
102
RTVSPost2010PropOp47
 70
     1
102
RTVSPost2010Prop48
 90
       50
102
RTVSPost2010PropOp48
 70
     1
102
RTVSPost2010Prop49
280
     0
102
RTVSPost2010PropOp49
 70
     1
102
RTVSPost2010Prop50
 90
       50
102
RTVSPost2010PropOp50
 70
     1
102
RTVSPost2010Prop51ColorIndex
 90
      256
102
RTVSPost2010Prop51ColorRGB
 90
-16777216
102
RTVSPost2010PropOp51
 70
     0
102
RTVSPost2010Prop52
140
1.0
102
RTVSPost2010PropOp52
 70
     0
102
RTVSPost2010Prop53
 90
        2
102
RTVSPost2010PropOp53
 70
     1
102
RTVSPost2010Prop54
  1
strokes_ogs.tif
102
RTVSPost2010PropOp54
 70
     1
102
RTVSPost2010Prop55
280
     0
102
RTVSPost2010PropOp55
 70
     1
102
RTVSPost2010Prop56
140
1.0
102
RTVSPost2010PropOp56
 70
     1
102
RTVSPost2010Prop57
140
1.0
102
RTVSPost2010PropOp57
 70
     1
  0
XRECORD
  5
3E4
102
{ACAD_REACTORS
330
3E3
102
}
330
3E3
100
AcDbXrecord
280
     1
102
RTVSPropertyOp0
 70
     1
102
RTVSPropertyOp1
 70
     1
102
RTVSPropertyOp2
 70
     1
102
RTVSPropertyOp3
 70
     1
102
RTVSPropertyOp4
 70
     1
102
RTVSPropertyOp5
 70
     1
102
RTVSPropertyOp6
 70
     1
102
RTVSPropertyOp7
 70
     1
102
RTVSPropertyOp8
 70
     1
102
RTVSPropertyOp9
 70
     1
102
RTVSPropertyOp10
 70
     1
102
RTVSPropertyOp11
 70
     1
102
RTVSPropertyOp12
 70
     1
102
RTVSPropertyOp13
 70
     1
102
RTVSPropertyOp14
 70
     1
102
RTVSPropertyOp15
 70
     1
102
RTVSPropertyOp16
 70
     1
102
RTVSPropertyOp17
 70
     1
102
RTVSPropertyOp18
 70
     1
102
RTVSPropertyOp19
 70
     1
102
RTVSPropertyOp20
 70
     1
102
RTVSPropertyOp21
 70
     1
102
RTVSPropertyOp22
 70
     1
102
RTVSPropertyOp23
 70
     1
102
RTVSPropertyOp24
 70
     1
102
RTVSPropertyOp25
 70
     1
102
RTVSPropertyOp26
 70
     1
102
RTVSPropertyOp27
 70
     1
102
RTVSPropertyOp28
 70
     1
102
RTVSPropertyOp29
 70
     1
102
RTVSPropertyOp30
 70
     1
102
RTVSPropertyOp31
 70
     1
102
RTVSPropertyOp32
 70
     1
102
RTVSPropertyOp33
 70
     1
102
RTVSPropertyOp34
 70
     1
102
RTVSPropertyOp35
 70
     1
102
RTVSPropertyOp36
 70
     1
102
RTVSPropertyOp37
 70
     1
102
RTVSPropertyOp38
 70
     1
102
RTVSPropertyOp39
 70
     1
102
RTVSPropertyOp40
 70
     1
102
RTVSPropertyOp41
 70
     1
102
RTVSPropertyOp42
 70
     1
102
RTVSPropertyOp43
 70
     1
102
RTVSPropertyOp44
 70
     1
102
RTVSPropertyOp45
 70
     1
102
RTVSPropertyOp46
 70
     1
102
RTVSPropertyOp47
 70
     1
102
RTVSPropertyOp48
 70
     1
102
RTVSPropertyOp49
 70
     1
102
RTVSPropertyOp50
 70
     1
102
RTVSPropertyOp51
 70
     0
102
RTVSPropertyOp52
 70
     0
102
RTVSPropertyOp53
 70
     1
102
RTVSPropertyOp54
 70
     1
102
RTVSPropertyOp55
 70
     1
102
RTVSPropertyOp56
 70
     1
102
RTVSPropertyOp57
 70
     1
102
RTVSPost2010Prop28
280
     0
102
RTVSPost2010PropOp28
 70
     1
102
RTVSPost2010Prop29
280
     1
102
RTVSPost2010PropOp29
 70
     1
102
RTVSPost2010Prop30
280
     1
102
RTVSPost2010PropOp30
 70
     1
102
RTVSPost2010Prop31
280
     0
102
RTVSPost2010PropOp31
 70
     1
102
RTVSPost2010Prop32
280
     0
102
RTVSPost2010PropOp32
 70
     1
102
RTVSPost2010Prop33
280
     0
102
RTVSPost2010PropOp33
 70
     1
102
RTVSPost2010Prop34
280
     0
102
RTVSPost2010PropOp34
 70
     1
102
RTVSPost2010Prop35
280
     0
102
RTVSPost2010PropOp35
 70
     1
102
RTVSPost2010Prop36
280
     0
102
RTVSPost2010PropOp36
 70
     1
102
RTVSPost2010Prop37
 90
       50
102
RTVSPost2010PropOp37
 70
     1
102
RTVSPost2010Prop38
140
0.0
102
RTVSPost2010PropOp38
 70
     1
102
RTVSPost2010Prop39
140
1.0
102
RTVSPost2010PropOp39
 70
     1
102
RTVSPost2010Prop40
 90
        0
102
RTVSPost2010PropOp40
 70
     1
102
RTVSPost2010Prop41ColorIndex
 90
       18
102
RTVSPost2010Prop41ColorRGB
 90
        0
102
RTVSPost2010PropOp41
 70
     1
102
RTVSPost2010Prop42
 90
       50
102
RTVSPost2010PropOp42
 70
     1
102
RTVSPost2010Prop43
 90
        3
102
RTVSPost2010PropOp43
 70
     1
102
RTVSPost2010Prop44ColorIndex
 90
        5
102
RTVSPost2010Prop44ColorRGB
 90
      255
102
RTVSPost2010PropOp44
 70
     1
102
RTVSPost2010Prop45
280
     0
102
RTVSPost2010PropOp45
 70
     1
102
RTVSPost2010Prop46
 90
       50
102
RTVSPost2010PropOp46
 70
     1
102
RTVSPost2010Prop47
 90
       50
102
RTVSPost2010PropOp47
 70
     1
102
RTVSPost2010Prop48
 90
       50
102
RTVSPost2010PropOp48
 70
     1
102
RTVSPost2010Prop49
280
     0
102
RTVSPost2010PropOp49
 70
     1
102
RTVSPost2010Prop50
 90
       50
102
RTVSPost2010PropOp50
 70
     1
102
RTVSPost2010Prop51ColorIndex
 90
      256
102
RTVSPost2010Prop51ColorRGB
 90
-16777216
102
RTVSPost2010PropOp51
 70
     0
102
RTVSPost2010Prop52
140
1.0
102
RTVSPost2010PropOp52
 70
     0
102
RTVSPost2010Prop53
 90
        2
102
RTVSPost2010PropOp53
 70
     1
102
RTVSPost2010Prop54
  1
strokes_ogs.tif
102
RTVSPost2010PropOp54
 70
     1
102
RTVSPost2010Prop55
280
     0
102
RTVSPost2010PropOp55
 70
     1
102
RTVSPost2010Prop56
140
1.0
102
RTVSPost2010PropOp56
 70
     1
102
RTVSPost2010Prop57
140
1.0
102
RTVSPost2010PropOp57
 70
     1
  0
XRECORD
  5
3EA
102
{ACAD_REACTORS
330
3E9
102
}
330
3E9
100
AcDbXrecord
280
     1
102
RTVSPropertyOp0
 70
     1
102
RTVSPropertyOp1
 70
     1
102
RTVSPropertyOp2
 70
     1
102
RTVSPropertyOp3
 70
     1
102
RTVSPropertyOp4
 70
     1
102
RTVSPropertyOp5
 70
     1
102
RTVSPropertyOp6
 70
     1
102
RTVSPropertyOp7
 70
     1
102
RTVSPropertyOp8
 70
     1
102
RTVSPropertyOp9
 70
     1
102
RTVSPropertyOp10
 70
     1
102
RTVSPropertyOp11
 70
     1
102
RTVSPropertyOp12
 70
     1
102
RTVSPropertyOp13
 70
     1
102
RTVSPropertyOp14
 70
     1
102
RTVSPropertyOp15
 70
     1
102
RTVSPropertyOp16
 70
     1
102
RTVSPropertyOp17
 70
     1
102
RTVSPropertyOp18
 70
     1
102
RTVSPropertyOp19
 70
     1
102
RTVSPropertyOp20
 70
     1
102
RTVSPropertyOp21
 70
     1
102
RTVSPropertyOp22
 70
     1
102
RTVSPropertyOp23
 70
     1
102
RTVSPropertyOp24
 70
     1
102
RTVSPropertyOp25
 70
     1
102
RTVSPropertyOp26
 70
     1
102
RTVSPropertyOp27
 70
     1
102
RTVSPropertyOp28
 70
     1
102
RTVSPropertyOp29
 70
     1
102
RTVSPropertyOp30
 70
     1
102
RTVSPropertyOp31
 70
     1
102
RTVSPropertyOp32
 70
     1
102
RTVSPropertyOp33
 70
     1
102
RTVSPropertyOp34
 70
     1
102
RTVSPropertyOp35
 70
     1
102
RTVSPropertyOp36
 70
     1
102
RTVSPropertyOp37
 70
     1
102
RTVSPropertyOp38
 70
     1
102
RTVSPropertyOp39
 70
     1
102
RTVSPropertyOp40
 70
     1
102
RTVSPropertyOp41
 70
     1
102
RTVSPropertyOp42
 70
     1
102
RTVSPropertyOp43
 70
     1
102
RTVSPropertyOp44
 70
     1
102
RTVSPropertyOp45
 70
     1
102
RTVSPropertyOp46
 70
     1
102
RTVSPropertyOp47
 70
     1
102
RTVSPropertyOp48
 70
     1
102
RTVSPropertyOp49
 70
     1
102
RTVSPropertyOp50
 70
     1
102
RTVSPropertyOp51
 70
     0
102
RTVSPropertyOp52
 70
     0
102
RTVSPropertyOp53
 70
     1
102
RTVSPropertyOp54
 70
     1
102
RTVSPropertyOp55
 70
     1
102
RTVSPropertyOp56
 70
     1
102
RTVSPropertyOp57
 70
     1
102
RTVSPost2010Prop28
280
     0
102
RTVSPost2010PropOp28
 70
     1
102
RTVSPost2010Prop29
280
     1
102
RTVSPost2010PropOp29
 70
     1
102
RTVSPost2010Prop30
280
     1
102
RTVSPost2010PropOp30
 70
     1
102
RTVSPost2010Prop31
280
     0
102
RTVSPost2010PropOp31
 70
     1
102
RTVSPost2010Prop32
280
     0
102
RTVSPost2010PropOp32
 70
     1
102
RTVSPost2010Prop33
280
     0
102
RTVSPost2010PropOp33
 70
     1
102
RTVSPost2010Prop34
280
     0
102
RTVSPost2010PropOp34
 70
     1
102
RTVSPost2010Prop35
280
     0
102
RTVSPost2010PropOp35
 70
     1
102
RTVSPost2010Prop36
280
     0
102
RTVSPost2010PropOp36
 70
     1
102
RTVSPost2010Prop37
 90
       50
102
RTVSPost2010PropOp37
 70
     1
102
RTVSPost2010Prop38
140
0.0
102
RTVSPost2010PropOp38
 70
     1
102
RTVSPost2010Prop39
140
1.0
102
RTVSPost2010PropOp39
 70
     1
102
RTVSPost2010Prop40
 90
        0
102
RTVSPost2010PropOp40
 70
     1
102
RTVSPost2010Prop41ColorIndex
 90
       18
102
RTVSPost2010Prop41ColorRGB
 90
        0
102
RTVSPost2010PropOp41
 70
     1
102
RTVSPost2010Prop42
 90
       50
102
RTVSPost2010PropOp42
 70
     1
102
RTVSPost2010Prop43
 90
        3
102
RTVSPost2010PropOp43
 70
     1
102
RTVSPost2010Prop44ColorIndex
 90
        5
102
RTVSPost2010Prop44ColorRGB
 90
      255
102
RTVSPost2010PropOp44
 70
     1
102
RTVSPost2010Prop45
280
     0
102
RTVSPost2010PropOp45
 70
     1
102
RTVSPost2010Prop46
 90
       50
102
RTVSPost2010PropOp46
 70
     1
102
RTVSPost2010Prop47
 90
       50
102
RTVSPost2010PropOp47
 70
     1
102
RTVSPost2010Prop48
 90
       50
102
RTVSPost2010PropOp48
 70
     1
102
RTVSPost2010Prop49
280
     0
102
RTVSPost2010PropOp49
 70
     1
102
RTVSPost2010Prop50
 90
       50
102
RTVSPost2010PropOp50
 70
     1
102
RTVSPost2010Prop51ColorIndex
 90
      256
102
RTVSPost2010Prop51ColorRGB
 90
-16777216
102
RTVSPost2010PropOp51
 70
     0
102
RTVSPost2010Prop52
140
1.0
102
RTVSPost2010PropOp52
 70
     0
102
RTVSPost2010Prop53
 90
        2
102
RTVSPost2010PropOp53
 70
     1
102
RTVSPost2010Prop54
  1
strokes_ogs.tif
102
RTVSPost2010PropOp54
 70
     1
102
RTVSPost2010Prop55
280
     0
102
RTVSPost2010PropOp55
 70
     1
102
RTVSPost2010Prop56
140
1.0
102
RTVSPost2010PropOp56
 70
     1
102
RTVSPost2010Prop57
140
1.0
102
RTVSPost2010PropOp57
 70
     1
  0
XRECORD
  5
3FE
102
{ACAD_REACTORS
330
3FD
102
}
330
3FD
100
AcDbXrecord
280
     1
102
RTVSPropertyOp0
 70
     0
102
RTVSPropertyOp1
 70
     0
102
RTVSPropertyOp2
 70
     0
102
RTVSPropertyOp3
 70
     0
102
RTVSPropertyOp4
 70
     0
102
RTVSPropertyOp5
 70
     0
102
RTVSPropertyOp6
 70
     0
102
RTVSPropertyOp7
 70
     0
102
RTVSPropertyOp8
 70
     0
102
RTVSPropertyOp9
 70
     0
102
RTVSPropertyOp10
 70
     0
102
RTVSPropertyOp11
 70
     0
102
RTVSPropertyOp12
 70
     0
102
RTVSPropertyOp13
 70
     0
102
RTVSPropertyOp14
 70
     2
102
RTVSPropertyOp15
 70
     0
102
RTVSPropertyOp16
 70
     0
102
RTVSPropertyOp17
 70
     0
102
RTVSPropertyOp18
 70
     0
102
RTVSPropertyOp19
 70
     0
102
RTVSPropertyOp20
 70
     0
102
RTVSPropertyOp21
 70
     0
102
RTVSPropertyOp22
 70
     0
102
RTVSPropertyOp23
 70
     0
102
RTVSPropertyOp24
 70
     0
102
RTVSPropertyOp25
 70
     0
102
RTVSPropertyOp26
 70
     0
102
RTVSPropertyOp27
 70
     0
102
RTVSPropertyOp28
 70
     0
102
RTVSPropertyOp29
 70
     0
102
RTVSPropertyOp30
 70
     0
102
RTVSPropertyOp31
 70
     0
102
RTVSPropertyOp32
 70
     0
102
RTVSPropertyOp33
 70
     0
102
RTVSPropertyOp34
 70
     0
102
RTVSPropertyOp35
 70
     0
102
RTVSPropertyOp36
 70
     0
102
RTVSPropertyOp37
 70
     0
102
RTVSPropertyOp38
 70
     0
102
RTVSPropertyOp39
 70
     0
102
RTVSPropertyOp40
 70
     0
102
RTVSPropertyOp41
 70
     0
102
RTVSPropertyOp42
 70
     0
102
RTVSPropertyOp43
 70
     0
102
RTVSPropertyOp44
 70
     0
102
RTVSPropertyOp45
 70
     0
102
RTVSPropertyOp46
 70
     0
102
RTVSPropertyOp47
 70
     0
102
RTVSPropertyOp48
 70
     0
102
RTVSPropertyOp49
 70
     0
102
RTVSPropertyOp50
 70
     0
102
RTVSPropertyOp51
 70
     0
102
RTVSPropertyOp52
 70
     0
102
RTVSPropertyOp53
 70
     0
102
RTVSPropertyOp54
 70
     0
102
RTVSPropertyOp55
 70
     0
102
RTVSPropertyOp56
 70
     0
102
RTVSPropertyOp57
 70
     0
102
RTVSPost2010Prop28
280
     0
102
RTVSPost2010PropOp28
 70
     0
102
RTVSPost2010Prop29
280
     1
102
RTVSPost2010PropOp29
 70
     0
102
RTVSPost2010Prop30
280
     1
102
RTVSPost2010PropOp30
 70
     0
102
RTVSPost2010Prop31
280
     0
102
RTVSPost2010PropOp31
 70
     0
102
RTVSPost2010Prop32
280
     0
102
RTVSPost2010PropOp32
 70
     0
102
RTVSPost2010Prop33
280
     0
102
RTVSPost2010PropOp33
 70
     0
102
RTVSPost2010Prop34
280
     0
102
RTVSPost2010PropOp34
 70
     0
102
RTVSPost2010Prop35
280
     0
102
RTVSPost2010PropOp35
 70
     0
102
RTVSPost2010Prop36
280
     0
102
RTVSPost2010PropOp36
 70
     0
102
RTVSPost2010Prop37
 90
       50
102
RTVSPost2010PropOp37
 70
     0
102
RTVSPost2010Prop38
140
0.0
102
RTVSPost2010PropOp38
 70
     0
102
RTVSPost2010Prop39
140
1.0
102
RTVSPost2010PropOp39
 70
     0
102
RTVSPost2010Prop40
 90
        0
102
RTVSPost2010PropOp40
 70
     0
102
RTVSPost2010Prop41ColorIndex
 90
       18
102
RTVSPost2010Prop41ColorRGB
 90
        0
102
RTVSPost2010PropOp41
 70
     0
102
RTVSPost2010Prop42
 90
       50
102
RTVSPost2010PropOp42
 70
     0
102
RTVSPost2010Prop43
 90
        3
102
RTVSPost2010PropOp43
 70
     0
102
RTVSPost2010Prop44ColorIndex
 90
        5
102
RTVSPost2010Prop44ColorRGB
 90
      255
102
RTVSPost2010PropOp44
 70
     0
102
RTVSPost2010Prop45
280
     0
102
RTVSPost2010PropOp45
 70
     0
102
RTVSPost2010Prop46
 90
       50
102
RTVSPost2010PropOp46
 70
     0
102
RTVSPost2010Prop47
 90
       50
102
RTVSPost2010PropOp47
 70
     0
102
RTVSPost2010Prop48
 90
       50
102
RTVSPost2010PropOp48
 70
     0
102
RTVSPost2010Prop49
280
     0
102
RTVSPost2010PropOp49
 70
     0
102
RTVSPost2010Prop50
 90
       50
102
RTVSPost2010PropOp50
 70
     0
102
RTVSPost2010Prop51ColorIndex
 90
      256
102
RTVSPost2010Prop51ColorRGB
 90
-16777216
102
RTVSPost2010PropOp51
 70
     0
102
RTVSPost2010Prop52
140
1.0
102
RTVSPost2010PropOp52
 70
     0
102
RTVSPost2010Prop53
 90
        2
102
RTVSPost2010PropOp53
 70
     0
102
RTVSPost2010Prop54
  1
strokes_ogs.tif
102
RTVSPost2010PropOp54
 70
     0
102
RTVSPost2010Prop55
280
     0
102
RTVSPost2010PropOp55
 70
     0
102
RTVSPost2010Prop56
140
1.0
102
RTVSPost2010PropOp56
 70
     0
102
RTVSPost2010Prop57
140
1.0
102
RTVSPost2010PropOp57
 70
     0
  0
XRECORD
  5
3F8
102
{ACAD_REACTORS
330
3F7
102
}
330
3F7
100
AcDbXrecord
280
     1
102
RTVSPropertyOp0
 70
     1
102
RTVSPropertyOp1
 70
     1
102
RTVSPropertyOp2
 70
     1
102
RTVSPropertyOp3
 70
     1
102
RTVSPropertyOp4
 70
     1
102
RTVSPropertyOp5
 70
     1
102
RTVSPropertyOp6
 70
     1
102
RTVSPropertyOp7
 70
     1
102
RTVSPropertyOp8
 70
     1
102
RTVSPropertyOp9
 70
     1
102
RTVSPropertyOp10
 70
     1
102
RTVSPropertyOp11
 70
     1
102
RTVSPropertyOp12
 70
     1
102
RTVSPropertyOp13
 70
     1
102
RTVSPropertyOp14
 70
     1
102
RTVSPropertyOp15
 70
     1
102
RTVSPropertyOp16
 70
     1
102
RTVSPropertyOp17
 70
     1
102
RTVSPropertyOp18
 70
     1
102
RTVSPropertyOp19
 70
     1
102
RTVSPropertyOp20
 70
     1
102
RTVSPropertyOp21
 70
     1
102
RTVSPropertyOp22
 70
     1
102
RTVSPropertyOp23
 70
     1
102
RTVSPropertyOp24
 70
     1
102
RTVSPropertyOp25
 70
     1
102
RTVSPropertyOp26
 70
     1
102
RTVSPropertyOp27
 70
     1
102
RTVSPropertyOp28
 70
     1
102
RTVSPropertyOp29
 70
     1
102
RTVSPropertyOp30
 70
     1
102
RTVSPropertyOp31
 70
     1
102
RTVSPropertyOp32
 70
     1
102
RTVSPropertyOp33
 70
     1
102
RTVSPropertyOp34
 70
     1
102
RTVSPropertyOp35
 70
     1
102
RTVSPropertyOp36
 70
     1
102
RTVSPropertyOp37
 70
     1
102
RTVSPropertyOp38
 70
     1
102
RTVSPropertyOp39
 70
     1
102
RTVSPropertyOp40
 70
     1
102
RTVSPropertyOp41
 70
     1
102
RTVSPropertyOp42
 70
     1
102
RTVSPropertyOp43
 70
     1
102
RTVSPropertyOp44
 70
     1
102
RTVSPropertyOp45
 70
     1
102
RTVSPropertyOp46
 70
     1
102
RTVSPropertyOp47
 70
     1
102
RTVSPropertyOp48
 70
     1
102
RTVSPropertyOp49
 70
     1
102
RTVSPropertyOp50
 70
     1
102
RTVSPropertyOp51
 70
     0
102
RTVSPropertyOp52
 70
     0
102
RTVSPropertyOp53
 70
     1
102
RTVSPropertyOp54
 70
     1
102
RTVSPropertyOp55
 70
     1
102
RTVSPropertyOp56
 70
     1
102
RTVSPropertyOp57
 70
     1
102
RTVSPost2010Prop28
280
     0
102
RTVSPost2010PropOp28
 70
     1
102
RTVSPost2010Prop29
280
     1
102
RTVSPost2010PropOp29
 70
     1
102
RTVSPost2010Prop30
280
     1
102
RTVSPost2010PropOp30
 70
     1
102
RTVSPost2010Prop31
280
     0
102
RTVSPost2010PropOp31
 70
     1
102
RTVSPost2010Prop32
280
     0
102
RTVSPost2010PropOp32
 70
     1
102
RTVSPost2010Prop33
280
     0
102
RTVSPost2010PropOp33
 70
     1
102
RTVSPost2010Prop34
280
     0
102
RTVSPost2010PropOp34
 70
     1
102
RTVSPost2010Prop35
280
     0
102
RTVSPost2010PropOp35
 70
     1
102
RTVSPost2010Prop36
280
     0
102
RTVSPost2010PropOp36
 70
     1
102
RTVSPost2010Prop37
 90
       50
102
RTVSPost2010PropOp37
 70
     1
102
RTVSPost2010Prop38
140
0.0
102
RTVSPost2010PropOp38
 70
     1
102
RTVSPost2010Prop39
140
1.0
102
RTVSPost2010PropOp39
 70
     1
102
RTVSPost2010Prop40
 90
        0
102
RTVSPost2010PropOp40
 70
     1
102
RTVSPost2010Prop41ColorIndex
 90
       18
102
RTVSPost2010Prop41ColorRGB
 90
        0
102
RTVSPost2010PropOp41
 70
     1
102
RTVSPost2010Prop42
 90
       50
102
RTVSPost2010PropOp42
 70
     1
102
RTVSPost2010Prop43
 90
        3
102
RTVSPost2010PropOp43
 70
     1
102
RTVSPost2010Prop44ColorIndex
 90
        5
102
RTVSPost2010Prop44ColorRGB
 90
      255
102
RTVSPost2010PropOp44
 70
     1
102
RTVSPost2010Prop45
280
     0
102
RTVSPost2010PropOp45
 70
     1
102
RTVSPost2010Prop46
 90
       50
102
RTVSPost2010PropOp46
 70
     1
102
RTVSPost2010Prop47
 90
       50
102
RTVSPost2010PropOp47
 70
     1
102
RTVSPost2010Prop48
 90
       50
102
RTVSPost2010PropOp48
 70
     1
102
RTVSPost2010Prop49
280
     0
102
RTVSPost2010PropOp49
 70
     1
102
RTVSPost2010Prop50
 90
       50
102
RTVSPost2010PropOp50
 70
     1
102
RTVSPost2010Prop51ColorIndex
 90
      256
102
RTVSPost2010Prop51ColorRGB
 90
-16777216
102
RTVSPost2010PropOp51
 70
     0
102
RTVSPost2010Prop52
140
1.0
102
RTVSPost2010PropOp52
 70
     0
102
RTVSPost2010Prop53
 90
        2
102
RTVSPost2010PropOp53
 70
     1
102
RTVSPost2010Prop54
  1
strokes_ogs.tif
102
RTVSPost2010PropOp54
 70
     1
102
RTVSPost2010Prop55
280
     0
102
RTVSPost2010PropOp55
 70
     1
102
RTVSPost2010Prop56
140
1.0
102
RTVSPost2010PropOp56
 70
     1
102
RTVSPost2010Prop57
140
1.0
102
RTVSPost2010PropOp57
 70
     1
  0
XRECORD
  5
400
102
{ACAD_REACTORS
330
3FF
102
}
330
3FF
100
AcDbXrecord
280
     1
102
RTVSPropertyOp0
 70
     0
102
RTVSPropertyOp1
 70
     0
102
RTVSPropertyOp2
 70
     0
102
RTVSPropertyOp3
 70
     0
102
RTVSPropertyOp4
 70
     0
102
RTVSPropertyOp5
 70
     0
102
RTVSPropertyOp6
 70
     0
102
RTVSPropertyOp7
 70
     0
102
RTVSPropertyOp8
 70
     0
102
RTVSPropertyOp9
 70
     0
102
RTVSPropertyOp10
 70
     0
102
RTVSPropertyOp11
 70
     0
102
RTVSPropertyOp12
 70
     0
102
RTVSPropertyOp13
 70
     0
102
RTVSPropertyOp14
 70
     2
102
RTVSPropertyOp15
 70
     0
102
RTVSPropertyOp16
 70
     0
102
RTVSPropertyOp17
 70
     0
102
RTVSPropertyOp18
 70
     0
102
RTVSPropertyOp19
 70
     0
102
RTVSPropertyOp20
 70
     0
102
RTVSPropertyOp21
 70
     0
102
RTVSPropertyOp22
 70
     0
102
RTVSPropertyOp23
 70
     0
102
RTVSPropertyOp24
 70
     0
102
RTVSPropertyOp25
 70
     0
102
RTVSPropertyOp26
 70
     0
102
RTVSPropertyOp27
 70
     0
102
RTVSPropertyOp28
 70
     0
102
RTVSPropertyOp29
 70
     0
102
RTVSPropertyOp30
 70
     0
102
RTVSPropertyOp31
 70
     0
102
RTVSPropertyOp32
 70
     0
102
RTVSPropertyOp33
 70
     0
102
RTVSPropertyOp34
 70
     0
102
RTVSPropertyOp35
 70
     0
102
RTVSPropertyOp36
 70
     0
102
RTVSPropertyOp37
 70
     0
102
RTVSPropertyOp38
 70
     0
102
RTVSPropertyOp39
 70
     0
102
RTVSPropertyOp40
 70
     0
102
RTVSPropertyOp41
 70
     0
102
RTVSPropertyOp42
 70
     0
102
RTVSPropertyOp43
 70
     0
102
RTVSPropertyOp44
 70
     0
102
RTVSPropertyOp45
 70
     0
102
RTVSPropertyOp46
 70
     0
102
RTVSPropertyOp47
 70
     0
102
RTVSPropertyOp48
 70
     0
102
RTVSPropertyOp49
 70
     0
102
RTVSPropertyOp50
 70
     0
102
RTVSPropertyOp51
 70
     0
102
RTVSPropertyOp52
 70
     0
102
RTVSPropertyOp53
 70
     0
102
RTVSPropertyOp54
 70
     0
102
RTVSPropertyOp55
 70
     0
102
RTVSPropertyOp56
 70
     0
102
RTVSPropertyOp57
 70
     0
102
RTVSPost2010Prop28
280
     0
102
RTVSPost2010PropOp28
 70
     0
102
RTVSPost2010Prop29
280
     1
102
RTVSPost2010PropOp29
 70
     0
102
RTVSPost2010Prop30
280
     1
102
RTVSPost2010PropOp30
 70
     0
102
RTVSPost2010Prop31
280
     0
102
RTVSPost2010PropOp31
 70
     0
102
RTVSPost2010Prop32
280
     0
102
RTVSPost2010PropOp32
 70
     0
102
RTVSPost2010Prop33
280
     0
102
RTVSPost2010PropOp33
 70
     0
102
RTVSPost2010Prop34
280
     0
102
RTVSPost2010PropOp34
 70
     0
102
RTVSPost2010Prop35
280
     0
102
RTVSPost2010PropOp35
 70
     0
102
RTVSPost2010Prop36
280
     0
102
RTVSPost2010PropOp36
 70
     0
102
RTVSPost2010Prop37
 90
       50
102
RTVSPost2010PropOp37
 70
     0
102
RTVSPost2010Prop38
140
0.0
102
RTVSPost2010PropOp38
 70
     0
102
RTVSPost2010Prop39
140
1.0
102
RTVSPost2010PropOp39
 70
     0
102
RTVSPost2010Prop40
 90
        0
102
RTVSPost2010PropOp40
 70
     0
102
RTVSPost2010Prop41ColorIndex
 90
       18
102
RTVSPost2010Prop41ColorRGB
 90
        0
102
RTVSPost2010PropOp41
 70
     0
102
RTVSPost2010Prop42
 90
       50
102
RTVSPost2010PropOp42
 70
     0
102
RTVSPost2010Prop43
 90
        3
102
RTVSPost2010PropOp43
 70
     0
102
RTVSPost2010Prop44ColorIndex
 90
        5
102
RTVSPost2010Prop44ColorRGB
 90
      255
102
RTVSPost2010PropOp44
 70
     0
102
RTVSPost2010Prop45
280
     0
102
RTVSPost2010PropOp45
 70
     0
102
RTVSPost2010Prop46
 90
       50
102
RTVSPost2010PropOp46
 70
     0
102
RTVSPost2010Prop47
 90
       50
102
RTVSPost2010PropOp47
 70
     0
102
RTVSPost2010Prop48
 90
       50
102
RTVSPost2010PropOp48
 70
     0
102
RTVSPost2010Prop49
280
     0
102
RTVSPost2010PropOp49
 70
     0
102
RTVSPost2010Prop50
 90
       50
102
RTVSPost2010PropOp50
 70
     0
102
RTVSPost2010Prop51ColorIndex
 90
      256
102
RTVSPost2010Prop51ColorRGB
 90
-16777216
102
RTVSPost2010PropOp51
 70
     0
102
RTVSPost2010Prop52
140
1.0
102
RTVSPost2010PropOp52
 70
     0
102
RTVSPost2010Prop53
 90
        2
102
RTVSPost2010PropOp53
 70
     0
102
RTVSPost2010Prop54
  1
strokes_ogs.tif
102
RTVSPost2010PropOp54
 70
     0
102
RTVSPost2010Prop55
280
     0
102
RTVSPost2010PropOp55
 70
     0
102
RTVSPost2010Prop56
140
1.0
102
RTVSPost2010PropOp56
 70
     0
102
RTVSPost2010Prop57
140
1.0
102
RTVSPost2010PropOp57
 70
     0
  0
XRECORD
  5
3EE
102
{ACAD_REACTORS
330
3ED
102
}
330
3ED
100
AcDbXrecord
280
     1
102
RTVSPropertyOp0
 70
     1
102
RTVSPropertyOp1
 70
     1
102
RTVSPropertyOp2
 70
     1
102
RTVSPropertyOp3
 70
     1
102
RTVSPropertyOp4
 70
     1
102
RTVSPropertyOp5
 70
     1
102
RTVSPropertyOp6
 70
     1
102
RTVSPropertyOp7
 70
     1
102
RTVSPropertyOp8
 70
     1
102
RTVSPropertyOp9
 70
     1
102
RTVSPropertyOp10
 70
     1
102
RTVSPropertyOp11
 70
     1
102
RTVSPropertyOp12
 70
     1
102
RTVSPropertyOp13
 70
     1
102
RTVSPropertyOp14
 70
     1
102
RTVSPropertyOp15
 70
     1
102
RTVSPropertyOp16
 70
     1
102
RTVSPropertyOp17
 70
     1
102
RTVSPropertyOp18
 70
     1
102
RTVSPropertyOp19
 70
     1
102
RTVSPropertyOp20
 70
     1
102
RTVSPropertyOp21
 70
     1
102
RTVSPropertyOp22
 70
     1
102
RTVSPropertyOp23
 70
     1
102
RTVSPropertyOp24
 70
     1
102
RTVSPropertyOp25
 70
     1
102
RTVSPropertyOp26
 70
     1
102
RTVSPropertyOp27
 70
     1
102
RTVSPropertyOp28
 70
     1
102
RTVSPropertyOp29
 70
     1
102
RTVSPropertyOp30
 70
     1
102
RTVSPropertyOp31
 70
     1
102
RTVSPropertyOp32
 70
     1
102
RTVSPropertyOp33
 70
     1
102
RTVSPropertyOp34
 70
     1
102
RTVSPropertyOp35
 70
     1
102
RTVSPropertyOp36
 70
     1
102
RTVSPropertyOp37
 70
     1
102
RTVSPropertyOp38
 70
     1
102
RTVSPropertyOp39
 70
     1
102
RTVSPropertyOp40
 70
     1
102
RTVSPropertyOp41
 70
     1
102
RTVSPropertyOp42
 70
     1
102
RTVSPropertyOp43
 70
     1
102
RTVSPropertyOp44
 70
     1
102
RTVSPropertyOp45
 70
     1
102
RTVSPropertyOp46
 70
     1
102
RTVSPropertyOp47
 70
     1
102
RTVSPropertyOp48
 70
     1
102
RTVSPropertyOp49
 70
     1
102
RTVSPropertyOp50
 70
     1
102
RTVSPropertyOp51
 70
     0
102
RTVSPropertyOp52
 70
     0
102
RTVSPropertyOp53
 70
     1
102
RTVSPropertyOp54
 70
     1
102
RTVSPropertyOp55
 70
     1
102
RTVSPropertyOp56
 70
     1
102
RTVSPropertyOp57
 70
     1
102
RTVSPost2010Prop28
280
     0
102
RTVSPost2010PropOp28
 70
     1
102
RTVSPost2010Prop29
280
     1
102
RTVSPost2010PropOp29
 70
     1
102
RTVSPost2010Prop30
280
     1
102
RTVSPost2010PropOp30
 70
     1
102
RTVSPost2010Prop31
280
     0
102
RTVSPost2010PropOp31
 70
     1
102
RTVSPost2010Prop32
280
     0
102
RTVSPost2010PropOp32
 70
     1
102
RTVSPost2010Prop33
280
     0
102
RTVSPost2010PropOp33
 70
     1
102
RTVSPost2010Prop34
280
     0
102
RTVSPost2010PropOp34
 70
     1
102
RTVSPost2010Prop35
280
     0
102
RTVSPost2010PropOp35
 70
     1
102
RTVSPost2010Prop36
280
     0
102
RTVSPost2010PropOp36
 70
     1
102
RTVSPost2010Prop37
 90
       50
102
RTVSPost2010PropOp37
 70
     1
102
RTVSPost2010Prop38
140
0.0
102
RTVSPost2010PropOp38
 70
     1
102
RTVSPost2010Prop39
140
1.0
102
RTVSPost2010PropOp39
 70
     1
102
RTVSPost2010Prop40
 90
        0
102
RTVSPost2010PropOp40
 70
     1
102
RTVSPost2010Prop41ColorIndex
 90
       18
102
RTVSPost2010Prop41ColorRGB
 90
        0
102
RTVSPost2010PropOp41
 70
     1
102
RTVSPost2010Prop42
 90
       50
102
RTVSPost2010PropOp42
 70
     1
102
RTVSPost2010Prop43
 90
        3
102
RTVSPost2010PropOp43
 70
     1
102
RTVSPost2010Prop44ColorIndex
 90
        5
102
RTVSPost2010Prop44ColorRGB
 90
      255
102
RTVSPost2010PropOp44
 70
     1
102
RTVSPost2010Prop45
280
     0
102
RTVSPost2010PropOp45
 70
     1
102
RTVSPost2010Prop46
 90
       50
102
RTVSPost2010PropOp46
 70
     1
102
RTVSPost2010Prop47
 90
       50
102
RTVSPost2010PropOp47
 70
     1
102
RTVSPost2010Prop48
 90
       50
102
RTVSPost2010PropOp48
 70
     1
102
RTVSPost2010Prop49
280
     0
102
RTVSPost2010PropOp49
 70
     1
102
RTVSPost2010Prop50
 90
       50
102
RTVSPost2010PropOp50
 70
     1
102
RTVSPost2010Prop51ColorIndex
 90
      256
102
RTVSPost2010Prop51ColorRGB
 90
-16777216
102
RTVSPost2010PropOp51
 70
     0
102
RTVSPost2010Prop52
140
1.0
102
RTVSPost2010PropOp52
 70
     0
102
RTVSPost2010Prop53
 90
        2
102
RTVSPost2010PropOp53
 70
     1
102
RTVSPost2010Prop54
  1
strokes_ogs.tif
102
RTVSPost2010PropOp54
 70
     1
102
RTVSPost2010Prop55
280
     0
102
RTVSPost2010PropOp55
 70
     1
102
RTVSPost2010Prop56
140
1.0
102
RTVSPost2010PropOp56
 70
     1
102
RTVSPost2010Prop57
140
1.0
102
RTVSPost2010PropOp57
 70
     1
  0
XRECORD
  5
40C
102
{ACAD_REACTORS
330
40B
102
}
330
40B
100
AcDbXrecord
280
     1
102
RTVSPropertyOp0
 70
     1
102
RTVSPropertyOp1
 70
     1
102
RTVSPropertyOp2
 70
     1
102
RTVSPropertyOp3
 70
     1
102
RTVSPropertyOp4
 70
     1
102
RTVSPropertyOp5
 70
     1
102
RTVSPropertyOp6
 70
     1
102
RTVSPropertyOp7
 70
     1
102
RTVSPropertyOp8
 70
     1
102
RTVSPropertyOp9
 70
     1
102
RTVSPropertyOp10
 70
     1
102
RTVSPropertyOp11
 70
     1
102
RTVSPropertyOp12
 70
     1
102
RTVSPropertyOp13
 70
     1
102
RTVSPropertyOp14
 70
     1
102
RTVSPropertyOp15
 70
     1
102
RTVSPropertyOp16
 70
     1
102
RTVSPropertyOp17
 70
     1
102
RTVSPropertyOp18
 70
     1
102
RTVSPropertyOp19
 70
     1
102
RTVSPropertyOp20
 70
     1
102
RTVSPropertyOp21
 70
     1
102
RTVSPropertyOp22
 70
     1
102
RTVSPropertyOp23
 70
     1
102
RTVSPropertyOp24
 70
     1
102
RTVSPropertyOp25
 70
     1
102
RTVSPropertyOp26
 70
     1
102
RTVSPropertyOp27
 70
     1
102
RTVSPropertyOp28
 70
     1
102
RTVSPropertyOp29
 70
     1
102
RTVSPropertyOp30
 70
     1
102
RTVSPropertyOp31
 70
     1
102
RTVSPropertyOp32
 70
     1
102
RTVSPropertyOp33
 70
     1
102
RTVSPropertyOp34
 70
     1
102
RTVSPropertyOp35
 70
     1
102
RTVSPropertyOp36
 70
     1
102
RTVSPropertyOp37
 70
     1
102
RTVSPropertyOp38
 70
     1
102
RTVSPropertyOp39
 70
     1
102
RTVSPropertyOp40
 70
     1
102
RTVSPropertyOp41
 70
     1
102
RTVSPropertyOp42
 70
     1
102
RTVSPropertyOp43
 70
     1
102
RTVSPropertyOp44
 70
     1
102
RTVSPropertyOp45
 70
     1
102
RTVSPropertyOp46
 70
     1
102
RTVSPropertyOp47
 70
     1
102
RTVSPropertyOp48
 70
     1
102
RTVSPropertyOp49
 70
     1
102
RTVSPropertyOp50
 70
     1
102
RTVSPropertyOp51
 70
     0
102
RTVSPropertyOp52
 70
     0
102
RTVSPropertyOp53
 70
     1
102
RTVSPropertyOp54
 70
     1
102
RTVSPropertyOp55
 70
     1
102
RTVSPropertyOp56
 70
     1
102
RTVSPropertyOp57
 70
     1
102
RTVSPost2010Prop28
280
     0
102
RTVSPost2010PropOp28
 70
     1
102
RTVSPost2010Prop29
280
     1
102
RTVSPost2010PropOp29
 70
     1
102
RTVSPost2010Prop30
280
     1
102
RTVSPost2010PropOp30
 70
     1
102
RTVSPost2010Prop31
280
     0
102
RTVSPost2010PropOp31
 70
     1
102
RTVSPost2010Prop32
280
     0
102
RTVSPost2010PropOp32
 70
     1
102
RTVSPost2010Prop33
280
     0
102
RTVSPost2010PropOp33
 70
     1
102
RTVSPost2010Prop34
280
     0
102
RTVSPost2010PropOp34
 70
     1
102
RTVSPost2010Prop35
280
     0
102
RTVSPost2010PropOp35
 70
     1
102
RTVSPost2010Prop36
280
     0
102
RTVSPost2010PropOp36
 70
     1
102
RTVSPost2010Prop37
 90
       50
102
RTVSPost2010PropOp37
 70
     1
102
RTVSPost2010Prop38
140
0.0
102
RTVSPost2010PropOp38
 70
     1
102
RTVSPost2010Prop39
140
1.0
102
RTVSPost2010PropOp39
 70
     1
102
RTVSPost2010Prop40
 90
        0
102
RTVSPost2010PropOp40
 70
     1
102
RTVSPost2010Prop41ColorIndex
 90
       18
102
RTVSPost2010Prop41ColorRGB
 90
        0
102
RTVSPost2010PropOp41
 70
     1
102
RTVSPost2010Prop42
 90
       50
102
RTVSPost2010PropOp42
 70
     1
102
RTVSPost2010Prop43
 90
        3
102
RTVSPost2010PropOp43
 70
     1
102
RTVSPost2010Prop44ColorIndex
 90
        5
102
RTVSPost2010Prop44ColorRGB
 90
      255
102
RTVSPost2010PropOp44
 70
     1
102
RTVSPost2010Prop45
280
     0
102
RTVSPost2010PropOp45
 70
     1
102
RTVSPost2010Prop46
 90
       50
102
RTVSPost2010PropOp46
 70
     1
102
RTVSPost2010Prop47
 90
       50
102
RTVSPost2010PropOp47
 70
     1
102
RTVSPost2010Prop48
 90
       50
102
RTVSPost2010PropOp48
 70
     1
102
RTVSPost2010Prop49
280
     0
102
RTVSPost2010PropOp49
 70
     1
102
RTVSPost2010Prop50
 90
       50
102
RTVSPost2010PropOp50
 70
     1
102
RTVSPost2010Prop51ColorIndex
 90
      256
102
RTVSPost2010Prop51ColorRGB
 90
-16777216
102
RTVSPost2010PropOp51
 70
     0
102
RTVSPost2010Prop52
140
1.0
102
RTVSPost2010PropOp52
 70
     0
102
RTVSPost2010Prop53
 90
        2
102
RTVSPost2010PropOp53
 70
     1
102
RTVSPost2010Prop54
  1
strokes_ogs.tif
102
RTVSPost2010PropOp54
 70
     1
102
RTVSPost2010Prop55
280
     0
102
RTVSPost2010PropOp55
 70
     1
102
RTVSPost2010Prop56
140
1.0
102
RTVSPost2010PropOp56
 70
     1
102
RTVSPost2010Prop57
140
1.0
102
RTVSPost2010PropOp57
 70
     1
  0
XRECORD
  5
40A
102
{ACAD_REACTORS
330
409
102
}
330
409
100
AcDbXrecord
280
     1
102
RTVSPropertyOp0
 70
     1
102
RTVSPropertyOp1
 70
     1
102
RTVSPropertyOp2
 70
     1
102
RTVSPropertyOp3
 70
     1
102
RTVSPropertyOp4
 70
     1
102
RTVSPropertyOp5
 70
     1
102
RTVSPropertyOp6
 70
     1
102
RTVSPropertyOp7
 70
     1
102
RTVSPropertyOp8
 70
     1
102
RTVSPropertyOp9
 70
     1
102
RTVSPropertyOp10
 70
     1
102
RTVSPropertyOp11
 70
     1
102
RTVSPropertyOp12
 70
     1
102
RTVSPropertyOp13
 70
     1
102
RTVSPropertyOp14
 70
     1
102
RTVSPropertyOp15
 70
     1
102
RTVSPropertyOp16
 70
     1
102
RTVSPropertyOp17
 70
     1
102
RTVSPropertyOp18
 70
     1
102
RTVSPropertyOp19
 70
     1
102
RTVSPropertyOp20
 70
     1
102
RTVSPropertyOp21
 70
     1
102
RTVSPropertyOp22
 70
     1
102
RTVSPropertyOp23
 70
     1
102
RTVSPropertyOp24
 70
     1
102
RTVSPropertyOp25
 70
     1
102
RTVSPropertyOp26
 70
     1
102
RTVSPropertyOp27
 70
     1
102
RTVSPropertyOp28
 70
     1
102
RTVSPropertyOp29
 70
     1
102
RTVSPropertyOp30
 70
     1
102
RTVSPropertyOp31
 70
     1
102
RTVSPropertyOp32
 70
     1
102
RTVSPropertyOp33
 70
     1
102
RTVSPropertyOp34
 70
     1
102
RTVSPropertyOp35
 70
     1
102
RTVSPropertyOp36
 70
     1
102
RTVSPropertyOp37
 70
     1
102
RTVSPropertyOp38
 70
     1
102
RTVSPropertyOp39
 70
     1
102
RTVSPropertyOp40
 70
     1
102
RTVSPropertyOp41
 70
     1
102
RTVSPropertyOp42
 70
     1
102
RTVSPropertyOp43
 70
     1
102
RTVSPropertyOp44
 70
     1
102
RTVSPropertyOp45
 70
     1
102
RTVSPropertyOp46
 70
     1
102
RTVSPropertyOp47
 70
     1
102
RTVSPropertyOp48
 70
     1
102
RTVSPropertyOp49
 70
     1
102
RTVSPropertyOp50
 70
     1
102
RTVSPropertyOp51
 70
     0
102
RTVSPropertyOp52
 70
     0
102
RTVSPropertyOp53
 70
     1
102
RTVSPropertyOp54
 70
     1
102
RTVSPropertyOp55
 70
     1
102
RTVSPropertyOp56
 70
     1
102
RTVSPropertyOp57
 70
     1
102
RTVSPost2010Prop28
280
     0
102
RTVSPost2010PropOp28
 70
     1
102
RTVSPost2010Prop29
280
     1
102
RTVSPost2010PropOp29
 70
     1
102
RTVSPost2010Prop30
280
     1
102
RTVSPost2010PropOp30
 70
     1
102
RTVSPost2010Prop31
280
     0
102
RTVSPost2010PropOp31
 70
     1
102
RTVSPost2010Prop32
280
     0
102
RTVSPost2010PropOp32
 70
     1
102
RTVSPost2010Prop33
280
     0
102
RTVSPost2010PropOp33
 70
     1
102
RTVSPost2010Prop34
280
     0
102
RTVSPost2010PropOp34
 70
     1
102
RTVSPost2010Prop35
280
     0
102
RTVSPost2010PropOp35
 70
     1
102
RTVSPost2010Prop36
280
     0
102
RTVSPost2010PropOp36
 70
     1
102
RTVSPost2010Prop37
 90
       50
102
RTVSPost2010PropOp37
 70
     1
102
RTVSPost2010Prop38
140
0.0
102
RTVSPost2010PropOp38
 70
     1
102
RTVSPost2010Prop39
140
1.0
102
RTVSPost2010PropOp39
 70
     1
102
RTVSPost2010Prop40
 90
        0
102
RTVSPost2010PropOp40
 70
     1
102
RTVSPost2010Prop41ColorIndex
 90
       18
102
RTVSPost2010Prop41ColorRGB
 90
        0
102
RTVSPost2010PropOp41
 70
     1
102
RTVSPost2010Prop42
 90
       50
102
RTVSPost2010PropOp42
 70
     1
102
RTVSPost2010Prop43
 90
        3
102
RTVSPost2010PropOp43
 70
     1
102
RTVSPost2010Prop44ColorIndex
 90
        5
102
RTVSPost2010Prop44ColorRGB
 90
      255
102
RTVSPost2010PropOp44
 70
     1
102
RTVSPost2010Prop45
280
     0
102
RTVSPost2010PropOp45
 70
     1
102
RTVSPost2010Prop46
 90
       50
102
RTVSPost2010PropOp46
 70
     1
102
RTVSPost2010Prop47
 90
       50
102
RTVSPost2010PropOp47
 70
     1
102
RTVSPost2010Prop48
 90
       50
102
RTVSPost2010PropOp48
 70
     1
102
RTVSPost2010Prop49
280
     0
102
RTVSPost2010PropOp49
 70
     1
102
RTVSPost2010Prop50
 90
       50
102
RTVSPost2010PropOp50
 70
     1
102
RTVSPost2010Prop51ColorIndex
 90
      256
102
RTVSPost2010Prop51ColorRGB
 90
-16777216
102
RTVSPost2010PropOp51
 70
     0
102
RTVSPost2010Prop52
140
1.0
102
RTVSPost2010PropOp52
 70
     0
102
RTVSPost2010Prop53
 90
        2
102
RTVSPost2010PropOp53
 70
     1
102
RTVSPost2010Prop54
  1
strokes_ogs.tif
102
RTVSPost2010PropOp54
 70
     1
102
RTVSPost2010Prop55
280
     0
102
RTVSPost2010PropOp55
 70
     1
102
RTVSPost2010Prop56
140
1.0
102
RTVSPost2010PropOp56
 70
     1
102
RTVSPost2010Prop57
140
1.0
102
RTVSPost2010PropOp57
 70
     1
  0
XRECORD
  5
404
102
{ACAD_REACTORS
330
403
102
}
330
403
100
AcDbXrecord
280
     1
102
RTVSPropertyOp0
 70
     1
102
RTVSPropertyOp1
 70
     1
102
RTVSPropertyOp2
 70
     1
102
RTVSPropertyOp3
 70
     1
102
RTVSPropertyOp4
 70
     1
102
RTVSPropertyOp5
 70
     1
102
RTVSPropertyOp6
 70
     1
102
RTVSPropertyOp7
 70
     1
102
RTVSPropertyOp8
 70
     1
102
RTVSPropertyOp9
 70
     1
102
RTVSPropertyOp10
 70
     1
102
RTVSPropertyOp11
 70
     1
102
RTVSPropertyOp12
 70
     1
102
RTVSPropertyOp13
 70
     1
102
RTVSPropertyOp14
 70
     1
102
RTVSPropertyOp15
 70
     1
102
RTVSPropertyOp16
 70
     1
102
RTVSPropertyOp17
 70
     1
102
RTVSPropertyOp18
 70
     1
102
RTVSPropertyOp19
 70
     1
102
RTVSPropertyOp20
 70
     1
102
RTVSPropertyOp21
 70
     1
102
RTVSPropertyOp22
 70
     1
102
RTVSPropertyOp23
 70
     1
102
RTVSPropertyOp24
 70
     1
102
RTVSPropertyOp25
 70
     1
102
RTVSPropertyOp26
 70
     1
102
RTVSPropertyOp27
 70
     1
102
RTVSPropertyOp28
 70
     1
102
RTVSPropertyOp29
 70
     1
102
RTVSPropertyOp30
 70
     1
102
RTVSPropertyOp31
 70
     1
102
RTVSPropertyOp32
 70
     1
102
RTVSPropertyOp33
 70
     1
102
RTVSPropertyOp34
 70
     1
102
RTVSPropertyOp35
 70
     1
102
RTVSPropertyOp36
 70
     1
102
RTVSPropertyOp37
 70
     1
102
RTVSPropertyOp38
 70
     1
102
RTVSPropertyOp39
 70
     1
102
RTVSPropertyOp40
 70
     1
102
RTVSPropertyOp41
 70
     1
102
RTVSPropertyOp42
 70
     1
102
RTVSPropertyOp43
 70
     1
102
RTVSPropertyOp44
 70
     1
102
RTVSPropertyOp45
 70
     1
102
RTVSPropertyOp46
 70
     1
102
RTVSPropertyOp47
 70
     1
102
RTVSPropertyOp48
 70
     1
102
RTVSPropertyOp49
 70
     1
102
RTVSPropertyOp50
 70
     1
102
RTVSPropertyOp51
 70
     0
102
RTVSPropertyOp52
 70
     0
102
RTVSPropertyOp53
 70
     1
102
RTVSPropertyOp54
 70
     1
102
RTVSPropertyOp55
 70
     1
102
RTVSPropertyOp56
 70
     1
102
RTVSPropertyOp57
 70
     1
102
RTVSPost2010Prop28
280
     0
102
RTVSPost2010PropOp28
 70
     1
102
RTVSPost2010Prop29
280
     1
102
RTVSPost2010PropOp29
 70
     1
102
RTVSPost2010Prop30
280
     1
102
RTVSPost2010PropOp30
 70
     1
102
RTVSPost2010Prop31
280
     0
102
RTVSPost2010PropOp31
 70
     1
102
RTVSPost2010Prop32
280
     0
102
RTVSPost2010PropOp32
 70
     1
102
RTVSPost2010Prop33
280
     0
102
RTVSPost2010PropOp33
 70
     1
102
RTVSPost2010Prop34
280
     0
102
RTVSPost2010PropOp34
 70
     1
102
RTVSPost2010Prop35
280
     0
102
RTVSPost2010PropOp35
 70
     1
102
RTVSPost2010Prop36
280
     0
102
RTVSPost2010PropOp36
 70
     1
102
RTVSPost2010Prop37
 90
       50
102
RTVSPost2010PropOp37
 70
     1
102
RTVSPost2010Prop38
140
0.0
102
RTVSPost2010PropOp38
 70
     1
102
RTVSPost2010Prop39
140
1.0
102
RTVSPost2010PropOp39
 70
     1
102
RTVSPost2010Prop40
 90
        0
102
RTVSPost2010PropOp40
 70
     1
102
RTVSPost2010Prop41ColorIndex
 90
       18
102
RTVSPost2010Prop41ColorRGB
 90
        0
102
RTVSPost2010PropOp41
 70
     1
102
RTVSPost2010Prop42
 90
       50
102
RTVSPost2010PropOp42
 70
     1
102
RTVSPost2010Prop43
 90
        3
102
RTVSPost2010PropOp43
 70
     1
102
RTVSPost2010Prop44ColorIndex
 90
        5
102
RTVSPost2010Prop44ColorRGB
 90
      255
102
RTVSPost2010PropOp44
 70
     1
102
RTVSPost2010Prop45
280
     0
102
RTVSPost2010PropOp45
 70
     1
102
RTVSPost2010Prop46
 90
       50
102
RTVSPost2010PropOp46
 70
     1
102
RTVSPost2010Prop47
 90
       50
102
RTVSPost2010PropOp47
 70
     1
102
RTVSPost2010Prop48
 90
       50
102
RTVSPost2010PropOp48
 70
     1
102
RTVSPost2010Prop49
280
     0
102
RTVSPost2010PropOp49
 70
     1
102
RTVSPost2010Prop50
 90
       50
102
RTVSPost2010PropOp50
 70
     1
102
RTVSPost2010Prop51ColorIndex
 90
      256
102
RTVSPost2010Prop51ColorRGB
 90
-16777216
102
RTVSPost2010PropOp51
 70
     0
102
RTVSPost2010Prop52
140
1.0
102
RTVSPost2010PropOp52
 70
     0
102
RTVSPost2010Prop53
 90
        2
102
RTVSPost2010PropOp53
 70
     1
102
RTVSPost2010Prop54
  1
strokes_ogs.tif
102
RTVSPost2010PropOp54
 70
     1
102
RTVSPost2010Prop55
280
     0
102
RTVSPost2010PropOp55
 70
     1
102
RTVSPost2010Prop56
140
1.0
102
RTVSPost2010PropOp56
 70
     1
102
RTVSPost2010Prop57
140
1.0
102
RTVSPost2010PropOp57
 70
     1
  0
XRECORD
  5
406
102
{ACAD_REACTORS
330
405
102
}
330
405
100
AcDbXrecord
280
     1
102
RTVSPropertyOp0
 70
     1
102
RTVSPropertyOp1
 70
     1
102
RTVSPropertyOp2
 70
     1
102
RTVSPropertyOp3
 70
     1
102
RTVSPropertyOp4
 70
     1
102
RTVSPropertyOp5
 70
     1
102
RTVSPropertyOp6
 70
     1
102
RTVSPropertyOp7
 70
     1
102
RTVSPropertyOp8
 70
     1
102
RTVSPropertyOp9
 70
     1
102
RTVSPropertyOp10
 70
     1
102
RTVSPropertyOp11
 70
     1
102
RTVSPropertyOp12
 70
     1
102
RTVSPropertyOp13
 70
     1
102
RTVSPropertyOp14
 70
     1
102
RTVSPropertyOp15
 70
     1
102
RTVSPropertyOp16
 70
     1
102
RTVSPropertyOp17
 70
     1
102
RTVSPropertyOp18
 70
     1
102
RTVSPropertyOp19
 70
     1
102
RTVSPropertyOp20
 70
     1
102
RTVSPropertyOp21
 70
     1
102
RTVSPropertyOp22
 70
     1
102
RTVSPropertyOp23
 70
     1
102
RTVSPropertyOp24
 70
     1
102
RTVSPropertyOp25
 70
     1
102
RTVSPropertyOp26
 70
     1
102
RTVSPropertyOp27
 70
     1
102
RTVSPropertyOp28
 70
     1
102
RTVSPropertyOp29
 70
     1
102
RTVSPropertyOp30
 70
     1
102
RTVSPropertyOp31
 70
     1
102
RTVSPropertyOp32
 70
     1
102
RTVSPropertyOp33
 70
     1
102
RTVSPropertyOp34
 70
     1
102
RTVSPropertyOp35
 70
     1
102
RTVSPropertyOp36
 70
     1
102
RTVSPropertyOp37
 70
     1
102
RTVSPropertyOp38
 70
     1
102
RTVSPropertyOp39
 70
     1
102
RTVSPropertyOp40
 70
     1
102
RTVSPropertyOp41
 70
     1
102
RTVSPropertyOp42
 70
     1
102
RTVSPropertyOp43
 70
     1
102
RTVSPropertyOp44
 70
     1
102
RTVSPropertyOp45
 70
     1
102
RTVSPropertyOp46
 70
     1
102
RTVSPropertyOp47
 70
     1
102
RTVSPropertyOp48
 70
     1
102
RTVSPropertyOp49
 70
     1
102
RTVSPropertyOp50
 70
     1
102
RTVSPropertyOp51
 70
     0
102
RTVSPropertyOp52
 70
     0
102
RTVSPropertyOp53
 70
     1
102
RTVSPropertyOp54
 70
     1
102
RTVSPropertyOp55
 70
     1
102
RTVSPropertyOp56
 70
     1
102
RTVSPropertyOp57
 70
     1
102
RTVSPost2010Prop28
280
     0
102
RTVSPost2010PropOp28
 70
     1
102
RTVSPost2010Prop29
280
     1
102
RTVSPost2010PropOp29
 70
     1
102
RTVSPost2010Prop30
280
     1
102
RTVSPost2010PropOp30
 70
     1
102
RTVSPost2010Prop31
280
     0
102
RTVSPost2010PropOp31
 70
     1
102
RTVSPost2010Prop32
280
     0
102
RTVSPost2010PropOp32
 70
     1
102
RTVSPost2010Prop33
280
     0
102
RTVSPost2010PropOp33
 70
     1
102
RTVSPost2010Prop34
280
     0
102
RTVSPost2010PropOp34
 70
     1
102
RTVSPost2010Prop35
280
     0
102
RTVSPost2010PropOp35
 70
     1
102
RTVSPost2010Prop36
280
     0
102
RTVSPost2010PropOp36
 70
     1
102
RTVSPost2010Prop37
 90
       50
102
RTVSPost2010PropOp37
 70
     1
102
RTVSPost2010Prop38
140
0.0
102
RTVSPost2010PropOp38
 70
     1
102
RTVSPost2010Prop39
140
1.0
102
RTVSPost2010PropOp39
 70
     1
102
RTVSPost2010Prop40
 90
        0
102
RTVSPost2010PropOp40
 70
     1
102
RTVSPost2010Prop41ColorIndex
 90
       18
102
RTVSPost2010Prop41ColorRGB
 90
        0
102
RTVSPost2010PropOp41
 70
     1
102
RTVSPost2010Prop42
 90
       50
102
RTVSPost2010PropOp42
 70
     1
102
RTVSPost2010Prop43
 90
        3
102
RTVSPost2010PropOp43
 70
     1
102
RTVSPost2010Prop44ColorIndex
 90
        5
102
RTVSPost2010Prop44ColorRGB
 90
      255
102
RTVSPost2010PropOp44
 70
     1
102
RTVSPost2010Prop45
280
     0
102
RTVSPost2010PropOp45
 70
     1
102
RTVSPost2010Prop46
 90
       50
102
RTVSPost2010PropOp46
 70
     1
102
RTVSPost2010Prop47
 90
       50
102
RTVSPost2010PropOp47
 70
     1
102
RTVSPost2010Prop48
 90
       50
102
RTVSPost2010PropOp48
 70
     1
102
RTVSPost2010Prop49
280
     0
102
RTVSPost2010PropOp49
 70
     1
102
RTVSPost2010Prop50
 90
       50
102
RTVSPost2010PropOp50
 70
     1
102
RTVSPost2010Prop51ColorIndex
 90
      256
102
RTVSPost2010Prop51ColorRGB
 90
-16777216
102
RTVSPost2010PropOp51
 70
     0
102
RTVSPost2010Prop52
140
1.0
102
RTVSPost2010PropOp52
 70
     0
102
RTVSPost2010Prop53
 90
        2
102
RTVSPost2010PropOp53
 70
     1
102
RTVSPost2010Prop54
  1
strokes_ogs.tif
102
RTVSPost2010PropOp54
 70
     1
102
RTVSPost2010Prop55
280
     0
102
RTVSPost2010PropOp55
 70
     1
102
RTVSPost2010Prop56
140
1.0
102
RTVSPost2010PropOp56
 70
     1
102
RTVSPost2010Prop57
140
1.0
102
RTVSPost2010PropOp57
 70
     1
  0
XRECORD
  5
3F6
102
{ACAD_REACTORS
330
3F5
102
}
330
3F5
100
AcDbXrecord
280
     1
102
RTVSPropertyOp0
 70
     1
102
RTVSPropertyOp1
 70
     1
102
RTVSPropertyOp2
 70
     1
102
RTVSPropertyOp3
 70
     1
102
RTVSPropertyOp4
 70
     1
102
RTVSPropertyOp5
 70
     1
102
RTVSPropertyOp6
 70
     1
102
RTVSPropertyOp7
 70
     1
102
RTVSPropertyOp8
 70
     1
102
RTVSPropertyOp9
 70
     1
102
RTVSPropertyOp10
 70
     1
102
RTVSPropertyOp11
 70
     1
102
RTVSPropertyOp12
 70
     1
102
RTVSPropertyOp13
 70
     1
102
RTVSPropertyOp14
 70
     1
102
RTVSPropertyOp15
 70
     1
102
RTVSPropertyOp16
 70
     1
102
RTVSPropertyOp17
 70
     1
102
RTVSPropertyOp18
 70
     1
102
RTVSPropertyOp19
 70
     1
102
RTVSPropertyOp20
 70
     1
102
RTVSPropertyOp21
 70
     1
102
RTVSPropertyOp22
 70
     1
102
RTVSPropertyOp23
 70
     1
102
RTVSPropertyOp24
 70
     1
102
RTVSPropertyOp25
 70
     1
102
RTVSPropertyOp26
 70
     1
102
RTVSPropertyOp27
 70
     1
102
RTVSPropertyOp28
 70
     1
102
RTVSPropertyOp29
 70
     1
102
RTVSPropertyOp30
 70
     1
102
RTVSPropertyOp31
 70
     1
102
RTVSPropertyOp32
 70
     1
102
RTVSPropertyOp33
 70
     1
102
RTVSPropertyOp34
 70
     1
102
RTVSPropertyOp35
 70
     1
102
RTVSPropertyOp36
 70
     1
102
RTVSPropertyOp37
 70
     1
102
RTVSPropertyOp38
 70
     1
102
RTVSPropertyOp39
 70
     1
102
RTVSPropertyOp40
 70
     1
102
RTVSPropertyOp41
 70
     1
102
RTVSPropertyOp42
 70
     1
102
RTVSPropertyOp43
 70
     1
102
RTVSPropertyOp44
 70
     1
102
RTVSPropertyOp45
 70
     1
102
RTVSPropertyOp46
 70
     1
102
RTVSPropertyOp47
 70
     1
102
RTVSPropertyOp48
 70
     1
102
RTVSPropertyOp49
 70
     1
102
RTVSPropertyOp50
 70
     1
102
RTVSPropertyOp51
 70
     0
102
RTVSPropertyOp52
 70
     0
102
RTVSPropertyOp53
 70
     1
102
RTVSPropertyOp54
 70
     1
102
RTVSPropertyOp55
 70
     1
102
RTVSPropertyOp56
 70
     1
102
RTVSPropertyOp57
 70
     1
102
RTVSPost2010Prop28
280
     0
102
RTVSPost2010PropOp28
 70
     1
102
RTVSPost2010Prop29
280
     1
102
RTVSPost2010PropOp29
 70
     1
102
RTVSPost2010Prop30
280
     1
102
RTVSPost2010PropOp30
 70
     1
102
RTVSPost2010Prop31
280
     0
102
RTVSPost2010PropOp31
 70
     1
102
RTVSPost2010Prop32
280
     0
102
RTVSPost2010PropOp32
 70
     1
102
RTVSPost2010Prop33
280
     0
102
RTVSPost2010PropOp33
 70
     1
102
RTVSPost2010Prop34
280
     0
102
RTVSPost2010PropOp34
 70
     1
102
RTVSPost2010Prop35
280
     0
102
RTVSPost2010PropOp35
 70
     1
102
RTVSPost2010Prop36
280
     0
102
RTVSPost2010PropOp36
 70
     1
102
RTVSPost2010Prop37
 90
       50
102
RTVSPost2010PropOp37
 70
     1
102
RTVSPost2010Prop38
140
0.0
102
RTVSPost2010PropOp38
 70
     1
102
RTVSPost2010Prop39
140
1.0
102
RTVSPost2010PropOp39
 70
     1
102
RTVSPost2010Prop40
 90
        0
102
RTVSPost2010PropOp40
 70
     1
102
RTVSPost2010Prop41ColorIndex
 90
       18
102
RTVSPost2010Prop41ColorRGB
 90
        0
102
RTVSPost2010PropOp41
 70
     1
102
RTVSPost2010Prop42
 90
       50
102
RTVSPost2010PropOp42
 70
     1
102
RTVSPost2010Prop43
 90
        3
102
RTVSPost2010PropOp43
 70
     1
102
RTVSPost2010Prop44ColorIndex
 90
        5
102
RTVSPost2010Prop44ColorRGB
 90
      255
102
RTVSPost2010PropOp44
 70
     1
102
RTVSPost2010Prop45
280
     0
102
RTVSPost2010PropOp45
 70
     1
102
RTVSPost2010Prop46
 90
       50
102
RTVSPost2010PropOp46
 70
     1
102
RTVSPost2010Prop47
 90
       50
102
RTVSPost2010PropOp47
 70
     1
102
RTVSPost2010Prop48
 90
       50
102
RTVSPost2010PropOp48
 70
     1
102
RTVSPost2010Prop49
280
     0
102
RTVSPost2010PropOp49
 70
     1
102
RTVSPost2010Prop50
 90
       50
102
RTVSPost2010PropOp50
 70
     1
102
RTVSPost2010Prop51ColorIndex
 90
      256
102
RTVSPost2010Prop51ColorRGB
 90
-16777216
102
RTVSPost2010PropOp51
 70
     0
102
RTVSPost2010Prop52
140
1.0
102
RTVSPost2010PropOp52
 70
     0
102
RTVSPost2010Prop53
 90
        2
102
RTVSPost2010PropOp53
 70
     1
102
RTVSPost2010Prop54
  1
strokes_ogs.tif
102
RTVSPost2010PropOp54
 70
     1
102
RTVSPost2010Prop55
280
     0
102
RTVSPost2010PropOp55
 70
     1
102
RTVSPost2010Prop56
140
1.0
102
RTVSPost2010PropOp56
 70
     1
102
RTVSPost2010Prop57
140
1.0
102
RTVSPost2010PropOp57
 70
     1
  0
XRECORD
  5
3E8
102
{ACAD_REACTORS
330
3E7
102
}
330
3E7
100
AcDbXrecord
280
     1
102
RTVSPropertyOp0
 70
     1
102
RTVSPropertyOp1
 70
     1
102
RTVSPropertyOp2
 70
     1
102
RTVSPropertyOp3
 70
     1
102
RTVSPropertyOp4
 70
     1
102
RTVSPropertyOp5
 70
     1
102
RTVSPropertyOp6
 70
     1
102
RTVSPropertyOp7
 70
     1
102
RTVSPropertyOp8
 70
     1
102
RTVSPropertyOp9
 70
     1
102
RTVSPropertyOp10
 70
     1
102
RTVSPropertyOp11
 70
     1
102
RTVSPropertyOp12
 70
     1
102
RTVSPropertyOp13
 70
     1
102
RTVSPropertyOp14
 70
     1
102
RTVSPropertyOp15
 70
     1
102
RTVSPropertyOp16
 70
     1
102
RTVSPropertyOp17
 70
     1
102
RTVSPropertyOp18
 70
     1
102
RTVSPropertyOp19
 70
     1
102
RTVSPropertyOp20
 70
     1
102
RTVSPropertyOp21
 70
     1
102
RTVSPropertyOp22
 70
     1
102
RTVSPropertyOp23
 70
     1
102
RTVSPropertyOp24
 70
     1
102
RTVSPropertyOp25
 70
     1
102
RTVSPropertyOp26
 70
     1
102
RTVSPropertyOp27
 70
     1
102
RTVSPropertyOp28
 70
     1
102
RTVSPropertyOp29
 70
     1
102
RTVSPropertyOp30
 70
     1
102
RTVSPropertyOp31
 70
     1
102
RTVSPropertyOp32
 70
     1
102
RTVSPropertyOp33
 70
     1
102
RTVSPropertyOp34
 70
     1
102
RTVSPropertyOp35
 70
     1
102
RTVSPropertyOp36
 70
     1
102
RTVSPropertyOp37
 70
     1
102
RTVSPropertyOp38
 70
     1
102
RTVSPropertyOp39
 70
     1
102
RTVSPropertyOp40
 70
     1
102
RTVSPropertyOp41
 70
     1
102
RTVSPropertyOp42
 70
     1
102
RTVSPropertyOp43
 70
     1
102
RTVSPropertyOp44
 70
     1
102
RTVSPropertyOp45
 70
     1
102
RTVSPropertyOp46
 70
     1
102
RTVSPropertyOp47
 70
     1
102
RTVSPropertyOp48
 70
     1
102
RTVSPropertyOp49
 70
     1
102
RTVSPropertyOp50
 70
     1
102
RTVSPropertyOp51
 70
     0
102
RTVSPropertyOp52
 70
     0
102
RTVSPropertyOp53
 70
     1
102
RTVSPropertyOp54
 70
     1
102
RTVSPropertyOp55
 70
     1
102
RTVSPropertyOp56
 70
     1
102
RTVSPropertyOp57
 70
     1
102
RTVSPost2010Prop28
280
     0
102
RTVSPost2010PropOp28
 70
     1
102
RTVSPost2010Prop29
280
     1
102
RTVSPost2010PropOp29
 70
     1
102
RTVSPost2010Prop30
280
     1
102
RTVSPost2010PropOp30
 70
     1
102
RTVSPost2010Prop31
280
     0
102
RTVSPost2010PropOp31
 70
     1
102
RTVSPost2010Prop32
280
     0
102
RTVSPost2010PropOp32
 70
     1
102
RTVSPost2010Prop33
280
     0
102
RTVSPost2010PropOp33
 70
     1
102
RTVSPost2010Prop34
280
     0
102
RTVSPost2010PropOp34
 70
     1
102
RTVSPost2010Prop35
280
     0
102
RTVSPost2010PropOp35
 70
     1
102
RTVSPost2010Prop36
280
     0
102
RTVSPost2010PropOp36
 70
     1
102
RTVSPost2010Prop37
 90
       50
102
RTVSPost2010PropOp37
 70
     1
102
RTVSPost2010Prop38
140
0.0
102
RTVSPost2010PropOp38
 70
     1
102
RTVSPost2010Prop39
140
1.0
102
RTVSPost2010PropOp39
 70
     1
102
RTVSPost2010Prop40
 90
        0
102
RTVSPost2010PropOp40
 70
     1
102
RTVSPost2010Prop41ColorIndex
 90
       18
102
RTVSPost2010Prop41ColorRGB
 90
        0
102
RTVSPost2010PropOp41
 70
     1
102
RTVSPost2010Prop42
 90
       50
102
RTVSPost2010PropOp42
 70
     1
102
RTVSPost2010Prop43
 90
        3
102
RTVSPost2010PropOp43
 70
     1
102
RTVSPost2010Prop44ColorIndex
 90
        5
102
RTVSPost2010Prop44ColorRGB
 90
      255
102
RTVSPost2010PropOp44
 70
     1
102
RTVSPost2010Prop45
280
     0
102
RTVSPost2010PropOp45
 70
     1
102
RTVSPost2010Prop46
 90
       50
102
RTVSPost2010PropOp46
 70
     1
102
RTVSPost2010Prop47
 90
       50
102
RTVSPost2010PropOp47
 70
     1
102
RTVSPost2010Prop48
 90
       50
102
RTVSPost2010PropOp48
 70
     1
102
RTVSPost2010Prop49
280
     0
102
RTVSPost2010PropOp49
 70
     1
102
RTVSPost2010Prop50
 90
       50
102
RTVSPost2010PropOp50
 70
     1
102
RTVSPost2010Prop51ColorIndex
 90
      256
102
RTVSPost2010Prop51ColorRGB
 90
-16777216
102
RTVSPost2010PropOp51
 70
     0
102
RTVSPost2010Prop52
140
1.0
102
RTVSPost2010PropOp52
 70
     0
102
RTVSPost2010Prop53
 90
        2
102
RTVSPost2010PropOp53
 70
     1
102
RTVSPost2010Prop54
  1
strokes_ogs.tif
102
RTVSPost2010PropOp54
 70
     1
102
RTVSPost2010Prop55
280
     0
102
RTVSPost2010PropOp55
 70
     1
102
RTVSPost2010Prop56
140
1.0
102
RTVSPost2010PropOp56
 70
     1
102
RTVSPost2010Prop57
140
1.0
102
RTVSPost2010PropOp57
 70
     1
  0
XRECORD
  5
408
102
{ACAD_REACTORS
330
407
102
}
330
407
100
AcDbXrecord
280
     1
102
RTVSPropertyOp0
 70
     1
102
RTVSPropertyOp1
 70
     1
102
RTVSPropertyOp2
 70
     1
102
RTVSPropertyOp3
 70
     1
102
RTVSPropertyOp4
 70
     1
102
RTVSPropertyOp5
 70
     1
102
RTVSPropertyOp6
 70
     1
102
RTVSPropertyOp7
 70
     1
102
RTVSPropertyOp8
 70
     1
102
RTVSPropertyOp9
 70
     1
102
RTVSPropertyOp10
 70
     1
102
RTVSPropertyOp11
 70
     1
102
RTVSPropertyOp12
 70
     1
102
RTVSPropertyOp13
 70
     1
102
RTVSPropertyOp14
 70
     1
102
RTVSPropertyOp15
 70
     1
102
RTVSPropertyOp16
 70
     1
102
RTVSPropertyOp17
 70
     1
102
RTVSPropertyOp18
 70
     1
102
RTVSPropertyOp19
 70
     1
102
RTVSPropertyOp20
 70
     1
102
RTVSPropertyOp21
 70
     1
102
RTVSPropertyOp22
 70
     1
102
RTVSPropertyOp23
 70
     1
102
RTVSPropertyOp24
 70
     1
102
RTVSPropertyOp25
 70
     1
102
RTVSPropertyOp26
 70
     1
102
RTVSPropertyOp27
 70
     1
102
RTVSPropertyOp28
 70
     1
102
RTVSPropertyOp29
 70
     1
102
RTVSPropertyOp30
 70
     1
102
RTVSPropertyOp31
 70
     1
102
RTVSPropertyOp32
 70
     1
102
RTVSPropertyOp33
 70
     1
102
RTVSPropertyOp34
 70
     1
102
RTVSPropertyOp35
 70
     1
102
RTVSPropertyOp36
 70
     1
102
RTVSPropertyOp37
 70
     1
102
RTVSPropertyOp38
 70
     1
102
RTVSPropertyOp39
 70
     1
102
RTVSPropertyOp40
 70
     1
102
RTVSPropertyOp41
 70
     1
102
RTVSPropertyOp42
 70
     1
102
RTVSPropertyOp43
 70
     1
102
RTVSPropertyOp44
 70
     1
102
RTVSPropertyOp45
 70
     1
102
RTVSPropertyOp46
 70
     1
102
RTVSPropertyOp47
 70
     1
102
RTVSPropertyOp48
 70
     1
102
RTVSPropertyOp49
 70
     1
102
RTVSPropertyOp50
 70
     1
102
RTVSPropertyOp51
 70
     0
102
RTVSPropertyOp52
 70
     0
102
RTVSPropertyOp53
 70
     1
102
RTVSPropertyOp54
 70
     1
102
RTVSPropertyOp55
 70
     1
102
RTVSPropertyOp56
 70
     1
102
RTVSPropertyOp57
 70
     1
102
RTVSPost2010Prop28
280
     0
102
RTVSPost2010PropOp28
 70
     1
102
RTVSPost2010Prop29
280
     1
102
RTVSPost2010PropOp29
 70
     1
102
RTVSPost2010Prop30
280
     1
102
RTVSPost2010PropOp30
 70
     1
102
RTVSPost2010Prop31
280
     0
102
RTVSPost2010PropOp31
 70
     1
102
RTVSPost2010Prop32
280
     0
102
RTVSPost2010PropOp32
 70
     1
102
RTVSPost2010Prop33
280
     0
102
RTVSPost2010PropOp33
 70
     1
102
RTVSPost2010Prop34
280
     0
102
RTVSPost2010PropOp34
 70
     1
102
RTVSPost2010Prop35
280
     0
102
RTVSPost2010PropOp35
 70
     1
102
RTVSPost2010Prop36
280
     0
102
RTVSPost2010PropOp36
 70
     1
102
RTVSPost2010Prop37
 90
       50
102
RTVSPost2010PropOp37
 70
     1
102
RTVSPost2010Prop38
140
0.0
102
RTVSPost2010PropOp38
 70
     1
102
RTVSPost2010Prop39
140
1.0
102
RTVSPost2010PropOp39
 70
     1
102
RTVSPost2010Prop40
 90
        0
102
RTVSPost2010PropOp40
 70
     1
102
RTVSPost2010Prop41ColorIndex
 90
       18
102
RTVSPost2010Prop41ColorRGB
 90
        0
102
RTVSPost2010PropOp41
 70
     1
102
RTVSPost2010Prop42
 90
       50
102
RTVSPost2010PropOp42
 70
     1
102
RTVSPost2010Prop43
 90
        3
102
RTVSPost2010PropOp43
 70
     1
102
RTVSPost2010Prop44ColorIndex
 90
        5
102
RTVSPost2010Prop44ColorRGB
 90
      255
102
RTVSPost2010PropOp44
 70
     1
102
RTVSPost2010Prop45
280
     0
102
RTVSPost2010PropOp45
 70
     1
102
RTVSPost2010Prop46
 90
       50
102
RTVSPost2010PropOp46
 70
     1
102
RTVSPost2010Prop47
 90
       50
102
RTVSPost2010PropOp47
 70
     1
102
RTVSPost2010Prop48
 90
       50
102
RTVSPost2010PropOp48
 70
     1
102
RTVSPost2010Prop49
280
     0
102
RTVSPost2010PropOp49
 70
     1
102
RTVSPost2010Prop50
 90
       50
102
RTVSPost2010PropOp50
 70
     1
102
RTVSPost2010Prop51ColorIndex
 90
      256
102
RTVSPost2010Prop51ColorRGB
 90
-16777216
102
RTVSPost2010PropOp51
 70
     0
102
RTVSPost2010Prop52
140
1.0
102
RTVSPost2010PropOp52
 70
     0
102
RTVSPost2010Prop53
 90
        2
102
RTVSPost2010PropOp53
 70
     1
102
RTVSPost2010Prop54
  1
strokes_ogs.tif
102
RTVSPost2010PropOp54
 70
     1
102
RTVSPost2010Prop55
280
     0
102
RTVSPost2010PropOp55
 70
     1
102
RTVSPost2010Prop56
140
1.0
102
RTVSPost2010PropOp56
 70
     1
102
RTVSPost2010Prop57
140
1.0
102
RTVSPost2010PropOp57
 70
     1
  0
ENDSEC
  0
EOF
