  0
SECTION
  2
HEADER
  9
$ACADVER
  1
AC1009
  9
$INSBASE
 10
0
 20
0
 30
0
  9
$EXTMIN
 10
0
 20
0
  9
$EXTMAX
 10
420
 20
297
  9
$LIMMIN
 10
0
 20
0
  9
$LIMMAX
 10
420
 20
297
  9
$LTSCALE
 40
1
  0
ENDSEC
  0
SECTION
  2
TABLES
  0
TABLE
  2
LTYPE
 70
     9
  0
LTYPE
  2
CONTINUOUS
 70
    64
  3
実線
 72
    65
 73
     0
 40
0.0
  0
LTYPE
  2
DASHED1
 70
    64
  3
--  --  --  --  --  --  --  --  
 72
    65
 73
     2
 40
2.5
 49
1.25
 49
-1.25
  0
LTYPE
  2
DASHED2
 70
    64
  3
----    ----    ----    ----    
 72
    65
 73
     2
 40
5.0
 49
2.5
 49
-2.5
  0
LTYPE
  2
DASHED3
 70
    64
  3
------  ------  ------  ------  
 72
    65
 73
     2
 40
5.0
 49
3.75
 49
-1.25
  0
LTYPE
  2
CENTER1
 70
    64
  3
----- - ----- - ----- - ----- - 
 72
    65
 73
     4
 40
10.0
 49
6.25
 49
-1.25
 49
1.25
 49
-1.25
  0
LTYPE
  2
CENTER2
 70
    64
  3
----------  --  ----------  --  
 72
    65
 73
     4
 40
20.0
 49
12.5
 49
-2.5
 49
2.5
 49
-2.5
  0
LTYPE
  2
PHANTOM1
 70
    64
  3
--- - - --- - - --- - - --- - - 
 72
    65
 73
     6
 40
10.0
 49
3.25
 49
-1.25
 49
1.25
 49
-1.25
 49
1.25
 49
-1.25
  0
LTYPE
  2
PHANTOM2
 70
    64
  3
--------  -  -  --------  -  -  
 72
    65
 73
     6
 40
20.0
 49
10.0
 49
-2.5
 49
1.25
 49
-2.5
 49
1.25
 49
-2.5
  0
LTYPE
  2
DOT
 70
    64
  3
-   -   -   -   -   -   -   -   
 72
    65
 73
     2
 40
2.5
 49
0.625
 49
-1.875
  0
LTYPE
  2
DUMMY
 70
    64
  3
ダミー
 72
    65
 73
     0
 40
0.0
  0
LTYPE
  2
RAND1
 70
    64
  3
ランダム線1
 72
    65
 73
     4
 40
10.0
 49
1.0
 49
-2.0
 49
3.0
 49
-4.0
  0
LTYPE
  2
RAND2
 70
    64
  3
ランダム線2
 72
    65
 73
     4
 40
14.0
 49
2.0
 49
-3.0
 49
4.0
 49
-5.0
  0
LTYPE
  2
RAND3
 70
    64
  3
ランダム線3
 72
    65
 73
     4
 40
18.0
 49
3.0
 49
-4.0
 49
5.0
 49
-6.0
  0
LTYPE
  2
RAND4
 70
    64
  3
ランダム線4
 72
    65
 73
     4
 40
22.0
 49
4.0
 49
-5.0
 49
6.0
 49
-7.0
  0
LTYPE
  2
RAND5
 70
    64
  3
ランダム線5
 72
    65
 73
     4
 40
26.0
 49
5.0
 49
-6.0
 49
7.0
 49
-8.0
  0
LTYPE
  2
LONG1
 70
    64
  3
----------  --  ----------  --  
 72
    65
 73
     4
 40
40.0
 49
32.5
 49
-2.5
 49
2.5
 49
-2.5
  0
LTYPE
  2
LONG2
 70
    64
  3
--------  -  -  --------  -  -  
 72
    65
 73
     6
 40
40.0
 49
30.0
 49
-2.5
 49
1.25
 49
-2.5
 49
1.25
 49
-2.5
  0
LTYPE
  2
LONG3
 70
    64
  3
+++++++++++++++..+++++++++++++++
 72
    65
 73
     2
 40
40.0
 49
37.5
 49
-2.5
  0
LTYPE
  2
LONG4
 70
    64
  3
+++++++++++++++..+++++++++++++++
 72
    65
 73
     2
 40
80.0
 49
75.0
 49
-5.0
  0
LTYPE
  2
LONG5
 70
    64
  3
----------  --  ----------  --  
 72
    65
 73
     4
 40
60.0
 49
37.5
 49
-7.5
 49
7.5
 49
-7.5
  0
LTYPE
  2
dashed
 70
   64
  3
-------   -------------   ------
 72
   65
 73
    2
 40
7.5
 49
6
 49
-1.5
  0
LTYPE
  2
dashed_spaced
 70
   64
  3
----        --------        ----
 72
   65
 73
    2
 40
12
 49
6
 49
-6
  0
LTYPE
  2
long_dashed_dotted
 70
   64
  3
------------- --- --------------
 72
   65
 73
    4
 40
15.25
 49
12
 49
-1.5
 49
0.25
 49
-1.5
  0
LTYPE
  2
long_dashed_double-dotted
 70
   64
  3
----------- --- --- ------------
 72
   65
 73
    6
 40
17
 49
12
 49
-1.5
 49
0.25
 49
-1.5
 49
0.25
 49
-1.5
  0
LTYPE
  2
long_dashed_triplicate-dotted
 70
   64
  3
--------- --- --- --- ----------
 72
   65
 73
    8
 40
18.75
 49
12
 49
-1.5
 49
0.25
 49
-1.5
 49
0.25
 49
-1.5
 49
0.25
 49
-1.5
  0
LTYPE
  2
dotted
 70
   64
  3
   -       -       -       -    
 72
   65
 73
    2
 40
1.75
 49
0.25
 49
-1.5
  0
LTYPE
  2
chain
 70
   64
  3
-------------- -- --------------
 72
   65
 73
    4
 40
18.5
 49
12
 49
-1.5
 49
3.5
 49
-1.5
  0
LTYPE
  2
chain_double_dash
 70
   64
  3
------------ -- -- -------------
 72
   65
 73
    6
 40
23.5
 49
12
 49
-1.5
 49
3.5
 49
-1.5
 49
3.5
 49
-1.5
  0
LTYPE
  2
dashed_dotted
 70
   64
  3
-----------     -     ----------
 72
   65
 73
    4
 40
9.25
 49
6
 49
-1.5
 49
0.25
 49
-1.5
  0
LTYPE
  2
double-dashed_dotted
 70
   64
  3
------   -----------   -   -----
 72
   65
 73
    6
 40
16.75
 49
6
 49
-1.5
 49
6
 49
-1.5
 49
0.25
 49
-1.5
  0
LTYPE
  2
dashed_double-dotted
 70
   64
  3
---------    -    -    ---------
 72
   65
 73
    6
 40
11
 49
6
 49
-1.5
 49
0.25
 49
-1.5
 49
0.25
 49
-1.5
  0
LTYPE
  2
double-dashed_double-dotted
 70
   64
  3
-----   ---------   -   -   ----
 72
   65
 73
    8
 40
18.5
 49
6
 49
-1.5
 49
6
 49
-1.5
 49
0.25
 49
-1.5
 49
0.25
 49
-1.5
  0
LTYPE
  2
dashed_triplicate-dotted
 70
   64
  3
-------    -    -    -    ------
 72
   65
 73
    8
 40
12.75
 49
6
 49
-1.5
 49
0.25
 49
-1.5
 49
0.25
 49
-1.5
 49
0.25
 49
-1.5
  0
LTYPE
  2
double-dashed_triplicate-dotted
 70
   64
  3
-----  ---------  -  -  -  -----
 72
   65
 73
   10
 40
20.25
 49
6
 49
-1.5
 49
6
 49
-1.5
 49
0.25
 49
-1.5
 49
0.25
 49
-1.5
 49
0.25
 49
-1.5
  0
LTYPE
  2
undefined
 70
   64
  3
--------------------------------
 72
   65
 73
    0
 40
0
  0
ENDTAB
  0
TABLE
  2
STYLE
  5
3
100
AcDbSymbolTable
 70
     1
  0
STYLE
  5
10
100
AcDbSymbolTableRecord
100
AcDbTextStyleTableRecord
  2
STANDARD
 70
     0
 40
0.0
 41
1.0
 50
0.0
 71
     0
 42
0.2
  3
txt
  4
bigfont.shx
  0
STYLE
  5
26
100
AcDbSymbolTableRecord
100
AcDbTextStyleTableRecord
  2
TATEGAKI
 70
    68
 40
0.0
 41
1.0
 50
0.0
 71
     0
 42
1.0
  3
txt
  4
bigfont.shx
  0
ENDTAB
  0
TABLE
  2
LAYER
 70
   15
  0
LAYER
  2
_e-0_
 70
   64
 62
    7
  6
CONTINUOUS
  0
LAYER
  2
_e-1_
 70
   64
 62
    7
  6
CONTINUOUS
  0
LAYER
  2
_e-2_
 70
   64
 62
    7
  6
CONTINUOUS
  0
LAYER
  2
_e-3_
 70
   64
 62
    7
  6
CONTINUOUS
  0
LAYER
  2
_e-4_
 70
   64
 62
    7
  6
CONTINUOUS
  0
LAYER
  2
_e-5_
 70
   64
 62
    7
  6
CONTINUOUS
  0
LAYER
  2
_e-6_
 70
   64
 62
    7
  6
CONTINUOUS
  0
LAYER
  2
_e-9_
 70
   64
 62
    7
  6
CONTINUOUS
  0
LAYER
  2
_e-a_
 70
   64
 62
    7
  6
CONTINUOUS
  0
LAYER
  2
_e-b_
 70
   64
 62
    7
  6
CONTINUOUS
  0
LAYER
  2
_e-c_
 70
   64
 62
    7
  6
CONTINUOUS
  0
LAYER
  2
_e-f_
 70
   64
 62
    7
  6
CONTINUOUS
  0
LAYER
  2
_f-5_F-5___
 70
   64
 62
    7
  6
CONTINUOUS
  0
LAYER
  2
_f-f_F-F___
 70
   64
 62
    7
  6
CONTINUOUS
  0
LAYER
  2
ADD_LINE
 70
   64
 62
    7
  6
CONTINUOUS
  0
ENDTAB
  0
ENDSEC
  0
SECTION
  2
BLOCKS
  0
ENDSEC
  0
SECTION
  2
ENTITIES
  0
LINE
  8
_f-f_F-F___
  6
CONTINUOUS
 62
    7
 10
399.95599662584004
 20
192.70007712132229
 11
399.95599662584004
 21
108.70014459378022
  0
LINE
  8
_f-f_F-F___
  6
CONTINUOUS
 62
    7
 10
266.95219067511039
 20
185.70006639248635
 11
399.95599662584004
 21
185.70006639248635
  0
LINE
  8
_f-f_F-F___
  6
CONTINUOUS
 62
    7
 10
266.95219067511039
 20
184.70006639248635
 11
399.95599662584004
 21
184.70006639248635
  0
TEXT
  8
_f-f_F-F___
 62
    3
 10
269.61391318972551
 20
179.16236842293415
 40
4
 41
1
 50
0
  1
種類
  0
TEXT
  8
_f-f_F-F___
 62
    3
 10
269.61391318972551
 20
152.19731625372725
 40
4
 41
1
 50
0
  1
許容通過車両
  0
TEXT
  8
_f-f_F-F___
 62
    3
 10
269.61391318972551
 20
145.1973133927043
 40
4
 41
1
 50
0
  1
加重体の大きさ
  0
TEXT
  8
_f-f_F-F___
 62
    3
 10
269.61391318972551
 20
131.19739445502114
 40
4
 41
1
 50
0
  1
許容たわみ量
  0
TEXT
  8
_f-f_F-F___
 62
    3
 10
269.61391318972551
 20
123.82936942626843
 40
4
 41
1
 50
0
  1
許容残留たわみ量
  0
LINE
  8
_f-f_F-F___
  6
CONTINUOUS
 62
    7
 10
266.95219067511039
 20
157.70006639248635
 11
399.95599662584004
 21
157.70006639248635
  0
LINE
  8
_f-f_F-F___
  6
CONTINUOUS
 62
    7
 10
266.95219067511039
 20
150.70008928066994
 11
399.95599662584004
 21
150.70008928066994
  0
LINE
  8
_f-f_F-F___
  6
CONTINUOUS
 62
    7
 10
399.95599662584004
 20
143.70006067044034
 11
266.95219067511039
 21
143.70006067044034
  0
LINE
  8
_f-f_F-F___
  6
CONTINUOUS
 62
    7
 10
266.95219067511039
 20
136.70012933499117
 11
399.95599662584004
 21
136.70012933499117
  0
LINE
  8
_f-f_F-F___
  6
CONTINUOUS
 62
    7
 10
266.95219067511039
 20
129.70014459378024
 11
399.95599662584004
 21
129.70014459378024
  0
LINE
  8
_f-f_F-F___
  6
CONTINUOUS
 62
    7
 10
266.95219067511039
 20
122.70016748196382
 11
399.95599662584004
 21
122.70016748196382
  0
TEXT
  8
_f-f_F-F___
 62
    3
 10
269.61391318972551
 20
117.12872079860431
 40
4
 41
1
 50
0
  1
破壊荷重
  0
LINE
  8
_f-f_F-F___
  6
CONTINUOUS
 62
    7
 10
266.95219067511039
 20
164.70006639248635
 11
399.95599662584004
 21
164.70006639248635
  0
TEXT
  8
_f-f_F-F___
 62
    3
 10
269.61391318972551
 20
159.14312721047079
 40
4
 41
1
 50
0
  1
安全荷重
  0
TEXT
  8
_f-f_F-F___
 62
    3
 10
269.61391318972551
 20
138.14312721047079
 40
4
 41
1
 50
0
  1
たわみ試験荷重
  0
LINE
  8
_f-f_F-F___
  6
CONTINUOUS
 62
    7
 10
266.95219067511039
 20
115.70016748196382
 11
399.95599662584004
 21
115.70016748196382
  0
LINE
  8
_f-f_F-F___
  6
CONTINUOUS
 62
    7
 10
266.95219067511039
 20
177.70006639248635
 11
399.95599662584004
 21
177.70006639248635
  0
TEXT
  8
_f-f_F-F___
 62
    3
 10
269.61391318972551
 20
110.22226122562741
 40
4
 41
1
 50
0
  1
Ｔ荷重（参考）
  0
TEXT
  8
_f-f_F-F___
 62
    3
 10
269.61391318972551
 20
172.38918628720478
 40
4
 41
1
 50
0
  1
使用場所
  0
TEXT
  8
_f-f_F-F___
 62
    3
 10
315.24107145150901
 20
179.16236842293415
 40
4
 41
1
 50
0
  1
500K
  0
TEXT
  8
_f-f_F-F___
 62
    3
 10
315.24107145150901
 20
138.14312721047079
 40
4
 41
1
 50
0
  1
5kN
  0
TEXT
  8
_f-f_F-F___
 62
    3
 10
315.24107145150901
 20
152.19731625372725
 40
4
 41
1
 50
0
  1
小型乗用車（2000cc以下）
  0
TEXT
  8
_f-f_F-F___
 62
    3
 10
315.24107145150901
 20
145.1973133927043
 40
4
 41
1
 50
0
  1
φ150mm
  0
TEXT
  8
_f-f_F-F___
 62
    3
 10
315.24107145150901
 20
131.19739445502114
 40
4
 41
1
 50
0
  1
3.6mm以内（有効内径の0.6％以内）
  0
TEXT
  8
_f-f_F-F___
 62
    3
 10
315.24107145150901
 20
123.82936942626843
 40
4
 41
1
 50
0
  1
1.2mm以内（有効内径の0.2％以内）
  0
TEXT
  8
_f-f_F-F___
 62
    3
 10
315.24107145150901
 20
117.12872079860431
 40
4
 41
1
 50
0
  1
20kN以下で破壊されない
  0
TEXT
  8
_f-f_F-F___
 62
    3
 10
315.24107145150901
 20
159.14312721047079
 40
4
 41
1
 50
0
  1
5kN
  0
TEXT
  8
_f-f_F-F___
 62
    3
 10
315.24107145150901
 20
172.38918628720478
 40
4
 41
1
 50
0
  1
建物内、建物敷地内、公園敷地内及び
  0
TEXT
  8
_f-f_F-F___
 62
    3
 10
315.24107145150901
 20
166.46198933844096
 40
4
 41
1
 50
0
  1
敷地周辺道路（公共の車道を除く）
  0
TEXT
  8
_f-f_F-F___
 62
    3
 10
315.24107145150901
 20
110.22226122562741
 40
4
 41
1
 50
0
  1
T-2：総重量2トンまでの車両が通行可能
  0
LINE
  8
_f-f_F-F___
  6
CONTINUOUS
 62
    7
 10
311.10758126210658
 20
185.70006639248635
 11
311.10758126210658
 21
108.70014459378022
  0
LINE
  8
_f-f_F-F___
  6
CONTINUOUS
 62
    7
 10
266.95219067511039
 20
108.70014459378022
 11
399.95599662584004
 21
108.70014459378022
  0
LINE
  8
_f-f_F-F___
  6
CONTINUOUS
 62
    7
 10
266.95219067511039
 20
192.70007712132229
 11
399.95599662584004
 21
192.70007712132229
  0
LINE
  8
_f-f_F-F___
  6
CONTINUOUS
 62
    7
 10
266.95219067511039
 20
192.70007712132229
 11
266.95219067511039
 21
108.70014459378022
  0
TEXT
  8
_f-f_F-F___
 62
    3
 10
269.61391318972551
 20
187.03894515453851
 40
4
 41
1
 50
0
  1
強度性能
  0
TEXT
  8
_f-f_F-F___
 62
    3
 10
269.61391318972551
 20
275.27275765435922
 40
4
 41
1
 50
0
  1
名称
  0
TEXT
  8
_f-f_F-F___
 62
    3
 10
291.61358207770172
 20
275.27275765435922
 40
4
 41
1
 50
0
  1
マンホール鉄蓋
  0
TEXT
  8
_f-f_F-F___
 62
    3
 10
269.61391318972551
 20
267.14711580800179
 40
4
 41
1
 50
0
  1
仕様
  0
TEXT
  8
_f-f_F-F___
 62
    3
 10
291.61358207770172
 20
267.14711580800179
 40
4
 41
1
 50
0
  1
密閉形（防水・防臭形）
  0
TEXT
  8
_f-f_F-F___
 62
    3
 10
291.61358207770172
 20
260.14711580800179
 40
4
 41
1
 50
0
  1
ボルトロック式
  0
TEXT
  8
_f-f_F-F___
 62
    3
 10
291.61358207770172
 20
246.3257013227834
 40
4
 41
1
 50
0
  1
有効内径φ600mm
  0
TEXT
  8
_f-f_F-F___
 62
    3
 10
291.61358207770172
 20
239.02675512200693
 40
4
 41
1
 50
0
  1
蓋：鋳鉄製　FC200　樹脂系塗装
  0
TEXT
  8
_f-f_F-F___
 62
    3
 10
291.61358207770172
 20
232.19369910425874
 40
4
 41
1
 50
0
  1
枠：鋳鉄製　FC200　樹脂系塗装
  0
TEXT
  8
_f-f_F-F___
 62
    3
 10
291.61358207770172
 20
253.14711580800181
 40
4
 41
1
 50
0
  1
蓄熱槽用（断熱形）
  0
TEXT
  8
_f-f_F-F___
 62
    3
 10
269.61391318972551
 20
211.00276554881876
 40
4
 41
1
 50
0
  1
品番
  0
TEXT
  8
_f-f_F-F___
 62
    3
 10
291.61358207770172
 20
211.00276554881876
 40
4
 41
1
 50
0
  1
カネソウ　マンホール鉄蓋
  0
LINE
  8
_f-f_F-F___
  6
CONTINUOUS
 62
    7
 10
266.95219067511039
 20
280.70001318648053
 11
266.95219067511039
 21
203.65196133362184
  0
LINE
  8
_f-f_F-F___
  6
CONTINUOUS
 62
    7
 10
289.49731626434664
 20
280.70001318648053
 11
289.49731626434664
 21
203.65196133362184
  0
LINE
  8
_f-f_F-F___
  6
CONTINUOUS
 62
    7
 10
339.49731626434664
 20
230.70009782507617
 11
339.49731626434664
 21
216.70000627234191
  0
LINE
  8
_f-f_F-F___
  6
CONTINUOUS
 62
    7
 10
266.95219067511039
 20
272.70000245764442
 11
399.95599662584004
 21
272.70000245764442
  0
LINE
  8
_f-f_F-F___
  6
CONTINUOUS
 62
    7
 10
266.95219067511039
 20
273.70000245764442
 11
399.95599662584004
 21
273.70000245764442
  0
LINE
  8
_f-f_F-F___
  6
CONTINUOUS
 62
    7
 10
266.95219067511039
 20
280.70001318648053
 11
399.95599662584004
 21
280.70001318648053
  0
LINE
  8
_f-f_F-F___
  6
CONTINUOUS
 62
    7
 10
399.95599662584004
 20
258.69999101355262
 11
289.49731626434664
 21
258.69999101355262
  0
LINE
  8
_f-f_F-F___
  6
CONTINUOUS
 62
    7
 10
399.95599662584004
 20
265.69999101355262
 11
289.49731626434664
 21
265.69999101355262
  0
LINE
  8
_f-f_F-F___
  6
CONTINUOUS
 62
    7
 10
289.49731626434664
 20
237.70004441931439
 11
399.95599662584004
 21
237.70004441931439
  0
LINE
  8
_f-f_F-F___
  6
CONTINUOUS
 62
    7
 10
399.95599662584004
 20
244.69999101355262
 11
289.49731626434664
 21
244.69999101355262
  0
LINE
  8
_f-f_F-F___
  6
CONTINUOUS
 62
    7
 10
289.49731626434664
 20
230.70009782507617
 11
399.95599662584004
 21
230.70009782507617
  0
LINE
  8
_f-f_F-F___
  6
CONTINUOUS
 62
    7
 10
399.95599662584004
 20
251.69999101355262
 11
289.49731626434664
 21
251.69999101355262
  0
LINE
  8
_f-f_F-F___
  6
CONTINUOUS
 62
    7
 10
399.95599662584004
 20
280.70001318648053
 11
399.95599662584004
 21
203.65196133362184
  0
LINE
  8
_f-f_F-F___
  6
CONTINUOUS
 62
    7
 10
266.95219067511039
 20
216.70000627234191
 11
399.95599662584004
 21
216.70000627234191
  0
LINE
  8
_f-f_F-F___
  6
CONTINUOUS
 62
    7
 10
266.95219067511039
 20
203.65196133362184
 11
399.95599662584004
 21
203.65196133362184
  0
LINE
  8
_f-f_F-F___
  6
CONTINUOUS
 62
    7
 10
339.49731626434664
 20
223.70009782507617
 11
399.95599662584004
 21
223.70009782507617
  0
TEXT
  8
_f-5_F-5___
 62
    2
 10
131.72892384694046
 20
12.959529522026742
 40
4
 41
0.875
 50
0
  1
ＭＷＡ－２ＤＳ－６００（丸）
  0
TEXT
  8
_f-5_F-5___
 62
    2
 10
131.72892384694046
 20
17.670196928201676
 40
4
 41
0.875
 50
0
  1
マンホール鉄蓋　蓄熱槽用（断熱形）密閉形（防水・防臭形）角枠
  0
TEXT
  8
_f-f_F-F___
 62
    3
 10
341.61358207770172
 20
218.02671697503445
 40
4
 41
1
 50
0
  1
枠:12.0kg
  0
TEXT
  8
_f-f_F-F___
 62
    3
 10
291.61358207770172
 20
205.6008080522561
 40
4
 41
1
 50
0
  1
MWA-2DS-600(丸)
  0
TEXT
  8
_f-f_F-F___
 62
    3
 10
291.61358207770172
 20
221.81268626529268
 40
4
 41
1
 50
0
  1
標準質量：38.0kg
  0
TEXT
  8
_f-f_F-F___
 62
    3
 10
341.61358207770172
 20
225.02680852776871
 40
4
 41
1
 50
0
  1
蓋:26.0kg
  0
LINE
  8
_e-1_
  6
CONTINUOUS
 62
    2
 10
90.799404221680334
 20
267.4547021389875
 11
90.373659262854517
 21
267.88044709781354
  0
LINE
  8
_e-1_
  6
CONTINUOUS
 62
    2
 10
84.152586627719302
 20
260.80791918660157
 11
83.726876310468469
 21
261.2336641454275
  0
LINE
  8
_e-1_
  6
CONTINUOUS
 62
    2
 10
92.820393717035131
 20
265.23573604154245
 11
90.915349573770754
 21
267.14074554323162
  0
LINE
  8
_e-1_
  6
CONTINUOUS
 62
    2
 10
92.707254332533466
 20
265.12259665704073
 11
90.161514256519922
 21
267.66833673305416
  0
LINE
  8
_e-1_
  6
CONTINUOUS
 62
    2
 10
86.371587366739504
 20
258.78692969124677
 11
84.466647148200764
 21
260.69190455136084
  0
LINE
  8
_e-1_
  6
CONTINUOUS
 62
    2
 10
86.484726751241169
 20
258.90006907574855
 11
83.938986675227852
 21
261.44577451018688
  0
LINE
  8
_e-1_
  6
CENTER1
 62
    2
 10
84.447005375079925
 20
261.95379321003907
 11
89.653564839818046
 21
267.16035267477724
  0
LINE
  8
_e-1_
  6
CENTER1
 62
    2
 10
90.547906385954093
 20
261.05945166390302
 11
82.719533946131378
 21
268.88778946215058
  0
LINE
  8
_e-1_
  6
CONTINUOUS
 62
    2
 10
182.29611822083575
 20
267.4547021389875
 11
182.72189782123701
 21
267.88044709781343
  0
LINE
  8
_e-1_
  6
CONTINUOUS
 62
    2
 10
188.94293581479701
 20
260.80791918660145
 11
189.36868077362305
 21
261.2336641454275
  0
LINE
  8
_e-1_
  6
CONTINUOUS
 62
    2
 10
180.27512872548118
 20
265.2357360415424
 11
182.18020751032054
 21
267.14074554323156
  0
LINE
  8
_e-1_
  6
CONTINUOUS
 62
    2
 10
180.38826810998285
 20
265.12259665704062
 11
182.93400818599639
 21
267.66833673305416
  0
LINE
  8
_e-1_
  6
CONTINUOUS
 62
    2
 10
186.72393507577658
 20
258.78692969124671
 11
188.62890993589076
 21
260.69190455136084
  0
LINE
  8
_e-1_
  6
CONTINUOUS
 62
    2
 10
186.61079569127492
 20
258.90006907574843
 11
189.15653576728846
 21
261.44577451018671
  0
LINE
  8
_e-1_
  6
CENTER1
 62
    2
 10
188.64851706743639
 20
261.95379321003895
 11
183.44195760269827
 21
267.16035267477713
  0
LINE
  8
_e-1_
  6
CENTER1
 62
    2
 10
182.54765069813743
 20
261.05945166390296
 11
190.37598849638471
 21
268.88778946215047
  0
LINE
  8
_e-1_
  6
CONTINUOUS
 62
    2
 10
139.94776254093699
 20
145.57462467382697
 11
139.94776254093699
 21
145.45958000269098
  0
LINE
  8
_e-1_
  6
CONTINUOUS
 62
    2
 10
133.14775990157909
 20
145.57462467382697
 11
133.14775990157909
 21
145.45958000269098
  0
LINE
  8
_e-1_
  6
CENTER1
 62
    2
 10
133.96377684625804
 20
145.45958000269098
 11
139.13174559625804
 21
145.45958000269098
  0
ARC
  8
_e-1_
  6
CONTINUOUS
 62
    2
 10
87.050285107449099
 20
264.55703830083291
 40
4.3999996700802368
 50
44.999725341796875
 51
225
  0
ARC
  8
_e-1_
  6
CONTINUOUS
 62
    2
 10
87.050285107449099
 20
264.55703830083291
 40
4.7000000412399707
 50
45.000259399414063
 51
225
  0
CIRCLE
  8
_e-1_
  6
CONTINUOUS
 62
    2
 10
87.050285107449099
 20
264.55703830083291
 40
1.4999999613375281
  0
CIRCLE
  8
_e-1_
  6
CONTINUOUS
 62
    2
 10
87.050285107449099
 20
264.55703830083291
 40
1.9000000051549966
  0
ARC
  8
_e-1_
  6
CONTINUOUS
 62
    2
 10
91.223659592774084
 20
267.87895751008125
 40
0.5999999980668765
 50
225
 51
310.63296508789063
  0
ARC
  8
_e-1_
  6
CONTINUOUS
 62
    2
 10
91.223659592774084
 20
267.87895751008125
 40
0.8000000199756108
 50
247.33056640625006
 51
310.63296508789068
  0
ARC
  8
_e-1_
  6
CONTINUOUS
 62
    2
 10
83.728365898200764
 20
260.38366381550782
 40
0.5999999980668765
 50
319.36703491210937
 51
44.999999999999993
  0
ARC
  8
_e-1_
  6
CONTINUOUS
 62
    2
 10
83.728365898200764
 20
260.38366381550782
 40
0.8000000199756108
 50
319.36703491210937
 51
22.66943359375
  0
ARC
  8
_e-1_
  6
CONTINUOUS
 62
    2
 10
93.244649088128881
 20
265.6599914126362
 40
0.7600000291257291
 50
225
 51
284.74641418457031
  0
ARC
  8
_e-1_
  6
CONTINUOUS
 62
    2
 10
93.244649088128881
 20
265.6599914126362
 40
0.5999999980668765
 50
225
 51
310.55670166015625
  0
ARC
  8
_e-1_
  6
CONTINUOUS
 62
    2
 10
85.947366637220966
 20
258.36267432015302
 40
0.7600000291257291
 50
345.25358581542969
 51
45.000000000000014
  0
ARC
  8
_e-1_
  6
CONTINUOUS
 62
    2
 10
85.947366637220966
 20
258.36267432015302
 40
0.5999999980668765
 50
319.44329833984375
 51
45.000000000000007
  0
ARC
  8
_e-1_
  6
CONTINUOUS
 62
    2
 10
136.54776122125804
 20
215.05959682859893
 40
65.916634430756446
 50
130.84407043457031
 51
139.15570068359375
  0
ARC
  8
_e-1_
  6
CONTINUOUS
 62
    2
 10
186.04527197664243
 20
264.55703830083291
 40
4.3999996700802368
 50
315
 51
135.00027465820318
  0
ARC
  8
_e-1_
  6
CONTINUOUS
 62
    2
 10
186.04527197664243
 20
264.55703830083291
 40
4.7000000412399707
 50
315
 51
134.99974060058594
  0
CIRCLE
  8
_e-1_
  6
CONTINUOUS
 62
    2
 10
186.04527197664243
 20
264.55703830083291
 40
1.4999999613375281
  0
CIRCLE
  8
_e-1_
  6
CONTINUOUS
 62
    2
 10
186.04527197664243
 20
264.55703830083291
 40
1.9000000051549966
  0
ARC
  8
_e-1_
  6
CONTINUOUS
 62
    2
 10
181.871862849742
 20
267.87895751008125
 40
0.5999999980668765
 50
229.36703491210935
 51
314.99999999999994
  0
ARC
  8
_e-1_
  6
CONTINUOUS
 62
    2
 10
181.871862849742
 20
267.87895751008125
 40
0.8000000199756108
 50
229.36703491210935
 51
292.66943359374994
  0
ARC
  8
_e-1_
  6
CONTINUOUS
 62
    2
 10
189.36715654431555
 20
260.3836638155077
 40
0.5999999980668765
 50
135
 51
220.63296508789062
  0
ARC
  8
_e-1_
  6
CONTINUOUS
 62
    2
 10
189.36715654431555
 20
260.3836638155077
 40
0.8000000199756108
 50
157.33056640625006
 51
220.63296508789068
  0
ARC
  8
_e-1_
  6
CONTINUOUS
 62
    2
 10
179.85087335438743
 20
265.65999141263615
 40
0.7600000291257291
 50
255.25358581542969
 51
315
  0
ARC
  8
_e-1_
  6
CONTINUOUS
 62
    2
 10
179.85087335438743
 20
265.65999141263615
 40
0.5999999980668765
 50
229.44329833984372
 51
315
  0
ARC
  8
_e-1_
  6
CONTINUOUS
 62
    2
 10
187.14819044687033
 20
258.36267432015296
 40
0.7600000291257291
 50
135
 51
194.74641418457031
  0
ARC
  8
_e-1_
  6
CONTINUOUS
 62
    2
 10
187.14819044687033
 20
258.36267432015296
 40
0.5999999980668765
 50
135
 51
220.55670166015628
  0
ARC
  8
_e-1_
  6
CONTINUOUS
 62
    2
 10
136.54776122125804
 20
215.05959682859893
 40
65.916634430756446
 50
40.844299316406243
 51
49.15592956542968
  0
ARC
  8
_e-1_
  6
CONTINUOUS
 62
    2
 10
136.54776122125804
 20
215.05959682859893
 40
69.000003092997787
 50
49.367233276367188
 51
130.63276672363281
  0
ARC
  8
_e-1_
  6
CONTINUOUS
 62
    2
 10
136.54776122125804
 20
215.05959682859893
 40
68.799995628563138
 50
49.367233276367188
 51
130.63276672363281
  0
ARC
  8
_e-1_
  6
CONTINUOUS
 62
    2
 10
136.54776122125804
 20
215.05957950781138
 40
65.999995051203555
 50
49.443557739257813
 51
130.55644226074219
  0
ARC
  8
_e-1_
  6
CONTINUOUS
 62
    2
 10
136.54776122125804
 20
145.45958000269098
 40
3.3999999664925245
 50
180
 51
0
  0
CIRCLE
  8
_e-1_
  6
CONTINUOUS
 62
    2
 10
136.54776122125804
 20
145.45958000269098
 40
1.1999999961337531
  0
ARC
  8
_e-1_
  6
CONTINUOUS
 62
    2
 10
140.54775462286284
 20
145.57462467382697
 40
0.5999999980668765
 50
93.293777465820312
 51
179.99984741210937
  0
ARC
  8
_e-1_
  6
CONTINUOUS
 62
    2
 10
132.54776781965325
 20
145.57462467382697
 40
0.5999999980668765
 50
0.0001525878906388
 51
86.706222534179702
  0
ARC
  8
_e-1_
  6
CONTINUOUS
 62
    2
 10
136.54776122125804
 20
215.05957950781138
 40
65.500000206199857
 50
359.99995422363281
 51
179.99992370605466
  0
ARC
  8
_e-1_
  6
CONTINUOUS
 62
    2
 10
136.54776122125804
 20
215.05957950781138
 40
64.500001855798686
 50
359.99995422363281
 51
179.99992370605466
  0
ARC
  8
_e-1_
  6
CONTINUOUS
 62
    2
 10
136.54776122125804
 20
215.05957950781138
 40
65.999995051203555
 50
139.4435729980469
 51
179.99992370605472
  0
ARC
  8
_e-1_
  6
CONTINUOUS
 62
    2
 10
136.54776122125804
 20
215.05959682859893
 40
68.799995628563138
 50
139.36724853515625
 51
179.99992370605469
  0
ARC
  8
_e-1_
  6
CONTINUOUS
 62
    2
 10
136.54776122125804
 20
215.05957950781138
 40
65.999995051203555
 50
359.99995422363281
 51
40.556427001953125
  0
ARC
  8
_e-1_
  6
CONTINUOUS
 62
    2
 10
136.54776122125804
 20
215.05959682859893
 40
68.799995628563138
 50
359.99992370605469
 51
40.632751464843736
  0
LINE
  8
_e-1_
  6
CONTINUOUS
 62
    2
 10
90.799282265386182
 20
162.66459800357958
 11
90.373536315584715
 21
162.23885403573146
  0
LINE
  8
_e-1_
  6
CONTINUOUS
 62
    2
 10
84.152480142694458
 20
169.31139642727945
 11
83.726768834467975
 21
168.88565245935067
  0
LINE
  8
_e-1_
  6
CONTINUOUS
 62
    2
 10
92.820276925667486
 20
164.88355939690288
 11
90.915228348251048
 21
162.97855432945678
  0
LINE
  8
_e-1_
  6
CONTINUOUS
 62
    2
 10
92.70713780451274
 20
164.99669904475095
 11
90.161391802965227
 21
162.45096489428525
  0
LINE
  8
_e-1_
  6
CONTINUOUS
 62
    2
 10
86.371485585824303
 20
171.33238075761611
 11
84.466540933214219
 21
169.42741033150313
  0
LINE
  8
_e-1_
  6
CONTINUOUS
 62
    2
 10
86.484624706979275
 20
171.21924110976803
 11
83.938878705512252
 21
168.67354160087748
  0
LINE
  8
_e-1_
  6
CENTER1
 62
    2
 10
84.446896222883652
 20
168.16552171854718
 11
89.653443568663761
 21
162.95895013487913
  0
LINE
  8
_e-1_
  6
CONTINUOUS
 62
    2
 10
182.29599626429399
 20
162.66438503308484
 11
182.7217748737171
 21
162.23863908320266
  0
LINE
  8
_e-1_
  6
CONTINUOUS
 62
    2
 10
188.94282932948818
 20
169.31115251412098
 11
189.36857329733652
 21
168.88540656431934
  0
LINE
  8
_e-1_
  6
CONTINUOUS
 62
    2
 10
180.27501193387661
 20
164.8833558346397
 11
182.18008628455368
 21
162.97834189863721
  0
LINE
  8
_e-1_
  6
CONTINUOUS
 62
    2
 10
180.38815158172474
 20
164.99649495579445
 11
182.93388573219045
 21
162.45074895424688
  0
LINE
  8
_e-1_
  6
CONTINUOUS
 62
    2
 10
186.72383329458967
 20
171.33214717448283
 11
188.62880372062205
 21
169.42716788029742
  0
LINE
  8
_e-1_
  6
CONTINUOUS
 62
    2
 10
186.61069364674177
 20
171.21900805332808
 11
189.15642779728796
 21
168.67329669335572
  0
LINE
  8
_e-1_
  6
CENTER1
 62
    2
 10
188.64840791495772
 20
168.16527917598444
 11
183.44183633128978
 21
162.95873183020433
  0
LINE
  8
_e-1_
  6
CENTER1
 62
    2
 10
182.5475436273714
 20
169.0596349226775
 11
190.37586320412402
 21
161.23127890297746
  0
ARC
  8
_e-1_
  6
CONTINUOUS
 62
    2
 10
87.050169895854197
 20
165.56227056828837
 40
4.3999996700802368
 50
134.9998666366258
 51
315.00014129482895
  0
ARC
  8
_e-1_
  6
CONTINUOUS
 62
    2
 10
87.050169895854197
 20
165.56227056828837
 40
4.7000000412399707
 50
134.99986663662582
 51
314.99960723721176
  0
CIRCLE
  8
_e-1_
  6
CONTINUOUS
 62
    2
 10
87.050169895854197
 20
165.56227056828837
 40
1.4999999613375281
  0
CIRCLE
  8
_e-1_
  6
CONTINUOUS
 62
    2
 10
87.050169895854197
 20
165.56227056828837
 40
1.9000000051549966
  0
ARC
  8
_e-1_
  6
CONTINUOUS
 62
    2
 10
91.223536648969457
 20
162.24034164497741
 40
0.5999999980668765
 50
49.366901548735214
 51
134.99986663662582
  0
ARC
  8
_e-1_
  6
CONTINUOUS
 62
    2
 10
91.223536648969457
 20
162.24034164497741
 40
0.8000000199756108
 50
49.366901548735214
 51
112.66930023037584
  0
ARC
  8
_e-1_
  6
CONTINUOUS
 62
    2
 10
83.728260400686395
 20
169.73565278580097
 40
0.5999999980668765
 50
314.99986663662582
 51
40.632831724516457
  0
ARC
  8
_e-1_
  6
CONTINUOUS
 62
    2
 10
83.728260400686395
 20
169.73565278580097
 40
0.8000000199756108
 50
337.33043304287582
 51
40.632831724516457
  0
ARC
  8
_e-1_
  6
CONTINUOUS
 62
    2
 10
93.244531309250533
 20
164.45930303830082
 40
0.7600000291257291
 50
75.253452452055512
 51
134.9998666366258
  0
ARC
  8
_e-1_
  6
CONTINUOUS
 62
    2
 10
93.244531309250533
 20
164.45930303830082
 40
0.5999999980668765
 50
49.443164976469546
 51
134.9998666366258
  0
ARC
  8
_e-1_
  6
CONTINUOUS
 62
    2
 10
85.947265843816467
 20
171.75663711613757
 40
0.7600000291257291
 50
314.99986663662582
 51
14.746280821196125
  0
ARC
  8
_e-1_
  6
CONTINUOUS
 62
    2
 10
85.947265843816467
 20
171.75663711613757
 40
0.5999999980668765
 50
314.99986663662582
 51
40.556568296782075
  0
ARC
  8
_e-1_
  6
CONTINUOUS
 62
    2
 10
136.54776122125804
 20
215.0595968285788
 40
65.916634430756446
 50
220.84416595303207
 51
229.15579620205551
  0
ARC
  8
_e-1_
  6
CONTINUOUS
 62
    2
 10
186.04515676477968
 20
165.56204014458893
 40
4.3999996700802368
 50
224.99959197842273
 51
44.999866636625882
  0
ARC
  8
_e-1_
  6
CONTINUOUS
 62
    2
 10
186.04515676477968
 20
165.56204014458893
 40
4.7000000412399707
 50
225.00012603603989
 51
44.999866636625825
  0
CIRCLE
  8
_e-1_
  6
CONTINUOUS
 62
    2
 10
186.04515676477968
 20
165.56204014458893
 40
1.4999999613375281
  0
CIRCLE
  8
_e-1_
  6
CONTINUOUS
 62
    2
 10
186.04515676477968
 20
165.56204014458893
 40
1.9000000051549966
  0
ARC
  8
_e-1_
  6
CONTINUOUS
 62
    2
 10
181.87173990569181
 20
162.24013064950179
 40
0.5999999980668765
 50
44.999866636625853
 51
130.63283172451648
  0
ARC
  8
_e-1_
  6
CONTINUOUS
 62
    2
 10
181.87173990569181
 20
162.24013064950179
 40
0.8000000199756108
 50
67.330433042875853
 51
130.63283172451648
  0
ARC
  8
_e-1_
  6
CONTINUOUS
 62
    2
 10
189.36705104651514
 20
169.73540689778469
 40
0.5999999980668765
 50
139.36690154873523
 51
224.99986663662582
  0
ARC
  8
_e-1_
  6
CONTINUOUS
 62
    2
 10
189.36705104651514
 20
169.73540689778469
 40
0.8000000199756108
 50
139.36690154873517
 51
202.6693002303758
  0
ARC
  8
_e-1_
  6
CONTINUOUS
 62
    2
 10
179.85075557527443
 20
164.45910145105665
 40
0.7600000291257291
 50
44.999866636625832
 51
104.74628082119615
  0
ARC
  8
_e-1_
  6
CONTINUOUS
 62
    2
 10
179.85075557527443
 20
164.45910145105665
 40
0.5999999980668765
 50
44.999866636625839
 51
130.5565682967821
  0
ARC
  8
_e-1_
  6
CONTINUOUS
 62
    2
 10
187.14808965319185
 20
171.75640155806599
 40
0.7600000291257291
 50
165.25345245205551
 51
224.9998666366258
  0
ARC
  8
_e-1_
  6
CONTINUOUS
 62
    2
 10
187.14808965319185
 20
171.75640155806599
 40
0.5999999980668765
 50
139.4431649764696
 51
224.99986663662585
  0
ARC
  8
_e-1_
  6
CONTINUOUS
 62
    2
 10
136.54776122125804
 20
215.0595968285788
 40
65.916634430756446
 50
310.84393707119619
 51
319.15556732021963
  0
ARC
  8
_e-1_
  6
CONTINUOUS
 62
    2
 10
136.54776122129829
 20
215.05961414936635
 40
65.500000206199857
 50
179.99994293057117
 51
359.99991241299301
  0
ARC
  8
_e-1_
  6
CONTINUOUS
 62
    2
 10
136.54776122129829
 20
215.05961414936635
 40
64.500001855798686
 50
179.99994293057117
 51
359.99991241299301
  0
ARC
  8
_e-1_
  6
CONTINUOUS
 62
    2
 10
136.54776122129829
 20
215.05961414936635
 40
65.999995051203555
 50
179.99994293057114
 51
220.55629363857895
  0
ARC
  8
_e-1_
  6
CONTINUOUS
 62
    2
 10
136.54776122125804
 20
215.0595968285788
 40
68.799995628563138
 50
179.99994293057114
 51
220.63261810146957
  0
ARC
  8
_e-1_
  6
CONTINUOUS
 62
    2
 10
136.54776122129829
 20
215.05961414936635
 40
65.999995051203555
 50
319.4434396346727
 51
359.99991241299301
  0
ARC
  8
_e-1_
  6
CONTINUOUS
 62
    2
 10
136.54776122125804
 20
215.0595968285788
 40
68.799995628563138
 50
319.36711517178213
 51
359.99994293057119
  0
ARC
  8
_e-1_
  6
CONTINUOUS
 62
    2
 10
136.54776122125804
 20
215.0595968285788
 40
69.000003092997787
 50
273.2946781618059
 51
310.63263336025864
  0
ARC
  8
_e-1_
  6
CONTINUOUS
 62
    2
 10
136.54776122125804
 20
215.0595968285788
 40
69.000003092997787
 50
229.36709991299301
 51
266.70532183819404
  0
ARC
  8
_e-1_
  6
CONTINUOUS
 62
    2
 10
136.54776122125804
 20
145.45958000269098
 40
2.9999999664925241
 50
180
 51
0
  0
ARC
  8
_e-1_
  6
CONTINUOUS
 62
    2
 10
136.54776122125804
 20
215.0595968285788
 40
68.799995628563138
 50
273.13880280366027
 51
310.63263336025864
  0
ARC
  8
_e-1_
  6
CONTINUOUS
 62
    2
 10
140.34776118775039
 20
145.76371388089399
 40
0.6
 50
93.138802803659758
 51
180
  0
LINE
  8
_e-1_
  6
CONTINUOUS
 62
    2
 10
139.74776118775048
 20
145.76371388089399
 11
139.74776118775048
 21
148.56811588774426
  0
ARC
  8
_e-1_
  6
CONTINUOUS
 62
    2
 10
136.54776122129829
 20
215.05961414936635
 40
65.999995051203555
 50
273.27090515770567
 51
310.55630889736801
  0
ARC
  8
_e-1_
  6
CONTINUOUS
 62
    2
 10
140.34776118775039
 20
148.56811588774426
 40
0.6
 50
93.270905157705968
 51
180
  0
LINE
  8
_e-1_
  6
CONTINUOUS
 62
    2
 10
139.54776118775044
 20
145.45958000269098
 11
139.54776118775044
 21
148.85742364494544
  0
ARC
  8
_e-1_
  6
CONTINUOUS
 62
    2
 10
140.14776118775058
 20
148.85742364494544
 40
0.6
 50
93.112613800049573
 51
180
  0
ARC
  8
_e-1_
  6
CONTINUOUS
 62
    2
 10
136.54776122129829
 20
215.05961414936635
 40
65.700000206199874
 50
266.69251134360292
 51
273.11261380004868
  0
ARC
  8
_e-1_
  6
CONTINUOUS
 62
    2
 10
132.5477704382572
 20
145.57462679893621
 40
0.5999999980668765
 50
0.0001221478835274
 51
86.706192094172593
  0
ARC
  8
_e-1_
  6
CONTINUOUS
 62
    2
 10
132.74776397382834
 20
145.76371589975093
 40
0.6
 50
359.99996955999291
 51
86.861166756333134
  0
LINE
  8
_e-1_
  6
CONTINUOUS
 62
    2
 10
133.34776397382825
 20
145.76371558098396
 11
133.34776546374633
 21
148.56811758783388
  0
ARC
  8
_e-1_
  6
CONTINUOUS
 62
    2
 10
132.74776546374642
 20
148.56811790660086
 40
0.6
 50
359.99996955999291
 51
86.729064402286923
  0
LINE
  8
_e-1_
  6
CONTINUOUS
 62
    2
 10
133.5477638122486
 20
145.45958159652531
 11
133.54776561744916
 21
148.85742523877931
  0
ARC
  8
_e-1_
  6
CONTINUOUS
 62
    2
 10
132.94776561744925
 20
148.85742555754629
 40
0.6
 50
359.99996955999291
 51
86.887355759943333
  0
ARC
  8
_e-1_
  6
CONTINUOUS
 62
    2
 10
136.54776122129829
 20
215.05961414936635
 40
65.999995051203555
 50
229.44342437588364
 51
266.7305201824758
  0
ARC
  8
_e-1_
  6
CONTINUOUS
 62
    2
 10
136.54776122125804
 20
215.0595968285788
 40
68.799995628563138
 50
229.36709991299301
 51
266.86253575394261
  0
CIRCLE
  8
_e-1_
  6
CONTINUOUS
 62
    2
 10
136.54776122125804
 20
145.45958000269098
 40
1.599999996133753
  0
LINE
  8
_e-2_
  6
CONTINUOUS
 62
    3
 10
154.147809417497
 20
221.85951286405222
 11
154.147809417497
 21
218.25956037249821
  0
LINE
  8
_e-2_
  6
CONTINUOUS
 62
    3
 10
155.74773056667368
 20
221.85951286405219
 11
155.74773056667368
 21
218.25956037249819
  0
LINE
  8
_e-2_
  6
CONTINUOUS
 62
    3
 10
155.74773056667368
 20
221.85951286405219
 11
154.147809417497
 21
221.85951286405222
  0
LINE
  8
_e-2_
  6
CONTINUOUS
 62
    3
 10
155.74773056667368
 20
218.25956037249819
 11
154.147809417497
 21
218.25956037249821
  0
LINE
  8
_e-2_
  6
CONTINUOUS
 62
    3
 10
162.34774739258137
 20
221.85947822247704
 11
162.34774739258137
 21
218.25952573092297
  0
LINE
  8
_e-2_
  6
CONTINUOUS
 62
    3
 10
156.74772891707494
 20
221.85947822247704
 11
162.34774739258137
 21
221.85947822247704
  0
LINE
  8
_e-2_
  6
CONTINUOUS
 62
    3
 10
156.74772891707494
 20
218.25952573092297
 11
162.34774739258137
 21
218.25952573092297
  0
LINE
  8
_e-2_
  6
CONTINUOUS
 62
    3
 10
163.34774574298285
 20
221.85947822247704
 11
163.34774574298285
 21
218.25952573092297
  0
LINE
  8
_e-2_
  6
CONTINUOUS
 62
    3
 10
164.94770153373429
 20
221.85947822247704
 11
164.94770153373429
 21
218.25952573092297
  0
LINE
  8
_e-2_
  6
CONTINUOUS
 62
    3
 10
164.94770153373429
 20
221.85947822247704
 11
163.34774574298285
 21
221.85947822247704
  0
LINE
  8
_e-2_
  6
CONTINUOUS
 62
    3
 10
164.94770153373429
 20
218.25952573092297
 11
163.34774574298285
 21
218.25952573092297
  0
LINE
  8
_e-2_
  6
CONTINUOUS
 62
    3
 10
156.74772891707494
 20
221.85947822247704
 11
156.74772891707494
 21
218.25952573092297
  0
LINE
  8
_e-2_
  6
CONTINUOUS
 62
    3
 10
181.74772231867951
 20
221.85947822247704
 11
181.74772231867951
 21
218.25952573092297
  0
LINE
  8
_e-2_
  6
CONTINUOUS
 62
    3
 10
183.34767810943117
 20
221.85947822247704
 11
183.34767810943117
 21
218.25952573092297
  0
LINE
  8
_e-2_
  6
CONTINUOUS
 62
    3
 10
183.34767810943117
 20
221.85947822247704
 11
181.74772231867951
 21
221.85947822247704
  0
LINE
  8
_e-2_
  6
CONTINUOUS
 62
    3
 10
183.34767810943117
 20
218.25952573092297
 11
181.74772231867951
 21
218.25952573092297
  0
LINE
  8
_e-2_
  6
CONTINUOUS
 62
    3
 10
189.94776421848951
 20
221.85947822247704
 11
189.94776421848951
 21
218.25952573092297
  0
LINE
  8
_e-2_
  6
CONTINUOUS
 62
    3
 10
184.34771110140764
 20
221.85947822247704
 11
189.94776421848951
 21
221.85947822247704
  0
LINE
  8
_e-2_
  6
CONTINUOUS
 62
    3
 10
184.34771110140764
 20
218.25952573092297
 11
189.94776421848951
 21
218.25952573092297
  0
LINE
  8
_e-2_
  6
CONTINUOUS
 62
    3
 10
190.94772792731533
 20
221.85947822247704
 11
190.94772792731533
 21
218.25952573092297
  0
LINE
  8
_e-2_
  6
CONTINUOUS
 62
    3
 10
192.54771835964243
 20
221.85947822247704
 11
192.54771835964243
 21
218.25952573092297
  0
LINE
  8
_e-2_
  6
CONTINUOUS
 62
    3
 10
192.54771835964243
 20
221.85947822247704
 11
190.94772792731533
 21
221.85947822247704
  0
LINE
  8
_e-2_
  6
CONTINUOUS
 62
    3
 10
192.54771835964243
 20
218.25952573092297
 11
190.94772792731533
 21
218.25952573092297
  0
LINE
  8
_e-2_
  6
CONTINUOUS
 62
    3
 10
184.34771110140764
 20
221.85947822247704
 11
184.34771110140764
 21
218.25952573092297
  0
LINE
  8
_e-2_
  6
CONTINUOUS
 62
    3
 10
193.54771671004346
 20
221.85947822247704
 11
193.54771671004346
 21
218.25952573092297
  0
LINE
  8
_e-2_
  6
CONTINUOUS
 62
    3
 10
158.94774607290265
 20
223.25950016214125
 11
158.94774607290265
 21
226.85950461605813
  0
LINE
  8
_e-2_
  6
CONTINUOUS
 62
    3
 10
160.14773023675389
 20
223.25950016214125
 11
160.14773023675389
 21
226.85950461605813
  0
LINE
  8
_e-2_
  6
CONTINUOUS
 62
    3
 10
168.14768239838804
 20
223.25950016214125
 11
168.14768239838804
 21
226.85950461605813
  0
LINE
  8
_e-2_
  6
CONTINUOUS
 62
    3
 10
168.14768239838804
 20
226.85950461605813
 11
160.14773023675389
 21
226.85950461605813
  0
LINE
  8
_e-2_
  6
CONTINUOUS
 62
    3
 10
160.14773023675389
 20
223.25950016214125
 11
168.14768239838804
 21
223.25950016214125
  0
LINE
  8
_e-2_
  6
CONTINUOUS
 62
    3
 10
169.34777048696515
 20
223.25950016214125
 11
169.34777048696515
 21
226.85950461605813
  0
LINE
  8
_e-2_
  6
CONTINUOUS
 62
    3
 10
177.34772264859907
 20
223.25950016214125
 11
177.34772264859907
 21
226.85950461605813
  0
LINE
  8
_e-2_
  6
CONTINUOUS
 62
    3
 10
177.34772264859907
 20
226.85950461605813
 11
169.34777048696515
 21
226.85950461605813
  0
LINE
  8
_e-2_
  6
CONTINUOUS
 62
    3
 10
169.34777048696515
 20
223.25950016214125
 11
177.34772264859907
 21
223.25950016214125
  0
LINE
  8
_e-2_
  6
CONTINUOUS
 62
    3
 10
178.54774145402575
 20
223.25950016214125
 11
178.54774145402575
 21
226.85950461605813
  0
LINE
  8
_e-2_
  6
CONTINUOUS
 62
    3
 10
186.54772825723512
 20
223.25950016214119
 11
186.54772825723512
 21
226.85950461605813
  0
LINE
  8
_e-2_
  6
CONTINUOUS
 62
    3
 10
186.54772825723512
 20
226.85950461605813
 11
178.54774145402575
 21
226.85950461605813
  0
LINE
  8
_e-2_
  6
CONTINUOUS
 62
    3
 10
178.54774145402575
 20
223.25950016214125
 11
186.54772825723512
 21
223.25950016214119
  0
LINE
  8
_e-2_
  6
CONTINUOUS
 62
    3
 10
187.74774706266157
 20
223.25950016214119
 11
187.74774706266157
 21
226.85950461605813
  0
LINE
  8
_e-2_
  6
CONTINUOUS
 62
    3
 10
140.54773485563055
 20
233.25953562851592
 11
140.54773485563055
 21
236.85948812006995
  0
LINE
  8
_e-2_
  6
CONTINUOUS
 62
    3
 10
141.747753661057
 20
233.25953562851592
 11
141.747753661057
 21
236.85948812006995
  0
LINE
  8
_e-2_
  6
CONTINUOUS
 62
    3
 10
149.74774046426637
 20
233.25953562851592
 11
149.74774046426637
 21
236.85948812006995
  0
LINE
  8
_e-2_
  6
CONTINUOUS
 62
    3
 10
149.74774046426637
 20
236.85948812006995
 11
141.747753661057
 21
236.85948812006995
  0
LINE
  8
_e-2_
  6
CONTINUOUS
 62
    3
 10
141.747753661057
 20
233.25953562851592
 11
149.74774046426637
 21
233.25953562851592
  0
LINE
  8
_e-2_
  6
CONTINUOUS
 62
    3
 10
143.9477361753095
 20
241.85951451365096
 11
143.9477361753095
 21
238.25949273894662
  0
LINE
  8
_e-2_
  6
CONTINUOUS
 62
    3
 10
138.34775234137783
 20
241.85951451365096
 11
143.9477361753095
 21
241.85951451365096
  0
LINE
  8
_e-2_
  6
CONTINUOUS
 62
    3
 10
138.34775234137783
 20
238.25949273894662
 11
143.9477361753095
 21
238.25949273894662
  0
LINE
  8
_e-2_
  6
CONTINUOUS
 62
    3
 10
144.94773452571076
 20
241.85951451365096
 11
144.94773452571076
 21
238.25949273894662
  0
LINE
  8
_e-2_
  6
CONTINUOUS
 62
    3
 10
146.54779424118783
 20
241.85951451365096
 11
146.54779424118783
 21
238.25949273894662
  0
LINE
  8
_e-2_
  6
CONTINUOUS
 62
    3
 10
146.54779424118783
 20
241.85951451365096
 11
144.94773452571076
 21
241.85951451365096
  0
LINE
  8
_e-2_
  6
CONTINUOUS
 62
    3
 10
146.54779424118783
 20
238.25949273894662
 11
144.94773452571076
 21
238.25949273894662
  0
LINE
  8
_e-2_
  6
CONTINUOUS
 62
    3
 10
138.34775234137783
 20
241.85951451365096
 11
138.34775234137783
 21
238.25949273894662
  0
LINE
  8
_e-2_
  6
CONTINUOUS
 62
    3
 10
137.3477539909768
 20
241.85951451365096
 11
137.3477539909768
 21
238.25949273894662
  0
LINE
  8
_e-2_
  6
CONTINUOUS
 62
    3
 10
140.54773485563055
 20
243.25951913252774
 11
140.54773485563055
 21
246.85954090723214
  0
LINE
  8
_e-2_
  6
CONTINUOUS
 62
    3
 10
141.747753661057
 20
243.25951913252774
 11
141.747753661057
 21
246.85954090723214
  0
LINE
  8
_e-2_
  6
CONTINUOUS
 62
    3
 10
149.74774046426637
 20
243.25951913252774
 11
149.74774046426637
 21
246.85954090723214
  0
LINE
  8
_e-2_
  6
CONTINUOUS
 62
    3
 10
149.74774046426637
 20
246.85954090723214
 11
141.747753661057
 21
246.85954090723214
  0
LINE
  8
_e-2_
  6
CONTINUOUS
 62
    3
 10
141.747753661057
 20
243.25951913252774
 11
149.74774046426637
 21
243.25951913252774
  0
LINE
  8
_e-2_
  6
CONTINUOUS
 62
    3
 10
143.9477361753095
 20
251.85956730081315
 11
143.9477361753095
 21
248.25951088453371
  0
LINE
  8
_e-2_
  6
CONTINUOUS
 62
    3
 10
138.34775234137783
 20
251.85956730081315
 11
143.9477361753095
 21
251.85956730081315
  0
LINE
  8
_e-2_
  6
CONTINUOUS
 62
    3
 10
138.34775234137783
 20
248.25951088453371
 11
143.9477361753095
 21
248.25951088453371
  0
LINE
  8
_e-2_
  6
CONTINUOUS
 62
    3
 10
144.94773452571076
 20
251.85956730081315
 11
144.94773452571076
 21
248.25951088453371
  0
LINE
  8
_e-2_
  6
CONTINUOUS
 62
    3
 10
146.54779424118783
 20
251.85956730081315
 11
146.54779424118783
 21
248.25951088453371
  0
LINE
  8
_e-2_
  6
CONTINUOUS
 62
    3
 10
146.54779424118783
 20
251.85956730081315
 11
144.94773452571076
 21
251.85956730081315
  0
LINE
  8
_e-2_
  6
CONTINUOUS
 62
    3
 10
146.54779424118783
 20
248.25951088453371
 11
144.94773452571076
 21
248.25951088453371
  0
LINE
  8
_e-2_
  6
CONTINUOUS
 62
    3
 10
138.34775234137783
 20
251.85956730081315
 11
138.34775234137783
 21
248.25951088453371
  0
LINE
  8
_e-2_
  6
CONTINUOUS
 62
    3
 10
137.3477539909768
 20
251.85956730081315
 11
137.3477539909768
 21
248.25951088453371
  0
LINE
  8
_e-2_
  6
CONTINUOUS
 62
    3
 10
140.54773485563055
 20
253.25957191968996
 11
140.54773485563055
 21
256.85952441124402
  0
LINE
  8
_e-2_
  6
CONTINUOUS
 62
    3
 10
141.747753661057
 20
253.25957191968996
 11
141.747753661057
 21
256.85952441124402
  0
LINE
  8
_e-2_
  6
CONTINUOUS
 62
    3
 10
149.74774046426637
 20
253.25957191968996
 11
149.74774046426637
 21
256.85952441124402
  0
LINE
  8
_e-2_
  6
CONTINUOUS
 62
    3
 10
149.74774046426637
 20
256.85952441124402
 11
141.747753661057
 21
256.85952441124402
  0
LINE
  8
_e-2_
  6
CONTINUOUS
 62
    3
 10
141.747753661057
 20
253.25957191968996
 11
149.74774046426637
 21
253.25957191968996
  0
LINE
  8
_e-2_
  6
CONTINUOUS
 62
    3
 10
143.9477361753095
 20
261.85951616324985
 11
143.9477361753095
 21
258.25956367169579
  0
LINE
  8
_e-2_
  6
CONTINUOUS
 62
    3
 10
138.34778698295304
 20
261.85951616324985
 11
143.9477361753095
 21
261.85951616324985
  0
LINE
  8
_e-2_
  6
CONTINUOUS
 62
    3
 10
138.34778698295304
 20
258.25956367169579
 11
143.9477361753095
 21
258.25956367169579
  0
LINE
  8
_e-2_
  6
CONTINUOUS
 62
    3
 10
144.94773452571076
 20
261.85951616324985
 11
144.94773452571076
 21
258.25956367169579
  0
LINE
  8
_e-2_
  6
CONTINUOUS
 62
    3
 10
146.54779424118783
 20
261.85951616324985
 11
146.54779424118783
 21
258.25956367169579
  0
LINE
  8
_e-2_
  6
CONTINUOUS
 62
    3
 10
146.54779424118783
 20
261.85951616324985
 11
144.94773452571076
 21
261.85951616324985
  0
LINE
  8
_e-2_
  6
CONTINUOUS
 62
    3
 10
146.54779424118783
 20
258.25956367169579
 11
144.94773452571076
 21
258.25956367169579
  0
LINE
  8
_e-2_
  6
CONTINUOUS
 62
    3
 10
138.34778698295304
 20
261.85951616324985
 11
138.34778698295304
 21
258.25956367169579
  0
LINE
  8
_e-2_
  6
CONTINUOUS
 62
    3
 10
137.3477539909768
 20
261.85951616324985
 11
137.3477539909768
 21
258.25956367169579
  0
LINE
  8
_e-2_
  6
CONTINUOUS
 62
    3
 10
140.54773485563055
 20
263.25952078212651
 11
140.54773485563055
 21
266.85954255683089
  0
LINE
  8
_e-2_
  6
CONTINUOUS
 62
    3
 10
141.747753661057
 20
263.25952078212651
 11
141.747753661057
 21
266.85954255683089
  0
LINE
  8
_e-2_
  6
CONTINUOUS
 62
    3
 10
149.74774046426637
 20
263.25952078212651
 11
149.74774046426637
 21
266.85954255683089
  0
LINE
  8
_e-2_
  6
CONTINUOUS
 62
    3
 10
149.74774046426637
 20
266.85954255683089
 11
141.747753661057
 21
266.85954255683089
  0
LINE
  8
_e-2_
  6
CONTINUOUS
 62
    3
 10
141.747753661057
 20
263.25952078212651
 11
149.74774046426637
 21
263.25952078212651
  0
LINE
  8
_e-2_
  6
CONTINUOUS
 62
    3
 10
154.147809417497
 20
231.85960029278957
 11
154.147809417497
 21
228.25957851808514
  0
LINE
  8
_e-2_
  6
CONTINUOUS
 62
    3
 10
155.74773056667368
 20
231.85960029278954
 11
155.74773056667368
 21
228.25957851808511
  0
LINE
  8
_e-2_
  6
CONTINUOUS
 62
    3
 10
155.74773056667368
 20
231.85960029278954
 11
154.147809417497
 21
231.85960029278957
  0
LINE
  8
_e-2_
  6
CONTINUOUS
 62
    3
 10
155.74773056667368
 20
228.25957851808511
 11
154.147809417497
 21
228.25957851808514
  0
LINE
  8
_e-2_
  6
CONTINUOUS
 62
    3
 10
162.34774739258137
 20
231.85953100963923
 11
162.34774739258137
 21
228.25957851808511
  0
LINE
  8
_e-2_
  6
CONTINUOUS
 62
    3
 10
156.74772891707494
 20
231.85953100963923
 11
162.34774739258137
 21
231.85953100963923
  0
LINE
  8
_e-2_
  6
CONTINUOUS
 62
    3
 10
156.74772891707494
 20
228.25957851808511
 11
162.34774739258137
 21
228.25957851808511
  0
LINE
  8
_e-2_
  6
CONTINUOUS
 62
    3
 10
163.34774574298285
 20
231.85953100963923
 11
163.34774574298285
 21
228.25957851808511
  0
LINE
  8
_e-2_
  6
CONTINUOUS
 62
    3
 10
164.94770153373429
 20
231.85953100963923
 11
164.94770153373429
 21
228.25957851808511
  0
LINE
  8
_e-2_
  6
CONTINUOUS
 62
    3
 10
164.94770153373429
 20
231.85953100963923
 11
163.34774574298285
 21
231.85953100963923
  0
LINE
  8
_e-2_
  6
CONTINUOUS
 62
    3
 10
164.94770153373429
 20
228.25957851808511
 11
163.34774574298285
 21
228.25957851808511
  0
LINE
  8
_e-2_
  6
CONTINUOUS
 62
    3
 10
156.74772891707494
 20
231.85953100963923
 11
156.74772891707494
 21
228.25957851808511
  0
LINE
  8
_e-2_
  6
CONTINUOUS
 62
    3
 10
171.54768371806722
 20
231.85953100963923
 11
171.54768371806722
 21
228.25957851808511
  0
LINE
  8
_e-2_
  6
CONTINUOUS
 62
    3
 10
165.94773452571076
 20
231.85953100963923
 11
171.54768371806722
 21
231.85953100963923
  0
LINE
  8
_e-2_
  6
CONTINUOUS
 62
    3
 10
165.94773452571076
 20
228.25957851808511
 11
171.54768371806722
 21
228.25957851808511
  0
LINE
  8
_e-2_
  6
CONTINUOUS
 62
    3
 10
172.54771671004346
 20
231.85953100963923
 11
172.54771671004346
 21
228.25957851808511
  0
LINE
  8
_e-2_
  6
CONTINUOUS
 62
    3
 10
174.14774178394555
 20
231.85953100963923
 11
174.14774178394555
 21
228.25957851808511
  0
LINE
  8
_e-2_
  6
CONTINUOUS
 62
    3
 10
174.14774178394555
 20
231.85953100963923
 11
172.54771671004346
 21
231.85953100963923
  0
LINE
  8
_e-2_
  6
CONTINUOUS
 62
    3
 10
174.14774178394555
 20
228.25957851808511
 11
172.54771671004346
 21
228.25957851808511
  0
LINE
  8
_e-2_
  6
CONTINUOUS
 62
    3
 10
165.94773452571076
 20
231.85953100963923
 11
165.94773452571076
 21
228.25957851808511
  0
LINE
  8
_e-2_
  6
CONTINUOUS
 62
    3
 10
180.74772396827825
 20
231.85953100963911
 11
180.74772396827825
 21
228.25957851808511
  0
LINE
  8
_e-2_
  6
CONTINUOUS
 62
    3
 10
175.14774013434658
 20
231.85953100963911
 11
180.74772396827825
 21
231.85953100963911
  0
LINE
  8
_e-2_
  6
CONTINUOUS
 62
    3
 10
175.14774013434658
 20
228.25957851808511
 11
180.74772396827825
 21
228.25957851808511
  0
LINE
  8
_e-2_
  6
CONTINUOUS
 62
    3
 10
181.74772231867951
 20
231.85953100963911
 11
181.74772231867951
 21
228.25957851808511
  0
LINE
  8
_e-2_
  6
CONTINUOUS
 62
    3
 10
183.34767810943117
 20
231.85953100963911
 11
183.34767810943117
 21
228.25957851808511
  0
LINE
  8
_e-2_
  6
CONTINUOUS
 62
    3
 10
183.34767810943117
 20
231.85953100963911
 11
181.74772231867951
 21
231.85953100963911
  0
LINE
  8
_e-2_
  6
CONTINUOUS
 62
    3
 10
183.34767810943117
 20
228.25957851808511
 11
181.74772231867951
 21
228.25957851808511
  0
LINE
  8
_e-2_
  6
CONTINUOUS
 62
    3
 10
175.14774013434658
 20
231.85953100963923
 11
175.14774013434658
 21
228.25957851808511
  0
LINE
  8
_e-2_
  6
CONTINUOUS
 62
    3
 10
189.94776421848951
 20
231.85953100963911
 11
189.94776421848951
 21
228.25957851808511
  0
LINE
  8
_e-2_
  6
CONTINUOUS
 62
    3
 10
184.34771110140764
 20
231.85953100963911
 11
189.94776421848951
 21
231.85953100963911
  0
LINE
  8
_e-2_
  6
CONTINUOUS
 62
    3
 10
184.34771110140764
 20
228.25957851808511
 11
189.94776421848951
 21
228.25957851808511
  0
LINE
  8
_e-2_
  6
CONTINUOUS
 62
    3
 10
190.94772792731533
 20
231.85953100963911
 11
190.94772792731533
 21
228.25957851808511
  0
LINE
  8
_e-2_
  6
CONTINUOUS
 62
    3
 10
192.54771835964243
 20
231.85953100963911
 11
192.54771835964243
 21
228.25957851808511
  0
LINE
  8
_e-2_
  6
CONTINUOUS
 62
    3
 10
192.54771835964243
 20
231.85953100963911
 11
190.94772792731533
 21
231.85953100963911
  0
LINE
  8
_e-2_
  6
CONTINUOUS
 62
    3
 10
192.54771835964243
 20
228.25957851808511
 11
190.94772792731533
 21
228.25957851808511
  0
LINE
  8
_e-2_
  6
CONTINUOUS
 62
    3
 10
184.34771110140764
 20
231.85953100963911
 11
184.34771110140764
 21
228.25957851808511
  0
LINE
  8
_e-2_
  6
CONTINUOUS
 62
    3
 10
193.54771671004346
 20
231.85953100963911
 11
193.54771671004346
 21
228.25957851808511
  0
LINE
  8
_e-2_
  6
CONTINUOUS
 62
    3
 10
150.94775926969305
 20
233.25953562851592
 11
150.94775926969305
 21
236.85948812006995
  0
LINE
  8
_e-2_
  6
CONTINUOUS
 62
    3
 10
158.94774607290265
 20
233.25953562851589
 11
158.94774607290265
 21
236.85948812006995
  0
LINE
  8
_e-2_
  6
CONTINUOUS
 62
    3
 10
158.94774607290265
 20
236.85948812006995
 11
150.94775926969305
 21
236.85948812006995
  0
LINE
  8
_e-2_
  6
CONTINUOUS
 62
    3
 10
150.94775926969305
 20
233.25953562851592
 11
158.94774607290265
 21
233.25953562851589
  0
LINE
  8
_e-2_
  6
CONTINUOUS
 62
    3
 10
160.14773023675389
 20
233.25953562851589
 11
160.14773023675389
 21
236.85948812006995
  0
LINE
  8
_e-2_
  6
CONTINUOUS
 62
    3
 10
168.14768239838804
 20
233.25953562851589
 11
168.14768239838804
 21
236.85948812006995
  0
LINE
  8
_e-2_
  6
CONTINUOUS
 62
    3
 10
168.14768239838804
 20
236.85948812006995
 11
160.14773023675389
 21
236.85948812006995
  0
LINE
  8
_e-2_
  6
CONTINUOUS
 62
    3
 10
160.14773023675389
 20
233.25953562851589
 11
168.14768239838804
 21
233.25953562851589
  0
LINE
  8
_e-2_
  6
CONTINUOUS
 62
    3
 10
169.34777048696515
 20
233.25953562851589
 11
169.34777048696515
 21
236.85948812006995
  0
LINE
  8
_e-2_
  6
CONTINUOUS
 62
    3
 10
177.34772264859907
 20
233.25953562851589
 11
177.34772264859907
 21
236.85948812006995
  0
LINE
  8
_e-2_
  6
CONTINUOUS
 62
    3
 10
177.34772264859907
 20
236.85948812006995
 11
169.34777048696515
 21
236.85948812006995
  0
LINE
  8
_e-2_
  6
CONTINUOUS
 62
    3
 10
169.34777048696515
 20
233.25953562851589
 11
177.34772264859907
 21
233.25953562851589
  0
LINE
  8
_e-2_
  6
CONTINUOUS
 62
    3
 10
178.54774145402575
 20
233.25953562851589
 11
178.54774145402575
 21
236.85948812006995
  0
LINE
  8
_e-2_
  6
CONTINUOUS
 62
    3
 10
186.54772825723512
 20
233.25953562851589
 11
186.54772825723512
 21
236.85948812006995
  0
LINE
  8
_e-2_
  6
CONTINUOUS
 62
    3
 10
186.54772825723512
 20
236.85948812006995
 11
178.54774145402575
 21
236.85948812006995
  0
LINE
  8
_e-2_
  6
CONTINUOUS
 62
    3
 10
178.54774145402575
 20
233.25953562851589
 11
186.54772825723512
 21
233.25953562851589
  0
LINE
  8
_e-2_
  6
CONTINUOUS
 62
    3
 10
187.74774706266157
 20
233.25953562851589
 11
187.74774706266157
 21
236.85948812006995
  0
LINE
  8
_e-2_
  6
CONTINUOUS
 62
    3
 10
153.14781106709597
 20
241.85951451365096
 11
153.14781106709597
 21
238.25949273894662
  0
LINE
  8
_e-2_
  6
CONTINUOUS
 62
    3
 10
147.54779259158909
 20
241.85951451365096
 11
153.14781106709597
 21
241.85951451365096
  0
LINE
  8
_e-2_
  6
CONTINUOUS
 62
    3
 10
147.54779259158909
 20
238.25949273894662
 11
153.14781106709597
 21
238.25949273894662
  0
LINE
  8
_e-2_
  6
CONTINUOUS
 62
    3
 10
154.147809417497
 20
241.85951451365096
 11
154.147809417497
 21
238.25949273894662
  0
LINE
  8
_e-2_
  6
CONTINUOUS
 62
    3
 10
155.74773056667368
 20
241.85951451365096
 11
155.74773056667368
 21
238.25949273894662
  0
LINE
  8
_e-2_
  6
CONTINUOUS
 62
    3
 10
155.74773056667368
 20
241.85951451365096
 11
154.147809417497
 21
241.85951451365096
  0
LINE
  8
_e-2_
  6
CONTINUOUS
 62
    3
 10
155.74773056667368
 20
238.25949273894662
 11
154.147809417497
 21
238.25949273894662
  0
LINE
  8
_e-2_
  6
CONTINUOUS
 62
    3
 10
147.54779259158909
 20
241.85951451365096
 11
147.54779259158909
 21
238.25949273894662
  0
LINE
  8
_e-2_
  6
CONTINUOUS
 62
    3
 10
162.34774739258137
 20
241.85951451365096
 11
162.34774739258137
 21
238.25949273894662
  0
LINE
  8
_e-2_
  6
CONTINUOUS
 62
    3
 10
156.74772891707494
 20
241.85951451365096
 11
162.34774739258137
 21
241.85951451365096
  0
LINE
  8
_e-2_
  6
CONTINUOUS
 62
    3
 10
156.74772891707494
 20
238.25949273894662
 11
162.34774739258137
 21
238.25949273894662
  0
LINE
  8
_e-2_
  6
CONTINUOUS
 62
    3
 10
163.34774574298285
 20
241.85951451365096
 11
163.34774574298285
 21
238.25949273894662
  0
LINE
  8
_e-2_
  6
CONTINUOUS
 62
    3
 10
164.94777081688471
 20
241.85951451365096
 11
164.94777081688471
 21
238.25949273894662
  0
LINE
  8
_e-2_
  6
CONTINUOUS
 62
    3
 10
164.94777081688471
 20
241.85951451365096
 11
163.34774574298285
 21
241.85951451365096
  0
LINE
  8
_e-2_
  6
CONTINUOUS
 62
    3
 10
164.94777081688471
 20
238.25949273894662
 11
163.34774574298285
 21
238.25949273894662
  0
LINE
  8
_e-2_
  6
CONTINUOUS
 62
    3
 10
156.74772891707494
 20
241.85951451365096
 11
156.74772891707494
 21
238.25949273894662
  0
LINE
  8
_e-2_
  6
CONTINUOUS
 62
    3
 10
171.54775300121764
 20
241.85951451365096
 11
171.54775300121764
 21
238.25949273894662
  0
LINE
  8
_e-2_
  6
CONTINUOUS
 62
    3
 10
165.94773452571076
 20
241.85951451365096
 11
171.54775300121764
 21
241.85951451365096
  0
LINE
  8
_e-2_
  6
CONTINUOUS
 62
    3
 10
165.94773452571076
 20
238.25949273894662
 11
171.54775300121764
 21
238.25949273894662
  0
LINE
  8
_e-2_
  6
CONTINUOUS
 62
    3
 10
172.54771671004346
 20
241.85951451365096
 11
172.54771671004346
 21
238.25949273894662
  0
LINE
  8
_e-2_
  6
CONTINUOUS
 62
    3
 10
174.14774178394555
 20
241.85951451365096
 11
174.14774178394555
 21
238.25949273894662
  0
LINE
  8
_e-2_
  6
CONTINUOUS
 62
    3
 10
174.14774178394555
 20
241.85951451365096
 11
172.54771671004346
 21
241.85951451365096
  0
LINE
  8
_e-2_
  6
CONTINUOUS
 62
    3
 10
174.14774178394555
 20
238.25949273894662
 11
172.54771671004346
 21
238.25949273894662
  0
LINE
  8
_e-2_
  6
CONTINUOUS
 62
    3
 10
165.94773452571076
 20
241.85951451365096
 11
165.94773452571076
 21
238.25949273894662
  0
LINE
  8
_e-2_
  6
CONTINUOUS
 62
    3
 10
180.74772396827825
 20
241.85951451365096
 11
180.74772396827825
 21
238.25949273894662
  0
LINE
  8
_e-2_
  6
CONTINUOUS
 62
    3
 10
175.147809417497
 20
241.85951451365096
 11
180.74772396827825
 21
241.85951451365096
  0
LINE
  8
_e-2_
  6
CONTINUOUS
 62
    3
 10
175.147809417497
 20
238.25949273894662
 11
180.74772396827825
 21
238.25949273894662
  0
LINE
  8
_e-2_
  6
CONTINUOUS
 62
    3
 10
181.74772231867951
 20
241.85951451365096
 11
181.74772231867951
 21
238.25949273894662
  0
LINE
  8
_e-2_
  6
CONTINUOUS
 62
    3
 10
183.34774739258137
 20
241.85951451365094
 11
183.34774739258137
 21
238.25949273894662
  0
LINE
  8
_e-2_
  6
CONTINUOUS
 62
    3
 10
183.34774739258137
 20
241.85951451365094
 11
181.74772231867951
 21
241.85951451365096
  0
LINE
  8
_e-2_
  6
CONTINUOUS
 62
    3
 10
183.34774739258137
 20
238.25949273894662
 11
181.74772231867951
 21
238.25949273894662
  0
LINE
  8
_e-2_
  6
CONTINUOUS
 62
    3
 10
175.147809417497
 20
241.85951451365096
 11
175.147809417497
 21
238.25949273894662
  0
LINE
  8
_e-2_
  6
CONTINUOUS
 62
    3
 10
189.94776421848951
 20
241.85951451365094
 11
189.94776421848951
 21
238.25949273894662
  0
LINE
  8
_e-2_
  6
CONTINUOUS
 62
    3
 10
184.34771110140764
 20
241.85951451365094
 11
189.94776421848951
 21
241.85951451365094
  0
LINE
  8
_e-2_
  6
CONTINUOUS
 62
    3
 10
184.34771110140764
 20
238.25949273894662
 11
189.94776421848951
 21
238.25949273894662
  0
LINE
  8
_e-2_
  6
CONTINUOUS
 62
    3
 10
184.34771110140764
 20
241.85951451365094
 11
184.34771110140764
 21
238.25949273894662
  0
LINE
  8
_e-2_
  6
CONTINUOUS
 62
    3
 10
150.94779391126826
 20
243.25951913252774
 11
150.94779391126826
 21
246.85954090723214
  0
LINE
  8
_e-2_
  6
CONTINUOUS
 62
    3
 10
158.94774607290265
 20
243.25948449095256
 11
158.94774607290265
 21
246.85954090723214
  0
LINE
  8
_e-2_
  6
CONTINUOUS
 62
    3
 10
158.94774607290265
 20
246.85954090723214
 11
150.94779391126826
 21
246.85954090723214
  0
LINE
  8
_e-2_
  6
CONTINUOUS
 62
    3
 10
150.94779391126826
 20
243.25951913252774
 11
158.94774607290265
 21
243.25948449095256
  0
LINE
  8
_e-2_
  6
CONTINUOUS
 62
    3
 10
160.14773023675389
 20
243.25948449095256
 11
160.14773023675389
 21
246.85954090723214
  0
LINE
  8
_e-2_
  6
CONTINUOUS
 62
    3
 10
168.14775168153847
 20
243.25948449095256
 11
168.14775168153847
 21
246.85954090723214
  0
LINE
  8
_e-2_
  6
CONTINUOUS
 62
    3
 10
168.14775168153847
 20
246.85954090723214
 11
160.14773023675389
 21
246.85954090723214
  0
LINE
  8
_e-2_
  6
CONTINUOUS
 62
    3
 10
160.14773023675389
 20
243.25948449095256
 11
168.14775168153847
 21
243.25948449095256
  0
LINE
  8
_e-2_
  6
CONTINUOUS
 62
    3
 10
169.34777048696515
 20
243.25948449095256
 11
169.34777048696515
 21
246.85954090723214
  0
LINE
  8
_e-2_
  6
CONTINUOUS
 62
    3
 10
177.34772264859907
 20
243.25948449095256
 11
177.34772264859907
 21
246.85954090723214
  0
LINE
  8
_e-2_
  6
CONTINUOUS
 62
    3
 10
177.34772264859907
 20
246.85954090723214
 11
169.34777048696515
 21
246.85954090723214
  0
LINE
  8
_e-2_
  6
CONTINUOUS
 62
    3
 10
169.34777048696515
 20
243.25948449095256
 11
177.34772264859907
 21
243.25948449095256
  0
LINE
  8
_e-2_
  6
CONTINUOUS
 62
    3
 10
178.54774145402575
 20
243.25948449095256
 11
178.54774145402575
 21
246.85954090723214
  0
LINE
  8
_e-2_
  6
CONTINUOUS
 62
    3
 10
186.54776289881033
 20
243.25948449095256
 11
186.54776289881033
 21
246.85954090723214
  0
LINE
  8
_e-2_
  6
CONTINUOUS
 62
    3
 10
186.54776289881033
 20
246.85954090723214
 11
178.54774145402575
 21
246.85954090723214
  0
LINE
  8
_e-2_
  6
CONTINUOUS
 62
    3
 10
178.54774145402575
 20
243.25948449095256
 11
186.54776289881033
 21
243.25948449095256
  0
LINE
  8
_e-2_
  6
CONTINUOUS
 62
    3
 10
153.14781106709597
 20
251.85956730081315
 11
153.14781106709597
 21
248.25951088453371
  0
LINE
  8
_e-2_
  6
CONTINUOUS
 62
    3
 10
147.54779259158909
 20
251.85956730081315
 11
153.14781106709597
 21
251.85956730081315
  0
LINE
  8
_e-2_
  6
CONTINUOUS
 62
    3
 10
147.54779259158909
 20
248.25951088453371
 11
153.14781106709597
 21
248.25951088453371
  0
LINE
  8
_e-2_
  6
CONTINUOUS
 62
    3
 10
154.147809417497
 20
251.85956730081315
 11
154.147809417497
 21
248.25951088453371
  0
LINE
  8
_e-2_
  6
CONTINUOUS
 62
    3
 10
155.74773056667368
 20
251.85956730081315
 11
155.74773056667368
 21
248.25951088453371
  0
LINE
  8
_e-2_
  6
CONTINUOUS
 62
    3
 10
155.74773056667368
 20
251.85956730081315
 11
154.147809417497
 21
251.85956730081315
  0
LINE
  8
_e-2_
  6
CONTINUOUS
 62
    3
 10
155.74773056667368
 20
248.25951088453371
 11
154.147809417497
 21
248.25951088453371
  0
LINE
  8
_e-2_
  6
CONTINUOUS
 62
    3
 10
147.54779259158909
 20
251.85956730081315
 11
147.54779259158909
 21
248.25951088453371
  0
LINE
  8
_e-2_
  6
CONTINUOUS
 62
    3
 10
162.34774739258137
 20
251.85956730081315
 11
162.34774739258137
 21
248.25951088453371
  0
LINE
  8
_e-2_
  6
CONTINUOUS
 62
    3
 10
156.74772891707494
 20
251.85956730081315
 11
162.34774739258137
 21
251.85956730081315
  0
LINE
  8
_e-2_
  6
CONTINUOUS
 62
    3
 10
156.74772891707494
 20
248.25951088453371
 11
162.34774739258137
 21
248.25951088453371
  0
LINE
  8
_e-2_
  6
CONTINUOUS
 62
    3
 10
163.34774574298285
 20
251.85956730081315
 11
163.34774574298285
 21
248.25951088453371
  0
LINE
  8
_e-2_
  6
CONTINUOUS
 62
    3
 10
164.94777081688471
 20
251.85956730081315
 11
164.94777081688471
 21
248.25951088453371
  0
LINE
  8
_e-2_
  6
CONTINUOUS
 62
    3
 10
164.94777081688471
 20
251.85956730081315
 11
163.34774574298285
 21
251.85956730081315
  0
LINE
  8
_e-2_
  6
CONTINUOUS
 62
    3
 10
164.94777081688471
 20
248.25951088453371
 11
163.34774574298285
 21
248.25951088453371
  0
LINE
  8
_e-2_
  6
CONTINUOUS
 62
    3
 10
156.74772891707494
 20
251.85956730081315
 11
156.74772891707494
 21
248.25951088453371
  0
LINE
  8
_e-2_
  6
CONTINUOUS
 62
    3
 10
171.54775300121764
 20
251.85956730081315
 11
171.54775300121764
 21
248.25951088453371
  0
LINE
  8
_e-2_
  6
CONTINUOUS
 62
    3
 10
165.94773452571076
 20
251.85956730081315
 11
171.54775300121764
 21
251.85956730081315
  0
LINE
  8
_e-2_
  6
CONTINUOUS
 62
    3
 10
165.94773452571076
 20
248.25951088453371
 11
171.54775300121764
 21
248.25951088453371
  0
LINE
  8
_e-2_
  6
CONTINUOUS
 62
    3
 10
172.54771671004346
 20
251.85956730081315
 11
172.54771671004346
 21
248.25951088453371
  0
LINE
  8
_e-2_
  6
CONTINUOUS
 62
    3
 10
174.14774178394555
 20
251.85956730081313
 11
174.14774178394555
 21
248.25951088453371
  0
LINE
  8
_e-2_
  6
CONTINUOUS
 62
    3
 10
174.14774178394555
 20
251.85956730081313
 11
172.54771671004346
 21
251.85956730081315
  0
LINE
  8
_e-2_
  6
CONTINUOUS
 62
    3
 10
174.14774178394555
 20
248.25951088453371
 11
172.54771671004346
 21
248.25951088453371
  0
LINE
  8
_e-2_
  6
CONTINUOUS
 62
    3
 10
165.94773452571076
 20
251.85956730081315
 11
165.94773452571076
 21
248.25951088453371
  0
LINE
  8
_e-2_
  6
CONTINUOUS
 62
    3
 10
180.74772396827825
 20
251.85956730081313
 11
180.74772396827825
 21
248.25951088453371
  0
LINE
  8
_e-2_
  6
CONTINUOUS
 62
    3
 10
175.147809417497
 20
248.25951088453371
 11
180.74772396827825
 21
248.25951088453371
  0
LINE
  8
_e-2_
  6
CONTINUOUS
 62
    3
 10
181.74772231867951
 20
251.85956730081313
 11
181.74772231867951
 21
248.25951088453371
  0
LINE
  8
_e-2_
  6
CONTINUOUS
 62
    3
 10
183.34774739258137
 20
251.85956730081313
 11
183.34774739258137
 21
248.25951088453371
  0
LINE
  8
_e-2_
  6
CONTINUOUS
 62
    3
 10
183.34774739258137
 20
251.85956730081313
 11
181.74772231867951
 21
251.85956730081313
  0
LINE
  8
_e-2_
  6
CONTINUOUS
 62
    3
 10
183.34774739258137
 20
248.25951088453371
 11
181.74772231867951
 21
248.25951088453371
  0
LINE
  8
_e-2_
  6
CONTINUOUS
 62
    3
 10
150.94779391126826
 20
253.25957191968996
 11
150.94779391126826
 21
256.85952441124402
  0
LINE
  8
_e-2_
  6
CONTINUOUS
 62
    3
 10
158.94774607290265
 20
253.25957191968996
 11
158.94774607290265
 21
256.85952441124402
  0
LINE
  8
_e-2_
  6
CONTINUOUS
 62
    3
 10
158.94774607290265
 20
256.85952441124402
 11
150.94779391126826
 21
256.85952441124402
  0
LINE
  8
_e-2_
  6
CONTINUOUS
 62
    3
 10
150.94779391126826
 20
253.25957191968996
 11
158.94774607290265
 21
253.25957191968996
  0
LINE
  8
_e-2_
  6
CONTINUOUS
 62
    3
 10
160.14773023675389
 20
253.25957191968996
 11
160.14773023675389
 21
256.85952441124402
  0
LINE
  8
_e-2_
  6
CONTINUOUS
 62
    3
 10
168.14775168153847
 20
253.25957191968996
 11
168.14775168153847
 21
256.85952441124402
  0
LINE
  8
_e-2_
  6
CONTINUOUS
 62
    3
 10
168.14775168153847
 20
256.85952441124402
 11
160.14773023675389
 21
256.85952441124402
  0
LINE
  8
_e-2_
  6
CONTINUOUS
 62
    3
 10
160.14773023675389
 20
253.25957191968996
 11
168.14775168153847
 21
253.25957191968996
  0
LINE
  8
_e-2_
  6
CONTINUOUS
 62
    3
 10
169.34777048696515
 20
253.25957191968996
 11
169.34777048696515
 21
256.85952441124402
  0
LINE
  8
_e-2_
  6
CONTINUOUS
 62
    3
 10
153.14781106709597
 20
261.85951616324985
 11
153.14781106709597
 21
258.25956367169579
  0
LINE
  8
_e-2_
  6
CONTINUOUS
 62
    3
 10
147.54779259158909
 20
261.85951616324985
 11
153.14781106709597
 21
261.85951616324985
  0
LINE
  8
_e-2_
  6
CONTINUOUS
 62
    3
 10
147.54779259158909
 20
258.25956367169579
 11
153.14781106709597
 21
258.25956367169579
  0
LINE
  8
_e-2_
  6
CONTINUOUS
 62
    3
 10
154.147809417497
 20
261.85951616324985
 11
154.147809417497
 21
258.25956367169579
  0
LINE
  8
_e-2_
  6
CONTINUOUS
 62
    3
 10
155.74776520824889
 20
261.85951616324985
 11
155.74776520824889
 21
258.25956367169579
  0
LINE
  8
_e-2_
  6
CONTINUOUS
 62
    3
 10
155.74776520824889
 20
261.85951616324985
 11
154.147809417497
 21
261.85951616324985
  0
LINE
  8
_e-2_
  6
CONTINUOUS
 62
    3
 10
155.74776520824889
 20
258.25956367169579
 11
154.147809417497
 21
258.25956367169579
  0
LINE
  8
_e-2_
  6
CONTINUOUS
 62
    3
 10
147.54779259158909
 20
261.85951616324985
 11
147.54779259158909
 21
258.25956367169579
  0
LINE
  8
_e-2_
  6
CONTINUOUS
 62
    3
 10
162.34774739258137
 20
261.85951616324985
 11
162.34774739258137
 21
258.25956367169579
  0
LINE
  8
_e-2_
  6
CONTINUOUS
 62
    3
 10
156.74772891707494
 20
261.85951616324985
 11
162.34774739258137
 21
261.85951616324985
  0
LINE
  8
_e-2_
  6
CONTINUOUS
 62
    3
 10
156.74772891707494
 20
258.25956367169579
 11
162.34774739258137
 21
258.25956367169579
  0
LINE
  8
_e-2_
  6
CONTINUOUS
 62
    3
 10
163.34774574298285
 20
261.85951616324985
 11
163.34774574298285
 21
258.25956367169579
  0
LINE
  8
_e-2_
  6
CONTINUOUS
 62
    3
 10
164.94777081688471
 20
261.85951616324985
 11
164.94777081688471
 21
258.25956367169579
  0
LINE
  8
_e-2_
  6
CONTINUOUS
 62
    3
 10
164.94777081688471
 20
261.85951616324985
 11
163.34774574298285
 21
261.85951616324985
  0
LINE
  8
_e-2_
  6
CONTINUOUS
 62
    3
 10
164.94777081688471
 20
258.25956367169579
 11
163.34774574298285
 21
258.25956367169579
  0
LINE
  8
_e-2_
  6
CONTINUOUS
 62
    3
 10
156.74772891707494
 20
261.85951616324985
 11
156.74772891707494
 21
258.25956367169579
  0
LINE
  8
_e-2_
  6
CONTINUOUS
 62
    3
 10
171.54775300121764
 20
261.85951616324985
 11
171.54775300121764
 21
258.25956367169579
  0
LINE
  8
_e-2_
  6
CONTINUOUS
 62
    3
 10
165.94776916728597
 20
261.85951616324985
 11
171.54775300121764
 21
261.85951616324985
  0
LINE
  8
_e-2_
  6
CONTINUOUS
 62
    3
 10
165.94776916728597
 20
258.25956367169579
 11
171.54775300121764
 21
258.25956367169579
  0
LINE
  8
_e-2_
  6
CONTINUOUS
 62
    3
 10
172.54775135161867
 20
261.85951616324985
 11
172.54775135161867
 21
258.25956367169579
  0
LINE
  8
_e-2_
  6
CONTINUOUS
 62
    3
 10
165.94776916728597
 20
261.85951616324985
 11
165.94776916728597
 21
258.25956367169579
  0
LINE
  8
_e-2_
  6
CONTINUOUS
 62
    3
 10
150.94779391126826
 20
263.25952078212651
 11
150.94779391126826
 21
266.85954255683089
  0
LINE
  8
_e-2_
  6
CONTINUOUS
 62
    3
 10
158.94774607290265
 20
263.25952078212651
 11
158.94774607290265
 21
266.85947327368052
  0
LINE
  8
_e-2_
  6
CONTINUOUS
 62
    3
 10
158.94774607290265
 20
266.85947327368052
 11
150.94779391126826
 21
266.85954255683089
  0
LINE
  8
_e-2_
  6
CONTINUOUS
 62
    3
 10
150.94779391126826
 20
263.25952078212651
 11
158.94774607290265
 21
263.25952078212651
  0
LINE
  8
_e-2_
  6
CONTINUOUS
 62
    3
 10
160.14773023675389
 20
263.25952078212651
 11
160.14773023675389
 21
266.85947327368052
  0
LINE
  8
_e-2_
  6
CONTINUOUS
 62
    3
 10
160.14773023675389
 20
263.25952078212651
 11
168.14775168153847
 21
263.25952078212651
  0
LINE
  8
_e-2_
  6
CONTINUOUS
 62
    3
 10
132.5477826939964
 20
236.85948812006995
 11
140.54773485563055
 21
236.85948812006995
  0
LINE
  8
_e-2_
  6
CONTINUOUS
 62
    3
 10
132.5477826939964
 20
233.25953562851592
 11
140.54773485563055
 21
233.25953562851592
  0
LINE
  8
_e-2_
  6
CONTINUOUS
 62
    3
 10
135.74776355865015
 20
241.85951451365096
 11
137.3477539909768
 21
241.85951451365096
  0
LINE
  8
_e-2_
  6
CONTINUOUS
 62
    3
 10
135.74776355865015
 20
238.25949273894662
 11
137.3477539909768
 21
238.25949273894662
  0
LINE
  8
_e-2_
  6
CONTINUOUS
 62
    3
 10
132.5477826939964
 20
246.85954090723214
 11
140.54773485563055
 21
246.85954090723214
  0
LINE
  8
_e-2_
  6
CONTINUOUS
 62
    3
 10
132.5477826939964
 20
243.25951913252774
 11
140.54773485563055
 21
243.25951913252774
  0
LINE
  8
_e-2_
  6
CONTINUOUS
 62
    3
 10
135.74776355865015
 20
251.85956730081315
 11
137.3477539909768
 21
251.85956730081315
  0
LINE
  8
_e-2_
  6
CONTINUOUS
 62
    3
 10
135.74776355865015
 20
248.25951088453371
 11
137.3477539909768
 21
248.25951088453371
  0
LINE
  8
_e-2_
  6
CONTINUOUS
 62
    3
 10
132.5477826939964
 20
256.85952441124402
 11
140.54773485563055
 21
256.85952441124402
  0
LINE
  8
_e-2_
  6
CONTINUOUS
 62
    3
 10
132.5477826939964
 20
253.25957191968996
 11
140.54773485563055
 21
253.25957191968996
  0
LINE
  8
_e-2_
  6
CONTINUOUS
 62
    3
 10
135.74776355865015
 20
261.85951616324985
 11
137.3477539909768
 21
261.85951616324985
  0
LINE
  8
_e-2_
  6
CONTINUOUS
 62
    3
 10
135.74776355865015
 20
258.25956367169579
 11
137.3477539909768
 21
258.25956367169579
  0
LINE
  8
_e-2_
  6
CONTINUOUS
 62
    3
 10
132.5477826939964
 20
266.85954255683089
 11
140.54773485563055
 21
266.85954255683089
  0
LINE
  8
_e-2_
  6
CONTINUOUS
 62
    3
 10
132.5477826939964
 20
263.25952078212651
 11
140.54773485563055
 21
263.25952078212651
  0
LINE
  8
_e-2_
  6
CONTINUOUS
 62
    3
 10
138.34778698295304
 20
268.25954717570761
 11
143.9477361753095
 21
268.25954717570761
  0
LINE
  8
_e-2_
  6
CONTINUOUS
 62
    3
 10
146.54779424118783
 20
268.25954717570761
 11
144.94773452571076
 21
268.25954717570761
  0
LINE
  8
_e-2_
  6
CONTINUOUS
 62
    3
 10
156.74772891707494
 20
268.25954717570761
 11
162.34774739258137
 21
268.25954717570761
  0
LINE
  8
_e-2_
  6
CONTINUOUS
 62
    3
 10
135.74776355865015
 20
268.25954717570761
 11
137.3477539909768
 21
268.25954717570761
  0
LINE
  8
_e-2_
  6
CONTINUOUS
 62
    3
 10
187.74767777951115
 20
216.85952111204631
 11
196.52076061576554
 21
216.8594864704711
  0
LINE
  8
_e-2_
  6
CONTINUOUS
 62
    3
 10
196.46238956160596
 20
218.25950841013531
 11
193.54771671004346
 21
218.25952573092297
  0
LINE
  8
_e-2_
  6
CONTINUOUS
 62
    3
 10
196.16121570708742
 20
221.85946090168943
 11
193.54771671004346
 21
221.85947822247704
  0
LINE
  8
_e-2_
  6
CONTINUOUS
 62
    3
 10
195.37599512273368
 20
226.85950461605808
 11
187.74774706266157
 21
226.85950461605813
  0
LINE
  8
_e-2_
  6
CONTINUOUS
 62
    3
 10
194.1477780751195
 20
231.85953100963911
 11
193.54771671004346
 21
231.85953100963911
  0
LINE
  8
_e-2_
  6
CONTINUOUS
 62
    3
 10
187.74774706266157
 20
233.25953562851589
 11
193.72085530273762
 21
233.25950098694068
  0
LINE
  8
_e-2_
  6
CONTINUOUS
 62
    3
 10
192.44736171637783
 20
236.85948812006995
 11
187.74774706266157
 21
236.85948812006995
  0
LINE
  8
_e-2_
  6
CONTINUOUS
 62
    3
 10
191.88097196236617
 20
238.25949273894662
 11
190.94772792731533
 21
238.25949273894662
  0
LINE
  8
_e-2_
  6
CONTINUOUS
 62
    3
 10
190.94772792731533
 20
240.37048104659021
 11
190.94772792731533
 21
238.25949273894662
  0
LINE
  8
_e-2_
  6
CONTINUOUS
 62
    3
 10
187.74778170423679
 20
243.25948449095256
 11
189.50778157226887
 21
243.25948449095256
  0
LINE
  8
_e-2_
  6
CONTINUOUS
 62
    3
 10
187.74778170423679
 20
243.25948449095256
 11
187.74778170423679
 21
246.34147615058089
  0
LINE
  8
_e-2_
  6
CONTINUOUS
 62
    3
 10
186.52538444125139
 20
248.25951088453371
 11
184.34771110140764
 21
248.25951088453371
  0
LINE
  8
_e-2_
  6
CONTINUOUS
 62
    3
 10
184.34771110140764
 20
251.32473602178021
 11
184.34771110140764
 21
248.25951088453371
  0
LINE
  8
_e-2_
  6
CONTINUOUS
 62
    3
 10
169.34777048696515
 20
263.25952078212651
 11
172.27959091823618
 21
263.25952078212651
  0
LINE
  8
_e-2_
  6
CONTINUOUS
 62
    3
 10
169.34777048696515
 20
263.25952078212651
 11
169.34777048696515
 21
265.30060239107922
  0
LINE
  8
_e-2_
  6
CONTINUOUS
 62
    3
 10
168.14775168153847
 20
263.25952078212651
 11
168.14775168153847
 21
266.06389485835126
  0
LINE
  8
_e-2_
  6
CONTINUOUS
 62
    3
 10
166.82596773939326
 20
266.85947327368052
 11
160.14773023675389
 21
266.85947327368052
  0
LINE
  8
_e-2_
  6
CONTINUOUS
 62
    3
 10
162.34774739258137
 20
269.22930343098636
 11
162.34774739258137
 21
268.25954717570761
  0
LINE
  8
_e-2_
  6
CONTINUOUS
 62
    3
 10
174.09460160763615
 20
261.85951616324985
 11
172.54775135161867
 21
261.85951616324985
  0
LINE
  8
_e-2_
  6
CONTINUOUS
 62
    3
 10
119.05738335911451
 20
268.88940029542886
 11
117.63590096363305
 21
273.26425018193652
  0
LINE
  8
_e-2_
  6
CONTINUOUS
 62
    3
 10
154.03816883208765
 20
268.88940029542886
 11
155.45965122756866
 21
273.26421554036136
  0
LINE
  8
_e-2_
  6
CONTINUOUS
 62
    3
 10
138.34778698295304
 20
270.23027174549219
 11
138.34778698295304
 21
268.25954717570761
  0
LINE
  8
_e-2_
  6
CONTINUOUS
 62
    3
 10
137.3477539909768
 20
270.25375873345678
 11
137.3477539909768
 21
268.25954717570761
  0
LINE
  8
_e-2_
  6
CONTINUOUS
 62
    3
 10
144.94773452571076
 20
269.61670016610043
 11
144.94773452571076
 21
268.25954717570761
  0
LINE
  8
_e-2_
  6
CONTINUOUS
 62
    3
 10
146.54779424118783
 20
269.34625338875668
 11
146.54779424118783
 21
268.25954717570761
  0
LINE
  8
_e-2_
  6
CONTINUOUS
 62
    3
 10
147.54779259158909
 20
269.15246841726173
 11
147.54779259158909
 21
268.25954717570761
  0
LINE
  8
_e-2_
  6
CONTINUOUS
 62
    3
 10
143.9477361753095
 20
269.76132874243052
 11
143.9477361753095
 21
268.25954717570761
  0
LINE
  8
_e-2_
  6
CONTINUOUS
 62
    3
 10
187.74774706266157
 20
223.25950016214119
 11
195.98478616475222
 21
223.25944819977849
  0
LINE
  8
_e-2_
  6
CONTINUOUS
 62
    3
 10
195.0777658021043
 20
228.25950923493474
 11
193.54771671004346
 21
228.25957851808511
  0
LINE
  8
_e-2_
  6
CONTINUOUS
 62
    3
 10
156.74772891707494
 20
271.55704407446177
 11
156.74772891707494
 21
268.25954717570761
  0
LINE
  8
_e-2_
  6
CONTINUOUS
 62
    3
 10
147.54779259158909
 20
268.25954717570761
 11
151.27196977169888
 21
268.25954717570761
  0
LINE
  8
_e-2_
  6
CONTINUOUS
 62
    3
 10
165.94773452571076
 20
221.85947822247704
 11
171.54768371806722
 21
221.85947822247704
  0
LINE
  8
_e-2_
  6
CONTINUOUS
 62
    3
 10
174.14774178394555
 20
221.85947822247704
 11
172.54771671004346
 21
221.85947822247704
  0
LINE
  8
_e-2_
  6
CONTINUOUS
 62
    3
 10
165.94773452571076
 20
221.85947822247704
 11
165.94773452571076
 21
218.25952573092297
  0
LINE
  8
_e-2_
  6
CONTINUOUS
 62
    3
 10
180.74772396827825
 20
221.85947822247704
 11
180.74772396827825
 21
218.25952573092297
  0
LINE
  8
_e-2_
  6
CONTINUOUS
 62
    3
 10
175.14774013434658
 20
221.85947822247704
 11
180.74772396827825
 21
221.85947822247704
  0
LINE
  8
_e-2_
  6
CONTINUOUS
 62
    3
 10
167.74778005463804
 20
218.05953991747276
 11
178.94774772250139
 21
218.05952259668527
  0
LINE
  8
_e-2_
  6
CONTINUOUS
 62
    3
 10
160.14769559517867
 20
216.85952111204631
 11
166.34774079418639
 21
216.85952111204631
  0
LINE
  8
_e-2_
  6
CONTINUOUS
 62
    3
 10
180.34778698295304
 20
216.85952111204631
 11
186.54769361566014
 21
216.85952111204631
  0
LINE
  8
_e-2_
  6
CONTINUOUS
 62
    3
 10
180.34778698295304
 20
218.25952573092297
 11
180.74772396827825
 21
218.25952573092297
  0
LINE
  8
_e-2_
  6
CONTINUOUS
 62
    3
 10
165.94773452571076
 20
218.25952573092297
 11
166.34774079418639
 21
218.25952573092297
  0
LINE
  8
_e-2_
  6
CONTINUOUS
 62
    3
 10
171.54768371806722
 20
221.85947822247704
 11
171.54768371806722
 21
219.45952721556193
  0
LINE
  8
_e-2_
  6
CONTINUOUS
 62
    3
 10
172.54771671004346
 20
221.85947822247704
 11
172.54771671004346
 21
219.45952721556193
  0
LINE
  8
_e-2_
  6
CONTINUOUS
 62
    3
 10
174.14774178394555
 20
221.85947822247704
 11
174.14774178394555
 21
219.45952721556193
  0
LINE
  8
_e-2_
  6
CONTINUOUS
 62
    3
 10
175.14774013434658
 20
221.85947822247704
 11
175.14774013434658
 21
219.45952721556193
  0
LINE
  8
_e-2_
  6
CONTINUOUS
 62
    3
 10
175.14774013434658
 20
219.45952721556193
 11
180.34778698295304
 21
219.45952721556193
  0
LINE
  8
_e-2_
  6
CONTINUOUS
 62
    3
 10
166.34774079418639
 20
219.45952721556193
 11
171.54768371806722
 21
219.45952721556193
  0
LINE
  8
_e-2_
  6
CONTINUOUS
 62
    3
 10
172.54771671004346
 20
219.45952721556193
 11
174.14774178394555
 21
219.45952721556193
  0
LINE
  8
_e-2_
  6
CONTINUOUS
 62
    3
 10
166.34774079418639
 20
218.25952573092297
 11
166.34774079418639
 21
219.45952721556193
  0
LINE
  8
_e-2_
  6
CONTINUOUS
 62
    3
 10
180.34778698295304
 20
218.25952573092297
 11
180.34778698295304
 21
219.45952721556193
  0
LINE
  8
_e-2_
  6
CONTINUOUS
 62
    3
 10
175.147809417497
 20
260.99472388073298
 11
175.147809417497
 21
260.10554392929714
  0
LINE
  8
_e-2_
  6
CONTINUOUS
 62
    3
 10
174.14781106709597
 20
261.81680310106663
 11
174.14781106709597
 21
259.30404180461386
  0
LINE
  8
_e-2_
  6
CONTINUOUS
 62
    3
 10
173.40017659180012
 20
258.25956367169579
 11
172.54775135161867
 21
258.25956367169579
  0
LINE
  8
_e-2_
  6
CONTINUOUS
 62
    3
 10
172.92641840979036
 20
256.85952441124402
 11
169.34777048696515
 21
256.85952441124402
  0
LINE
  8
_e-2_
  6
CONTINUOUS
 62
    3
 10
169.34777048696515
 20
253.25957191968996
 11
173.79408594304618
 21
253.25957191968996
  0
LINE
  8
_e-2_
  6
CONTINUOUS
 62
    3
 10
175.147809417497
 20
251.85956730081313
 11
175.147809417497
 21
248.25951088453371
  0
LINE
  8
_e-2_
  6
CONTINUOUS
 62
    3
 10
175.147809417497
 20
251.85956730081313
 11
175.47496445339243
 21
251.85956730081313
  0
LINE
  8
_e-2_
  6
CONTINUOUS
 62
    3
 10
179.64494406435097
 20
251.85956730081313
 11
180.74772396827825
 21
251.85956730081313
  0
LINE
  8
_e-2_
  6
CONTINUOUS
 62
    3
 10
181.325787933122
 20
253.25957191968996
 11
182.81610313846409
 21
253.25957191968996
  0
LINE
  8
_e-2_
  6
CENTER1
 62
    3
 10
173.74364780959991
 20
259.88809876196177
 11
181.37626070814304
 21
252.25548586341881
  0
LINE
  8
_e-2_
  6
CENTER1
 62
    3
 10
173.74364780959991
 20
252.25548586341881
 11
181.37626070814304
 21
259.88809876196177
  0
LINE
  8
_e-2_
  6
CONTINUOUS
 62
    3
 10
118.94770813212972
 20
221.85953018483988
 11
118.94770813212972
 21
218.25957769328571
  0
LINE
  8
_e-2_
  6
CONTINUOUS
 62
    3
 10
117.34778698295304
 20
221.85953018483988
 11
117.34778698295304
 21
218.25957769328571
  0
LINE
  8
_e-2_
  6
CONTINUOUS
 62
    3
 10
117.34778698295304
 20
221.85953018483988
 11
118.94770813212972
 21
221.85953018483988
  0
LINE
  8
_e-2_
  6
CONTINUOUS
 62
    3
 10
117.34778698295304
 20
218.25957769328571
 11
118.94770813212972
 21
218.25957769328571
  0
LINE
  8
_e-2_
  6
CONTINUOUS
 62
    3
 10
110.74777015704512
 20
221.85949554326461
 11
110.74777015704512
 21
218.25954305171061
  0
LINE
  8
_e-2_
  6
CONTINUOUS
 62
    3
 10
116.3477539909768
 20
221.85949554326461
 11
110.74777015704512
 21
221.85949554326461
  0
LINE
  8
_e-2_
  6
CONTINUOUS
 62
    3
 10
116.3477539909768
 20
218.25954305171061
 11
110.74777015704512
 21
218.25954305171061
  0
LINE
  8
_e-2_
  6
CONTINUOUS
 62
    3
 10
109.74777180664387
 20
221.85949554326461
 11
109.74777180664387
 21
218.25954305171061
  0
LINE
  8
_e-2_
  6
CONTINUOUS
 62
    3
 10
108.14781601589243
 20
221.85951286405222
 11
108.14781601589243
 21
218.25956037249821
  0
LINE
  8
_e-2_
  6
CONTINUOUS
 62
    3
 10
108.14781601589243
 20
221.85951286405222
 11
109.74777180664387
 21
221.85949554326461
  0
LINE
  8
_e-2_
  6
CONTINUOUS
 62
    3
 10
108.14781601589243
 20
218.25956037249821
 11
109.74777180664387
 21
218.25954305171061
  0
LINE
  8
_e-2_
  6
CONTINUOUS
 62
    3
 10
116.3477539909768
 20
221.85949554326461
 11
116.3477539909768
 21
218.25954305171061
  0
LINE
  8
_e-2_
  6
CONTINUOUS
 62
    3
 10
91.347760589372001
 20
221.85951286405228
 11
91.347760589372001
 21
218.25956037249821
  0
LINE
  8
_e-2_
  6
CONTINUOUS
 62
    3
 10
89.747804798620336
 20
221.85953018483988
 11
89.747804798620336
 21
218.25957769328582
  0
LINE
  8
_e-2_
  6
CONTINUOUS
 62
    3
 10
89.747804798620336
 20
221.85953018483988
 11
91.347760589372001
 21
221.85951286405228
  0
LINE
  8
_e-2_
  6
CONTINUOUS
 62
    3
 10
89.747804798620336
 20
218.25957769328582
 11
91.347760589372001
 21
218.25956037249821
  0
LINE
  8
_e-2_
  6
CONTINUOUS
 62
    3
 10
83.147753331137437
 20
221.85953018483988
 11
83.147753331137437
 21
218.25957769328585
  0
LINE
  8
_e-2_
  6
CONTINUOUS
 62
    3
 10
88.747771806643868
 20
221.85953018483988
 11
83.147753331137437
 21
221.85953018483988
  0
LINE
  8
_e-2_
  6
CONTINUOUS
 62
    3
 10
88.747771806643868
 20
218.25957769328582
 11
83.147753331137437
 21
218.25957769328585
  0
LINE
  8
_e-2_
  6
CONTINUOUS
 62
    3
 10
82.147754980736181
 20
221.85953018483988
 11
82.147754980736181
 21
218.25957769328585
  0
LINE
  8
_e-2_
  6
CONTINUOUS
 62
    3
 10
80.547799189984289
 20
221.85953018483988
 11
80.547799189984289
 21
218.25957769328585
  0
LINE
  8
_e-2_
  6
CONTINUOUS
 62
    3
 10
80.547799189984289
 20
221.85953018483988
 11
82.147754980736181
 21
221.85953018483988
  0
LINE
  8
_e-2_
  6
CONTINUOUS
 62
    3
 10
80.547799189984289
 20
218.25957769328585
 11
82.147754980736181
 21
218.25957769328585
  0
LINE
  8
_e-2_
  6
CONTINUOUS
 62
    3
 10
88.747771806643868
 20
221.85953018483988
 11
88.747771806643868
 21
218.25957769328582
  0
LINE
  8
_e-2_
  6
CONTINUOUS
 62
    3
 10
79.547766198008048
 20
221.85953018483988
 11
79.547766198008048
 21
218.25957769328585
  0
LINE
  8
_e-2_
  6
CONTINUOUS
 62
    3
 10
114.14773683514909
 20
223.25951748292889
 11
114.14773683514909
 21
226.85950461605816
  0
LINE
  8
_e-2_
  6
CONTINUOUS
 62
    3
 10
112.94775267129762
 20
223.25951748292889
 11
112.94775267129762
 21
226.85950461605816
  0
LINE
  8
_e-2_
  6
CONTINUOUS
 62
    3
 10
104.94780050966347
 20
223.25953480371655
 11
104.94780050966347
 21
226.85950461605816
  0
LINE
  8
_e-2_
  6
CONTINUOUS
 62
    3
 10
104.94780050966347
 20
226.85950461605816
 11
112.94775267129762
 21
226.85950461605816
  0
LINE
  8
_e-2_
  6
CONTINUOUS
 62
    3
 10
112.94775267129762
 20
223.25951748292889
 11
104.94780050966347
 21
223.25953480371655
  0
LINE
  8
_e-2_
  6
CONTINUOUS
 62
    3
 10
103.7477470626618
 20
223.25953480371655
 11
103.7477470626618
 21
226.85950461605816
  0
LINE
  8
_e-2_
  6
CONTINUOUS
 62
    3
 10
95.747760259452434
 20
223.25953480371655
 11
95.747794901027646
 21
226.85950461605819
  0
LINE
  8
_e-2_
  6
CONTINUOUS
 62
    3
 10
95.747794901027646
 20
226.85950461605819
 11
103.7477470626618
 21
226.85950461605816
  0
LINE
  8
_e-2_
  6
CONTINUOUS
 62
    3
 10
103.7477470626618
 20
223.25953480371655
 11
95.747760259452434
 21
223.25953480371655
  0
LINE
  8
_e-2_
  6
CONTINUOUS
 62
    3
 10
94.547741454025754
 20
223.25953480371655
 11
94.547810737176178
 21
226.85950461605819
  0
LINE
  8
_e-2_
  6
CONTINUOUS
 62
    3
 10
86.547789292391371
 20
223.25953480371655
 11
86.547789292391371
 21
226.85950461605819
  0
LINE
  8
_e-2_
  6
CONTINUOUS
 62
    3
 10
86.547789292391371
 20
226.85950461605819
 11
94.547810737176178
 21
226.85950461605819
  0
LINE
  8
_e-2_
  6
CONTINUOUS
 62
    3
 10
94.547741454025754
 20
223.25953480371655
 11
86.547789292391371
 21
223.25953480371655
  0
LINE
  8
_e-2_
  6
CONTINUOUS
 62
    3
 10
85.347735845389934
 20
223.25953480371655
 11
85.347770486965146
 21
226.85950461605819
  0
LINE
  8
_e-2_
  6
CONTINUOUS
 62
    3
 10
132.5477826939964
 20
233.25953562851592
 11
132.5477826939964
 21
236.85948812006995
  0
LINE
  8
_e-2_
  6
CONTINUOUS
 62
    3
 10
131.34776388856972
 20
233.25953562851592
 11
131.34776388856972
 21
236.85948812006995
  0
LINE
  8
_e-2_
  6
CONTINUOUS
 62
    3
 10
123.34777708536012
 20
233.25953562851592
 11
123.34777708536012
 21
236.85948812006995
  0
LINE
  8
_e-2_
  6
CONTINUOUS
 62
    3
 10
123.34777708536012
 20
236.85948812006995
 11
131.34776388856972
 21
236.85948812006995
  0
LINE
  8
_e-2_
  6
CONTINUOUS
 62
    3
 10
131.34776388856972
 20
233.25953562851592
 11
123.34777708536012
 21
233.25953562851592
  0
LINE
  8
_e-2_
  6
CONTINUOUS
 62
    3
 10
129.14778137431722
 20
241.85951451365096
 11
129.14778137431722
 21
238.25949273894662
  0
LINE
  8
_e-2_
  6
CONTINUOUS
 62
    3
 10
134.74776520824889
 20
241.85951451365096
 11
129.14778137431722
 21
241.85951451365096
  0
LINE
  8
_e-2_
  6
CONTINUOUS
 62
    3
 10
134.74776520824889
 20
238.25949273894662
 11
129.14778137431722
 21
238.25949273894662
  0
LINE
  8
_e-2_
  6
CONTINUOUS
 62
    3
 10
128.14778302391596
 20
241.85951451365096
 11
128.14778302391596
 21
238.25949273894662
  0
LINE
  8
_e-2_
  6
CONTINUOUS
 62
    3
 10
126.54772330843889
 20
241.85951451365096
 11
126.54772330843889
 21
238.25949273894662
  0
LINE
  8
_e-2_
  6
CONTINUOUS
 62
    3
 10
126.54772330843889
 20
241.85951451365096
 11
128.14778302391596
 21
241.85951451365096
  0
LINE
  8
_e-2_
  6
CONTINUOUS
 62
    3
 10
126.54772330843889
 20
238.25949273894662
 11
128.14778302391596
 21
238.25949273894662
  0
LINE
  8
_e-2_
  6
CONTINUOUS
 62
    3
 10
134.74776520824889
 20
241.85951451365096
 11
134.74776520824889
 21
238.25949273894662
  0
LINE
  8
_e-2_
  6
CONTINUOUS
 62
    3
 10
135.74776355865015
 20
241.85951451365096
 11
135.74776355865015
 21
238.25949273894662
  0
LINE
  8
_e-2_
  6
CONTINUOUS
 62
    3
 10
132.5477826939964
 20
243.25951913252774
 11
132.5477826939964
 21
246.85954090723214
  0
LINE
  8
_e-2_
  6
CONTINUOUS
 62
    3
 10
131.34776388856972
 20
243.25951913252774
 11
131.34776388856972
 21
246.85954090723214
  0
LINE
  8
_e-2_
  6
CONTINUOUS
 62
    3
 10
123.34777708536012
 20
243.25951913252774
 11
123.34777708536012
 21
246.85954090723214
  0
LINE
  8
_e-2_
  6
CONTINUOUS
 62
    3
 10
123.34777708536012
 20
246.85954090723214
 11
131.34776388856972
 21
246.85954090723214
  0
LINE
  8
_e-2_
  6
CONTINUOUS
 62
    3
 10
131.34776388856972
 20
243.25951913252774
 11
123.34777708536012
 21
243.25951913252774
  0
LINE
  8
_e-2_
  6
CONTINUOUS
 62
    3
 10
129.14778137431722
 20
251.85956730081315
 11
129.14778137431722
 21
248.25951088453371
  0
LINE
  8
_e-2_
  6
CONTINUOUS
 62
    3
 10
134.74776520824889
 20
251.85956730081315
 11
129.14778137431722
 21
251.85956730081315
  0
LINE
  8
_e-2_
  6
CONTINUOUS
 62
    3
 10
134.74776520824889
 20
248.25951088453371
 11
129.14778137431722
 21
248.25951088453371
  0
LINE
  8
_e-2_
  6
CONTINUOUS
 62
    3
 10
128.14778302391596
 20
251.85956730081315
 11
128.14778302391596
 21
248.25951088453371
  0
LINE
  8
_e-2_
  6
CONTINUOUS
 62
    3
 10
126.54775795001387
 20
251.85956730081315
 11
126.54775795001387
 21
248.25951088453371
  0
LINE
  8
_e-2_
  6
CONTINUOUS
 62
    3
 10
126.54775795001387
 20
251.85956730081315
 11
128.14778302391596
 21
251.85956730081315
  0
LINE
  8
_e-2_
  6
CONTINUOUS
 62
    3
 10
126.54775795001387
 20
248.25951088453371
 11
128.14778302391596
 21
248.25951088453371
  0
LINE
  8
_e-2_
  6
CONTINUOUS
 62
    3
 10
134.74776520824889
 20
251.85956730081315
 11
134.74776520824889
 21
248.25951088453371
  0
LINE
  8
_e-2_
  6
CONTINUOUS
 62
    3
 10
135.74776355865015
 20
251.85956730081315
 11
135.74776355865015
 21
248.25951088453371
  0
LINE
  8
_e-2_
  6
CONTINUOUS
 62
    3
 10
132.5477826939964
 20
253.25957191968996
 11
132.5477826939964
 21
256.85952441124402
  0
LINE
  8
_e-2_
  6
CONTINUOUS
 62
    3
 10
131.34776388856972
 20
253.25957191968996
 11
131.34776388856972
 21
256.85952441124402
  0
LINE
  8
_e-2_
  6
CONTINUOUS
 62
    3
 10
123.34777708536012
 20
253.25957191968996
 11
123.34777708536012
 21
256.85952441124402
  0
LINE
  8
_e-2_
  6
CONTINUOUS
 62
    3
 10
123.34777708536012
 20
256.85952441124402
 11
131.34776388856972
 21
256.85952441124402
  0
LINE
  8
_e-2_
  6
CONTINUOUS
 62
    3
 10
131.34776388856972
 20
253.25957191968996
 11
123.34777708536012
 21
253.25957191968996
  0
LINE
  8
_e-2_
  6
CONTINUOUS
 62
    3
 10
129.14778137431722
 20
261.85951616324985
 11
129.14778137431722
 21
258.25956367169579
  0
LINE
  8
_e-2_
  6
CONTINUOUS
 62
    3
 10
134.74776520824889
 20
261.85951616324985
 11
129.14778137431722
 21
261.85951616324985
  0
LINE
  8
_e-2_
  6
CONTINUOUS
 62
    3
 10
134.74776520824889
 20
258.25956367169579
 11
129.14778137431722
 21
258.25956367169579
  0
LINE
  8
_e-2_
  6
CONTINUOUS
 62
    3
 10
128.14778302391596
 20
261.85951616324985
 11
128.14778302391596
 21
258.25956367169579
  0
LINE
  8
_e-2_
  6
CONTINUOUS
 62
    3
 10
126.54775795001387
 20
261.85951616324985
 11
126.54775795001387
 21
258.25956367169579
  0
LINE
  8
_e-2_
  6
CONTINUOUS
 62
    3
 10
126.54775795001387
 20
261.85951616324985
 11
128.14778302391596
 21
261.85951616324985
  0
LINE
  8
_e-2_
  6
CONTINUOUS
 62
    3
 10
126.54775795001387
 20
258.25956367169579
 11
128.14778302391596
 21
258.25956367169579
  0
LINE
  8
_e-2_
  6
CONTINUOUS
 62
    3
 10
134.74776520824889
 20
261.85951616324985
 11
134.74776520824889
 21
258.25956367169579
  0
LINE
  8
_e-2_
  6
CONTINUOUS
 62
    3
 10
135.74776355865015
 20
261.85951616324985
 11
135.74776355865015
 21
258.25956367169579
  0
LINE
  8
_e-2_
  6
CONTINUOUS
 62
    3
 10
132.5477826939964
 20
263.25952078212651
 11
132.5477826939964
 21
266.85954255683089
  0
LINE
  8
_e-2_
  6
CONTINUOUS
 62
    3
 10
131.34776388856972
 20
263.25952078212651
 11
131.34776388856972
 21
266.85954255683089
  0
LINE
  8
_e-2_
  6
CONTINUOUS
 62
    3
 10
123.34777708536012
 20
263.25952078212651
 11
123.34777708536012
 21
266.85954255683089
  0
LINE
  8
_e-2_
  6
CONTINUOUS
 62
    3
 10
123.34777708536012
 20
266.85954255683089
 11
131.34776388856972
 21
266.85954255683089
  0
LINE
  8
_e-2_
  6
CONTINUOUS
 62
    3
 10
131.34776388856972
 20
263.25952078212651
 11
123.34777708536012
 21
263.25952078212651
  0
LINE
  8
_e-2_
  6
CONTINUOUS
 62
    3
 10
118.94770813212972
 20
231.85960029278957
 11
118.94770813212972
 21
228.25957851808514
  0
LINE
  8
_e-2_
  6
CONTINUOUS
 62
    3
 10
117.34778698295304
 20
231.85960029278957
 11
117.34778698295304
 21
228.25957851808514
  0
LINE
  8
_e-2_
  6
CONTINUOUS
 62
    3
 10
117.34778698295304
 20
231.85960029278957
 11
118.94770813212972
 21
231.85960029278957
  0
LINE
  8
_e-2_
  6
CONTINUOUS
 62
    3
 10
117.34778698295304
 20
228.25957851808514
 11
118.94770813212972
 21
228.25957851808514
  0
LINE
  8
_e-2_
  6
CONTINUOUS
 62
    3
 10
110.74777015704512
 20
231.85953100963926
 11
110.74777015704512
 21
228.25957851808519
  0
LINE
  8
_e-2_
  6
CONTINUOUS
 62
    3
 10
116.3477539909768
 20
231.85953100963926
 11
110.74777015704512
 21
231.85953100963926
  0
LINE
  8
_e-2_
  6
CONTINUOUS
 62
    3
 10
116.3477539909768
 20
228.25957851808514
 11
110.74777015704512
 21
228.25957851808519
  0
LINE
  8
_e-2_
  6
CONTINUOUS
 62
    3
 10
109.74777180664387
 20
231.85953100963926
 11
109.74777180664387
 21
228.25957851808519
  0
LINE
  8
_e-2_
  6
CONTINUOUS
 62
    3
 10
108.14781601589243
 20
231.85953100963926
 11
108.14781601589243
 21
228.25957851808519
  0
LINE
  8
_e-2_
  6
CONTINUOUS
 62
    3
 10
108.14781601589243
 20
231.85953100963926
 11
109.74777180664387
 21
231.85953100963926
  0
LINE
  8
_e-2_
  6
CONTINUOUS
 62
    3
 10
108.14781601589243
 20
228.25957851808519
 11
109.74777180664387
 21
228.25957851808519
  0
LINE
  8
_e-2_
  6
CONTINUOUS
 62
    3
 10
116.3477539909768
 20
231.85953100963926
 11
116.3477539909768
 21
228.25957851808514
  0
LINE
  8
_e-2_
  6
CONTINUOUS
 62
    3
 10
101.54779918998429
 20
231.85953100963926
 11
101.54779918998429
 21
228.25957851808519
  0
LINE
  8
_e-2_
  6
CONTINUOUS
 62
    3
 10
107.14781766549117
 20
231.85953100963926
 11
101.54779918998429
 21
231.85953100963926
  0
LINE
  8
_e-2_
  6
CONTINUOUS
 62
    3
 10
107.14781766549117
 20
228.25957851808519
 11
101.54779918998429
 21
228.25957851808519
  0
LINE
  8
_e-2_
  6
CONTINUOUS
 62
    3
 10
100.54780083958326
 20
231.85953100963926
 11
100.54780083958326
 21
228.25957851808519
  0
LINE
  8
_e-2_
  6
CONTINUOUS
 62
    3
 10
98.947775765681399
 20
231.85953100963926
 11
98.947775765681399
 21
228.25957851808519
  0
LINE
  8
_e-2_
  6
CONTINUOUS
 62
    3
 10
98.947775765681399
 20
231.85953100963926
 11
100.54780083958326
 21
231.85953100963926
  0
LINE
  8
_e-2_
  6
CONTINUOUS
 62
    3
 10
98.947775765681399
 20
228.25957851808519
 11
100.54780083958326
 21
228.25957851808519
  0
LINE
  8
_e-2_
  6
CONTINUOUS
 62
    3
 10
107.14781766549117
 20
231.85953100963926
 11
107.14781766549117
 21
228.25957851808519
  0
LINE
  8
_e-2_
  6
CONTINUOUS
 62
    3
 10
92.347793581348469
 20
231.85953100963926
 11
92.347793581348469
 21
228.25957851808519
  0
LINE
  8
_e-2_
  6
CONTINUOUS
 62
    3
 10
97.947812056855128
 20
231.85953100963926
 11
92.347793581348469
 21
231.85953100963926
  0
LINE
  8
_e-2_
  6
CONTINUOUS
 62
    3
 10
97.947812056855128
 20
228.25957851808519
 11
92.347793581348469
 21
228.25957851808519
  0
LINE
  8
_e-2_
  6
CONTINUOUS
 62
    3
 10
91.347795230947213
 20
231.85953100963926
 11
91.347795230947213
 21
228.25957851808519
  0
LINE
  8
_e-2_
  6
CONTINUOUS
 62
    3
 10
89.747839440195548
 20
231.85953100963926
 11
89.747839440195548
 21
228.25957851808519
  0
LINE
  8
_e-2_
  6
CONTINUOUS
 62
    3
 10
89.747839440195548
 20
231.85953100963926
 11
91.347795230947213
 21
231.85953100963926
  0
LINE
  8
_e-2_
  6
CONTINUOUS
 62
    3
 10
89.747839440195548
 20
228.25957851808519
 11
91.347795230947213
 21
228.25957851808519
  0
LINE
  8
_e-2_
  6
CONTINUOUS
 62
    3
 10
97.947812056855128
 20
231.85953100963926
 11
97.947812056855128
 21
228.25957851808519
  0
LINE
  8
_e-2_
  6
CONTINUOUS
 62
    3
 10
83.147787972712649
 20
231.85953100963926
 11
83.147787972712649
 21
228.25957851808519
  0
LINE
  8
_e-2_
  6
CONTINUOUS
 62
    3
 10
88.747771806643868
 20
231.85953100963926
 11
83.147787972712649
 21
231.85953100963926
  0
LINE
  8
_e-2_
  6
CONTINUOUS
 62
    3
 10
88.747771806643868
 20
228.25957851808519
 11
83.147787972712649
 21
228.25957851808519
  0
LINE
  8
_e-2_
  6
CONTINUOUS
 62
    3
 10
82.147789622311393
 20
231.85953100963926
 11
82.147789622311393
 21
228.25957851808519
  0
LINE
  8
_e-2_
  6
CONTINUOUS
 62
    3
 10
80.547833831559501
 20
231.85960029278957
 11
80.547833831559501
 21
228.2596478012355
  0
LINE
  8
_e-2_
  6
CONTINUOUS
 62
    3
 10
80.547833831559501
 20
231.85960029278957
 11
82.147789622311393
 21
231.85953100963926
  0
LINE
  8
_e-2_
  6
CONTINUOUS
 62
    3
 10
80.547833831559501
 20
228.2596478012355
 11
82.147789622311393
 21
228.25957851808519
  0
LINE
  8
_e-2_
  6
CONTINUOUS
 62
    3
 10
88.747771806643868
 20
231.85953100963926
 11
88.747771806643868
 21
228.25957851808519
  0
LINE
  8
_e-2_
  6
CONTINUOUS
 62
    3
 10
79.547766198008048
 20
231.85960029278957
 11
79.547766198008048
 21
228.2596478012355
  0
LINE
  8
_e-2_
  6
CONTINUOUS
 62
    3
 10
122.1477582799339
 20
233.25953562851592
 11
122.1477582799339
 21
236.85948812006995
  0
LINE
  8
_e-2_
  6
CONTINUOUS
 62
    3
 10
114.14773683514909
 20
233.25953562851592
 11
114.14773683514909
 21
236.85955740322029
  0
LINE
  8
_e-2_
  6
CONTINUOUS
 62
    3
 10
114.14773683514909
 20
236.85955740322029
 11
122.1477582799339
 21
236.85948812006995
  0
LINE
  8
_e-2_
  6
CONTINUOUS
 62
    3
 10
122.1477582799339
 20
233.25953562851592
 11
114.14773683514909
 21
233.25953562851592
  0
LINE
  8
_e-2_
  6
CONTINUOUS
 62
    3
 10
112.94775267129762
 20
233.25953562851592
 11
112.94775267129762
 21
236.85955740322029
  0
LINE
  8
_e-2_
  6
CONTINUOUS
 62
    3
 10
104.94780050966347
 20
233.25953562851592
 11
104.94780050966347
 21
236.85955740322029
  0
LINE
  8
_e-2_
  6
CONTINUOUS
 62
    3
 10
104.94780050966347
 20
236.85955740322029
 11
112.94775267129762
 21
236.85955740322029
  0
LINE
  8
_e-2_
  6
CONTINUOUS
 62
    3
 10
112.94775267129762
 20
233.25953562851592
 11
104.94780050966347
 21
233.25953562851592
  0
LINE
  8
_e-2_
  6
CONTINUOUS
 62
    3
 10
103.7477470626618
 20
233.25953562851592
 11
103.7477470626618
 21
236.85955740322029
  0
LINE
  8
_e-2_
  6
CONTINUOUS
 62
    3
 10
95.747794901027646
 20
233.25953562851592
 11
95.747794901027646
 21
236.85955740322029
  0
LINE
  8
_e-2_
  6
CONTINUOUS
 62
    3
 10
95.747794901027646
 20
236.85955740322029
 11
103.7477470626618
 21
236.85955740322029
  0
LINE
  8
_e-2_
  6
CONTINUOUS
 62
    3
 10
103.7477470626618
 20
233.25953562851592
 11
95.747794901027646
 21
233.25953562851592
  0
LINE
  8
_e-2_
  6
CONTINUOUS
 62
    3
 10
94.547810737176178
 20
233.25953562851592
 11
94.547810737176178
 21
236.85955740322029
  0
LINE
  8
_e-2_
  6
CONTINUOUS
 62
    3
 10
86.547789292391371
 20
233.25953562851592
 11
86.547789292391371
 21
236.85955740322029
  0
LINE
  8
_e-2_
  6
CONTINUOUS
 62
    3
 10
86.547789292391371
 20
236.85955740322029
 11
94.547810737176178
 21
236.85955740322029
  0
LINE
  8
_e-2_
  6
CONTINUOUS
 62
    3
 10
94.547810737176178
 20
233.25953562851592
 11
86.547789292391371
 21
233.25953562851592
  0
LINE
  8
_e-2_
  6
CONTINUOUS
 62
    3
 10
85.347770486965146
 20
233.25953562851592
 11
85.347770486965146
 21
236.85955740322029
  0
LINE
  8
_e-2_
  6
CONTINUOUS
 62
    3
 10
119.94770648253098
 20
241.85951451365096
 11
119.94770648253098
 21
238.25949273894662
  0
LINE
  8
_e-2_
  6
CONTINUOUS
 62
    3
 10
125.54772495803741
 20
241.85951451365096
 11
119.94770648253098
 21
241.85951451365096
  0
LINE
  8
_e-2_
  6
CONTINUOUS
 62
    3
 10
125.54772495803741
 20
238.25949273894662
 11
119.94770648253098
 21
238.25949273894662
  0
LINE
  8
_e-2_
  6
CONTINUOUS
 62
    3
 10
118.94770813212972
 20
241.85951451365096
 11
118.94770813212972
 21
238.25949273894662
  0
LINE
  8
_e-2_
  6
CONTINUOUS
 62
    3
 10
117.34778698295304
 20
241.8595837968013
 11
117.34778698295304
 21
238.25956202209693
  0
LINE
  8
_e-2_
  6
CONTINUOUS
 62
    3
 10
117.34778698295304
 20
241.8595837968013
 11
118.94770813212972
 21
241.85951451365096
  0
LINE
  8
_e-2_
  6
CONTINUOUS
 62
    3
 10
117.34778698295304
 20
238.25956202209693
 11
118.94770813212972
 21
238.25949273894662
  0
LINE
  8
_e-2_
  6
CONTINUOUS
 62
    3
 10
125.54772495803741
 20
241.85951451365096
 11
125.54772495803741
 21
238.25949273894662
  0
LINE
  8
_e-2_
  6
CONTINUOUS
 62
    3
 10
110.74777015704512
 20
241.85958379680133
 11
110.74777015704512
 21
238.25956202209696
  0
LINE
  8
_e-2_
  6
CONTINUOUS
 62
    3
 10
116.3477539909768
 20
241.8595837968013
 11
110.74777015704512
 21
241.85958379680133
  0
LINE
  8
_e-2_
  6
CONTINUOUS
 62
    3
 10
116.3477539909768
 20
238.25956202209693
 11
110.74777015704512
 21
238.25956202209696
  0
LINE
  8
_e-2_
  6
CONTINUOUS
 62
    3
 10
109.74777180664387
 20
241.85958379680133
 11
109.74777180664387
 21
238.25956202209696
  0
LINE
  8
_e-2_
  6
CONTINUOUS
 62
    3
 10
108.14774673274201
 20
241.85958379680133
 11
108.14774673274201
 21
238.25956202209696
  0
LINE
  8
_e-2_
  6
CONTINUOUS
 62
    3
 10
108.14774673274201
 20
241.85958379680133
 11
109.74777180664387
 21
241.85958379680133
  0
LINE
  8
_e-2_
  6
CONTINUOUS
 62
    3
 10
108.14774673274201
 20
238.25956202209696
 11
109.74777180664387
 21
238.25956202209696
  0
LINE
  8
_e-2_
  6
CONTINUOUS
 62
    3
 10
116.3477539909768
 20
241.8595837968013
 11
116.3477539909768
 21
238.25956202209693
  0
LINE
  8
_e-2_
  6
CONTINUOUS
 62
    3
 10
101.54776454840908
 20
241.85958379680133
 11
101.54776454840908
 21
238.25956202209696
  0
LINE
  8
_e-2_
  6
CONTINUOUS
 62
    3
 10
107.14781766549117
 20
241.85958379680133
 11
101.54776454840908
 21
241.85958379680133
  0
LINE
  8
_e-2_
  6
CONTINUOUS
 62
    3
 10
107.14781766549117
 20
238.25956202209696
 11
101.54776454840908
 21
238.25956202209696
  0
LINE
  8
_e-2_
  6
CONTINUOUS
 62
    3
 10
100.54780083958326
 20
241.85958379680133
 11
100.54780083958326
 21
238.25956202209696
  0
LINE
  8
_e-2_
  6
CONTINUOUS
 62
    3
 10
98.947775765681399
 20
241.85958379680133
 11
98.947775765681399
 21
238.25956202209696
  0
LINE
  8
_e-2_
  6
CONTINUOUS
 62
    3
 10
98.947775765681399
 20
241.85958379680133
 11
100.54780083958326
 21
241.85958379680133
  0
LINE
  8
_e-2_
  6
CONTINUOUS
 62
    3
 10
98.947775765681399
 20
238.25956202209696
 11
100.54780083958326
 21
238.25956202209696
  0
LINE
  8
_e-2_
  6
CONTINUOUS
 62
    3
 10
107.14781766549117
 20
241.85958379680133
 11
107.14781766549117
 21
238.25956202209696
  0
LINE
  8
_e-2_
  6
CONTINUOUS
 62
    3
 10
92.347793581348469
 20
241.85958379680133
 11
92.347793581348469
 21
238.25956202209696
  0
LINE
  8
_e-2_
  6
CONTINUOUS
 62
    3
 10
97.947742773704931
 20
241.85958379680133
 11
92.347793581348469
 21
241.85958379680133
  0
LINE
  8
_e-2_
  6
CONTINUOUS
 62
    3
 10
97.947742773704931
 20
238.25956202209696
 11
92.347793581348469
 21
238.25956202209696
  0
LINE
  8
_e-2_
  6
CONTINUOUS
 62
    3
 10
91.347795230947213
 20
241.85958379680133
 11
91.347795230947213
 21
238.25956202209696
  0
LINE
  8
_e-2_
  6
CONTINUOUS
 62
    3
 10
89.747770157045125
 20
241.85958379680133
 11
89.747770157045125
 21
238.25956202209696
  0
LINE
  8
_e-2_
  6
CONTINUOUS
 62
    3
 10
89.747770157045125
 20
241.85958379680133
 11
91.347795230947213
 21
241.85958379680133
  0
LINE
  8
_e-2_
  6
CONTINUOUS
 62
    3
 10
89.747770157045125
 20
238.25956202209696
 11
91.347795230947213
 21
238.25956202209696
  0
LINE
  8
_e-2_
  6
CONTINUOUS
 62
    3
 10
97.947742773704931
 20
241.85958379680133
 11
97.947742773704931
 21
238.25956202209696
  0
LINE
  8
_e-2_
  6
CONTINUOUS
 62
    3
 10
83.147787972712649
 20
241.85958379680145
 11
83.147787972712649
 21
238.25956202209696
  0
LINE
  8
_e-2_
  6
CONTINUOUS
 62
    3
 10
88.747771806643868
 20
241.85958379680145
 11
83.147787972712649
 21
241.85958379680145
  0
LINE
  8
_e-2_
  6
CONTINUOUS
 62
    3
 10
88.747771806643868
 20
238.25956202209696
 11
83.147787972712649
 21
238.25956202209696
  0
LINE
  8
_e-2_
  6
CONTINUOUS
 62
    3
 10
88.747771806643868
 20
241.85958379680133
 11
88.747771806643868
 21
238.25956202209696
  0
LINE
  8
_e-2_
  6
CONTINUOUS
 62
    3
 10
122.1477582799339
 20
243.25951913252774
 11
122.1477582799339
 21
246.85954090723214
  0
LINE
  8
_e-2_
  6
CONTINUOUS
 62
    3
 10
114.1477714767243
 20
243.25951913252774
 11
114.1477714767243
 21
246.85954090723217
  0
LINE
  8
_e-2_
  6
CONTINUOUS
 62
    3
 10
114.1477714767243
 20
246.85954090723217
 11
122.1477582799339
 21
246.85954090723214
  0
LINE
  8
_e-2_
  6
CONTINUOUS
 62
    3
 10
122.1477582799339
 20
243.25951913252774
 11
114.1477714767243
 21
243.25951913252774
  0
LINE
  8
_e-2_
  6
CONTINUOUS
 62
    3
 10
112.94778731287283
 20
243.25951913252774
 11
112.94778731287283
 21
246.85954090723217
  0
LINE
  8
_e-2_
  6
CONTINUOUS
 62
    3
 10
104.94776586808825
 20
243.25951913252774
 11
104.94776586808825
 21
246.85954090723217
  0
LINE
  8
_e-2_
  6
CONTINUOUS
 62
    3
 10
104.94776586808825
 20
246.85954090723217
 11
112.94778731287283
 21
246.85954090723217
  0
LINE
  8
_e-2_
  6
CONTINUOUS
 62
    3
 10
112.94778731287283
 20
243.25951913252774
 11
104.94776586808825
 21
243.25951913252774
  0
LINE
  8
_e-2_
  6
CONTINUOUS
 62
    3
 10
103.74778170423701
 20
243.25951913252774
 11
103.74778170423701
 21
246.85954090723217
  0
LINE
  8
_e-2_
  6
CONTINUOUS
 62
    3
 10
95.747794901027646
 20
243.25951913252774
 11
95.747794901027646
 21
246.85954090723217
  0
LINE
  8
_e-2_
  6
CONTINUOUS
 62
    3
 10
95.747794901027646
 20
246.85954090723217
 11
103.74778170423701
 21
246.85954090723217
  0
LINE
  8
_e-2_
  6
CONTINUOUS
 62
    3
 10
103.74778170423701
 20
243.25951913252774
 11
95.747794901027646
 21
243.25951913252774
  0
LINE
  8
_e-2_
  6
CONTINUOUS
 62
    3
 10
94.547810737176178
 20
243.25951913252774
 11
94.547810737176178
 21
246.85954090723217
  0
LINE
  8
_e-2_
  6
CONTINUOUS
 62
    3
 10
86.547789292391371
 20
243.25951913252774
 11
86.547789292391371
 21
246.85954090723217
  0
LINE
  8
_e-2_
  6
CONTINUOUS
 62
    3
 10
86.547789292391371
 20
246.85954090723217
 11
94.547810737176178
 21
246.85954090723217
  0
LINE
  8
_e-2_
  6
CONTINUOUS
 62
    3
 10
94.547810737176178
 20
243.25951913252774
 11
86.547789292391371
 21
243.25951913252774
  0
LINE
  8
_e-2_
  6
CONTINUOUS
 62
    3
 10
119.94774112410619
 20
251.85956730081315
 11
119.94774112410619
 21
248.25951088453371
  0
LINE
  8
_e-2_
  6
CONTINUOUS
 62
    3
 10
125.54775959961262
 20
251.85956730081315
 11
119.94774112410619
 21
251.85956730081315
  0
LINE
  8
_e-2_
  6
CONTINUOUS
 62
    3
 10
125.54775959961262
 20
248.25951088453371
 11
119.94774112410619
 21
248.25951088453371
  0
LINE
  8
_e-2_
  6
CONTINUOUS
 62
    3
 10
118.94774277370493
 20
251.85956730081315
 11
118.94774277370493
 21
248.25951088453371
  0
LINE
  8
_e-2_
  6
CONTINUOUS
 62
    3
 10
117.34778698295304
 20
251.85956730081315
 11
117.34778698295304
 21
248.25954552610881
  0
LINE
  8
_e-2_
  6
CONTINUOUS
 62
    3
 10
117.34778698295304
 20
251.85956730081315
 11
118.94774277370493
 21
251.85956730081315
  0
LINE
  8
_e-2_
  6
CONTINUOUS
 62
    3
 10
117.34778698295304
 20
248.25954552610881
 11
118.94774277370493
 21
248.25951088453371
  0
LINE
  8
_e-2_
  6
CONTINUOUS
 62
    3
 10
125.54775959961262
 20
251.85956730081315
 11
125.54775959961262
 21
248.25951088453371
  0
LINE
  8
_e-2_
  6
CONTINUOUS
 62
    3
 10
110.74777015704512
 20
251.85956730081315
 11
110.74777015704512
 21
248.25954552610884
  0
LINE
  8
_e-2_
  6
CONTINUOUS
 62
    3
 10
116.34778863255201
 20
251.85956730081315
 11
110.74777015704512
 21
251.85956730081315
  0
LINE
  8
_e-2_
  6
CONTINUOUS
 62
    3
 10
116.34778863255201
 20
248.25954552610881
 11
110.74777015704512
 21
248.25954552610884
  0
LINE
  8
_e-2_
  6
CONTINUOUS
 62
    3
 10
109.74780644821908
 20
251.85956730081315
 11
109.74780644821908
 21
248.25954552610884
  0
LINE
  8
_e-2_
  6
CONTINUOUS
 62
    3
 10
108.14778137431722
 20
251.85956730081315
 11
108.14778137431722
 21
248.25954552610884
  0
LINE
  8
_e-2_
  6
CONTINUOUS
 62
    3
 10
108.14778137431722
 20
251.85956730081315
 11
109.74780644821908
 21
251.85956730081315
  0
LINE
  8
_e-2_
  6
CONTINUOUS
 62
    3
 10
108.14778137431722
 20
248.25954552610884
 11
109.74780644821908
 21
248.25954552610884
  0
LINE
  8
_e-2_
  6
CONTINUOUS
 62
    3
 10
116.34778863255201
 20
251.85956730081315
 11
116.34778863255201
 21
248.25954552610881
  0
LINE
  8
_e-2_
  6
CONTINUOUS
 62
    3
 10
101.54776454840908
 20
251.85956730081315
 11
101.54776454840908
 21
248.25954552610884
  0
LINE
  8
_e-2_
  6
CONTINUOUS
 62
    3
 10
107.14781766549117
 20
251.85956730081315
 11
101.54776454840908
 21
251.85956730081315
  0
LINE
  8
_e-2_
  6
CONTINUOUS
 62
    3
 10
107.14781766549117
 20
248.25954552610884
 11
101.54776454840908
 21
248.25954552610884
  0
LINE
  8
_e-2_
  6
CONTINUOUS
 62
    3
 10
100.54780083958326
 20
251.85956730081315
 11
100.54780083958326
 21
248.25954552610884
  0
LINE
  8
_e-2_
  6
CONTINUOUS
 62
    3
 10
98.947775765681399
 20
251.85956730081315
 11
98.947775765681399
 21
248.25954552610884
  0
LINE
  8
_e-2_
  6
CONTINUOUS
 62
    3
 10
98.947775765681399
 20
251.85956730081315
 11
100.54780083958326
 21
251.85956730081315
  0
LINE
  8
_e-2_
  6
CONTINUOUS
 62
    3
 10
98.947775765681399
 20
248.25954552610884
 11
100.54780083958326
 21
248.25954552610884
  0
LINE
  8
_e-2_
  6
CONTINUOUS
 62
    3
 10
107.14781766549117
 20
251.85956730081315
 11
107.14781766549117
 21
248.25954552610884
  0
LINE
  8
_e-2_
  6
CONTINUOUS
 62
    3
 10
92.347793581348469
 20
251.85956730081318
 11
92.347793581348469
 21
248.25954552610884
  0
LINE
  8
_e-2_
  6
CONTINUOUS
 62
    3
 10
97.947742773704931
 20
248.25954552610884
 11
92.347793581348469
 21
248.25954552610884
  0
LINE
  8
_e-2_
  6
CONTINUOUS
 62
    3
 10
91.347795230947213
 20
251.85956730081318
 11
91.347795230947213
 21
248.25954552610884
  0
LINE
  8
_e-2_
  6
CONTINUOUS
 62
    3
 10
89.747770157045125
 20
251.85956730081318
 11
89.747770157045125
 21
248.25954552610884
  0
LINE
  8
_e-2_
  6
CONTINUOUS
 62
    3
 10
89.747770157045125
 20
251.85956730081318
 11
91.347795230947213
 21
251.85956730081318
  0
LINE
  8
_e-2_
  6
CONTINUOUS
 62
    3
 10
89.747770157045125
 20
248.25954552610884
 11
91.347795230947213
 21
248.25954552610884
  0
LINE
  8
_e-2_
  6
CONTINUOUS
 62
    3
 10
122.1477582799339
 20
253.25957191968996
 11
122.1477582799339
 21
256.85952441124402
  0
LINE
  8
_e-2_
  6
CONTINUOUS
 62
    3
 10
114.1477714767243
 20
253.25957191968996
 11
114.1477714767243
 21
256.85952441124402
  0
LINE
  8
_e-2_
  6
CONTINUOUS
 62
    3
 10
114.1477714767243
 20
256.85952441124402
 11
122.1477582799339
 21
256.85952441124402
  0
LINE
  8
_e-2_
  6
CONTINUOUS
 62
    3
 10
122.1477582799339
 20
253.25957191968996
 11
114.1477714767243
 21
253.25957191968996
  0
LINE
  8
_e-2_
  6
CONTINUOUS
 62
    3
 10
112.94778731287283
 20
253.25957191968996
 11
112.94778731287283
 21
256.85952441124402
  0
LINE
  8
_e-2_
  6
CONTINUOUS
 62
    3
 10
104.94776586808825
 20
253.25957191968996
 11
104.94776586808825
 21
256.85952441124402
  0
LINE
  8
_e-2_
  6
CONTINUOUS
 62
    3
 10
104.94776586808825
 20
256.85952441124402
 11
112.94778731287283
 21
256.85952441124402
  0
LINE
  8
_e-2_
  6
CONTINUOUS
 62
    3
 10
112.94778731287283
 20
253.25957191968996
 11
104.94776586808825
 21
253.25957191968996
  0
LINE
  8
_e-2_
  6
CONTINUOUS
 62
    3
 10
103.74778170423701
 20
253.25957191968996
 11
103.74778170423701
 21
256.85952441124402
  0
LINE
  8
_e-2_
  6
CONTINUOUS
 62
    3
 10
119.9477757656814
 20
261.85951616324985
 11
119.94774112410619
 21
258.25956367169579
  0
LINE
  8
_e-2_
  6
CONTINUOUS
 62
    3
 10
125.54775959961262
 20
261.85951616324985
 11
119.9477757656814
 21
261.85951616324985
  0
LINE
  8
_e-2_
  6
CONTINUOUS
 62
    3
 10
125.54775959961262
 20
258.25956367169579
 11
119.94774112410619
 21
258.25956367169579
  0
LINE
  8
_e-2_
  6
CONTINUOUS
 62
    3
 10
118.94777741528014
 20
261.85951616324985
 11
118.94774277370493
 21
258.25956367169579
  0
LINE
  8
_e-2_
  6
CONTINUOUS
 62
    3
 10
117.34778698295304
 20
261.85955080482506
 11
117.34778698295304
 21
258.25956367169579
  0
LINE
  8
_e-2_
  6
CONTINUOUS
 62
    3
 10
117.34778698295304
 20
261.85955080482506
 11
118.94777741528014
 21
261.85951616324985
  0
LINE
  8
_e-2_
  6
CONTINUOUS
 62
    3
 10
117.34778698295304
 20
258.25956367169579
 11
118.94774277370493
 21
258.25956367169579
  0
LINE
  8
_e-2_
  6
CONTINUOUS
 62
    3
 10
125.54775959961262
 20
261.85951616324985
 11
125.54775959961262
 21
258.25956367169579
  0
LINE
  8
_e-2_
  6
CONTINUOUS
 62
    3
 10
110.74780479862034
 20
261.85955080482506
 11
110.74777015704512
 21
258.25956367169579
  0
LINE
  8
_e-2_
  6
CONTINUOUS
 62
    3
 10
116.34782327412722
 20
261.85955080482506
 11
110.74780479862034
 21
261.85955080482506
  0
LINE
  8
_e-2_
  6
CONTINUOUS
 62
    3
 10
116.34778863255201
 20
258.25956367169579
 11
110.74777015704512
 21
258.25956367169579
  0
LINE
  8
_e-2_
  6
CONTINUOUS
 62
    3
 10
109.74780644821908
 20
261.85955080482506
 11
109.74780644821908
 21
258.25956367169579
  0
LINE
  8
_e-2_
  6
CONTINUOUS
 62
    3
 10
108.14781601589243
 20
261.85955080482506
 11
108.14778137431722
 21
258.25956367169579
  0
LINE
  8
_e-2_
  6
CONTINUOUS
 62
    3
 10
108.14781601589243
 20
261.85955080482506
 11
109.74780644821908
 21
261.85955080482506
  0
LINE
  8
_e-2_
  6
CONTINUOUS
 62
    3
 10
108.14778137431722
 20
258.25956367169579
 11
109.74780644821908
 21
258.25956367169579
  0
LINE
  8
_e-2_
  6
CONTINUOUS
 62
    3
 10
116.34782327412722
 20
261.85955080482506
 11
116.34778863255201
 21
258.25956367169579
  0
LINE
  8
_e-2_
  6
CONTINUOUS
 62
    3
 10
101.54779918998429
 20
261.85955080482506
 11
101.54776454840908
 21
258.25956367169579
  0
LINE
  8
_e-2_
  6
CONTINUOUS
 62
    3
 10
107.14781766549117
 20
261.85955080482506
 11
101.54779918998429
 21
261.85955080482506
  0
LINE
  8
_e-2_
  6
CONTINUOUS
 62
    3
 10
107.14778302391596
 20
258.25956367169579
 11
101.54776454840908
 21
258.25956367169579
  0
LINE
  8
_e-2_
  6
CONTINUOUS
 62
    3
 10
100.54780083958326
 20
261.85955080482506
 11
100.54780083958326
 21
258.25956367169579
  0
LINE
  8
_e-2_
  6
CONTINUOUS
 62
    3
 10
107.14781766549117
 20
261.85955080482506
 11
107.14778302391596
 21
258.25956367169579
  0
LINE
  8
_e-2_
  6
CONTINUOUS
 62
    3
 10
122.1477582799339
 20
263.25952078212651
 11
122.1477582799339
 21
266.85954255683089
  0
LINE
  8
_e-2_
  6
CONTINUOUS
 62
    3
 10
114.14780611829951
 20
263.25959006527694
 11
114.14780611829951
 21
266.85954255683089
  0
LINE
  8
_e-2_
  6
CONTINUOUS
 62
    3
 10
114.14780611829951
 20
266.85954255683089
 11
122.1477582799339
 21
266.85954255683089
  0
LINE
  8
_e-2_
  6
CONTINUOUS
 62
    3
 10
122.1477582799339
 20
263.25952078212651
 11
114.14780611829951
 21
263.25959006527694
  0
LINE
  8
_e-2_
  6
CONTINUOUS
 62
    3
 10
112.94782195444805
 20
263.25959006527694
 11
112.94782195444805
 21
266.85954255683089
  0
LINE
  8
_e-2_
  6
CONTINUOUS
 62
    3
 10
112.94782195444805
 20
263.25959006527694
 11
104.94780050966347
 21
263.25959006527694
  0
LINE
  8
_e-2_
  6
CONTINUOUS
 62
    3
 10
134.74776520824889
 20
268.25954717570761
 11
129.14778137431722
 21
268.25954717570761
  0
LINE
  8
_e-2_
  6
CONTINUOUS
 62
    3
 10
126.54775795001387
 20
268.25954717570761
 11
128.14778302391596
 21
268.25954717570761
  0
LINE
  8
_e-2_
  6
CONTINUOUS
 62
    3
 10
116.34782327412722
 20
268.25958181728276
 11
110.74780479862034
 21
268.25958181728276
  0
LINE
  8
_e-2_
  6
CONTINUOUS
 62
    3
 10
85.347805128540358
 20
216.85955575362152
 11
76.574756933861181
 21
216.85953843283397
  0
LINE
  8
_e-2_
  6
CONTINUOUS
 62
    3
 10
76.63312798802076
 20
218.25954305171064
 11
79.547766198008048
 21
218.25957769328585
  0
LINE
  8
_e-2_
  6
CONTINUOUS
 62
    3
 10
76.934301842539298
 20
221.85949554326464
 11
79.547766198008048
 21
221.85953018483988
  0
LINE
  8
_e-2_
  6
CONTINUOUS
 62
    3
 10
77.719522426893263
 20
226.85957389920856
 11
85.347770486965146
 21
226.85950461605819
  0
LINE
  8
_e-2_
  6
CONTINUOUS
 62
    3
 10
78.947739474507216
 20
231.85960029278957
 11
79.547766198008048
 21
231.85960029278957
  0
LINE
  8
_e-2_
  6
CONTINUOUS
 62
    3
 10
85.347770486965146
 20
233.25953562851592
 11
79.374662246888875
 21
233.25953562851592
  0
LINE
  8
_e-2_
  6
CONTINUOUS
 62
    3
 10
80.648190474823878
 20
236.85955740322029
 11
85.347770486965146
 21
236.85955740322029
  0
LINE
  8
_e-2_
  6
CONTINUOUS
 62
    3
 10
81.214545587260545
 20
238.25956202209696
 11
82.147789622311393
 21
238.25956202209696
  0
LINE
  8
_e-2_
  6
CONTINUOUS
 62
    3
 10
82.147789622311393
 20
240.37048104659024
 11
82.147789622311393
 21
238.25956202209696
  0
LINE
  8
_e-2_
  6
CONTINUOUS
 62
    3
 10
85.347735845389934
 20
243.25951913252774
 11
83.587735977357625
 21
243.25951913252774
  0
LINE
  8
_e-2_
  6
CONTINUOUS
 62
    3
 10
85.347735845389934
 20
243.25951913252774
 11
85.347735845389934
 21
246.34151079215613
  0
LINE
  8
_e-2_
  6
CONTINUOUS
 62
    3
 10
86.57013310837533
 20
248.25954552610884
 11
88.74780644821908
 21
248.25954552610884
  0
LINE
  8
_e-2_
  6
CONTINUOUS
 62
    3
 10
88.74780644821908
 20
251.32480530493061
 11
88.74780644821908
 21
248.25954552610884
  0
LINE
  8
_e-2_
  6
CONTINUOUS
 62
    3
 10
103.74778170423701
 20
263.25959006527694
 11
100.81592663139054
 21
263.25959006527694
  0
LINE
  8
_e-2_
  6
CONTINUOUS
 62
    3
 10
103.74778170423701
 20
263.25959006527694
 11
103.74778170423701
 21
265.30067167422959
  0
LINE
  8
_e-2_
  6
CONTINUOUS
 62
    3
 10
104.94780050966347
 20
263.25959006527694
 11
104.94780050966347
 21
266.06392949992636
  0
LINE
  8
_e-2_
  6
CONTINUOUS
 62
    3
 10
106.26954981023368
 20
266.85954255683089
 11
112.94782195444805
 21
266.85954255683089
  0
LINE
  8
_e-2_
  6
CONTINUOUS
 62
    3
 10
110.74780479862034
 20
269.22937271413673
 11
110.74780479862034
 21
268.25958181728276
  0
LINE
  8
_e-2_
  6
CONTINUOUS
 62
    3
 10
99.000915941990115
 20
261.85955080482506
 11
100.54780083958326
 21
261.85955080482506
  0
LINE
  8
_e-2_
  6
CONTINUOUS
 62
    3
 10
134.74776520824889
 20
270.23027174549219
 11
134.74776520824889
 21
268.25954717570761
  0
LINE
  8
_e-2_
  6
CONTINUOUS
 62
    3
 10
135.74776355865015
 20
270.25375873345678
 11
135.74776355865015
 21
268.25954717570761
  0
LINE
  8
_e-2_
  6
CONTINUOUS
 62
    3
 10
128.14778302391596
 20
269.61670016610043
 11
128.14778302391596
 21
268.25954717570761
  0
LINE
  8
_e-2_
  6
CONTINUOUS
 62
    3
 10
126.54775795001387
 20
269.34625338875668
 11
126.54775795001387
 21
268.25954717570761
  0
LINE
  8
_e-2_
  6
CONTINUOUS
 62
    3
 10
125.54775959961262
 20
269.15246841726173
 11
125.54775959961262
 21
268.25954717570761
  0
LINE
  8
_e-2_
  6
CONTINUOUS
 62
    3
 10
129.14778137431722
 20
269.76132874243052
 11
129.14778137431722
 21
268.25954717570761
  0
LINE
  8
_e-2_
  6
CONTINUOUS
 62
    3
 10
85.347735845389934
 20
223.25953480371655
 11
77.110696743299513
 21
223.25950016214131
  0
LINE
  8
_e-2_
  6
CONTINUOUS
 62
    3
 10
78.017751747522425
 20
228.25957851808519
 11
79.547766198008048
 21
228.2596478012355
  0
LINE
  8
_e-2_
  6
CONTINUOUS
 62
    3
 10
116.34782327412722
 20
271.55704407446177
 11
116.34782327412722
 21
268.25958181728276
  0
LINE
  8
_e-2_
  6
CONTINUOUS
 62
    3
 10
125.54775959961262
 20
268.25954717570761
 11
121.82358241950283
 21
268.25954717570761
  0
LINE
  8
_e-2_
  6
CONTINUOUS
 62
    3
 10
107.14778302391596
 20
221.85951286405222
 11
101.54779918998429
 21
221.85951286405228
  0
LINE
  8
_e-2_
  6
CONTINUOUS
 62
    3
 10
98.947775765681399
 20
221.85951286405228
 11
100.54780083958326
 21
221.85951286405228
  0
LINE
  8
_e-2_
  6
CONTINUOUS
 62
    3
 10
107.14778302391596
 20
221.85951286405222
 11
107.14778302391596
 21
218.25956037249821
  0
LINE
  8
_e-2_
  6
CONTINUOUS
 62
    3
 10
92.347758939773257
 20
221.85951286405228
 11
92.347758939773257
 21
218.25956037249821
  0
LINE
  8
_e-2_
  6
CONTINUOUS
 62
    3
 10
97.947742773704931
 20
221.85951286405228
 11
92.347758939773257
 21
221.85951286405228
  0
LINE
  8
_e-2_
  6
CONTINUOUS
 62
    3
 10
105.34773749498868
 20
218.0595572382604
 11
94.147735185550118
 21
218.0595572382604
  0
LINE
  8
_e-2_
  6
CONTINUOUS
 62
    3
 10
112.94782195444805
 20
216.85953843283394
 11
106.74774211386512
 21
216.85953843283394
  0
LINE
  8
_e-2_
  6
CONTINUOUS
 62
    3
 10
92.747730566673681
 20
216.85953843283394
 11
86.547823933966583
 21
216.85955575362152
  0
LINE
  8
_e-2_
  6
CONTINUOUS
 62
    3
 10
92.747730566673681
 20
218.25956037249821
 11
92.347758939773257
 21
218.25956037249821
  0
LINE
  8
_e-2_
  6
CONTINUOUS
 62
    3
 10
107.14778302391596
 20
218.25956037249821
 11
106.74774211386512
 21
218.25956037249821
  0
LINE
  8
_e-2_
  6
CONTINUOUS
 62
    3
 10
101.54779918998429
 20
221.85951286405228
 11
101.54779918998429
 21
219.45956185713712
  0
LINE
  8
_e-2_
  6
CONTINUOUS
 62
    3
 10
100.54780083958326
 20
221.85951286405228
 11
100.54780083958326
 21
219.45956185713712
  0
LINE
  8
_e-2_
  6
CONTINUOUS
 62
    3
 10
98.947775765681399
 20
221.85951286405228
 11
98.947775765681399
 21
219.45954453634957
  0
LINE
  8
_e-2_
  6
CONTINUOUS
 62
    3
 10
97.947742773704931
 20
221.85951286405228
 11
97.947742773704931
 21
219.45954453634957
  0
LINE
  8
_e-2_
  6
CONTINUOUS
 62
    3
 10
97.947742773704931
 20
219.45954453634957
 11
92.747730566673681
 21
219.45954453634957
  0
LINE
  8
_e-2_
  6
CONTINUOUS
 62
    3
 10
106.74774211386512
 20
219.45956185713712
 11
101.54779918998429
 21
219.45954453634957
  0
LINE
  8
_e-2_
  6
CONTINUOUS
 62
    3
 10
100.54780083958326
 20
219.45954453634957
 11
98.947775765681399
 21
219.45954453634957
  0
LINE
  8
_e-2_
  6
CONTINUOUS
 62
    3
 10
106.74774211386512
 20
218.25956037249821
 11
106.74774211386512
 21
219.45956185713712
  0
LINE
  8
_e-2_
  6
CONTINUOUS
 62
    3
 10
92.747730566673681
 20
218.25956037249821
 11
92.747730566673681
 21
219.45954453634957
  0
LINE
  8
_e-2_
  6
CONTINUOUS
 62
    3
 10
97.947742773704931
 20
260.99472388073298
 11
97.947742773704931
 21
260.10561321244757
  0
LINE
  8
_e-2_
  6
CONTINUOUS
 62
    3
 10
98.947706482530975
 20
261.81680310106663
 11
98.947706482530975
 21
259.30404180461392
  0
LINE
  8
_e-2_
  6
CONTINUOUS
 62
    3
 10
99.695340957826375
 20
258.25956367169579
 11
100.54780083958326
 21
258.25956367169579
  0
LINE
  8
_e-2_
  6
CONTINUOUS
 62
    3
 10
100.16909913983659
 20
256.85952441124402
 11
103.74778170423701
 21
256.85952441124402
  0
LINE
  8
_e-2_
  6
CONTINUOUS
 62
    3
 10
103.74778170423701
 20
253.25957191968996
 11
99.301431606580763
 21
253.25957191968996
  0
LINE
  8
_e-2_
  6
CONTINUOUS
 62
    3
 10
97.947742773704931
 20
251.85956730081315
 11
97.947742773704931
 21
248.25954552610884
  0
LINE
  8
_e-2_
  6
CONTINUOUS
 62
    3
 10
97.947742773704931
 20
251.85956730081315
 11
97.620587737809501
 21
251.85956730081315
  0
LINE
  8
_e-2_
  6
CONTINUOUS
 62
    3
 10
93.450573485275754
 20
251.85956730081318
 11
92.347793581348469
 21
251.85956730081318
  0
LINE
  8
_e-2_
  6
CONTINUOUS
 62
    3
 10
91.769729616504719
 20
253.25957191968999
 11
90.279414411162406
 21
253.25957191968999
  0
LINE
  8
_e-2_
  6
CENTER1
 62
    3
 10
99.351869740026586
 20
259.88809876196183
 11
91.719291483058896
 21
252.25548586341884
  0
LINE
  8
_e-2_
  6
CENTER1
 62
    3
 10
99.351869740026586
 20
252.25548586341881
 11
91.719291483058896
 21
259.88809876196183
  0
LINE
  8
_e-2_
  6
CONTINUOUS
 62
    3
 10
187.74767777951115
 20
215.05952754548161
 11
187.74767777951115
 21
216.85952111204631
  0
LINE
  8
_e-2_
  6
CONTINUOUS
 62
    3
 10
186.54769361566014
 20
215.05952754548161
 11
186.54769361566014
 21
216.85952111204631
  0
LINE
  8
_e-2_
  6
CONTINUOUS
 62
    3
 10
160.14769559517867
 20
215.05954486626928
 11
160.14769559517867
 21
216.85952111204631
  0
LINE
  8
_e-2_
  6
CONTINUOUS
 62
    3
 10
158.94767678975222
 20
215.05954486626928
 11
158.94767678975222
 21
216.85952111204631
  0
LINE
  8
_e-2_
  6
CONTINUOUS
 62
    3
 10
178.94774772250139
 20
215.05952754548161
 11
178.94774772250139
 21
218.05952259668527
  0
LINE
  8
_e-2_
  6
CONTINUOUS
 62
    3
 10
167.74778005463804
 20
215.05954486626928
 11
167.74778005463804
 21
218.05953991747276
  0
LINE
  8
_e-2_
  6
CONTINUOUS
 62
    3
 10
166.34774079418639
 20
215.05954486626928
 11
166.34774079418639
 21
216.85952111204631
  0
LINE
  8
_e-2_
  6
CONTINUOUS
 62
    3
 10
180.34778698295304
 20
215.05952754548161
 11
180.34778698295304
 21
216.85952111204631
  0
LINE
  8
_e-2_
  6
CONTINUOUS
 62
    3
 10
174.44777246648368
 20
215.05952754548161
 11
174.44777246648368
 21
218.05952259668527
  0
LINE
  8
_e-2_
  6
CONTINUOUS
 62
    3
 10
172.24775531065575
 20
215.05954486626928
 11
172.24775531065575
 21
218.05952259668527
  0
LINE
  8
_e-2_
  6
CONTINUOUS
 62
    3
 10
85.347805128540358
 20
215.05963147020731
 11
85.347805128540358
 21
216.85955575362152
  0
LINE
  8
_e-2_
  6
CONTINUOUS
 62
    3
 10
86.547823933966583
 20
215.05963147020731
 11
86.547823933966583
 21
216.85955575362152
  0
LINE
  8
_e-2_
  6
CONTINUOUS
 62
    3
 10
112.94782195444805
 20
215.05961414941967
 11
112.94782195444805
 21
216.85953843283394
  0
LINE
  8
_e-2_
  6
CONTINUOUS
 62
    3
 10
114.14780611829951
 20
215.05961414941967
 11
114.14780611829951
 21
216.85953843283394
  0
LINE
  8
_e-2_
  6
CONTINUOUS
 62
    3
 10
94.147735185550118
 20
215.05963147020728
 11
94.147735185550118
 21
218.0595572382604
  0
LINE
  8
_e-2_
  6
CONTINUOUS
 62
    3
 10
105.34773749498868
 20
215.05961414941967
 11
105.34773749498868
 21
218.0595572382604
  0
LINE
  8
_e-2_
  6
CONTINUOUS
 62
    3
 10
106.74774211386512
 20
215.05961414941967
 11
106.74774211386512
 21
216.85953843283394
  0
LINE
  8
_e-2_
  6
CONTINUOUS
 62
    3
 10
92.747730566673681
 20
215.05963147020728
 11
92.747730566673681
 21
216.85953843283394
  0
LINE
  8
_e-2_
  6
CONTINUOUS
 62
    3
 10
98.647745083143263
 20
215.05963147020728
 11
98.647745083143263
 21
218.0595572382604
  0
LINE
  8
_e-2_
  6
CONTINUOUS
 62
    3
 10
100.84772759739576
 20
215.05961414941967
 11
100.84772759739576
 21
218.0595572382604
  0
ARC
  8
_e-2_
  6
CONTINUOUS
 62
    3
 10
136.54774145402575
 20
215.0595795078444
 40
56.599999298920501
 50
71.999954223632812
 51
107.99998474121092
  0
ARC
  8
_e-2_
  6
CONTINUOUS
 62
    3
 10
136.54774145402575
 20
215.0595795078444
 40
61.200002103238504
 50
71.99993896484375
 51
108
  0
ARC
  8
_e-2_
  6
CONTINUOUS
 62
    3
 10
136.54774145402575
 20
215.0595795078444
 40
60.000000618599564
 50
3.0571441650390629
 51
6.5073699951171875
  0
ARC
  8
_e-2_
  6
CONTINUOUS
 62
    3
 10
136.54774145402575
 20
215.0595795078444
 40
60.000000618599564
 50
7.8548736572265625
 51
11.341995239257813
  0
ARC
  8
_e-2_
  6
CONTINUOUS
 62
    3
 10
136.54774145402575
 20
215.0595795078444
 40
60.000000618599564
 50
12.708969116210938
 51
16.2601318359375
  0
ARC
  8
_e-2_
  6
CONTINUOUS
 62
    3
 10
136.54774145402575
 20
215.0595795078444
 40
60.000000618599564
 50
17.657791137695313
 51
21.304962158203125
  0
ARC
  8
_e-2_
  6
CONTINUOUS
 62
    3
 10
136.54774145402575
 20
215.0595795078444
 40
60.000000618599564
 50
22.747177124023438
 51
24.951324462890625
  0
ARC
  8
_e-2_
  6
CONTINUOUS
 62
    3
 10
136.54774145402575
 20
215.0595795078444
 40
60.000000618599564
 50
28.034194946289059
 51
31.423843383789059
  0
ARC
  8
_e-2_
  6
CONTINUOUS
 62
    3
 10
136.54774145402575
 20
215.0595795078444
 40
60.000000618599564
 50
33.595916748046875
 51
37.187088012695313
  0
ARC
  8
_e-2_
  6
CONTINUOUS
 62
    3
 10
136.54774145402575
 20
215.0595795078444
 40
60.000000618599564
 50
51.1953125
 51
51.26048278808593
  0
ARC
  8
_e-2_
  6
CONTINUOUS
 62
    3
 10
136.54774145402575
 20
215.0595795078444
 40
60.000000618599564
 50
53.44952392578125
 51
56.861358642578125
  0
ARC
  8
_e-2_
  6
CONTINUOUS
 62
    3
 10
136.54774145402575
 20
215.0595795078444
 40
60.000000618599564
 50
58.219482421875
 51
59.692733764648445
  0
ARC
  8
_e-2_
  6
CONTINUOUS
 62
    3
 10
136.54774145402575
 20
215.0595795078444
 40
60.000000618599564
 50
64.532440185546875
 51
70.326080322265625
  0
ARC
  8
_e-2_
  6
CONTINUOUS
 62
    3
 10
136.54774145402575
 20
215.0595795078444
 40
55.200003340437618
 50
79.562652587890625
 51
81.247070312500014
  0
ARC
  8
_e-2_
  6
CONTINUOUS
 62
    3
 10
136.54774145402575
 20
215.0595795078444
 40
55.200003340437618
 50
82.295852661132813
 51
88.13128662109375
  0
ARC
  8
_e-2_
  6
CONTINUOUS
 62
    3
 10
136.54774145402575
 20
215.0595795078444
 40
55.200003340437618
 50
89.169586181640611
 51
90.830368041992173
  0
ARC
  8
_e-2_
  6
CONTINUOUS
 62
    3
 10
136.54774145402575
 20
215.0595795078444
 40
55.200003340437618
 50
74.529449462890625
 51
78.505371093750014
  0
ARC
  8
_e-2_
  6
CONTINUOUS
 62
    3
 10
136.54774145402575
 20
215.0595795078444
 40
60.000000618599564
 50
49.131851196289063
 51
49.959106445312493
  0
ARC
  8
_e-2_
  6
CONTINUOUS
 62
    3
 10
136.54774145402575
 20
215.0595795078444
 40
60.000000618599564
 50
39.543685913085937
 51
40.86811828613282
  0
ARC
  8
_e-2_
  6
CONTINUOUS
 62
    3
 10
177.55993693808387
 20
256.07177499190271
 40
4.7000000412399707
 50
136.55101013183594
 51
152.25865173339844
  0
ARC
  8
_e-2_
  6
CONTINUOUS
 62
    3
 10
177.55993693808387
 20
256.07177499190271
 40
4.7000000412399707
 50
170.35136413574216
 51
216.7510986328125
  0
ARC
  8
_e-2_
  6
CONTINUOUS
 62
    3
 10
177.55993693808387
 20
256.07177499190271
 40
4.7000000412399707
 50
243.66514587402347
 51
296.33485412597662
  0
ARC
  8
_e-2_
  6
CONTINUOUS
 62
    3
 10
177.55993693808387
 20
256.07177499190271
 40
4.7000000412399707
 50
323.2489013671875
 51
338.10092163085937
  0
ARC
  8
_e-2_
  6
CONTINUOUS
 62
    3
 10
177.55993693808387
 20
256.07177499190271
 40
4.7000000412399707
 50
111.89907836914062
 51
120.87882995605467
  0
CIRCLE
  8
_e-2_
  6
CONTINUOUS
 62
    3
 10
177.55993693808387
 20
256.07177499190271
 40
3.3000000231974838
  0
ARC
  8
_e-2_
  6
CONTINUOUS
 62
    3
 10
136.54774145402575
 20
215.0595795078444
 40
60.000000618599564
 50
173.49258422851562
 51
176.94281005859372
  0
ARC
  8
_e-2_
  6
CONTINUOUS
 62
    3
 10
136.54774145402575
 20
215.0595795078444
 40
60.000000618599564
 50
168.657958984375
 51
172.14508056640625
  0
ARC
  8
_e-2_
  6
CONTINUOUS
 62
    3
 10
136.54774145402575
 20
215.0595795078444
 40
60.000000618599564
 50
163.73982238769528
 51
167.29098510742187
  0
ARC
  8
_e-2_
  6
CONTINUOUS
 62
    3
 10
136.54774145402575
 20
215.0595795078444
 40
60.000000618599564
 50
158.69499206542969
 51
162.3421630859375
  0
ARC
  8
_e-2_
  6
CONTINUOUS
 62
    3
 10
136.54774145402575
 20
215.0595795078444
 40
60.000000618599564
 50
155.04862976074219
 51
157.25277709960937
  0
ARC
  8
_e-2_
  6
CONTINUOUS
 62
    3
 10
136.54774145402575
 20
215.0595795078444
 40
60.000000618599564
 50
148.57611083984378
 51
151.96575927734378
  0
ARC
  8
_e-2_
  6
CONTINUOUS
 62
    3
 10
136.54774145402575
 20
215.0595795078444
 40
60.000000618599564
 50
142.81286621093753
 51
146.40403747558597
  0
ARC
  8
_e-2_
  6
CONTINUOUS
 62
    3
 10
136.54774145402575
 20
215.0595795078444
 40
60.000000618599564
 50
128.73947143554687
 51
128.80464172363281
  0
ARC
  8
_e-2_
  6
CONTINUOUS
 62
    3
 10
136.54774145402575
 20
215.0595795078444
 40
60.000000618599564
 50
123.13859558105469
 51
126.55043029785155
  0
ARC
  8
_e-2_
  6
CONTINUOUS
 62
    3
 10
136.54774145402575
 20
215.0595795078444
 40
60.000000618599564
 50
120.30722045898436
 51
121.7804718017578
  0
ARC
  8
_e-2_
  6
CONTINUOUS
 62
    3
 10
136.54774145402575
 20
215.0595795078444
 40
60.000000618599564
 50
109.67387390136719
 51
115.46751403808594
  0
ARC
  8
_e-2_
  6
CONTINUOUS
 62
    3
 10
136.54774145402575
 20
215.0595795078444
 40
55.200003340437618
 50
98.752883911132812
 51
100.4373016357422
  0
ARC
  8
_e-2_
  6
CONTINUOUS
 62
    3
 10
136.54774145402575
 20
215.0595795078444
 40
55.200003340437618
 50
91.868667602539063
 51
97.704101562500014
  0
ARC
  8
_e-2_
  6
CONTINUOUS
 62
    3
 10
136.54774145402575
 20
215.0595795078444
 40
55.200003340437618
 50
101.49458312988281
 51
105.47050476074219
  0
ARC
  8
_e-2_
  6
CONTINUOUS
 62
    3
 10
136.54774145402575
 20
215.0595795078444
 40
60.000000618599564
 50
130.04084777832031
 51
130.86810302734378
  0
ARC
  8
_e-2_
  6
CONTINUOUS
 62
    3
 10
136.54774145402575
 20
215.0595795078444
 40
60.000000618599564
 50
139.1318359375
 51
140.45626831054685
  0
ARC
  8
_e-2_
  6
CONTINUOUS
 62
    3
 10
95.535580611542628
 20
256.07177499190277
 40
4.7000000412399707
 50
27.741348266601566
 51
43.44898986816407
  0
ARC
  8
_e-2_
  6
CONTINUOUS
 62
    3
 10
95.535580611542628
 20
256.07177499190277
 40
4.7000000412399707
 50
323.2489013671875
 51
9.6486358642578249
  0
ARC
  8
_e-2_
  6
CONTINUOUS
 62
    3
 10
95.535580611542628
 20
256.07177499190277
 40
4.7000000412399707
 50
243.66514587402347
 51
296.33485412597662
  0
ARC
  8
_e-2_
  6
CONTINUOUS
 62
    3
 10
95.535580611542628
 20
256.07177499190277
 40
4.7000000412399707
 50
201.89907836914065
 51
216.75109863281253
  0
ARC
  8
_e-2_
  6
CONTINUOUS
 62
    3
 10
95.535580611542628
 20
256.07177499190277
 40
4.7000000412399707
 50
59.121170043945313
 51
68.100921630859375
  0
CIRCLE
  8
_e-2_
  6
CONTINUOUS
 62
    3
 10
95.535580611542628
 20
256.07177499190277
 40
3.3000000231974838
  0
ARC
  8
_e-2_
  6
CONTINUOUS
 62
    3
 10
136.54774145402575
 20
215.0595795078444
 40
64.000002680598087
 50
359.99993896484369
 51
179.99993896484372
  0
ARC
  8
_e-2_
  6
CONTINUOUS
 62
    3
 10
136.54774145402575
 20
215.0595795078444
 40
60.000000618599564
 50
359.99993896484369
 51
1.7190399169921515
  0
ARC
  8
_e-2_
  6
CONTINUOUS
 62
    3
 10
136.54774145402575
 20
215.0595795078444
 40
60.000000618599564
 50
178.28091430664065
 51
179.99993896484375
  0
LINE
  8
_e-2_
  6
CONTINUOUS
 62
    3
 10
150.94775926975217
 20
216.85953956693527
 11
158.94767678975222
 21
216.85952111204631
  0
LINE
  8
_e-2_
  6
CONTINUOUS
 62
    3
 10
122.14775828029929
 20
216.85955688771756
 11
114.14780611829951
 21
216.85953843283394
  0
LINE
  8
_e-2_
  6
CONTINUOUS
 62
    3
 10
114.14773683514909
 20
226.85950461605816
 11
122.14775827914923
 21
226.85957389920847
  0
LINE
  8
_e-2_
  6
CONTINUOUS
 62
    3
 10
114.14773683514909
 20
223.25951748292889
 11
122.14775827914923
 21
223.25951748292889
  0
LINE
  8
_e-2_
  6
CONTINUOUS
 62
    3
 10
122.14775827914923
 20
223.25951748292889
 11
122.14775827914923
 21
226.85957389920847
  0
LINE
  8
_e-2_
  6
CONTINUOUS
 62
    3
 10
158.94774607290265
 20
223.25950016214125
 11
150.94775926890247
 21
223.25950016214128
  0
LINE
  8
_e-2_
  6
CONTINUOUS
 62
    3
 10
158.94774607290265
 20
226.85950461605813
 11
150.94775926890247
 21
226.85957389920847
  0
LINE
  8
_e-2_
  6
CONTINUOUS
 62
    3
 10
150.94775926890247
 20
223.25950016214128
 11
150.94775926890247
 21
226.85957389920847
  0
LINE
  8
_e-2_
  6
CONTINUOUS
 62
    3
 10
140.54773485563055
 20
223.25962140765441
 11
140.54773485563055
 21
226.85957389920847
  0
LINE
  8
_e-2_
  6
CONTINUOUS
 62
    3
 10
141.747753661057
 20
223.25962140765441
 11
141.747753661057
 21
226.85957389920847
  0
LINE
  8
_e-2_
  6
CONTINUOUS
 62
    3
 10
149.74774046426637
 20
223.25962140765441
 11
149.74774046426637
 21
226.85957389920847
  0
LINE
  8
_e-2_
  6
CONTINUOUS
 62
    3
 10
149.74774046426637
 20
226.85957389920847
 11
141.747753661057
 21
226.85957389920847
  0
LINE
  8
_e-2_
  6
CONTINUOUS
 62
    3
 10
141.747753661057
 20
223.25962140765441
 11
149.74774046426637
 21
223.25962140765441
  0
LINE
  8
_e-2_
  6
CONTINUOUS
 62
    3
 10
132.5477826939964
 20
226.85957389920847
 11
140.54773485563055
 21
226.85957389920847
  0
LINE
  8
_e-2_
  6
CONTINUOUS
 62
    3
 10
132.5477826939964
 20
223.25962140765441
 11
140.54773485563055
 21
223.25962140765441
  0
LINE
  8
_e-2_
  6
CONTINUOUS
 62
    3
 10
132.5477826939964
 20
223.25962140765441
 11
132.5477826939964
 21
226.85957389920847
  0
LINE
  8
_e-2_
  6
CONTINUOUS
 62
    3
 10
131.34776388856972
 20
223.25962140765441
 11
131.34776388856972
 21
226.85957389920847
  0
LINE
  8
_e-2_
  6
CONTINUOUS
 62
    3
 10
123.34777708536012
 20
223.25962140765441
 11
123.34777708536012
 21
226.85957389920847
  0
LINE
  8
_e-2_
  6
CONTINUOUS
 62
    3
 10
123.34777708536012
 20
226.85957389920847
 11
131.34776388856972
 21
226.85957389920847
  0
LINE
  8
_e-2_
  6
CONTINUOUS
 62
    3
 10
131.34776388856972
 20
223.25962140765441
 11
123.34777708536012
 21
223.25962140765441
  0
LINE
  8
_e-2_
  6
CONTINUOUS
 62
    3
 10
143.9477361753095
 20
231.85960029278957
 11
143.9477361753095
 21
228.25957851808514
  0
LINE
  8
_e-2_
  6
CONTINUOUS
 62
    3
 10
138.34775234137783
 20
231.85960029278957
 11
143.9477361753095
 21
231.85960029278957
  0
LINE
  8
_e-2_
  6
CONTINUOUS
 62
    3
 10
138.34775234137783
 20
228.25957851808514
 11
143.9477361753095
 21
228.25957851808514
  0
LINE
  8
_e-2_
  6
CONTINUOUS
 62
    3
 10
144.94773452571076
 20
231.85960029278957
 11
144.94773452571076
 21
228.25957851808514
  0
LINE
  8
_e-2_
  6
CONTINUOUS
 62
    3
 10
146.54779424118783
 20
231.85960029278957
 11
146.54779424118783
 21
228.25957851808514
  0
LINE
  8
_e-2_
  6
CONTINUOUS
 62
    3
 10
146.54779424118783
 20
231.85960029278957
 11
144.94773452571076
 21
231.85960029278957
  0
LINE
  8
_e-2_
  6
CONTINUOUS
 62
    3
 10
146.54779424118783
 20
228.25957851808514
 11
144.94773452571076
 21
228.25957851808514
  0
LINE
  8
_e-2_
  6
CONTINUOUS
 62
    3
 10
138.34775234137783
 20
231.85960029278957
 11
138.34775234137783
 21
228.25957851808514
  0
LINE
  8
_e-2_
  6
CONTINUOUS
 62
    3
 10
137.3477539909768
 20
231.85960029278957
 11
137.3477539909768
 21
228.25957851808514
  0
LINE
  8
_e-2_
  6
CONTINUOUS
 62
    3
 10
153.14781106709597
 20
231.85960029278957
 11
153.14781106709597
 21
228.25957851808514
  0
LINE
  8
_e-2_
  6
CONTINUOUS
 62
    3
 10
147.54779259158909
 20
231.85960029278957
 11
153.14781106709597
 21
231.85960029278957
  0
LINE
  8
_e-2_
  6
CONTINUOUS
 62
    3
 10
147.54779259158909
 20
228.25957851808514
 11
153.14781106709597
 21
228.25957851808514
  0
LINE
  8
_e-2_
  6
CONTINUOUS
 62
    3
 10
147.54779259158909
 20
231.85960029278957
 11
147.54779259158909
 21
228.25957851808514
  0
LINE
  8
_e-2_
  6
CONTINUOUS
 62
    3
 10
135.74776355865015
 20
231.85960029278957
 11
137.3477539909768
 21
231.85960029278957
  0
LINE
  8
_e-2_
  6
CONTINUOUS
 62
    3
 10
135.74776355865015
 20
228.25957851808514
 11
137.3477539909768
 21
228.25957851808514
  0
LINE
  8
_e-2_
  6
CONTINUOUS
 62
    3
 10
129.14778137431722
 20
231.85960029278957
 11
129.14778137431722
 21
228.25957851808514
  0
LINE
  8
_e-2_
  6
CONTINUOUS
 62
    3
 10
134.74776520824889
 20
231.85960029278957
 11
129.14778137431722
 21
231.85960029278957
  0
LINE
  8
_e-2_
  6
CONTINUOUS
 62
    3
 10
134.74776520824889
 20
228.25957851808514
 11
129.14778137431722
 21
228.25957851808514
  0
LINE
  8
_e-2_
  6
CONTINUOUS
 62
    3
 10
128.14778302391596
 20
231.85960029278957
 11
128.14778302391596
 21
228.25957851808514
  0
LINE
  8
_e-2_
  6
CONTINUOUS
 62
    3
 10
126.54772330843889
 20
231.85960029278957
 11
126.54772330843889
 21
228.25957851808514
  0
LINE
  8
_e-2_
  6
CONTINUOUS
 62
    3
 10
126.54772330843889
 20
231.85960029278957
 11
128.14778302391596
 21
231.85960029278957
  0
LINE
  8
_e-2_
  6
CONTINUOUS
 62
    3
 10
126.54772330843889
 20
228.25957851808514
 11
128.14778302391596
 21
228.25957851808514
  0
LINE
  8
_e-2_
  6
CONTINUOUS
 62
    3
 10
134.74776520824889
 20
231.85960029278957
 11
134.74776520824889
 21
228.25957851808514
  0
LINE
  8
_e-2_
  6
CONTINUOUS
 62
    3
 10
135.74776355865015
 20
231.85960029278957
 11
135.74776355865015
 21
228.25957851808514
  0
LINE
  8
_e-2_
  6
CONTINUOUS
 62
    3
 10
119.94770648253098
 20
231.85960029278957
 11
119.94770648253098
 21
228.25957851808514
  0
LINE
  8
_e-2_
  6
CONTINUOUS
 62
    3
 10
125.54772495803741
 20
231.85960029278957
 11
119.94770648253098
 21
231.85960029278957
  0
LINE
  8
_e-2_
  6
CONTINUOUS
 62
    3
 10
125.54772495803741
 20
228.25957851808514
 11
119.94770648253098
 21
228.25957851808514
  0
LINE
  8
_e-2_
  6
CONTINUOUS
 62
    3
 10
125.54772495803741
 20
231.85960029278957
 11
125.54772495803741
 21
228.25957851808514
  0
LINE
  8
_e-2_
  6
CONTINUOUS
 62
    3
 10
149.74774046426637
 20
216.85950379125865
 11
141.747753661057
 21
216.85950379125867
  0
LINE
  8
_e-2_
  6
CONTINUOUS
 62
    3
 10
132.5477826939964
 20
216.85950379125867
 11
140.54773485563055
 21
216.85950379125867
  0
LINE
  8
_e-2_
  6
CONTINUOUS
 62
    3
 10
123.34777708536012
 20
216.85950379125867
 11
131.34776388856972
 21
216.85950379125867
  0
LINE
  8
_e-2_
  6
CONTINUOUS
 62
    3
 10
143.9477361753095
 20
221.85953018483988
 11
143.9477361753095
 21
218.25950841013534
  0
LINE
  8
_e-2_
  6
CONTINUOUS
 62
    3
 10
138.34775234137783
 20
221.85953018483988
 11
143.9477361753095
 21
221.85953018483988
  0
LINE
  8
_e-2_
  6
CONTINUOUS
 62
    3
 10
138.34775234137783
 20
218.25950841013534
 11
143.9477361753095
 21
218.25950841013534
  0
LINE
  8
_e-2_
  6
CONTINUOUS
 62
    3
 10
144.94773452571076
 20
221.85953018483988
 11
144.94773452571076
 21
218.25950841013534
  0
LINE
  8
_e-2_
  6
CONTINUOUS
 62
    3
 10
146.54779424118783
 20
221.85953018483988
 11
146.54779424118783
 21
218.25950841013534
  0
LINE
  8
_e-2_
  6
CONTINUOUS
 62
    3
 10
146.54779424118783
 20
221.85953018483988
 11
144.94773452571076
 21
221.85953018483988
  0
LINE
  8
_e-2_
  6
CONTINUOUS
 62
    3
 10
146.54779424118783
 20
218.25950841013534
 11
144.94773452571076
 21
218.25950841013534
  0
LINE
  8
_e-2_
  6
CONTINUOUS
 62
    3
 10
138.34775234137783
 20
221.85953018483988
 11
138.34775234137783
 21
218.25950841013534
  0
LINE
  8
_e-2_
  6
CONTINUOUS
 62
    3
 10
137.3477539909768
 20
221.85953018483988
 11
137.3477539909768
 21
218.25950841013534
  0
LINE
  8
_e-2_
  6
CONTINUOUS
 62
    3
 10
153.14781106709597
 20
221.85953018483988
 11
153.14781106709597
 21
218.25950841013534
  0
LINE
  8
_e-2_
  6
CONTINUOUS
 62
    3
 10
147.54779259158909
 20
221.85953018483988
 11
153.14781106709597
 21
221.85953018483988
  0
LINE
  8
_e-2_
  6
CONTINUOUS
 62
    3
 10
147.54779259158909
 20
218.25950841013534
 11
153.14781106709597
 21
218.25950841013534
  0
LINE
  8
_e-2_
  6
CONTINUOUS
 62
    3
 10
147.54779259158909
 20
221.85953018483988
 11
147.54779259158909
 21
218.25950841013534
  0
LINE
  8
_e-2_
  6
CONTINUOUS
 62
    3
 10
135.74776355865015
 20
221.85953018483988
 11
137.3477539909768
 21
221.85953018483988
  0
LINE
  8
_e-2_
  6
CONTINUOUS
 62
    3
 10
135.74776355865015
 20
218.25950841013534
 11
137.3477539909768
 21
218.25950841013534
  0
LINE
  8
_e-2_
  6
CONTINUOUS
 62
    3
 10
129.14778137431722
 20
221.85953018483988
 11
129.14778137431722
 21
218.25950841013534
  0
LINE
  8
_e-2_
  6
CONTINUOUS
 62
    3
 10
134.74776520824889
 20
221.85953018483988
 11
129.14778137431722
 21
221.85953018483988
  0
LINE
  8
_e-2_
  6
CONTINUOUS
 62
    3
 10
134.74776520824889
 20
218.25950841013534
 11
129.14778137431722
 21
218.25950841013534
  0
LINE
  8
_e-2_
  6
CONTINUOUS
 62
    3
 10
128.14778302391596
 20
221.85953018483988
 11
128.14778302391596
 21
218.25950841013534
  0
LINE
  8
_e-2_
  6
CONTINUOUS
 62
    3
 10
126.54772330843889
 20
221.85953018483988
 11
126.54772330843889
 21
218.25950841013534
  0
LINE
  8
_e-2_
  6
CONTINUOUS
 62
    3
 10
126.54772330843889
 20
221.85953018483988
 11
128.14778302391596
 21
221.85953018483988
  0
LINE
  8
_e-2_
  6
CONTINUOUS
 62
    3
 10
126.54772330843889
 20
218.25950841013534
 11
128.14778302391596
 21
218.25950841013534
  0
LINE
  8
_e-2_
  6
CONTINUOUS
 62
    3
 10
134.74776520824889
 20
221.85953018483988
 11
134.74776520824889
 21
218.25950841013534
  0
LINE
  8
_e-2_
  6
CONTINUOUS
 62
    3
 10
135.74776355865015
 20
221.85953018483988
 11
135.74776355865015
 21
218.25950841013534
  0
LINE
  8
_e-2_
  6
CONTINUOUS
 62
    3
 10
119.94770648253098
 20
221.85953018483988
 11
119.94770648253098
 21
218.25950841013534
  0
LINE
  8
_e-2_
  6
CONTINUOUS
 62
    3
 10
125.54772495803741
 20
221.85953018483988
 11
119.94770648253098
 21
221.85953018483988
  0
LINE
  8
_e-2_
  6
CONTINUOUS
 62
    3
 10
125.54772495803741
 20
218.25950841013534
 11
119.94770648253098
 21
218.25950841013534
  0
LINE
  8
_e-2_
  6
CONTINUOUS
 62
    3
 10
125.54772495803741
 20
221.85953018483988
 11
125.54772495803741
 21
218.25950841013534
  0
LINE
  8
_e-2_
  6
CONTINUOUS
 62
    3
 10
123.34777708536012
 20
215.05959487015079
 11
123.34777708536012
 21
216.85950379125867
  0
LINE
  8
_e-2_
  6
CONTINUOUS
 62
    3
 10
131.34776388856972
 20
215.05958555964625
 11
131.34776388856972
 21
216.85950379125867
  0
LINE
  8
_e-2_
  6
CONTINUOUS
 62
    3
 10
132.5477826939964
 20
215.05958416304637
 11
132.5477826939964
 21
216.85950379125867
  0
LINE
  8
_e-2_
  6
CONTINUOUS
 62
    3
 10
140.54773485563055
 20
215.05957485258213
 11
140.54773485563055
 21
216.85950379125867
  0
LINE
  8
_e-2_
  6
CONTINUOUS
 62
    3
 10
141.747753661057
 20
215.05957345598225
 11
141.747753661057
 21
216.85950379125867
  0
LINE
  8
_e-2_
  6
CONTINUOUS
 62
    3
 10
149.74774046426637
 20
215.05956414547768
 11
149.74774046426637
 21
216.85950379125865
  0
LINE
  8
_e-2_
  6
CONTINUOUS
 62
    3
 10
150.94775926975217
 20
215.0595627488778
 11
150.94775926975217
 21
216.85953956693527
  0
LINE
  8
_e-2_
  6
CONTINUOUS
 62
    3
 10
150.94775926890247
 20
215.0595627488778
 11
150.94775926890247
 21
216.85950379125865
  0
LINE
  8
_e-2_
  6
CONTINUOUS
 62
    3
 10
122.14775828029929
 20
215.05959626675067
 11
122.14775828029929
 21
216.85955688771756
  0
LINE
  8
_e-2_
  6
CONTINUOUS
 62
    3
 10
122.14775827914923
 20
215.05959626675067
 11
122.14775827914923
 21
216.85950379125867
  0
ARC
  8
_e-2_
  6
CONTINUOUS
 62
    3
 10
136.54774145402575
 20
215.0595795078244
 40
64.000002680598087
 50
179.99992767178213
 51
359.99992767178213
  0
LINE
  8
_e-2_
  6
CENTER1
 62
    3
 10
173.34776388856972
 20
219.60307364477245
 11
173.34776388856972
 21
210.51598144619084
  0
LINE
  8
_e-2_
  6
CENTER1
 62
    3
 10
99.747736340269512
 20
219.60307364477248
 11
99.747736340269512
 21
210.51598144619092
  0
LINE
  8
_e-2_
  6
CONTINUOUS
 62
    3
 10
154.14779358972055
 20
208.259605185189
 11
154.14780196907805
 21
211.85955767673335
  0
LINE
  8
_e-2_
  6
CONTINUOUS
 62
    3
 10
155.74771473889268
 20
208.25960146116461
 11
155.74772311825018
 21
211.85955395270889
  0
LINE
  8
_e-2_
  6
CONTINUOUS
 62
    3
 10
155.74771473889268
 20
208.25960146116461
 11
154.14779358972055
 21
208.259605185189
  0
LINE
  8
_e-2_
  6
CONTINUOUS
 62
    3
 10
155.74772311825018
 20
211.85955395270889
 11
154.14780196907805
 21
211.85955767673335
  0
LINE
  8
_e-2_
  6
CONTINUOUS
 62
    3
 10
162.34773156486358
 20
208.25962074034271
 11
162.34773994422085
 21
211.85957323188711
  0
LINE
  8
_e-2_
  6
CONTINUOUS
 62
    3
 10
156.74771308937193
 20
208.25963377511368
 11
162.34773156486358
 21
208.25962074034271
  0
LINE
  8
_e-2_
  6
CONTINUOUS
 62
    3
 10
156.7477214687292
 20
211.85958626665803
 11
162.34773994422085
 21
211.85957323188711
  0
LINE
  8
_e-2_
  6
CONTINUOUS
 62
    3
 10
163.34772991526211
 20
208.25961841271658
 11
163.34773829461915
 21
211.85957090426098
  0
LINE
  8
_e-2_
  6
CONTINUOUS
 62
    3
 10
164.94768570600922
 20
208.25961468861158
 11
164.94769408536695
 21
211.85956718015586
  0
LINE
  8
_e-2_
  6
CONTINUOUS
 62
    3
 10
164.94768570600922
 20
208.25961468861158
 11
163.34772991526211
 21
208.25961841271658
  0
LINE
  8
_e-2_
  6
CONTINUOUS
 62
    3
 10
164.94769408536695
 20
211.85956718015586
 11
163.34773829461915
 21
211.85957090426098
  0
LINE
  8
_e-2_
  6
CONTINUOUS
 62
    3
 10
156.74771308937193
 20
208.25963377511368
 11
156.7477214687292
 21
211.85958626665803
  0
LINE
  8
_e-2_
  6
CONTINUOUS
 62
    3
 10
181.74770649090874
 20
208.25957558437949
 11
181.74771487026646
 21
211.85952807592378
  0
LINE
  8
_e-2_
  6
CONTINUOUS
 62
    3
 10
183.34766228165631
 20
208.25957186027449
 11
183.34767066101335
 21
211.85952435181878
  0
LINE
  8
_e-2_
  6
CONTINUOUS
 62
    3
 10
183.34766228165631
 20
208.25957186027449
 11
181.74770649090874
 21
208.25957558437949
  0
LINE
  8
_e-2_
  6
CONTINUOUS
 62
    3
 10
183.34767066101335
 20
211.85952435181878
 11
181.74771487026646
 21
211.85952807592378
  0
LINE
  8
_e-2_
  6
CONTINUOUS
 62
    3
 10
189.94774839069669
 20
208.25955649771606
 11
189.94775677005418
 21
211.85950898926046
  0
LINE
  8
_e-2_
  6
CONTINUOUS
 62
    3
 10
184.34769527362982
 20
208.25956953256764
 11
189.94774839069669
 21
208.25955649771606
  0
LINE
  8
_e-2_
  6
CONTINUOUS
 62
    3
 10
184.34770365298732
 20
211.85952202411193
 11
189.94775677005418
 21
211.85950898926046
  0
LINE
  8
_e-2_
  6
CONTINUOUS
 62
    3
 10
190.94771209951978
 20
208.25955417017065
 11
190.9477204788775
 21
211.85950666171487
  0
LINE
  8
_e-2_
  6
CONTINUOUS
 62
    3
 10
192.54770253184233
 20
208.25955044598493
 11
192.54771091119983
 21
211.85950293752921
  0
LINE
  8
_e-2_
  6
CONTINUOUS
 62
    3
 10
192.54770253184233
 20
208.25955044598493
 11
190.94771209951978
 21
208.25955417017065
  0
LINE
  8
_e-2_
  6
CONTINUOUS
 62
    3
 10
192.54771091119983
 20
211.85950293752921
 11
190.9477204788775
 21
211.85950666171487
  0
LINE
  8
_e-2_
  6
CONTINUOUS
 62
    3
 10
184.34769527362982
 20
208.25956953256764
 11
184.34770365298732
 21
211.85952202411193
  0
LINE
  8
_e-2_
  6
CONTINUOUS
 62
    3
 10
193.54770088224109
 20
208.25954811835879
 11
193.54770926159836
 21
211.85950060990308
  0
LINE
  8
_e-2_
  6
CONTINUOUS
 62
    3
 10
158.94772698646079
 20
206.85960671462732
 11
158.94771860698233
 21
203.25960226072027
  0
LINE
  8
_e-2_
  6
CONTINUOUS
 62
    3
 10
160.14771115030885
 20
206.85960392150815
 11
160.14770277083016
 21
203.25959946760111
  0
LINE
  8
_e-2_
  6
CONTINUOUS
 62
    3
 10
168.14766331192141
 20
206.85958530057962
 11
168.14765493244295
 21
203.25958084667258
  0
LINE
  8
_e-2_
  6
CONTINUOUS
 62
    3
 10
168.14765493244295
 20
203.25958084667258
 11
160.14770277083016
 21
203.25959946760111
  0
LINE
  8
_e-2_
  6
CONTINUOUS
 62
    3
 10
160.14771115030885
 20
206.85960392150815
 11
168.14766331192141
 21
206.85958530057962
  0
LINE
  8
_e-2_
  6
CONTINUOUS
 62
    3
 10
169.34775140049487
 20
206.85958250721876
 11
169.34774302101687
 21
203.25957805331154
  0
LINE
  8
_e-2_
  6
CONTINUOUS
 62
    3
 10
177.34770356210765
 20
206.85956388629023
 11
177.3476951826292
 21
203.25955943238318
  0
LINE
  8
_e-2_
  6
CONTINUOUS
 62
    3
 10
177.3476951826292
 20
203.25955943238318
 11
169.34774302101687
 21
203.25957805331154
  0
LINE
  8
_e-2_
  6
CONTINUOUS
 62
    3
 10
169.34775140049487
 20
206.85958250721876
 11
177.34770356210765
 21
206.85956388629023
  0
LINE
  8
_e-2_
  6
CONTINUOUS
 62
    3
 10
178.54772236753092
 20
206.85956109309052
 11
178.54771398805224
 21
203.2595566391833
  0
LINE
  8
_e-2_
  6
CONTINUOUS
 62
    3
 10
186.54770917071869
 20
206.85954247208133
 11
186.54770079124046
 21
203.25953801817417
  0
LINE
  8
_e-2_
  6
CONTINUOUS
 62
    3
 10
186.54770079124046
 20
203.25953801817417
 11
178.54771398805224
 21
203.2595566391833
  0
LINE
  8
_e-2_
  6
CONTINUOUS
 62
    3
 10
178.54772236753092
 20
206.85956109309052
 11
186.54770917071869
 21
206.85954247208133
  0
LINE
  8
_e-2_
  6
CONTINUOUS
 62
    3
 10
187.74772797614173
 20
206.85953967888156
 11
187.7477195966635
 21
203.25953522497451
  0
LINE
  8
_e-2_
  6
CONTINUOUS
 62
    3
 10
140.54769249285619
 20
196.85961407669757
 11
140.54768411349869
 21
193.25966158515328
  0
LINE
  8
_e-2_
  6
CONTINUOUS
 62
    3
 10
141.74771129827946
 20
196.8596112834978
 11
141.74770291892219
 21
193.25965879195351
  0
LINE
  8
_e-2_
  6
CONTINUOUS
 62
    3
 10
149.74769810146722
 20
196.85959266248869
 11
149.74768972210995
 21
193.25964017094435
  0
LINE
  8
_e-2_
  6
CONTINUOUS
 62
    3
 10
149.74768972210995
 20
193.25964017094435
 11
141.74770291892219
 21
193.25965879195351
  0
LINE
  8
_e-2_
  6
CONTINUOUS
 62
    3
 10
141.74771129827946
 20
196.8596112834978
 11
149.74769810146722
 21
196.85959266248869
  0
LINE
  8
_e-2_
  6
CONTINUOUS
 62
    3
 10
143.94767379495738
 20
188.25962727764082
 11
143.94768217447586
 21
191.85964905233541
  0
LINE
  8
_e-2_
  6
CONTINUOUS
 62
    3
 10
138.34768996104094
 20
188.25964031233096
 11
143.94767379495738
 21
188.25962727764082
  0
LINE
  8
_e-2_
  6
CONTINUOUS
 62
    3
 10
138.34769834055942
 20
191.85966208702567
 11
143.94768217447586
 21
191.85964905233541
  0
LINE
  8
_e-2_
  6
CONTINUOUS
 62
    3
 10
144.94767214535568
 20
188.25962495001468
 11
144.94768052487439
 21
191.85964672470928
  0
LINE
  8
_e-2_
  6
CONTINUOUS
 62
    3
 10
146.54773186082866
 20
188.25962122566767
 11
146.54774024034714
 21
191.8596430003623
  0
LINE
  8
_e-2_
  6
CONTINUOUS
 62
    3
 10
146.54773186082866
 20
188.25962122566767
 11
144.94767214535568
 21
188.25962495001468
  0
LINE
  8
_e-2_
  6
CONTINUOUS
 62
    3
 10
146.54774024034714
 20
191.8596430003623
 11
144.94768052487439
 21
191.85964672470928
  0
LINE
  8
_e-2_
  6
CONTINUOUS
 62
    3
 10
138.34768996104094
 20
188.25964031233096
 11
138.34769834055942
 21
191.85966208702567
  0
LINE
  8
_e-2_
  6
CONTINUOUS
 62
    3
 10
137.34769161064241
 20
188.25964263995709
 11
137.34769999016112
 21
191.8596644146518
  0
LINE
  8
_e-2_
  6
CONTINUOUS
 62
    3
 10
140.54766921659461
 20
186.8596305727128
 11
140.54766083707636
 21
183.25960879801821
  0
LINE
  8
_e-2_
  6
CONTINUOUS
 62
    3
 10
141.74768802201811
 20
186.85962777951309
 11
141.74767964249941
 21
183.25960600481849
  0
LINE
  8
_e-2_
  6
CONTINUOUS
 62
    3
 10
149.74767482520588
 20
186.85960915850399
 11
149.7476664456874
 21
183.25958738380928
  0
LINE
  8
_e-2_
  6
CONTINUOUS
 62
    3
 10
149.7476664456874
 20
183.25958738380928
 11
141.74767964249941
 21
183.25960600481849
  0
LINE
  8
_e-2_
  6
CONTINUOUS
 62
    3
 10
141.74768802201811
 20
186.85962777951309
 11
149.74767482520588
 21
186.85960915850399
  0
LINE
  8
_e-2_
  6
CONTINUOUS
 62
    3
 10
143.9476505185346
 20
178.25957449050574
 11
143.9476588981338
 21
181.85963090677546
  0
LINE
  8
_e-2_
  6
CONTINUOUS
 62
    3
 10
138.34766668461816
 20
178.25958752519588
 11
143.9476505185346
 21
178.25957449050574
  0
LINE
  8
_e-2_
  6
CONTINUOUS
 62
    3
 10
138.34767506421758
 20
181.85964394146561
 11
143.9476588981338
 21
181.85963090677546
  0
LINE
  8
_e-2_
  6
CONTINUOUS
 62
    3
 10
144.94764886893313
 20
178.25957216287961
 11
144.94765724853255
 21
181.85962857914933
  0
LINE
  8
_e-2_
  6
CONTINUOUS
 62
    3
 10
146.54770858440588
 20
178.25956843853263
 11
146.54771696400508
 21
181.85962485480235
  0
LINE
  8
_e-2_
  6
CONTINUOUS
 62
    3
 10
146.54770858440588
 20
178.25956843853263
 11
144.94764886893313
 21
178.25957216287961
  0
LINE
  8
_e-2_
  6
CONTINUOUS
 62
    3
 10
146.54771696400508
 20
181.85962485480235
 11
144.94765724853255
 21
181.85962857914933
  0
LINE
  8
_e-2_
  6
CONTINUOUS
 62
    3
 10
138.34766668461816
 20
178.25958752519588
 11
138.34767506421758
 21
181.85964394146561
  0
LINE
  8
_e-2_
  6
CONTINUOUS
 62
    3
 10
137.34766833421986
 20
178.25958985282202
 11
137.34767671381883
 21
181.85964626909174
  0
LINE
  8
_e-2_
  6
CONTINUOUS
 62
    3
 10
140.54764594017229
 20
176.85957778557773
 11
140.54763756081479
 21
173.25962529403338
  0
LINE
  8
_e-2_
  6
CONTINUOUS
 62
    3
 10
141.74766474559533
 20
176.85957499237801
 11
141.74765636623783
 21
173.25962250083367
  0
LINE
  8
_e-2_
  6
CONTINUOUS
 62
    3
 10
149.74765154878332
 20
176.85955637136891
 11
149.74764316942583
 21
173.25960387982457
  0
LINE
  8
_e-2_
  6
CONTINUOUS
 62
    3
 10
149.74764316942583
 20
173.25960387982457
 11
141.74765636623783
 21
173.25962250083367
  0
LINE
  8
_e-2_
  6
CONTINUOUS
 62
    3
 10
141.74766474559533
 20
176.85957499237801
 11
149.74765154878332
 21
176.85955637136891
  0
LINE
  8
_e-2_
  6
CONTINUOUS
 62
    3
 10
143.94762724235397
 20
168.25962562809607
 11
143.94763562171147
 21
171.85957811964042
  0
LINE
  8
_e-2_
  6
CONTINUOUS
 62
    3
 10
138.34767805001252
 20
168.25963866270567
 11
143.94762724235397
 21
168.25962562809607
  0
LINE
  8
_e-2_
  6
CONTINUOUS
 62
    3
 10
138.34768642936979
 20
171.85959115425001
 11
143.94763562171147
 21
171.85957811964042
  0
LINE
  8
_e-2_
  6
CONTINUOUS
 62
    3
 10
144.94762559275227
 20
168.25962330046991
 11
144.94763397210977
 21
171.85957579201428
  0
LINE
  8
_e-2_
  6
CONTINUOUS
 62
    3
 10
146.54768530822525
 20
168.25961957612293
 11
146.54769368758275
 21
171.8595720676673
  0
LINE
  8
_e-2_
  6
CONTINUOUS
 62
    3
 10
146.54768530822525
 20
168.25961957612293
 11
144.94762559275227
 21
168.25962330046991
  0
LINE
  8
_e-2_
  6
CONTINUOUS
 62
    3
 10
146.54769368758275
 20
171.8595720676673
 11
144.94763397210977
 21
171.85957579201428
  0
LINE
  8
_e-2_
  6
CONTINUOUS
 62
    3
 10
138.34767805001252
 20
168.25963866270567
 11
138.34768642936979
 21
171.85959115425001
  0
LINE
  8
_e-2_
  6
CONTINUOUS
 62
    3
 10
137.34764505803901
 20
168.25964099041246
 11
137.34765343739627
 21
171.85959348195681
  0
LINE
  8
_e-2_
  6
CONTINUOUS
 62
    3
 10
140.54762266399121
 20
166.85962892316817
 11
140.54761428447273
 21
163.25960714847358
  0
LINE
  8
_e-2_
  6
CONTINUOUS
 62
    3
 10
141.7476414694147
 20
166.85962612996846
 11
141.74763308989577
 21
163.25960435527386
  0
LINE
  8
_e-2_
  6
CONTINUOUS
 62
    3
 10
149.74762827260247
 20
166.85960750895924
 11
149.74761989308354
 21
163.25958573426465
  0
LINE
  8
_e-2_
  6
CONTINUOUS
 62
    3
 10
149.74761989308354
 20
163.25958573426465
 11
141.74763308989577
 21
163.25960435527386
  0
LINE
  8
_e-2_
  6
CONTINUOUS
 62
    3
 10
141.7476414694147
 20
166.85962612996846
 11
149.74762827260247
 21
166.85960750895924
  0
LINE
  8
_e-2_
  6
CONTINUOUS
 62
    3
 10
154.14777031321728
 20
198.25951775647889
 11
154.14777869273598
 21
201.85953953117348
  0
LINE
  8
_e-2_
  6
CONTINUOUS
 62
    3
 10
155.74769146238941
 20
198.25951403245438
 11
155.74769984190812
 21
201.85953580714909
  0
LINE
  8
_e-2_
  6
CONTINUOUS
 62
    3
 10
155.74769146238941
 20
198.25951403245438
 11
154.14777031321728
 21
198.25951775647889
  0
LINE
  8
_e-2_
  6
CONTINUOUS
 62
    3
 10
155.74769984190812
 20
201.85953580714909
 11
154.14777869273598
 21
201.85953953117348
  0
LINE
  8
_e-2_
  6
CONTINUOUS
 62
    3
 10
162.34770828844103
 20
198.25956795320769
 11
162.34771666779807
 21
201.85952044475204
  0
LINE
  8
_e-2_
  6
CONTINUOUS
 62
    3
 10
156.74768981294915
 20
198.25958098797861
 11
162.34770828844103
 21
198.25956795320769
  0
LINE
  8
_e-2_
  6
CONTINUOUS
 62
    3
 10
156.74769819230642
 20
201.85953347952284
 11
162.34771666779807
 21
201.85952044475204
  0
LINE
  8
_e-2_
  6
CONTINUOUS
 62
    3
 10
163.34770663883933
 20
198.25956562558156
 11
163.3477150181966
 21
201.8595181171259
  0
LINE
  8
_e-2_
  6
CONTINUOUS
 62
    3
 10
164.94766242958667
 20
198.2595619014765
 11
164.94767080894394
 21
201.85951439302085
  0
LINE
  8
_e-2_
  6
CONTINUOUS
 62
    3
 10
164.94766242958667
 20
198.2595619014765
 11
163.34770663883933
 21
198.25956562558156
  0
LINE
  8
_e-2_
  6
CONTINUOUS
 62
    3
 10
164.94767080894394
 20
201.85951439302085
 11
163.3477150181966
 21
201.8595181171259
  0
LINE
  8
_e-2_
  6
CONTINUOUS
 62
    3
 10
156.74768981294915
 20
198.25958098797861
 11
156.74769819230642
 21
201.85953347952284
  0
LINE
  8
_e-2_
  6
CONTINUOUS
 62
    3
 10
171.54764461390164
 20
198.25954653916006
 11
171.54765299325891
 21
201.85949903070434
  0
LINE
  8
_e-2_
  6
CONTINUOUS
 62
    3
 10
165.94769542156018
 20
198.25955957376971
 11
171.54764461390164
 21
198.25954653916006
  0
LINE
  8
_e-2_
  6
CONTINUOUS
 62
    3
 10
165.94770380091791
 20
201.85951206531405
 11
171.54765299325891
 21
201.85949903070434
  0
LINE
  8
_e-2_
  6
CONTINUOUS
 62
    3
 10
172.54767760587515
 20
198.25954421145332
 11
172.54768598523242
 21
201.8594967029976
  0
LINE
  8
_e-2_
  6
CONTINUOUS
 62
    3
 10
174.14770267977292
 20
198.259540487187
 11
174.14771105913019
 21
201.85949297873128
  0
LINE
  8
_e-2_
  6
CONTINUOUS
 62
    3
 10
174.14770267977292
 20
198.259540487187
 11
172.54767760587515
 21
198.25954421145332
  0
LINE
  8
_e-2_
  6
CONTINUOUS
 62
    3
 10
174.14771105913019
 20
201.85949297873128
 11
172.54768598523242
 21
201.8594967029976
  0
LINE
  8
_e-2_
  6
CONTINUOUS
 62
    3
 10
165.94769542156018
 20
198.25955957376971
 11
165.94770380091791
 21
201.85951206531405
  0
LINE
  8
_e-2_
  6
CONTINUOUS
 62
    3
 10
180.74768486408766
 20
198.25952512487061
 11
180.74769324344516
 21
201.85947761641489
  0
LINE
  8
_e-2_
  6
CONTINUOUS
 62
    3
 10
175.14770103017122
 20
198.25953815956086
 11
180.74768486408766
 21
198.25952512487061
  0
LINE
  8
_e-2_
  6
CONTINUOUS
 62
    3
 10
175.14770940952894
 20
201.85949065110515
 11
180.74769324344516
 21
201.85947761641489
  0
LINE
  8
_e-2_
  6
CONTINUOUS
 62
    3
 10
181.74768321448619
 20
198.25952279724447
 11
181.74769159384368
 21
201.85947528878876
  0
LINE
  8
_e-2_
  6
CONTINUOUS
 62
    3
 10
183.34763900523353
 20
198.25951907313936
 11
183.3476473845908
 21
201.85947156468364
  0
LINE
  8
_e-2_
  6
CONTINUOUS
 62
    3
 10
183.34763900523353
 20
198.25951907313936
 11
181.74768321448619
 21
198.25952279724447
  0
LINE
  8
_e-2_
  6
CONTINUOUS
 62
    3
 10
183.3476473845908
 20
201.85947156468364
 11
181.74769159384368
 21
201.85947528878876
  0
LINE
  8
_e-2_
  6
CONTINUOUS
 62
    3
 10
175.14770103017122
 20
198.25953815956086
 11
175.14770940952894
 21
201.85949065110515
  0
LINE
  8
_e-2_
  6
CONTINUOUS
 62
    3
 10
189.94772511427391
 20
198.25950371058104
 11
189.94773349363118
 21
201.85945620212533
  0
LINE
  8
_e-2_
  6
CONTINUOUS
 62
    3
 10
184.34767199720727
 20
198.25951674543262
 11
189.94772511427391
 21
198.25950371058104
  0
LINE
  8
_e-2_
  6
CONTINUOUS
 62
    3
 10
184.34768037656431
 20
201.85946923697691
 11
189.94773349363118
 21
201.85945620212533
  0
LINE
  8
_e-2_
  6
CONTINUOUS
 62
    3
 10
190.94768882309722
 20
198.25950138303551
 11
190.94769720245472
 21
201.8594538745798
  0
LINE
  8
_e-2_
  6
CONTINUOUS
 62
    3
 10
192.54767925541978
 20
198.2594976588498
 11
192.54768763477728
 21
201.8594501503942
  0
LINE
  8
_e-2_
  6
CONTINUOUS
 62
    3
 10
192.54767925541978
 20
198.2594976588498
 11
190.94768882309722
 21
198.25950138303551
  0
LINE
  8
_e-2_
  6
CONTINUOUS
 62
    3
 10
192.54768763477728
 20
201.8594501503942
 11
190.94769720245472
 21
201.8594538745798
  0
LINE
  8
_e-2_
  6
CONTINUOUS
 62
    3
 10
184.34767199720727
 20
198.25951674543262
 11
184.34768037656431
 21
201.85946923697691
  0
LINE
  8
_e-2_
  6
CONTINUOUS
 62
    3
 10
193.54767760581808
 20
198.25949533122366
 11
193.54768598517558
 21
201.85944782276806
  0
LINE
  8
_e-2_
  6
CONTINUOUS
 62
    3
 10
150.94771690689072
 20
196.85958986928893
 11
150.94770852753322
 21
193.25963737774458
  0
LINE
  8
_e-2_
  6
CONTINUOUS
 62
    3
 10
158.94770371007826
 20
196.85957124827985
 11
158.94769533072076
 21
193.25961875673551
  0
LINE
  8
_e-2_
  6
CONTINUOUS
 62
    3
 10
158.94769533072076
 20
193.25961875673551
 11
150.94770852753322
 21
193.25963737774458
  0
LINE
  8
_e-2_
  6
CONTINUOUS
 62
    3
 10
150.94771690689072
 20
196.85958986928893
 11
158.94770371007826
 21
196.85957124827985
  0
LINE
  8
_e-2_
  6
CONTINUOUS
 62
    3
 10
160.14768787392654
 20
196.85956845516068
 11
160.14767949456905
 21
193.25961596361634
  0
LINE
  8
_e-2_
  6
CONTINUOUS
 62
    3
 10
168.14764003553887
 20
196.85954983423221
 11
168.1476316561816
 21
193.25959734268787
  0
LINE
  8
_e-2_
  6
CONTINUOUS
 62
    3
 10
168.1476316561816
 20
193.25959734268787
 11
160.14767949456905
 21
193.25961596361634
  0
LINE
  8
_e-2_
  6
CONTINUOUS
 62
    3
 10
160.14768787392654
 20
196.85956845516068
 11
168.14764003553887
 21
196.85954983423221
  0
LINE
  8
_e-2_
  6
CONTINUOUS
 62
    3
 10
169.34772812411234
 20
196.85954704087123
 11
169.3477197447553
 21
193.25959454932683
  0
LINE
  8
_e-2_
  6
CONTINUOUS
 62
    3
 10
177.34768028572512
 20
196.85952841994271
 11
177.34767190636785
 21
193.25957592839836
  0
LINE
  8
_e-2_
  6
CONTINUOUS
 62
    3
 10
177.34767190636785
 20
193.25957592839836
 11
169.3477197447553
 21
193.25959454932683
  0
LINE
  8
_e-2_
  6
CONTINUOUS
 62
    3
 10
169.34772812411234
 20
196.85954704087123
 11
177.34768028572512
 21
196.85952841994271
  0
LINE
  8
_e-2_
  6
CONTINUOUS
 62
    3
 10
178.54769909114862
 20
196.85952562674288
 11
178.54769071179089
 21
193.25957313519859
  0
LINE
  8
_e-2_
  6
CONTINUOUS
 62
    3
 10
186.54768589433615
 20
196.8595070057338
 11
186.54767751497889
 21
193.25955451418952
  0
LINE
  8
_e-2_
  6
CONTINUOUS
 62
    3
 10
186.54767751497889
 20
193.25955451418952
 11
178.54769071179089
 21
193.25957313519859
  0
LINE
  8
_e-2_
  6
CONTINUOUS
 62
    3
 10
178.54769909114862
 20
196.85952562674288
 11
186.54768589433615
 21
196.8595070057338
  0
LINE
  8
_e-2_
  6
CONTINUOUS
 62
    3
 10
187.74770469975965
 20
196.85950421253403
 11
187.74769632040193
 21
193.25955172098975
  0
LINE
  8
_e-2_
  6
CONTINUOUS
 62
    3
 10
153.14774868671861
 20
188.25960586327062
 11
153.14775706623732
 21
191.85962763796527
  0
LINE
  8
_e-2_
  6
CONTINUOUS
 62
    3
 10
147.54773021122696
 20
188.25961889804154
 11
153.14774868671861
 21
188.25960586327062
  0
LINE
  8
_e-2_
  6
CONTINUOUS
 62
    3
 10
147.54773859074567
 20
191.85964067273613
 11
153.14775706623732
 21
191.85962763796527
  0
LINE
  8
_e-2_
  6
CONTINUOUS
 62
    3
 10
154.14774703711714
 20
188.25960353564449
 11
154.14775541663562
 21
191.85962531033914
  0
LINE
  8
_e-2_
  6
CONTINUOUS
 62
    3
 10
155.74766818628927
 20
188.25959981161998
 11
155.74767656580821
 21
191.85962158631469
  0
LINE
  8
_e-2_
  6
CONTINUOUS
 62
    3
 10
155.74766818628927
 20
188.25959981161998
 11
154.14774703711714
 21
188.25960353564449
  0
LINE
  8
_e-2_
  6
CONTINUOUS
 62
    3
 10
155.74767656580821
 20
191.85962158631469
 11
154.14775541663562
 21
191.85962531033914
  0
LINE
  8
_e-2_
  6
CONTINUOUS
 62
    3
 10
147.54773021122696
 20
188.25961889804154
 11
147.54773859074567
 21
191.85964067273613
  0
LINE
  8
_e-2_
  6
CONTINUOUS
 62
    3
 10
162.34768501217968
 20
188.25958444922293
 11
162.34769339169793
 21
191.85960622391764
  0
LINE
  8
_e-2_
  6
CONTINUOUS
 62
    3
 10
156.74766653668803
 20
188.25959748399384
 11
162.34768501217968
 21
188.25958444922293
  0
LINE
  8
_e-2_
  6
CONTINUOUS
 62
    3
 10
156.74767491620651
 20
191.85961925868855
 11
162.34769339169793
 21
191.85960622391764
  0
LINE
  8
_e-2_
  6
CONTINUOUS
 62
    3
 10
163.34768336257775
 20
188.25958212159679
 11
163.34769174209669
 21
191.8596038962915
  0
LINE
  8
_e-2_
  6
CONTINUOUS
 62
    3
 10
164.94770843647575
 20
188.25957839733053
 11
164.94771681599423
 21
191.85960017202513
  0
LINE
  8
_e-2_
  6
CONTINUOUS
 62
    3
 10
164.94770843647575
 20
188.25957839733053
 11
163.34768336257775
 21
188.25958212159679
  0
LINE
  8
_e-2_
  6
CONTINUOUS
 62
    3
 10
164.94771681599423
 20
191.85960017202513
 11
163.34769174209669
 21
191.8596038962915
  0
LINE
  8
_e-2_
  6
CONTINUOUS
 62
    3
 10
156.74766653668803
 20
188.25959748399384
 11
156.74767491620651
 21
191.85961925868855
  0
LINE
  8
_e-2_
  6
CONTINUOUS
 62
    3
 10
171.54769062079049
 20
188.25956303501414
 11
171.54769900030897
 21
191.85958480970874
  0
LINE
  8
_e-2_
  6
CONTINUOUS
 62
    3
 10
165.94767214529884
 20
188.25957606978506
 11
171.54769062079049
 21
188.25956303501414
  0
LINE
  8
_e-2_
  6
CONTINUOUS
 62
    3
 10
165.94768052481732
 20
191.85959784447965
 11
171.54769900030897
 21
191.85958480970874
  0
LINE
  8
_e-2_
  6
CONTINUOUS
 62
    3
 10
172.54765432961358
 20
188.25956070746855
 11
172.54766270913251
 21
191.85958248216326
  0
LINE
  8
_e-2_
  6
CONTINUOUS
 62
    3
 10
174.14767940351157
 20
188.25955698320229
 11
174.14768778302982
 21
191.85957875789688
  0
LINE
  8
_e-2_
  6
CONTINUOUS
 62
    3
 10
174.14767940351157
 20
188.25955698320229
 11
172.54765432961358
 21
188.25956070746855
  0
LINE
  8
_e-2_
  6
CONTINUOUS
 62
    3
 10
174.14768778302982
 20
191.85957875789688
 11
172.54766270913251
 21
191.85958248216326
  0
LINE
  8
_e-2_
  6
CONTINUOUS
 62
    3
 10
165.94767214529884
 20
188.25957606978506
 11
165.94768052481732
 21
191.85959784447965
  0
LINE
  8
_e-2_
  6
CONTINUOUS
 62
    3
 10
180.74766158782609
 20
188.2595416208859
 11
180.74766996734479
 21
191.85956339558049
  0
LINE
  8
_e-2_
  6
CONTINUOUS
 62
    3
 10
175.14774703706007
 20
188.25955465541483
 11
180.74766158782609
 21
188.2595416208859
  0
LINE
  8
_e-2_
  6
CONTINUOUS
 62
    3
 10
175.147755416579
 20
191.85957643010954
 11
180.74766996734479
 21
191.85956339558049
  0
LINE
  8
_e-2_
  6
CONTINUOUS
 62
    3
 10
181.74765993822484
 20
188.25953929325976
 11
181.74766831774355
 21
191.85956106795436
  0
LINE
  8
_e-2_
  6
CONTINUOUS
 62
    3
 10
183.34768501212261
 20
188.25953556899333
 11
183.34769339164086
 21
191.85955734368804
  0
LINE
  8
_e-2_
  6
CONTINUOUS
 62
    3
 10
183.34768501212261
 20
188.25953556899333
 11
181.74765993822484
 21
188.25953929325976
  0
LINE
  8
_e-2_
  6
CONTINUOUS
 62
    3
 10
183.34769339164086
 20
191.85955734368804
 11
181.74766831774355
 21
191.85956106795436
  0
LINE
  8
_e-2_
  6
CONTINUOUS
 62
    3
 10
175.14774703706007
 20
188.25955465541483
 11
175.147755416579
 21
191.85957643010954
  0
LINE
  8
_e-2_
  6
CONTINUOUS
 62
    3
 10
189.94770183801256
 20
188.25952020659628
 11
189.94771021753127
 21
191.85954198129093
  0
LINE
  8
_e-2_
  6
CONTINUOUS
 62
    3
 10
184.34764872094593
 20
188.25953324144791
 11
189.94770183801256
 21
188.25952020659628
  0
LINE
  8
_e-2_
  6
CONTINUOUS
 62
    3
 10
184.3476571004644
 20
191.85955501614251
 11
189.94771021753127
 21
191.85954198129093
  0
LINE
  8
_e-2_
  6
CONTINUOUS
 62
    3
 10
184.34764872094593
 20
188.25953324144791
 11
184.3476571004644
 21
191.85955501614251
  0
LINE
  8
_e-2_
  6
CONTINUOUS
 62
    3
 10
150.94772827220436
 20
186.85960636522361
 11
150.94771989268565
 21
183.25958459052896
  0
LINE
  8
_e-2_
  6
CONTINUOUS
 62
    3
 10
158.9476804338974
 20
186.85962238587024
 11
158.94767205429798
 21
183.25956596960043
  0
LINE
  8
_e-2_
  6
CONTINUOUS
 62
    3
 10
158.94767205429798
 20
183.25956596960043
 11
150.94771989268565
 21
183.25958459052896
  0
LINE
  8
_e-2_
  6
CONTINUOUS
 62
    3
 10
150.94772827220436
 20
186.85960636522361
 11
158.9476804338974
 21
186.85962238587024
  0
LINE
  8
_e-2_
  6
CONTINUOUS
 62
    3
 10
160.14766459774546
 20
186.85961959275113
 11
160.14765621814627
 21
183.25956317648127
  0
LINE
  8
_e-2_
  6
CONTINUOUS
 62
    3
 10
168.14768604250844
 20
186.85960097166139
 11
168.14767766290947
 21
183.25954455539153
  0
LINE
  8
_e-2_
  6
CONTINUOUS
 62
    3
 10
168.14767766290947
 20
183.25954455539153
 11
160.14765621814627
 21
183.25956317648127
  0
LINE
  8
_e-2_
  6
CONTINUOUS
 62
    3
 10
160.14766459774546
 20
186.85961959275113
 11
168.14768604250844
 21
186.85960097166139
  0
LINE
  8
_e-2_
  6
CONTINUOUS
 62
    3
 10
169.34770484793171
 20
186.85959817846162
 11
169.34769646833251
 21
183.25954176219182
  0
LINE
  8
_e-2_
  6
CONTINUOUS
 62
    3
 10
177.34765700954426
 20
186.85957955753315
 11
177.34764862994507
 21
183.25952314126329
  0
LINE
  8
_e-2_
  6
CONTINUOUS
 62
    3
 10
177.34764862994507
 20
183.25952314126329
 11
169.34769646833251
 21
183.25954176219182
  0
LINE
  8
_e-2_
  6
CONTINUOUS
 62
    3
 10
169.34770484793171
 20
186.85959817846162
 11
177.34765700954426
 21
186.85957955753315
  0
LINE
  8
_e-2_
  6
CONTINUOUS
 62
    3
 10
178.54767581496776
 20
186.85957676433338
 11
178.54766743536834
 21
183.25952034806357
  0
LINE
  8
_e-2_
  6
CONTINUOUS
 62
    3
 10
186.54769725973051
 20
186.85955814324365
 11
186.54768888013132
 21
183.25950172697378
  0
LINE
  8
_e-2_
  6
CONTINUOUS
 62
    3
 10
186.54768888013132
 20
183.25950172697378
 11
178.54766743536834
 21
183.25952034806357
  0
LINE
  8
_e-2_
  6
CONTINUOUS
 62
    3
 10
178.54767581496776
 20
186.85957676433338
 11
186.54769725973051
 21
186.85955814324365
  0
LINE
  8
_e-2_
  6
CONTINUOUS
 62
    3
 10
153.14772541029606
 20
178.25955307613555
 11
153.14773378989548
 21
181.8596094924053
  0
LINE
  8
_e-2_
  6
CONTINUOUS
 62
    3
 10
147.54770693480441
 20
178.25956611090649
 11
153.14772541029606
 21
178.25955307613555
  0
LINE
  8
_e-2_
  6
CONTINUOUS
 62
    3
 10
147.54771531440383
 20
181.85962252717621
 11
153.14773378989548
 21
181.8596094924053
  0
LINE
  8
_e-2_
  6
CONTINUOUS
 62
    3
 10
154.14772376069436
 20
178.25955074850941
 11
154.14773214029378
 21
181.85960716477916
  0
LINE
  8
_e-2_
  6
CONTINUOUS
 62
    3
 10
155.74764490986695
 20
178.25954702448496
 11
155.74765328946592
 21
181.85960344075471
  0
LINE
  8
_e-2_
  6
CONTINUOUS
 62
    3
 10
155.74764490986695
 20
178.25954702448496
 11
154.14772376069436
 21
178.25955074850941
  0
LINE
  8
_e-2_
  6
CONTINUOUS
 62
    3
 10
155.74765328946592
 20
181.85960344075471
 11
154.14773214029378
 21
181.85960716477916
  0
LINE
  8
_e-2_
  6
CONTINUOUS
 62
    3
 10
147.54770693480441
 20
178.25956611090649
 11
147.54771531440383
 21
181.85962252717621
  0
LINE
  8
_e-2_
  6
CONTINUOUS
 62
    3
 10
162.34766173575667
 20
178.25953166208785
 11
162.34767011535587
 21
181.85958807835766
  0
LINE
  8
_e-2_
  6
CONTINUOUS
 62
    3
 10
156.74764326026525
 20
178.25954469685882
 11
162.34766173575667
 21
178.25953166208785
  0
LINE
  8
_e-2_
  6
CONTINUOUS
 62
    3
 10
156.74765163986444
 20
181.85960111312858
 11
162.34767011535587
 21
181.85958807835766
  0
LINE
  8
_e-2_
  6
CONTINUOUS
 62
    3
 10
163.34766008615543
 20
178.25952933446172
 11
163.34766846575462
 21
181.85958575073153
  0
LINE
  8
_e-2_
  6
CONTINUOUS
 62
    3
 10
164.94768516005297
 20
178.25952561019545
 11
164.94769353965194
 21
181.8595820264652
  0
LINE
  8
_e-2_
  6
CONTINUOUS
 62
    3
 10
164.94768516005297
 20
178.25952561019545
 11
163.34766008615543
 21
178.25952933446172
  0
LINE
  8
_e-2_
  6
CONTINUOUS
 62
    3
 10
164.94769353965194
 20
181.8595820264652
 11
163.34766846575462
 21
181.85958575073153
  0
LINE
  8
_e-2_
  6
CONTINUOUS
 62
    3
 10
156.74764326026525
 20
178.25954469685882
 11
156.74765163986444
 21
181.85960111312858
  0
LINE
  8
_e-2_
  6
CONTINUOUS
 62
    3
 10
171.54766734436771
 20
178.25951024787906
 11
171.54767572396713
 21
181.85956666414882
  0
LINE
  8
_e-2_
  6
CONTINUOUS
 62
    3
 10
165.94764886887606
 20
178.25952328264998
 11
171.54766734436771
 21
178.25951024787906
  0
LINE
  8
_e-2_
  6
CONTINUOUS
 62
    3
 10
165.94765724847548
 20
181.85957969891973
 11
171.54767572396713
 21
181.85956666414882
  0
LINE
  8
_e-2_
  6
CONTINUOUS
 62
    3
 10
172.54763105319125
 20
178.25950792033348
 11
172.54763943279022
 21
181.85956433660328
  0
LINE
  8
_e-2_
  6
CONTINUOUS
 62
    3
 10
174.14765612708857
 20
178.25950419606721
 11
174.14766450668799
 21
181.85956061233696
  0
LINE
  8
_e-2_
  6
CONTINUOUS
 62
    3
 10
174.14765612708857
 20
178.25950419606721
 11
172.54763105319125
 21
178.25950792033348
  0
LINE
  8
_e-2_
  6
CONTINUOUS
 62
    3
 10
174.14766450668799
 20
181.85956061233696
 11
172.54763943279022
 21
181.85956433660328
  0
LINE
  8
_e-2_
  6
CONTINUOUS
 62
    3
 10
165.94764886887606
 20
178.25952328264998
 11
165.94765724847548
 21
181.85957969891973
  0
LINE
  8
_e-2_
  6
CONTINUOUS
 62
    3
 10
180.74763831140353
 20
178.25948883375082
 11
180.74764669100296
 21
181.85954525002057
  0
LINE
  8
_e-2_
  6
CONTINUOUS
 62
    3
 10
175.14773214023671
 20
181.85955828454956
 11
180.74764669100296
 21
181.85954525002057
  0
LINE
  8
_e-2_
  6
CONTINUOUS
 62
    3
 10
181.74763666180229
 20
178.25948650612469
 11
181.74764504140126
 21
181.85954292239444
  0
LINE
  8
_e-2_
  6
CONTINUOUS
 62
    3
 10
183.3476617356996
 20
178.25948278185825
 11
183.34767011529902
 21
181.859539198128
  0
LINE
  8
_e-2_
  6
CONTINUOUS
 62
    3
 10
183.3476617356996
 20
178.25948278185825
 11
181.74763666180229
 21
178.25948650612469
  0
LINE
  8
_e-2_
  6
CONTINUOUS
 62
    3
 10
183.34767011529902
 20
181.859539198128
 11
181.74764504140126
 21
181.85954292239444
  0
LINE
  8
_e-2_
  6
CONTINUOUS
 62
    3
 10
150.94770499578158
 20
176.85955357808848
 11
150.94769661642431
 21
173.25960108654419
  0
LINE
  8
_e-2_
  6
CONTINUOUS
 62
    3
 10
158.94765715739413
 20
176.85953495716001
 11
158.94764877803686
 21
173.25958246561572
  0
LINE
  8
_e-2_
  6
CONTINUOUS
 62
    3
 10
158.94764877803686
 20
173.25958246561572
 11
150.94769661642431
 21
173.25960108654419
  0
LINE
  8
_e-2_
  6
CONTINUOUS
 62
    3
 10
150.94770499578158
 20
176.85955357808848
 11
158.94765715739413
 21
176.85953495716001
  0
LINE
  8
_e-2_
  6
CONTINUOUS
 62
    3
 10
160.14764132124219
 20
176.8595321640409
 11
160.14763294188469
 21
173.25957967249656
  0
LINE
  8
_e-2_
  6
CONTINUOUS
 62
    3
 10
168.14766276600494
 20
176.85951354295105
 11
168.1476543866479
 21
173.25956105140671
  0
LINE
  8
_e-2_
  6
CONTINUOUS
 62
    3
 10
168.1476543866479
 20
173.25956105140671
 11
160.14763294188469
 21
173.25957967249656
  0
LINE
  8
_e-2_
  6
CONTINUOUS
 62
    3
 10
160.14764132124219
 20
176.8595321640409
 11
168.14766276600494
 21
176.85951354295105
  0
LINE
  8
_e-2_
  6
CONTINUOUS
 62
    3
 10
169.34768157142844
 20
176.85951074975134
 11
169.34767319207117
 21
173.25955825820705
  0
LINE
  8
_e-2_
  6
CONTINUOUS
 62
    3
 10
153.14770213411521
 20
168.25960421372588
 11
153.14771051347248
 21
171.85955670527022
  0
LINE
  8
_e-2_
  6
CONTINUOUS
 62
    3
 10
147.54768365862355
 20
168.2596172484968
 11
153.14770213411521
 21
168.25960421372588
  0
LINE
  8
_e-2_
  6
CONTINUOUS
 62
    3
 10
147.54769203798105
 20
171.85956974004117
 11
153.14771051347248
 21
171.85955670527022
  0
LINE
  8
_e-2_
  6
CONTINUOUS
 62
    3
 10
154.14770048451373
 20
168.25960188609974
 11
154.14770886387123
 21
171.85955437764409
  0
LINE
  8
_e-2_
  6
CONTINUOUS
 62
    3
 10
155.74765627526108
 20
168.25959816199469
 11
155.74766465461835
 21
171.85955065353903
  0
LINE
  8
_e-2_
  6
CONTINUOUS
 62
    3
 10
155.74765627526108
 20
168.25959816199469
 11
154.14770048451373
 21
168.25960188609974
  0
LINE
  8
_e-2_
  6
CONTINUOUS
 62
    3
 10
155.74766465461835
 20
171.85955065353903
 11
154.14770886387123
 21
171.85955437764409
  0
LINE
  8
_e-2_
  6
CONTINUOUS
 62
    3
 10
147.54768365862355
 20
168.2596172484968
 11
147.54769203798105
 21
171.85956974004117
  0
LINE
  8
_e-2_
  6
CONTINUOUS
 62
    3
 10
162.34763845957582
 20
168.2595827996783
 11
162.34764683893331
 21
171.85953529122258
  0
LINE
  8
_e-2_
  6
CONTINUOUS
 62
    3
 10
156.74761998408417
 20
168.25959583444916
 11
162.34763845957582
 21
168.2595827996783
  0
LINE
  8
_e-2_
  6
CONTINUOUS
 62
    3
 10
156.74762836344144
 20
171.8595483259935
 11
162.34764683893331
 21
171.85953529122258
  0
LINE
  8
_e-2_
  6
CONTINUOUS
 62
    3
 10
163.34763680997435
 20
168.25958047205216
 11
163.34764518933162
 21
171.85953296359645
  0
LINE
  8
_e-2_
  6
CONTINUOUS
 62
    3
 10
164.94766188387212
 20
168.25957674778584
 11
164.94767026322938
 21
171.85952923933013
  0
LINE
  8
_e-2_
  6
CONTINUOUS
 62
    3
 10
164.94766188387212
 20
168.25957674778584
 11
163.34763680997435
 21
168.25958047205216
  0
LINE
  8
_e-2_
  6
CONTINUOUS
 62
    3
 10
164.94767026322938
 20
171.85952923933013
 11
163.34764518933162
 21
171.85953296359645
  0
LINE
  8
_e-2_
  6
CONTINUOUS
 62
    3
 10
156.74761998408417
 20
168.25959583444916
 11
156.74762836344144
 21
171.8595483259935
  0
LINE
  8
_e-2_
  6
CONTINUOUS
 62
    3
 10
171.54764406818686
 20
168.2595613854694
 11
171.54765244754435
 21
171.85951387701374
  0
LINE
  8
_e-2_
  6
CONTINUOUS
 62
    3
 10
165.94766023427042
 20
168.25957442015971
 11
171.54764406818686
 21
168.2595613854694
  0
LINE
  8
_e-2_
  6
CONTINUOUS
 62
    3
 10
165.94766861362768
 20
171.85952691170399
 11
171.54765244754435
 21
171.85951387701374
  0
LINE
  8
_e-2_
  6
CONTINUOUS
 62
    3
 10
172.54764241858538
 20
168.25955905784326
 11
172.54765079794288
 21
171.85951154938761
  0
LINE
  8
_e-2_
  6
CONTINUOUS
 62
    3
 10
165.94766023427042
 20
168.25957442015971
 11
165.94766861362768
 21
171.85952691170399
  0
LINE
  8
_e-2_
  6
CONTINUOUS
 62
    3
 10
150.9476817196005
 20
166.85960471567893
 11
150.94767334008202
 21
163.25958294098422
  0
LINE
  8
_e-2_
  6
CONTINUOUS
 62
    3
 10
158.94763388121328
 20
166.8595860947504
 11
158.94762550185601
 21
163.25963360320605
  0
LINE
  8
_e-2_
  6
CONTINUOUS
 62
    3
 10
158.94762550185601
 20
163.25963360320605
 11
150.94767334008202
 21
163.25958294098422
  0
LINE
  8
_e-2_
  6
CONTINUOUS
 62
    3
 10
150.9476817196005
 20
166.85960471567893
 11
158.94763388121328
 21
166.8595860947504
  0
LINE
  8
_e-2_
  6
CONTINUOUS
 62
    3
 10
160.14761804506111
 20
166.85958330163135
 11
160.14760966570407
 21
163.259630810087
  0
LINE
  8
_e-2_
  6
CONTINUOUS
 62
    3
 10
160.14761804506111
 20
166.85958330163135
 11
168.14763948982454
 21
166.85956468054161
  0
LINE
  8
_e-2_
  6
CONTINUOUS
 62
    3
 10
132.54773195188636
 20
193.25968020608175
 11
140.54768411349869
 21
193.25966158515328
  0
LINE
  8
_e-2_
  6
CONTINUOUS
 62
    3
 10
132.54774033124363
 20
196.85963269762604
 11
140.54769249285619
 21
196.85961407669757
  0
LINE
  8
_e-2_
  6
CONTINUOUS
 62
    3
 10
135.74770117831986
 20
188.25964636414292
 11
137.34769161064241
 21
188.25964263995709
  0
LINE
  8
_e-2_
  6
CONTINUOUS
 62
    3
 10
135.74770955783856
 20
191.85966813883752
 11
137.34769999016112
 21
191.8596644146518
  0
LINE
  8
_e-2_
  6
CONTINUOUS
 62
    3
 10
132.54770867546358
 20
183.25962741894674
 11
140.54766083707636
 21
183.25960879801821
  0
LINE
  8
_e-2_
  6
CONTINUOUS
 62
    3
 10
132.54771705498229
 20
186.85964919364133
 11
140.54766921659461
 21
186.8596305727128
  0
LINE
  8
_e-2_
  6
CONTINUOUS
 62
    3
 10
135.7476779018973
 20
178.25959357700785
 11
137.34766833421986
 21
178.25958985282202
  0
LINE
  8
_e-2_
  6
CONTINUOUS
 62
    3
 10
135.74768628149627
 20
181.8596499932776
 11
137.34767671381883
 21
181.85964626909174
  0
LINE
  8
_e-2_
  6
CONTINUOUS
 62
    3
 10
132.54768539920201
 20
173.25964391496191
 11
140.54763756081479
 21
173.25962529403338
  0
LINE
  8
_e-2_
  6
CONTINUOUS
 62
    3
 10
132.54769377855951
 20
176.85959640650626
 11
140.54764594017229
 21
176.85957778557773
  0
LINE
  8
_e-2_
  6
CONTINUOUS
 62
    3
 10
135.74765462571645
 20
168.25964471459818
 11
137.34764505803901
 21
168.25964099041246
  0
LINE
  8
_e-2_
  6
CONTINUOUS
 62
    3
 10
135.74766300507372
 20
171.85959720614252
 11
137.34765343739627
 21
171.85959348195681
  0
LINE
  8
_e-2_
  6
CONTINUOUS
 62
    3
 10
132.54766212285995
 20
163.25962576940211
 11
140.54761428447273
 21
163.25960714847358
  0
LINE
  8
_e-2_
  6
CONTINUOUS
 62
    3
 10
132.54767050237888
 20
166.8596475440967
 11
140.54762266399121
 21
166.85962892316817
  0
LINE
  8
_e-2_
  6
CONTINUOUS
 62
    3
 10
138.34766315310821
 20
161.8596076502653
 11
143.9476123454499
 21
161.85959461565571
  0
LINE
  8
_e-2_
  6
CONTINUOUS
 62
    3
 10
146.54767041132118
 20
161.85958856368256
 11
144.9476106958482
 21
161.85959228802955
  0
LINE
  8
_e-2_
  6
CONTINUOUS
 62
    3
 10
156.74760508718009
 20
161.85956482200879
 11
162.34762356267197
 21
161.85955178723782
  0
LINE
  8
_e-2_
  6
CONTINUOUS
 62
    3
 10
135.74763972881215
 20
161.85961370215782
 11
137.3476301611347
 21
161.85960997797199
  0
LINE
  8
_e-2_
  6
CONTINUOUS
 62
    3
 10
187.74767358977442
 20
213.25951872912049
 11
196.52075642608588
 21
213.25953295020503
  0
LINE
  8
_e-2_
  6
CONTINUOUS
 62
    3
 10
196.46238211319337
 20
211.8595111464108
 11
193.54770926159836
 21
211.85950060990308
  0
LINE
  8
_e-2_
  6
CONTINUOUS
 62
    3
 10
196.16119987931802
 20
208.25955935588775
 11
193.54770088224109
 21
208.25954811835879
  0
LINE
  8
_e-2_
  6
CONTINUOUS
 62
    3
 10
195.37596765671469
 20
203.25951746923556
 11
187.7477195966635
 21
203.25953522497451
  0
LINE
  8
_e-2_
  6
CONTINUOUS
 62
    3
 10
194.14773897089276
 20
198.25949393450287
 11
193.54767760581808
 21
198.25949533122366
  0
LINE
  8
_e-2_
  6
CONTINUOUS
 62
    3
 10
187.74770469975965
 20
196.85950421253403
 11
193.72081293990004
 21
196.85952495092334
  0
LINE
  8
_e-2_
  6
CONTINUOUS
 62
    3
 10
192.44731097410568
 20
193.25954078202579
 11
187.74769632040193
 21
193.25955172098975
  0
LINE
  8
_e-2_
  6
CONTINUOUS
 62
    3
 10
191.8809179614027
 20
191.85953748149859
 11
190.94767392635458
 21
191.8595396537454
  0
LINE
  8
_e-2_
  6
CONTINUOUS
 62
    3
 10
190.94766901275489
 20
189.74855134610755
 11
190.94767392635458
 21
191.8595396537454
  0
LINE
  8
_e-2_
  6
CONTINUOUS
 62
    3
 10
187.74771606515401
 20
186.85955535004382
 11
189.50771593318132
 21
186.85955125341536
  0
LINE
  8
_e-2_
  6
CONTINUOUS
 62
    3
 10
187.74771606515401
 20
186.85955535004382
 11
187.74770889141791
 21
183.77756369042385
  0
LINE
  8
_e-2_
  6
CONTINUOUS
 62
    3
 10
186.52530716396018
 20
181.85953180176477
 11
184.34763382412234
 21
181.85953687058259
  0
LINE
  8
_e-2_
  6
CONTINUOUS
 62
    3
 10
184.34762668941244
 20
178.79431173334427
 11
184.34763382412234
 21
181.85953687058259
  0
LINE
  8
_e-2_
  6
CONTINUOUS
 62
    3
 10
169.34765829524781
 20
166.85956188734184
 11
172.27947872651066
 21
166.8595550631486
  0
LINE
  8
_e-2_
  6
CONTINUOUS
 62
    3
 10
169.34765829524781
 20
166.85956188734184
 11
169.3476535443649
 21
164.81848027839465
  0
LINE
  8
_e-2_
  6
CONTINUOUS
 62
    3
 10
168.14763948982454
 20
166.85956468054161
 11
168.1476329622792
 21
164.05519060432448
  0
LINE
  8
_e-2_
  6
CONTINUOUS
 62
    3
 10
166.82584716832525
 20
163.25961526562116
 11
160.14760966570407
 21
163.259630810087
  0
LINE
  8
_e-2_
  6
CONTINUOUS
 62
    3
 10
162.347621305438
 20
160.88979553196179
 11
162.34762356267197
 21
161.85955178723782
  0
LINE
  8
_e-2_
  6
CONTINUOUS
 62
    3
 10
174.09449267459922
 20
168.25955545734826
 11
172.54764241858538
 21
168.25955905784326
  0
LINE
  8
_e-2_
  6
CONTINUOUS
 62
    3
 10
138.34765856599097
 20
159.88888308048595
 11
138.34766315310821
 21
161.8596076502653
  0
LINE
  8
_e-2_
  6
CONTINUOUS
 62
    3
 10
137.34762551934818
 20
159.86539842022827
 11
137.3476301611347
 21
161.85960997797199
  0
LINE
  8
_e-2_
  6
CONTINUOUS
 62
    3
 10
144.94760753689798
 20
160.50243929764042
 11
144.9476106958482
 21
161.85959228802955
  0
LINE
  8
_e-2_
  6
CONTINUOUS
 62
    3
 10
146.54766788187089
 20
160.77288235063645
 11
146.54767041132118
 21
161.85958856368256
  0
LINE
  8
_e-2_
  6
CONTINUOUS
 62
    3
 10
147.54766668332923
 20
160.96666499450481
 11
147.54766876171948
 21
161.85958623605643
  0
LINE
  8
_e-2_
  6
CONTINUOUS
 62
    3
 10
143.94760884985794
 20
160.35781304893672
 11
143.9476123454499
 21
161.85959461565571
  0
LINE
  8
_e-2_
  6
CONTINUOUS
 62
    3
 10
187.74772797614173
 20
206.85953967888156
 11
195.98476707833083
 21
206.8595724684651
  0
LINE
  8
_e-2_
  6
CONTINUOUS
 62
    3
 10
195.07773507739353
 20
201.85951354453022
 11
193.54768598517558
 21
201.85944782276806
  0
LINE
  8
_e-2_
  6
CONTINUOUS
 62
    3
 10
156.74759741182743
 20
158.5620679232635
 11
156.74760508718009
 21
161.85956482200879
  0
LINE
  8
_e-2_
  6
CONTINUOUS
 62
    3
 10
147.54766876171948
 20
161.85958623605643
 11
151.27184594181927
 21
161.85957756754993
  0
LINE
  8
_e-2_
  6
CONTINUOUS
 62
    3
 10
165.94771869798296
 20
208.25961236090473
 11
171.54766789032419
 21
208.25959932629519
  0
LINE
  8
_e-2_
  6
CONTINUOUS
 62
    3
 10
174.14772595619547
 20
208.25959327432201
 11
172.5477008822977
 21
208.25959699858834
  0
LINE
  8
_e-2_
  6
CONTINUOUS
 62
    3
 10
165.94771869798296
 20
208.25961236090473
 11
165.94772707734046
 21
211.85956485244913
  0
LINE
  8
_e-2_
  6
CONTINUOUS
 62
    3
 10
180.74770814051044
 20
208.25957791200562
 11
180.74771651986771
 21
211.85953040354991
  0
LINE
  8
_e-2_
  6
CONTINUOUS
 62
    3
 10
175.147724306594
 20
208.25959094669588
 11
180.74770814051044
 21
208.25957791200562
  0
LINE
  8
_e-2_
  6
CONTINUOUS
 62
    3
 10
167.74777307175577
 20
212.0595464760587
 11
178.9477407396289
 21
212.05953772746579
  0
LINE
  8
_e-2_
  6
CONTINUOUS
 62
    3
 10
160.14769140551675
 20
213.25958297166659
 11
166.34773660450765
 21
213.25956854025537
  0
LINE
  8
_e-2_
  6
CONTINUOUS
 62
    3
 10
180.34778279323632
 20
213.25953595332817
 11
186.54768942592659
 21
213.25952152223965
  0
LINE
  8
_e-2_
  6
CONTINUOUS
 62
    3
 10
180.34777953454363
 20
211.85953133445531
 11
180.74771651986771
 21
211.85953040354991
  0
LINE
  8
_e-2_
  6
CONTINUOUS
 62
    3
 10
165.94772707734046
 20
211.85956485244913
 11
166.34773334581473
 21
211.85956392138257
  0
LINE
  8
_e-2_
  6
CONTINUOUS
 62
    3
 10
171.54766789032419
 20
208.25959932629519
 11
171.54767347652228
 21
210.6595503332037
  0
LINE
  8
_e-2_
  6
CONTINUOUS
 62
    3
 10
172.5477008822977
 20
208.25959699858834
 11
172.54770646849579
 21
210.65954800549702
  0
LINE
  8
_e-2_
  6
CONTINUOUS
 62
    3
 10
174.14772595619547
 20
208.25959327432201
 11
174.14773154239356
 21
210.65954428123064
  0
LINE
  8
_e-2_
  6
CONTINUOUS
 62
    3
 10
175.147724306594
 20
208.25959094669588
 11
175.14772989279186
 21
210.6595419536045
  0
LINE
  8
_e-2_
  6
CONTINUOUS
 62
    3
 10
175.14772989279186
 20
210.6595419536045
 11
180.34777674138422
 21
210.65952984981959
  0
LINE
  8
_e-2_
  6
CONTINUOUS
 62
    3
 10
166.34773055265555
 20
210.65956243674685
 11
171.54767347652228
 21
210.6595503332037
  0
LINE
  8
_e-2_
  6
CONTINUOUS
 62
    3
 10
172.54770646849579
 20
210.65954800549702
 11
174.14773154239356
 21
210.65954428123064
  0
LINE
  8
_e-2_
  6
CONTINUOUS
 62
    3
 10
166.34773334581473
 20
211.85956392138257
 11
166.34773055265555
 21
210.65956243674685
  0
LINE
  8
_e-2_
  6
CONTINUOUS
 62
    3
 10
180.34777953454363
 20
211.85953133445531
 11
180.34777674138422
 21
210.65952984981959
  0
LINE
  8
_e-2_
  6
CONTINUOUS
 62
    3
 10
175.1477024973733
 20
169.12434528838469
 11
175.14770456705514
 21
170.01352523981808
  0
LINE
  8
_e-2_
  6
CONTINUOUS
 62
    3
 10
174.14770223347841
 20
168.3022683956795
 11
174.14770808225694
 21
170.81502969212539
  0
LINE
  8
_e-2_
  6
CONTINUOUS
 62
    3
 10
173.40007603812205
 20
171.85950956525704
 11
172.54765079794288
 21
171.85951154938761
  0
LINE
  8
_e-2_
  6
CONTINUOUS
 62
    3
 10
172.92632111488683
 20
173.25954992843884
 11
169.34767319207117
 21
173.25955825820705
  0
LINE
  8
_e-2_
  6
CONTINUOUS
 62
    3
 10
169.34768157142844
 20
176.85951074975134
 11
173.79399702749743
 21
176.8595004003742
  0
LINE
  8
_e-2_
  6
CONTINUOUS
 62
    3
 10
175.14772376063775
 20
178.25950186827981
 11
175.14773214023671
 21
181.85955828454956
  0
LINE
  8
_e-2_
  6
CONTINUOUS
 62
    3
 10
175.14772376063775
 20
178.25950186827981
 11
175.47487879653204
 21
178.25950110678389
  0
LINE
  8
_e-2_
  6
CONTINUOUS
 62
    3
 10
179.64485840747921
 20
178.25949140061431
 11
180.74763831140353
 21
178.25948883375082
  0
LINE
  8
_e-2_
  6
CONTINUOUS
 62
    3
 10
181.32569901755301
 20
176.85948286935877
 11
182.81601422289123
 21
176.85947940045645
  0
LINE
  8
_e-2_
  6
CENTER1
 62
    3
 10
173.7435434652939
 20
170.23097367552151
 11
181.37617412971508
 21
177.86356880814532
  0
LINE
  8
_e-2_
  6
CENTER1
 62
    3
 10
173.74356123119242
 20
177.86358657404384
 11
181.37615636381634
 21
170.23095590962288
  0
LINE
  8
_e-2_
  6
CONTINUOUS
 62
    3
 10
118.94769230440829
 20
208.25966979721258
 11
118.94770068376579
 21
211.85962228875687
  0
LINE
  8
_e-2_
  6
CONTINUOUS
 62
    3
 10
117.34777115523616
 20
208.25967352123703
 11
117.34777953459366
 21
211.85962601278132
  0
LINE
  8
_e-2_
  6
CONTINUOUS
 62
    3
 10
117.34777115523616
 20
208.25967352123703
 11
118.94769230440829
 21
208.25966979721258
  0
LINE
  8
_e-2_
  6
CONTINUOUS
 62
    3
 10
117.34777953459366
 20
211.85962601278132
 11
118.94770068376579
 21
211.85962228875687
  0
LINE
  8
_e-2_
  6
CONTINUOUS
 62
    3
 10
110.74775432942647
 20
208.25972352520918
 11
110.74776270878397
 21
211.85967601675353
  0
LINE
  8
_e-2_
  6
CONTINUOUS
 62
    3
 10
116.34773816334291
 20
208.25971049051893
 11
110.74775432942647
 21
208.25972352520918
  0
LINE
  8
_e-2_
  6
CONTINUOUS
 62
    3
 10
116.34774654270063
 20
211.85966298206321
 11
110.74776270878397
 21
211.85967601675353
  0
LINE
  8
_e-2_
  6
CONTINUOUS
 62
    3
 10
109.74775597902817
 20
208.25972585283532
 11
109.74776435838567
 21
211.85967834437966
  0
LINE
  8
_e-2_
  6
CONTINUOUS
 62
    3
 10
108.14780018824035
 20
208.25971225615282
 11
108.14780856759785
 21
211.85966474769711
  0
LINE
  8
_e-2_
  6
CONTINUOUS
 62
    3
 10
108.14780018824035
 20
208.25971225615282
 11
109.74775597902817
 21
208.25972585283532
  0
LINE
  8
_e-2_
  6
CONTINUOUS
 62
    3
 10
108.14780856759785
 20
211.85966474769711
 11
109.74776435838567
 21
211.85967834437966
  0
LINE
  8
_e-2_
  6
CONTINUOUS
 62
    3
 10
116.34773816334291
 20
208.25971049051893
 11
116.34774654270063
 21
211.85966298206321
  0
LINE
  8
_e-2_
  6
CONTINUOUS
 62
    3
 10
91.347744761765625
 20
208.25975136046551
 11
91.347753141122894
 21
211.85970385200986
  0
LINE
  8
_e-2_
  6
CONTINUOUS
 62
    3
 10
89.747788970978263
 20
208.25973776378302
 11
89.747797350335532
 21
211.85969025532731
  0
LINE
  8
_e-2_
  6
CONTINUOUS
 62
    3
 10
89.747788970978263
 20
208.25973776378302
 11
91.347744761765625
 21
208.25975136046551
  0
LINE
  8
_e-2_
  6
CONTINUOUS
 62
    3
 10
89.747797350335532
 20
211.85969025532731
 11
91.347753141122894
 21
211.85970385200986
  0
LINE
  8
_e-2_
  6
CONTINUOUS
 62
    3
 10
83.147737503512644
 20
208.2597531262607
 11
83.14774588287014
 21
211.85970561780499
  0
LINE
  8
_e-2_
  6
CONTINUOUS
 62
    3
 10
88.747755979004296
 20
208.25974009148982
 11
83.147737503512644
 21
208.2597531262607
  0
LINE
  8
_e-2_
  6
CONTINUOUS
 62
    3
 10
88.747764358361792
 20
211.8596925830341
 11
83.14774588287014
 21
211.85970561780499
  0
LINE
  8
_e-2_
  6
CONTINUOUS
 62
    3
 10
82.147739153114344
 20
208.25975545388684
 11
82.14774753247184
 21
211.85970794543113
  0
LINE
  8
_e-2_
  6
CONTINUOUS
 62
    3
 10
80.547783362366999
 20
208.25975917799195
 11
80.547791741724495
 21
211.85971166953624
  0
LINE
  8
_e-2_
  6
CONTINUOUS
 62
    3
 10
80.547783362366999
 20
208.25975917799195
 11
82.147739153114344
 21
208.25975545388684
  0
LINE
  8
_e-2_
  6
CONTINUOUS
 62
    3
 10
80.547791741724495
 20
211.85971166953624
 11
82.14774753247184
 21
211.85970794543113
  0
LINE
  8
_e-2_
  6
CONTINUOUS
 62
    3
 10
88.747755979004296
 20
208.25974009148982
 11
88.747764358361792
 21
211.8596925830341
  0
LINE
  8
_e-2_
  6
CONTINUOUS
 62
    3
 10
79.54775037039326
 20
208.25976150569869
 11
79.547758749750528
 21
211.85971399724309
  0
LINE
  8
_e-2_
  6
CONTINUOUS
 62
    3
 10
114.14771774878818
 20
206.85969367168437
 11
114.14770936935042
 21
203.25970653856493
  0
LINE
  8
_e-2_
  6
CONTINUOUS
 62
    3
 10
112.94773358494012
 20
206.85969646480342
 11
112.94772520550214
 21
203.25970933168398
  0
LINE
  8
_e-2_
  6
CONTINUOUS
 62
    3
 10
104.9477814232871
 20
206.85969776494446
 11
104.94777304388981
 21
203.25972795261251
  0
LINE
  8
_e-2_
  6
CONTINUOUS
 62
    3
 10
104.94777304388981
 20
203.25972795261251
 11
112.94772520550214
 21
203.25970933168398
  0
LINE
  8
_e-2_
  6
CONTINUOUS
 62
    3
 10
112.94773358494012
 20
206.85969646480342
 11
104.9477814232871
 21
206.85969776494446
  0
LINE
  8
_e-2_
  6
CONTINUOUS
 62
    3
 10
103.74772797628884
 20
206.85970055822477
 11
103.7477195968911
 21
203.25973074589288
  0
LINE
  8
_e-2_
  6
CONTINUOUS
 62
    3
 10
95.747741173100849
 20
206.85971917923385
 11
95.747767435278547
 21
203.25974936682141
  0
LINE
  8
_e-2_
  6
CONTINUOUS
 62
    3
 10
95.747767435278547
 20
203.25974936682141
 11
103.7477195968911
 21
203.25973074589288
  0
LINE
  8
_e-2_
  6
CONTINUOUS
 62
    3
 10
103.74772797628884
 20
206.85970055822477
 11
95.747741173100849
 21
206.85971917923385
  0
LINE
  8
_e-2_
  6
CONTINUOUS
 62
    3
 10
94.547722367677807
 20
206.85972197243362
 11
94.54778327143049
 21
203.25975215994046
  0
LINE
  8
_e-2_
  6
CONTINUOUS
 62
    3
 10
86.547770206065024
 20
206.85974059336212
 11
86.547761826667511
 21
203.25977078103031
  0
LINE
  8
_e-2_
  6
CONTINUOUS
 62
    3
 10
86.547761826667511
 20
203.25977078103031
 11
94.54778327143049
 21
203.25975215994046
  0
LINE
  8
_e-2_
  6
CONTINUOUS
 62
    3
 10
94.547722367677807
 20
206.85972197243362
 11
86.547770206065024
 21
206.85974059336212
  0
LINE
  8
_e-2_
  6
CONTINUOUS
 62
    3
 10
85.34771675906677
 20
206.85974338664255
 11
85.347743021244241
 21
203.25977357423008
  0
LINE
  8
_e-2_
  6
CONTINUOUS
 62
    3
 10
132.54774033124363
 20
196.85963269762604
 11
132.54773195188636
 21
193.25968020608175
  0
LINE
  8
_e-2_
  6
CONTINUOUS
 62
    3
 10
131.34772152582036
 20
196.85963549082581
 11
131.34771314646287
 21
193.25968299928152
  0
LINE
  8
_e-2_
  6
CONTINUOUS
 62
    3
 10
123.34773472263259
 20
196.85965411183494
 11
123.34772634327533
 21
193.25970162029071
  0
LINE
  8
_e-2_
  6
CONTINUOUS
 62
    3
 10
123.34772634327533
 20
193.25970162029071
 11
131.34771314646287
 21
193.25968299928152
  0
LINE
  8
_e-2_
  6
CONTINUOUS
 62
    3
 10
131.34772152582036
 20
196.85963549082581
 11
123.34773472263259
 21
196.85965411183494
  0
LINE
  8
_e-2_
  6
CONTINUOUS
 62
    3
 10
129.14771899400512
 20
188.2596617264592
 11
129.14772737352359
 21
191.85968350115391
  0
LINE
  8
_e-2_
  6
CONTINUOUS
 62
    3
 10
134.74770282792156
 20
188.25964869176906
 11
129.14771899400512
 21
188.2596617264592
  0
LINE
  8
_e-2_
  6
CONTINUOUS
 62
    3
 10
134.74771120744003
 20
191.85967046646365
 11
129.14772737352359
 21
191.85968350115391
  0
LINE
  8
_e-2_
  6
CONTINUOUS
 62
    3
 10
128.14772064360659
 20
188.25966405408533
 11
128.14772902312529
 21
191.85968582878004
  0
LINE
  8
_e-2_
  6
CONTINUOUS
 62
    3
 10
126.54766092813361
 20
188.25966777843237
 11
126.54766930765231
 21
191.85968955312697
  0
LINE
  8
_e-2_
  6
CONTINUOUS
 62
    3
 10
126.54766092813361
 20
188.25966777843237
 11
128.14772064360659
 21
188.25966405408533
  0
LINE
  8
_e-2_
  6
CONTINUOUS
 62
    3
 10
126.54766930765231
 20
191.85968955312697
 11
128.14772902312529
 21
191.85968582878004
  0
LINE
  8
_e-2_
  6
CONTINUOUS
 62
    3
 10
134.74770282792156
 20
188.25964869176906
 11
134.74771120744003
 21
191.85967046646365
  0
LINE
  8
_e-2_
  6
CONTINUOUS
 62
    3
 10
135.74770117831986
 20
188.25964636414292
 11
135.74770955783856
 21
191.85966813883752
  0
LINE
  8
_e-2_
  6
CONTINUOUS
 62
    3
 10
132.54771705498229
 20
186.85964919364133
 11
132.54770867546358
 21
183.25962741894674
  0
LINE
  8
_e-2_
  6
CONTINUOUS
 62
    3
 10
131.34769824955879
 20
186.85965198684104
 11
131.34768987004031
 21
183.25963021214645
  0
LINE
  8
_e-2_
  6
CONTINUOUS
 62
    3
 10
123.34771144637125
 20
186.85967060785023
 11
123.34770306685232
 21
183.25964883315564
  0
LINE
  8
_e-2_
  6
CONTINUOUS
 62
    3
 10
123.34770306685232
 20
183.25964883315564
 11
131.34768987004031
 21
183.25963021214645
  0
LINE
  8
_e-2_
  6
CONTINUOUS
 62
    3
 10
131.34769824955879
 20
186.85965198684104
 11
123.34771144637125
 21
186.85967060785023
  0
LINE
  8
_e-2_
  6
CONTINUOUS
 62
    3
 10
129.14769571758234
 20
178.25960893932412
 11
129.14770409718153
 21
181.85966535559388
  0
LINE
  8
_e-2_
  6
CONTINUOUS
 62
    3
 10
134.74767955149878
 20
178.25959590463398
 11
129.14769571758234
 21
178.25960893932412
  0
LINE
  8
_e-2_
  6
CONTINUOUS
 62
    3
 10
134.74768793109797
 20
181.85965232090373
 11
129.14770409718153
 21
181.85966535559388
  0
LINE
  8
_e-2_
  6
CONTINUOUS
 62
    3
 10
128.14769736718381
 20
178.25961126695026
 11
128.147705746783
 21
181.85966768322001
  0
LINE
  8
_e-2_
  6
CONTINUOUS
 62
    3
 10
126.54767229328627
 20
178.25961499121664
 11
126.54768067288546
 21
181.85967140748645
  0
LINE
  8
_e-2_
  6
CONTINUOUS
 62
    3
 10
126.54767229328627
 20
178.25961499121664
 11
128.14769736718381
 21
178.25961126695026
  0
LINE
  8
_e-2_
  6
CONTINUOUS
 62
    3
 10
126.54768067288546
 20
181.85967140748645
 11
128.147705746783
 21
181.85966768322001
  0
LINE
  8
_e-2_
  6
CONTINUOUS
 62
    3
 10
134.74767955149878
 20
178.25959590463398
 11
134.74768793109797
 21
181.85965232090373
  0
LINE
  8
_e-2_
  6
CONTINUOUS
 62
    3
 10
135.7476779018973
 20
178.25959357700785
 11
135.74768628149627
 21
181.8596499932776
  0
LINE
  8
_e-2_
  6
CONTINUOUS
 62
    3
 10
132.54769377855951
 20
176.85959640650626
 11
132.54768539920201
 21
173.25964391496191
  0
LINE
  8
_e-2_
  6
CONTINUOUS
 62
    3
 10
131.34767497313624
 20
176.85959919970597
 11
131.34766659377897
 21
173.25964670816163
  0
LINE
  8
_e-2_
  6
CONTINUOUS
 62
    3
 10
123.34768816994824
 20
176.85961782071504
 11
123.34767979059097
 21
173.25966532917082
  0
LINE
  8
_e-2_
  6
CONTINUOUS
 62
    3
 10
123.34767979059097
 20
173.25966532917082
 11
131.34766659377897
 21
173.25964670816163
  0
LINE
  8
_e-2_
  6
CONTINUOUS
 62
    3
 10
131.34767497313624
 20
176.85959919970597
 11
123.34768816994824
 21
176.85961782071504
  0
LINE
  8
_e-2_
  6
CONTINUOUS
 62
    3
 10
129.14767244140148
 20
168.25966007691457
 11
129.14768082075875
 21
171.85961256845886
  0
LINE
  8
_e-2_
  6
CONTINUOUS
 62
    3
 10
134.74765627531815
 20
168.25964704222432
 11
129.14767244140148
 21
168.25966007691457
  0
LINE
  8
_e-2_
  6
CONTINUOUS
 62
    3
 10
134.74766465467519
 20
171.85959953376866
 11
129.14768082075875
 21
171.85961256845886
  0
LINE
  8
_e-2_
  6
CONTINUOUS
 62
    3
 10
128.14767409100295
 20
168.25966240454071
 11
128.14768247036045
 21
171.85961489608505
  0
LINE
  8
_e-2_
  6
CONTINUOUS
 62
    3
 10
126.54764901710519
 20
168.25966612880703
 11
126.54765739646268
 21
171.85961862035137
  0
LINE
  8
_e-2_
  6
CONTINUOUS
 62
    3
 10
126.54764901710519
 20
168.25966612880703
 11
128.14767409100295
 21
168.25966240454071
  0
LINE
  8
_e-2_
  6
CONTINUOUS
 62
    3
 10
126.54765739646268
 20
171.85961862035137
 11
128.14768247036045
 21
171.85961489608505
  0
LINE
  8
_e-2_
  6
CONTINUOUS
 62
    3
 10
134.74765627531815
 20
168.25964704222432
 11
134.74766465467519
 21
171.85959953376866
  0
LINE
  8
_e-2_
  6
CONTINUOUS
 62
    3
 10
135.74765462571645
 20
168.25964471459818
 11
135.74766300507372
 21
171.85959720614252
  0
LINE
  8
_e-2_
  6
CONTINUOUS
 62
    3
 10
132.54767050237888
 20
166.8596475440967
 11
132.54766212285995
 21
163.25962576940211
  0
LINE
  8
_e-2_
  6
CONTINUOUS
 62
    3
 10
131.34765169695538
 20
166.85965033729653
 11
131.34764331743645
 21
163.25962856260182
  0
LINE
  8
_e-2_
  6
CONTINUOUS
 62
    3
 10
123.34766489376761
 20
166.8596689583056
 11
123.34765651424891
 21
163.25964718361089
  0
LINE
  8
_e-2_
  6
CONTINUOUS
 62
    3
 10
123.34765651424891
 20
163.25964718361089
 11
131.34764331743645
 21
163.25962856260182
  0
LINE
  8
_e-2_
  6
CONTINUOUS
 62
    3
 10
131.34765169695538
 20
166.85965033729653
 11
123.34766489376761
 21
166.8596689583056
  0
LINE
  8
_e-2_
  6
CONTINUOUS
 62
    3
 10
118.94766902794549
 20
198.2595996892899
 11
118.94767740746374
 21
201.85962146398461
  0
LINE
  8
_e-2_
  6
CONTINUOUS
 62
    3
 10
117.34774787877336
 20
198.25960341331435
 11
117.34775625829161
 21
201.85962518800906
  0
LINE
  8
_e-2_
  6
CONTINUOUS
 62
    3
 10
117.34774787877336
 20
198.25960341331435
 11
118.94766902794549
 21
198.2595996892899
  0
LINE
  8
_e-2_
  6
CONTINUOUS
 62
    3
 10
117.34775625829161
 20
201.85962518800906
 11
118.94767740746374
 21
201.85962146398461
  0
LINE
  8
_e-2_
  6
CONTINUOUS
 62
    3
 10
110.74773105304439
 20
198.25968805886177
 11
110.74773943240189
 21
201.859640550406
  0
LINE
  8
_e-2_
  6
CONTINUOUS
 62
    3
 10
116.34771488696083
 20
198.2596750241714
 11
110.74773105304439
 21
198.25968805886177
  0
LINE
  8
_e-2_
  6
CONTINUOUS
 62
    3
 10
116.3477232663181
 20
201.85962751571574
 11
110.74773943240189
 21
201.859640550406
  0
LINE
  8
_e-2_
  6
CONTINUOUS
 62
    3
 10
109.74773270264586
 20
198.2596903864879
 11
109.74774108200313
 21
201.85964287803213
  0
LINE
  8
_e-2_
  6
CONTINUOUS
 62
    3
 10
108.14777691189852
 20
198.25969411059296
 11
108.14778529125579
 21
201.8596466021373
  0
LINE
  8
_e-2_
  6
CONTINUOUS
 62
    3
 10
108.14777691189852
 20
198.25969411059296
 11
109.74773270264586
 21
198.2596903864879
  0
LINE
  8
_e-2_
  6
CONTINUOUS
 62
    3
 10
108.14778529125579
 20
201.8596466021373
 11
109.74774108200313
 21
201.85964287803213
  0
LINE
  8
_e-2_
  6
CONTINUOUS
 62
    3
 10
116.34771488696083
 20
198.2596750241714
 11
116.3477232663181
 21
201.85962751571574
  0
LINE
  8
_e-2_
  6
CONTINUOUS
 62
    3
 10
101.54776008600857
 20
198.25970947299001
 11
101.54776846536583
 21
201.85966196453424
  0
LINE
  8
_e-2_
  6
CONTINUOUS
 62
    3
 10
107.14777856149976
 20
198.25969643821909
 11
101.54776008600857
 21
198.25970947299001
  0
LINE
  8
_e-2_
  6
CONTINUOUS
 62
    3
 10
107.14778694085726
 20
201.85964892976344
 11
101.54776846536583
 21
201.85966196453424
  0
LINE
  8
_e-2_
  6
CONTINUOUS
 62
    3
 10
100.54776173561004
 20
198.25971180061615
 11
100.54777011496708
 21
201.85966429216037
  0
LINE
  8
_e-2_
  6
CONTINUOUS
 62
    3
 10
98.947736661712042
 20
198.25971552488241
 11
98.947745041069538
 21
201.8596680164267
  0
LINE
  8
_e-2_
  6
CONTINUOUS
 62
    3
 10
98.947736661712042
 20
198.25971552488241
 11
100.54776173561004
 21
198.25971180061615
  0
LINE
  8
_e-2_
  6
CONTINUOUS
 62
    3
 10
98.947745041069538
 20
201.8596680164267
 11
100.54777011496708
 21
201.85966429216037
  0
LINE
  8
_e-2_
  6
CONTINUOUS
 62
    3
 10
107.14777856149976
 20
198.25969643821909
 11
107.14778694085726
 21
201.85964892976344
  0
LINE
  8
_e-2_
  6
CONTINUOUS
 62
    3
 10
92.347754477397302
 20
198.2597308871988
 11
92.347762856754798
 21
201.8596833787432
  0
LINE
  8
_e-2_
  6
CONTINUOUS
 62
    3
 10
97.947772952888954
 20
198.25971785242788
 11
92.347754477397302
 21
198.2597308871988
  0
LINE
  8
_e-2_
  6
CONTINUOUS
 62
    3
 10
97.94778133224645
 20
201.85967034397223
 11
92.347762856754798
 21
201.8596833787432
  0
LINE
  8
_e-2_
  6
CONTINUOUS
 62
    3
 10
91.347756126998775
 20
198.25973321482493
 11
91.34776450635627
 21
201.85968570636933
  0
LINE
  8
_e-2_
  6
CONTINUOUS
 62
    3
 10
89.74780033625143
 20
198.25973693892999
 11
89.747808715608699
 21
201.85968943047433
  0
LINE
  8
_e-2_
  6
CONTINUOUS
 62
    3
 10
89.74780033625143
 20
198.25973693892999
 11
91.347756126998775
 21
198.25973321482493
  0
LINE
  8
_e-2_
  6
CONTINUOUS
 62
    3
 10
89.747808715608699
 20
201.85968943047433
 11
91.34776450635627
 21
201.85968570636933
  0
LINE
  8
_e-2_
  6
CONTINUOUS
 62
    3
 10
97.947772952888954
 20
198.25971785242788
 11
97.94778133224645
 21
201.85967034397223
  0
LINE
  8
_e-2_
  6
CONTINUOUS
 62
    3
 10
83.147748868786493
 20
198.25975230140776
 11
83.147757248143535
 21
201.85970479295199
  0
LINE
  8
_e-2_
  6
CONTINUOUS
 62
    3
 10
88.747732702702706
 20
198.2597392667175
 11
83.147748868786493
 21
198.25975230140776
  0
LINE
  8
_e-2_
  6
CONTINUOUS
 62
    3
 10
88.747741082060202
 20
201.85969175826173
 11
83.147757248143535
 21
201.85970479295199
  0
LINE
  8
_e-2_
  6
CONTINUOUS
 62
    3
 10
82.147750518387738
 20
198.25975462903389
 11
82.147758897745007
 21
201.85970712057812
  0
LINE
  8
_e-2_
  6
CONTINUOUS
 62
    3
 10
80.547794727478959
 20
198.25968906998858
 11
80.547803106836454
 21
201.85964156153287
  0
LINE
  8
_e-2_
  6
CONTINUOUS
 62
    3
 10
80.547794727478959
 20
198.25968906998858
 11
82.147750518387738
 21
198.25975462903389
  0
LINE
  8
_e-2_
  6
CONTINUOUS
 62
    3
 10
80.547803106836454
 20
201.85964156153287
 11
82.147758897745007
 21
201.85970712057812
  0
LINE
  8
_e-2_
  6
CONTINUOUS
 62
    3
 10
88.747732702702706
 20
198.2597392667175
 11
88.747741082060202
 21
201.85969175826173
  0
LINE
  8
_e-2_
  6
CONTINUOUS
 62
    3
 10
79.547727093930234
 20
198.25969139777598
 11
79.547735473287503
 21
201.85964388932032
  0
LINE
  8
_e-2_
  6
CONTINUOUS
 62
    3
 10
122.1477159172091
 20
196.85965690503471
 11
122.14770753785183
 21
193.25970441349043
  0
LINE
  8
_e-2_
  6
CONTINUOUS
 62
    3
 10
114.14769447244635
 20
196.85967552612445
 11
114.14768609292742
 21
193.25965375142974
  0
LINE
  8
_e-2_
  6
CONTINUOUS
 62
    3
 10
114.14768609292742
 20
193.25965375142974
 11
122.14770753785183
 21
193.25970441349043
  0
LINE
  8
_e-2_
  6
CONTINUOUS
 62
    3
 10
122.1477159172091
 20
196.85965690503471
 11
114.14769447244635
 21
196.85967552612445
  0
LINE
  8
_e-2_
  6
CONTINUOUS
 62
    3
 10
112.94771030859806
 20
196.85967831924361
 11
112.94770192907959
 21
193.2596565445489
  0
LINE
  8
_e-2_
  6
CONTINUOUS
 62
    3
 10
104.94775814698573
 20
196.85969694017209
 11
104.9477497674668
 21
193.25967516547743
  0
LINE
  8
_e-2_
  6
CONTINUOUS
 62
    3
 10
104.9477497674668
 20
193.25967516547743
 11
112.94770192907959
 21
193.2596565445489
  0
LINE
  8
_e-2_
  6
CONTINUOUS
 62
    3
 10
112.94771030859806
 20
196.85967831924361
 11
104.94775814698573
 21
196.85969694017209
  0
LINE
  8
_e-2_
  6
CONTINUOUS
 62
    3
 10
103.74770469998703
 20
196.85969973345246
 11
103.74769632046855
 21
193.25967795875786
  0
LINE
  8
_e-2_
  6
CONTINUOUS
 62
    3
 10
95.747752538374471
 20
196.85971835438093
 11
95.747744158855767
 21
193.25969657968633
  0
LINE
  8
_e-2_
  6
CONTINUOUS
 62
    3
 10
95.747744158855767
 20
193.25969657968633
 11
103.74769632046855
 21
193.25967795875786
  0
LINE
  8
_e-2_
  6
CONTINUOUS
 62
    3
 10
103.74770469998703
 20
196.85969973345246
 11
95.747752538374471
 21
196.85971835438093
  0
LINE
  8
_e-2_
  6
CONTINUOUS
 62
    3
 10
94.547768374526186
 20
196.8597211475001
 11
94.547759995007709
 21
193.25969937280539
  0
LINE
  8
_e-2_
  6
CONTINUOUS
 62
    3
 10
86.547746929763434
 20
196.85973976858983
 11
86.547738550244503
 21
193.25971799389524
  0
LINE
  8
_e-2_
  6
CONTINUOUS
 62
    3
 10
86.547738550244503
 20
193.25971799389524
 11
94.547759995007709
 21
193.25969937280539
  0
LINE
  8
_e-2_
  6
CONTINUOUS
 62
    3
 10
94.547768374526186
 20
196.8597211475001
 11
86.547746929763434
 21
196.85973976858983
  0
LINE
  8
_e-2_
  6
CONTINUOUS
 62
    3
 10
85.347728124339937
 20
196.8597425617896
 11
85.347719744821461
 21
193.25972078709489
  0
LINE
  8
_e-2_
  6
CONTINUOUS
 62
    3
 10
119.94764410224366
 20
188.25968314082937
 11
119.94765248176213
 21
191.85970491552408
  0
LINE
  8
_e-2_
  6
CONTINUOUS
 62
    3
 10
125.54766257773531
 20
188.25967010605851
 11
119.94764410224366
 21
188.25968314082937
  0
LINE
  8
_e-2_
  6
CONTINUOUS
 62
    3
 10
125.54767095725379
 20
191.8596918807531
 11
119.94765248176213
 21
191.85970491552408
  0
LINE
  8
_e-2_
  6
CONTINUOUS
 62
    3
 10
118.94764575184513
 20
188.2596854684555
 11
118.94765413136383
 21
191.85970724315021
  0
LINE
  8
_e-2_
  6
CONTINUOUS
 62
    3
 10
117.34772460251179
 20
188.25961990932964
 11
117.34773298203027
 21
191.8596416840243
  0
LINE
  8
_e-2_
  6
CONTINUOUS
 62
    3
 10
117.34772460251179
 20
188.25961990932964
 11
118.94764575184513
 21
188.2596854684555
  0
LINE
  8
_e-2_
  6
CONTINUOUS
 62
    3
 10
117.34773298203027
 20
191.8596416840243
 11
118.94765413136383
 21
191.85970724315021
  0
LINE
  8
_e-2_
  6
CONTINUOUS
 62
    3
 10
125.54766257773531
 20
188.25967010605851
 11
125.54767095725379
 21
191.8596918807531
  0
LINE
  8
_e-2_
  6
CONTINUOUS
 62
    3
 10
110.74770777662161
 20
188.25963527172669
 11
110.74771615614031
 21
191.85965704642129
  0
LINE
  8
_e-2_
  6
CONTINUOUS
 62
    3
 10
116.34769161053805
 20
188.25962223703633
 11
110.74770777662161
 21
188.25963527172669
  0
LINE
  8
_e-2_
  6
CONTINUOUS
 62
    3
 10
116.34769999005675
 20
191.85964401173104
 11
110.74771615614031
 21
191.85965704642129
  0
LINE
  8
_e-2_
  6
CONTINUOUS
 62
    3
 10
109.74770942622308
 20
188.25963759935283
 11
109.74771780574156
 21
191.85965937404742
  0
LINE
  8
_e-2_
  6
CONTINUOUS
 62
    3
 10
108.14768435232554
 20
188.25964132361915
 11
108.14769273184402
 21
191.85966309831375
  0
LINE
  8
_e-2_
  6
CONTINUOUS
 62
    3
 10
108.14768435232554
 20
188.25964132361915
 11
109.74770942622308
 21
188.25963759935283
  0
LINE
  8
_e-2_
  6
CONTINUOUS
 62
    3
 10
108.14769273184402
 20
191.85966309831375
 11
109.74771780574156
 21
191.85965937404742
  0
LINE
  8
_e-2_
  6
CONTINUOUS
 62
    3
 10
116.34769161053805
 20
188.25962223703633
 11
116.34769999005675
 21
191.85964401173104
  0
LINE
  8
_e-2_
  6
CONTINUOUS
 62
    3
 10
101.54770216801035
 20
188.25965668593554
 11
101.54771054752928
 21
191.85967846063019
  0
LINE
  8
_e-2_
  6
CONTINUOUS
 62
    3
 10
107.14775528507744
 20
188.25964365108402
 11
101.54770216801035
 21
188.25965668593554
  0
LINE
  8
_e-2_
  6
CONTINUOUS
 62
    3
 10
107.14776366459614
 20
191.85966542577867
 11
101.54771054752928
 21
191.85967846063019
  0
LINE
  8
_e-2_
  6
CONTINUOUS
 62
    3
 10
100.54773845918726
 20
188.25965901348107
 11
100.54774683870573
 21
191.85968078817567
  0
LINE
  8
_e-2_
  6
CONTINUOUS
 62
    3
 10
98.947713385289717
 20
188.25966273774739
 11
98.947721764808193
 21
191.85968451244199
  0
LINE
  8
_e-2_
  6
CONTINUOUS
 62
    3
 10
98.947713385289717
 20
188.25966273774739
 11
100.54773845918726
 21
188.25965901348107
  0
LINE
  8
_e-2_
  6
CONTINUOUS
 62
    3
 10
98.947721764808193
 20
191.85968451244199
 11
100.54774683870573
 21
191.85968078817567
  0
LINE
  8
_e-2_
  6
CONTINUOUS
 62
    3
 10
107.14775528507744
 20
188.25964365108402
 11
107.14776366459614
 21
191.85966542577867
  0
LINE
  8
_e-2_
  6
CONTINUOUS
 62
    3
 10
92.347731200974522
 20
188.25967810006378
 11
92.347739580493453
 21
191.85969987475843
  0
LINE
  8
_e-2_
  6
CONTINUOUS
 62
    3
 10
97.94768039331575
 20
188.25966506545419
 11
92.347731200974522
 21
188.25967810006378
  0
LINE
  8
_e-2_
  6
CONTINUOUS
 62
    3
 10
97.947688772834681
 20
191.85968684014884
 11
92.347739580493453
 21
191.85969987475843
  0
LINE
  8
_e-2_
  6
CONTINUOUS
 62
    3
 10
91.347732850576449
 20
188.25968042768991
 11
91.347741230094698
 21
191.85970220238457
  0
LINE
  8
_e-2_
  6
CONTINUOUS
 62
    3
 10
89.747707776678453
 20
188.25968415195629
 11
89.74771615619693
 21
191.85970592665089
  0
LINE
  8
_e-2_
  6
CONTINUOUS
 62
    3
 10
89.747707776678453
 20
188.25968415195629
 11
91.347732850576449
 21
188.25968042768991
  0
LINE
  8
_e-2_
  6
CONTINUOUS
 62
    3
 10
89.74771615619693
 20
191.85970592665089
 11
91.347741230094698
 21
191.85970220238457
  0
LINE
  8
_e-2_
  6
CONTINUOUS
 62
    3
 10
97.94768039331575
 20
188.25966506545419
 11
97.947688772834681
 21
191.85968684014884
  0
LINE
  8
_e-2_
  6
CONTINUOUS
 62
    3
 10
83.147725592363486
 20
188.25969951427268
 11
83.14773397188219
 21
191.85972128896728
  0
LINE
  8
_e-2_
  6
CONTINUOUS
 62
    3
 10
88.747709426279926
 20
188.25968647958243
 11
83.147725592363486
 21
188.25969951427268
  0
LINE
  8
_e-2_
  6
CONTINUOUS
 62
    3
 10
88.747717805798629
 20
191.85970825427708
 11
83.14773397188219
 21
191.85972128896728
  0
LINE
  8
_e-2_
  6
CONTINUOUS
 62
    3
 10
88.747709426279926
 20
188.25968647958243
 11
88.747717805798629
 21
191.85970825427708
  0
LINE
  8
_e-2_
  6
CONTINUOUS
 62
    3
 10
122.14769264094775
 20
186.85967340104995
 11
122.14768426142928
 21
183.25965162635535
  0
LINE
  8
_e-2_
  6
CONTINUOUS
 62
    3
 10
114.14770583775999
 20
186.85969202205914
 11
114.14769745824128
 21
183.25967024736443
  0
LINE
  8
_e-2_
  6
CONTINUOUS
 62
    3
 10
114.14769745824128
 20
183.25967024736443
 11
122.14768426142928
 21
183.25965162635535
  0
LINE
  8
_e-2_
  6
CONTINUOUS
 62
    3
 10
122.14769264094775
 20
186.85967340104995
 11
114.14770583775999
 21
186.85969202205914
  0
LINE
  8
_e-2_
  6
CONTINUOUS
 62
    3
 10
112.94772167391193
 20
186.85969481517819
 11
112.94771329439345
 21
183.25967304048359
  0
LINE
  8
_e-2_
  6
CONTINUOUS
 62
    3
 10
104.94770022914895
 20
186.85971343626798
 11
104.94769184963025
 21
183.25969166157327
  0
LINE
  8
_e-2_
  6
CONTINUOUS
 62
    3
 10
104.94769184963025
 20
183.25969166157327
 11
112.94771329439345
 21
183.25967304048359
  0
LINE
  8
_e-2_
  6
CONTINUOUS
 62
    3
 10
112.94772167391193
 20
186.85969481517819
 11
104.94770022914895
 21
186.85971343626798
  0
LINE
  8
_e-2_
  6
CONTINUOUS
 62
    3
 10
103.74771606530066
 20
186.85971622938715
 11
103.74770768578219
 21
183.25969445469244
  0
LINE
  8
_e-2_
  6
CONTINUOUS
 62
    3
 10
95.747729262112898
 20
186.85973485039622
 11
95.747720882594422
 21
183.25971307570151
  0
LINE
  8
_e-2_
  6
CONTINUOUS
 62
    3
 10
95.747720882594422
 20
183.25971307570151
 11
103.74770768578219
 21
183.25969445469244
  0
LINE
  8
_e-2_
  6
CONTINUOUS
 62
    3
 10
103.74771606530066
 20
186.85971622938715
 11
95.747729262112898
 21
186.85973485039622
  0
LINE
  8
_e-2_
  6
CONTINUOUS
 62
    3
 10
94.547745098264841
 20
186.85973764351539
 11
94.547736718746364
 21
183.25971586882068
  0
LINE
  8
_e-2_
  6
CONTINUOUS
 62
    3
 10
86.547723653502089
 20
186.85975626460512
 11
86.547715273983158
 21
183.25973448991053
  0
LINE
  8
_e-2_
  6
CONTINUOUS
 62
    3
 10
86.547715273983158
 20
183.25973448991053
 11
94.547736718746364
 21
183.25971586882068
  0
LINE
  8
_e-2_
  6
CONTINUOUS
 62
    3
 10
94.547745098264841
 20
186.85973764351539
 11
86.547723653502089
 21
186.85975626460512
  0
LINE
  8
_e-2_
  6
CONTINUOUS
 62
    3
 10
119.94765546739609
 20
178.25963035361374
 11
119.94766384699528
 21
181.8596867698835
  0
LINE
  8
_e-2_
  6
CONTINUOUS
 62
    3
 10
125.54767394288774
 20
178.25961731884277
 11
119.94765546739609
 21
178.25963035361374
  0
LINE
  8
_e-2_
  6
CONTINUOUS
 62
    3
 10
125.54768232248693
 20
181.85967373511258
 11
119.94766384699528
 21
181.8596867698835
  0
LINE
  8
_e-2_
  6
CONTINUOUS
 62
    3
 10
118.94765711699756
 20
178.25963268123988
 11
118.94766549659698
 21
181.85968909750963
  0
LINE
  8
_e-2_
  6
CONTINUOUS
 62
    3
 10
117.34770132625044
 20
178.25963640534488
 11
117.34770970576892
 21
181.85965818003947
  0
LINE
  8
_e-2_
  6
CONTINUOUS
 62
    3
 10
117.34770132625044
 20
178.25963640534488
 11
118.94765711699756
 21
178.25963268123988
  0
LINE
  8
_e-2_
  6
CONTINUOUS
 62
    3
 10
117.34770970576892
 20
181.85965818003947
 11
118.94766549659698
 21
181.85968909750963
  0
LINE
  8
_e-2_
  6
CONTINUOUS
 62
    3
 10
125.54767394288774
 20
178.25961731884277
 11
125.54768232248693
 21
181.85967373511258
  0
LINE
  8
_e-2_
  6
CONTINUOUS
 62
    3
 10
110.74768450036026
 20
178.25965176774199
 11
110.74769287987874
 21
181.85967354243658
  0
LINE
  8
_e-2_
  6
CONTINUOUS
 62
    3
 10
116.34770297585169
 20
178.25963873297101
 11
110.74768450036026
 21
178.25965176774199
  0
LINE
  8
_e-2_
  6
CONTINUOUS
 62
    3
 10
116.34771135537062
 20
181.85966050766561
 11
110.74769287987874
 21
181.85967354243658
  0
LINE
  8
_e-2_
  6
CONTINUOUS
 62
    3
 10
109.74772079153718
 20
178.2596540952874
 11
109.74772917105543
 21
181.859675869982
  0
LINE
  8
_e-2_
  6
CONTINUOUS
 62
    3
 10
108.14769571763941
 20
178.25965781955372
 11
108.14770409715766
 21
181.85967959424843
  0
LINE
  8
_e-2_
  6
CONTINUOUS
 62
    3
 10
108.14769571763941
 20
178.25965781955372
 11
109.74772079153718
 21
178.2596540952874
  0
LINE
  8
_e-2_
  6
CONTINUOUS
 62
    3
 10
108.14770409715766
 20
181.85967959424843
 11
109.74772917105543
 21
181.859675869982
  0
LINE
  8
_e-2_
  6
CONTINUOUS
 62
    3
 10
116.34770297585169
 20
178.25963873297101
 11
116.34771135537062
 21
181.85966050766561
  0
LINE
  8
_e-2_
  6
CONTINUOUS
 62
    3
 10
101.547678891749
 20
178.25967318195077
 11
101.54768727126793
 21
181.85969495664548
  0
LINE
  8
_e-2_
  6
CONTINUOUS
 62
    3
 10
107.14773200881586
 20
178.25966014709925
 11
101.547678891749
 21
178.25967318195077
  0
LINE
  8
_e-2_
  6
CONTINUOUS
 62
    3
 10
107.14774038833457
 20
181.85968192179385
 11
101.54768727126793
 21
181.85969495664548
  0
LINE
  8
_e-2_
  6
CONTINUOUS
 62
    3
 10
100.54771518292591
 20
178.25967550949636
 11
100.54772356244439
 21
181.85969728419096
  0
LINE
  8
_e-2_
  6
CONTINUOUS
 62
    3
 10
98.947690109028144
 20
178.25967923376263
 11
98.947698488546621
 21
181.85970100845722
  0
LINE
  8
_e-2_
  6
CONTINUOUS
 62
    3
 10
98.947690109028144
 20
178.25967923376263
 11
100.54771518292591
 21
178.25967550949636
  0
LINE
  8
_e-2_
  6
CONTINUOUS
 62
    3
 10
98.947698488546621
 20
181.85970100845722
 11
100.54772356244439
 21
181.85969728419096
  0
LINE
  8
_e-2_
  6
CONTINUOUS
 62
    3
 10
107.14773200881586
 20
178.25966014709925
 11
107.14774038833457
 21
181.85968192179385
  0
LINE
  8
_e-2_
  6
CONTINUOUS
 62
    3
 10
92.347707924713177
 20
178.25969459607902
 11
92.347716304231881
 21
181.85971637077373
  0
LINE
  8
_e-2_
  6
CONTINUOUS
 62
    3
 10
97.947665496573109
 20
181.85970333616402
 11
92.347716304231881
 21
181.85971637077373
  0
LINE
  8
_e-2_
  6
CONTINUOUS
 62
    3
 10
91.347709574314877
 20
178.25969692370515
 11
91.347717953833126
 21
181.85971869839986
  0
LINE
  8
_e-2_
  6
CONTINUOUS
 62
    3
 10
89.747684500417108
 20
178.25970064797153
 11
89.747692879935585
 21
181.85972242266612
  0
LINE
  8
_e-2_
  6
CONTINUOUS
 62
    3
 10
89.747684500417108
 20
178.25970064797153
 11
91.347709574314877
 21
178.25969692370515
  0
LINE
  8
_e-2_
  6
CONTINUOUS
 62
    3
 10
89.747692879935585
 20
181.85972242266612
 11
91.347717953833126
 21
181.85971869839986
  0
LINE
  8
_e-2_
  6
CONTINUOUS
 62
    3
 10
122.1476693645252
 20
176.85962061391481
 11
122.14766098516793
 21
173.25966812237053
  0
LINE
  8
_e-2_
  6
CONTINUOUS
 62
    3
 10
114.14768256133721
 20
176.859639234924
 11
114.14767418197971
 21
173.25968674337972
  0
LINE
  8
_e-2_
  6
CONTINUOUS
 62
    3
 10
114.14767418197971
 20
173.25968674337972
 11
122.14766098516793
 21
173.25966812237053
  0
LINE
  8
_e-2_
  6
CONTINUOUS
 62
    3
 10
122.1476693645252
 20
176.85962061391481
 11
114.14768256133721
 21
176.859639234924
  0
LINE
  8
_e-2_
  6
CONTINUOUS
 62
    3
 10
112.94769839748915
 20
176.85964202804306
 11
112.94769001813188
 21
173.25968953649877
  0
LINE
  8
_e-2_
  6
CONTINUOUS
 62
    3
 10
104.94767695272594
 20
176.85966064913291
 11
104.94766857336867
 21
173.25970815758856
  0
LINE
  8
_e-2_
  6
CONTINUOUS
 62
    3
 10
104.94766857336867
 20
173.25970815758856
 11
112.94769001813188
 21
173.25968953649877
  0
LINE
  8
_e-2_
  6
CONTINUOUS
 62
    3
 10
112.94769839748915
 20
176.85964202804306
 11
104.94767695272594
 21
176.85966064913291
  0
LINE
  8
_e-2_
  6
CONTINUOUS
 62
    3
 10
103.74769278887834
 20
176.85966344225196
 11
103.74768440952084
 21
173.25971095070773
  0
LINE
  8
_e-2_
  6
CONTINUOUS
 62
    3
 10
119.94766683279045
 20
168.25968149112347
 11
119.94764057057273
 21
171.85963398274842
  0
LINE
  8
_e-2_
  6
CONTINUOUS
 62
    3
 10
125.54765066670689
 20
168.25966845643316
 11
119.94766683279045
 21
168.25968149112347
  0
LINE
  8
_e-2_
  6
CONTINUOUS
 62
    3
 10
125.54765904606438
 20
171.8596209479775
 11
119.94764057057273
 21
171.85963398274842
  0
LINE
  8
_e-2_
  6
CONTINUOUS
 62
    3
 10
118.94766848239192
 20
168.25968381874961
 11
118.9476422201742
 21
171.85963631037455
  0
LINE
  8
_e-2_
  6
CONTINUOUS
 62
    3
 10
117.34767804998887
 20
168.25965290136017
 11
117.34768642942663
 21
171.85964003447961
  0
LINE
  8
_e-2_
  6
CONTINUOUS
 62
    3
 10
117.34767804998887
 20
168.25965290136017
 11
118.94766848239192
 21
168.25968381874961
  0
LINE
  8
_e-2_
  6
CONTINUOUS
 62
    3
 10
117.34768642942663
 20
171.85964003447961
 11
118.9476422201742
 21
171.85963631037455
  0
LINE
  8
_e-2_
  6
CONTINUOUS
 62
    3
 10
125.54765066670689
 20
168.25966845643316
 11
125.54765904606438
 21
171.8596209479775
  0
LINE
  8
_e-2_
  6
CONTINUOUS
 62
    3
 10
110.7476958656739
 20
168.25966826367656
 11
110.74766960353645
 21
171.85965539687666
  0
LINE
  8
_e-2_
  6
CONTINUOUS
 62
    3
 10
116.34771434116533
 20
168.25965522890564
 11
110.7476958656739
 21
168.25966826367656
  0
LINE
  8
_e-2_
  6
CONTINUOUS
 62
    3
 10
116.3476880790281
 20
171.85964236210575
 11
110.74766960353645
 21
171.85965539687666
  0
LINE
  8
_e-2_
  6
CONTINUOUS
 62
    3
 10
109.7476975152756
 20
168.25967059130269
 11
109.74770589471336
 21
171.85965772442214
  0
LINE
  8
_e-2_
  6
CONTINUOUS
 62
    3
 10
108.14770708295305
 20
168.25967431548841
 11
108.14768082081582
 21
171.8596614486884
  0
LINE
  8
_e-2_
  6
CONTINUOUS
 62
    3
 10
108.14770708295305
 20
168.25967431548841
 11
109.7476975152756
 21
168.25967059130269
  0
LINE
  8
_e-2_
  6
CONTINUOUS
 62
    3
 10
108.14768082081582
 20
171.8596614486884
 11
109.74770589471336
 21
171.85965772442214
  0
LINE
  8
_e-2_
  6
CONTINUOUS
 62
    3
 10
116.34771434116533
 20
168.25965522890564
 11
116.3476880790281
 21
171.85964236210575
  0
LINE
  8
_e-2_
  6
CONTINUOUS
 62
    3
 10
101.54769025706264
 20
168.2596896778854
 11
101.54766399492564
 21
171.85967681108551
  0
LINE
  8
_e-2_
  6
CONTINUOUS
 62
    3
 10
107.14770873255429
 20
168.25967664311455
 11
101.54769025706264
 21
168.2596896778854
  0
LINE
  8
_e-2_
  6
CONTINUOUS
 62
    3
 10
107.14768247041729
 20
171.85966377631465
 11
101.54766399492564
 21
171.85967681108551
  0
LINE
  8
_e-2_
  6
CONTINUOUS
 62
    3
 10
100.54769190666457
 20
168.2596920055116
 11
100.54770028610255
 21
171.85967913863104
  0
LINE
  8
_e-2_
  6
CONTINUOUS
 62
    3
 10
107.14770873255429
 20
168.25967664311455
 11
107.14768247041729
 21
171.85966377631465
  0
LINE
  8
_e-2_
  6
CONTINUOUS
 62
    3
 10
122.14764608834412
 20
166.85967175150532
 11
122.14763770882587
 21
163.25964997681066
  0
LINE
  8
_e-2_
  6
CONTINUOUS
 62
    3
 10
114.14769392657035
 20
166.85962108928348
 11
114.14768554721309
 21
163.25966859773914
  0
LINE
  8
_e-2_
  6
CONTINUOUS
 62
    3
 10
114.14768554721309
 20
163.25966859773914
 11
122.14763770882587
 21
163.25964997681066
  0
LINE
  8
_e-2_
  6
CONTINUOUS
 62
    3
 10
122.14764608834412
 20
166.85967175150532
 11
114.14769392657035
 21
166.85962108928348
  0
LINE
  8
_e-2_
  6
CONTINUOUS
 62
    3
 10
112.94770976272207
 20
166.85962388240259
 11
112.9477013833648
 21
163.2596713908583
  0
LINE
  8
_e-2_
  6
CONTINUOUS
 62
    3
 10
112.94770976272207
 20
166.85962388240259
 11
104.94768831795932
 21
166.85964250349232
  0
LINE
  8
_e-2_
  6
CONTINUOUS
 62
    3
 10
134.74764137841385
 20
161.85961602978395
 11
129.14765754449718
 21
161.85962906447409
  0
LINE
  8
_e-2_
  6
CONTINUOUS
 62
    3
 10
126.54763412020111
 20
161.8596351163666
 11
128.14765919409888
 21
161.85963139210034
  0
LINE
  8
_e-2_
  6
CONTINUOUS
 62
    3
 10
116.34769944426125
 20
161.85962421646516
 11
110.74768096876983
 21
161.85963725123608
  0
LINE
  8
_e-2_
  6
CONTINUOUS
 62
    3
 10
85.347800939000308
 20
213.259722436559
 11
76.574752744385023
 21
213.25976017775662
  0
LINE
  8
_e-2_
  6
CONTINUOUS
 62
    3
 10
76.633120539851916
 20
211.85975542301742
 11
79.547758749750528
 21
211.85971399724309
  0
LINE
  8
_e-2_
  6
CONTINUOUS
 62
    3
 10
76.934286015012276
 20
208.25980223045184
 11
79.54775037039326
 21
208.25976150569869
  0
LINE
  8
_e-2_
  6
CONTINUOUS
 62
    3
 10
77.719494961031614
 20
203.25972204681855
 11
85.347743021244241
 21
203.25977357423008
  0
LINE
  8
_e-2_
  6
CONTINUOUS
 62
    3
 10
78.947700370430994
 20
198.25969279441622
 11
79.547727093930234
 21
198.25969139777598
  0
LINE
  8
_e-2_
  6
CONTINUOUS
 62
    3
 10
85.347728124339937
 20
196.8597425617896
 11
79.374619884280264
 21
196.85975646497545
  0
LINE
  8
_e-2_
  6
CONTINUOUS
 62
    3
 10
80.64813973269338
 20
193.2597317259783
 11
85.347719744821461
 21
193.25972078709489
  0
LINE
  8
_e-2_
  6
CONTINUOUS
 62
    3
 10
81.214491586435543
 20
191.85972578884017
 11
82.147735621483662
 21
191.85972361659341
  0
LINE
  8
_e-2_
  6
CONTINUOUS
 62
    3
 10
82.147730708045401
 20
189.74880459210587
 11
82.147735621483662
 21
191.85972361659341
  0
LINE
  8
_e-2_
  6
CONTINUOUS
 62
    3
 10
85.347670206503608
 20
186.85975905788555
 11
83.587670338476073
 21
186.85976315451396
  0
LINE
  8
_e-2_
  6
CONTINUOUS
 62
    3
 10
85.347670206503608
 20
186.85975905788555
 11
85.347663032767286
 21
183.77776739826541
  0
LINE
  8
_e-2_
  6
CONTINUOUS
 62
    3
 10
86.570055831274431
 20
181.85972981902941
 11
88.747729171112496
 21
181.8597247502116
  0
LINE
  8
_e-2_
  6
CONTINUOUS
 62
    3
 10
88.747722036321875
 20
178.79446497139813
 11
88.747729171112496
 21
181.8597247502116
  0
LINE
  8
_e-2_
  6
CONTINUOUS
 62
    3
 10
103.74766951253582
 20
166.85964529669209
 11
100.81581443969799
 21
166.85965212096588
  0
LINE
  8
_e-2_
  6
CONTINUOUS
 62
    3
 10
103.74766951253582
 20
166.85964529669209
 11
103.74766476165337
 21
164.81856368774484
  0
LINE
  8
_e-2_
  6
CONTINUOUS
 62
    3
 10
104.94768831795932
 20
166.85964250349232
 11
104.94768179049493
 21
164.05530306885046
  0
LINE
  8
_e-2_
  6
CONTINUOUS
 62
    3
 10
106.26942923916863
 20
163.2596869354048
 11
112.9477013833648
 21
163.2596713908583
  0
LINE
  8
_e-2_
  6
CONTINUOUS
 62
    3
 10
110.74767871145536
 20
160.8898463543849
 11
110.74768096876983
 21
161.85963725123608
  0
LINE
  8
_e-2_
  6
CONTINUOUS
 62
    3
 10
99.000807009075743
 20
168.25969560608726
 11
100.54769190666457
 21
168.2596920055116
  0
LINE
  8
_e-2_
  6
CONTINUOUS
 62
    3
 10
134.74763679129615
 20
159.88889146000466
 11
134.74764137841385
 21
161.85961602978395
  0
LINE
  8
_e-2_
  6
CONTINUOUS
 62
    3
 10
135.74763508702563
 20
159.86540214441399
 11
135.74763972881215
 21
161.85961370215782
  0
LINE
  8
_e-2_
  6
CONTINUOUS
 62
    3
 10
128.14765603514888
 20
160.50247840171122
 11
128.14765919409888
 21
161.85963139210034
  0
LINE
  8
_e-2_
  6
CONTINUOUS
 62
    3
 10
126.54763159075128
 20
160.77292890332055
 11
126.54763412020111
 21
161.8596351163666
  0
LINE
  8
_e-2_
  6
CONTINUOUS
 62
    3
 10
125.54763369141256
 20
160.96671620244112
 11
125.54763576980281
 21
161.85963744399274
  0
LINE
  8
_e-2_
  6
CONTINUOUS
 62
    3
 10
129.14765404890545
 20
160.35784749775527
 11
129.14765754449718
 21
161.85962906447409
  0
LINE
  8
_e-2_
  6
CONTINUOUS
 62
    3
 10
85.34771675906677
 20
206.85974338664255
 11
77.11067765707935
 21
206.85979720099687
  0
LINE
  8
_e-2_
  6
CONTINUOUS
 62
    3
 10
78.01772102296718
 20
201.85971673377813
 11
79.547735473287503
 21
201.85964388932032
  0
LINE
  8
_e-2_
  6
CONTINUOUS
 62
    3
 10
116.34769176898931
 20
158.56216195929508
 11
116.34769944426125
 21
161.85962421646516
  0
LINE
  8
_e-2_
  6
CONTINUOUS
 62
    3
 10
125.54763576980281
 20
161.85963744399274
 11
121.82345858970302
 21
161.85964611249918
  0
LINE
  8
_e-2_
  6
CONTINUOUS
 62
    3
 10
107.14776719626684
 20
208.25971458385962
 11
101.54778336235063
 21
208.25972761854982
  0
LINE
  8
_e-2_
  6
CONTINUOUS
 62
    3
 10
98.947759938054105
 20
208.25973367044233
 11
100.54778501195187
 21
208.25972994617601
  0
LINE
  8
_e-2_
  6
CONTINUOUS
 62
    3
 10
107.14776719626684
 20
208.25971458385962
 11
107.14777557562434
 21
211.85966707540391
  0
LINE
  8
_e-2_
  6
CONTINUOUS
 62
    3
 10
92.347743112164153
 20
208.25974903283938
 11
92.347751491521649
 21
211.85970152438367
  0
LINE
  8
_e-2_
  6
CONTINUOUS
 62
    3
 10
97.947726946080593
 20
208.25973599814907
 11
92.347743112164153
 21
208.25974903283938
  0
LINE
  8
_e-2_
  6
CONTINUOUS
 62
    3
 10
105.3477305122351
 20
212.05967439948105
 11
94.147728202827011
 21
212.05970046894222
  0
LINE
  8
_e-2_
  6
CONTINUOUS
 62
    3
 10
112.94781776487366
 20
213.25967551471993
 11
106.74773792430756
 21
213.25968994621158
  0
LINE
  8
_e-2_
  6
CONTINUOUS
 62
    3
 10
92.747726377154095
 20
213.25972253305824
 11
86.54781974442335
 21
213.25971964335923
  0
LINE
  8
_e-2_
  6
CONTINUOUS
 62
    3
 10
92.747723118420708
 20
211.85970059339766
 11
92.347751491521649
 21
211.85970152438367
  0
LINE
  8
_e-2_
  6
CONTINUOUS
 62
    3
 10
107.14777557562434
 20
211.85966707540391
 11
106.74773466557463
 21
211.85966800655112
  0
LINE
  8
_e-2_
  6
CONTINUOUS
 62
    3
 10
101.54778336235063
 20
208.25972761854982
 11
101.54778894854826
 21
210.6596786254585
  0
LINE
  8
_e-2_
  6
CONTINUOUS
 62
    3
 10
100.54778501195187
 20
208.25972994617601
 11
100.54779059814996
 21
210.65968095308463
  0
LINE
  8
_e-2_
  6
CONTINUOUS
 62
    3
 10
98.947759938054105
 20
208.25973367044233
 11
98.947765524292436
 21
210.65970199813856
  0
LINE
  8
_e-2_
  6
CONTINUOUS
 62
    3
 10
97.947726946080593
 20
208.25973599814907
 11
97.947732532318923
 21
210.65970432584535
  0
LINE
  8
_e-2_
  6
CONTINUOUS
 62
    3
 10
97.947732532318923
 20
210.65970432584535
 11
92.747720325301543
 21
210.6597164295496
  0
LINE
  8
_e-2_
  6
CONTINUOUS
 62
    3
 10
106.74773187241522
 20
210.65966652191551
 11
101.54778894858873
 21
210.6596959462461
  0
LINE
  8
_e-2_
  6
CONTINUOUS
 62
    3
 10
100.5477905981902
 20
210.65969827387224
 11
98.947765524292436
 21
210.65970199813856
  0
LINE
  8
_e-2_
  6
CONTINUOUS
 62
    3
 10
106.74773466557463
 20
211.85966800655112
 11
106.74773187241522
 21
210.65966652191551
  0
LINE
  8
_e-2_
  6
CONTINUOUS
 62
    3
 10
92.747723118420708
 20
211.85970059339766
 11
92.747720325301543
 21
210.6597164295496
  0
LINE
  8
_e-2_
  6
CONTINUOUS
 62
    3
 10
97.947635853790189
 20
169.12452498157441
 11
97.947637923310822
 21
170.01363564985738
  0
LINE
  8
_e-2_
  6
CONTINUOUS
 62
    3
 10
98.947597649117142
 20
168.3024434336975
 11
98.947603497895898
 21
170.81520473014339
  0
LINE
  8
_e-2_
  6
CONTINUOUS
 62
    3
 10
99.695240404348169
 20
171.85968112284215
 11
100.54770028610255
 21
171.85967913863104
  0
LINE
  8
_e-2_
  6
CONTINUOUS
 62
    3
 10
100.16900184512997
 20
173.25971928055648
 11
103.74768440952084
 21
173.25971095070773
  0
LINE
  8
_e-2_
  6
CONTINUOUS
 62
    3
 10
103.74769278887834
 20
176.85966344225196
 11
99.301342691233913
 21
176.85967379170975
  0
LINE
  8
_e-2_
  6
CONTINUOUS
 62
    3
 10
97.947657117054405
 20
178.25968156146942
 11
97.947665496573109
 21
181.85970333616402
  0
LINE
  8
_e-2_
  6
CONTINUOUS
 62
    3
 10
97.947657117054405
 20
178.25968156146942
 11
97.620502081159884
 21
178.25968232296535
  0
LINE
  8
_e-2_
  6
CONTINUOUS
 62
    3
 10
93.450487828637506
 20
178.25969202921547
 11
92.347707924713177
 21
178.25969459607902
  0
LINE
  8
_e-2_
  6
CONTINUOUS
 62
    3
 10
91.769640701178105
 20
176.85969132272518
 11
90.279325495840339
 21
176.8596947916275
  0
LINE
  8
_e-2_
  6
CENTER1
 62
    3
 10
99.35176539592203
 20
170.23114683205446
 11
91.719204904873095
 21
177.86377749639487
  0
LINE
  8
_e-2_
  6
CONTINUOUS
 62
    3
 10
187.74767777949364
 20
215.05951229568018
 11
187.74767358977442
 21
213.25951872912049
  0
LINE
  8
_e-2_
  6
CONTINUOUS
 62
    3
 10
186.54769361564558
 20
215.05951508879934
 11
186.54768942592659
 21
213.25952152223965
  0
LINE
  8
_e-2_
  6
CONTINUOUS
 62
    3
 10
160.14769559519527
 20
215.05955921743868
 11
160.14769140551675
 21
213.25958297166659
  0
LINE
  8
_e-2_
  6
CONTINUOUS
 62
    3
 10
158.94767678977223
 20
215.05956201063839
 11
158.94767260009348
 21
213.25958576486624
  0
LINE
  8
_e-2_
  6
CONTINUOUS
 62
    3
 10
178.94774772250753
 20
215.05953277866126
 11
178.9477407396289
 21
212.05953772746579
  0
LINE
  8
_e-2_
  6
CONTINUOUS
 62
    3
 10
167.74778005463418
 20
215.05954152725417
 11
167.74777307175577
 21
212.0595464760587
  0
LINE
  8
_e-2_
  6
CONTINUOUS
 62
    3
 10
166.34774079418617
 20
215.05954478602757
 11
166.34773660450765
 21
213.25956854025537
  0
LINE
  8
_e-2_
  6
CONTINUOUS
 62
    3
 10
180.34778698295531
 20
215.05952951988786
 11
180.34778279323632
 21
213.25953595332817
  0
LINE
  8
_e-2_
  6
CONTINUOUS
 62
    3
 10
174.44777246650165
 20
215.05954325293851
 11
174.44776548362347
 21
212.05954820174316
  0
LINE
  8
_e-2_
  6
CONTINUOUS
 62
    3
 10
172.24775531063983
 20
215.05953105297692
 11
172.24774832780145
 21
212.05955332256906
  0
LINE
  8
_e-2_
  6
CONTINUOUS
 62
    3
 10
85.347805128557866
 20
215.05964671996838
 11
85.347800939000308
 21
213.259722436559
  0
LINE
  8
_e-2_
  6
CONTINUOUS
 62
    3
 10
86.547823933981135
 20
215.05964392676862
 11
86.54781974442335
 21
213.25971964335923
  0
LINE
  8
_e-2_
  6
CONTINUOUS
 62
    3
 10
112.94782195443145
 20
215.05959979812931
 11
112.94781776487366
 21
213.25967551471993
  0
LINE
  8
_e-2_
  6
CONTINUOUS
 62
    3
 10
114.14780611827928
 20
215.05959700501015
 11
114.14780192872172
 21
213.25967272160077
  0
LINE
  8
_e-2_
  6
CONTINUOUS
 62
    3
 10
94.147735185544207
 20
215.05962623698733
 11
94.147728202827011
 21
212.05970046894222
  0
LINE
  8
_e-2_
  6
CONTINUOUS
 62
    3
 10
105.34773749499254
 20
215.05961748831376
 11
105.3477305122351
 21
212.05967439948105
  0
LINE
  8
_e-2_
  6
CONTINUOUS
 62
    3
 10
106.74774211386557
 20
215.05961422962108
 11
106.74773792430756
 21
213.25968994621158
  0
LINE
  8
_e-2_
  6
CONTINUOUS
 62
    3
 10
92.747730566671407
 20
215.05962949568007
 11
92.747726377154095
 21
213.25972253305824
  0
LINE
  8
_e-2_
  6
CONTINUOUS
 62
    3
 10
98.647745083125074
 20
215.05961576262931
 11
98.647738100407651
 21
212.05968999458426
  0
LINE
  8
_e-2_
  6
CONTINUOUS
 62
    3
 10
100.84772759741168
 20
215.05962796267167
 11
100.84772061465446
 21
212.05968487383907
  0
ARC
  8
_e-2_
  6
CONTINUOUS
 62
    3
 10
136.54774145402575
 20
215.05957950782428
 40
60.000000618599564
 50
353.49249664150864
 51
356.94272247158682
  0
ARC
  8
_e-2_
  6
CONTINUOUS
 62
    3
 10
136.54774145402575
 20
215.05957950782428
 40
60.000000618599564
 50
348.65787139736801
 51
352.14499297939926
  0
ARC
  8
_e-2_
  6
CONTINUOUS
 62
    3
 10
136.54774145402575
 20
215.05957950782428
 40
60.000000618599564
 50
343.73973480068832
 51
347.29089752041489
  0
ARC
  8
_e-2_
  6
CONTINUOUS
 62
    3
 10
136.54774145402575
 20
215.05957950782428
 40
60.000000618599564
 50
338.6949044784227
 51
342.34207549893051
  0
ARC
  8
_e-2_
  6
CONTINUOUS
 62
    3
 10
136.54774145402575
 20
215.05957950782428
 40
60.000000618599564
 50
335.0485421737352
 51
337.25268951260239
  0
ARC
  8
_e-2_
  6
CONTINUOUS
 62
    3
 10
136.54774145402575
 20
215.05957950782428
 40
60.000000618599564
 50
328.57602325283676
 51
331.96567169033676
  0
ARC
  8
_e-2_
  6
CONTINUOUS
 62
    3
 10
136.54774145402575
 20
215.05957950782428
 40
60.000000618599564
 50
322.81277862393057
 51
326.40394988857895
  0
ARC
  8
_e-2_
  6
CONTINUOUS
 62
    3
 10
136.54774145402575
 20
215.05957950782428
 40
60.000000618599564
 50
308.73938384853989
 51
308.80455413662582
  0
ARC
  8
_e-2_
  6
CONTINUOUS
 62
    3
 10
136.54774145402575
 20
215.05957950782428
 40
60.000000618599564
 50
303.1385079940477
 51
306.55034271084457
  0
ARC
  8
_e-2_
  6
CONTINUOUS
 62
    3
 10
136.54774145402575
 20
215.05957950782428
 40
60.000000618599564
 50
300.30713287197739
 51
301.78038421475082
  0
ARC
  8
_e-2_
  6
CONTINUOUS
 62
    3
 10
136.54774145402575
 20
215.05957950782428
 40
60.000000618599564
 50
289.67378631436026
 51
295.46742645107901
  0
ARC
  8
_e-2_
  6
CONTINUOUS
 62
    3
 10
136.54774145402575
 20
215.05957950782428
 40
55.200003340437618
 50
278.75279632412582
 51
280.4372140487352
  0
ARC
  8
_e-2_
  6
CONTINUOUS
 62
    3
 10
136.54774145402575
 20
215.05957950782428
 40
55.200003340437618
 50
271.86858001553207
 51
277.70401397549301
  0
ARC
  8
_e-2_
  6
CONTINUOUS
 62
    3
 10
136.54774145402575
 20
215.05957950782428
 40
55.200003340437618
 50
269.16949859463364
 51
270.8302804549852
  0
ARC
  8
_e-2_
  6
CONTINUOUS
 62
    3
 10
136.54774145402575
 20
215.05957950782428
 40
55.200003340437618
 50
281.49449554287582
 51
285.4704171737352
  0
ARC
  8
_e-2_
  6
CONTINUOUS
 62
    3
 10
136.54774145402575
 20
215.05957950782428
 40
60.000000618599564
 50
310.04076019131332
 51
310.86801544033676
  0
ARC
  8
_e-2_
  6
CONTINUOUS
 62
    3
 10
136.54774145402575
 20
215.05957950782428
 40
60.000000618599564
 50
319.13174835049301
 51
320.45618072353989
  0
ARC
  8
_e-2_
  6
CONTINUOUS
 62
    3
 10
177.55984147675713
 20
174.04728856266132
 40
4.7000000412399707
 50
207.74121490322739
 51
223.44885650478992
  0
ARC
  8
_e-2_
  6
CONTINUOUS
 62
    3
 10
177.55984147675713
 20
174.04728856266132
 40
4.7000000412399707
 50
143.24876800381335
 51
189.64850250088367
  0
ARC
  8
_e-2_
  6
CONTINUOUS
 62
    3
 10
177.55984147675713
 20
174.04728856266132
 40
4.7000000412399707
 50
63.665012510649227
 51
116.33472076260236
  0
ARC
  8
_e-2_
  6
CONTINUOUS
 62
    3
 10
177.55984147675713
 20
174.04728856266132
 40
4.7000000412399707
 50
21.898945005766461
 51
36.750965269438339
  0
ARC
  8
_e-2_
  6
CONTINUOUS
 62
    3
 10
177.55984147675713
 20
174.04728856266132
 40
4.7000000412399707
 50
239.12103668057114
 51
248.1007882674852
  0
CIRCLE
  8
_e-2_
  6
CONTINUOUS
 62
    3
 10
177.55984147675713
 20
174.04728856266132
 40
3.3000000231974838
  0
ARC
  8
_e-2_
  6
CONTINUOUS
 62
    3
 10
136.54774145402575
 20
215.05957950782428
 40
60.000000618599564
 50
183.0570565780321
 51
186.50728240811023
  0
ARC
  8
_e-2_
  6
CONTINUOUS
 62
    3
 10
136.54774145402575
 20
215.05957950782428
 40
60.000000618599564
 50
187.85478607021957
 51
191.34190765225085
  0
ARC
  8
_e-2_
  6
CONTINUOUS
 62
    3
 10
136.54774145402575
 20
215.05957950782428
 40
60.000000618599564
 50
192.70888152920398
 51
196.26004424893054
  0
ARC
  8
_e-2_
  6
CONTINUOUS
 62
    3
 10
136.54774145402575
 20
215.05957950782428
 40
60.000000618599564
 50
197.65770355068832
 51
201.30487457119617
  0
ARC
  8
_e-2_
  6
CONTINUOUS
 62
    3
 10
136.54774145402575
 20
215.05957950782428
 40
60.000000618599564
 50
202.74708953701645
 51
204.95123687588364
  0
ARC
  8
_e-2_
  6
CONTINUOUS
 62
    3
 10
136.54774145402575
 20
215.05957950782428
 40
60.000000618599564
 50
208.03410735928207
 51
211.42375579678207
  0
ARC
  8
_e-2_
  6
CONTINUOUS
 62
    3
 10
136.54774145402575
 20
215.05957950782428
 40
60.000000618599564
 50
213.59582916103986
 51
217.1870004256883
  0
ARC
  8
_e-2_
  6
CONTINUOUS
 62
    3
 10
136.54774145402575
 20
215.05957950782428
 40
60.000000618599564
 50
231.19522491299304
 51
231.26039520107898
  0
ARC
  8
_e-2_
  6
CONTINUOUS
 62
    3
 10
136.54774145402575
 20
215.05957950782428
 40
60.000000618599564
 50
233.44943633877426
 51
236.86127105557114
  0
ARC
  8
_e-2_
  6
CONTINUOUS
 62
    3
 10
136.54774145402575
 20
215.05957950782428
 40
60.000000618599564
 50
238.21939483486807
 51
239.69264617764148
  0
ARC
  8
_e-2_
  6
CONTINUOUS
 62
    3
 10
136.54774145402575
 20
215.05957950782428
 40
60.000000618599564
 50
244.53235259853989
 51
250.32599273525864
  0
ARC
  8
_e-2_
  6
CONTINUOUS
 62
    3
 10
136.54774145402575
 20
215.05957950782428
 40
55.200003340437618
 50
259.56256500088364
 51
261.24698272549296
  0
ARC
  8
_e-2_
  6
CONTINUOUS
 62
    3
 10
136.54774145402575
 20
215.05957950782428
 40
55.200003340437618
 50
262.29576507412582
 51
268.13119903408676
  0
ARC
  8
_e-2_
  6
CONTINUOUS
 62
    3
 10
136.54774145402575
 20
215.05957950782428
 40
55.200003340437618
 50
254.52936187588364
 51
258.50528350674301
  0
ARC
  8
_e-2_
  6
CONTINUOUS
 62
    3
 10
136.54774145402575
 20
215.05957950782428
 40
60.000000618599564
 50
229.13176360928207
 51
229.95901885830554
  0
ARC
  8
_e-2_
  6
CONTINUOUS
 62
    3
 10
136.54774145402575
 20
215.05957950782428
 40
60.000000618599564
 50
219.54359832607898
 51
220.86803069912585
  0
ARC
  8
_e-2_
  6
CONTINUOUS
 62
    3
 10
95.535485150437808
 20
174.04747948501225
 40
4.7000000412399707
 50
316.55087676846176
 51
332.25851837002426
  0
ARC
  8
_e-2_
  6
CONTINUOUS
 62
    3
 10
95.535485150437808
 20
174.04747948501225
 40
4.7000000412399707
 50
350.35123077236801
 51
36.750965269438325
  0
ARC
  8
_e-2_
  6
CONTINUOUS
 62
    3
 10
95.535485150437808
 20
174.04747948501225
 40
4.7000000412399707
 50
63.665012510649227
 51
116.33472076260236
  0
ARC
  8
_e-2_
  6
CONTINUOUS
 62
    3
 10
95.535485150437808
 20
174.04747948501225
 40
4.7000000412399707
 50
143.24876800381327
 51
158.10078826748514
  0
ARC
  8
_e-2_
  6
CONTINUOUS
 62
    3
 10
95.535485150437808
 20
174.04747948501225
 40
4.7000000412399707
 50
291.89894500576645
 51
300.87869659268051
  0
CIRCLE
  8
_e-2_
  6
CONTINUOUS
 62
    3
 10
95.535485150437808
 20
174.04747948501225
 40
3.3000000231974838
  0
ARC
  8
_e-2_
  6
CONTINUOUS
 62
    3
 10
136.54774145402575
 20
215.05957950782428
 40
60.000000618599564
 50
358.28082671963369
 51
359.99992767178213
  0
ARC
  8
_e-2_
  6
CONTINUOUS
 62
    3
 10
136.54774145402575
 20
215.05957950782428
 40
60.000000618599564
 50
179.99992767178207
 51
181.7189523299852
  0
LINE
  8
_e-2_
  6
CONTINUOUS
 62
    3
 10
150.94775508007206
 20
213.25958593082521
 11
158.94767260009348
 21
213.25958576486624
  0
LINE
  8
_e-2_
  6
CONTINUOUS
 62
    3
 10
122.14775409065714
 20
213.25963564578856
 11
114.14780192872172
 21
213.25967272160077
  0
LINE
  8
_e-2_
  6
CONTINUOUS
 62
    3
 10
114.14770936935042
 20
203.25970653856493
 11
122.14773081316753
 21
203.25961863432482
  0
LINE
  8
_e-2_
  6
CONTINUOUS
 62
    3
 10
114.14771774878818
 20
206.85969367168437
 11
122.14773919276649
 21
206.85967505059457
  0
LINE
  8
_e-2_
  6
CONTINUOUS
 62
    3
 10
122.14773919276649
 20
206.85967505059457
 11
122.14773081316753
 21
203.25961863432482
  0
LINE
  8
_e-2_
  6
CONTINUOUS
 62
    3
 10
158.94772698646079
 20
206.85960671462732
 11
150.94774018248222
 21
206.85962533563639
  0
LINE
  8
_e-2_
  6
CONTINUOUS
 62
    3
 10
158.94771860698233
 20
203.25960226072027
 11
150.94773180284301
 21
203.25955159857898
  0
LINE
  8
_e-2_
  6
CONTINUOUS
 62
    3
 10
150.94774018248222
 20
206.85962533563639
 11
150.94773180284301
 21
203.25955159857898
  0
LINE
  8
_e-2_
  6
CONTINUOUS
 62
    3
 10
140.5477157689561
 20
206.85952829753197
 11
140.54770738959905
 21
203.25957580598768
  0
LINE
  8
_e-2_
  6
CONTINUOUS
 62
    3
 10
141.74773457437959
 20
206.8595255043322
 11
141.74772619502232
 21
203.25957301278791
  0
LINE
  8
_e-2_
  6
CONTINUOUS
 62
    3
 10
149.74772137756736
 20
206.85950688332309
 11
149.74771299820986
 21
203.25955439177875
  0
LINE
  8
_e-2_
  6
CONTINUOUS
 62
    3
 10
149.74771299820986
 20
203.25955439177875
 11
141.74772619502232
 21
203.25957301278791
  0
LINE
  8
_e-2_
  6
CONTINUOUS
 62
    3
 10
141.74773457437959
 20
206.8595255043322
 11
149.74772137756736
 21
206.85950688332309
  0
LINE
  8
_e-2_
  6
CONTINUOUS
 62
    3
 10
132.54775522798627
 20
203.25959442691615
 11
140.54770738959905
 21
203.25957580598768
  0
LINE
  8
_e-2_
  6
CONTINUOUS
 62
    3
 10
132.54776360734377
 20
206.85954691846044
 11
140.5477157689561
 21
206.85952829753197
  0
LINE
  8
_e-2_
  6
CONTINUOUS
 62
    3
 10
132.54776360734377
 20
206.85954691846044
 11
132.54775522798627
 21
203.25959442691615
  0
LINE
  8
_e-2_
  6
CONTINUOUS
 62
    3
 10
131.34774480192027
 20
206.85954971166021
 11
131.347736422563
 21
203.25959722011592
  0
LINE
  8
_e-2_
  6
CONTINUOUS
 62
    3
 10
123.34775799873273
 20
206.85956833266934
 11
123.34774961937524
 21
203.25961584112511
  0
LINE
  8
_e-2_
  6
CONTINUOUS
 62
    3
 10
123.34774961937524
 20
203.25961584112511
 11
131.347736422563
 21
203.25959722011592
  0
LINE
  8
_e-2_
  6
CONTINUOUS
 62
    3
 10
131.34774480192027
 20
206.85954971166021
 11
123.34775799873273
 21
206.85956833266934
  0
LINE
  8
_e-2_
  6
CONTINUOUS
 62
    3
 10
143.94769707105752
 20
198.25954149847522
 11
143.94770545057622
 21
201.85956327316981
  0
LINE
  8
_e-2_
  6
CONTINUOUS
 62
    3
 10
138.34771323714108
 20
198.25955453316536
 11
143.94769707105752
 21
198.25954149847522
  0
LINE
  8
_e-2_
  6
CONTINUOUS
 62
    3
 10
138.34772161665978
 20
201.85957630786007
 11
143.94770545057622
 21
201.85956327316981
  0
LINE
  8
_e-2_
  6
CONTINUOUS
 62
    3
 10
144.94769542145605
 20
198.25953917084908
 11
144.94770380097452
 21
201.85956094554365
  0
LINE
  8
_e-2_
  6
CONTINUOUS
 62
    3
 10
146.5477551369288
 20
198.25953544650199
 11
146.5477635164475
 21
201.85955722119667
  0
LINE
  8
_e-2_
  6
CONTINUOUS
 62
    3
 10
146.5477551369288
 20
198.25953544650199
 11
144.94769542145605
 21
198.25953917084908
  0
LINE
  8
_e-2_
  6
CONTINUOUS
 62
    3
 10
146.5477635164475
 20
201.85955722119667
 11
144.94770380097452
 21
201.85956094554365
  0
LINE
  8
_e-2_
  6
CONTINUOUS
 62
    3
 10
138.34771323714108
 20
198.25955453316536
 11
138.34772161665978
 21
201.85957630786007
  0
LINE
  8
_e-2_
  6
CONTINUOUS
 62
    3
 10
137.34771488674255
 20
198.25955686079149
 11
137.34772326626126
 21
201.8595786354862
  0
LINE
  8
_e-2_
  6
CONTINUOUS
 62
    3
 10
153.14777196281898
 20
198.25952008410502
 11
153.14778034233746
 21
201.85954185879962
  0
LINE
  8
_e-2_
  6
CONTINUOUS
 62
    3
 10
147.54775348732733
 20
198.25953311887585
 11
153.14777196281898
 21
198.25952008410502
  0
LINE
  8
_e-2_
  6
CONTINUOUS
 62
    3
 10
147.5477618668458
 20
201.85955489357053
 11
153.14778034233746
 21
201.85954185879962
  0
LINE
  8
_e-2_
  6
CONTINUOUS
 62
    3
 10
147.54775348732733
 20
198.25953311887585
 11
147.5477618668458
 21
201.85955489357053
  0
LINE
  8
_e-2_
  6
CONTINUOUS
 62
    3
 10
135.74772445441999
 20
198.25956058497721
 11
137.34771488674255
 21
198.25955686079149
  0
LINE
  8
_e-2_
  6
CONTINUOUS
 62
    3
 10
135.7477328339387
 20
201.85958235967192
 11
137.34772326626126
 21
201.8595786354862
  0
LINE
  8
_e-2_
  6
CONTINUOUS
 62
    3
 10
129.14774227010525
 20
198.2595759472936
 11
129.14775064962373
 21
201.85959772198831
  0
LINE
  8
_e-2_
  6
CONTINUOUS
 62
    3
 10
134.74772610402169
 20
198.25956291260346
 11
129.14774227010525
 21
198.2595759472936
  0
LINE
  8
_e-2_
  6
CONTINUOUS
 62
    3
 10
134.7477344835404
 20
201.85958468729805
 11
129.14775064962373
 21
201.85959772198831
  0
LINE
  8
_e-2_
  6
CONTINUOUS
 62
    3
 10
128.1477439197065
 20
198.25957827491973
 11
128.14775229922543
 21
201.85960004961444
  0
LINE
  8
_e-2_
  6
CONTINUOUS
 62
    3
 10
126.54768420423397
 20
198.25958199926671
 11
126.54769258375245
 21
201.85960377396137
  0
LINE
  8
_e-2_
  6
CONTINUOUS
 62
    3
 10
126.54768420423397
 20
198.25958199926671
 11
128.1477439197065
 21
198.25957827491973
  0
LINE
  8
_e-2_
  6
CONTINUOUS
 62
    3
 10
126.54769258375245
 20
201.85960377396137
 11
128.14775229922543
 21
201.85960004961444
  0
LINE
  8
_e-2_
  6
CONTINUOUS
 62
    3
 10
134.74772610402169
 20
198.25956291260346
 11
134.7477344835404
 21
201.85958468729805
  0
LINE
  8
_e-2_
  6
CONTINUOUS
 62
    3
 10
135.74772445441999
 20
198.25956058497721
 11
135.7477328339387
 21
201.85958235967192
  0
LINE
  8
_e-2_
  6
CONTINUOUS
 62
    3
 10
119.94766737834379
 20
198.25959736166377
 11
119.9476757578625
 21
201.85961913635848
  0
LINE
  8
_e-2_
  6
CONTINUOUS
 62
    3
 10
125.54768585383522
 20
198.25958432689285
 11
119.94766737834379
 21
198.25959736166377
  0
LINE
  8
_e-2_
  6
CONTINUOUS
 62
    3
 10
125.54769423335415
 20
201.8596061015875
 11
119.9476757578625
 21
201.85961913635848
  0
LINE
  8
_e-2_
  6
CONTINUOUS
 62
    3
 10
125.54768585383522
 20
198.25958432689285
 11
125.54769423335415
 21
201.8596061015875
  0
LINE
  8
_e-2_
  6
CONTINUOUS
 62
    3
 10
149.74773627467289
 20
213.25962449970143
 11
141.74774947148512
 21
213.25964312071054
  0
LINE
  8
_e-2_
  6
CONTINUOUS
 62
    3
 10
132.5477785044493
 20
213.25966453483889
 11
140.54773066606208
 21
213.25964591391036
  0
LINE
  8
_e-2_
  6
CONTINUOUS
 62
    3
 10
123.34777289583826
 20
213.25968594904779
 11
131.34775969902626
 21
213.25966732803855
  0
LINE
  8
_e-2_
  6
CONTINUOUS
 62
    3
 10
143.94772034752032
 20
208.25961160639778
 11
143.94772872703925
 21
211.85963338109238
  0
LINE
  8
_e-2_
  6
CONTINUOUS
 62
    3
 10
138.3477365136041
 20
208.25962464108804
 11
143.94772034752032
 21
208.25961160639778
  0
LINE
  8
_e-2_
  6
CONTINUOUS
 62
    3
 10
138.34774489312281
 20
211.85964641578275
 11
143.94772872703925
 21
211.85963338109238
  0
LINE
  8
_e-2_
  6
CONTINUOUS
 62
    3
 10
144.94771869791907
 20
208.25960927877162
 11
144.94772707743755
 21
211.85963105346622
  0
LINE
  8
_e-2_
  6
CONTINUOUS
 62
    3
 10
146.5477784133916
 20
208.25960555442464
 11
146.54778679291053
 21
211.85962732911923
  0
LINE
  8
_e-2_
  6
CONTINUOUS
 62
    3
 10
146.5477784133916
 20
208.25960555442464
 11
144.94771869791907
 21
208.25960927877162
  0
LINE
  8
_e-2_
  6
CONTINUOUS
 62
    3
 10
146.54778679291053
 20
211.85962732911923
 11
144.94772707743755
 21
211.85963105346622
  0
LINE
  8
_e-2_
  6
CONTINUOUS
 62
    3
 10
138.3477365136041
 20
208.25962464108804
 11
138.34774489312281
 21
211.85964641578275
  0
LINE
  8
_e-2_
  6
CONTINUOUS
 62
    3
 10
137.34773816320535
 20
208.25962696871417
 11
137.34774654272405
 21
211.85964874340888
  0
LINE
  8
_e-2_
  6
CONTINUOUS
 62
    3
 10
153.147795239282
 20
208.2595901920277
 11
153.14780361880025
 21
211.8596119667223
  0
LINE
  8
_e-2_
  6
CONTINUOUS
 62
    3
 10
147.54777676379035
 20
208.2596032267985
 11
153.147795239282
 21
208.2595901920277
  0
LINE
  8
_e-2_
  6
CONTINUOUS
 62
    3
 10
147.54778514330883
 20
211.8596250014931
 11
153.14780361880025
 21
211.8596119667223
  0
LINE
  8
_e-2_
  6
CONTINUOUS
 62
    3
 10
147.54777676379035
 20
208.2596032267985
 11
147.54778514330883
 21
211.8596250014931
  0
LINE
  8
_e-2_
  6
CONTINUOUS
 62
    3
 10
135.74774773088325
 20
208.25963069289989
 11
137.34773816320535
 21
208.25962696871417
  0
LINE
  8
_e-2_
  6
CONTINUOUS
 62
    3
 10
135.7477561104015
 20
211.85965246759449
 11
137.34774654272405
 21
211.85964874340888
  0
LINE
  8
_e-2_
  6
CONTINUOUS
 62
    3
 10
129.14776554656805
 20
208.25964605521628
 11
129.14777392608698
 21
211.85966782991099
  0
LINE
  8
_e-2_
  6
CONTINUOUS
 62
    3
 10
134.74774938048449
 20
208.25963302052602
 11
129.14776554656805
 21
208.25964605521628
  0
LINE
  8
_e-2_
  6
CONTINUOUS
 62
    3
 10
134.7477577600032
 20
211.85965479522062
 11
129.14777392608698
 21
211.85966782991099
  0
LINE
  8
_e-2_
  6
CONTINUOUS
 62
    3
 10
128.14776719616953
 20
208.25964838284241
 11
128.14777557568823
 21
211.85967015753712
  0
LINE
  8
_e-2_
  6
CONTINUOUS
 62
    3
 10
126.54770748069677
 20
208.2596521071894
 11
126.5477158602157
 21
211.85967388188411
  0
LINE
  8
_e-2_
  6
CONTINUOUS
 62
    3
 10
126.54770748069677
 20
208.2596521071894
 11
128.14776719616953
 21
208.25964838284241
  0
LINE
  8
_e-2_
  6
CONTINUOUS
 62
    3
 10
126.5477158602157
 20
211.85967388188411
 11
128.14777557568823
 21
211.85967015753712
  0
LINE
  8
_e-2_
  6
CONTINUOUS
 62
    3
 10
134.74774938048449
 20
208.25963302052602
 11
134.7477577600032
 21
211.85965479522062
  0
LINE
  8
_e-2_
  6
CONTINUOUS
 62
    3
 10
135.74774773088325
 20
208.25963069289989
 11
135.7477561104015
 21
211.85965246759449
  0
LINE
  8
_e-2_
  6
CONTINUOUS
 62
    3
 10
119.94769065480659
 20
208.25966746958645
 11
119.9476990343253
 21
211.85968924428116
  0
LINE
  8
_e-2_
  6
CONTINUOUS
 62
    3
 10
125.54770913029824
 20
208.25965443481553
 11
119.94769065480659
 21
208.25966746958645
  0
LINE
  8
_e-2_
  6
CONTINUOUS
 62
    3
 10
125.54771750981695
 20
211.85967620951024
 11
119.9476990343253
 21
211.85968924428116
  0
LINE
  8
_e-2_
  6
CONTINUOUS
 62
    3
 10
125.54770913029824
 20
208.25965443481553
 11
125.54771750981695
 21
211.85967620951024
  0
LINE
  8
_e-2_
  6
CONTINUOUS
 62
    3
 10
123.34777708536012
 20
215.05959487015079
 11
123.34777289583826
 21
213.25968594904779
  0
LINE
  8
_e-2_
  6
CONTINUOUS
 62
    3
 10
131.34776388856972
 20
215.05958555964625
 11
131.34775969902626
 21
213.25966732803855
  0
LINE
  8
_e-2_
  6
CONTINUOUS
 62
    3
 10
132.5477826939964
 20
215.05958416304625
 11
132.5477785044493
 21
213.25966453483889
  0
LINE
  8
_e-2_
  6
CONTINUOUS
 62
    3
 10
140.54773485563055
 20
215.05957485258213
 11
140.54773066606208
 21
213.25964591391036
  0
LINE
  8
_e-2_
  6
CONTINUOUS
 62
    3
 10
141.747753661057
 20
215.05957345598225
 11
141.74774947148512
 21
213.25964312071054
  0
LINE
  8
_e-2_
  6
CONTINUOUS
 62
    3
 10
149.74774046426637
 20
215.05956414547768
 11
149.74773627467289
 21
213.25962449970143
  0
LINE
  8
_e-2_
  6
CONTINUOUS
 62
    3
 10
150.94775926975217
 20
215.0595627488778
 11
150.94775508007206
 21
213.25958593082521
  0
LINE
  8
_e-2_
  6
CONTINUOUS
 62
    3
 10
150.94775926890247
 20
215.0595627488778
 11
150.94775507930581
 21
213.25962170650166
  0
LINE
  8
_e-2_
  6
CONTINUOUS
 62
    3
 10
122.14775828029929
 20
215.05959626675067
 11
122.14775409065714
 21
213.25963564578856
  0
LINE
  8
_e-2_
  6
CONTINUOUS
 62
    3
 10
122.14775827914923
 20
215.05959626675067
 11
122.14775408963055
 21
213.2596887422475
  0
LINE
  8
_e-2_
  6
CONTINUOUS
 62
    3
 10
119.473240880817
 20
161.01129252103024
 11
118.12833616164494
 21
156.6122776614441
  0
LINE
  8
_e-2_
  6
CONTINUOUS
 62
    3
 10
153.6222375948164
 20
161.01129252103021
 11
154.96711262121016
 21
156.61227766144407
  0
ARC
  8
_e-2_
  6
CONTINUOUS
 62
    3
 10
136.54773181462224
 20
216.859474993053
 40
58.399987298089094
 50
253.00001525878903
 51
269.99984741210937
  0
ARC
  8
_e-2_
  6
CONTINUOUS
 62
    3
 10
136.54773181462224
 20
216.859474993053
 40
58.399987298089094
 50
269.99989318847656
 51
287
  0
ARC
  8
_e-2_
  6
CONTINUOUS
 62
    3
 10
136.54773181462224
 20
216.859474993053
 40
62.999992576805326
 50
253.00001525878903
 51
286.99998474121094
  0
LINE
  8
_e-3_
  6
CONTINUOUS
 62
    2
 10
179.6790247049571
 20
173.47936237426063
 11
179.11118230653119
 21
175.59856135197595
  0
LINE
  8
_e-3_
  6
CONTINUOUS
 62
    2
 10
179.11118230653119
 20
175.59856135197595
 11
176.99205384544439
 21
176.16637371223675
  0
LINE
  8
_e-3_
  6
CONTINUOUS
 62
    2
 10
176.99205384544439
 20
176.16637371223675
 11
175.44069849970856
 21
174.61505637800786
  0
LINE
  8
_e-3_
  6
CONTINUOUS
 62
    2
 10
175.44069849970856
 20
174.61505637800786
 11
176.00854089817199
 21
172.49589204186771
  0
LINE
  8
_e-3_
  6
CONTINUOUS
 62
    2
 10
176.00854089817199
 20
172.49589204186771
 11
178.12770400079626
 21
171.92804503999417
  0
LINE
  8
_e-3_
  6
CONTINUOUS
 62
    2
 10
178.12770400079626
 20
171.92804503999417
 11
179.6790247049571
 21
173.47936237426063
  0
CIRCLE
  8
_e-3_
  6
CONTINUOUS
 62
    2
 10
177.55986160233283
 20
174.04720937613422
 40
1.9000013583415261
  0
CIRCLE
  8
_e-3_
  6
CONTINUOUS
 62
    2
 10
177.5598616023517
 20
174.04722669692188
 40
1.6500000000000001
  0
CIRCLE
  8
_e-3_
  6
CONTINUOUS
 62
    4
 10
177.5598616023517
 20
174.04722669692188
 40
2.4000000000000004
  0
LINE
  8
_e-3_
  6
CONTINUOUS
 62
    2
 10
97.654651057850288
 20
173.47955329665191
 11
97.086808659424378
 21
175.59875227436723
  0
LINE
  8
_e-3_
  6
CONTINUOUS
 62
    2
 10
97.086808659424378
 20
175.59875227436723
 11
94.967680198337575
 21
176.16656463462792
  0
LINE
  8
_e-3_
  6
CONTINUOUS
 62
    2
 10
94.967680198337575
 20
176.16656463462792
 11
93.416324852601747
 21
174.61524730039915
  0
LINE
  8
_e-3_
  6
CONTINUOUS
 62
    2
 10
93.416324852601747
 20
174.61524730039915
 11
93.984167251065173
 21
172.49608296425905
  0
LINE
  8
_e-3_
  6
CONTINUOUS
 62
    2
 10
93.984167251065173
 20
172.49608296425905
 11
96.103330353689444
 21
171.9282359623854
  0
LINE
  8
_e-3_
  6
CONTINUOUS
 62
    2
 10
96.103330353689444
 20
171.9282359623854
 11
97.654651057850288
 21
173.47955329665191
  0
CIRCLE
  8
_e-3_
  6
CONTINUOUS
 62
    2
 10
95.535487955226017
 20
174.04740029852556
 40
1.9000013583415261
  0
CIRCLE
  8
_e-3_
  6
CONTINUOUS
 62
    2
 10
95.535487955244889
 20
174.04741761931317
 40
1.6500000000000001
  0
CIRCLE
  8
_e-3_
  6
CONTINUOUS
 62
    4
 10
95.535487955244889
 20
174.04741761931317
 40
2.4000000000000004
  0
LINE
  8
_e-3_
  6
CONTINUOUS
 62
    2
 10
97.654746518995353
 20
255.50388344511759
 11
97.086904120569443
 21
257.62308242283279
  0
LINE
  8
_e-3_
  6
CONTINUOUS
 62
    2
 10
97.086904120569443
 20
257.62308242283279
 11
94.967775659482641
 21
258.19089478309365
  0
LINE
  8
_e-3_
  6
CONTINUOUS
 62
    2
 10
94.967775659482641
 20
258.19089478309365
 11
93.416420313746812
 21
256.63957744886477
  0
LINE
  8
_e-3_
  6
CONTINUOUS
 62
    2
 10
93.416420313746812
 20
256.63957744886477
 11
93.984262712210239
 21
254.5204131127247
  0
LINE
  8
_e-3_
  6
CONTINUOUS
 62
    2
 10
93.984262712210239
 20
254.5204131127247
 11
96.103425814834509
 21
253.95256611085108
  0
LINE
  8
_e-3_
  6
CONTINUOUS
 62
    2
 10
96.103425814834509
 20
253.95256611085108
 11
97.654746518995353
 21
255.50388344511759
  0
CIRCLE
  8
_e-3_
  6
CONTINUOUS
 62
    2
 10
95.535583416371082
 20
256.07173044699118
 40
1.9000013583415261
  0
CIRCLE
  8
_e-3_
  6
CONTINUOUS
 62
    2
 10
95.535583416389954
 20
256.07174776777867
 40
1.6500000000000001
  0
CIRCLE
  8
_e-3_
  6
CONTINUOUS
 62
    4
 10
95.535583416389954
 20
256.07174776777867
 40
2.4000000000000004
  0
LINE
  8
_e-3_
  6
CONTINUOUS
 62
    2
 10
179.67912016632431
 20
255.50388344511759
 11
179.1112777678984
 21
257.62308242283274
  0
LINE
  8
_e-3_
  6
CONTINUOUS
 62
    2
 10
179.1112777678984
 20
257.62308242283274
 11
176.9921493068116
 21
258.19089478309365
  0
LINE
  8
_e-3_
  6
CONTINUOUS
 62
    2
 10
176.9921493068116
 20
258.19089478309365
 11
175.44079396107577
 21
256.63957744886466
  0
LINE
  8
_e-3_
  6
CONTINUOUS
 62
    2
 10
175.44079396107577
 20
256.63957744886466
 11
176.0086363595392
 21
254.52041311272467
  0
LINE
  8
_e-3_
  6
CONTINUOUS
 62
    2
 10
176.0086363595392
 20
254.52041311272467
 11
178.12779946216347
 21
253.95256611085102
  0
LINE
  8
_e-3_
  6
CONTINUOUS
 62
    2
 10
178.12779946216347
 20
253.95256611085102
 11
179.67912016632431
 21
255.50388344511759
  0
CIRCLE
  8
_e-3_
  6
CONTINUOUS
 62
    2
 10
177.55995706370004
 20
256.07173044699118
 40
1.9000013583415261
  0
CIRCLE
  8
_e-3_
  6
CONTINUOUS
 62
    2
 10
177.55995706371868
 20
256.07174776777867
 40
1.6500000000000001
  0
CIRCLE
  8
_e-3_
  6
CONTINUOUS
 62
    4
 10
177.55995706371868
 20
256.07174776777867
 40
2.4000000000000004
  0
TEXT
  8
_e-f_
 62
    7
 10
119.52020826088801
 20
156.84320480020804
 40
3.4999999999999818
 41
1.0000000000000051
 50
-14.16663110753535
  1
Ｋ
  0
TEXT
  8
_e-f_
 62
    7
 10
125.55080083804432
 20
155.41996818229413
 40
3.5000000000000511
 41
0.9999999999999852
 50
-8.5000594315061555
  1
Ａ
  0
TEXT
  8
_e-f_
 62
    7
 10
131.69245868870689
 20
154.59914136811864
 40
3.4999999999999476
 41
1.0000000000000169
 50
-2.8332371729173014
  1
Ｎ
  0
TEXT
  8
_e-f_
 62
    7
 10
137.88517460146863
 20
154.38879006980918
 40
3.4999999999999623
 41
1.0000000000000107
 50
2.8332371729159562
  1
Ｅ
  0
TEXT
  8
_e-f_
 62
    7
 10
144.06841343350425
 20
154.79088572165944
 40
3.4999999999999702
 41
1.0000000000000071
 50
8.5000594315075109
  1
Ｓ
  0
TEXT
  8
_e-f_
 62
    7
 10
150.18170616534439
 20
155.80160003675232
 40
3.4999999999999707
 41
1.0000000000000093
 50
14.166631107531447
  1
Ｏ
  0
TEXT
  8
_e-2_
 62
    4
 10
150.77487291498642
 20
274.15651055454396
 40
3.4999999999998899
 41
1.0000000000000344
 50
168.00018156363046
  1
Ｗ
  0
TEXT
  8
_e-2_
 62
    4
 10
146.64128334602242
 20
274.99170422912204
 40
3.5000000000000444
 41
0.9999999999999821
 50
172.0001804458484
  1
Ａ
  0
TEXT
  8
_e-2_
 62
    4
 10
129.82915482135445
 20
275.40922207241806
 40
3.5000000000000768
 41
0.9999999999999765
 50
-172.00018044584496
  1
６
  0
TEXT
  8
_e-2_
 62
    4
 10
125.65911919720088
 20
274.7802887117133
 40
3.5000000000000857
 41
0.9999999999999785
 50
-168.0001815636335
  1
０
  0
TEXT
  8
_e-2_
 62
    4
 10
154.84017945608684
 20
273.035031853296
 40
3.5000000000001097
 41
0.9999999999999619
 50
163.99992108662343
  1
Ｍ
  0
TEXT
  8
_e-2_
 62
    4
 10
142.45947078735844
 20
275.53653068737952
 40
3.4999999999999885
 41
1.000000000000004
 50
176.00046302506419
  1
－
  0
TEXT
  8
_e-2_
 62
    4
 10
138.24983842169513
 20
275.78829285462052
 40
3.4999999999999432
 41
1.000000000000016
 50
180
  1
２
  0
TEXT
  8
_e-2_
 62
    4
 10
134.03286196214799
 20
275.74577593562339
 40
3.5000000000000275
 41
0.9999999999999934
 50
-175.99989731563218
  1
－
  0
TEXT
  8
_e-2_
 62
    4
 10
121.54323001720786
 20
273.86195005657839
 40
3.5000000000001465
 41
0.999999999999961
 50
-163.99992108662119
  1
０
  0
ARC
  8
_e-1_
  6
CONTINUOUS
 62
    2
 10
136.54776122125804
 20
215.05959682859893
 40
68.999995628563155
 50
139.36724853515625
 51
179.99992370605469
  0
ARC
  8
_e-1_
  6
CONTINUOUS
 62
    2
 10
136.54776122125804
 20
215.05959682859898
 40
68.999995628563155
 50
180.00007629394531
 51
220.63275146484375
  0
ARC
  8
_e-1_
  6
CONTINUOUS
 62
    2
 10
136.54776122125804
 20
215.05959682859893
 40
68.999995628563155
 50
359.99992370605469
 51
40.632751464843736
  0
ARC
  8
_e-1_
  6
CONTINUOUS
 62
    2
 10
136.54776122125804
 20
215.0595968285788
 40
68.999995628563155
 50
319.36711517178213
 51
359.99994293057119
  0
LINE
  8
_e-5_
  6
CONTINUOUS
 62
    4
 10
216.69055547165681
 20
215.05958482830994
 11
216.69055547165681
 21
208.05958482830994
  0
LINE
  8
_e-5_
  6
CONTINUOUS
 62
    4
 10
216.69055547165681
 20
215.05958482830994
 11
215.89055547165708
 21
212.05958482830994
  0
LINE
  8
_e-5_
  6
CONTINUOUS
 62
    4
 10
216.69055547165681
 20
215.05958482830994
 11
217.49055547165699
 21
212.05958482830994
  0
SOLID
  8
_e-5_
  6
CONTINUOUS
 62
    4
 10
214.19055547165681
 20
214.80958482830994
 11
219.19055547165681
 21
214.80958482830994
 12
214.19055547165681
 22
215.30958482830994
 13
219.19055547165681
 23
215.30958482830994
  0
TEXT
  8
_e-5_
 62
    2
 10
214.69055547165681
 20
203.05958482830994
 40
4
 41
1
 50
0
  1
Ａ
  0
LINE
  8
_e-2_
  6
CENTER1
 62
    3
 10
136.54774145402575
 20
141.36596950261662
 11
136.54774145402575
 21
288.75318951307224
  0
LINE
  8
_e-2_
  6
CENTER1
 62
    3
 10
56.338260769728095
 20
215.05957950784443
 11
216.75722213832341
 21
215.05957950784438
  0
LINE
  8
_e-4_
  6
CONTINUOUS
 62
    7
 10
86.743392825042065
 20
266.43193003664965
 11
84.612728102702704
 21
269.20866013588943
  0
LINE
  8
_e-4_
  6
CONTINUOUS
 62
    7
 10
86.743392825042065
 20
266.43193003664965
 11
85.404010962711027
 21
269.6655132292172
  0
LINE
  8
_e-4_
  6
CONTINUOUS
 62
    7
 10
86.743368330270187
 20
266.43198917279682
 11
79.323136854681934
 21
279.28419866121067
  0
TEXT
  8
_e-4_
 62
    2
 10
63.823136854681934
 20
279.9842182914366
 40
4.0000000000000036
 41
0.9999999999999997
 50
0
  1
4×φ15
  0
LINE
  8
_e-4_
  6
CONTINUOUS
 62
    7
 10
63.027992910689136
 20
279.28419866121067
 11
79.323136854681934
 21
279.28419866121067
  0
LINE
  8
_e-1_
  6
CONTINUOUS
 62
    2
 10
75.347752341377827
 20
83.583437066986704
 11
76.147764878328871
 21
83.583437066986704
  0
LINE
  8
_e-1_
  6
CONTINUOUS
 62
    2
 10
71.047762898810333
 20
89.683437396906427
 11
72.04776124921159
 21
89.683437396906427
  0
LINE
  8
_e-1_
  6
CONTINUOUS
 62
    2
 10
72.509741295664298
 20
80.443481391706953
 11
72.04776124921159
 21
89.683437396906427
  0
LINE
  8
_e-1_
  6
CONTINUOUS
 62
    2
 10
74.306946215427615
 20
79.683445232500873
 11
73.308749226935333
 21
79.683445232500873
  0
LINE
  8
_e-1_
  6
CONTINUOUS
 62
    2
 10
75.104568483692219
 20
80.422090219040072
 11
75.347752341377827
 21
83.583437066986704
  0
LINE
  8
_e-1_
  6
CONTINUOUS
 62
    2
 10
197.74773056667345
 20
83.583437066986676
 11
196.94771802972264
 21
83.583437066986676
  0
LINE
  8
_e-1_
  6
CONTINUOUS
 62
    2
 10
196.94771802972264
 20
83.583437066986676
 11
196.54774640282221
 21
78.683429561312053
  0
LINE
  8
_e-1_
  6
CONTINUOUS
 62
    2
 10
202.04772000924117
 20
89.683437396906399
 11
201.04775630041513
 21
89.683437396906399
  0
LINE
  8
_e-1_
  6
CONTINUOUS
 62
    2
 10
200.58574161238721
 20
80.44348139170684
 11
201.04775630041513
 21
89.683437396906399
  0
LINE
  8
_e-1_
  6
CONTINUOUS
 62
    2
 10
198.78857133419888
 20
79.683445232500731
 11
199.78673368111617
 21
79.683445232500731
  0
LINE
  8
_e-1_
  6
CONTINUOUS
 62
    2
 10
197.99091442435929
 20
80.422090219040044
 11
197.74773056667345
 21
83.583437066986676
  0
LINE
  8
_e-1_
  6
CONTINUOUS
 62
    2
 10
202.51808331688471
 20
80.652231523674757
 11
202.04772000924117
 21
89.683437396906399
  0
LINE
  8
_e-1_
  6
CONTINUOUS
 62
    2
 10
203.11731328415658
 20
80.083434180188718
 11
205.34776306377034
 21
80.083434180188718
  0
LINE
  8
_e-1_
  6
CONTINUOUS
 62
    2
 10
205.34776306377034
 20
80.083434180188718
 11
205.54771423564534
 21
78.683429561312053
  0
LINE
  8
_e-1_
  6
CONTINUOUS
 62
    2
 10
62.14775333113721
 20
81.683424612515708
 11
61.847757290174286
 21
78.683429561312124
  0
LINE
  8
_e-1_
  6
CONTINUOUS
 62
    2
 10
64.647766527927615
 20
81.683424612515708
 11
65.047738154828039
 21
78.683429561312124
  0
LINE
  8
_e-1_
  6
CONTINUOUS
 62
    2
 10
68.447739474507216
 20
81.683424612515708
 11
68.047698564456368
 21
78.683429561312124
  0
LINE
  8
_e-1_
  6
CONTINUOUS
 62
    2
 10
70.660712579448045
 20
82.252221956001748
 11
71.047762898810333
 21
89.683437396906427
  0
LINE
  8
_e-1_
  6
CONTINUOUS
 62
    2
 10
70.061551895326375
 20
81.683424612515708
 11
62.14775333113721
 21
81.683424612515708
  0
LINE
  8
_e-1_
  6
CENTER1
 62
    2
 10
66.547718359642204
 20
83.768397097207369
 11
66.547718359642204
 21
76.876802133102572
  0
LINE
  8
_e-1_
  6
CONTINUOUS
 62
    2
 10
79.547731556432836
 20
82.683440283704414
 11
79.547731556432836
 21
78.683429561312124
  0
LINE
  8
_e-1_
  6
CONTINUOUS
 62
    2
 10
77.547769497205536
 20
82.683440283704414
 11
77.547769497205536
 21
78.683429561312124
  0
LINE
  8
_e-1_
  6
CONTINUOUS
 62
    2
 10
77.34774904218034
 20
82.683440283704414
 11
77.34774904218034
 21
78.683429561312124
  0
LINE
  8
_e-1_
  6
CONTINUOUS
 62
    2
 10
79.747752011458033
 20
82.683440283704414
 11
79.747752011458033
 21
78.683429561312124
  0
LINE
  8
_e-1_
  6
CONTINUOUS
 62
    2
 10
76.161240451069716
 20
83.418352640519274
 11
76.147764878328871
 21
83.583437066986704
  0
LINE
  8
ADD_LINE
  6
DOT
 62
    2
 10
76.161240451069716
 20
83.418352640519274
 11
76.547771146804507
 21
78.683429561312124
  0
LINE
  8
_e-1_
  6
CONTINUOUS
 62
    2
 10
81.149592633818884
 20
82.683440283704414
 11
76.958585586732625
 21
82.683440283704414
  0
LINE
  8
_e-1_
  6
CONTINUOUS
 62
    2
 10
81.447891237598469
 20
82.415383775047331
 11
81.847724298198045
 21
78.683429561312124
  0
LINE
  8
_e-3_
  6
CONTINUOUS
 62
    4
 10
79.547627631707201
 20
80.483457769451917
 11
77.547630930904916
 21
80.483457769451917
  0
LINE
  8
_e-3_
  6
CONTINUOUS
 62
    4
 10
79.747648086732625
 20
80.683460903689621
 11
77.347610475879719
 21
80.683460903689621
  0
LINE
  8
_e-3_
  6
CONTINUOUS
 62
    4
 10
77.347610475879719
 20
80.683460903689621
 11
77.547630930904916
 21
80.483457769451917
  0
LINE
  8
_e-3_
  6
CONTINUOUS
 62
    4
 10
79.547627631707201
 20
80.483457769451917
 11
79.747648086732625
 21
80.683460903689621
  0
LINE
  8
_e-3_
  6
CONTINUOUS
 62
    4
 10
79.747648086732625
 20
80.683460903689621
 11
79.747648086732625
 21
85.083399951013305
  0
LINE
  8
_e-3_
  6
CONTINUOUS
 62
    4
 10
77.347610475879719
 20
80.683460903689621
 11
77.347645117454704
 21
85.083399951013305
  0
LINE
  8
_e-3_
  6
CONTINUOUS
 62
    4
 10
79.747648086732625
 20
82.683448944098231
 11
77.347645117454704
 21
82.683448944098231
  0
LINE
  8
_e-3_
  6
CONTINUOUS
 62
    4
 10
79.747648086732625
 20
84.283448036818825
 11
77.347645117454704
 21
84.283448036818825
  0
LINE
  8
_e-3_
  6
CONTINUOUS
 62
    4
 10
77.547665572480128
 20
82.683448944098231
 11
77.347645117454704
 21
82.883460738729724
  0
LINE
  8
_e-3_
  6
CONTINUOUS
 62
    4
 10
77.547630930904916
 20
80.483457769451917
 11
77.547665572480128
 21
82.683448944098231
  0
LINE
  8
_e-3_
  6
CONTINUOUS
 62
    4
 10
77.547665572480128
 20
84.283448036818825
 11
77.547665572480128
 21
85.083399951013305
  0
LINE
  8
_e-3_
  6
CONTINUOUS
 62
    4
 10
79.547835481158245
 20
82.683448944098231
 11
79.747855936183669
 21
82.883460738729724
  0
LINE
  8
_e-3_
  6
CONTINUOUS
 62
    4
 10
79.547835481158245
 20
84.283448036818825
 11
79.747855936183669
 21
84.083436242187332
  0
LINE
  8
_e-3_
  6
CONTINUOUS
 62
    4
 10
77.547665572480128
 20
84.283448036818825
 11
77.347645117454704
 21
84.083436242187332
  0
LINE
  8
_e-3_
  6
CONTINUOUS
 62
    4
 10
79.547627631707201
 20
80.483457769451917
 11
79.547662273282413
 21
82.683448944098231
  0
LINE
  8
_e-3_
  6
CONTINUOUS
 62
    4
 10
79.547662273282413
 20
84.283655886269869
 11
79.547662273282413
 21
85.083399951013305
  0
LINE
  8
_e-3_
  6
CENTER1
 62
    4
 10
78.54773320603158
 20
91.063947469356876
 11
78.54773320603158
 21
79.98796199902327
  0
LINE
  8
_e-6_
  6
CONTINUOUS
 62
    6
 10
199.6382945315172
 20
79.723716063634626
 11
200.59720797376804
 21
80.682664147460741
  0
LINE
  8
_e-6_
  6
CONTINUOUS
 62
    6
 10
199.25841501821492
 20
79.683289345412547
 11
200.57656159496742
 21
81.001453242952678
  0
LINE
  8
_e-6_
  6
CONTINUOUS
 62
    6
 10
198.95363843987889
 20
79.71791359979386
 11
200.48091620592595
 21
81.245191365841222
  0
LINE
  8
_e-6_
  6
CONTINUOUS
 62
    6
 10
198.69472730706639
 20
79.798437941274074
 11
200.33933608821076
 21
81.443012080843303
  0
LINE
  8
_e-6_
  6
CONTINUOUS
 62
    6
 10
198.47212054503075
 20
79.915249332743656
 11
200.16145159971825
 21
81.604563066643507
  0
LINE
  8
_e-6_
  6
CONTINUOUS
 62
    6
 10
198.28290826145803
 20
80.065437881888514
 11
199.95020727433825
 21
81.732754215556156
  0
LINE
  8
_e-6_
  6
CONTINUOUS
 62
    6
 10
198.1284068362047
 20
80.250371930927713
 11
199.70421744906366
 21
81.826165222999137
  0
LINE
  8
_e-6_
  6
CONTINUOUS
 62
    6
 10
198.01544065957887
 20
80.476841228594481
 11
199.41665773358659
 21
81.878058302602199
  0
LINE
  8
_e-6_
  6
CONTINUOUS
 62
    6
 10
197.96340901367512
 20
80.764193094620808
 11
199.06826741211262
 21
81.869034172270631
  0
LINE
  8
_e-6_
  6
CONTINUOUS
 62
    6
 10
198.06307282543617
 20
81.203292380674384
 11
198.56811234982388
 21
81.708314584274419
  0
LINE
  8
_e-6_
  6
CONTINUOUS
 62
    6
 10
74.532843927104295
 20
79.861416324931184
 11
75.029950530778251
 21
80.358540249392746
  0
LINE
  8
_e-6_
  6
CONTINUOUS
 62
    6
 10
74.030160029828039
 20
79.698167901947642
 11
75.132177819101798
 21
80.800168370433681
  0
LINE
  8
_e-6_
  6
CONTINUOUS
 62
    6
 10
73.681111518425951
 20
79.688572185625873
 11
75.080665796825542
 21
81.088126464025422
  0
LINE
  8
_e-6_
  6
CONTINUOUS
 62
    6
 10
73.393309311922621
 20
79.740101528689621
 11
74.968115319101798
 21
81.314924856656333
  0
LINE
  8
_e-6_
  6
CONTINUOUS
 62
    6
 10
73.147007712471577
 20
79.83323540353129
 11
74.81389102644971
 21
81.500136038296958
  0
LINE
  8
_e-6_
  6
CONTINUOUS
 62
    6
 10
72.935520896065327
 20
79.961166740630034
 11
74.624921233903251
 21
81.650567078468001
  0
LINE
  8
_e-6_
  6
CONTINUOUS
 62
    6
 10
72.757393916546789
 20
80.122457914616533
 11
74.402556962893868
 21
81.767620960963754
  0
LINE
  8
_e-6_
  6
CONTINUOUS
 62
    6
 10
72.615536666230128
 20
80.319966855442161
 11
74.143992245833033
 21
81.848422435045208
  0
LINE
  8
_e-6_
  6
CONTINUOUS
 62
    6
 10
72.51944093671159
 20
80.563289279428687
 11
73.839596724823878
 21
81.883479709116187
  0
LINE
  8
_e-6_
  6
CONTINUOUS
 62
    6
 10
72.497963160106792
 20
80.881246977116533
 11
73.460583250900754
 21
81.843867067910494
  0
ARC
  8
_e-1_
  6
CONTINUOUS
 62
    2
 10
73.308749226935333
 20
80.483423127876705
 40
0.8000000199756108
 50
182.86198425292969
 51
270
  0
ARC
  8
_e-1_
  6
CONTINUOUS
 62
    2
 10
74.306946215427615
 20
80.483423127876705
 40
0.8000000199756108
 50
270
 51
355.60157775878906
  0
ARC
  8
_e-1_
  6
CONTINUOUS
 62
    2
 10
199.78673368111617
 20
80.483423127876677
 40
0.8000000199756108
 50
270
 51
357.13801574707031
  0
ARC
  8
_e-1_
  6
CONTINUOUS
 62
    2
 10
198.78857133419888
 20
80.483423127876677
 40
0.8000000199756108
 50
184.39842224121094
 51
270
  0
ARC
  8
_e-1_
  6
CONTINUOUS
 62
    2
 10
203.11731328415658
 20
80.683443582902058
 40
0.5999999980668765
 50
182.98133850097656
 51
270
  0
ARC
  8
_e-1_
  6
CONTINUOUS
 62
    2
 10
70.061551895326375
 20
82.283434015228892
 40
0.5999999980668765
 50
270
 51
357.01850891113281
  0
ARC
  8
_e-1_
  6
CONTINUOUS
 62
    2
 10
76.958585586732625
 20
83.483435499867852
 40
0.8000000199756108
 50
184.66668701171875
 51
270
  0
ARC
  8
_e-1_
  6
CONTINUOUS
 62
    2
 10
81.149592633818884
 20
82.383444242741533
 40
0.2999999990334382
 50
6.114898681640625
 51
90
  0
LINE
  8
_e-6_
  6
CONTINUOUS
 62
    6
 10
197.96319128596258
 20
80.783419168839558
 11
197.96319128596258
 21
80.783419168839558
  0
LINE
  8
_e-6_
  6
CONTINUOUS
 62
    6
 10
197.96319128596258
 20
80.783419168839558
 11
197.98324177971389
 21
80.592353309940805
  0
LINE
  8
_e-6_
  6
CONTINUOUS
 62
    6
 10
197.98324177971389
 20
80.592353309940805
 11
198.04278403686129
 21
80.407092890480712
  0
LINE
  8
_e-6_
  6
CONTINUOUS
 62
    6
 10
198.04278403686129
 20
80.407092890480712
 11
198.14000889605117
 21
80.23326695455826
  0
LINE
  8
_e-6_
  6
CONTINUOUS
 62
    6
 10
198.14000889605117
 20
80.23326695455826
 11
198.2719622291352
 21
80.076157115276288
  0
LINE
  8
_e-6_
  6
CONTINUOUS
 62
    6
 10
198.2719622291352
 20
80.076157115276288
 11
198.43463470085922
 21
79.940537075599977
  0
LINE
  8
_e-6_
  6
CONTINUOUS
 62
    6
 10
198.43463470085922
 20
79.940537075599977
 11
198.62308359048615
 21
79.830527581807829
  0
LINE
  8
_e-6_
  6
CONTINUOUS
 62
    6
 10
198.62308359048615
 20
79.830527581807829
 11
198.83158297386439
 21
79.749471216701224
  0
LINE
  8
_e-6_
  6
CONTINUOUS
 62
    6
 10
198.83158297386439
 20
79.749471216701224
 11
199.05379770273581
 21
79.699830836917442
  0
LINE
  8
_e-6_
  6
CONTINUOUS
 62
    6
 10
199.05379770273581
 20
79.699830836917442
 11
199.28297589500971
 21
79.683114740276949
  0
LINE
  8
_e-6_
  6
CONTINUOUS
 62
    6
 10
199.28297589500971
 20
79.683114740276949
 11
199.51215408728362
 21
79.699830836917442
  0
LINE
  8
_e-6_
  6
CONTINUOUS
 62
    6
 10
199.51215408728362
 20
79.699830836917442
 11
199.73436881615504
 21
79.749471216701224
  0
LINE
  8
_e-6_
  6
CONTINUOUS
 62
    6
 10
199.73436881615504
 20
79.749471216701224
 11
199.94286819953328
 21
79.830527581807829
  0
LINE
  8
_e-6_
  6
CONTINUOUS
 62
    6
 10
199.94286819953328
 20
79.830527581807829
 11
200.13131708916021
 21
79.940537075599977
  0
LINE
  8
_e-6_
  6
CONTINUOUS
 62
    6
 10
200.13131708916021
 20
79.940537075599977
 11
200.29398956088423
 21
80.076157115276288
  0
LINE
  8
_e-6_
  6
CONTINUOUS
 62
    6
 10
200.29398956088423
 20
80.076157115276288
 11
200.42594289396826
 21
80.23326695455826
  0
LINE
  8
_e-6_
  6
CONTINUOUS
 62
    6
 10
200.42594289396826
 20
80.23326695455826
 11
200.52316775315813
 21
80.407092890480712
  0
LINE
  8
_e-6_
  6
CONTINUOUS
 62
    6
 10
200.52316775315813
 20
80.407092890480712
 11
200.58271001030553
 21
80.592353309940805
  0
LINE
  8
_e-6_
  6
CONTINUOUS
 62
    6
 10
200.58271001030553
 20
80.592353309940805
 11
200.60276050405685
 21
80.783419168839558
  0
LINE
  8
_e-6_
  6
CONTINUOUS
 62
    6
 10
200.60276050405685
 20
80.783419168839558
 11
200.58271001030553
 21
80.974485027738311
  0
LINE
  8
_e-6_
  6
CONTINUOUS
 62
    6
 10
200.58271001030553
 20
80.974485027738311
 11
200.52316775315813
 21
81.159745447198404
  0
LINE
  8
_e-6_
  6
CONTINUOUS
 62
    6
 10
200.52316775315813
 20
81.159745447198404
 11
200.42594289396826
 21
81.333571383120855
  0
LINE
  8
_e-6_
  6
CONTINUOUS
 62
    6
 10
200.42594289396826
 20
81.333571383120855
 11
200.29398956088423
 21
81.490681222402827
  0
LINE
  8
_e-6_
  6
CONTINUOUS
 62
    6
 10
200.29398956088423
 20
81.490681222402827
 11
200.13131708916021
 21
81.626301262079139
  0
LINE
  8
_e-6_
  6
CONTINUOUS
 62
    6
 10
200.13131708916021
 20
81.626301262079139
 11
199.94286819953328
 21
81.736310755871287
  0
LINE
  8
_e-6_
  6
CONTINUOUS
 62
    6
 10
199.94286819953328
 20
81.736310755871287
 11
199.73436881615504
 21
81.817367120977892
  0
LINE
  8
_e-6_
  6
CONTINUOUS
 62
    6
 10
199.73436881615504
 20
81.817367120977892
 11
199.51215408728362
 21
81.867007500761673
  0
LINE
  8
_e-6_
  6
CONTINUOUS
 62
    6
 10
199.51215408728362
 20
81.867007500761673
 11
199.28297589500971
 21
81.883723597402167
  0
LINE
  8
_e-6_
  6
CONTINUOUS
 62
    6
 10
199.28297589500971
 20
81.883723597402167
 11
199.05379770273581
 21
81.867007500761673
  0
LINE
  8
_e-6_
  6
CONTINUOUS
 62
    6
 10
199.05379770273581
 20
81.867007500761673
 11
198.83158297386441
 21
81.817367120977892
  0
LINE
  8
_e-6_
  6
CONTINUOUS
 62
    6
 10
198.83158297386441
 20
81.817367120977892
 11
198.62308359048615
 21
81.736310755871301
  0
LINE
  8
_e-6_
  6
CONTINUOUS
 62
    6
 10
198.62308359048615
 20
81.736310755871301
 11
198.43463470085922
 21
81.626301262079139
  0
LINE
  8
_e-6_
  6
CONTINUOUS
 62
    6
 10
198.43463470085922
 20
81.626301262079139
 11
198.2719622291352
 21
81.490681222402827
  0
LINE
  8
_e-6_
  6
CONTINUOUS
 62
    6
 10
198.2719622291352
 20
81.490681222402827
 11
198.14000889605117
 21
81.333571383120869
  0
LINE
  8
_e-6_
  6
CONTINUOUS
 62
    6
 10
198.14000889605117
 20
81.333571383120869
 11
198.04278403686129
 21
81.159745447198418
  0
LINE
  8
_e-6_
  6
CONTINUOUS
 62
    6
 10
198.04278403686129
 20
81.159745447198418
 11
197.98324177971389
 21
80.974485027738311
  0
LINE
  8
_e-6_
  6
CONTINUOUS
 62
    6
 10
197.98324177971389
 20
80.974485027738311
 11
197.96319128596258
 21
80.783419168839558
  0
LINE
  8
_e-6_
  6
CONTINUOUS
 62
    6
 10
197.96319128596258
 20
80.783419168839558
 11
197.96319128596258
 21
80.783419168839558
  0
LINE
  8
_e-6_
  6
CONTINUOUS
 62
    6
 10
75.132291622088943
 20
80.783419168839586
 11
75.132291622088943
 21
80.783419168839586
  0
LINE
  8
_e-6_
  6
CONTINUOUS
 62
    6
 10
75.132291622088943
 20
80.783419168839586
 11
75.112241128337601
 21
80.974485027738339
  0
LINE
  8
_e-6_
  6
CONTINUOUS
 62
    6
 10
75.112241128337601
 20
80.974485027738339
 11
75.052698871190216
 21
81.159745447198432
  0
LINE
  8
_e-6_
  6
CONTINUOUS
 62
    6
 10
75.052698871190216
 20
81.159745447198432
 11
74.955474012000337
 21
81.333571383120884
  0
LINE
  8
_e-6_
  6
CONTINUOUS
 62
    6
 10
74.955474012000337
 20
81.333571383120884
 11
74.82352067891631
 21
81.490681222402856
  0
LINE
  8
_e-6_
  6
CONTINUOUS
 62
    6
 10
74.82352067891631
 20
81.490681222402856
 11
74.660848207192288
 21
81.626301262079167
  0
LINE
  8
_e-6_
  6
CONTINUOUS
 62
    6
 10
74.660848207192288
 20
81.626301262079167
 11
74.472399317565362
 21
81.736310755871315
  0
LINE
  8
_e-6_
  6
CONTINUOUS
 62
    6
 10
74.472399317565362
 20
81.736310755871315
 11
74.263899934187108
 21
81.81736712097792
  0
LINE
  8
_e-6_
  6
CONTINUOUS
 62
    6
 10
74.263899934187108
 20
81.81736712097792
 11
74.041685205315687
 21
81.867007500761702
  0
LINE
  8
_e-6_
  6
CONTINUOUS
 62
    6
 10
74.041685205315687
 20
81.867007500761702
 11
73.812507013041795
 21
81.883723597402195
  0
LINE
  8
_e-6_
  6
CONTINUOUS
 62
    6
 10
73.812507013041795
 20
81.883723597402195
 11
73.583328820767903
 21
81.867007500761702
  0
LINE
  8
_e-6_
  6
CONTINUOUS
 62
    6
 10
73.583328820767903
 20
81.867007500761702
 11
73.361114091896482
 21
81.81736712097792
  0
LINE
  8
_e-6_
  6
CONTINUOUS
 62
    6
 10
73.361114091896482
 20
81.81736712097792
 11
73.152614708518229
 21
81.736310755871315
  0
LINE
  8
_e-6_
  6
CONTINUOUS
 62
    6
 10
73.152614708518229
 20
81.736310755871315
 11
72.964165818891303
 21
81.626301262079167
  0
LINE
  8
_e-6_
  6
CONTINUOUS
 62
    6
 10
72.964165818891303
 20
81.626301262079167
 11
72.80149334716728
 21
81.490681222402856
  0
LINE
  8
_e-6_
  6
CONTINUOUS
 62
    6
 10
72.80149334716728
 20
81.490681222402856
 11
72.669540014083253
 21
81.333571383120884
  0
LINE
  8
_e-6_
  6
CONTINUOUS
 62
    6
 10
72.669540014083253
 20
81.333571383120884
 11
72.572315154893374
 21
81.159745447198432
  0
LINE
  8
_e-6_
  6
CONTINUOUS
 62
    6
 10
72.572315154893374
 20
81.159745447198432
 11
72.51277289774599
 21
80.974485027738339
  0
LINE
  8
_e-6_
  6
CONTINUOUS
 62
    6
 10
72.51277289774599
 20
80.974485027738339
 11
72.492722403994648
 21
80.783419168839586
  0
LINE
  8
_e-6_
  6
CONTINUOUS
 62
    6
 10
72.492722403994648
 20
80.783419168839586
 11
72.51277289774599
 21
80.592353309940833
  0
LINE
  8
_e-6_
  6
CONTINUOUS
 62
    6
 10
72.51277289774599
 20
80.592353309940833
 11
72.572315154893374
 21
80.40709289048074
  0
LINE
  8
_e-6_
  6
CONTINUOUS
 62
    6
 10
72.572315154893374
 20
80.40709289048074
 11
72.669540014083253
 21
80.233266954558289
  0
LINE
  8
_e-6_
  6
CONTINUOUS
 62
    6
 10
72.669540014083253
 20
80.233266954558289
 11
72.80149334716728
 21
80.076157115276317
  0
LINE
  8
_e-6_
  6
CONTINUOUS
 62
    6
 10
72.80149334716728
 20
80.076157115276317
 11
72.964165818891303
 21
79.940537075600005
  0
LINE
  8
_e-6_
  6
CONTINUOUS
 62
    6
 10
72.964165818891303
 20
79.940537075600005
 11
73.152614708518215
 21
79.830527581807857
  0
LINE
  8
_e-6_
  6
CONTINUOUS
 62
    6
 10
73.152614708518215
 20
79.830527581807857
 11
73.361114091896482
 21
79.749471216701252
  0
LINE
  8
_e-6_
  6
CONTINUOUS
 62
    6
 10
73.361114091896482
 20
79.749471216701252
 11
73.583328820767889
 21
79.699830836917471
  0
LINE
  8
_e-6_
  6
CONTINUOUS
 62
    6
 10
73.583328820767889
 20
79.699830836917471
 11
73.812507013041795
 21
79.683114740276977
  0
LINE
  8
_e-6_
  6
CONTINUOUS
 62
    6
 10
73.812507013041795
 20
79.683114740276977
 11
74.041685205315687
 21
79.699830836917471
  0
LINE
  8
_e-6_
  6
CONTINUOUS
 62
    6
 10
74.041685205315687
 20
79.699830836917471
 11
74.263899934187108
 21
79.749471216701252
  0
LINE
  8
_e-6_
  6
CONTINUOUS
 62
    6
 10
74.263899934187108
 20
79.749471216701252
 11
74.472399317565362
 21
79.830527581807857
  0
LINE
  8
_e-6_
  6
CONTINUOUS
 62
    6
 10
74.472399317565362
 20
79.830527581807857
 11
74.660848207192288
 21
79.940537075600005
  0
LINE
  8
_e-6_
  6
CONTINUOUS
 62
    6
 10
74.660848207192288
 20
79.940537075600005
 11
74.82352067891631
 21
80.076157115276317
  0
LINE
  8
_e-6_
  6
CONTINUOUS
 62
    6
 10
74.82352067891631
 20
80.076157115276317
 11
74.955474012000337
 21
80.233266954558275
  0
LINE
  8
_e-6_
  6
CONTINUOUS
 62
    6
 10
74.955474012000337
 20
80.233266954558275
 11
75.052698871190202
 21
80.407092890480726
  0
LINE
  8
_e-6_
  6
CONTINUOUS
 62
    6
 10
75.052698871190202
 20
80.407092890480726
 11
75.112241128337601
 21
80.592353309940833
  0
LINE
  8
_e-6_
  6
CONTINUOUS
 62
    6
 10
75.112241128337601
 20
80.592353309940833
 11
75.132291622088943
 21
80.783419168839586
  0
LINE
  8
_e-6_
  6
CONTINUOUS
 62
    6
 10
75.132291622088943
 20
80.783419168839586
 11
75.132291622088943
 21
80.783419168839586
  0
LINE
  8
_e-3_
  6
CONTINUOUS
 62
    2
 10
80.197936678889846
 20
88.303413378747706
 11
80.197936678889846
 21
88.303413378747706
  0
LINE
  8
_e-3_
  6
CONTINUOUS
 62
    2
 10
80.197936678889846
 20
88.303413378747706
 11
80.17286946266691
 21
88.581222775648044
  0
LINE
  8
_e-3_
  6
CONTINUOUS
 62
    2
 10
80.17286946266691
 20
88.581222775648044
 11
80.098429468678432
 21
88.850591074601894
  0
LINE
  8
_e-3_
  6
CONTINUOUS
 62
    2
 10
80.098429468678432
 20
88.850591074601894
 11
79.976878518473285
 21
89.103333656152486
  0
LINE
  8
_e-3_
  6
CONTINUOUS
 62
    2
 10
79.976878518473285
 20
89.103333656152486
 11
79.811909876165714
 21
89.331771064853342
  0
LINE
  8
_e-3_
  6
CONTINUOUS
 62
    2
 10
79.811909876165714
 20
89.331771064853342
 11
79.60853603047407
 21
89.528962345635961
  0
LINE
  8
_e-3_
  6
CONTINUOUS
 62
    2
 10
79.60853603047407
 20
89.528962345635961
 11
79.372936392787551
 21
89.688915941217388
  0
LINE
  8
_e-3_
  6
CONTINUOUS
 62
    2
 10
79.372936392787551
 20
89.688915941217388
 11
79.11226953887811
 21
89.806771742536299
  0
LINE
  8
_e-3_
  6
CONTINUOUS
 62
    2
 10
79.11226953887811
 20
89.806771742536299
 11
78.834455699197974
 21
89.87894876070753
  0
LINE
  8
_e-3_
  6
CONTINUOUS
 62
    2
 10
78.834455699197974
 20
89.87894876070753
 11
78.547936106685256
 21
89.903253933557281
  0
LINE
  8
_e-3_
  6
CONTINUOUS
 62
    2
 10
78.547936106685256
 20
89.903253933557281
 11
78.261416514172538
 21
89.87894876070753
  0
LINE
  8
_e-3_
  6
CONTINUOUS
 62
    2
 10
78.261416514172538
 20
89.87894876070753
 11
77.983602674492403
 21
89.806771742536299
  0
LINE
  8
_e-3_
  6
CONTINUOUS
 62
    2
 10
77.983602674492403
 20
89.806771742536299
 11
77.722935820582961
 21
89.688915941217388
  0
LINE
  8
_e-3_
  6
CONTINUOUS
 62
    2
 10
77.722935820582961
 20
89.688915941217388
 11
77.487336182896442
 21
89.528962345635961
  0
LINE
  8
_e-3_
  6
CONTINUOUS
 62
    2
 10
77.487336182896442
 20
89.528962345635961
 11
77.283962337204798
 21
89.331771064853342
  0
LINE
  8
_e-3_
  6
CONTINUOUS
 62
    2
 10
77.283962337204798
 20
89.331771064853342
 11
77.118993694897227
 21
89.103333656152486
  0
LINE
  8
_e-3_
  6
CONTINUOUS
 62
    2
 10
77.118993694897227
 20
89.103333656152486
 11
76.99744274469208
 21
88.850591074601894
  0
LINE
  8
_e-3_
  6
CONTINUOUS
 62
    2
 10
76.99744274469208
 20
88.850591074601894
 11
76.923002750703603
 21
88.581222775648044
  0
LINE
  8
_e-3_
  6
CONTINUOUS
 62
    2
 10
76.923002750703603
 20
88.581222775648044
 11
76.897935534480666
 21
88.303413378747706
  0
LINE
  8
_e-3_
  6
CONTINUOUS
 62
    2
 10
76.897935534480666
 20
88.303413378747706
 11
76.897935534480666
 21
88.303413378747706
  0
LINE
  8
_e-3_
  6
CONTINUOUS
 62
    2
 10
76.357826528991836
 20
88.020540225061183
 11
76.357826528991836
 21
86.586225688012817
  0
ARC
  8
_e-3_
  6
CONTINUOUS
 62
    2
 10
76.852983198608399
 20
87.729016673120285
 40
0.5744945049285888
 50
30.499511718750004
 51
149.50048828125
  0
ARC
  8
_e-3_
  6
CONTINUOUS
 62
    2
 10
78.547936106685256
 20
85.616964327844386
 40
2.6865194320678718
 50
63.469589233398438
 51
116.53041076660156
  0
LINE
  8
_e-3_
  6
CONTINUOUS
 62
    2
 10
80.247936735595658
 20
88.303413378747706
 11
76.847965155090378
 21
88.303413378747706
  0
LINE
  8
_e-3_
  6
CONTINUOUS
 62
    2
 10
77.347991571868988
 20
88.020594775232055
 11
77.347991571868988
 21
86.586141573938136
  0
ARC
  8
_e-3_
  6
CONTINUOUS
 62
    2
 10
78.547812386774922
 20
88.989850985559229
 40
2.6865194320678718
 50
243.46958923339841
 51
296.53041076660151
  0
ARC
  8
_e-3_
  6
CONTINUOUS
 62
    2
 10
76.852829847778366
 20
86.877798831018239
 40
0.5744945049285888
 50
210.49951171875
 51
329.50048828125
  0
LINE
  8
_e-3_
  6
CONTINUOUS
 62
    2
 10
79.747910318817276
 20
88.020594775232055
 11
79.747910318817276
 21
86.586230647119308
  0
ARC
  8
_e-3_
  6
CONTINUOUS
 62
    2
 10
80.242918692077637
 20
87.729016673120285
 40
0.5744945049285888
 50
30.499511718750004
 51
149.50048828125
  0
LINE
  8
_e-3_
  6
CONTINUOUS
 62
    2
 10
80.737837896789642
 20
88.020540225061183
 11
80.737837896789642
 21
86.586225688012817
  0
ARC
  8
_e-3_
  6
CONTINUOUS
 62
    2
 10
80.242765341247605
 20
86.877798831018239
 40
0.5744945049285888
 50
210.49951171875
 51
329.50048828125
  0
LINE
  8
_e-3_
  6
CONTINUOUS
 62
    4
 10
76.14780951544185
 20
86.003400980981567
 11
76.14780951544185
 21
85.343399822267273
  0
ARC
  8
_e-3_
  6
CONTINUOUS
 62
    4
 10
76.447795591796876
 20
86.003400980981567
 40
0.3
 50
90
 51
180
  0
LINE
  8
_e-3_
  6
CONTINUOUS
 62
    4
 10
80.647839079345658
 20
86.303402030023364
 11
76.447795591796876
 21
86.303402030023364
  0
LINE
  8
_e-3_
  6
CONTINUOUS
 62
    4
 10
76.14780951544185
 20
85.343399822267273
 11
80.947825155700684
 21
85.343399822267273
  0
ARC
  8
_e-3_
  6
CONTINUOUS
 62
    4
 10
80.647839079345658
 20
86.003400980981567
 40
0.3
 50
0
 51
90
  0
LINE
  8
_e-3_
  6
CONTINUOUS
 62
    4
 10
80.947825155700684
 20
86.003400980981567
 11
80.947825155700684
 21
85.343399822267273
  0
LINE
  8
_e-6_
  6
CONTINUOUS
 62
    6
 10
76.437816343750001
 20
85.283400618585375
 11
76.647816000427156
 21
85.083399951013305
  0
LINE
  8
_e-6_
  6
CONTINUOUS
 62
    6
 10
76.437816343750001
 20
85.283400618585375
 11
80.657818327392533
 21
85.283400618585375
  0
LINE
  8
_e-6_
  6
CONTINUOUS
 62
    6
 10
80.657818327392533
 20
85.283400618585375
 11
80.447818670715378
 21
85.083399951013305
  0
LINE
  8
_e-6_
  6
CONTINUOUS
 62
    6
 10
80.657818327392533
 20
85.343399822267273
 11
80.657818327392533
 21
85.283400618585375
  0
LINE
  8
_e-6_
  6
CONTINUOUS
 62
    6
 10
76.437816343750001
 20
85.343399822267273
 11
76.437816343750001
 21
85.283400618585375
  0
LINE
  8
_e-2_
  6
CONTINUOUS
 62
    3
 10
200.14781147949543
 20
87.883398593067568
 11
200.34776265137043
 21
87.883398593067568
  0
LINE
  8
_e-2_
  6
CONTINUOUS
 62
    3
 10
200.14781147949543
 20
87.883398593067568
 11
199.74780521102002
 21
81.883408490660486
  0
LINE
  8
_e-2_
  6
CONTINUOUS
 62
    3
 10
166.14776364112981
 20
90.17798724910655
 11
166.34778409615524
 21
90.574841134241581
  0
LINE
  8
_e-2_
  6
CONTINUOUS
 62
    3
 10
180.34783028492211
 20
90.288537175864306
 11
180.54781609837232
 21
89.883473237414094
  0
LINE
  8
_e-2_
  6
CONTINUOUS
 62
    3
 10
200.34776265137043
 20
87.883398593067568
 11
200.54778310639585
 21
89.683383499238403
  0
LINE
  8
_e-2_
  6
CONTINUOUS
 62
    3
 10
196.54778970479128
 20
89.821256968410765
 11
196.34776924976586
 21
89.427598768584858
  0
LINE
  8
_e-2_
  6
CONTINUOUS
 62
    3
 10
170.97866986473628
 20
84.092432456032213
 11
175.51657764556398
 21
83.999644996942195
  0
LINE
  8
_e-2_
  6
CONTINUOUS
 62
    3
 10
170.74774912466023
 20
83.096946170796684
 11
175.70665596851586
 21
82.99553295948958
  0
LINE
  8
_e-2_
  6
CONTINUOUS
 62
    3
 10
167.74782335660711
 20
90.551111655250963
 11
167.97773949100315
 21
88.377015058043355
  0
LINE
  8
_e-2_
  6
CONTINUOUS
 62
    3
 10
178.94779102447023
 20
90.322087541415343
 11
178.71060015928856
 21
88.312096746176806
  0
CIRCLE
  8
_e-2_
  6
CONTINUOUS
 62
    3
 10
173.34780719053856
 20
88.944972343331543
 40
1.0999999175200592
  0
ARC
  8
_e-2_
  6
CONTINUOUS
 62
    3
 10
136.54778475599392
 20
-1709.1786506540568
 40
1799.6000382706927
 50
88.095733642578139
 51
88.598983764648452
  0
ARC
  8
_e-2_
  6
CONTINUOUS
 62
    3
 10
197.40752431733335
 20
87.190982788591143
 40
1.0000000418843451
 50
3.6465911865234406
 51
88.060089111328125
  0
ARC
  8
_e-2_
  6
CONTINUOUS
 62
    3
 10
173.34780719053856
 20
88.944972343331543
 40
5.4000001855798674
 50
293.67964172363281
 51
353.2691650390625
  0
ARC
  8
_e-2_
  6
CONTINUOUS
 62
    3
 10
173.34780719053856
 20
88.944972343331543
 40
5.4000001855798674
 50
186.03735351562497
 51
243.977294921875
  0
ARC
  8
_e-2_
  6
CONTINUOUS
 62
    3
 10
173.34780719053856
 20
88.944972343331543
 40
6.400000159804887
 50
188.79591369628906
 51
246.02973937988284
  0
ARC
  8
_e-2_
  6
CONTINUOUS
 62
    3
 10
165.83720191974044
 20
87.782825439958344
 40
1.1999999961337531
 50
8.7961730957031321
 51
89.065704345703125
  0
ARC
  8
_e-2_
  6
CONTINUOUS
 62
    3
 10
180.80457945352418
 20
87.47661123625285
 40
1.1999999961337531
 50
88.589187622070327
 51
168.85987854003909
  0
ARC
  8
_e-2_
  6
CONTINUOUS
 62
    3
 10
136.54778475599392
 20
-1709.1786506540568
 40
1799.6000382706927
 50
89.057556152343778
 51
90.000000000000014
  0
ARC
  8
_e-2_
  6
CONTINUOUS
 62
    3
 10
136.54778475599392
 20
-1709.1786506540568
 40
1800.0000791807433
 50
87.962387084960966
 51
90.000000000000014
  0
ARC
  8
_e-2_
  6
CONTINUOUS
 62
    3
 10
173.34780719053856
 20
88.944972343331543
 40
6.400000159804887
 50
291.62748718261719
 51
348.93047487817023
  0
ARC
  8
_e-2_
  6
CONTINUOUS
 62
    3
 10
136.54778475599392
 20
-1709.1786506540568
 40
1798.4000541068415
 50
89.066192626953139
 51
90.000000000000014
  0
ARC
  8
_e-2_
  6
CONTINUOUS
 62
    3
 10
136.54778475599392
 20
-1709.1786506540568
 40
1798.4000541068415
 50
88.059601738538959
 51
88.58892822265625
  0
LINE
  8
_e-2_
  6
CONTINUOUS
 62
    3
 10
198.40507397879151
 20
87.260945326377353
 11
198.74780686061877
 21
81.883408490660486
  0
LINE
  8
_e-2_
  6
CONTINUOUS
 62
    3
 10
72.947768266833691
 20
87.883398593067639
 11
72.747782453383479
 21
87.883398593067639
  0
LINE
  8
_e-2_
  6
CONTINUOUS
 62
    3
 10
72.947768266833691
 20
87.883398593067639
 11
73.347739893734115
 21
81.883408490660557
  0
LINE
  8
_e-2_
  6
CONTINUOUS
 62
    3
 10
72.747782453383479
 20
87.883398593067639
 11
72.547796639933267
 21
89.683383499238431
  0
LINE
  8
_e-2_
  6
CONTINUOUS
 62
    3
 10
83.247747811808267
 20
90.432481581084929
 11
83.647754080283903
 21
89.64376219763902
  0
LINE
  8
_e-2_
  6
CONTINUOUS
 62
    3
 10
75.2477610085989
 20
90.177744758080308
 11
75.2477610085989
 21
85.083398015708127
  0
LINE
  8
_e-2_
  6
CONTINUOUS
 62
    3
 10
74.452147951694315
 20
83.521556618035973
 11
74.347772885710356
 21
81.883408490660557
  0
ARC
  8
_e-2_
  6
CONTINUOUS
 62
    3
 10
83.615364207500988
 20
87.9421247233727
 40
0.5000000209421725
 50
91.687515258789063
 51
176.0507507324219
  0
ARC
  8
_e-2_
  6
CONTINUOUS
 62
    3
 10
75.050927578489109
 20
83.483390262593574
 40
0.5999999980668765
 50
90
 51
176.35317993164062
  0
ARC
  8
_e-2_
  6
CONTINUOUS
 62
    3
 10
82.381084884232223
 20
84.583390180113682
 40
0.5000000209421725
 50
270
 51
356.05075073242187
  0
ARC
  8
_e-2_
  6
CONTINUOUS
 62
    3
 10
136.54776034875863
 20
-1709.1786506540568
 40
1800.3999815244933
 50
91.696456909179702
 51
91.995766755567672
  0
LINE
  8
_e-2_
  6
CONTINUOUS
 62
    3
 10
73.847647117383985
 20
90.129213296460264
 11
73.77972764299534
 21
89.990901180123188
  0
ARC
  8
_e-2_
  6
CONTINUOUS
 62
    3
 10
136.54776034875863
 20
-1709.1786506540568
 40
1800.0000791807433
 50
92.012109168790445
 51
92.037612915039063
  0
ARC
  8
_e-2_
  6
CONTINUOUS
 62
    3
 10
73.330920538850023
 20
90.211292158315914
 40
0.5
 50
272.01210916879137
 51
333.84621632438007
  0
LINE
  8
_e-2_
  6
CONTINUOUS
 62
    3
 10
82.879923566664729
 20
84.548965114789581
 11
83.116559120346437
 21
87.976560614575035
  0
LINE
  8
_e-2_
  6
CONTINUOUS
 62
    3
 10
81.847743192931603
 20
90.390478671192639
 11
81.847743192931603
 21
85.083398015708127
  0
ARC
  8
_e-2_
  6
CONTINUOUS
 62
    3
 10
136.54776034875863
 20
-1709.1786506540568
 40
1800.0000791807433
 50
89.999999223093624
 51
91.690475463867202
  0
ARC
  8
_e-2_
  6
CONTINUOUS
 62
    3
 10
136.54776034875863
 20
-1709.1786506540568
 40
1799.6000382706927
 50
89.99999922292092
 51
91.684476336992574
  0
ARC
  8
_e-2_
  6
CONTINUOUS
 62
    3
 10
136.54776034875863
 20
-1709.1786506540568
 40
1798.4000541068415
 50
89.999999222402394
 51
91.687102268539022
  0
LINE
  8
_e-2_
  6
CONTINUOUS
 62
    3
 10
74.347772885710356
 20
81.883408490660557
 11
73.347739893734115
 21
81.883408490660557
  0
LINE
  8
_e-2_
  6
CONTINUOUS
 62
    3
 10
198.74780686061877
 20
81.883408490660486
 11
199.74780521102002
 21
81.883408490660486
  0
LINE
  8
_e-6_
  6
CONTINUOUS
 62
    6
 10
78.937927813680972
 20
85.083399951013305
 11
80.447818670715378
 21
85.083399951013305
  0
LINE
  8
_e-6_
  6
CONTINUOUS
 62
    6
 10
76.647816000427156
 20
85.083399951013305
 11
78.85464419383834
 21
85.083399951013305
  0
LINE
  8
_e-2_
  6
CONTINUOUS
 62
    3
 10
79.94775671964203
 20
84.083391004913054
 11
82.381084884232223
 21
84.083391004913054
  0
LINE
  8
_e-2_
  6
CONTINUOUS
 62
    3
 10
79.94775671964203
 20
85.083398015708127
 11
79.94775671964203
 21
84.083391004913054
  0
LINE
  8
_e-2_
  6
CONTINUOUS
 62
    3
 10
79.94775671964203
 20
85.083398015708127
 11
81.847743192931603
 21
85.083398015708127
  0
LINE
  8
_e-2_
  6
CONTINUOUS
 62
    3
 10
75.2477610085989
 20
85.083398015708127
 11
77.147782123463685
 21
85.083398015708127
  0
LINE
  8
_e-2_
  6
CONTINUOUS
 62
    3
 10
77.147782123463685
 20
85.083398015708127
 11
77.147782123463685
 21
84.083391004913054
  0
LINE
  8
_e-2_
  6
CONTINUOUS
 62
    3
 10
75.050927578489109
 20
84.083391004913054
 11
77.147782123463685
 21
84.083391004913054
  0
LINE
  8
ADD_LINE
  6
DOT
 62
    2
 10
69.978256227832844
 20
80.083434180188789
 11
67.74780644821908
 21
80.083434180188789
  0
LINE
  8
ADD_LINE
  6
DOT
 62
    2
 10
67.74780644821908
 20
80.083434180188789
 11
67.54785527634408
 21
78.683429561312124
  0
ARC
  8
ADD_LINE
  6
DOT
 62
    2
 10
69.978256227832844
 20
80.683443582902086
 40
0.5999999980668765
 50
270
 51
357.01866149902344
  0
LINE
  8
ADD_LINE
  6
DOT
 62
    2
 10
70.660712579448045
 20
82.252221956001748
 11
70.577378526472557
 21
80.652240583436225
  0
LINE
  8
_e-a_
  6
CONTINUOUS
 62
    1
 10
83.547767441098131
 20
76.402729420197701
 11
83.547767441098131
 21
82.402729420197971
  0
LINE
  8
_e-a_
  6
CONTINUOUS
 62
    1
 10
189.59471403554608
 20
76.402729420197574
 11
195.59471403554608
 21
82.402729420197673
  0
LINE
  8
_e-a_
  6
CONTINUOUS
 62
    1
 10
187.04912962327421
 20
76.402729420197758
 11
193.04912962327421
 21
82.402729420197858
  0
LINE
  8
_e-a_
  6
CONTINUOUS
 62
    1
 10
174.32120756191625
 20
76.402729420197758
 11
180.32120756191648
 21
82.402729420197758
  0
LINE
  8
_e-a_
  6
CONTINUOUS
 62
    1
 10
171.7756231496453
 20
76.402729420197687
 11
177.77562314964553
 21
82.402729420197758
  0
LINE
  8
_e-a_
  6
CONTINUOUS
 62
    1
 10
169.23003873737321
 20
76.402729420197588
 11
175.23003873737343
 21
82.402729420197758
  0
LINE
  8
_e-a_
  6
CONTINUOUS
 62
    1
 10
166.68445432510134
 20
76.402729420197772
 11
172.68445432510157
 21
82.402729420197872
  0
LINE
  8
_e-a_
  6
CONTINUOUS
 62
    1
 10
164.13886991283039
 20
76.402729420197502
 11
170.13886991283061
 21
82.402729420198042
  0
LINE
  8
_e-a_
  6
CONTINUOUS
 62
    1
 10
161.59328550055852
 20
76.402729420197772
 11
167.59328550055852
 21
82.402729420197772
  0
LINE
  8
_e-a_
  6
CONTINUOUS
 62
    1
 10
159.04770108828757
 20
76.402729420197772
 11
165.04770108828757
 21
82.402729420197772
  0
LINE
  8
_e-a_
  6
CONTINUOUS
 62
    1
 10
156.50211667601548
 20
76.402729420197588
 11
162.50211667601548
 21
82.402729420197687
  0
LINE
  8
_e-a_
  6
CONTINUOUS
 62
    1
 10
153.95653226374361
 20
76.402729420197772
 11
159.95653226374361
 21
82.402729420197772
  0
LINE
  8
_e-a_
  6
CONTINUOUS
 62
    1
 10
151.41094785147243
 20
76.402729420197588
 11
157.41094785147288
 21
82.402729420197957
  0
LINE
  8
_e-a_
  6
CONTINUOUS
 62
    1
 10
148.86536343920056
 20
76.402729420197687
 11
154.86536343920079
 21
82.402729420197772
  0
LINE
  8
_e-a_
  6
CONTINUOUS
 62
    1
 10
146.3197790269287
 20
76.402729420197772
 11
152.3197790269287
 21
82.402729420197872
  0
LINE
  8
_e-a_
  6
CONTINUOUS
 62
    1
 10
143.77419461465752
 20
76.402729420197588
 11
149.77419461465774
 21
82.402729420197588
  0
LINE
  8
_e-a_
  6
CONTINUOUS
 62
    1
 10
141.22861020238565
 20
76.402729420197687
 11
147.22861020238565
 21
82.402729420197772
  0
LINE
  8
_e-a_
  6
CONTINUOUS
 62
    1
 10
138.6830257901147
 20
76.402729420197687
 11
144.68302579011515
 21
82.402729420198042
  0
LINE
  8
_e-a_
  6
CONTINUOUS
 62
    1
 10
128.50068814102792
 20
76.402729420197772
 11
134.50068814102815
 21
82.402729420197872
  0
LINE
  8
_e-a_
  6
CONTINUOUS
 62
    1
 10
125.95510372875697
 20
76.402729420197588
 11
131.95510372875719
 21
82.402729420197957
  0
LINE
  8
_e-a_
  6
CONTINUOUS
 62
    1
 10
123.4095193164851
 20
76.402729420197872
 11
129.4095193164851
 21
82.402729420197872
  0
LINE
  8
_e-a_
  6
CONTINUOUS
 62
    1
 10
120.86393490421301
 20
76.402729420197772
 11
126.86393490421301
 21
82.402729420197872
  0
LINE
  8
_e-a_
  6
CONTINUOUS
 62
    1
 10
118.31835049194183
 20
76.402729420197502
 11
124.31835049194206
 21
82.402729420197588
  0
LINE
  8
_e-a_
  6
CONTINUOUS
 62
    1
 10
115.77276607967019
 20
76.402729420197772
 11
121.77276607967019
 21
82.402729420197872
  0
LINE
  8
_e-a_
  6
CONTINUOUS
 62
    1
 10
113.22718166739901
 20
76.402729420197687
 11
119.22718166739946
 21
82.402729420198042
  0
LINE
  8
_e-a_
  6
CONTINUOUS
 62
    1
 10
110.68159725512737
 20
76.402729420197872
 11
116.68159725512737
 21
82.402729420197957
  0
LINE
  8
_e-a_
  6
CONTINUOUS
 62
    1
 10
108.13601284285528
 20
76.402729420197772
 11
114.13601284285528
 21
82.402729420197872
  0
LINE
  8
_e-a_
  6
CONTINUOUS
 62
    1
 10
105.5904284305841
 20
76.402729420197502
 11
111.5904284305841
 21
82.402729420197588
  0
LINE
  8
_e-a_
  6
CONTINUOUS
 62
    1
 10
103.04484401831223
 20
76.402729420197687
 11
109.04484401831223
 21
82.402729420197772
  0
LINE
  8
_e-a_
  6
CONTINUOUS
 62
    1
 10
100.49925960604128
 20
76.402729420197687
 11
106.49925960604173
 21
82.402729420198042
  0
LINE
  8
_e-a_
  6
CONTINUOUS
 62
    1
 10
97.953675193769641
 20
76.402729420197872
 11
103.95367519376964
 21
82.402729420197957
  0
LINE
  8
_e-a_
  6
CONTINUOUS
 62
    1
 10
95.408090781497549
 20
76.402729420197886
 11
101.40809078149755
 21
82.402729420197957
  0
LINE
  8
_e-a_
  6
CONTINUOUS
 62
    1
 10
92.862506369226139
 20
76.402729420197517
 11
98.862506369226367
 21
82.402729420197588
  0
LINE
  8
_e-a_
  6
CONTINUOUS
 62
    1
 10
90.316921956954502
 20
76.402729420197701
 11
96.316921956954502
 21
82.402729420197772
  0
LINE
  8
_e-a_
  6
CONTINUOUS
 62
    1
 10
87.771337544683774
 20
76.402729420197971
 11
93.771337544683774
 21
82.402729420198057
  0
LINE
  8
_e-a_
  6
CONTINUOUS
 62
    1
 10
85.225753132411683
 20
76.402729420197886
 11
91.225753132411683
 21
82.402729420197971
  0
LINE
  8
_e-a_
  6
CONTINUOUS
 62
    1
 10
91.13760871325735
 20
76.402729420197701
 11
85.13760871325735
 21
82.402729420197787
  0
LINE
  8
_e-a_
  6
CONTINUOUS
 62
    1
 10
93.683193125529215
 20
76.402729420197886
 11
87.683193125529215
 21
82.402729420197886
  0
LINE
  8
_e-a_
  6
CONTINUOUS
 62
    1
 10
96.228777537800397
 20
76.402729420197602
 11
90.228777537800397
 21
82.402729420197602
  0
LINE
  8
_e-a_
  6
CONTINUOUS
 62
    1
 10
98.774361950072262
 20
76.402729420197772
 11
92.774361950072034
 21
82.402729420197886
  0
LINE
  8
_e-a_
  6
CONTINUOUS
 62
    1
 10
101.31994636234322
 20
76.402729420197687
 11
95.319946362342989
 21
82.402729420197886
  0
LINE
  8
_e-a_
  6
CONTINUOUS
 62
    1
 10
103.86553077461531
 20
76.402729420197588
 11
97.865530774615081
 21
82.402729420197772
  0
LINE
  8
_e-a_
  6
CONTINUOUS
 62
    1
 10
106.41111518688717
 20
76.402729420197772
 11
100.41111518688695
 21
82.402729420197872
  0
LINE
  8
_e-a_
  6
CONTINUOUS
 62
    1
 10
108.95669959915813
 20
76.402729420197588
 11
102.95669959915767
 21
82.402729420198042
  0
LINE
  8
_e-a_
  6
CONTINUOUS
 62
    1
 10
111.50228401142999
 20
76.402729420197772
 11
105.50228401142999
 21
82.402729420197872
  0
LINE
  8
_e-a_
  6
CONTINUOUS
 62
    1
 10
114.04786842370095
 20
76.402729420197772
 11
108.04786842370095
 21
82.402729420197872
  0
LINE
  8
_e-a_
  6
CONTINUOUS
 62
    1
 10
116.59345283597304
 20
76.402729420197588
 11
110.59345283597304
 21
82.402729420197687
  0
LINE
  8
_e-a_
  6
CONTINUOUS
 62
    1
 10
119.1390372482449
 20
76.402729420197772
 11
113.1390372482449
 21
82.402729420197872
  0
LINE
  8
_e-a_
  6
CONTINUOUS
 62
    1
 10
121.68462166051609
 20
76.402729420197588
 11
115.68462166051563
 21
82.402729420197957
  0
LINE
  8
_e-a_
  6
CONTINUOUS
 62
    1
 10
124.23020607278795
 20
76.402729420197687
 11
118.23020607278772
 21
82.402729420197872
  0
LINE
  8
_e-a_
  6
CONTINUOUS
 62
    1
 10
126.77579048505982
 20
76.402729420197772
 11
120.77579048505982
 21
82.402729420197872
  0
LINE
  8
_e-a_
  6
CONTINUOUS
 62
    1
 10
129.321374897331
 20
76.402729420197588
 11
123.32137489733077
 21
82.402729420197687
  0
LINE
  8
_e-a_
  6
CONTINUOUS
 62
    1
 10
131.86695930960286
 20
76.402729420197687
 11
125.86695930960263
 21
82.402729420197772
  0
LINE
  8
_e-a_
  6
CONTINUOUS
 62
    1
 10
134.41254372187382
 20
76.402729420197687
 11
128.41254372187336
 21
82.402729420198042
  0
LINE
  8
_e-a_
  6
CONTINUOUS
 62
    1
 10
144.59488137096059
 20
76.402729420197772
 11
138.59488137096037
 21
82.402729420197872
  0
LINE
  8
_e-a_
  6
CONTINUOUS
 62
    1
 10
147.14046578323155
 20
76.402729420197588
 11
141.14046578323132
 21
82.402729420197957
  0
LINE
  8
_e-a_
  6
CONTINUOUS
 62
    1
 10
149.68605019550341
 20
76.402729420197872
 11
143.68605019550319
 21
82.402729420197872
  0
LINE
  8
_e-a_
  6
CONTINUOUS
 62
    1
 10
152.2316346077755
 20
76.402729420197772
 11
146.23163460777528
 21
82.402729420197872
  0
LINE
  8
_e-a_
  6
CONTINUOUS
 62
    1
 10
154.77721902004646
 20
76.402729420197502
 11
148.77721902004646
 21
82.402729420197588
  0
LINE
  8
_e-a_
  6
CONTINUOUS
 62
    1
 10
157.32280343231832
 20
76.402729420197772
 11
151.32280343231832
 21
82.402729420197872
  0
LINE
  8
_e-a_
  6
CONTINUOUS
 62
    1
 10
159.86838784458951
 20
76.402729420197588
 11
153.86838784458905
 21
82.402729420198042
  0
LINE
  8
_e-a_
  6
CONTINUOUS
 62
    1
 10
162.41397225686114
 20
76.402729420197772
 11
156.41397225686114
 21
82.402729420197872
  0
LINE
  8
_e-a_
  6
CONTINUOUS
 62
    1
 10
164.95955666913324
 20
76.402729420197772
 11
158.95955666913324
 21
82.402729420197872
  0
LINE
  8
_e-a_
  6
CONTINUOUS
 62
    1
 10
167.50514108140442
 20
76.402729420197502
 11
161.50514108140442
 21
82.402729420197502
  0
LINE
  8
_e-a_
  6
CONTINUOUS
 62
    1
 10
170.05072549367628
 20
76.402729420197687
 11
164.05072549367628
 21
82.402729420197772
  0
LINE
  8
_e-a_
  6
CONTINUOUS
 62
    1
 10
172.59630990594724
 20
76.402729420197588
 11
166.59630990594678
 21
82.402729420198042
  0
LINE
  8
_e-a_
  6
CONTINUOUS
 62
    1
 10
175.14189431821887
 20
76.402729420197858
 11
169.14189431821887
 21
82.402729420197957
  0
LINE
  8
_e-a_
  6
CONTINUOUS
 62
    1
 10
177.68747873049097
 20
76.402729420197758
 11
171.68747873049097
 21
82.402729420197872
  0
LINE
  8
_e-a_
  6
CONTINUOUS
 62
    1
 10
180.23306314276238
 20
76.402729420197488
 11
174.23306314276215
 21
82.402729420197488
  0
LINE
  8
_e-a_
  6
CONTINUOUS
 62
    1
 10
192.96098520412011
 20
76.402729420197488
 11
186.96098520411965
 21
82.402729420197858
  0
LINE
  8
_e-a_
  6
CONTINUOUS
 62
    1
 10
195.50656961639197
 20
76.402729420197673
 11
189.50656961639197
 21
82.402729420197758
  0
LINE
  8
_e-a_
  6
CONTINUOUS
 62
    1
 10
142.04929695868873
 20
76.402729420197502
 11
137.1477825625434
 21
81.30424381634279
  0
LINE
  8
_e-a_
  6
CONTINUOUS
 62
    1
 10
137.1477825625434
 20
77.41307060489838
 11
142.13744137784306
 21
82.402729420197872
  0
LINE
  8
_e-a_
  6
CONTINUOUS
 62
    1
 10
137.1477825625434
 20
79.958655017170386
 11
139.59185696557097
 21
82.402729420197872
  0
LINE
  8
_e-a_
  6
CONTINUOUS
 62
    1
 10
139.50371254641777
 20
76.402729420197687
 11
137.1477825625434
 21
78.758659404071878
  0
LINE
  8
_e-a_
  6
CONTINUOUS
 62
    1
 10
88.592024300985486
 20
76.402729420197431
 11
83.547767441098131
 21
81.446986280084872
  0
LINE
  8
_e-a_
  6
CONTINUOUS
 62
    1
 10
86.046439888714303
 20
76.402729420197886
 11
83.547767441098131
 21
78.901401867813959
  0
LINE
  8
_e-9_
  6
CONTINUOUS
 62
    5
 10
96.547760348758402
 20
82.402729420197957
 11
96.547760348758402
 21
83.002729420197952
  0
LINE
  8
_e-9_
  6
CONTINUOUS
 62
    5
 10
176.54776034875817
 20
82.402729420197858
 11
176.54776034875817
 21
83.002729420197852
  0
LINE
  8
_e-9_
  6
CONTINUOUS
 62
    5
 10
96.547760348758402
 20
75.802729420197679
 11
176.54776034875817
 21
75.802729420197579
  0
LINE
  8
_e-9_
  6
CONTINUOUS
 62
    5
 10
96.547760348758402
 20
75.802729420197679
 11
96.547760348758402
 21
76.402729420197687
  0
LINE
  8
_e-9_
  6
CONTINUOUS
 62
    5
 10
176.54776034875817
 20
75.802729420197579
 11
176.54776034875817
 21
76.402729420197574
  0
LINE
  8
_e-9_
  6
CONTINUOUS
 62
    6
 10
134.8477841837896
 20
75.802729420197679
 11
134.8477841837896
 21
75.482730488312825
  0
LINE
  8
_e-9_
  6
CONTINUOUS
 62
    6
 10
134.8477841837896
 20
75.482730488312825
 11
138.24778532819892
 21
75.482730488312825
  0
LINE
  8
_e-9_
  6
CONTINUOUS
 62
    6
 10
138.24778532819892
 20
75.802729420197679
 11
138.24778532819892
 21
75.482730488312825
  0
LINE
  8
_e-9_
  6
CONTINUOUS
 62
    6
 10
134.8477841837896
 20
75.802729420197679
 11
138.24778532819892
 21
75.802729420197679
  0
LINE
  8
ADD_LINE
  6
DOT
 62
    6
 10
135.70778593855039
 20
75.802729420197679
 11
135.70778593855039
 21
75.482730488312825
  0
LINE
  8
ADD_LINE
  6
DOT
 62
    6
 10
137.38778357343813
 20
75.802729420197679
 11
137.38778357343813
 21
75.482730488312825
  0
LINE
  8
_e-0_
  6
CONTINUOUS
 62
    2
 10
135.32778475599412
 20
75.182730488312828
 11
137.76778475599417
 21
75.182730488312828
  0
LINE
  8
_e-0_
  6
CONTINUOUS
 62
    2
 10
137.76778475599417
 20
75.182730488312828
 11
137.76778475599417
 21
75.482730488312825
  0
LINE
  8
_e-0_
  6
CONTINUOUS
 62
    2
 10
137.76778475599417
 20
75.482730488312825
 11
135.32778475599412
 21
75.482730488312825
  0
LINE
  8
_e-0_
  6
CONTINUOUS
 62
    2
 10
135.32778475599412
 20
75.482730488312825
 11
135.32778475599412
 21
75.182730488312828
  0
LINE
  8
_e-0_
  6
CONTINUOUS
 62
    2
 10
135.59358744459291
 20
75.182730488312828
 11
135.3930811388982
 21
75.0669691605693
  0
LINE
  8
_e-0_
  6
CONTINUOUS
 62
    2
 10
135.3930811388982
 20
74.298497108948808
 11
135.3930811388982
 21
75.0669691605693
  0
LINE
  8
_e-0_
  6
CONTINUOUS
 62
    2
 10
135.69778456525933
 20
74.064843945038902
 11
135.69778456525933
 21
73.386923794282154
  0
LINE
  8
_e-0_
  6
CONTINUOUS
 62
    2
 10
135.64778179960376
 20
74.151441959870439
 11
135.3930811388982
 21
74.298497108948808
  0
LINE
  8
_e-0_
  6
CONTINUOUS
 62
    2
 10
137.70248589353696
 20
74.298497108948808
 11
137.70248589353696
 21
75.0669691605693
  0
LINE
  8
_e-0_
  6
CONTINUOUS
 62
    2
 10
137.39778494672919
 20
73.386923794282154
 11
137.39778494672919
 21
74.064843945038902
  0
LINE
  8
_e-0_
  6
CONTINUOUS
 62
    2
 10
135.59358744459291
 20
75.182730488312828
 11
137.5019820673956
 21
75.182730488312828
  0
LINE
  8
_e-0_
  6
CONTINUOUS
 62
    2
 10
137.5019820673956
 20
75.182730488312828
 11
137.70248589353696
 21
75.0669691605693
  0
LINE
  8
_e-0_
  6
CONTINUOUS
 62
    2
 10
135.59359736280567
 20
74.182730774415219
 11
137.50197462873598
 21
74.182730774415219
  0
LINE
  8
_e-0_
  6
CONTINUOUS
 62
    2
 10
137.44778523283139
 20
74.151441959870439
 11
137.70248589353696
 21
74.298497108948808
  0
LINE
  8
_e-0_
  6
CONTINUOUS
 62
    2
 10
137.12513594465395
 20
74.298497108948808
 11
137.12513594465395
 21
75.0669691605693
  0
LINE
  8
_e-0_
  6
CONTINUOUS
 62
    2
 10
135.97043108778144
 20
74.298497108948808
 11
135.97043108778144
 21
75.0669691605693
  0
ARC
  8
_e-0_
  6
CONTINUOUS
 62
    2
 10
136.54778599577094
 20
73.682728485596769
 40
0.9
 50
199.18815612792969
 51
340.81184387207031
  0
ARC
  8
_e-0_
  6
CONTINUOUS
 62
    2
 10
135.59359736280567
 20
74.853947309983354
 40
0.6712146282196045
 50
270
 51
304.15455627441406
  0
ARC
  8
_e-0_
  6
CONTINUOUS
 62
    2
 10
136.54778599577094
 20
73.685176090729826
 40
1.4975599288940431
 50
67.323486328125028
 51
112.67651367187503
  0
ARC
  8
_e-0_
  6
CONTINUOUS
 62
    2
 10
135.59359736280567
 20
74.51151895953484
 40
0.6712146282196045
 50
55.845443725585952
 51
90.000000000000014
  0
ARC
  8
_e-0_
  6
CONTINUOUS
 62
    2
 10
135.59778408842226
 20
74.064843945038902
 40
0.1
 50
0
 51
59.9989013671875
  0
ARC
  8
_e-0_
  6
CONTINUOUS
 62
    2
 10
137.50197462873598
 20
74.853947309983354
 40
0.6712146282196045
 50
235.84544372558597
 51
270
  0
ARC
  8
_e-0_
  6
CONTINUOUS
 62
    2
 10
137.50197462873598
 20
74.51151895953484
 40
0.6712146282196045
 50
90
 51
124.15455627441405
  0
ARC
  8
_e-0_
  6
CONTINUOUS
 62
    2
 10
137.49778790311939
 20
74.064843945038902
 40
0.1
 50
120.0010986328125
 51
180
  0
ARC
  8
_e-0_
  6
CONTINUOUS
 62
    2
 10
136.54778599577094
 20
75.68029013110457
 40
1.4975599288940431
 50
247.32348632812503
 51
292.676513671875
  0
LINE
  8
_e-0_
  6
CONTINUOUS
 62
    2
 10
137.1477825625434
 20
85.221403452785339
 11
137.1477825625434
 21
76.402729420197687
  0
LINE
  8
_e-0_
  6
CONTINUOUS
 62
    2
 10
135.94778694944534
 20
85.221403452785339
 11
135.94778694944534
 21
76.402729420197687
  0
LINE
  8
_e-0_
  6
CONTINUOUS
 62
    2
 10
136.12178563909674
 20
85.221403452785339
 11
136.12178563909674
 21
76.402729420197687
  0
LINE
  8
_e-0_
  6
CONTINUOUS
 62
    2
 10
136.973783872892
 20
85.221403452785339
 11
136.973783872892
 21
76.402729420197687
  0
LINE
  8
_e-9_
  6
CONTINUOUS
 62
    5
 10
135.94778694944534
 20
83.002729420197866
 11
96.547760348758402
 21
83.002729420197952
  0
LINE
  8
_e-a_
  6
CONTINUOUS
 62
    1
 10
135.94778694944534
 20
77.41307060489811
 11
130.95812813414545
 21
82.402729420197872
  0
LINE
  8
_e-a_
  6
CONTINUOUS
 62
    1
 10
131.04627255329979
 20
76.402729420197502
 11
135.94778694944534
 21
81.30424381634306
  0
LINE
  8
_e-a_
  6
CONTINUOUS
 62
    1
 10
133.59185696557074
 20
76.402729420197687
 11
135.94778694944534
 21
78.758659404072148
  0
LINE
  8
_e-a_
  6
CONTINUOUS
 62
    1
 10
135.94778694944534
 20
79.958655017170116
 11
133.50371254641755
 21
82.402729420197872
  0
LINE
  8
_e-a_
  6
CONTINUOUS
 62
    1
 10
83.547767441098131
 20
82.402729420197971
 11
135.94778694944534
 21
82.402729420197957
  0
LINE
  8
_e-9_
  6
CONTINUOUS
 62
    5
 10
176.54776034875817
 20
83.002729420197852
 11
137.1477825625434
 21
83.002729420197866
  0
LINE
  8
_e-c_
  6
CONTINUOUS
 62
  136
 10
138.14778971068199
 20
89.221403452784799
 11
134.94778971068217
 21
89.221403452784799
  0
LINE
  8
_e-c_
  6
CONTINUOUS
 62
  136
 10
134.94778971068217
 20
89.221403452784799
 11
135.34778971068226
 21
86.221403452784799
  0
LINE
  8
_e-c_
  6
CONTINUOUS
 62
  136
 10
138.14778971068199
 20
89.221403452784799
 11
137.74778971068235
 21
86.221403452784799
  0
LINE
  8
_e-c_
  6
CONTINUOUS
 62
  136
 10
135.34778971068226
 20
86.221403452784799
 11
137.74778971068235
 21
86.221403452784799
  0
LINE
  8
_e-b_
  6
CONTINUOUS
 62
    2
 10
137.54774990602436
 20
85.221403452784983
 11
135.54776363893438
 21
85.221403452784983
  0
LINE
  8
_e-b_
  6
CONTINUOUS
 62
    2
 10
135.39775543733526
 20
86.221403452784983
 11
135.39775543733526
 21
85.308010718257393
  0
LINE
  8
_e-b_
  6
CONTINUOUS
 62
    2
 10
135.54776363893438
 20
85.221403452784983
 11
135.39775543733526
 21
85.308010718257393
  0
LINE
  8
_e-b_
  6
CONTINUOUS
 62
    2
 10
137.69775810762349
 20
86.221403452784983
 11
137.69775810762349
 21
85.308010718257393
  0
LINE
  8
_e-b_
  6
CONTINUOUS
 62
    2
 10
137.54774990602436
 20
85.221403452784983
 11
137.69775810762349
 21
85.308010718257393
  0
ARC
  8
_e-b_
  6
CONTINUOUS
 62
    2
 10
136.54775677247949
 20
87.1579293698382
 40
1.9365259170532227
 50
252.79972839355472
 51
287.20025634765625
  0
ARC
  8
_e-b_
  6
CONTINUOUS
 62
    2
 10
135.72672501131001
 20
85.877802750499214
 40
0.6579391479492188
 50
239.99998474121094
 51
266.07923889160156
  0
ARC
  8
_e-b_
  6
CONTINUOUS
 62
    2
 10
135.67972975297857
 20
85.768363758952589
 40
0.5469640254974365
 50
270.21029663085937
 51
302.68507385253906
  0
ARC
  8
_e-b_
  6
CONTINUOUS
 62
    2
 10
137.36878853364874
 20
85.877802750499214
 40
0.6579391479492188
 50
273.92074584960937
 51
300
  0
ARC
  8
_e-b_
  6
CONTINUOUS
 62
    2
 10
137.41578379198018
 20
85.768363758952589
 40
0.5469640254974365
 50
237.31491088867187
 51
269.78968811035156
  0
LINE
  8
_e-b_
  6
CONTINUOUS
 62
    2
 10
137.69775810762349
 20
86.221403452784983
 11
135.39775543733526
 21
86.221403452784983
  0
LINE
  8
_e-2_
  6
CENTER1
 62
    3
 10
136.54778475599437
 20
92.817919788917465
 11
136.54778475599437
 21
71.587035903034788
  0
LINE
  8
_e-1_
  6
CONTINUOUS
 62
    2
 10
61.847757290174286
 20
78.683429561312124
 11
83.547767441098131
 21
78.683429561312096
  0
POINT
  8
_e-4_
 62
    7
 10
205.54771423564534
 20
106.34081312582946
  0
LINE
  8
_e-4_
  6
CONTINUOUS
 62
    7
 10
205.54771423564534
 20
106.64081312582945
 11
205.54771423564534
 21
80.683429561312053
  0
LINE
  8
_e-4_
  6
CONTINUOUS
 62
    7
 10
200.54778310639585
 20
98.388752161499198
 11
200.54778310639585
 21
91.683383499238403
  0
LINE
  8
_e-4_
  6
CONTINUOUS
 62
    7
 10
198.18547678863456
 20
83.965510399482966
 11
199.52489329254081
 21
80.731944527702979
  0
LINE
  8
_e-4_
  6
CONTINUOUS
 62
    7
 10
202.70933662702896
 20
86.704406407684104
 11
210.79222071961772
 21
100.70441795487584
  0
TEXT
  8
_e-4_
 62
    2
 10
212.45040160802569
 20
101.40442026431415
 40
4.0000000000000568
 41
0.9999999999999857
 50
0
  1
枠：FC200
  0
LINE
  8
_e-4_
  6
CONTINUOUS
 62
    7
 10
210.79222071961772
 20
100.70441795487584
 11
232.45040160802569
 21
100.70441795487584
  0
TEXT
  8
_e-4_
 62
    2
 10
211.41085346283057
 20
94.404405830324521
 40
3.9999999999999858
 41
1.0000000000000042
 50
0
  1
樹脂系塗装
  0
LINE
  8
_e-4_
  6
CONTINUOUS
 62
    7
 10
202.70933662702896
 20
86.704406407684104
 11
204.84000134936855
 21
89.481145167317777
  0
LINE
  8
_e-4_
  6
CONTINUOUS
 62
    7
 10
202.70933662702896
 20
86.704406407684104
 11
204.04871848936023
 21
89.937989600251683
  0
LINE
  8
_e-4_
  6
CONTINUOUS
 62
    7
 10
191.19642192747619
 20
76.442692545771592
 11
192.53583843138244
 21
73.209126673991634
  0
LINE
  8
_e-4_
  6
CONTINUOUS
 62
    7
 10
191.19642192747619
 20
76.442692545771592
 11
193.32708664981533
 21
73.665962446531736
  0
LINE
  8
_e-4_
  6
CONTINUOUS
 62
    7
 10
156.54778475599437
 20
75.842692545771627
 11
157.88720125990062
 21
72.609126673991653
  0
LINE
  8
_e-4_
  6
CONTINUOUS
 62
    7
 10
156.54778475599437
 20
75.842692545771627
 11
158.6784494783335
 21
73.065962446531756
  0
LINE
  8
_e-4_
  6
CONTINUOUS
 62
    7
 10
135.94778694944512
 20
80.532029562065361
 11
134.60837044553887
 21
77.298463690285388
  0
LINE
  8
_e-4_
  6
CONTINUOUS
 62
    7
 10
135.94778694944512
 20
80.532029562065361
 11
133.81712222710598
 21
77.755299462825491
  0
TEXT
  8
_e-4_
 62
    2
 10
207.08903508680146
 20
69.444077942688068
 40
3.9999999999999858
 41
1.0000000000000044
 50
0
  1
パッキン：クロロプレン
  0
TEXT
  8
_e-4_
 62
    2
 10
202.27669403581353
 20
58.151095968082572
 40
4.0000000000000036
 41
0.9999999999999991
 50
0
  1
断熱材：ポリエチレンフォーム
  0
LINE
  8
_e-4_
  6
CONTINUOUS
 62
    7
 10
191.19642192747619
 20
76.442692545771592
 11
202.1800743980632
 21
57.418523053439188
  0
LINE
  8
_e-4_
  6
CONTINUOUS
 62
    7
 10
264.77669403581353
 20
57.418523053439188
 11
202.1800743980632
 21
57.418523053439188
  0
LINE
  8
_e-4_
  6
CONTINUOUS
 62
    7
 10
198.18547678863456
 20
83.965510399482966
 11
206.99241544905112
 21
68.711505028044641
  0
LINE
  8
_e-4_
  6
CONTINUOUS
 62
    7
 10
206.99241544905112
 20
68.711505028044641
 11
256.08903508680146
 21
68.711505028044641
  0
TEXT
  8
_e-4_
 62
    2
 10
216.4445916798893
 20
117.61043664369146
 40
4.0000000000000036
 41
0.9999999999999991
 50
0
  1
蓋：FC200
  0
TEXT
  8
_e-4_
 62
    2
 10
215.40504353469373
 20
110.61043087009554
 40
3.9999999999999858
 41
1.0000000000000042
 50
0
  1
樹脂系塗装
  0
LINE
  8
_e-4_
  6
CONTINUOUS
 62
    7
 10
214.10400640222838
 20
116.91043433425307
 11
236.4445916798893
 21
116.91043433425307
  0
LINE
  8
_e-4_
  6
CONTINUOUS
 62
    7
 10
198.42679758507325
 20
89.756718998388877
 11
200.55746230741283
 21
92.533466418416367
  0
LINE
  8
_e-4_
  6
CONTINUOUS
 62
    7
 10
198.42679758507325
 20
89.756718998388877
 11
199.7662140889795
 21
92.990302190956484
  0
LINE
  8
_e-4_
  6
CONTINUOUS
 62
    7
 10
198.4267975850737
 20
89.756718998389104
 11
214.10400640222838
 21
116.91043433425307
  0
LINE
  8
_e-4_
  6
CONTINUOUS
 62
    7
 10
136.54778475599392
 20
72.82269161117101
 11
135.20836825208767
 21
69.589125739391037
  0
LINE
  8
_e-4_
  6
CONTINUOUS
 62
    7
 10
136.54778475599392
 20
72.82269161117101
 11
134.41712003365478
 21
70.045961511931139
  0
LINE
  8
_e-4_
  6
CONTINUOUS
 62
    7
 10
198.18547678863456
 20
83.965510399482966
 11
200.31614151097369
 21
81.188780300243081
  0
LINE
  8
_e-4_
  6
CONTINUOUS
 62
    7
 10
186.90537318462452
 20
76.402729420197161
 11
186.90537318462452
 21
82.402729420197446
  0
POINT
  8
_e-4_
 62
    7
 10
186.90537318462452
 20
76.402729420197161
  0
POINT
  8
_e-4_
 62
    7
 10
186.90537318462452
 20
82.402729420197446
  0
LINE
  8
_e-4_
  6
CONTINUOUS
 62
    7
 10
186.90537318462452
 20
76.402729420197161
 11
186.90537318462452
 21
75.802729420197139
  0
POINT
  8
_e-4_
 62
    7
 10
186.90537318462452
 20
76.402729420197161
  0
POINT
  8
_e-4_
 62
    7
 10
186.90537318462452
 20
75.802729420197139
  0
LINE
  8
_e-4_
  6
CONTINUOUS
 62
    7
 10
186.90537318462452
 20
82.402729420197446
 11
186.90537318462452
 21
83.002729420197412
  0
POINT
  8
_e-4_
 62
    7
 10
186.90537318462452
 20
82.402729420197446
  0
POINT
  8
_e-4_
 62
    7
 10
186.90537318462452
 20
83.002729420197412
  0
LINE
  8
_e-4_
  6
CONTINUOUS
 62
    7
 10
186.90537318462452
 20
83.002729420197412
 11
186.90537318462452
 21
85.958689561747065
  0
LINE
  8
_e-4_
  6
CONTINUOUS
 62
    7
 10
186.90537318462452
 20
72.8467692786475
 11
186.90537318462452
 21
75.802729420197139
  0
TEXT
  8
_e-4_
 62
    2
 10
186.30537318462461
 20
73.049735703306325
 40
3.9999999999999147
 41
1.0000000000000213
 50
90
  1
3
  0
LINE
  8
_e-4_
  6
CONTINUOUS
 62
    7
 10
187.20537318462425
 20
75.802729420197139
 11
178.54776034875817
 21
75.802729420197139
  0
TEXT
  8
_e-4_
 62
    2
 10
186.30537318462461
 20
77.277729420197346
 40
3.9999999999999147
 41
1.0000000000000044
 50
90
  1
30
  0
TEXT
  8
_e-4_
 62
    2
 10
186.30537318462461
 20
83.809647274060495
 40
3.9999999999999147
 41
1.0000000000000318
 50
90
  1
3
  0
LINE
  8
_e-4_
  6
CONTINUOUS
 62
    7
 10
187.20537318462425
 20
83.002729420197412
 11
177.80533811365581
 21
83.002729420197412
  0
LINE
  8
_e-4_
  6
CONTINUOUS
 62
    7
 10
221.54795914957708
 20
78.683429561312053
 11
221.54795914957708
 21
89.683437396906399
  0
POINT
  8
_e-4_
 62
    7
 10
221.54795914957708
 20
78.683429561312053
  0
POINT
  8
_e-4_
 62
    7
 10
221.54795914957708
 20
89.683437396906399
  0
LINE
  8
_e-4_
  6
CONTINUOUS
 62
    7
 10
221.84795914957704
 20
78.683429561312053
 11
207.54771423564534
 21
78.683429561312053
  0
LINE
  8
_e-4_
  6
CONTINUOUS
 62
    7
 10
221.84795914957704
 20
89.683437396906399
 11
204.04772000924117
 21
89.683437396906399
  0
TEXT
  8
_e-4_
 62
    2
 10
220.94795914957717
 20
82.058433479109226
 40
4
 41
1
 50
90
  1
55
  0
TEXT
  8
_e-4_
 62
    2
 10
131.04776772321929
 20
98.688752161499195
 40
4
 41
1
 50
0
  1
φ640
  0
LINE
  8
_e-a_
  6
CONTINUOUS
 62
    1
 10
186.68247170070458
 20
78.581655909899212
 11
190.50354521100326
 21
82.402729420197758
  0
LINE
  8
_e-a_
  6
CONTINUOUS
 62
    1
 10
184.5035452110028
 20
76.402729420197403
 11
184.79901938826015
 21
76.69820359745485
  0
LINE
  8
_e-a_
  6
CONTINUOUS
 62
    1
 10
186.68247170070458
 20
81.127240322171176
 11
187.95796079873116
 21
82.402729420197758
  0
LINE
  8
_e-a_
  6
CONTINUOUS
 62
    1
 10
181.95796079873116
 20
76.402729420197673
 11
182.25343497598828
 21
76.69820359745485
  0
LINE
  8
_e-a_
  6
CONTINUOUS
 62
    1
 10
184.9720675561407
 20
81.962420589879244
 11
185.4123763864593
 21
82.402729420197858
  0
LINE
  8
_e-a_
  6
CONTINUOUS
 62
    1
 10
179.4123763864593
 20
76.402729420197758
 11
181.95269298162293
 21
78.943046015361432
  0
LINE
  8
_e-a_
  6
CONTINUOUS
 62
    1
 10
182.42648314386975
 20
81.962420589879244
 11
182.86679197418812
 21
82.402729420197574
  0
LINE
  8
_e-a_
  6
CONTINUOUS
 62
    1
 10
176.86679197418812
 20
76.402729420197574
 11
181.95269298162293
 21
81.488630427632387
  0
LINE
  8
_e-a_
  6
CONTINUOUS
 62
    1
 10
181.95269298162293
 20
77.228683993608769
 11
176.77864755503401
 21
82.402729420197758
  0
LINE
  8
_e-a_
  6
CONTINUOUS
 62
    1
 10
182.77864755503401
 20
76.402729420197673
 11
182.48317337777689
 21
76.69820359745485
  0
LINE
  8
_e-a_
  6
CONTINUOUS
 62
    1
 10
181.95269298162293
 20
79.774268405879795
 11
179.32423196730474
 21
82.402729420198028
  0
LINE
  8
_e-a_
  6
CONTINUOUS
 62
    1
 10
185.32423196730474
 20
76.402729420197943
 11
185.02875779004785
 21
76.69820359745485
  0
LINE
  8
_e-a_
  6
CONTINUOUS
 62
    1
 10
182.3101252098952
 20
81.962420589879244
 11
181.8698163795766
 21
82.402729420197858
  0
LINE
  8
_e-a_
  6
CONTINUOUS
 62
    1
 10
187.86981637957683
 20
76.402729420197858
 11
186.68247170070458
 21
77.590074099070065
  0
LINE
  8
_e-a_
  6
CONTINUOUS
 62
    1
 10
184.85570962216752
 20
81.962420589879244
 11
184.41540079184892
 21
82.402729420197858
  0
LINE
  8
_e-a_
  6
CONTINUOUS
 62
    1
 10
190.41540079184892
 20
76.402729420197758
 11
186.68247170070458
 21
80.135658511342157
  0
POINT
  8
_e-4_
 62
    7
 10
159.50239304125284
 20
89.074872636331492
  0
TEXT
  8
_e-4_
 62
    2
 10
158.90239304125271
 20
86.623753527439817
 40
4
 41
1
 50
90
  1
6
  0
LINE
  8
_e-4_
  6
CONTINUOUS
 62
    7
 10
159.50239304125284
 20
89.074872636331492
 11
159.50239304125284
 21
86.623753527439817
  0
LINE
  8
_e-4_
  6
CONTINUOUS
 62
    7
 10
159.50239304125284
 20
90.256561379522751
 11
159.50239304125284
 21
89.074872636331492
  0
POINT
  8
_e-4_
 62
    7
 10
159.50239304125284
 20
90.256561379522751
  0
LINE
  8
_e-4_
  6
CONTINUOUS
 62
    7
 10
159.50239304125284
 20
90.256561379522751
 11
159.50239304125284
 21
90.656037192306243
  0
POINT
  8
_e-4_
 62
    7
 10
159.50239304125284
 20
90.256561379522751
  0
POINT
  8
_e-4_
 62
    7
 10
159.50239304125284
 20
90.656037192306243
  0
TEXT
  8
_e-4_
 62
    2
 10
158.90239304125271
 20
91.266263314451152
 40
4
 41
1
 50
90
  1
2
  0
LINE
  8
_e-4_
  6
CONTINUOUS
 62
    7
 10
159.50239304125284
 20
90.656037192306243
 11
159.50239304125284
 21
93.266263314451152
  0
TEXT
  8
_e-4_
 62
    2
 10
126.77749053423145
 20
106.94081312582946
 40
4
 41
1
 50
0
  1
φ690
  0
LINE
  8
_e-4_
  6
CONTINUOUS
 62
    7
 10
76.547771146804507
 20
54.734370960861
 11
196.54774640282221
 21
54.734370960861
  0
POINT
  8
_e-4_
 62
    7
 10
76.547771146804507
 20
54.734370960861
  0
POINT
  8
_e-4_
 62
    7
 10
196.54774640282221
 20
54.734370960861
  0
LINE
  8
_e-4_
  6
CONTINUOUS
 62
    7
 10
76.547771146804507
 20
54.434370960861003
 11
76.547771146804507
 21
76.68342956131211
  0
LINE
  8
_e-4_
  6
CONTINUOUS
 62
    7
 10
196.54774640282221
 20
54.434370960861003
 11
196.54774640282221
 21
76.683429561312053
  0
TEXT
  8
_e-4_
 62
    2
 10
131.04775877481325
 20
55.334370960860994
 40
4
 41
1
 50
0
  1
φ600
  0
TEXT
  8
_e-4_
 62
    2
 10
70.690011647061738
 20
45.744233063349142
 40
3.9999999999999503
 41
1.0000000000000109
 50
0
  1
寸切りボルト：SUS304
  0
LINE
  8
_e-4_
  6
CONTINUOUS
 62
    7
 10
135.94778694944512
 20
80.532029562065361
 11
115.44001164706177
 21
45.011660148705701
  0
LINE
  8
_e-4_
  6
CONTINUOUS
 62
    7
 10
70.593392009311401
 20
45.011660148705715
 11
115.44001164706178
 21
45.011660148705715
  0
TEXT
  8
_e-4_
 62
    2
 10
38.112553811310875
 20
35.129468111696994
 40
4.0000000000000213
 41
0.9999999999999946
 50
0
  1
袋ナット，平座金，ばね座金：SUS304
  0
LINE
  8
_e-4_
  6
CONTINUOUS
 62
    7
 10
136.54778475599392
 20
72.82269161117101
 11
114.36255381131083
 21
34.396895197053553
  0
LINE
  8
_e-4_
  6
CONTINUOUS
 62
    7
 10
38.015934173560538
 20
34.396895197053567
 11
114.36255381131085
 21
34.396895197053567
  0
TEXT
  8
_e-4_
 62
    2
 10
174.38016500045407
 20
45.856147502066136
 40
3.9999999999999858
 41
1.0000000000000029
 50
0
  1
固定プレート：溶融亜鉛めっき鋼板
  0
LINE
  8
_e-4_
  6
CONTINUOUS
 62
    7
 10
156.54778475599437
 20
75.842692545771627
 11
174.28354536270373
 21
45.123574587422723
  0
LINE
  8
_e-4_
  6
CONTINUOUS
 62
    7
 10
245.88016500045407
 20
45.123574587422723
 11
174.28354536270373
 21
45.123574587422723
  0
LINE
  8
_e-4_
  6
CONTINUOUS
 62
    7
 10
144.58761726428261
 20
108.02482319985995
 11
243.58255217094904
 21
207.01975810652638
  0
POINT
  8
_e-4_
 62
    7
 10
144.58761726428261
 20
108.02482319985995
  0
POINT
  8
_e-4_
 62
    7
 10
243.58255217094907
 20
207.01975810652638
  0
LINE
  8
_e-4_
  6
CONTINUOUS
 62
    7
 10
144.79974929863866
 20
107.81269116550399
 11
88.464383458227303
 21
164.14805700591526
  0
LINE
  8
_e-4_
  6
CONTINUOUS
 62
    7
 10
243.79468420530512
 20
206.80762607217042
 11
187.45946821822804
 21
263.14284205924741
  0
TEXT
  8
_e-4_
 62
    2
 10
191.36272361004777
 20
155.64845768304883
 40
4
 41
1
 50
44.999999999999417
  1
700
  0
LINE
  8
_e-a_
  6
CONTINUOUS
 62
    1
 10
195.84778475599438
 20
76.402729420197574
 11
195.84778475599438
 21
82.402729420197858
  0
LINE
  8
_e-a_
  6
CONTINUOUS
 62
    1
 10
83.547767441098131
 20
76.402729420197701
 11
195.84778475599438
 21
76.402729420197574
  0
LINE
  8
_e-a_
  6
CONTINUOUS
 62
    1
 10
137.1477825625434
 20
82.402729420197957
 11
195.84778475599438
 21
82.402729420197858
  0
LINE
  8
_e-a_
  6
CONTINUOUS
 62
    1
 10
195.84778475599438
 20
81.152683105138081
 11
194.59773844093456
 21
82.402729420197858
  0
LINE
  8
_e-a_
  6
CONTINUOUS
 62
    1
 10
194.6858828600889
 20
76.402729420197758
 11
195.84778475599438
 21
77.56463131610316
  0
LINE
  8
_e-a_
  6
CONTINUOUS
 62
    1
 10
192.1402984478168
 20
76.402729420197488
 11
195.84778475599438
 21
80.110215728375138
  0
LINE
  8
_e-a_
  6
CONTINUOUS
 62
    1
 10
195.84778475599438
 20
78.607098692866018
 11
192.05215402866247
 21
82.402729420198028
  0
LINE
  8
_e-a_
  6
DASHED1
 62
    1
 10
83.547767441098131
 20
82.402729420197971
 11
77.24778475599436
 21
82.402729420197971
  0
POINT
  8
_e-4_
 62
    7
 10
195.84778475599438
 20
62.989222783976402
  0
LINE
  8
_e-4_
  6
CONTINUOUS
 62
    7
 10
195.84778475599438
 20
62.689222783976405
 11
195.84778475599438
 21
74.402729420197574
  0
TEXT
  8
_e-4_
 62
    2
 10
133.29778475599437
 20
63.589222783976396
 40
4
 41
1
 50
0
  1
φ593
  0
LINE
  8
_e-4_
  6
CONTINUOUS
 62
    7
 10
205.54771423564534
 20
106.34081312582946
 11
83.647755598542176
 21
106.34081312582946
  0
LINE
  8
_e-4_
  6
CONTINUOUS
 62
    7
 10
83.647755598542176
 20
62.989222783976402
 11
195.84778475599438
 21
62.989222783976402
  0
LINE
  8
_e-1_
  6
CONTINUOUS
 62
    2
 10
195.84778475599438
 20
78.683429561312053
 11
205.54771423564534
 21
78.683429561312053
  0
LINE
  8
_e-4_
  6
CONTINUOUS
 62
    7
 10
200.54778310639585
 20
98.088752161499201
 11
72.547752340043019
 21
98.088752161499201
  0
POINT
  8
_e-4_
 62
    7
 10
200.54778310639585
 20
98.088752161499201
  0
POINT
  8
_e-4_
 62
    7
 10
72.547752340043019
 20
98.088752161499201
  0
LINE
  8
_e-4_
  6
CONTINUOUS
 62
    7
 10
72.547752340043019
 20
98.388752161499198
 11
72.547752340043019
 21
91.683290692628816
  0
LINE
  8
_e-2_
  6
CENTER1
 62
    3
 10
136.54774145402575
 20
215.0595795078444
 11
74.173430750766613
 21
152.68559974314661
  0
LINE
  8
_e-5_
  6
CONTINUOUS
 62
    4
 10
74.173430750766613
 20
152.68559974314661
 11
79.123165087867676
 21
147.73583914367083
  0
LINE
  8
_e-5_
  6
CONTINUOUS
 62
    4
 10
74.173430750766613
 20
152.68559974314661
 11
76.8604323923214
 21
151.1299576961828
  0
LINE
  8
_e-5_
  6
CONTINUOUS
 62
    4
 10
74.173430750766613
 20
152.68559974314661
 11
75.729058541012733
 21
149.99858984770262
  0
SOLID
  8
_e-5_
  6
CONTINUOUS
 62
    4
 10
72.582435334421746
 20
150.74106031562923
 11
76.117978619761573
 21
154.27658484212998
 12
72.228882881771654
 22
151.09461464416324
 13
75.76442616711148
 23
154.63013917066399
  0
TEXT
  8
_e-5_
 62
    2
 10
81.244472300232502
 20
142.78608604773069
 40
4
 41
1
 50
44.999847999999886
  1
Ａ
  0
TEXT
  8
_e-5_
 62
    2
 10
123.29775877481302
 20
39.9492975375789
 40
4
 41
1
 50
0
  1
Ａ－Ａ断面図
  0
LINE
  8
_e-5_
  6
CONTINUOUS
 62
    7
 10
121.49775877481329
 20
38.4492975375789
 11
151.5977587748132
 21
38.4492975375789
  0
LINE
  8
_e-a_
  6
DASHED1
 62
    1
 10
77.24778475599436
 20
78.68342956131211
 11
77.24778475599436
 21
82.402729420197971
  0
LINE
  8
_e-a_
  6
CONTINUOUS
 62
    1
 10
83.547767441098131
 20
76.402729420197701
 11
77.24778475599436
 21
76.402729420197701
  0
LINE
  8
_e-a_
  6
CONTINUOUS
 62
    1
 10
77.24778475599436
 20
76.402729420197701
 11
77.24778475599436
 21
78.68342956131211
  0
LINE
  8
_e-a_
  6
CONTINUOUS
 62
    1
 10
82.680168720139534
 20
76.402729420197701
 11
88.680168720139591
 21
82.402729420197886
  0
LINE
  8
_e-a_
  6
CONTINUOUS
 62
    1
 10
77.24778475599436
 20
78.607098692865577
 11
77.324115624440878
 21
78.68342956131211
  0
LINE
  8
_e-a_
  6
CONTINUOUS
 62
    1
 10
77.588999895597453
 20
76.402729420197701
 11
79.869700036711919
 21
78.683429561312096
  0
LINE
  8
_e-a_
  6
CONTINUOUS
 62
    1
 10
80.134584307868494
 20
76.402729420197701
 11
82.415284448982959
 21
78.683429561312096
  0
LINE
  8
_e-a_
  6
CONTINUOUS
 62
    1
 10
83.547767441098131
 20
79.815912553427253
 11
86.134584307868863
 21
82.402729420197886
  0
LINE
  8
_e-a_
  6
CONTINUOUS
 62
    1
 10
78.409686651901779
 20
76.402729420197886
 11
77.24778475599436
 21
77.564631316105263
  0
LINE
  8
_e-a_
  6
CONTINUOUS
 62
    1
 10
80.955271064172507
 20
76.402729420197886
 11
78.674570923058212
 21
78.683429561312096
  0
LINE
  8
_e-a_
  6
CONTINUOUS
 62
    1
 10
83.500855476443405
 20
76.402729420197886
 11
81.22015533532911
 21
78.683429561312096
  0
LINE
  8
_e-4_
  6
CONTINUOUS
 62
    7
 10
174.28354536270373
 20
45.123574587422723
 11
164.29462593074683
 21
82.402729420197915
  0
LINE
  8
_e-4_
  6
CONTINUOUS
 62
    7
 10
164.29462593074683
 20
82.402729420197915
 11
165.25133451165956
 21
80.093030588919689
  0
LINE
  8
_e-4_
  6
CONTINUOUS
 62
    7
 10
164.29462593074683
 20
82.402729420197915
 11
164.62094141129697
 21
79.924117266763375
  0
LINE
  8
_e-9_
  6
CONTINUOUS
 62
    6
 10
108.93385564404332
 20
75.802729420197792
 11
108.93385564404332
 21
75.482730488312981
  0
LINE
  8
_e-9_
  6
CONTINUOUS
 62
    6
 10
108.93385564404332
 20
75.482730488312981
 11
112.33385678845241
 21
75.482730488312981
  0
LINE
  8
_e-9_
  6
CONTINUOUS
 62
    6
 10
112.33385678845241
 20
75.802729420197792
 11
112.33385678845241
 21
75.482730488312981
  0
LINE
  8
_e-9_
  6
CONTINUOUS
 62
    6
 10
108.93385564404332
 20
75.802729420197792
 11
112.33385678845241
 21
75.802729420197792
  0
LINE
  8
ADD_LINE
  6
DOT
 62
    6
 10
109.79385739880411
 20
75.802729420197792
 11
109.79385739880411
 21
75.482730488312981
  0
LINE
  8
ADD_LINE
  6
DOT
 62
    6
 10
111.47385503369162
 20
75.802729420197792
 11
111.47385503369162
 21
75.482730488312981
  0
LINE
  8
_e-0_
  6
CONTINUOUS
 62
    2
 10
109.41385621624784
 20
75.18273048831297
 11
111.85385621624789
 21
75.18273048831297
  0
LINE
  8
_e-0_
  6
CONTINUOUS
 62
    2
 10
111.85385621624789
 20
75.18273048831297
 11
111.85385621624789
 21
75.482730488312981
  0
LINE
  8
_e-0_
  6
CONTINUOUS
 62
    2
 10
111.85385621624789
 20
75.482730488312981
 11
109.41385621624784
 21
75.482730488312981
  0
LINE
  8
_e-0_
  6
CONTINUOUS
 62
    2
 10
109.41385621624784
 20
75.482730488312981
 11
109.41385621624784
 21
75.18273048831297
  0
LINE
  8
_e-0_
  6
CONTINUOUS
 62
    2
 10
109.67965890484641
 20
75.18273048831297
 11
109.47915259915192
 21
75.066969160569457
  0
LINE
  8
_e-0_
  6
CONTINUOUS
 62
    2
 10
109.47915259915192
 20
74.298497108948979
 11
109.47915259915192
 21
75.066969160569457
  0
LINE
  8
_e-0_
  6
CONTINUOUS
 62
    2
 10
109.78385602551305
 20
74.064843945039044
 11
109.78385602551305
 21
73.386923794282254
  0
LINE
  8
_e-0_
  6
CONTINUOUS
 62
    2
 10
109.73385325985748
 20
74.15144195987061
 11
109.47915259915192
 21
74.298497108948979
  0
LINE
  8
_e-0_
  6
CONTINUOUS
 62
    2
 10
111.78855735379068
 20
74.298497108948979
 11
111.78855735379068
 21
75.066969160569457
  0
LINE
  8
_e-0_
  6
CONTINUOUS
 62
    2
 10
111.48385640698268
 20
73.386923794282254
 11
111.48385640698268
 21
74.064843945039044
  0
LINE
  8
_e-0_
  6
CONTINUOUS
 62
    2
 10
109.67965890484641
 20
75.18273048831297
 11
111.58805352764932
 21
75.18273048831297
  0
LINE
  8
_e-0_
  6
CONTINUOUS
 62
    2
 10
111.58805352764932
 20
75.18273048831297
 11
111.78855735379068
 21
75.066969160569457
  0
LINE
  8
_e-0_
  6
CONTINUOUS
 62
    2
 10
109.67966882305939
 20
74.182730774415333
 11
111.58804608898947
 21
74.182730774415333
  0
LINE
  8
_e-0_
  6
CONTINUOUS
 62
    2
 10
111.53385669308511
 20
74.15144195987061
 11
111.78855735379068
 21
74.298497108948979
  0
LINE
  8
_e-0_
  6
CONTINUOUS
 62
    2
 10
111.21120740490744
 20
74.298497108948979
 11
111.21120740490744
 21
75.066969160569457
  0
LINE
  8
_e-0_
  6
CONTINUOUS
 62
    2
 10
110.05650254803493
 20
74.298497108948979
 11
110.05650254803493
 21
75.066969160569457
  0
ARC
  8
_e-0_
  6
CONTINUOUS
 62
    2
 10
110.63385745602443
 20
73.682728485596911
 40
0.9
 50
199.18815612792969
 51
340.81184387207031
  0
ARC
  8
_e-0_
  6
CONTINUOUS
 62
    2
 10
109.67966882305939
 20
74.853947309983525
 40
0.6712146282196045
 50
270
 51
304.15455627441406
  0
ARC
  8
_e-0_
  6
CONTINUOUS
 62
    2
 10
110.63385745602443
 20
73.685176090729968
 40
1.4975599288940433
 50
67.323486328125028
 51
112.67651367187503
  0
ARC
  8
_e-0_
  6
CONTINUOUS
 62
    2
 10
109.67966882305939
 20
74.511518959534939
 40
0.6712146282196045
 50
55.845443725585952
 51
90.000000000000014
  0
ARC
  8
_e-0_
  6
CONTINUOUS
 62
    2
 10
109.68385554867575
 20
74.064843945039044
 40
0.1
 50
0
 51
59.9989013671875
  0
ARC
  8
_e-0_
  6
CONTINUOUS
 62
    2
 10
111.58804608898947
 20
74.853947309983525
 40
0.6712146282196045
 50
235.84544372558597
 51
270
  0
ARC
  8
_e-0_
  6
CONTINUOUS
 62
    2
 10
111.58804608898947
 20
74.511518959534939
 40
0.6712146282196045
 50
90
 51
124.15455627441405
  0
ARC
  8
_e-0_
  6
CONTINUOUS
 62
    2
 10
111.58385936337311
 20
74.064843945039044
 40
0.1
 50
120.0010986328125
 51
180
  0
ARC
  8
_e-0_
  6
CONTINUOUS
 62
    2
 10
110.63385745602443
 20
75.680290131104741
 40
1.4975599288940433
 50
247.32348632812503
 51
292.676513671875
  0
LINE
  8
_e-9_
  6
CONTINUOUS
 62
    6
 10
160.89534495658981
 20
75.802729420197792
 11
160.89534495658981
 21
75.482730488312981
  0
LINE
  8
_e-9_
  6
CONTINUOUS
 62
    6
 10
160.89534495658981
 20
75.482730488312981
 11
164.2953461009989
 21
75.482730488312981
  0
LINE
  8
_e-9_
  6
CONTINUOUS
 62
    6
 10
164.2953461009989
 20
75.802729420197792
 11
164.2953461009989
 21
75.482730488312981
  0
LINE
  8
_e-9_
  6
CONTINUOUS
 62
    6
 10
160.89534495658981
 20
75.802729420197792
 11
164.2953461009989
 21
75.802729420197792
  0
LINE
  8
ADD_LINE
  6
DOT
 62
    6
 10
161.7553467113506
 20
75.802729420197792
 11
161.7553467113506
 21
75.482730488312981
  0
LINE
  8
ADD_LINE
  6
DOT
 62
    6
 10
163.43534434623811
 20
75.802729420197792
 11
163.43534434623811
 21
75.482730488312981
  0
LINE
  8
_e-0_
  6
CONTINUOUS
 62
    2
 10
161.37534552879433
 20
75.18273048831297
 11
163.81534552879438
 21
75.18273048831297
  0
LINE
  8
_e-0_
  6
CONTINUOUS
 62
    2
 10
163.81534552879438
 20
75.18273048831297
 11
163.81534552879438
 21
75.482730488312981
  0
LINE
  8
_e-0_
  6
CONTINUOUS
 62
    2
 10
163.81534552879438
 20
75.482730488312981
 11
161.37534552879433
 21
75.482730488312981
  0
LINE
  8
_e-0_
  6
CONTINUOUS
 62
    2
 10
161.37534552879433
 20
75.482730488312981
 11
161.37534552879433
 21
75.18273048831297
  0
LINE
  8
_e-0_
  6
CONTINUOUS
 62
    2
 10
161.6411482173929
 20
75.18273048831297
 11
161.44064191169841
 21
75.066969160569457
  0
LINE
  8
_e-0_
  6
CONTINUOUS
 62
    2
 10
161.44064191169841
 20
74.298497108948979
 11
161.44064191169841
 21
75.066969160569457
  0
LINE
  8
_e-0_
  6
CONTINUOUS
 62
    2
 10
161.74534533805954
 20
74.064843945039044
 11
161.74534533805954
 21
73.386923794282254
  0
LINE
  8
_e-0_
  6
CONTINUOUS
 62
    2
 10
161.69534257240397
 20
74.15144195987061
 11
161.44064191169841
 21
74.298497108948979
  0
LINE
  8
_e-0_
  6
CONTINUOUS
 62
    2
 10
163.75004666633717
 20
74.298497108948979
 11
163.75004666633717
 21
75.066969160569457
  0
LINE
  8
_e-0_
  6
CONTINUOUS
 62
    2
 10
163.44534571952917
 20
73.386923794282254
 11
163.44534571952917
 21
74.064843945039044
  0
LINE
  8
_e-0_
  6
CONTINUOUS
 62
    2
 10
161.6411482173929
 20
75.18273048831297
 11
163.54954284019581
 21
75.18273048831297
  0
LINE
  8
_e-0_
  6
CONTINUOUS
 62
    2
 10
163.54954284019581
 20
75.18273048831297
 11
163.75004666633717
 21
75.066969160569457
  0
LINE
  8
_e-0_
  6
CONTINUOUS
 62
    2
 10
161.64115813560588
 20
74.182730774415333
 11
163.54953540153596
 21
74.182730774415333
  0
LINE
  8
_e-0_
  6
CONTINUOUS
 62
    2
 10
163.4953460056316
 20
74.15144195987061
 11
163.75004666633717
 21
74.298497108948979
  0
LINE
  8
_e-0_
  6
CONTINUOUS
 62
    2
 10
163.17269671745393
 20
74.298497108948979
 11
163.17269671745393
 21
75.066969160569457
  0
LINE
  8
_e-0_
  6
CONTINUOUS
 62
    2
 10
162.01799186058142
 20
74.298497108948979
 11
162.01799186058142
 21
75.066969160569457
  0
ARC
  8
_e-0_
  6
CONTINUOUS
 62
    2
 10
162.59534676857092
 20
73.682728485596911
 40
0.9
 50
199.18815612792969
 51
340.81184387207031
  0
ARC
  8
_e-0_
  6
CONTINUOUS
 62
    2
 10
161.64115813560588
 20
74.853947309983525
 40
0.6712146282196045
 50
270
 51
304.15455627441406
  0
ARC
  8
_e-0_
  6
CONTINUOUS
 62
    2
 10
162.59534676857092
 20
73.685176090729968
 40
1.4975599288940433
 50
67.323486328125028
 51
112.67651367187503
  0
ARC
  8
_e-0_
  6
CONTINUOUS
 62
    2
 10
161.64115813560588
 20
74.511518959534939
 40
0.6712146282196045
 50
55.845443725585952
 51
90.000000000000014
  0
ARC
  8
_e-0_
  6
CONTINUOUS
 62
    2
 10
161.64534486122224
 20
74.064843945039044
 40
0.1
 50
0
 51
59.9989013671875
  0
ARC
  8
_e-0_
  6
CONTINUOUS
 62
    2
 10
163.54953540153596
 20
74.853947309983525
 40
0.6712146282196045
 50
235.84544372558597
 51
270
  0
ARC
  8
_e-0_
  6
CONTINUOUS
 62
    2
 10
163.54953540153596
 20
74.511518959534939
 40
0.6712146282196045
 50
90
 51
124.15455627441405
  0
ARC
  8
_e-0_
  6
CONTINUOUS
 62
    2
 10
163.5453486759196
 20
74.064843945039044
 40
0.1
 50
120.0010986328125
 51
180
  0
ARC
  8
_e-0_
  6
CONTINUOUS
 62
    2
 10
162.59534676857092
 20
75.680290131104741
 40
1.4975599288940433
 50
247.32348632812503
 51
292.676513671875
  0
LINE
  8
_e-5_
  6
CONTINUOUS
 62
    7
 10
76.137247549600261
 20
86.051733565978026
 11
74.615343760223709
 21
88.035116750307594
  0
LINE
  8
_e-5_
  6
CONTINUOUS
 62
    7
 10
76.137247549600261
 20
86.051733565978026
 11
75.180538716154956
 21
88.361432292653745
  0
LINE
  8
_e-5_
  6
CONTINUOUS
 62
    7
 10
78.421776477067283
 20
80.477783686386289
 11
77.465067643621978
 21
78.168084959710569
  0
LINE
  8
_e-5_
  6
CONTINUOUS
 62
    7
 10
78.421776477067283
 20
80.477783686386289
 11
76.899872687690845
 21
78.49440050205672
  0
LINE
  8
_e-5_
  6
CONTINUOUS
 62
    7
 10
66.517821524806209
 20
59.859521979617085
 11
78.421781727152734
 21
80.477780655247358
  0
TEXT
  8
_e-5_
 62
    2
 10
34.13782966774329
 20
60.459521979617108
 40
4.0000000000000036
 41
0.9999999999999991
 50
0
  1
ボルト：SUS304
  0
TEXT
  8
_e-5_
 62
    2
 10
34.13782966774329
 20
55.059521979617131
 40
3.9999999999999858
 41
1.0000000000000029
 50
0
  1
M12×47
  0
LINE
  8
_e-5_
  6
CONTINUOUS
 62
    7
 10
66.517821524806209
 20
59.859521979617085
 11
34.13782966774329
 21
59.859521979617085
  0
LINE
  8
_e-5_
  6
CONTINUOUS
 62
    7
 10
78.54773320603158
 20
90.103300357667905
 11
77.025829416655142
 21
92.086683541997587
  0
LINE
  8
_e-5_
  6
CONTINUOUS
 62
    7
 10
78.54773320603158
 20
90.103300357667905
 11
77.591024372586276
 21
92.412999084343738
  0
TEXT
  8
_e-5_
 62
    2
 10
26.376715824986718
 20
117.51043433425309
 40
4.0000000000000213
 41
0.9999999999999944
 50
0
  1
袋ナット：SUS304
  0
LINE
  8
_e-5_
  6
CONTINUOUS
 62
    7
 10
78.54773320603158
 20
90.103300357667905
 11
63.070623280477548
 21
116.91043433425308
  0
LINE
  8
_e-5_
  6
CONTINUOUS
 62
    7
 10
26.376715824986718
 20
116.91043433425307
 11
63.070623280477548
 21
116.91043433425307
  0
TEXT
  8
_e-5_
 62
    2
 10
31.927514137236727
 20
101.30441795487586
 40
4.0000000000000036
 41
0.9999999999999993
 50
0
  1
座金：SUS304+NBR
  0
LINE
  8
_e-5_
  6
CONTINUOUS
 62
    7
 10
76.137247549600261
 20
86.051733565978026
 11
67.677514137236727
 21
100.70441795487582
  0
LINE
  8
_e-5_
  6
CONTINUOUS
 62
    7
 10
31.927514137236727
 20
100.70441795487584
 11
67.677514137236727
 21
100.70441795487584
  0
LINE
  8
_e-c_
  6
CONTINUOUS
 62
  136
 10
111.23385249691725
 20
86.221403452784131
 11
111.83385745602402
 21
86.221403452784131
  0
LINE
  8
_e-c_
  6
CONTINUOUS
 62
  136
 10
109.43385745602416
 20
86.221403452784131
 11
110.03385249691726
 21
86.221403452784131
  0
LINE
  8
_e-b_
  6
CONTINUOUS
 62
    2
 10
111.63384701329039
 20
85.221403452784131
 11
109.63386074620055
 21
85.221403452784131
  0
LINE
  8
_e-b_
  6
CONTINUOUS
 62
    2
 10
109.48385254460143
 20
86.221403452784131
 11
109.48385254460143
 21
85.308010718256554
  0
LINE
  8
_e-b_
  6
CONTINUOUS
 62
    2
 10
109.63386074620055
 20
85.221403452784131
 11
109.48385254460143
 21
85.308010718256554
  0
LINE
  8
_e-b_
  6
CONTINUOUS
 62
    2
 10
111.78385521488951
 20
86.221403452784131
 11
111.78385521488951
 21
85.308010718256554
  0
LINE
  8
_e-b_
  6
CONTINUOUS
 62
    2
 10
111.63384701329039
 20
85.221403452784131
 11
111.78385521488951
 21
85.308010718256554
  0
ARC
  8
_e-b_
  6
CONTINUOUS
 62
    2
 10
110.63385387974546
 20
87.157929369837376
 40
1.9365259170532227
 50
252.79972839355472
 51
287.20025634765625
  0
ARC
  8
_e-b_
  6
CONTINUOUS
 62
    2
 10
109.81282211857604
 20
85.877802750498375
 40
0.6579391479492189
 50
239.99998474121094
 51
266.07923889160156
  0
ARC
  8
_e-b_
  6
CONTINUOUS
 62
    2
 10
109.76582686024474
 20
85.76836375895175
 40
0.5469640254974365
 50
270.21029663085937
 51
302.68507385253906
  0
ARC
  8
_e-b_
  6
CONTINUOUS
 62
    2
 10
111.45488564091491
 20
85.877802750498375
 40
0.6579391479492189
 50
273.92074584960937
 51
300
  0
ARC
  8
_e-b_
  6
CONTINUOUS
 62
    2
 10
111.5018808992462
 20
85.76836375895175
 40
0.5469640254974365
 50
237.31491088867187
 51
269.78968811035156
  0
LINE
  8
_e-b_
  6
CONTINUOUS
 62
    2
 10
111.78385521488951
 20
86.221403452784131
 11
109.48385254460143
 21
86.221403452784131
  0
LINE
  8
_e-0_
  6
CONTINUOUS
 62
    2
 10
111.2065086729734
 20
85.308010749691448
 11
111.2065086729734
 21
86.221403452784131
  0
LINE
  8
_e-0_
  6
CONTINUOUS
 62
    2
 10
110.0611988075439
 20
85.308010749691448
 11
110.0611988075439
 21
86.221403452784131
  0
LINE
  8
_e-0_
  6
CONTINUOUS
 62
    2
 10
111.23385526257368
 20
85.221403452784131
 11
111.23385526257368
 21
83.042729420196991
  0
LINE
  8
_e-0_
  6
CONTINUOUS
 62
    2
 10
110.03385964947543
 20
85.221403452784131
 11
110.03385964947543
 21
83.042729420196991
  0
LINE
  8
_e-0_
  6
CONTINUOUS
 62
    2
 10
110.20785833912694
 20
85.221403452784131
 11
110.20785833912694
 21
83.042729420196991
  0
LINE
  8
_e-0_
  6
CONTINUOUS
 62
    2
 10
111.0598565729222
 20
85.221403452784131
 11
111.0598565729222
 21
83.042729420196991
  0
LINE
  8
_e-c_
  6
CONTINUOUS
 62
  136
 10
109.06185834480586
 20
89.01139678692013
 11
109.43385745602416
 21
86.221403452784131
  0
LINE
  8
_e-c_
  6
CONTINUOUS
 62
  136
 10
112.21190720039935
 20
89.056776535597891
 11
111.83385745602402
 21
86.221403452784131
  0
LINE
  8
_e-2_
  6
CENTER1
 62
    3
 10
110.63385745602443
 20
89.571947248668948
 11
110.63385745602443
 21
71.826340621411944
  0
LINE
  8
_e-c_
  6
CONTINUOUS
 62
  136
 10
163.19534180946374
 20
86.221403452784131
 11
163.79534676857051
 21
86.221403452784131
  0
LINE
  8
_e-c_
  6
CONTINUOUS
 62
  136
 10
161.39534676857065
 20
86.221403452784131
 11
161.99534180946375
 21
86.221403452784131
  0
LINE
  8
_e-b_
  6
CONTINUOUS
 62
    2
 10
163.59533632583688
 20
85.221403452784131
 11
161.59535005874704
 21
85.221403452784131
  0
LINE
  8
_e-b_
  6
CONTINUOUS
 62
    2
 10
161.44534185714792
 20
86.221403452784131
 11
161.44534185714792
 21
85.308010718256554
  0
LINE
  8
_e-b_
  6
CONTINUOUS
 62
    2
 10
161.59535005874704
 20
85.221403452784131
 11
161.44534185714792
 21
85.308010718256554
  0
LINE
  8
_e-b_
  6
CONTINUOUS
 62
    2
 10
163.745344527436
 20
86.221403452784131
 11
163.745344527436
 21
85.308010718256554
  0
LINE
  8
_e-b_
  6
CONTINUOUS
 62
    2
 10
163.59533632583688
 20
85.221403452784131
 11
163.745344527436
 21
85.308010718256554
  0
ARC
  8
_e-b_
  6
CONTINUOUS
 62
    2
 10
162.59534319229195
 20
87.157929369837376
 40
1.9365259170532227
 50
252.79972839355472
 51
287.20025634765625
  0
ARC
  8
_e-b_
  6
CONTINUOUS
 62
    2
 10
161.77431143112253
 20
85.877802750498375
 40
0.6579391479492189
 50
239.99998474121094
 51
266.07923889160156
  0
ARC
  8
_e-b_
  6
CONTINUOUS
 62
    2
 10
161.72731617279123
 20
85.76836375895175
 40
0.5469640254974365
 50
270.21029663085937
 51
302.68507385253906
  0
ARC
  8
_e-b_
  6
CONTINUOUS
 62
    2
 10
163.4163749534614
 20
85.877802750498375
 40
0.6579391479492189
 50
273.92074584960937
 51
300
  0
ARC
  8
_e-b_
  6
CONTINUOUS
 62
    2
 10
163.46337021179269
 20
85.76836375895175
 40
0.5469640254974365
 50
237.31491088867187
 51
269.78968811035156
  0
LINE
  8
_e-b_
  6
CONTINUOUS
 62
    2
 10
163.745344527436
 20
86.221403452784131
 11
161.44534185714792
 21
86.221403452784131
  0
LINE
  8
_e-0_
  6
CONTINUOUS
 62
    2
 10
163.16799798551989
 20
85.308010749691448
 11
163.16799798551989
 21
86.221403452784131
  0
LINE
  8
_e-0_
  6
CONTINUOUS
 62
    2
 10
162.02268812009041
 20
85.308010749691448
 11
162.02268812009041
 21
86.221403452784131
  0
LINE
  8
_e-0_
  6
CONTINUOUS
 62
    2
 10
163.19534457512017
 20
85.221403452784131
 11
163.19534457512017
 21
83.042729420196991
  0
LINE
  8
_e-0_
  6
CONTINUOUS
 62
    2
 10
161.99534896202192
 20
85.221403452784131
 11
161.99534896202192
 21
83.042729420196991
  0
LINE
  8
_e-0_
  6
CONTINUOUS
 62
    2
 10
162.16934765167343
 20
85.221403452784131
 11
162.16934765167343
 21
83.042729420196991
  0
LINE
  8
_e-0_
  6
CONTINUOUS
 62
    2
 10
163.02134588546869
 20
85.221403452784131
 11
163.02134588546869
 21
83.042729420196991
  0
LINE
  8
_e-2_
  6
CENTER1
 62
    3
 10
162.59534676857092
 20
89.571947248668948
 11
162.59534676857092
 21
71.826340621411944
  0
LINE
  8
_e-c_
  6
CONTINUOUS
 62
  136
 10
164.1670734623869
 20
89.009353656405793
 11
163.79534676857051
 21
86.221403452784131
  0
LINE
  8
_e-c_
  6
CONTINUOUS
 62
  136
 10
161.01753922389656
 20
89.054960037838683
 11
161.39534676857065
 21
86.221403452784131
  0
ENDSEC
  0
EOF
