  0
SECTION
  2
HEADER
  9
$ACADVER
  1
AC1018
  9
$ACADMAINTVER
 70
     0
  9
$DWGCODEPAGE
  3
ANSI_932
  9
$INSBASE
 10
0.0
 20
0.0
 30
0.0
  9
$EXTMIN
 10
-2970.0
 20
-2100.0
 30
0.0
  9
$EXTMAX
 10
2970.0
 20
2100.0
 30
0.0
  9
$LIMMIN
 10
-2970.0
 20
-2100.0
  9
$LIMMAX
 10
2970.0
 20
2100.0
  9
$ORTHOMODE
 70
     0
  9
$REGENMODE
 70
     1
  9
$FILLMODE
 70
     1
  9
$QTEXTMODE
 70
     0
  9
$MIRRTEXT
 70
     1
  9
$LTSCALE
 40
10.0
  9
$ATTMODE
 70
     1
  9
$TEXTSIZE
 40
2.5
  9
$TRACEWID
 40
1.0
  9
$TEXTSTYLE
  7
Standard
  9
$CLAYER
  8
0
  9
$CELTYPE
  6
ByLayer
  9
$CECOLOR
 62
   256
  9
$CELTSCALE
 40
1.0
  9
$DISPSILH
 70
     0
  9
$DIMSCALE
 40
1.0
  9
$DIMASZ
 40
2.5
  9
$DIMEXO
 40
0.625
  9
$DIMDLI
 40
3.75
  9
$DIMRND
 40
0.0
  9
$DIMDLE
 40
0.0
  9
$DIMEXE
 40
1.25
  9
$DIMTP
 40
0.0
  9
$DIMTM
 40
0.0
  9
$DIMTXT
 40
2.5
  9
$DIMCEN
 40
2.5
  9
$DIMTSZ
 40
0.0
  9
$DIMTOL
 70
     0
  9
$DIMLIM
 70
     0
  9
$DIMTIH
 70
     0
  9
$DIMTOH
 70
     0
  9
$DIMSE1
 70
     0
  9
$DIMSE2
 70
     0
  9
$DIMTAD
 70
     1
  9
$DIMZIN
 70
     8
  9
$DIMBLK
  1

  9
$DIMASO
 70
     1
  9
$DIMSHO
 70
     1
  9
$DIMPOST
  1

  9
$DIMAPOST
  1

  9
$DIMALT
 70
     0
  9
$DIMALTD
 70
     3
  9
$DIMALTF
 40
0.03937007874016
  9
$DIMLFAC
 40
1.0
  9
$DIMTOFL
 70
     1
  9
$DIMTVP
 40
0.0
  9
$DIMTIX
 70
     0
  9
$DIMSOXD
 70
     0
  9
$DIMSAH
 70
     0
  9
$DIMBLK1
  1

  9
$DIMBLK2
  1

  9
$DIMSTYLE
  2
ISO-25
  9
$DIMCLRD
 70
     0
  9
$DIMCLRE
 70
     0
  9
$DIMCLRT
 70
     0
  9
$DIMTFAC
 40
1.0
  9
$DIMGAP
 40
0.625
  9
$DIMJUST
 70
     0
  9
$DIMSD1
 70
     0
  9
$DIMSD2
 70
     0
  9
$DIMTOLJ
 70
     0
  9
$DIMTZIN
 70
     8
  9
$DIMALTZ
 70
     0
  9
$DIMALTTZ
 70
     0
  9
$DIMUPT
 70
     0
  9
$DIMDEC
 70
     2
  9
$DIMTDEC
 70
     2
  9
$DIMALTU
 70
     2
  9
$DIMALTTD
 70
     3
  9
$DIMTXSTY
  7
Standard
  9
$DIMAUNIT
 70
     0
  9
$DIMADEC
 70
     0
  9
$DIMALTRND
 40
0.0
  9
$DIMAZIN
 70
     0
  9
$DIMDSEP
 70
    44
  9
$DIMATFIT
 70
     3
  9
$DIMFRAC
 70
     0
  9
$DIMLDRBLK
  1

  9
$DIMLUNIT
 70
     2
  9
$DIMLWD
 70
    -2
  9
$DIMLWE
 70
    -2
  9
$DIMTMOVE
 70
     0
  9
$LUNITS
 70
     2
  9
$LUPREC
 70
     4
  9
$SKETCHINC
 40
1.0
  9
$FILLETRAD
 40
10.0
  9
$AUNITS
 70
     0
  9
$AUPREC
 70
     0
  9
$MENU
  1
.
  9
$ELEVATION
 40
0.0
  9
$PELEVATION
 40
0.0
  9
$THICKNESS
 40
0.0
  9
$LIMCHECK
 70
     0
  9
$CHAMFERA
 40
10.0
  9
$CHAMFERB
 40
10.0
  9
$CHAMFERC
 40
20.0
  9
$CHAMFERD
 40
0.0
  9
$SKPOLY
 70
     0
  9
$TDCREATE
 40
2457828.642816563
  9
$TDUCREATE
 40
2457828.267816563
  9
$TDUPDATE
 40
2457828.642816574
  9
$TDUUPDATE
 40
2457828.267816574
  9
$TDINDWG
 40
0.0000000116
  9
$TDUSRTIMER
 40
0.0000000116
  9
$USRTIMER
 70
     1
  9
$ANGBASE
 50
0.0
  9
$ANGDIR
 70
     0
  9
$PDMODE
 70
     0
  9
$PDSIZE
 40
0.0
  9
$PLINEWID
 40
0.0
  9
$SPLFRAME
 70
     0
  9
$SPLINETYPE
 70
     6
  9
$SPLINESEGS
 70
     8
  9
$HANDSEED
  5
461
  9
$SURFTAB1
 70
     6
  9
$SURFTAB2
 70
     6
  9
$SURFTYPE
 70
     6
  9
$SURFU
 70
     6
  9
$SURFV
 70
     6
  9
$UCSBASE
  2

  9
$UCSNAME
  2

  9
$UCSORG
 10
0.0
 20
0.0
 30
0.0
  9
$UCSXDIR
 10
1.0
 20
0.0
 30
0.0
  9
$UCSYDIR
 10
0.0
 20
1.0
 30
0.0
  9
$UCSORTHOREF
  2

  9
$UCSORTHOVIEW
 70
     0
  9
$UCSORGTOP
 10
0.0
 20
0.0
 30
0.0
  9
$UCSORGBOTTOM
 10
0.0
 20
0.0
 30
0.0
  9
$UCSORGLEFT
 10
0.0
 20
0.0
 30
0.0
  9
$UCSORGRIGHT
 10
0.0
 20
0.0
 30
0.0
  9
$UCSORGFRONT
 10
0.0
 20
0.0
 30
0.0
  9
$UCSORGBACK
 10
0.0
 20
0.0
 30
0.0
  9
$PUCSBASE
  2

  9
$PUCSNAME
  2

  9
$PUCSORG
 10
0.0
 20
0.0
 30
0.0
  9
$PUCSXDIR
 10
1.0
 20
0.0
 30
0.0
  9
$PUCSYDIR
 10
0.0
 20
1.0
 30
0.0
  9
$PUCSORTHOREF
  2

  9
$PUCSORTHOVIEW
 70
     0
  9
$PUCSORGTOP
 10
0.0
 20
0.0
 30
0.0
  9
$PUCSORGBOTTOM
 10
0.0
 20
0.0
 30
0.0
  9
$PUCSORGLEFT
 10
0.0
 20
0.0
 30
0.0
  9
$PUCSORGRIGHT
 10
0.0
 20
0.0
 30
0.0
  9
$PUCSORGFRONT
 10
0.0
 20
0.0
 30
0.0
  9
$PUCSORGBACK
 10
0.0
 20
0.0
 30
0.0
  9
$USERI1
 70
     0
  9
$USERI2
 70
     0
  9
$USERI3
 70
     0
  9
$USERI4
 70
     0
  9
$USERI5
 70
     0
  9
$USERR1
 40
0.0
  9
$USERR2
 40
0.0
  9
$USERR3
 40
0.0
  9
$USERR4
 40
0.0
  9
$USERR5
 40
0.0
  9
$WORLDVIEW
 70
     1
  9
$SHADEDGE
 70
     3
  9
$SHADEDIF
 70
    70
  9
$TILEMODE
 70
     1
  9
$MAXACTVP
 70
    64
  9
$PINSBASE
 10
0.0
 20
0.0
 30
0.0
  9
$PLIMCHECK
 70
     0
  9
$PEXTMIN
 10
1.000000000000000E+20
 20
1.000000000000000E+20
 30
1.000000000000000E+20
  9
$PEXTMAX
 10
-1.000000000000000E+20
 20
-1.000000000000000E+20
 30
-1.000000000000000E+20
  9
$PLIMMIN
 10
0.0
 20
0.0
  9
$PLIMMAX
 10
420.0
 20
297.0
  9
$UNITMODE
 70
     0
  9
$VISRETAIN
 70
     1
  9
$PLINEGEN
 70
     0
  9
$PSLTSCALE
 70
     1
  9
$TREEDEPTH
 70
  3020
  9
$CMLSTYLE
  2
Standard
  9
$CMLJUST
 70
     0
  9
$CMLSCALE
 40
20.0
  9
$PROXYGRAPHICS
 70
     1
  9
$MEASUREMENT
 70
     1
  9
$CELWEIGHT
370
    -1
  9
$ENDCAPS
280
     0
  9
$JOINSTYLE
280
     0
  9
$LWDISPLAY
290
     0
  9
$INSUNITS
 70
     4
  9
$HYPERLINKBASE
  1

  9
$STYLESHEET
  1

  9
$XEDIT
290
     1
  9
$CEPSNTYPE
380
     0
  9
$PSTYLEMODE
290
     1
  9
$FINGERPRINTGUID
  2
{7B401FA5-CC5A-4201-A95C-EDC856FC885C}
  9
$VERSIONGUID
  2
{FAEB1C32-E019-11D5-929B-00C0DF256EC4}
  9
$EXTNAMES
290
     1
  9
$PSVPSCALE
 40
0.0
  9
$OLESTARTUP
290
     0
  9
$SORTENTS
280
   127
  9
$INDEXCTL
280
     0
  9
$HIDETEXT
280
     1
  9
$XCLIPFRAME
290
     0
  9
$HALOGAP
280
     0
  9
$OBSCOLOR
 70
   257
  9
$OBSLTYPE
280
     0
  9
$INTERSECTIONDISPLAY
280
     0
  9
$INTERSECTIONCOLOR
 70
   257
  9
$DIMASSOC
280
     2
  9
$PROJECTNAME
  1

  0
ENDSEC
  0
SECTION
  2
CLASSES
  0
CLASS
  1
ACDBDICTIONARYWDFLT
  2
AcDbDictionaryWithDefault
  3
ObjectDBX Classes
 90
        0
 91
        4
280
     0
281
     0
  0
CLASS
  1
VISUALSTYLE
  2
AcDbVisualStyle
  3
ObjectDBX Classes
 90
     4095
 91
        4
280
     0
281
     0
  0
ENDSEC
  0
SECTION
  2
TABLES
  0
TABLE
  2
VPORT
  5
8
330
0
100
AcDbSymbolTable
 70
     1
  0
VPORT
  5
29
330
8
100
AcDbSymbolTableRecord
100
AcDbViewportTableRecord
  2
*Active
 70
     0
 10
0.0
 20
0.0
 11
1.0
 21
1.0
 12
0.0
 22
0.0
 13
0.0
 23
0.0
 14
10.0
 24
10.0
 15
10.0
 25
10.0
 16
0.0
 26
0.0
 36
1.0
 17
0.0
 27
0.0
 37
0.0
 40
4620.0
 41
1.414285714285715
 42
50.0
 43
0.0
 44
0.0
 50
0.0
 51
0.0
 71
     0
 72
 10000
 73
     1
 74
     3
 75
     0
 76
     0
 77
     0
 78
     0
281
     0
 65
     1
110
0.0
120
0.0
130
0.0
111
1.0
121
0.0
131
0.0
112
0.0
122
1.0
132
0.0
 79
     0
146
0.0
  0
ENDTAB
  0
TABLE
  2
LTYPE
  5
5
330
0
100
AcDbSymbolTable
 70
     3
  0
LTYPE
  5
14
330
5
100
AcDbSymbolTableRecord
100
AcDbLinetypeTableRecord
  2
ByBlock
 70
     0
  3

 72
    65
 73
     0
 40
0.0
  0
LTYPE
  5
15
330
5
100
AcDbSymbolTableRecord
100
AcDbLinetypeTableRecord
  2
ByLayer
 70
     0
  3

 72
    65
 73
     0
 40
0.0
  0
LTYPE
  5
16
330
5
100
AcDbSymbolTableRecord
100
AcDbLinetypeTableRecord
  2
Continuous
 70
     0
  3
Solid line
 72
    65
 73
     0
 40
0.0
  0
LTYPE
  5
3C
330
5
100
AcDbSymbolTableRecord
100
AcDbLinetypeTableRecord
  2
JWW_CENTER1
 70
     0
  3
-----  --  ----------  --  -----
 72
    65
 73
     4
 40
6.773333333333333
 49
4.233333333333333
 74
     0
 49
-0.8466666666666667
 74
     0
 49
0.8466666666666667
 74
     0
 49
-0.8466666666666667
 74
     0
  0
LTYPE
  5
3D
330
5
100
AcDbSymbolTableRecord
100
AcDbLinetypeTableRecord
  2
JWW_DASHED3
 70
     0
  3
---  ------  ------  ------  ---
 72
    65
 73
     2
 40
3.386666666666667
 49
2.54
 74
     0
 49
-0.8466666666666667
 74
     0
  0
ENDTAB
  0
TABLE
  2
LAYER
  5
2
330
0
100
AcDbSymbolTable
 70
    14
  0
LAYER
  5
10
330
2
100
AcDbSymbolTableRecord
100
AcDbLayerTableRecord
  2
0
 70
     0
 62
     7
  6
Continuous
370
    -3
390
F
  0
LAYER
  5
3E
330
2
100
AcDbSymbolTableRecord
100
AcDbLayerTableRecord
  2
D-4
 70
     0
 62
     7
  6
Continuous
370
    -3
390
F
  0
LAYER
  5
3F
330
2
100
AcDbSymbolTableRecord
100
AcDbLayerTableRecord
  2
D-1
 70
     0
 62
     7
  6
Continuous
370
    -3
390
F
  0
LAYER
  5
40
330
2
100
AcDbSymbolTableRecord
100
AcDbLayerTableRecord
  2
D-2
 70
     0
 62
     7
  6
Continuous
370
    -3
390
F
  0
LAYER
  5
41
330
2
100
AcDbSymbolTableRecord
100
AcDbLayerTableRecord
  2
F-4ﾚｲﾔ
 70
     0
 62
     7
  6
Continuous
370
    -3
390
F
  0
LAYER
  5
42
330
2
100
AcDbSymbolTableRecord
100
AcDbLayerTableRecord
  2
F-1ﾚｲﾔ
 70
     0
 62
     7
  6
Continuous
370
    -3
390
F
  0
LAYER
  5
43
330
2
100
AcDbSymbolTableRecord
100
AcDbLayerTableRecord
  2
F-2ﾚｲﾔ
 70
     0
 62
     7
  6
Continuous
370
    -3
390
F
  0
LAYER
  5
44
330
2
100
AcDbSymbolTableRecord
100
AcDbLayerTableRecord
  2
E-1
 70
     0
 62
     7
  6
Continuous
370
    -3
390
F
  0
LAYER
  5
45
330
2
100
AcDbSymbolTableRecord
100
AcDbLayerTableRecord
  2
E-4
 70
     0
 62
     7
  6
Continuous
370
    -3
390
F
  0
LAYER
  5
46
330
2
100
AcDbSymbolTableRecord
100
AcDbLayerTableRecord
  2
E-A
 70
     0
 62
     7
  6
Continuous
370
    -3
390
F
  0
LAYER
  5
47
330
2
100
AcDbSymbolTableRecord
100
AcDbLayerTableRecord
  2
F-5ﾚｲﾔ
 70
     0
 62
     7
  6
Continuous
370
    -3
390
F
  0
LAYER
  5
48
330
2
100
AcDbSymbolTableRecord
100
AcDbLayerTableRecord
  2
E-5
 70
     0
 62
     7
  6
Continuous
370
    -3
390
F
  0
LAYER
  5
49
330
2
100
AcDbSymbolTableRecord
100
AcDbLayerTableRecord
  2
D-5
 70
     0
 62
     7
  6
Continuous
370
    -3
390
F
  0
LAYER
  5
4A
330
2
100
AcDbSymbolTableRecord
100
AcDbLayerTableRecord
  2
F-0ﾚｲﾔ
 70
     0
 62
     7
  6
Continuous
370
    -3
390
F
  0
ENDTAB
  0
TABLE
  2
STYLE
  5
3
330
0
100
AcDbSymbolTable
 70
     2
  0
STYLE
  5
11
330
3
100
AcDbSymbolTableRecord
100
AcDbTextStyleTableRecord
  2
Standard
 70
     0
 40
0.0
 41
1.0
 50
0.0
 71
     0
 42
2.5
  3
txt
  4

1001
ACAD
1000

1071
        0
  0
STYLE
  5
3B
330
3
100
AcDbSymbolTableRecord
100
AcDbTextStyleTableRecord
  2
ＭＳ ゴシック
 70
     0
 40
1.0
 41
1.0
 50
0.0
 71
     0
 42
10.0
  3

  4

1001
ACAD
1000
MS Gothic
1071
    32817
  0
ENDTAB
  0
TABLE
  2
VIEW
  5
6
330
0
100
AcDbSymbolTable
 70
     0
  0
ENDTAB
  0
TABLE
  2
UCS
  5
7
330
0
100
AcDbSymbolTable
 70
     0
  0
ENDTAB
  0
TABLE
  2
APPID
  5
9
330
0
100
AcDbSymbolTable
 70
     1
  0
APPID
  5
12
330
9
100
AcDbSymbolTableRecord
100
AcDbRegAppTableRecord
  2
ACAD
 70
     0
  0
ENDTAB
  0
TABLE
  2
DIMSTYLE
  5
A
330
0
100
AcDbSymbolTable
 70
     1
100
AcDbDimStyleTable
  0
DIMSTYLE
105
27
330
A
100
AcDbSymbolTableRecord
100
AcDbDimStyleTableRecord
  2
ISO-25
 70
     0
 41
2.5
 42
0.625
 43
3.75
 44
1.25
 73
     0
 74
     0
 77
     1
 78
     8
140
2.5
141
2.5
143
0.03937007874016
147
0.625
171
     3
172
     1
271
     2
272
     2
274
     3
278
    44
283
     0
284
     8
340
11
  0
ENDTAB
  0
TABLE
  2
BLOCK_RECORD
  5
1
330
0
100
AcDbSymbolTable
 70
     1
  0
BLOCK_RECORD
  5
1F
330
1
100
AcDbSymbolTableRecord
100
AcDbBlockTableRecord
  2
*Model_Space
340
22
  0
BLOCK_RECORD
  5
1B
330
1
100
AcDbSymbolTableRecord
100
AcDbBlockTableRecord
  2
*Paper_Space
340
1E
  0
BLOCK_RECORD
  5
23
330
1
100
AcDbSymbolTableRecord
100
AcDbBlockTableRecord
  2
*Paper_Space0
340
26
  0
ENDTAB
  0
ENDSEC
  0
SECTION
  2
BLOCKS
  0
BLOCK
  5
20
330
1F
100
AcDbEntity
  8
0
100
AcDbBlockBegin
  2
*Model_Space
 70
     0
 10
0.0
 20
0.0
 30
0.0
  3
*Model_Space
  1

  0
ENDBLK
  5
21
330
1F
100
AcDbEntity
  8
0
100
AcDbBlockEnd
  0
BLOCK
  5
1C
330
1B
100
AcDbEntity
 67
     1
  8
0
100
AcDbBlockBegin
  2
*Paper_Space
 70
     0
 10
0.0
 20
0.0
 30
0.0
  3
*Paper_Space
  1

  0
ENDBLK
  5
1D
330
1B
100
AcDbEntity
 67
     1
  8
0
100
AcDbBlockEnd
  0
BLOCK
  5
24
330
23
100
AcDbEntity
  8
0
100
AcDbBlockBegin
  2
*Paper_Space0
 70
     0
 10
0.0
 20
0.0
 30
0.0
  3
*Paper_Space0
  1

  0
ENDBLK
  5
25
330
23
100
AcDbEntity
  8
0
100
AcDbBlockEnd
  0
ENDSEC
  0
SECTION
  2
ENTITIES
  0
LWPOLYLINE
  5
4B
330
1F
100
AcDbEntity
  8
D-4
  6
Continuous
 62
     7
370
     9
100
AcDbPolyline
 90
        4
 70
     1
 43
1.0
 10
1118.953508363785
 20
767.805065100539
 42
0.4142135623731
 10
1118.453508363785
 20
768.305065100539
 42
0.4142135623731
 10
1117.953508363785
 20
767.805065100539
 42
0.4142135623731
 10
1118.453508363785
 20
767.305065100539
 42
0.4142135623731
  0
LWPOLYLINE
  5
4C
330
1F
100
AcDbEntity
  8
D-4
  6
Continuous
 62
     7
370
     9
100
AcDbPolyline
 90
        4
 70
     1
 43
1.0
 10
1118.953508363785
 20
777.8049743726035
 42
0.4142135623731
 10
1118.453508363785
 20
778.3049743726035
 42
0.4142135623731
 10
1117.953508363785
 20
777.8049743726035
 42
0.4142135623731
 10
1118.453508363785
 20
777.3049743726035
 42
0.4142135623731
  0
LWPOLYLINE
  5
4D
330
1F
100
AcDbEntity
  8
D-4
  6
Continuous
 62
     7
370
     9
100
AcDbPolyline
 90
        4
 70
     1
 43
1.0
 10
1118.953508363785
 20
727.8050568525441
 42
0.4142135623731
 10
1118.453508363785
 20
728.3050568525441
 42
0.4142135623731
 10
1117.953508363785
 20
727.8050568525441
 42
0.4142135623731
 10
1118.453508363785
 20
727.3050568525441
 42
0.4142135623731
  0
LWPOLYLINE
  5
4E
330
1F
100
AcDbEntity
  8
D-4
  6
Continuous
 62
     7
370
     9
100
AcDbPolyline
 90
        4
 70
     1
 43
1.0
 10
1875.787548825145
 20
454.7553362945848
 42
0.4142135623731
 10
1875.287548825145
 20
455.2553362945847
 42
0.4142135623731
 10
1874.787548825145
 20
454.7553362945848
 42
0.4142135623731
 10
1875.287548825145
 20
454.2553362945848
 42
0.4142135623731
  0
LWPOLYLINE
  5
4F
330
1F
100
AcDbEntity
  8
D-4
  6
Continuous
 62
     7
370
     9
100
AcDbPolyline
 90
        4
 70
     1
 43
1.0
 10
2120.7876148091
 20
727.8050568525441
 42
0.4142135623731
 10
2120.2876148091
 20
728.3050568525441
 42
0.4142135623731
 10
2119.787614809099
 20
727.8050568525441
 42
0.4142135623731
 10
2120.2876148091
 20
727.3050568525441
 42
0.4142135623731
  0
LINE
  5
50
330
1F
100
AcDbEntity
  8
D-1
  6
Continuous
 62
     2
370
     9
100
AcDbLine
 10
1835.287664297062
 20
767.805065100539
 30
0.0
 11
1875.287548825145
 21
727.8050568525441
 31
0.0
  0
LINE
  5
51
330
1F
100
AcDbEntity
  8
D-1
  6
Continuous
 62
     2
370
     9
100
AcDbLine
 10
1890.28759831311
 20
945.3051558284733
 30
0.0
 11
1890.28759831311
 21
910.3050403565567
 31
0.0
  0
LINE
  5
52
330
1F
100
AcDbEntity
  8
D-1
  6
Continuous
 62
     2
370
     9
100
AcDbLine
 10
1890.28759831311
 20
937.8050073645807
 30
0.0
 11
1875.287548825145
 21
937.8050073645807
 31
0.0
  0
LINE
  5
53
330
1F
100
AcDbEntity
  8
D-1
  6
Continuous
 62
     2
370
     9
100
AcDbLine
 10
1890.28759831311
 20
917.8051888204504
 30
0.0
 11
1875.287548825145
 21
917.8051888204504
 31
0.0
  0
LINE
  5
54
330
1F
100
AcDbEntity
  8
D-1
  6
Continuous
 62
     2
370
     9
100
AcDbLine
 10
1890.28759831311
 20
767.805065100539
 30
0.0
 11
1875.287548825145
 21
767.805065100539
 31
0.0
  0
LINE
  5
55
330
1F
100
AcDbEntity
  8
D-1
  6
Continuous
 62
     2
370
     9
100
AcDbLine
 10
1890.28759831311
 20
787.8052548044025
 30
0.0
 11
1875.287548825145
 21
787.8052548044025
 31
0.0
  0
LINE
  5
56
330
1F
100
AcDbEntity
  8
D-1
  6
Continuous
 62
     2
370
     9
100
AcDbLine
 10
1890.28759831311
 20
795.3051558284733
 30
0.0
 11
1890.28759831311
 21
760.3051640764681
 31
0.0
  0
LINE
  5
57
330
1F
100
AcDbEntity
  8
D-1
  6
Continuous
 62
     2
370
     9
100
AcDbLine
 10
1842.787565321132
 20
712.8052548044025
 30
0.0
 11
1807.787449849216
 21
712.8052548044025
 31
0.0
  0
LINE
  5
58
330
1F
100
AcDbEntity
  8
D-1
  6
Continuous
 62
     2
370
     9
100
AcDbLine
 10
1835.287664297062
 20
712.8052548044025
 30
0.0
 11
1835.287664297062
 21
727.8050568525441
 31
0.0
  0
LINE
  5
59
330
1F
100
AcDbEntity
  8
D-1
  6
Continuous
 62
     2
370
     9
100
AcDbLine
 10
1815.28759831311
 20
712.8052548044025
 30
0.0
 11
1815.28759831311
 21
727.8050568525441
 31
0.0
  0
LINE
  5
5A
330
1F
100
AcDbEntity
  8
D-1
  6
Continuous
 62
     2
370
     9
100
AcDbLine
 10
1665.28759831311
 20
712.8052548044025
 30
0.0
 11
1665.28759831311
 21
727.8050568525441
 31
0.0
  0
LINE
  5
5B
330
1F
100
AcDbEntity
  8
D-1
  6
Continuous
 62
     2
370
     9
100
AcDbLine
 10
1685.287664297062
 20
712.8052548044025
 30
0.0
 11
1685.287664297062
 21
727.8050568525441
 31
0.0
  0
LINE
  5
5C
330
1F
100
AcDbEntity
  8
D-1
  6
Continuous
 62
     2
370
     9
100
AcDbLine
 10
1692.787565321132
 20
712.8052548044025
 30
0.0
 11
1657.787449849216
 21
712.8052548044025
 31
0.0
  0
LINE
  5
5D
330
1F
100
AcDbEntity
  8
D-1
  6
JWW_CENTER1
 62
     2
370
     9
100
AcDbLine
 10
1675.287631305084
 20
693.0930850540858
 30
0.0
 11
1675.287631305084
 21
727.8050568525441
 31
0.0
  0
LINE
  5
5E
330
1F
100
AcDbEntity
  8
D-1
  6
Continuous
 62
     2
370
     9
100
AcDbLine
 10
1657.787449849216
 20
712.8052548044025
 30
0.0
 11
1658.049983501033
 21
709.8051706748629
 31
0.0
  0
LINE
  5
5F
330
1F
100
AcDbEntity
  8
D-1
  6
Continuous
 62
     2
370
     9
100
AcDbLine
 10
1692.787565321132
 20
712.8052548044025
 30
0.0
 11
1692.525031669318
 21
709.8051706748629
 31
0.0
  0
LINE
  5
60
330
1F
100
AcDbEntity
  8
D-1
  6
Continuous
 62
     2
370
     9
100
AcDbLine
 10
1807.787449849216
 20
712.8052548044025
 30
0.0
 11
1808.049983501033
 21
709.8051706748629
 31
0.0
  0
LINE
  5
61
330
1F
100
AcDbEntity
  8
D-1
  6
Continuous
 62
     2
370
     9
100
AcDbLine
 10
1842.525031669318
 20
709.8051706748629
 30
0.0
 11
1842.787565321132
 21
712.8052548044025
 31
0.0
  0
LINE
  5
62
330
1F
100
AcDbEntity
  8
D-1
  6
Continuous
 62
     2
370
     9
100
AcDbLine
 10
1890.28759831311
 20
760.3051640764681
 30
0.0
 11
1893.287558722739
 21
760.5676977282837
 31
0.0
  0
LINE
  5
63
330
1F
100
AcDbEntity
  8
D-1
  6
Continuous
 62
     2
370
     9
100
AcDbLine
 10
1893.287558722739
 20
795.0427458965692
 30
0.0
 11
1890.28759831311
 21
795.3051558284733
 31
0.0
  0
LINE
  5
64
330
1F
100
AcDbEntity
  8
D-1
  6
Continuous
 62
     2
370
     9
100
AcDbLine
 10
1893.287558722739
 20
910.5678214481952
 30
0.0
 11
1890.28759831311
 21
910.3050403565567
 31
0.0
  0
LINE
  5
65
330
1F
100
AcDbEntity
  8
D-1
  6
Continuous
 62
     2
370
     9
100
AcDbLine
 10
1890.28759831311
 20
945.3051558284733
 30
0.0
 11
1893.287558722739
 21
945.0426221766577
 31
0.0
  0
LINE
  5
66
330
1F
100
AcDbEntity
  8
D-1
  6
JWW_CENTER1
 62
     2
370
     9
100
AcDbLine
 10
1875.287548825145
 20
927.8052218124265
 30
0.0
 11
1907.806585195499
 21
927.8052218124265
 31
0.0
  0
LINE
  5
67
330
1F
100
AcDbEntity
  8
D-1
  6
JWW_CENTER1
 62
     2
370
     9
100
AcDbLine
 10
1875.287548825145
 20
777.8052218124265
 30
0.0
 11
1907.806585195499
 21
777.8052218124265
 31
0.0
  0
LINE
  5
68
330
1F
100
AcDbEntity
  8
D-1
  6
JWW_CENTER1
 62
     2
370
     9
100
AcDbLine
 10
1825.287631305084
 20
693.5190527087525
 30
0.0
 11
1825.287631305084
 21
727.8050568525441
 31
0.0
  0
LINE
  5
69
330
1F
100
AcDbEntity
  8
D-4
  6
Continuous
 62
     7
370
     9
100
AcDbLine
 10
1198.453524859772
 20
454.7553362945848
 30
0.0
 11
1875.287548825145
 21
454.7553362945848
 31
0.0
  0
LINE
  5
6A
330
1F
100
AcDbEntity
  8
D-4
  6
Continuous
 62
     7
370
     9
100
AcDbLine
 10
1875.287548825145
 20
702.805098092515
 30
0.0
 11
1875.287548825145
 21
451.7556233247785
 31
0.0
  0
LINE
  5
6B
330
1F
100
AcDbEntity
  8
D-4
  6
Continuous
 62
     7
370
     9
100
AcDbLine
 10
1900.287631305084
 20
727.8050568525441
 30
0.0
 11
2123.287575218729
 21
727.8050568525441
 31
0.0
  0
LINE
  5
6C
330
1F
100
AcDbEntity
  8
D-4
  6
Continuous
 62
     7
370
     9
100
AcDbLine
 10
1173.453442379832
 20
727.8050568525441
 30
0.0
 11
1115.453547954158
 21
727.8050568525441
 31
0.0
  0
LINE
  5
6D
330
1F
100
AcDbEntity
  8
D-4
  6
Continuous
 62
     7
370
     9
100
AcDbLine
 10
1173.453442379832
 20
767.805065100539
 30
0.0
 11
1115.453547954158
 21
767.805065100539
 31
0.0
  0
LINE
  5
6E
330
1F
100
AcDbEntity
  8
D-4
  6
Continuous
 62
     7
370
     9
100
AcDbLine
 10
1173.453442379832
 20
777.8049743726035
 30
0.0
 11
1115.453547954158
 21
777.8049743726035
 31
0.0
  0
LINE
  5
6F
330
1F
100
AcDbEntity
  8
D-4
  6
Continuous
 62
     7
370
     9
100
AcDbLine
 10
1815.359355861674
 20
702.4656106558598
 30
0.0
 11
1746.273415062476
 21
582.8050733485326
 31
0.0
  0
LINE
  5
70
330
1F
100
AcDbEntity
  8
D-4
  6
Continuous
 62
     7
370
     9
100
AcDbLine
 10
1378.195049221049
 20
582.8050733485326
 30
0.0
 11
1746.273415062476
 21
582.8050733485326
 31
0.0
  0
LINE
  5
71
330
1F
100
AcDbEntity
  8
D-4
  6
Continuous
 62
     7
370
     9
100
AcDbLine
 10
1815.359355861674
 20
702.4656106558598
 30
0.0
 11
1805.79234255931
 21
679.3685878518056
 31
0.0
  0
LINE
  5
72
330
1F
100
AcDbEntity
  8
D-4
  6
Continuous
 62
     7
370
     9
100
AcDbLine
 10
1815.359355861674
 20
702.4656106558598
 30
0.0
 11
1800.140322130676
 21
682.6318242327181
 31
0.0
  0
LINE
  5
73
330
1F
100
AcDbEntity
  8
D-1
  6
Continuous
 62
     2
370
     9
100
AcDbLine
 10
1835.287664297062
 20
767.805065100539
 30
0.0
 11
1198.453524859772
 21
767.805065100539
 31
0.0
  0
LINE
  5
74
330
1F
100
AcDbEntity
  8
D-1
  6
Continuous
 62
     2
370
     9
100
AcDbLine
 10
1875.287548825145
 20
727.8050568525441
 30
0.0
 11
1198.453524859772
 21
727.8050568525441
 31
0.0
  0
LINE
  5
75
330
1F
100
AcDbEntity
  8
D-2
  6
Continuous
 62
     3
370
     9
100
AcDbLine
 10
1825.28787874491
 20
817.8052300604202
 30
0.0
 11
1198.453524859772
 21
817.8052300604202
 31
0.0
  0
LINE
  5
76
330
1F
100
AcDbEntity
  8
D-2
  6
Continuous
 62
     3
370
     9
100
AcDbLine
 10
1825.28787874491
 20
777.805098092515
 30
0.0
 11
1198.453524859772
 21
777.805098092515
 31
0.0
  0
LINE
  5
77
330
1F
100
AcDbEntity
  8
D-4
  6
Continuous
 62
     7
370
     9
100
AcDbLine
 10
1118.453508363785
 20
727.8050568525441
 30
0.0
 11
1118.453508363785
 21
805.01976698504
 31
0.0
  0
ARC
  5
78
330
1F
100
AcDbEntity
  8
D-1
  6
Continuous
 62
     2
370
     9
100
AcDbCircle
 10
1883.430793388068
 20
927.8052218124265
 30
0.0
 40
19.8566282117689
100
AcDbArc
 50
299.7614288330078
 51
60.23855590820312
  0
ARC
  5
79
330
1F
100
AcDbEntity
  8
D-1
  6
Continuous
 62
     2
370
     9
100
AcDbCircle
 10
1883.430793388068
 20
777.8052218124265
 30
0.0
 40
19.8566282117689
100
AcDbArc
 50
299.7614288330078
 51
60.23855590820312
  0
ARC
  5
7A
330
1F
100
AcDbEntity
  8
D-1
  6
Continuous
 62
     2
370
     9
100
AcDbCircle
 10
1825.287631305084
 20
719.6619360095337
 30
0.0
 40
19.8566282117689
100
AcDbArc
 50
209.7614288330078
 51
330.2385559082031
  0
ARC
  5
7B
330
1F
100
AcDbEntity
  8
D-1
  6
Continuous
 62
     2
370
     9
100
AcDbCircle
 10
1675.287631305084
 20
719.6619360095337
 30
0.0
 40
19.8566282117689
100
AcDbArc
 50
209.7614288330078
 51
330.2385559082031
  0
TEXT
  5
7C
330
1F
100
AcDbEntity
  8
D-4
  6
Continuous
 62
     2
370
     9
100
AcDbText
 10
1389.214534282283
 20
604.886707243169
 30
0.0
 40
30.48
  1
コーナー補助金物
 41
1.109375
  7
ＭＳ ゴシック
100
AcDbText
  0
TEXT
  5
7D
330
1F
100
AcDbEntity
  8
D-4
  6
Continuous
 62
     2
370
     9
100
AcDbText
 10
1107.813491867797
 20
737.8050898445213
 30
0.0
 40
30.48
  1
8
 50
90.0
 41
0.9999999999999998
  7
ＭＳ ゴシック
100
AcDbText
  0
TEXT
  5
7E
330
1F
100
AcDbEntity
  8
D-4
  6
Continuous
 62
     2
370
     9
100
AcDbText
 10
1107.813491867797
 20
785.7987652826546
 30
0.0
 40
30.48
  1
2
 50
90.0
 41
0.9999999999999998
  7
ＭＳ ゴシック
100
AcDbText
  0
TEXT
  5
7F
330
1F
100
AcDbEntity
  8
D-4
  6
Continuous
 62
     2
370
     9
100
AcDbText
 10
1246.870569834434
 20
332.8778422991243
 30
0.0
 40
30.48
  1
Ｂ部平面詳細図　Ｓ＝１：２
 41
1.115384615384615
  7
ＭＳ ゴシック
100
AcDbText
  0
LINE
  5
80
330
1F
100
AcDbEntity
  8
D-4
  6
Continuous
 62
     7
370
     9
100
AcDbLine
 10
2120.2876148091
 20
727.8050568525441
 30
0.0
 11
2120.2876148091
 21
1402.02834623172
 31
0.0
  0
LWPOLYLINE
  5
81
330
1F
100
AcDbEntity
  8
F-4ﾚｲﾔ
  6
Continuous
 62
     7
370
     9
100
AcDbPolyline
 90
        4
 70
     1
 43
1.0
 10
-541.9889972048261
 20
-758.7304136025352
 42
0.4142135623731
 10
-542.4889972048261
 20
-758.2304136025352
 42
0.4142135623731
 10
-542.9889972048261
 20
-758.7304136025352
 42
0.4142135623731
 10
-542.4889972048261
 20
-759.2304136025352
 42
0.4142135623731
  0
LWPOLYLINE
  5
82
330
1F
100
AcDbEntity
  8
F-4ﾚｲﾔ
  6
Continuous
 62
     7
370
     9
100
AcDbPolyline
 90
        4
 70
     1
 43
1.0
 10
-521.9889312208741
 20
-758.7304136025352
 42
0.4142135623731
 10
-522.4889312208741
 20
-758.2304136025352
 42
0.4142135623731
 10
-522.9889312208741
 20
-758.7304136025352
 42
0.4142135623731
 10
-522.4889312208741
 20
-759.2304136025352
 42
0.4142135623731
  0
LWPOLYLINE
  5
83
330
1F
100
AcDbEntity
  8
F-4ﾚｲﾔ
  6
Continuous
 62
     7
370
     9
100
AcDbPolyline
 90
        4
 70
     1
 43
1.0
 10
-441.9886672850637
 20
-758.7304136025352
 42
0.4142135623731
 10
-442.4886672850637
 20
-758.2304136025352
 42
0.4142135623731
 10
-442.9886672850637
 20
-758.7304136025352
 42
0.4142135623731
 10
-442.4886672850637
 20
-759.2304136025352
 42
0.4142135623731
  0
LWPOLYLINE
  5
84
330
1F
100
AcDbEntity
  8
F-4ﾚｲﾔ
  6
Continuous
 62
     7
370
     9
100
AcDbPolyline
 90
        4
 70
     1
 43
1.0
 10
-441.9886672850637
 20
-678.7306445463696
 42
0.4142135623731
 10
-442.4886672850637
 20
-678.2306445463696
 42
0.4142135623731
 10
-442.9886672850637
 20
-678.7306445463696
 42
0.4142135623731
 10
-442.4886672850637
 20
-679.2306445463696
 42
0.4142135623731
  0
LWPOLYLINE
  5
85
330
1F
100
AcDbEntity
  8
F-4ﾚｲﾔ
  6
Continuous
 62
     7
370
     9
100
AcDbPolyline
 90
        4
 70
     1
 43
1.0
 10
-151.9887002770386
 20
-678.7306445463696
 42
0.4142135623731
 10
-152.4887002770386
 20
-678.2306445463696
 42
0.4142135623731
 10
-152.9887002770386
 20
-678.7306445463696
 42
0.4142135623731
 10
-152.4887002770386
 20
-679.2306445463696
 42
0.4142135623731
  0
LWPOLYLINE
  5
86
330
1F
100
AcDbEntity
  8
F-4ﾚｲﾔ
  6
Continuous
 62
     7
370
     9
100
AcDbPolyline
 90
        4
 70
     1
 43
1.0
 10
-71.9889312208741
 20
-838.7306775383456
 42
0.4142135623731
 10
-72.4889312208741
 20
-838.2306775383456
 42
0.4142135623731
 10
-72.9889312208741
 20
-838.7306775383456
 42
0.4142135623731
 10
-72.4889312208741
 20
-839.2306775383456
 42
0.4142135623731
  0
LWPOLYLINE
  5
87
330
1F
100
AcDbEntity
  8
F-4ﾚｲﾔ
  6
Continuous
 62
     7
370
     9
100
AcDbPolyline
 90
        4
 70
     1
 43
1.0
 10
-71.9889312208741
 20
-1012.776632062206
 42
0.4142135623731
 10
-72.4889312208741
 20
-1012.276632062206
 42
0.4142135623731
 10
-72.9889312208741
 20
-1012.776632062206
 42
0.4142135623731
 10
-72.4889312208741
 20
-1013.276632062206
 42
0.4142135623731
  0
LWPOLYLINE
  5
88
330
1F
100
AcDbEntity
  8
F-4ﾚｲﾔ
  6
Continuous
 62
     7
370
     9
100
AcDbPolyline
 90
        4
 70
     1
 43
1.0
 10
-71.9889312208741
 20
-1112.776714542147
 42
0.4142135623731
 10
-72.4889312208741
 20
-1112.276714542147
 42
0.4142135623731
 10
-72.9889312208741
 20
-1112.776714542147
 42
0.4142135623731
 10
-72.4889312208741
 20
-1113.276714542147
 42
0.4142135623731
  0
LINE
  5
89
330
1F
100
AcDbEntity
  8
F-1ﾚｲﾔ
  6
Continuous
 62
     2
370
     9
100
AcDbLine
 10
-452.4887002770386
 20
-847.7765825742415
 30
0.0
 11
-452.4887002770386
 21
-912.7767970220873
 31
0.0
  0
LINE
  5
8A
330
1F
100
AcDbEntity
  8
F-1ﾚｲﾔ
  6
Continuous
 62
     2
370
     9
100
AcDbLine
 10
-512.4888982288969
 20
-946.7767607309133
 30
0.0
 11
-475.4887266706198
 21
-946.7767607309133
 31
0.0
  0
LINE
  5
8B
330
1F
100
AcDbEntity
  8
F-1ﾚｲﾔ
  6
Continuous
 62
     2
370
     9
100
AcDbLine
 10
-512.4888982288969
 20
-978.77666835338
 30
0.0
 11
-475.4887266706198
 21
-978.77666835338
 31
0.0
  0
LINE
  5
8C
330
1F
100
AcDbEntity
  8
F-1ﾚｲﾔ
  6
Continuous
 62
     2
370
     9
100
AcDbLine
 10
-508.4887860561782
 20
-982.7767805260999
 30
0.0
 11
-508.4887860561782
 21
-942.7766485581947
 31
0.0
  0
LINE
  5
8D
330
1F
100
AcDbEntity
  8
F-1ﾚｲﾔ
  6
Continuous
 62
     2
370
     9
100
AcDbLine
 10
-442.4886672850637
 20
-1032.776698046158
 30
0.0
 11
-442.4886672850637
 21
-1082.776615566218
 31
0.0
  0
LINE
  5
8E
330
1F
100
AcDbEntity
  8
F-1ﾚｲﾔ
  6
Continuous
 62
     2
370
     9
100
AcDbLine
 10
-522.4889312208741
 20
-1082.776615566218
 30
0.0
 11
-522.4889312208741
 21
-842.7765660782529
 31
0.0
  0
LINE
  5
8F
330
1F
100
AcDbEntity
  8
F-1ﾚｲﾔ
  6
Continuous
 62
     2
370
     9
100
AcDbLine
 10
-517.4886672850637
 20
-837.7767970220873
 30
0.0
 11
-447.4889312208741
 21
-837.7767970220873
 31
0.0
  0
LINE
  5
90
330
1F
100
AcDbEntity
  8
F-1ﾚｲﾔ
  6
Continuous
 62
     2
370
     9
100
AcDbLine
 10
-442.4886672850637
 20
-842.7765660782529
 30
0.0
 11
-442.4886672850637
 21
-892.7767310381353
 31
0.0
  0
LINE
  5
91
330
1F
100
AcDbEntity
  8
F-1ﾚｲﾔ
  6
Continuous
 62
     2
370
     9
100
AcDbLine
 10
-512.4888982288969
 20
-1077.776846510052
 30
0.0
 11
-512.4888982288969
 21
-847.7765825742415
 31
0.0
  0
LINE
  5
92
330
1F
100
AcDbEntity
  8
F-1ﾚｲﾔ
  6
Continuous
 62
     2
370
     9
100
AcDbLine
 10
-512.4888982288969
 20
-847.7765825742415
 30
0.0
 11
-452.4887002770386
 21
-847.7765825742415
 31
0.0
  0
LINE
  5
93
330
1F
100
AcDbEntity
  8
F-1ﾚｲﾔ
  6
Continuous
 62
     2
370
     9
100
AcDbLine
 10
-452.4887002770386
 20
-1012.776632062206
 30
0.0
 11
-452.4887002770386
 21
-1077.776846510052
 31
0.0
  0
LINE
  5
94
330
1F
100
AcDbEntity
  8
F-1ﾚｲﾔ
  6
Continuous
 62
     2
370
     9
100
AcDbLine
 10
-452.4887002770386
 20
-1077.776846510052
 30
0.0
 11
-512.4888982288969
 21
-1077.776846510052
 31
0.0
  0
LINE
  5
95
330
1F
100
AcDbEntity
  8
F-1ﾚｲﾔ
  6
Continuous
 62
     2
370
     9
100
AcDbLine
 10
-452.4887002770386
 20
-1032.776698046158
 30
0.0
 11
-442.4886672850637
 21
-1032.776698046158
 31
0.0
  0
LINE
  5
96
330
1F
100
AcDbEntity
  8
F-1ﾚｲﾔ
  6
Continuous
 62
     2
370
     9
100
AcDbLine
 10
-452.4887002770386
 20
-892.7767310381353
 30
0.0
 11
-442.4886672850637
 21
-892.7767310381353
 31
0.0
  0
LINE
  5
97
330
1F
100
AcDbEntity
  8
F-1ﾚｲﾔ
  6
JWW_CENTER1
 62
     2
370
     9
100
AcDbLine
 10
-522.4889312208741
 20
-962.7767145421467
 30
0.0
 11
-379.3167856866678
 21
-962.7767145421467
 31
0.0
  0
LINE
  5
98
330
1F
100
AcDbEntity
  8
F-1ﾚｲﾔ
  6
Continuous
 62
     2
370
     9
100
AcDbLine
 10
-508.4887860561782
 20
-942.7766485581947
 30
0.0
 11
-475.4887266706198
 21
-942.7766485581947
 31
0.0
  0
LINE
  5
99
330
1F
100
AcDbEntity
  8
F-1ﾚｲﾔ
  6
Continuous
 62
     2
370
     9
100
AcDbLine
 10
-508.4887860561782
 20
-982.7767805260999
 30
0.0
 11
-475.4887266706198
 21
-982.7767805260999
 31
0.0
  0
LINE
  5
9A
330
1F
100
AcDbEntity
  8
F-1ﾚｲﾔ
  6
Continuous
 62
     2
370
     9
100
AcDbLine
 10
-406.4886474898783
 20
-928.3016663738613
 30
0.0
 11
-412.4885683091345
 21
-927.7768465100519
 31
0.0
  0
LINE
  5
9B
330
1F
100
AcDbEntity
  8
F-1ﾚｲﾔ
  6
Continuous
 62
     2
370
     9
100
AcDbLine
 10
-508.4887860561782
 20
-942.7766485581947
 30
0.0
 11
-512.4888982288969
 21
-946.7767607309133
 31
0.0
  0
LINE
  5
9C
330
1F
100
AcDbEntity
  8
F-1ﾚｲﾔ
  6
Continuous
 62
     2
370
     9
100
AcDbLine
 10
-512.4888982288969
 20
-978.77666835338
 30
0.0
 11
-508.4887860561782
 21
-982.7767805260999
 31
0.0
  0
LINE
  5
9D
330
1F
100
AcDbEntity
  8
F-1ﾚｲﾔ
  6
Continuous
 62
     2
370
     9
100
AcDbLine
 10
-412.4885683091345
 20
-942.7766485581947
 30
0.0
 11
-416.4886804818532
 21
-946.7767607309133
 31
0.0
  0
LINE
  5
9E
330
1F
100
AcDbEntity
  8
F-1ﾚｲﾔ
  6
Continuous
 62
     2
370
     9
100
AcDbLine
 10
-475.4887266706198
 20
-852.7768465100519
 30
0.0
 11
-475.4887266706198
 21
-1077.776846510052
 31
0.0
  0
LINE
  5
9F
330
1F
100
AcDbEntity
  8
F-1ﾚｲﾔ
  6
Continuous
 62
     2
370
     9
100
AcDbLine
 10
-452.4887002770386
 20
-852.7768465100519
 30
0.0
 11
-475.4887266706198
 21
-852.7768465100519
 31
0.0
  0
LINE
  5
A0
330
1F
100
AcDbEntity
  8
F-1ﾚｲﾔ
  6
Continuous
 62
     2
370
     9
100
AcDbLine
 10
-452.4887002770386
 20
-912.7767970220873
 30
0.0
 11
-367.1333436997595
 21
-998.1319061595457
 31
0.0
  0
LINE
  5
A1
330
1F
100
AcDbEntity
  8
F-1ﾚｲﾔ
  6
Continuous
 62
     2
370
     9
100
AcDbLine
 10
-331.7781520823594
 20
-1012.776632062206
 30
0.0
 11
-172.4887662609906
 21
-1012.776632062206
 31
0.0
  0
LINE
  5
A2
330
1F
100
AcDbEntity
  8
F-1ﾚｲﾔ
  6
Continuous
 62
     2
370
     9
100
AcDbLine
 10
-152.4887002770386
 20
-1112.776714542147
 30
0.0
 11
-402.4885353171574
 21
-1112.776714542147
 31
0.0
  0
LINE
  5
A3
330
1F
100
AcDbEntity
  8
F-1ﾚｲﾔ
  6
Continuous
 62
     2
370
     9
100
AcDbLine
 10
-408.3469205578656
 20
-1056.918659221201
 30
0.0
 11
-452.4887002770386
 21
-1012.776632062206
 31
0.0
  0
LINE
  5
A4
330
1F
100
AcDbEntity
  8
F-1ﾚｲﾔ
  6
Continuous
 62
     2
370
     9
100
AcDbLine
 10
-152.4887002770386
 20
-1089.776688148565
 30
0.0
 11
-402.4885353171574
 21
-1089.776688148565
 31
0.0
  0
LINE
  5
A5
330
1F
100
AcDbEntity
  8
F-1ﾚｲﾔ
  6
JWW_DASHED3
 62
     2
370
     9
100
AcDbLine
 10
-452.4887002770386
 20
-1012.776632062206
 30
0.0
 11
-452.4887002770386
 21
-912.7767970220873
 31
0.0
  0
LINE
  5
A6
330
1F
100
AcDbEntity
  8
F-4ﾚｲﾔ
  6
Continuous
 62
     7
370
     9
100
AcDbLine
 10
-442.4886672850637
 20
-818.7306115543936
 30
0.0
 11
-442.4886672850637
 21
-675.7304366969186
 31
0.0
  0
LINE
  5
A7
330
1F
100
AcDbEntity
  8
F-4ﾚｲﾔ
  6
Continuous
 62
     7
370
     9
100
AcDbLine
 10
-152.4887002770386
 20
-1007.776615566218
 30
0.0
 11
-152.4887002770386
 21
-675.7304366969186
 31
0.0
  0
LINE
  5
A8
330
1F
100
AcDbEntity
  8
F-4ﾚｲﾔ
  6
Continuous
 62
     7
370
     9
100
AcDbLine
 10
-522.4889312208741
 20
-818.7306115543936
 30
0.0
 11
-522.4889312208741
 21
-755.7304531929071
 31
0.0
  0
LINE
  5
A9
330
1F
100
AcDbEntity
  8
F-4ﾚｲﾔ
  6
Continuous
 62
     7
370
     9
100
AcDbLine
 10
-542.4889972048261
 20
-758.7304136025352
 30
0.0
 11
-442.4886672850637
 21
-758.7304136025352
 31
0.0
  0
LINE
  5
AA
330
1F
100
AcDbEntity
  8
F-4ﾚｲﾔ
  6
Continuous
 62
     7
370
     9
100
AcDbLine
 10
-72.4889312208741
 20
-1112.776714542147
 30
0.0
 11
-72.4889312208741
 21
-838.7306775383456
 31
0.0
  0
LINE
  5
AB
330
1F
100
AcDbEntity
  8
F-4ﾚｲﾔ
  6
Continuous
 62
     7
370
     9
100
AcDbLine
 10
-127.4888652369198
 20
-1112.776714542147
 30
0.0
 11
-69.48897081124485
 21
-1112.776714542147
 31
0.0
  0
LINE
  5
AC
330
1F
100
AcDbEntity
  8
F-4ﾚｲﾔ
  6
Continuous
 62
     7
370
     9
100
AcDbLine
 10
-147.4884363412282
 20
-1012.776632062206
 30
0.0
 11
-69.48897081124485
 21
-1012.776632062206
 31
0.0
  0
LINE
  5
AD
330
1F
100
AcDbEntity
  8
F-4ﾚｲﾔ
  6
Continuous
 62
     7
370
     9
100
AcDbLine
 10
-422.4886013011094
 20
-838.7306775383456
 30
0.0
 11
-69.48897081124485
 21
-838.7306775383456
 31
0.0
  0
LINE
  5
AE
330
1F
100
AcDbEntity
  8
F-4ﾚｲﾔ
  6
Continuous
 62
     7
370
     9
100
AcDbLine
 10
-355.6075967614136
 20
-1112.776714542147
 30
0.0
 11
-340.3885630304178
 21
-1132.610500965288
 31
0.0
  0
LINE
  5
AF
330
1F
100
AcDbEntity
  8
F-4ﾚｲﾔ
  6
Continuous
 62
     7
370
     9
100
AcDbLine
 10
-355.6075967614136
 20
-1112.776714542147
 30
0.0
 11
-346.040583459049
 21
-1135.873737346201
 31
0.0
  0
LINE
  5
B0
330
1F
100
AcDbEntity
  8
F-4ﾚｲﾔ
  6
Continuous
 62
     7
370
     9
100
AcDbLine
 10
-355.6075967614136
 20
-1112.776714542147
 30
0.0
 11
-297.8724629459573
 21
-1212.776549582265
 31
0.0
  0
LINE
  5
B1
330
1F
100
AcDbEntity
  8
F-4ﾚｲﾔ
  6
Continuous
 62
     7
370
     9
100
AcDbLine
 10
-522.755671349674
 20
-843.7304465945112
 30
0.0
 11
-542.5894577728156
 21
-828.5114128635155
 31
0.0
  0
LINE
  5
B2
330
1F
100
AcDbEntity
  8
F-4ﾚｲﾔ
  6
Continuous
 62
     7
370
     9
100
AcDbLine
 10
-522.755671349674
 20
-843.7304465945112
 30
0.0
 11
-537.9747050806698
 21
-823.8966601713696
 31
0.0
  0
LINE
  5
B3
330
1F
100
AcDbEntity
  8
F-4ﾚｲﾔ
  6
Continuous
 62
     7
370
     9
100
AcDbLine
 10
-522.755671349674
 20
-843.7304465945112
 30
0.0
 11
-787.7558033175803
 21
-578.730562066429
 31
0.0
  0
LINE
  5
B4
330
1F
100
AcDbEntity
  8
F-4ﾚｲﾔ
  6
Continuous
 62
     7
370
     9
100
AcDbLine
 10
-297.8724629459573
 20
-1212.776549582265
 30
0.0
 11
235.0065158863906
 21
-1212.776549582265
 31
0.0
  0
LINE
  5
B5
330
1F
100
AcDbEntity
  8
F-1ﾚｲﾔ
  6
Continuous
 62
     2
370
     9
100
AcDbLine
 10
-152.4887002770386
 20
-1032.776698046158
 30
0.0
 11
-152.4887002770386
 21
-1112.776714542147
 31
0.0
  0
LINE
  5
B6
330
1F
100
AcDbEntity
  8
F-4ﾚｲﾔ
  6
Continuous
 62
     7
370
     9
100
AcDbLine
 10
-542.4889972048261
 20
-818.7306115543936
 30
0.0
 11
-542.4889972048261
 21
-755.7304531929071
 31
0.0
  0
LINE
  5
B7
330
1F
100
AcDbEntity
  8
F-1ﾚｲﾔ
  6
Continuous
 62
     2
370
     9
100
AcDbLine
 10
-402.4885353171574
 20
-1112.776714542147
 30
0.0
 11
-402.4885353171574
 21
-1071.060834844089
 31
0.0
  0
ARC
  5
B8
330
1F
100
AcDbEntity
  8
F-1ﾚｲﾔ
  6
Continuous
 62
     2
370
     9
100
AcDbCircle
 10
-517.4886672850637
 20
-842.7765660782529
 30
0.0
 40
4.99999958115655
100
AcDbArc
 50
90.0
 51
180.0
  0
ARC
  5
B9
330
1F
100
AcDbEntity
  8
F-1ﾚｲﾔ
  6
Continuous
 62
     2
370
     9
100
AcDbCircle
 10
-447.4889312208741
 20
-842.7765660782529
 30
0.0
 40
4.99999958115655
100
AcDbArc
 50
0.0
 51
90.0
  0
ARC
  5
BA
330
1F
100
AcDbEntity
  8
F-1ﾚｲﾔ
  6
Continuous
 62
     2
370
     9
100
AcDbCircle
 10
-517.4886672850637
 20
-1082.776615566218
 30
0.0
 40
4.99999958115655
100
AcDbArc
 50
180.0
 51
270.0
  0
ARC
  5
BB
330
1F
100
AcDbEntity
  8
F-1ﾚｲﾔ
  6
Continuous
 62
     2
370
     9
100
AcDbCircle
 10
-447.4889312208741
 20
-1082.776615566218
 30
0.0
 40
4.99999958115655
100
AcDbArc
 50
270.0
 51
0.0
  0
ARC
  5
BC
330
1F
100
AcDbEntity
  8
F-1ﾚｲﾔ
  6
Continuous
 62
     2
370
     9
100
AcDbCircle
 10
-331.7781520823594
 20
-962.7767145421467
 30
0.0
 40
50.00000257749815
100
AcDbArc
 50
225.0
 51
270.0
  0
ARC
  5
BD
330
1F
100
AcDbEntity
  8
F-1ﾚｲﾔ
  6
Continuous
 62
     2
370
     9
100
AcDbCircle
 10
-172.4887662609906
 20
-1032.776698046158
 30
0.0
 40
19.9999983246262
100
AcDbArc
 50
0.0
 51
90.0
  0
ARC
  5
BE
330
1F
100
AcDbEntity
  8
F-1ﾚｲﾔ
  6
Continuous
 62
     2
370
     9
100
AcDbCircle
 10
-422.4886013011094
 20
-1071.060834844089
 30
0.0
 40
19.9999983246262
100
AcDbArc
 50
0.0
 51
45.0
  0
TEXT
  5
BF
330
1F
100
AcDbEntity
  8
F-4ﾚｲﾔ
  6
Continuous
 62
     2
370
     9
100
AcDbText
 10
-318.8721858133574
 20
-668.090628050381
 30
0.0
 40
30.48
  1
29
 41
1.0625
  7
ＭＳ ゴシック
100
AcDbText
  0
TEXT
  5
C0
330
1F
100
AcDbEntity
  8
F-4ﾚｲﾔ
  6
Continuous
 62
     2
370
     9
100
AcDbText
 10
-543.0477163243365
 20
-748.0906445463696
 30
0.0
 40
30.48
  1
2
 41
0.9999999999999998
  7
ＭＳ ゴシック
100
AcDbText
  0
TEXT
  5
C1
330
1F
100
AcDbEntity
  8
F-4ﾚｲﾔ
  6
Continuous
 62
     2
370
     9
100
AcDbText
 10
-492.4888322449449
 20
-748.0906445463696
 30
0.0
 40
30.48
  1
8
 41
0.9999999999999998
  7
ＭＳ ゴシック
100
AcDbText
  0
TEXT
  5
C2
330
1F
100
AcDbEntity
  8
F-4ﾚｲﾔ
  6
Continuous
 62
     2
370
     9
100
AcDbText
 10
-83.12870027703859
 20
-1084.026681550171
 30
0.0
 40
30.48
  1
10
 50
90.0
 41
1.0625
  7
ＭＳ ゴシック
100
AcDbText
  0
TEXT
  5
C3
330
1F
100
AcDbEntity
  8
F-4ﾚｲﾔ
  6
Continuous
 62
     2
370
     9
100
AcDbText
 10
-83.12870027703859
 20
-947.0036630482696
 30
0.0
 40
30.48
  1
17
 50
90.0
 41
1.0625
  7
ＭＳ ゴシック
100
AcDbText
  0
TEXT
  5
C4
330
1F
100
AcDbEntity
  8
F-4ﾚｲﾔ
  6
Continuous
 62
     2
370
     9
100
AcDbText
 10
-282.0496760477324
 20
-1196.543403335432
 30
0.0
 40
30.48
  1
溶接用アンカ－ ＠３００
 41
1.114130434782609
  7
ＭＳ ゴシック
100
AcDbText
  0
TEXT
  5
C5
330
1F
100
AcDbEntity
  8
F-4ﾚｲﾔ
  6
Continuous
 62
     2
370
     9
100
AcDbText
 10
-280.6254124286449
 20
-1257.545732568962
 30
0.0
 40
30.48
  1
ｔ＝２．３（ＳＰＨＣ）
 41
1.113636363636364
  7
ＭＳ ゴシック
100
AcDbText
  0
LINE
  5
C6
330
1F
100
AcDbEntity
  8
F-2ﾚｲﾔ
  6
Continuous
 62
     3
370
     9
100
AcDbLine
 10
-575.4880668310927
 20
-987.7763190572756
 30
0.0
 11
-589.4882119957886
 21
-987.7763190572756
 31
0.0
  0
LINE
  5
C7
330
1F
100
AcDbEntity
  8
F-2ﾚｲﾔ
  6
Continuous
 62
     3
370
     9
100
AcDbLine
 10
-542.4889972048261
 20
-837.7765664970963
 30
0.0
 11
-622.4872816220563
 21
-837.7765664970963
 31
0.0
  0
LINE
  5
C8
330
1F
100
AcDbEntity
  8
F-2ﾚｲﾔ
  6
Continuous
 62
     3
370
     9
100
AcDbLine
 10
-555.4891153429442
 20
-918.7765664970962
 30
0.0
 11
-575.4880668310927
 21
-918.7765664970962
 31
0.0
  0
LINE
  5
C9
330
1F
100
AcDbEntity
  8
F-2ﾚｲﾔ
  6
Continuous
 62
     3
370
     9
100
AcDbLine
 10
-555.4889972048256
 20
-883.4210922330396
 30
0.0
 11
-575.4880668310927
 21
-883.4210922330396
 31
0.0
  0
LINE
  5
CA
330
1F
100
AcDbEntity
  8
F-2ﾚｲﾔ
  6
Continuous
 62
     3
370
     9
100
AcDbLine
 10
-555.4889972048256
 20
-954.1317703516944
 30
0.0
 11
-575.4880668310927
 21
-954.1317703516944
 31
0.0
  0
LINE
  5
CB
330
1F
100
AcDbEntity
  8
F-2ﾚｲﾔ
  6
Continuous
 62
     3
370
     9
100
AcDbLine
 10
-555.4889972048256
 20
-883.4210922330396
 30
0.0
 11
-555.4889972048256
 21
-954.1317703516944
 31
0.0
  0
LWPOLYLINE
  5
CC
330
1F
100
AcDbEntity
  8
F-4ﾚｲﾔ
  6
Continuous
 62
     7
370
     9
100
AcDbPolyline
 90
        4
 70
     1
 43
1.0
 10
-1691.836436600523
 20
-1087.776632062206
 42
0.4142135623731
 10
-1692.336436600523
 20
-1087.276632062206
 42
0.4142135623731
 10
-1692.836436600523
 20
-1087.776632062206
 42
0.4142135623731
 10
-1692.336436600523
 20
-1088.276632062206
 42
0.4142135623731
  0
LWPOLYLINE
  5
CD
330
1F
100
AcDbEntity
  8
F-4ﾚｲﾔ
  6
Continuous
 62
     7
370
     9
100
AcDbPolyline
 90
        4
 70
     1
 43
1.0
 10
-1611.836172664712
 20
-987.7767970220873
 42
0.4142135623731
 10
-1612.336172664712
 20
-987.2767970220873
 42
0.4142135623731
 10
-1612.836172664713
 20
-987.7767970220873
 42
0.4142135623731
 10
-1612.336172664712
 20
-988.2767970220873
 42
0.4142135623731
  0
LWPOLYLINE
  5
CE
330
1F
100
AcDbEntity
  8
F-4ﾚｲﾔ
  6
Continuous
 62
     7
370
     9
100
AcDbPolyline
 90
        4
 70
     1
 43
1.0
 10
-1611.836172664712
 20
-837.7767970220873
 42
0.4142135623731
 10
-1612.336172664712
 20
-837.2767970220873
 42
0.4142135623731
 10
-1612.836172664713
 20
-837.7767970220873
 42
0.4142135623731
 10
-1612.336172664712
 20
-838.2767970220873
 42
0.4142135623731
  0
LWPOLYLINE
  5
CF
330
1F
100
AcDbEntity
  8
F-4ﾚｲﾔ
  6
Continuous
 62
     7
370
     9
100
AcDbPolyline
 90
        4
 70
     1
 43
1.0
 10
-1691.836436600523
 20
-837.7767970220873
 42
0.4142135623731
 10
-1692.336436600523
 20
-837.2767970220873
 42
0.4142135623731
 10
-1692.836436600523
 20
-837.7767970220873
 42
0.4142135623731
 10
-1692.336436600523
 20
-838.2767970220873
 42
0.4142135623731
  0
LINE
  5
D0
330
1F
100
AcDbEntity
  8
F-1ﾚｲﾔ
  6
Continuous
 62
     2
370
     9
100
AcDbLine
 10
-1492.410503587432
 20
-818.083556418203
 30
0.0
 11
-1492.410503587432
 21
-1110.31592550604
 31
0.0
  0
LINE
  5
D1
330
1F
100
AcDbEntity
  8
F-4ﾚｲﾔ
  6
Continuous
 62
     7
370
     9
100
AcDbLine
 10
-1612.336172664712
 20
-987.7767970220873
 30
0.0
 11
-1612.336172664712
 21
-837.7767970220873
 31
0.0
  0
LINE
  5
D2
330
1F
100
AcDbEntity
  8
F-4ﾚｲﾔ
  6
Continuous
 62
     7
370
     9
100
AcDbLine
 10
-1515.649061970034
 20
-837.7767970220873
 30
0.0
 11
-1695.336397010151
 21
-837.7767970220873
 31
0.0
  0
LINE
  5
D3
330
1F
100
AcDbEntity
  8
F-4ﾚｲﾔ
  6
Continuous
 62
     7
370
     9
100
AcDbLine
 10
-1692.336436600523
 20
-1087.776632062206
 30
0.0
 11
-1692.336436600523
 21
-837.7767970220873
 31
0.0
  0
LINE
  5
D4
330
1F
100
AcDbEntity
  8
F-4ﾚｲﾔ
  6
Continuous
 62
     7
370
     9
100
AcDbLine
 10
-1515.649061970034
 20
-1087.776632062206
 30
0.0
 11
-1695.336397010151
 21
-1087.776632062206
 31
0.0
  0
TEXT
  5
D5
330
1F
100
AcDbEntity
  8
F-4ﾚｲﾔ
  6
Continuous
 62
     2
370
     9
100
AcDbText
 10
-1622.976436600523
 20
-934.0266815501707
 30
0.0
 40
30.48
  1
15
 50
90.0
 41
1.0625
  7
ＭＳ ゴシック
100
AcDbText
  0
TEXT
  5
D6
330
1F
100
AcDbEntity
  8
F-4ﾚｲﾔ
  6
Continuous
 62
     2
370
     9
100
AcDbText
 10
-1702.976205656689
 20
-984.0268465100519
 30
0.0
 40
30.48
  1
25
 50
90.0
 41
1.0625
  7
ＭＳ ゴシック
100
AcDbText
  0
LINE
  5
D7
330
1F
100
AcDbEntity
  8
F-4ﾚｲﾔ
  6
Continuous
 62
     7
370
     9
100
AcDbLine
 10
-1492.410503587432
 20
-678.7306445463696
 30
0.0
 11
-152.4887002770386
 21
-678.7306445463696
 31
0.0
  0
LINE
  5
D8
330
1F
100
AcDbEntity
  8
F-4ﾚｲﾔ
  6
Continuous
 62
     7
370
     9
100
AcDbLine
 10
-1380.888373366322
 20
-1237.480802367108
 30
0.0
 11
-1744.11023780889
 21
-1237.480802367108
 31
0.0
  0
TEXT
  5
D9
330
1F
100
AcDbEntity
  8
F-4ﾚｲﾔ
  6
Continuous
 62
     2
370
     9
100
AcDbText
 10
-1744.11023780889
 20
-1218.203403982395
 30
0.0
 40
30.48
  1
クロスバー：□5
 41
1.116666666666657
  7
ＭＳ ゴシック
100
AcDbText
  0
LINE
  5
DA
330
1F
100
AcDbEntity
  8
F-4ﾚｲﾔ
  6
Continuous
 62
     7
370
     9
100
AcDbLine
 10
-1304.964927948249
 20
-954.1317703516944
 30
0.0
 11
-1314.531941250613
 21
-977.2287931557486
 31
0.0
  0
LINE
  5
DB
330
1F
100
AcDbEntity
  8
F-4ﾚｲﾔ
  6
Continuous
 62
     7
370
     9
100
AcDbLine
 10
-1304.964927948249
 20
-954.1317703516944
 30
0.0
 11
-1308.228164329159
 21
-978.9178173850559
 31
0.0
  0
LINE
  5
DC
330
1F
100
AcDbEntity
  8
F-4ﾚｲﾔ
  6
Continuous
 62
     7
370
     9
100
AcDbLine
 10
-1304.964927948249
 20
-954.1317703516944
 30
0.0
 11
-1380.888373366322
 21
-1237.480802367108
 31
0.0
  0
LINE
  5
DD
330
1F
100
AcDbEntity
  8
F-1ﾚｲﾔ
  6
Continuous
 62
     2
370
     9
100
AcDbLine
 10
-447.4889312208741
 20
-1087.776632062206
 30
0.0
 11
-1492.410503587432
 21
-1087.776632062206
 31
0.0
  0
TEXT
  5
DE
330
1F
100
AcDbEntity
  8
F-4ﾚｲﾔ
  6
Continuous
 62
     2
370
     9
100
AcDbText
 10
-1109.001225123696
 20
-1396.33604020537
 30
0.0
 40
30.48
  1
注記：メインバーの両端部のピッチは
 41
1.117647058823529
  7
ＭＳ ゴシック
100
AcDbText
  0
TEXT
  5
DF
330
1F
100
AcDbEntity
  8
F-4ﾚｲﾔ
  6
Continuous
 62
     2
370
     9
100
AcDbText
 10
-974.0129425864441
 20
-1452.421823318109
 30
0.0
 40
30.48
  1
玄関マットの大きさにより狭くなる場合があります。
 41
1.119791666666667
  7
ＭＳ ゴシック
100
AcDbText
  0
LINE
  5
E0
330
1F
100
AcDbEntity
  8
E-1
  6
Continuous
 62
     2
370
     9
100
AcDbLine
 10
-1557.030599297723
 20
483.581617718489
 30
0.0
 11
-1557.030599297723
 21
543.5813207907026
 31
0.0
  0
LINE
  5
E1
330
1F
100
AcDbEntity
  8
E-1
  6
Continuous
 62
     2
370
     9
100
AcDbLine
 10
-1576.430376271962
 20
533.5812877987255
 30
0.0
 11
-1557.030599297723
 21
533.5812877987255
 31
0.0
  0
LINE
  5
E2
330
1F
100
AcDbEntity
  8
E-1
  6
Continuous
 62
     2
370
     9
100
AcDbLine
 10
-452.430528035053
 20
523.5815022465724
 30
0.0
 11
-457.0304343378405
 21
523.5815022465724
 31
0.0
  0
LINE
  5
E3
330
1F
100
AcDbEntity
  8
E-1
  6
Continuous
 62
     2
370
     9
100
AcDbLine
 10
-452.430528035053
 20
543.5813207907026
 30
0.0
 11
-452.430528035053
 21
483.581617718489
 31
0.0
  0
LINE
  5
E4
330
1F
100
AcDbEntity
  8
E-1
  6
Continuous
 62
     2
370
     9
100
AcDbLine
 10
-452.430528035053
 20
483.581617718489
 30
0.0
 11
-476.43021131208
 21
483.581617718489
 31
0.0
  0
LINE
  5
E5
330
1F
100
AcDbEntity
  8
E-1
  6
Continuous
 62
     2
370
     9
100
AcDbLine
 10
-482.4306270109821
 20
489.5815385377463
 30
0.0
 11
-482.4306270109821
 21
527.5813669794693
 31
0.0
  0
LINE
  5
E6
330
1F
100
AcDbEntity
  8
E-1
  6
Continuous
 62
     2
370
     9
100
AcDbLine
 10
-476.43021131208
 20
533.5812877987255
 30
0.0
 11
-457.0304343378405
 21
533.5812877987255
 31
0.0
  0
LINE
  5
E7
330
1F
100
AcDbEntity
  8
E-1
  6
Continuous
 62
     2
370
     9
100
AcDbLine
 10
-457.0304343378405
 20
483.581617718489
 30
0.0
 11
-457.0304343378405
 21
543.5813207907026
 31
0.0
  0
LINE
  5
E8
330
1F
100
AcDbEntity
  8
E-1
  6
Continuous
 62
     2
370
     9
100
AcDbLine
 10
-1826.430458751904
 20
559.5812746019349
 30
0.0
 11
-1842.430660002959
 21
543.5813207907026
 31
0.0
  0
LINE
  5
E9
330
1F
100
AcDbEntity
  8
E-1
  6
Continuous
 62
     2
370
     9
100
AcDbLine
 10
-158.4304488543115
 20
559.5812746019349
 30
0.0
 11
-142.4304950430782
 21
543.5813207907026
 31
0.0
  0
LINE
  5
EA
330
1F
100
AcDbEntity
  8
E-1
  6
Continuous
 62
     2
370
     9
100
AcDbLine
 10
-1582.430544531043
 20
489.5815385377463
 30
0.0
 11
-1582.430544531043
 21
527.5813669794693
 31
0.0
  0
LINE
  5
EB
330
1F
100
AcDbEntity
  8
E-1
  6
JWW_CENTER1
 62
     2
370
     9
100
AcDbLine
 10
-442.4304950430781
 20
528.4954096842839
 30
0.0
 11
-442.4304950430781
 21
553.1508084912932
 31
0.0
  0
LINE
  5
EC
330
1F
100
AcDbEntity
  8
E-1
  6
Continuous
 62
     2
370
     9
100
AcDbLine
 10
-82.43054453104037
 20
828.9813814959391
 30
0.0
 11
-142.4304950430782
 21
828.9813814959391
 31
0.0
  0
LINE
  5
ED
330
1F
100
AcDbEntity
  8
E-1
  6
Continuous
 62
     2
370
     9
100
AcDbLine
 10
-132.430462051101
 20
809.5813570818766
 30
0.0
 11
-132.430462051101
 21
828.9813814959391
 31
0.0
  0
LINE
  5
EE
330
1F
100
AcDbEntity
  8
E-1
  6
Continuous
 62
     2
370
     9
100
AcDbLine
 10
-88.43046535029885
 20
803.5814362626193
 30
0.0
 11
-126.4305412318448
 21
803.5814362626193
 31
0.0
  0
LINE
  5
EF
330
1F
100
AcDbEntity
  8
E-1
  6
Continuous
 62
     2
370
     9
100
AcDbLine
 10
-82.43054453104037
 20
833.581411518637
 30
0.0
 11
-82.43054453104037
 21
809.5813570818766
 31
0.0
  0
LINE
  5
F0
330
1F
100
AcDbEntity
  8
E-1
  6
Continuous
 62
     2
370
     9
100
AcDbLine
 10
-142.4304950430782
 20
833.581411518637
 30
0.0
 11
-82.43054453104037
 21
833.581411518637
 31
0.0
  0
LINE
  5
F1
330
1F
100
AcDbEntity
  8
E-1
  6
JWW_CENTER1
 62
     2
370
     9
100
AcDbLine
 10
-125.8084775177407
 20
843.5814445106141
 30
0.0
 11
-155.3978263880948
 21
843.5814445106141
 31
0.0
  0
LINE
  5
F2
330
1F
100
AcDbEntity
  8
E-1
  6
Continuous
 62
     2
370
     9
100
AcDbLine
 10
-122.4304290591239
 20
833.581411518637
 30
0.0
 11
-122.4304290591239
 21
828.9813814959391
 31
0.0
  0
LINE
  5
F3
330
1F
100
AcDbEntity
  8
E-1
  6
Continuous
 62
     2
370
     9
100
AcDbLine
 10
-1552.430445555113
 20
483.581617718489
 30
0.0
 11
-1576.430376271962
 21
483.581617718489
 31
0.0
  0
LINE
  5
F4
330
1F
100
AcDbEntity
  8
E-1
  6
Continuous
 62
     2
370
     9
100
AcDbLine
 10
-1552.430445555113
 20
543.5813207907026
 30
0.0
 11
-1552.430445555113
 21
483.581617718489
 31
0.0
  0
LINE
  5
F5
330
1F
100
AcDbEntity
  8
E-1
  6
Continuous
 62
     2
370
     9
100
AcDbLine
 10
-1552.430445555113
 20
523.5815022465724
 30
0.0
 11
-1557.030599297723
 21
523.5815022465724
 31
0.0
  0
LINE
  5
F6
330
1F
100
AcDbEntity
  8
E-1
  6
JWW_CENTER1
 62
     2
370
     9
100
AcDbLine
 10
-1542.430412563136
 20
532.667245093912
 30
0.0
 11
-1542.430412563136
 21
553.0973614896047
 31
0.0
  0
ARC
  5
F7
330
1F
100
AcDbEntity
  8
E-1
  6
Continuous
 62
     2
370
     9
100
AcDbCircle
 10
-1576.430376271962
 20
527.5813669794693
 30
0.0
 40
5.999999594044042
100
AcDbArc
 50
90.0
 51
180.0
  0
ARC
  5
F8
330
1F
100
AcDbEntity
  8
E-1
  6
Continuous
 62
     2
370
     9
100
AcDbCircle
 10
-1576.430376271962
 20
489.5815385377463
 30
0.0
 40
5.999999594044042
100
AcDbArc
 50
180.0
 51
270.0
  0
ARC
  5
F9
330
1F
100
AcDbEntity
  8
E-1
  6
Continuous
 62
     2
370
     9
100
AcDbCircle
 10
-476.43021131208
 20
489.5815385377463
 30
0.0
 40
5.999999594044042
100
AcDbArc
 50
180.0
 51
270.0
  0
ARC
  5
FA
330
1F
100
AcDbEntity
  8
E-1
  6
Continuous
 62
     2
370
     9
100
AcDbCircle
 10
-476.43021131208
 20
527.5813669794693
 30
0.0
 40
5.999999594044042
100
AcDbArc
 50
90.0
 51
180.0
  0
ARC
  5
FB
330
1F
100
AcDbEntity
  8
E-1
  6
Continuous
 62
     2
370
     9
100
AcDbCircle
 10
-126.4305412318448
 20
809.5813570818766
 30
0.0
 40
5.999999594044042
100
AcDbArc
 50
180.0
 51
270.0
  0
ARC
  5
FC
330
1F
100
AcDbEntity
  8
E-1
  6
Continuous
 62
     2
370
     9
100
AcDbCircle
 10
-88.43046535029885
 20
809.5813570818766
 30
0.0
 40
5.999999594044042
100
AcDbArc
 50
270.0
 51
0.0
  0
LWPOLYLINE
  5
FD
330
1F
100
AcDbEntity
  8
E-4
  6
Continuous
 62
     7
370
     9
100
AcDbPolyline
 90
        4
 70
     1
 43
1.0
 10
58.06950495692195
 20
563.5812746019358
 42
0.4142135623731
 10
57.56950495692195
 20
564.0812746019357
 42
0.4142135623731
 10
57.06950495692195
 20
563.5812746019358
 42
0.4142135623731
 10
57.56950495692195
 20
563.0812746019358
 42
0.4142135623731
  0
LINE
  5
FE
330
1F
100
AcDbEntity
  8
E-4
  6
Continuous
 62
     7
370
     9
100
AcDbLine
 10
57.56950495692195
 20
563.5812746019358
 30
0.0
 11
57.56950495692195
 21
559.5812746019349
 31
0.0
  0
LWPOLYLINE
  5
FF
330
1F
100
AcDbEntity
  8
E-4
  6
Continuous
 62
     7
370
     9
100
AcDbPolyline
 90
        4
 70
     1
 43
1.0
 10
58.06950495692195
 20
559.5812746019349
 42
0.4142135623731
 10
57.56950495692195
 20
560.0812746019348
 42
0.4142135623731
 10
57.06950495692195
 20
559.5812746019349
 42
0.4142135623731
 10
57.56950495692195
 20
559.0812746019349
 42
0.4142135623731
  0
LINE
  5
100
330
1F
100
AcDbEntity
  8
E-4
  6
Continuous
 62
     7
370
     9
100
AcDbLine
 10
60.56950495692377
 20
559.5812746019349
 30
0.0
 11
-138.4304488543115
 21
559.5812746019349
 31
0.0
  0
LINE
  5
101
330
1F
100
AcDbEntity
  8
E-4
  6
Continuous
 62
     7
370
     9
100
AcDbLine
 10
57.56950495692195
 20
559.5812746019349
 30
0.0
 11
57.56950495692195
 21
543.5813249168118
 31
0.0
  0
LWPOLYLINE
  5
102
330
1F
100
AcDbEntity
  8
E-4
  6
Continuous
 62
     7
370
     9
100
AcDbPolyline
 90
        4
 70
     1
 43
1.0
 10
58.06950495692195
 20
543.5813249168118
 42
0.4142135623731
 10
57.56950495692195
 20
544.0813249168117
 42
0.4142135623731
 10
57.06950495692195
 20
543.5813249168118
 42
0.4142135623731
 10
57.56950495692195
 20
543.0813249168118
 42
0.4142135623731
  0
LWPOLYLINE
  5
103
330
1F
100
AcDbEntity
  8
E-4
  6
Continuous
 62
     7
370
     9
100
AcDbPolyline
 90
        4
 70
     1
 43
1.0
 10
198.0695049569219
 20
543.5813207907026
 42
0.4142135623731
 10
197.5695049569219
 20
544.0813207907025
 42
0.4142135623731
 10
197.0695049569219
 20
543.5813207907026
 42
0.4142135623731
 10
197.5695049569219
 20
543.0813207907026
 42
0.4142135623731
  0
LINE
  5
104
330
1F
100
AcDbEntity
  8
E-4
  6
Continuous
 62
     7
370
     9
100
AcDbLine
 10
200.5695049569238
 20
543.5813207907026
 30
0.0
 11
-122.4304950430782
 21
543.5813207907026
 31
0.0
  0
TEXT
  5
105
330
1F
100
AcDbEntity
  8
E-4
  6
Continuous
 62
     2
370
   211
100
AcDbText
 10
45.92950495692286
 20
571.8041239936597
 30
0.0
 40
30.48
  1
2
 50
90.0
 41
0.9999999999999998
  7
ＭＳ ゴシック
100
AcDbText
  0
TEXT
  5
106
330
1F
100
AcDbEntity
  8
E-4
  6
Continuous
 62
     2
370
   211
100
AcDbText
 10
45.92950495692286
 20
514.0982367004708
 30
0.0
 40
30.48
  1
8
 50
90.0
 41
0.9999999999999998
  7
ＭＳ ゴシック
100
AcDbText
  0
TEXT
  5
107
330
1F
100
AcDbEntity
  8
E-4
  6
Continuous
 62
     2
370
   211
100
AcDbText
 10
-213.68044885431
 20
226.7216541410448
 30
0.0
 40
30.48
  1
30
 41
1.0625
  7
ＭＳ ゴシック
100
AcDbText
  0
LWPOLYLINE
  5
108
330
1F
100
AcDbEntity
  8
E-4
  6
Continuous
 62
     7
370
     9
100
AcDbPolyline
 90
        4
 70
     1
 43
1.0
 10
-161.9304488543102
 20
215.0816541410458
 42
0.4142135623731
 10
-162.4304488543102
 20
215.5816541410458
 42
0.4142135623731
 10
-162.9304488543102
 20
215.0816541410458
 42
0.4142135623731
 10
-162.4304488543102
 20
214.5816541410457
 42
0.4142135623731
  0
LINE
  5
109
330
1F
100
AcDbEntity
  8
E-4
  6
Continuous
 62
     7
370
     9
100
AcDbLine
 10
-222.4304488543102
 20
215.0816541410458
 30
0.0
 11
-162.4304488543102
 21
215.0816541410458
 31
0.0
  0
LWPOLYLINE
  5
10A
330
1F
100
AcDbEntity
  8
E-4
  6
Continuous
 62
     7
370
     9
100
AcDbPolyline
 90
        4
 70
     1
 43
1.0
 10
-221.9304488543102
 20
215.0816541410458
 42
0.4142135623731
 10
-222.4304488543102
 20
215.5816541410458
 42
0.4142135623731
 10
-222.9304488543102
 20
215.0816541410458
 42
0.4142135623731
 10
-222.4304488543102
 20
214.5816541410457
 42
0.4142135623731
  0
TEXT
  5
10B
330
1F
100
AcDbEntity
  8
E-4
  6
Continuous
 62
     2
370
   211
100
AcDbText
 10
-1813.680458751904
 20
226.7216541410448
 30
0.0
 40
30.48
  1
30
 41
1.0625
  7
ＭＳ ゴシック
100
AcDbText
  0
LWPOLYLINE
  5
10C
330
1F
100
AcDbEntity
  8
E-4
  6
Continuous
 62
     7
370
     9
100
AcDbPolyline
 90
        4
 70
     1
 43
1.0
 10
-1761.930458751904
 20
215.0816541410458
 42
0.4142135623731
 10
-1762.430458751904
 20
215.5816541410458
 42
0.4142135623731
 10
-1762.930458751905
 20
215.0816541410458
 42
0.4142135623731
 10
-1762.430458751904
 20
214.5816541410457
 42
0.4142135623731
  0
LWPOLYLINE
  5
10D
330
1F
100
AcDbEntity
  8
E-4
  6
Continuous
 62
     7
370
     9
100
AcDbPolyline
 90
        4
 70
     1
 43
1.0
 10
-1821.930458751904
 20
215.0816541410458
 42
0.4142135623731
 10
-1822.430458751904
 20
215.5816541410458
 42
0.4142135623731
 10
-1822.930458751905
 20
215.0816541410458
 42
0.4142135623731
 10
-1822.430458751904
 20
214.5816541410457
 42
0.4142135623731
  0
LINE
  5
10E
330
1F
100
AcDbEntity
  8
E-4
  6
Continuous
 62
     7
370
     9
100
AcDbLine
 10
-1822.430458751904
 20
215.0816541410458
 30
0.0
 11
-1762.430458751904
 21
215.0816541410458
 31
0.0
  0
TEXT
  5
10F
330
1F
100
AcDbEntity
  8
E-4
  6
Continuous
 62
     2
370
   211
100
AcDbText
 10
-191.0022213432114
 20
75.22132079070154
 30
0.0
 40
30.48
  1
2
 41
0.9999999999999998
  7
ＭＳ ゴシック
100
AcDbText
  0
TEXT
  5
110
330
1F
100
AcDbEntity
  8
E-4
  6
Continuous
 62
     2
370
   211
100
AcDbText
 10
-125.9648483693297
 20
75.22132079070154
 30
0.0
 40
30.48
  1
8
 41
0.9999999999999998
  7
ＭＳ ゴシック
100
AcDbText
  0
LINE
  5
111
330
1F
100
AcDbEntity
  8
E-4
  6
Continuous
 62
     7
370
     9
100
AcDbLine
 10
-1887.100650838469
 20
63.58132079070259
 30
0.0
 11
-94.76857726829735
 21
63.58132079070259
 31
0.0
  0
TEXT
  5
112
330
1F
100
AcDbEntity
  8
E-4
  6
Continuous
 62
     2
370
   211
100
AcDbText
 10
-1814.798811584249
 20
75.22132079070154
 30
0.0
 40
30.48
  1
2
 41
0.9999999999999998
  7
ＭＳ ゴシック
100
AcDbText
  0
TEXT
  5
113
330
1F
100
AcDbEntity
  8
E-4
  6
Continuous
 62
     2
370
   211
100
AcDbText
 10
-1879.717934789086
 20
75.22132079070154
 30
0.0
 40
30.48
  1
8
 41
0.9999999999999998
  7
ＭＳ ゴシック
100
AcDbText
  0
LINE
  5
114
330
1F
100
AcDbEntity
  8
E-4
  6
Continuous
 62
     7
370
     9
100
AcDbLine
 10
-142.4304950430782
 20
-79.41867920929823
 30
0.0
 11
-142.4304950430782
 21
523.5813207907026
 31
0.0
  0
LINE
  5
115
330
1F
100
AcDbEntity
  8
E-4
  6
Continuous
 62
     7
370
     9
100
AcDbLine
 10
-1842.430660002959
 20
-79.41867920929823
 30
0.0
 11
-1842.430660002959
 21
523.5813207907026
 31
0.0
  0
LWPOLYLINE
  5
116
330
1F
100
AcDbEntity
  8
E-4
  6
Continuous
 62
     7
370
     9
100
AcDbPolyline
 90
        4
 70
     1
 43
1.0
 10
-141.9304950430782
 20
-76.41867920929755
 42
0.4142135623731
 10
-142.4304950430782
 20
-75.91867920929755
 42
0.4142135623731
 10
-142.9304950430782
 20
-76.41867920929755
 42
0.4142135623731
 10
-142.4304950430782
 20
-76.91867920929755
 42
0.4142135623731
  0
LWPOLYLINE
  5
117
330
1F
100
AcDbEntity
  8
E-4
  6
Continuous
 62
     7
370
     9
100
AcDbPolyline
 90
        4
 70
     1
 43
1.0
 10
-1841.930660002959
 20
-76.41867920929755
 42
0.4142135623731
 10
-1842.430660002959
 20
-75.91867920929755
 42
0.4142135623731
 10
-1842.930660002959
 20
-76.41867920929755
 42
0.4142135623731
 10
-1842.430660002959
 20
-76.91867920929755
 42
0.4142135623731
  0
LINE
  5
118
330
1F
100
AcDbEntity
  8
E-4
  6
Continuous
 62
     7
370
     9
100
AcDbLine
 10
-1842.430660002959
 20
-76.41867920929755
 30
0.0
 11
-142.4304950430782
 21
-76.41867920929755
 31
0.0
  0
LWPOLYLINE
  5
119
330
1F
100
AcDbEntity
  8
E-4
  6
Continuous
 62
     7
370
     9
100
AcDbPolyline
 90
        4
 70
     1
 43
1.0
 10
-141.9304950430782
 20
63.58132079070259
 42
0.4142135623731
 10
-142.4304950430782
 20
64.08132079070259
 42
0.4142135623731
 10
-142.9304950430782
 20
63.58132079070259
 42
0.4142135623731
 10
-142.4304950430782
 20
63.08132079070259
 42
0.4142135623731
  0
LINE
  5
11A
330
1F
100
AcDbEntity
  8
E-4
  6
Continuous
 62
     7
370
     9
100
AcDbLine
 10
-158.4304488543115
 20
63.58132079070259
 30
0.0
 11
-142.4304950430782
 21
63.58132079070259
 31
0.0
  0
LINE
  5
11B
330
1F
100
AcDbEntity
  8
E-4
  6
Continuous
 62
     7
370
     9
100
AcDbLine
 10
-158.4304488543115
 20
60.58132079070191
 30
0.0
 11
-158.4304488543115
 21
539.5812746019349
 31
0.0
  0
LWPOLYLINE
  5
11C
330
1F
100
AcDbEntity
  8
E-4
  6
Continuous
 62
     7
370
     9
100
AcDbPolyline
 90
        4
 70
     1
 43
1.0
 10
-157.9304488543115
 20
63.58132079070259
 42
0.4142135623731
 10
-158.4304488543115
 20
64.08132079070259
 42
0.4142135623731
 10
-158.9304488543115
 20
63.58132079070259
 42
0.4142135623731
 10
-158.4304488543115
 20
63.08132079070259
 42
0.4142135623731
  0
LINE
  5
11D
330
1F
100
AcDbEntity
  8
E-4
  6
Continuous
 62
     7
370
     9
100
AcDbLine
 10
-162.4304488543102
 20
63.58132079070259
 30
0.0
 11
-158.4304488543115
 21
63.58132079070259
 31
0.0
  0
LWPOLYLINE
  5
11E
330
1F
100
AcDbEntity
  8
E-4
  6
Continuous
 62
     7
370
     9
100
AcDbPolyline
 90
        4
 70
     1
 43
1.0
 10
-161.9304488543102
 20
63.58132079070259
 42
0.4142135623731
 10
-162.4304488543102
 20
64.08132079070259
 42
0.4142135623731
 10
-162.9304488543102
 20
63.58132079070259
 42
0.4142135623731
 10
-162.4304488543102
 20
63.08132079070259
 42
0.4142135623731
  0
LWPOLYLINE
  5
11F
330
1F
100
AcDbEntity
  8
E-4
  6
Continuous
 62
     7
370
     9
100
AcDbPolyline
 90
        4
 70
     1
 43
1.0
 10
-1821.930458751904
 20
63.58132079070259
 42
0.4142135623731
 10
-1822.430458751904
 20
64.08132079070259
 42
0.4142135623731
 10
-1822.930458751905
 20
63.58132079070259
 42
0.4142135623731
 10
-1822.430458751904
 20
63.08132079070259
 42
0.4142135623731
  0
LINE
  5
120
330
1F
100
AcDbEntity
  8
E-4
  6
Continuous
 62
     7
370
     9
100
AcDbLine
 10
-1826.430458751904
 20
63.58132079070259
 30
0.0
 11
-1822.430458751904
 21
63.58132079070259
 31
0.0
  0
LINE
  5
121
330
1F
100
AcDbEntity
  8
E-4
  6
Continuous
 62
     7
370
     9
100
AcDbLine
 10
-1826.430458751904
 20
60.58132079070191
 30
0.0
 11
-1826.430458751904
 21
539.5812746019349
 31
0.0
  0
LWPOLYLINE
  5
122
330
1F
100
AcDbEntity
  8
E-4
  6
Continuous
 62
     7
370
     9
100
AcDbPolyline
 90
        4
 70
     1
 43
1.0
 10
-1825.930458751904
 20
63.58132079070259
 42
0.4142135623731
 10
-1826.430458751904
 20
64.08132079070259
 42
0.4142135623731
 10
-1826.930458751904
 20
63.58132079070259
 42
0.4142135623731
 10
-1826.430458751904
 20
63.08132079070259
 42
0.4142135623731
  0
LWPOLYLINE
  5
123
330
1F
100
AcDbEntity
  8
E-4
  6
Continuous
 62
     7
370
     9
100
AcDbPolyline
 90
        4
 70
     1
 43
1.0
 10
-1841.930660002959
 20
63.58132079070259
 42
0.4142135623731
 10
-1842.430660002959
 20
64.08132079070259
 42
0.4142135623731
 10
-1842.930660002959
 20
63.58132079070259
 42
0.4142135623731
 10
-1842.430660002959
 20
63.08132079070259
 42
0.4142135623731
  0
LINE
  5
124
330
1F
100
AcDbEntity
  8
E-4
  6
Continuous
 62
     7
370
     9
100
AcDbLine
 10
-1842.430660002959
 20
63.58132079070259
 30
0.0
 11
-1826.430458751904
 21
63.58132079070259
 31
0.0
  0
TEXT
  5
125
330
1F
100
AcDbEntity
  8
E-4
  6
Continuous
 62
     2
370
     9
100
AcDbText
 10
-1237.43064350697
 20
-205.9013615005825
 30
0.0
 40
30.48
  1
平面詳細図　Ｓ＝１：５
 41
1.113636382381803
  7
ＭＳ ゴシック
100
AcDbText
  0
LINE
  5
126
330
1F
100
AcDbEntity
  8
E-A
  6
Continuous
 62
     3
370
     9
100
AcDbLine
 10
-1822.430458751904
 20
563.5812746019344
 30
0.0
 11
-1822.430458751904
 21
579.5812284131678
 31
0.0
  0
LINE
  5
127
330
1F
100
AcDbEntity
  8
E-A
  6
Continuous
 62
     3
370
     9
100
AcDbLine
 10
-162.4304488543102
 20
579.5812284131678
 30
0.0
 11
-162.4304488543102
 21
563.5812746019344
 31
0.0
  0
LINE
  5
128
330
1F
100
AcDbEntity
  8
E-A
  6
Continuous
 62
     3
370
     9
100
AcDbLine
 10
-1822.430458751904
 20
563.5812746019355
 30
0.0
 11
-1822.430458751904
 21
579.5812284131689
 31
0.0
  0
LINE
  5
129
330
1F
100
AcDbEntity
  8
E-A
  6
Continuous
 62
     3
370
     9
100
AcDbLine
 10
-162.4304488543102
 20
579.5812284131689
 30
0.0
 11
-162.4304488543102
 21
563.5812746019355
 31
0.0
  0
LINE
  5
12A
330
1F
100
AcDbEntity
  8
E-A
  6
Continuous
 62
     3
370
     9
100
AcDbLine
 10
-1822.430458751904
 20
563.5812746019344
 30
0.0
 11
-1822.430458751904
 21
579.5812284131678
 31
0.0
  0
LINE
  5
12B
330
1F
100
AcDbEntity
  8
E-A
  6
Continuous
 62
     3
370
     9
100
AcDbLine
 10
-162.4304488543102
 20
579.5812284131678
 30
0.0
 11
-162.4304488543102
 21
563.5812746019344
 31
0.0
  0
LINE
  5
12C
330
1F
100
AcDbEntity
  8
E-A
  6
Continuous
 62
     3
370
     9
100
AcDbLine
 10
-162.4304488543102
 20
579.5812284131691
 30
0.0
 11
-162.4304488543102
 21
563.5812746019358
 31
0.0
  0
LINE
  5
12D
330
1F
100
AcDbEntity
  8
E-A
  6
Continuous
 62
     3
370
     9
100
AcDbLine
 10
-563.3002592164315
 20
579.5812284131691
 30
0.0
 11
-162.4304488543102
 21
579.5812284131691
 31
0.0
  0
LINE
  5
12E
330
1F
100
AcDbEntity
  8
E-A
  6
Continuous
 62
     3
370
     9
100
AcDbLine
 10
-563.3002592164315
 20
563.5812746019358
 30
0.0
 11
-162.4304488543102
 21
563.5812746019358
 31
0.0
  0
LINE
  5
12F
330
1F
100
AcDbEntity
  8
E-1
  6
Continuous
 62
     2
370
     9
100
AcDbLine
 10
-122.4304290591239
 20
833.5815352385486
 30
0.0
 11
-122.4304290591239
 21
828.9813814959392
 31
0.0
  0
LINE
  5
130
330
1F
100
AcDbEntity
  8
E-1
  6
Continuous
 62
     2
370
     9
100
AcDbLine
 10
-142.4304950430782
 20
833.5815352385486
 30
0.0
 11
-82.43054453104037
 21
833.5815352385486
 31
0.0
  0
LINE
  5
131
330
1F
100
AcDbEntity
  8
E-1
  6
JWW_CENTER1
 62
     2
370
     9
100
AcDbLine
 10
-125.7555253956947
 20
843.5815682305257
 30
0.0
 11
-151.6407001212032
 21
843.5815682305257
 31
0.0
  0
LINE
  5
132
330
1F
100
AcDbEntity
  8
E-1
  6
Continuous
 62
     2
370
     9
100
AcDbLine
 10
-82.43054453104037
 20
833.5815352385486
 30
0.0
 11
-82.43054453104037
 21
809.5813570818767
 31
0.0
  0
LINE
  5
133
330
1F
100
AcDbEntity
  8
E-1
  6
Continuous
 62
     2
370
     9
100
AcDbLine
 10
-88.43046535029885
 20
803.5814362626205
 30
0.0
 11
-126.4305412318448
 21
803.5814362626205
 31
0.0
  0
LINE
  5
134
330
1F
100
AcDbEntity
  8
E-1
  6
Continuous
 62
     2
370
     9
100
AcDbLine
 10
-132.430462051101
 20
809.5813570818767
 30
0.0
 11
-132.430462051101
 21
828.9813814959392
 31
0.0
  0
LINE
  5
135
330
1F
100
AcDbEntity
  8
E-1
  6
Continuous
 62
     2
370
     9
100
AcDbLine
 10
-82.43054453104037
 20
828.9813814959392
 30
0.0
 11
-142.4304950430782
 21
828.9813814959392
 31
0.0
  0
ARC
  5
136
330
1F
100
AcDbEntity
  8
E-1
  6
Continuous
 62
     2
370
     9
100
AcDbCircle
 10
-88.43046535029885
 20
809.5813570818767
 30
0.0
 40
5.999999594044042
100
AcDbArc
 50
270.0
 51
0.0
  0
ARC
  5
137
330
1F
100
AcDbEntity
  8
E-1
  6
Continuous
 62
     2
370
     9
100
AcDbCircle
 10
-126.4305412318448
 20
809.5813570818767
 30
0.0
 40
5.999999594044042
100
AcDbArc
 50
180.0
 51
270.0
  0
LINE
  5
138
330
1F
100
AcDbEntity
  8
E-4
  6
Continuous
 62
     7
370
     9
100
AcDbLine
 10
-1762.430458751904
 20
212.0816541410451
 30
0.0
 11
-1762.430458751904
 21
523.5813207907026
 31
0.0
  0
LINE
  5
139
330
1F
100
AcDbEntity
  8
E-4
  6
Continuous
 62
     7
370
     9
100
AcDbLine
 10
-222.4304488543102
 20
212.0816541410451
 30
0.0
 11
-222.4304488543102
 21
523.5813207907026
 31
0.0
  0
LWPOLYLINE
  5
13A
330
1F
100
AcDbEntity
  8
E-4
  6
Continuous
 62
     7
370
     9
100
AcDbPolyline
 90
        4
 70
     1
 43
1.0
 10
-1761.930458751904
 20
215.0816541410458
 42
0.4142135623731
 10
-1762.430458751904
 20
215.5816541410458
 42
0.4142135623731
 10
-1762.930458751905
 20
215.0816541410458
 42
0.4142135623731
 10
-1762.430458751904
 20
214.5816541410457
 42
0.4142135623731
  0
LINE
  5
13B
330
1F
100
AcDbEntity
  8
E-1
  6
Continuous
 62
     2
370
     9
100
AcDbLine
 10
-427.8305557483134
 20
1710.452681601919
 30
0.0
 11
-427.8305557483134
 21
1650.452731089884
 31
0.0
  0
LINE
  5
13C
330
1F
100
AcDbEntity
  8
E-1
  6
Continuous
 62
     2
370
     9
100
AcDbLine
 10
-408.430283894428
 20
1660.45276408186
 30
0.0
 11
-427.8305557483134
 21
1660.45276408186
 31
0.0
  0
LINE
  5
13D
330
1F
100
AcDbEntity
  8
E-1
  6
Continuous
 62
     2
370
     9
100
AcDbLine
 10
-402.4303630751718
 20
1704.452760782662
 30
0.0
 11
-402.4303630751718
 21
1666.452684901116
 31
0.0
  0
LINE
  5
13E
330
1F
100
AcDbEntity
  8
E-1
  6
Continuous
 62
     2
370
     9
100
AcDbLine
 10
-1532.430627010983
 20
1670.452797073836
 30
0.0
 11
-1527.830473268373
 21
1670.452797073836
 31
0.0
  0
LINE
  5
13F
330
1F
100
AcDbEntity
  8
E-1
  6
Continuous
 62
     2
370
     9
100
AcDbLine
 10
-1532.430627010983
 20
1650.452731089884
 30
0.0
 11
-1532.430627010983
 21
1710.452681601919
 31
0.0
  0
LINE
  5
140
330
1F
100
AcDbEntity
  8
E-1
  6
Continuous
 62
     2
370
     9
100
AcDbLine
 10
-1532.430627010983
 20
1710.452681601919
 30
0.0
 11
-1508.430448854309
 21
1710.452681601919
 31
0.0
  0
LINE
  5
141
330
1F
100
AcDbEntity
  8
E-1
  6
Continuous
 62
     2
370
     9
100
AcDbLine
 10
-1502.43028059523
 20
1704.452760782662
 30
0.0
 11
-1502.43028059523
 21
1666.452684901116
 31
0.0
  0
LINE
  5
142
330
1F
100
AcDbEntity
  8
E-1
  6
Continuous
 62
     2
370
     9
100
AcDbLine
 10
-1842.430660002959
 20
1650.452731089884
 30
0.0
 11
-1826.430458751904
 21
1634.452777278651
 31
0.0
  0
LINE
  5
143
330
1F
100
AcDbEntity
  8
E-1
  6
Continuous
 62
     2
370
     9
100
AcDbLine
 10
-142.4304950430782
 20
1650.452731089884
 30
0.0
 11
-158.4304488543115
 21
1634.452777278651
 31
0.0
  0
LINE
  5
144
330
1F
100
AcDbEntity
  8
E-1
  6
Continuous
 62
     2
370
     9
100
AcDbLine
 10
-432.430462051101
 20
1710.452681601919
 30
0.0
 11
-408.430283894428
 21
1710.452681601919
 31
0.0
  0
LINE
  5
145
330
1F
100
AcDbEntity
  8
E-1
  6
JWW_CENTER1
 62
     2
370
     9
100
AcDbLine
 10
-442.4304950430781
 20
1673.961741198626
 30
0.0
 11
-442.4304950430781
 21
1639.592349834605
 31
0.0
  0
LINE
  5
146
330
1F
100
AcDbEntity
  8
E-1
  6
Continuous
 62
     2
370
     9
100
AcDbLine
 10
-432.430462051101
 20
1650.452731089884
 30
0.0
 11
-432.430462051101
 21
1710.452681601919
 31
0.0
  0
LINE
  5
147
330
1F
100
AcDbEntity
  8
E-1
  6
Continuous
 62
     2
370
     9
100
AcDbLine
 10
-432.430462051101
 20
1670.452797073836
 30
0.0
 11
-427.8305557483134
 21
1670.452797073836
 31
0.0
  0
LINE
  5
148
330
1F
100
AcDbEntity
  8
E-1
  6
Continuous
 62
     2
370
     9
100
AcDbLine
 10
-1508.430448854309
 20
1660.45276408186
 30
0.0
 11
-1527.830473268373
 21
1660.45276408186
 31
0.0
  0
LINE
  5
149
330
1F
100
AcDbEntity
  8
E-1
  6
JWW_CENTER1
 62
     2
370
     9
100
AcDbLine
 10
-1542.430412563136
 20
1666.667215227341
 30
0.0
 11
-1542.430412563136
 21
1642.559895627468
 31
0.0
  0
LINE
  5
14A
330
1F
100
AcDbEntity
  8
E-1
  6
Continuous
 62
     2
370
     9
100
AcDbLine
 10
-1527.830473268373
 20
1710.452681601919
 30
0.0
 11
-1527.830473268373
 21
1650.452731089884
 31
0.0
  0
LINE
  5
14B
330
1F
100
AcDbEntity
  8
E-4
  6
Continuous
 62
     7
370
     9
100
AcDbLine
 10
-669.8672824163885
 20
1470.452632113954
 30
0.0
 11
-669.8672824163885
 21
1712.678650246344
 31
0.0
  0
LINE
  5
14C
330
1F
100
AcDbEntity
  8
E-4
  6
Continuous
 62
     7
370
     9
100
AcDbLine
 10
-669.8672824163885
 20
1702.678617254368
 30
0.0
 11
-609.8670844645302
 21
1702.678617254368
 31
0.0
  0
LINE
  5
14D
330
1F
100
AcDbEntity
  8
E-4
  6
Continuous
 62
     7
370
     9
100
AcDbLine
 10
-669.8672824163885
 20
1702.678617254368
 30
0.0
 11
-645.080987943203
 21
1705.941853635281
 31
0.0
  0
LINE
  5
14E
330
1F
100
AcDbEntity
  8
E-4
  6
Continuous
 62
     7
370
     9
100
AcDbLine
 10
-669.8672824163885
 20
1702.678617254368
 30
0.0
 11
-645.080987943203
 21
1699.415380873456
 31
0.0
  0
ARC
  5
14F
330
1F
100
AcDbEntity
  8
E-1
  6
Continuous
 62
     2
370
     9
100
AcDbCircle
 10
-408.430283894428
 20
1666.452684901116
 30
0.0
 40
5.999999594044042
100
AcDbArc
 50
270.0
 51
0.0
  0
ARC
  5
150
330
1F
100
AcDbEntity
  8
E-1
  6
Continuous
 62
     2
370
     9
100
AcDbCircle
 10
-408.430283894428
 20
1704.452760782662
 30
0.0
 40
5.999999594044042
100
AcDbArc
 50
0.0
 51
90.0
  0
ARC
  5
151
330
1F
100
AcDbEntity
  8
E-1
  6
Continuous
 62
     2
370
     9
100
AcDbCircle
 10
-1508.430448854309
 20
1704.452760782662
 30
0.0
 40
5.999999594044042
100
AcDbArc
 50
0.0
 51
90.0
  0
ARC
  5
152
330
1F
100
AcDbEntity
  8
E-1
  6
Continuous
 62
     2
370
     9
100
AcDbCircle
 10
-1508.430448854309
 20
1666.452684901116
 30
0.0
 40
5.999999594044042
100
AcDbArc
 50
270.0
 51
0.0
  0
TEXT
  5
153
330
1F
100
AcDbEntity
  8
E-4
  6
Continuous
 62
     2
370
     9
100
AcDbText
 10
-643.1150785523677
 20
1718.177856987265
 30
0.0
 40
30.48
  1
Ａ
 41
1.000000206199843
  7
ＭＳ ゴシック
100
AcDbText
  0
LINE
  5
154
330
1F
100
AcDbEntity
  8
E-4
  6
Continuous
 62
     7
370
     9
100
AcDbLine
 10
57.56950495692195
 20
1650.452731089884
 30
0.0
 11
57.56950495692195
 21
1634.452777278651
 31
0.0
  0
LWPOLYLINE
  5
155
330
1F
100
AcDbEntity
  8
E-4
  6
Continuous
 62
     7
370
     9
100
AcDbPolyline
 90
        4
 70
     1
 43
1.0
 10
58.06950495692195
 20
1650.452731089884
 42
0.4142135623731
 10
57.56950495692195
 20
1650.952731089884
 42
0.4142135623731
 10
57.06950495692195
 20
1650.452731089884
 42
0.4142135623731
 10
57.56950495692195
 20
1649.952731089884
 42
0.4142135623731
  0
LWPOLYLINE
  5
156
330
1F
100
AcDbEntity
  8
E-4
  6
Continuous
 62
     7
370
     9
100
AcDbPolyline
 90
        4
 70
     1
 43
1.0
 10
58.06950495692195
 20
1634.452777278651
 42
0.4142135623731
 10
57.56950495692195
 20
1634.952777278651
 42
0.4142135623731
 10
57.06950495692195
 20
1634.452777278651
 42
0.4142135623731
 10
57.56950495692195
 20
1633.952777278651
 42
0.4142135623731
  0
LINE
  5
157
330
1F
100
AcDbEntity
  8
E-4
  6
Continuous
 62
     7
370
     9
100
AcDbLine
 10
60.56950495692377
 20
1634.452777278651
 30
0.0
 11
-138.4304488543115
 21
1634.452777278651
 31
0.0
  0
LINE
  5
158
330
1F
100
AcDbEntity
  8
E-4
  6
Continuous
 62
     7
370
     9
100
AcDbLine
 10
57.56950495692195
 20
1634.452777278651
 30
0.0
 11
57.56950495692195
 21
1630.45277727865
 31
0.0
  0
LWPOLYLINE
  5
159
330
1F
100
AcDbEntity
  8
E-4
  6
Continuous
 62
     7
370
     9
100
AcDbPolyline
 90
        4
 70
     1
 43
1.0
 10
58.06950495692195
 20
1630.45277727865
 42
0.4142135623731
 10
57.56950495692195
 20
1630.95277727865
 42
0.4142135623731
 10
57.06950495692195
 20
1630.45277727865
 42
0.4142135623731
 10
57.56950495692195
 20
1629.95277727865
 42
0.4142135623731
  0
LWPOLYLINE
  5
15A
330
1F
100
AcDbEntity
  8
E-4
  6
Continuous
 62
     7
370
     9
100
AcDbPolyline
 90
        4
 70
     1
 43
1.0
 10
198.0695049569219
 20
1650.452731089884
 42
0.4142135623731
 10
197.5695049569219
 20
1650.952731089884
 42
0.4142135623731
 10
197.0695049569219
 20
1650.452731089884
 42
0.4142135623731
 10
197.5695049569219
 20
1649.952731089884
 42
0.4142135623731
  0
LINE
  5
15B
330
1F
100
AcDbEntity
  8
E-4
  6
Continuous
 62
     7
370
     9
100
AcDbLine
 10
200.5695049569238
 20
1650.452731089884
 30
0.0
 11
-122.4304950430782
 21
1650.452731089884
 31
0.0
  0
TEXT
  5
15C
330
1F
100
AcDbEntity
  8
E-4
  6
Continuous
 62
     2
370
   211
100
AcDbText
 10
45.92950495692286
 20
1660.459783367673
 30
0.0
 40
30.48
  1
8
 50
90.0
 41
0.9999999999999998
  7
ＭＳ ゴシック
100
AcDbText
  0
TEXT
  5
15D
330
1F
100
AcDbEntity
  8
E-4
  6
Continuous
 62
     2
370
   211
100
AcDbText
 10
45.92950495692286
 20
1604.054643533962
 30
0.0
 40
30.48
  1
2
 50
90.0
 41
0.9999999999999998
  7
ＭＳ ゴシック
100
AcDbText
  0
LINE
  5
15E
330
1F
100
AcDbEntity
  8
E-A
  6
Continuous
 62
     3
370
     9
100
AcDbLine
 10
-1822.430458751904
 20
1614.452823467416
 30
0.0
 11
-1822.430458751904
 21
1630.45277727865
 31
0.0
  0
LINE
  5
15F
330
1F
100
AcDbEntity
  8
E-A
  6
Continuous
 62
     3
370
     9
100
AcDbLine
 10
-162.4304488543102
 20
1630.45277727865
 30
0.0
 11
-162.4304488543102
 21
1614.452823467416
 31
0.0
  0
LINE
  5
160
330
1F
100
AcDbEntity
  8
E-1
  6
JWW_CENTER1
 62
     2
370
     9
100
AcDbLine
 10
-1047.062105255786
 20
1424.795328157708
 30
0.0
 11
-1020.363219773441
 21
1717.268913745595
 31
0.0
  0
LINE
  5
161
330
1F
100
AcDbEntity
  8
E-1
  6
JWW_CENTER1
 62
     2
370
     9
100
AcDbLine
 10
-1030.995603099103
 20
1424.795328157708
 30
0.0
 11
-1004.429627098686
 21
1715.814399308019
 31
0.0
  0
LINE
  5
162
330
1F
100
AcDbEntity
  8
E-1
  6
Continuous
 62
     2
370
     9
100
AcDbLine
 10
-1842.430660002959
 20
1650.452731089884
 30
0.0
 11
-1026.462634206053
 21
1650.452731089884
 31
0.0
  0
LINE
  5
163
330
1F
100
AcDbEntity
  8
E-1
  6
Continuous
 62
     2
370
     9
100
AcDbLine
 10
-1826.430458751904
 20
1634.452777278651
 30
0.0
 11
-1027.923213744099
 21
1634.452777278651
 31
0.0
  0
LINE
  5
164
330
1F
100
AcDbEntity
  8
E-1
  6
Continuous
 62
     2
370
     9
100
AcDbLine
 10
-1010.396234381043
 20
1650.452731089884
 30
0.0
 11
-142.4304950430782
 21
1650.452731089884
 31
0.0
  0
LINE
  5
165
330
1F
100
AcDbEntity
  8
E-1
  6
Continuous
 62
     2
370
     9
100
AcDbLine
 10
-1011.856806663392
 20
1634.452777278651
 30
0.0
 11
-158.4304488543115
 21
1634.452777278651
 31
0.0
  0
LINE
  5
166
330
1F
100
AcDbEntity
  8
E-4
  6
Continuous
 62
     7
370
     9
100
AcDbLine
 10
197.5695049569219
 20
1650.452731089884
 30
0.0
 11
197.5695049569219
 21
543.5813207907026
 31
0.0
  0
LINE
  5
167
330
1F
100
AcDbEntity
  8
E-4
  6
Continuous
 62
     7
370
     9
100
AcDbLine
 10
57.56950495692195
 20
1691.744741795489
 30
0.0
 11
57.56950495692195
 21
500.6256575453514
 31
0.0
  0
LINE
  5
168
330
1F
100
AcDbEntity
  8
E-1
  6
Continuous
 62
     2
370
     9
100
AcDbLine
 10
-82.43054453104037
 20
1335.852668075209
 30
0.0
 11
-142.4304950430782
 21
1335.852668075209
 31
0.0
  0
LINE
  5
169
330
1F
100
AcDbEntity
  8
E-1
  6
Continuous
 62
     2
370
     9
100
AcDbLine
 10
-132.430462051101
 20
1316.452643661146
 30
0.0
 11
-132.430462051101
 21
1335.852668075209
 31
0.0
  0
LINE
  5
16A
330
1F
100
AcDbEntity
  8
E-1
  6
Continuous
 62
     2
370
     9
100
AcDbLine
 10
-88.43046535029885
 20
1310.452722841889
 30
0.0
 11
-126.4305412318448
 21
1310.452722841889
 31
0.0
  0
LINE
  5
16B
330
1F
100
AcDbEntity
  8
E-1
  6
Continuous
 62
     2
370
     9
100
AcDbLine
 10
-82.43054453104037
 20
1340.452698097907
 30
0.0
 11
-82.43054453104037
 21
1316.452643661146
 31
0.0
  0
LINE
  5
16C
330
1F
100
AcDbEntity
  8
E-1
  6
Continuous
 62
     2
370
     9
100
AcDbLine
 10
-142.4304950430782
 20
1340.452698097907
 30
0.0
 11
-82.43054453104037
 21
1340.452698097907
 31
0.0
  0
LINE
  5
16D
330
1F
100
AcDbEntity
  8
E-1
  6
JWW_CENTER1
 62
     2
370
     9
100
AcDbLine
 10
-125.8084775177407
 20
1350.452731089884
 30
0.0
 11
-155.3978263880948
 21
1350.452731089884
 31
0.0
  0
LINE
  5
16E
330
1F
100
AcDbEntity
  8
E-1
  6
Continuous
 62
     2
370
     9
100
AcDbLine
 10
-122.4304290591239
 20
1340.452698097907
 30
0.0
 11
-122.4304290591239
 21
1335.852668075209
 31
0.0
  0
ARC
  5
16F
330
1F
100
AcDbEntity
  8
E-1
  6
Continuous
 62
     2
370
     9
100
AcDbCircle
 10
-126.4305412318448
 20
1316.452643661146
 30
0.0
 40
5.999999594044042
100
AcDbArc
 50
180.0
 51
270.0
  0
ARC
  5
170
330
1F
100
AcDbEntity
  8
E-1
  6
Continuous
 62
     2
370
     9
100
AcDbCircle
 10
-88.43046535029885
 20
1316.452643661146
 30
0.0
 40
5.999999594044042
100
AcDbArc
 50
270.0
 51
0.0
  0
LINE
  5
171
330
1F
100
AcDbEntity
  8
E-1
  6
Continuous
 62
     2
370
     9
100
AcDbLine
 10
-122.4304290591239
 20
1340.452821817819
 30
0.0
 11
-122.4304290591239
 21
1335.852668075209
 31
0.0
  0
LINE
  5
172
330
1F
100
AcDbEntity
  8
E-1
  6
Continuous
 62
     2
370
     9
100
AcDbLine
 10
-142.4304950430782
 20
1340.452821817819
 30
0.0
 11
-82.43054453104037
 21
1340.452821817819
 31
0.0
  0
LINE
  5
173
330
1F
100
AcDbEntity
  8
E-1
  6
JWW_CENTER1
 62
     2
370
     9
100
AcDbLine
 10
-125.7555253956947
 20
1350.452854809796
 30
0.0
 11
-151.6407001212032
 21
1350.452854809796
 31
0.0
  0
LINE
  5
174
330
1F
100
AcDbEntity
  8
E-1
  6
Continuous
 62
     2
370
     9
100
AcDbLine
 10
-82.43054453104037
 20
1340.452821817819
 30
0.0
 11
-82.43054453104037
 21
1316.452643661147
 31
0.0
  0
LINE
  5
175
330
1F
100
AcDbEntity
  8
E-1
  6
Continuous
 62
     2
370
     9
100
AcDbLine
 10
-88.43046535029885
 20
1310.452722841891
 30
0.0
 11
-126.4305412318448
 21
1310.452722841891
 31
0.0
  0
LINE
  5
176
330
1F
100
AcDbEntity
  8
E-1
  6
Continuous
 62
     2
370
     9
100
AcDbLine
 10
-132.430462051101
 20
1316.452643661147
 30
0.0
 11
-132.430462051101
 21
1335.852668075209
 31
0.0
  0
LINE
  5
177
330
1F
100
AcDbEntity
  8
E-1
  6
Continuous
 62
     2
370
     9
100
AcDbLine
 10
-82.43054453104037
 20
1335.852668075209
 30
0.0
 11
-142.4304950430782
 21
1335.852668075209
 31
0.0
  0
ARC
  5
178
330
1F
100
AcDbEntity
  8
E-1
  6
Continuous
 62
     2
370
     9
100
AcDbCircle
 10
-88.43046535029885
 20
1316.452643661147
 30
0.0
 40
5.999999594044042
100
AcDbArc
 50
270.0
 51
0.0
  0
ARC
  5
179
330
1F
100
AcDbEntity
  8
E-1
  6
Continuous
 62
     2
370
     9
100
AcDbCircle
 10
-126.4305412318448
 20
1316.452643661147
 30
0.0
 40
5.999999594044042
100
AcDbArc
 50
180.0
 51
270.0
  0
LINE
  5
17A
330
1F
100
AcDbEntity
  8
E-1
  6
Continuous
 62
     2
370
     9
100
AcDbLine
 10
-1862.430478547089
 20
1360.452640361948
 30
0.0
 11
-1862.430478547089
 21
1365.052670384648
 31
0.0
  0
LINE
  5
17B
330
1F
100
AcDbEntity
  8
E-1
  6
Continuous
 62
     2
370
     9
100
AcDbLine
 10
-1842.430660002959
 20
1360.452640361948
 30
0.0
 11
-1902.430610514995
 21
1360.452640361948
 31
0.0
  0
LINE
  5
17C
330
1F
100
AcDbEntity
  8
E-1
  6
Continuous
 62
     2
370
     9
100
AcDbLine
 10
-1902.430610514995
 20
1360.452640361948
 30
0.0
 11
-1902.430610514995
 21
1384.45269479871
 31
0.0
  0
LINE
  5
17D
330
1F
100
AcDbEntity
  8
E-1
  6
Continuous
 62
     2
370
     9
100
AcDbLine
 10
-1896.430442255916
 20
1390.452739337878
 30
0.0
 11
-1858.430613814193
 21
1390.452739337878
 31
0.0
  0
LINE
  5
17E
330
1F
100
AcDbEntity
  8
E-1
  6
Continuous
 62
     2
370
     9
100
AcDbLine
 10
-1852.430445555113
 20
1384.45269479871
 30
0.0
 11
-1852.430445555113
 21
1365.052670384648
 31
0.0
  0
LINE
  5
17F
330
1F
100
AcDbEntity
  8
E-1
  6
JWW_CENTER1
 62
     2
370
     9
100
AcDbLine
 10
-1863.713948907098
 20
1350.452731089884
 30
0.0
 11
-1831.097173806802
 21
1350.452731089884
 31
0.0
  0
LINE
  5
180
330
1F
100
AcDbEntity
  8
E-1
  6
Continuous
 62
     2
370
     9
100
AcDbLine
 10
-1902.430610514995
 20
1365.052670384648
 30
0.0
 11
-1842.430660002959
 21
1365.052670384648
 31
0.0
  0
ARC
  5
181
330
1F
100
AcDbEntity
  8
E-1
  6
Continuous
 62
     2
370
     9
100
AcDbCircle
 10
-1896.430442255916
 20
1384.45269479871
 30
0.0
 40
5.999999594044042
100
AcDbArc
 50
90.0
 51
180.0
  0
ARC
  5
182
330
1F
100
AcDbEntity
  8
E-1
  6
Continuous
 62
     2
370
     9
100
AcDbCircle
 10
-1858.430613814193
 20
1384.45269479871
 30
0.0
 40
5.999999594044042
100
AcDbArc
 50
0.0
 51
90.0
  0
LINE
  5
183
330
1F
100
AcDbEntity
  8
E-1
  6
Continuous
 62
     2
370
     9
100
AcDbLine
 10
-1902.430610514995
 20
1365.052546664736
 30
0.0
 11
-1842.430660002959
 21
1365.052546664736
 31
0.0
  0
LINE
  5
184
330
1F
100
AcDbEntity
  8
E-1
  6
Continuous
 62
     2
370
     9
100
AcDbLine
 10
-1852.430445555113
 20
1384.452818518622
 30
0.0
 11
-1852.430445555113
 21
1365.052546664736
 31
0.0
  0
LINE
  5
185
330
1F
100
AcDbEntity
  8
E-1
  6
Continuous
 62
     2
370
     9
100
AcDbLine
 10
-1896.430442255916
 20
1390.452739337878
 30
0.0
 11
-1858.430613814193
 21
1390.452739337878
 31
0.0
  0
LINE
  5
186
330
1F
100
AcDbEntity
  8
E-1
  6
Continuous
 62
     2
370
     9
100
AcDbLine
 10
-1902.430610514995
 20
1360.452640361949
 30
0.0
 11
-1902.430610514995
 21
1384.452818518622
 31
0.0
  0
LINE
  5
187
330
1F
100
AcDbEntity
  8
E-1
  6
Continuous
 62
     2
370
     9
100
AcDbLine
 10
-1842.430660002959
 20
1360.452640361949
 30
0.0
 11
-1902.430610514995
 21
1360.452640361949
 31
0.0
  0
LINE
  5
188
330
1F
100
AcDbEntity
  8
E-1
  6
JWW_CENTER1
 62
     2
370
     9
100
AcDbLine
 10
-1862.876117667655
 20
1350.452854809796
 30
0.0
 11
-1834.554650448483
 21
1350.452854809796
 31
0.0
  0
LINE
  5
189
330
1F
100
AcDbEntity
  8
E-1
  6
Continuous
 62
     2
370
     9
100
AcDbLine
 10
-1862.430478547089
 20
1360.452640361949
 30
0.0
 11
-1862.430478547089
 21
1365.052546664736
 31
0.0
  0
ARC
  5
18A
330
1F
100
AcDbEntity
  8
E-1
  6
Continuous
 62
     2
370
     9
100
AcDbCircle
 10
-1858.430613814193
 20
1384.452818518622
 30
0.0
 40
5.999999594044042
100
AcDbArc
 50
0.0
 51
90.0
  0
ARC
  5
18B
330
1F
100
AcDbEntity
  8
E-1
  6
Continuous
 62
     2
370
     9
100
AcDbCircle
 10
-1896.430442255916
 20
1384.452818518622
 30
0.0
 40
5.999999594044042
100
AcDbArc
 50
90.0
 51
180.0
  0
LINE
  5
18C
330
1F
100
AcDbEntity
  8
E-1
  6
JWW_CENTER1
 62
     2
370
     9
100
AcDbLine
 10
-1878.520995333407
 20
1000.266436121787
 30
0.0
 11
-1683.999395486489
 21
1011.593117722821
 31
0.0
  0
LINE
  5
18D
330
1F
100
AcDbEntity
  8
E-1
  6
JWW_CENTER1
 62
     2
370
     9
100
AcDbLine
 10
-1879.451121626693
 20
1016.239295272441
 30
0.0
 11
-1684.929274339953
 21
1027.566100593387
 31
0.0
  0
LINE
  5
18E
330
1F
100
AcDbEntity
  8
E-1
  6
Continuous
 62
     2
370
     9
100
AcDbLine
 10
-1842.430660002959
 20
543.5813207907026
 30
0.0
 11
-1842.430660002959
 21
1002.367918617738
 31
0.0
  0
LINE
  5
18F
330
1F
100
AcDbEntity
  8
E-1
  6
Continuous
 62
     2
370
     9
100
AcDbLine
 10
-1826.430458751904
 20
559.5812746019349
 30
0.0
 11
-1826.430458751904
 21
1003.299584742557
 31
0.0
  0
LINE
  5
190
330
1F
100
AcDbEntity
  8
E-1
  6
Continuous
 62
     2
370
     9
100
AcDbLine
 10
-1842.430660002959
 20
1018.394958338325
 30
0.0
 11
-1842.430660002959
 21
1650.452731089884
 31
0.0
  0
LINE
  5
191
330
1F
100
AcDbEntity
  8
E-1
  6
Continuous
 62
     2
370
     9
100
AcDbLine
 10
-1826.430458751904
 20
1019.326633454486
 30
0.0
 11
-1826.430458751904
 21
1634.452777278651
 31
0.0
  0
LINE
  5
192
330
1F
100
AcDbEntity
  8
E-1
  6
Continuous
 62
     2
370
     9
100
AcDbLine
 10
-1862.430478547089
 20
853.5813537826788
 30
0.0
 11
-1862.430478547089
 21
858.1813838053778
 31
0.0
  0
LINE
  5
193
330
1F
100
AcDbEntity
  8
E-1
  6
Continuous
 62
     2
370
     9
100
AcDbLine
 10
-1842.430660002959
 20
853.5813537826788
 30
0.0
 11
-1902.430610514995
 21
853.5813537826788
 31
0.0
  0
LINE
  5
194
330
1F
100
AcDbEntity
  8
E-1
  6
Continuous
 62
     2
370
     9
100
AcDbLine
 10
-1902.430610514995
 20
853.5813537826788
 30
0.0
 11
-1902.430610514995
 21
877.5814082194403
 31
0.0
  0
LINE
  5
195
330
1F
100
AcDbEntity
  8
E-1
  6
Continuous
 62
     2
370
     9
100
AcDbLine
 10
-1896.430442255916
 20
883.581452758608
 30
0.0
 11
-1858.430613814193
 21
883.581452758608
 31
0.0
  0
LINE
  5
196
330
1F
100
AcDbEntity
  8
E-1
  6
Continuous
 62
     2
370
     9
100
AcDbLine
 10
-1852.430445555113
 20
877.5814082194403
 30
0.0
 11
-1852.430445555113
 21
858.1813838053778
 31
0.0
  0
LINE
  5
197
330
1F
100
AcDbEntity
  8
E-1
  6
JWW_CENTER1
 62
     2
370
     9
100
AcDbLine
 10
-1863.713948907098
 20
843.5814445106142
 30
0.0
 11
-1831.097173806802
 21
843.5814445106142
 31
0.0
  0
LINE
  5
198
330
1F
100
AcDbEntity
  8
E-1
  6
Continuous
 62
     2
370
     9
100
AcDbLine
 10
-1902.430610514995
 20
858.1813838053778
 30
0.0
 11
-1842.430660002959
 21
858.1813838053778
 31
0.0
  0
ARC
  5
199
330
1F
100
AcDbEntity
  8
E-1
  6
Continuous
 62
     2
370
     9
100
AcDbCircle
 10
-1896.430442255916
 20
877.5814082194403
 30
0.0
 40
5.999999594044042
100
AcDbArc
 50
90.0
 51
180.0
  0
ARC
  5
19A
330
1F
100
AcDbEntity
  8
E-1
  6
Continuous
 62
     2
370
     9
100
AcDbCircle
 10
-1858.430613814193
 20
877.5814082194403
 30
0.0
 40
5.999999594044042
100
AcDbArc
 50
0.0
 51
90.0
  0
LINE
  5
19B
330
1F
100
AcDbEntity
  8
E-1
  6
Continuous
 62
     2
370
     9
100
AcDbLine
 10
-1902.430610514995
 20
858.1812600854664
 30
0.0
 11
-1842.430660002959
 21
858.1812600854664
 31
0.0
  0
LINE
  5
19C
330
1F
100
AcDbEntity
  8
E-1
  6
Continuous
 62
     2
370
     9
100
AcDbLine
 10
-1852.430445555113
 20
877.5815319393519
 30
0.0
 11
-1852.430445555113
 21
858.1812600854664
 31
0.0
  0
LINE
  5
19D
330
1F
100
AcDbEntity
  8
E-1
  6
Continuous
 62
     2
370
     9
100
AcDbLine
 10
-1896.430442255916
 20
883.5814527586081
 30
0.0
 11
-1858.430613814193
 21
883.5814527586081
 31
0.0
  0
LINE
  5
19E
330
1F
100
AcDbEntity
  8
E-1
  6
Continuous
 62
     2
370
     9
100
AcDbLine
 10
-1902.430610514995
 20
853.5813537826789
 30
0.0
 11
-1902.430610514995
 21
877.5815319393519
 31
0.0
  0
LINE
  5
19F
330
1F
100
AcDbEntity
  8
E-1
  6
Continuous
 62
     2
370
     9
100
AcDbLine
 10
-1842.430660002959
 20
853.5813537826789
 30
0.0
 11
-1902.430610514995
 21
853.5813537826789
 31
0.0
  0
LINE
  5
1A0
330
1F
100
AcDbEntity
  8
E-1
  6
JWW_CENTER1
 62
     2
370
     9
100
AcDbLine
 10
-1862.876117667655
 20
843.5815682305258
 30
0.0
 11
-1834.554650448483
 21
843.5815682305258
 31
0.0
  0
LINE
  5
1A1
330
1F
100
AcDbEntity
  8
E-1
  6
Continuous
 62
     2
370
     9
100
AcDbLine
 10
-1862.430478547089
 20
853.5813537826789
 30
0.0
 11
-1862.430478547089
 21
858.1812600854664
 31
0.0
  0
ARC
  5
1A2
330
1F
100
AcDbEntity
  8
E-1
  6
Continuous
 62
     2
370
     9
100
AcDbCircle
 10
-1858.430613814193
 20
877.5815319393519
 30
0.0
 40
5.999999594044042
100
AcDbArc
 50
0.0
 51
90.0
  0
ARC
  5
1A3
330
1F
100
AcDbEntity
  8
E-1
  6
Continuous
 62
     2
370
     9
100
AcDbCircle
 10
-1896.430442255916
 20
877.5815319393519
 30
0.0
 40
5.999999594044042
100
AcDbArc
 50
90.0
 51
180.0
  0
LINE
  5
1A4
330
1F
100
AcDbEntity
  8
E-1
  6
JWW_CENTER1
 62
     2
370
     9
100
AcDbLine
 10
-303.9042796186698
 20
1233.035356168152
 30
0.0
 11
-112.9044907673178
 21
1244.157033876134
 31
0.0
  0
LINE
  5
1A5
330
1F
100
AcDbEntity
  8
E-1
  6
JWW_CENTER1
 62
     2
370
     9
100
AcDbLine
 10
-302.9744007652073
 20
1217.062373297587
 30
0.0
 11
-111.974611913853
 21
1228.184051005568
 31
0.0
  0
LINE
  5
1A6
330
1F
100
AcDbEntity
  8
E-1
  6
Continuous
 62
     2
370
     9
100
AcDbLine
 10
-158.4304488543115
 20
1634.452777278651
 30
0.0
 11
-158.4304488543115
 21
1241.506114541429
 31
0.0
  0
LINE
  5
1A7
330
1F
100
AcDbEntity
  8
E-1
  6
Continuous
 62
     2
370
     9
100
AcDbLine
 10
-142.4304950430782
 20
1650.452731089884
 30
0.0
 11
-142.4304950430782
 21
1242.437771747446
 31
0.0
  0
LINE
  5
1A8
330
1F
100
AcDbEntity
  8
E-1
  6
Continuous
 62
     2
370
     9
100
AcDbLine
 10
-158.4304488543115
 20
1225.478985993646
 30
0.0
 11
-158.4304488543115
 21
559.5812746019349
 31
0.0
  0
LINE
  5
1A9
330
1F
100
AcDbEntity
  8
E-1
  6
Continuous
 62
     2
370
     9
100
AcDbLine
 10
-142.4304950430782
 20
1226.410643199663
 30
0.0
 11
-142.4304950430782
 21
543.5813207907026
 31
0.0
  0
LINE
  5
1AA
330
1F
100
AcDbEntity
  8
E-1
  6
JWW_CENTER1
 62
     2
370
     9
100
AcDbLine
 10
-1066.924293337173
 20
523.4340281122818
 30
0.0
 11
-1037.713277091003
 21
843.426810800996
 31
0.0
  0
LINE
  5
1AB
330
1F
100
AcDbEntity
  8
E-1
  6
JWW_CENTER1
 62
     2
370
     9
100
AcDbLine
 10
-1050.990405958584
 20
521.9793293950099
 30
0.0
 11
-1021.646741151077
 21
843.426810800996
 31
0.0
  0
LINE
  5
1AC
330
1F
100
AcDbEntity
  8
E-1
  6
Continuous
 62
     2
370
     9
100
AcDbLine
 10
-142.4304950430782
 20
543.5813207907026
 30
0.0
 11
-1049.018445898678
 21
543.5813207907026
 31
0.0
  0
LINE
  5
1AD
330
1F
100
AcDbEntity
  8
E-1
  6
Continuous
 62
     2
370
     9
100
AcDbLine
 10
-158.4304488543115
 20
559.5812746019349
 30
0.0
 11
-1047.557873616329
 21
559.5812746019349
 31
0.0
  0
LINE
  5
1AE
330
1F
100
AcDbEntity
  8
E-1
  6
Continuous
 62
     2
370
     9
100
AcDbLine
 10
-1065.085117813273
 20
543.5813207907026
 30
0.0
 11
-1842.430660002959
 21
543.5813207907026
 31
0.0
  0
LINE
  5
1AF
330
1F
100
AcDbEntity
  8
E-1
  6
Continuous
 62
     2
370
     9
100
AcDbLine
 10
-1063.624538275226
 20
559.5812746019349
 30
0.0
 11
-1826.430458751904
 21
559.5812746019349
 31
0.0
  0
LINE
  5
1B0
330
1F
100
AcDbEntity
  8
E-4
  6
Continuous
 62
     7
370
     9
100
AcDbLine
 10
-162.4304488543102
 20
60.58132079070191
 30
0.0
 11
-162.4304488543102
 21
539.5812746019349
 31
0.0
  0
LINE
  5
1B1
330
1F
100
AcDbEntity
  8
E-4
  6
Continuous
 62
     7
370
     9
100
AcDbLine
 10
60.56950495692377
 20
563.5812746019358
 30
0.0
 11
-138.4304488543115
 21
563.5812746019358
 31
0.0
  0
LINE
  5
1B2
330
1F
100
AcDbEntity
  8
E-4
  6
Continuous
 62
     7
370
     9
100
AcDbLine
 10
60.56950495692377
 20
1630.45277727865
 30
0.0
 11
-138.4304488543115
 21
1630.45277727865
 31
0.0
  0
LINE
  5
1B3
330
1F
100
AcDbEntity
  8
E-4
  6
Continuous
 62
     7
370
     9
100
AcDbLine
 10
-1822.430458751904
 20
60.58132079070191
 30
0.0
 11
-1822.430458751904
 21
539.5812746019349
 31
0.0
  0
LINE
  5
1B4
330
1F
100
AcDbEntity
  8
F-2ﾚｲﾔ
  6
Continuous
 62
     3
370
     9
100
AcDbLine
 10
-542.4889972048261
 20
-837.7765664970963
 30
0.0
 11
-542.4889972048261
 21
-849.7765664970963
 31
0.0
  0
LINE
  5
1B5
330
1F
100
AcDbEntity
  8
F-2ﾚｲﾔ
  6
Continuous
 62
     3
370
     9
100
AcDbLine
 10
-622.4872816220563
 20
-837.7765664970963
 30
0.0
 11
-622.4872816220563
 21
-849.7765664970963
 31
0.0
  0
ARC
  5
1B6
330
1F
100
AcDbEntity
  8
F-2ﾚｲﾔ
  6
Continuous
 62
     3
370
     9
100
AcDbCircle
 10
-565.4882812789385
 20
-859.7763520492482
 30
0.0
 40
10.00000012887491
100
AcDbArc
 50
90.0
 51
180.0
  0
ARC
  5
1B7
330
1F
100
AcDbEntity
  8
F-2ﾚｲﾔ
  6
Continuous
 62
     3
370
     9
100
AcDbCircle
 10
-599.4879975479428
 20
-859.7763520492482
 30
0.0
 40
10.00000012887491
100
AcDbArc
 50
0.0
 51
90.0
  0
LINE
  5
1B8
330
1F
100
AcDbEntity
  8
F-2ﾚｲﾔ
  6
Continuous
 62
     3
370
     9
100
AcDbLine
 10
-589.4882119957886
 20
-849.7765664970963
 30
0.0
 11
-589.4882119957886
 21
-987.7763190572756
 31
0.0
  0
LINE
  5
1B9
330
1F
100
AcDbEntity
  8
F-2ﾚｲﾔ
  6
Continuous
 62
     3
370
     9
100
AcDbLine
 10
-575.4880668310927
 20
-849.7765664970963
 30
0.0
 11
-575.4880668310927
 21
-987.7763190572756
 31
0.0
  0
LINE
  5
1BA
330
1F
100
AcDbEntity
  8
F-2ﾚｲﾔ
  6
Continuous
 62
     3
370
     9
100
AcDbLine
 10
-542.4889972048261
 20
-849.7765664970963
 30
0.0
 11
-622.4872816220563
 21
-849.7765664970963
 31
0.0
  0
LINE
  5
1BB
330
1F
100
AcDbEntity
  8
F-2ﾚｲﾔ
  6
Continuous
 62
     3
370
     9
100
AcDbLine
 10
-542.4889972048261
 20
-837.7765664970963
 30
0.0
 11
-542.4889972048261
 21
-849.7765664970963
 31
0.0
  0
TEXT
  5
1BC
330
1F
100
AcDbEntity
  8
F-4ﾚｲﾔ
  6
Continuous
 62
     2
370
     9
100
AcDbText
 10
-1295.277774192174
 20
-556.1518215681175
 30
0.0
 40
30.48
  1
受枠：８×２５×１．０
 41
1.113636363636364
  7
ＭＳ ゴシック
100
AcDbText
  0
LINE
  5
1BD
330
1F
100
AcDbEntity
  8
F-4ﾚｲﾔ
  6
Continuous
 62
     7
370
     9
100
AcDbLine
 10
-787.7558033175803
 20
-578.730562066429
 30
0.0
 11
-1299.65888168403
 21
-578.730562066429
 31
0.0
  0
LINE
  5
1BE
330
1F
100
AcDbEntity
  8
D-2
  6
Continuous
 62
     3
370
     9
100
AcDbLine
 10
1825.28787874491
 20
817.8052300604202
 30
0.0
 11
1825.28787874491
 21
777.805098092515
 31
0.0
  0
LINE
  5
1BF
330
1F
100
AcDbEntity
  8
F-2ﾚｲﾔ
  6
Continuous
 62
     3
370
     9
100
AcDbLine
 10
-712.4872816220563
 20
-837.7765664970963
 30
0.0
 11
-792.4855660392855
 21
-837.7765664970963
 31
0.0
  0
LINE
  5
1C0
330
1F
100
AcDbEntity
  8
F-2ﾚｲﾔ
  6
Continuous
 62
     3
370
     9
100
AcDbLine
 10
-745.486351248323
 20
-987.7763190572756
 30
0.0
 11
-759.4864964130188
 21
-987.7763190572756
 31
0.0
  0
LINE
  5
1C1
330
1F
100
AcDbEntity
  8
F-2ﾚｲﾔ
  6
Continuous
 62
     3
370
     9
100
AcDbLine
 10
-712.4872816220563
 20
-837.7765664970963
 30
0.0
 11
-712.4872816220563
 21
-849.7765664970963
 31
0.0
  0
LINE
  5
1C2
330
1F
100
AcDbEntity
  8
F-2ﾚｲﾔ
  6
Continuous
 62
     3
370
     9
100
AcDbLine
 10
-792.4855660392855
 20
-837.7765664970963
 30
0.0
 11
-792.4855660392855
 21
-849.7765664970963
 31
0.0
  0
LINE
  5
1C3
330
1F
100
AcDbEntity
  8
F-2ﾚｲﾔ
  6
Continuous
 62
     3
370
     9
100
AcDbLine
 10
-712.4872816220563
 20
-849.7765664970963
 30
0.0
 11
-792.4855660392855
 21
-849.7765664970963
 31
0.0
  0
ARC
  5
1C4
330
1F
100
AcDbEntity
  8
F-2ﾚｲﾔ
  6
Continuous
 62
     3
370
     9
100
AcDbCircle
 10
-735.4865656961688
 20
-859.7763520492482
 30
0.0
 40
10.00000012887491
100
AcDbArc
 50
90.0
 51
180.0
  0
ARC
  5
1C5
330
1F
100
AcDbEntity
  8
F-2ﾚｲﾔ
  6
Continuous
 62
     3
370
     9
100
AcDbCircle
 10
-769.486281965173
 20
-859.7763520492482
 30
0.0
 40
10.00000012887491
100
AcDbArc
 50
0.0
 51
90.0
  0
LINE
  5
1C6
330
1F
100
AcDbEntity
  8
F-2ﾚｲﾔ
  6
Continuous
 62
     3
370
     9
100
AcDbLine
 10
-759.4864964130188
 20
-849.7765664970963
 30
0.0
 11
-759.4864964130188
 21
-987.7763190572756
 31
0.0
  0
LINE
  5
1C7
330
1F
100
AcDbEntity
  8
F-2ﾚｲﾔ
  6
Continuous
 62
     3
370
     9
100
AcDbLine
 10
-745.486351248323
 20
-849.7765664970963
 30
0.0
 11
-745.486351248323
 21
-987.7763190572756
 31
0.0
  0
LINE
  5
1C8
330
1F
100
AcDbEntity
  8
F-2ﾚｲﾔ
  6
Continuous
 62
     3
370
     9
100
AcDbLine
 10
-589.4882119957886
 20
-883.4210922330396
 30
0.0
 11
-745.486351248323
 21
-883.4210922330396
 31
0.0
  0
LINE
  5
1C9
330
1F
100
AcDbEntity
  8
F-2ﾚｲﾔ
  6
Continuous
 62
     3
370
     9
100
AcDbLine
 10
-589.4882119957886
 20
-918.7765664970962
 30
0.0
 11
-745.486351248323
 21
-918.7765664970962
 31
0.0
  0
LINE
  5
1CA
330
1F
100
AcDbEntity
  8
F-2ﾚｲﾔ
  6
Continuous
 62
     3
370
     9
100
AcDbLine
 10
-589.4882119957886
 20
-954.1317703516944
 30
0.0
 11
-745.486351248323
 21
-954.1317703516944
 31
0.0
  0
LINE
  5
1CB
330
1F
100
AcDbEntity
  8
F-2ﾚｲﾔ
  6
Continuous
 62
     3
370
     9
100
AcDbLine
 10
-882.4855660392855
 20
-837.7765664970963
 30
0.0
 11
-962.4838504565146
 21
-837.7765664970963
 31
0.0
  0
LINE
  5
1CC
330
1F
100
AcDbEntity
  8
F-2ﾚｲﾔ
  6
Continuous
 62
     3
370
     9
100
AcDbLine
 10
-915.4846356655521
 20
-987.7763190572756
 30
0.0
 11
-929.4847808302479
 21
-987.7763190572756
 31
0.0
  0
LINE
  5
1CD
330
1F
100
AcDbEntity
  8
F-2ﾚｲﾔ
  6
Continuous
 62
     3
370
     9
100
AcDbLine
 10
-882.4855660392855
 20
-837.7765664970963
 30
0.0
 11
-882.4855660392855
 21
-849.7765664970963
 31
0.0
  0
LINE
  5
1CE
330
1F
100
AcDbEntity
  8
F-2ﾚｲﾔ
  6
Continuous
 62
     3
370
     9
100
AcDbLine
 10
-962.4838504565146
 20
-837.7765664970963
 30
0.0
 11
-962.4838504565146
 21
-849.7765664970963
 31
0.0
  0
LINE
  5
1CF
330
1F
100
AcDbEntity
  8
F-2ﾚｲﾔ
  6
Continuous
 62
     3
370
     9
100
AcDbLine
 10
-882.4855660392855
 20
-849.7765664970963
 30
0.0
 11
-962.4838504565146
 21
-849.7765664970963
 31
0.0
  0
ARC
  5
1D0
330
1F
100
AcDbEntity
  8
F-2ﾚｲﾔ
  6
Continuous
 62
     3
370
     9
100
AcDbCircle
 10
-905.4848501133979
 20
-859.7763520492482
 30
0.0
 40
10.00000012887491
100
AcDbArc
 50
90.0
 51
180.0
  0
ARC
  5
1D1
330
1F
100
AcDbEntity
  8
F-2ﾚｲﾔ
  6
Continuous
 62
     3
370
     9
100
AcDbCircle
 10
-939.484566382401
 20
-859.7763520492482
 30
0.0
 40
10.00000012887491
100
AcDbArc
 50
0.0
 51
90.0
  0
LINE
  5
1D2
330
1F
100
AcDbEntity
  8
F-2ﾚｲﾔ
  6
Continuous
 62
     3
370
     9
100
AcDbLine
 10
-929.4847808302479
 20
-849.7765664970963
 30
0.0
 11
-929.4847808302479
 21
-987.7763190572756
 31
0.0
  0
LINE
  5
1D3
330
1F
100
AcDbEntity
  8
F-2ﾚｲﾔ
  6
Continuous
 62
     3
370
     9
100
AcDbLine
 10
-915.484635665551
 20
-849.7765664970963
 30
0.0
 11
-915.484635665551
 21
-987.7763190572756
 31
0.0
  0
LINE
  5
1D4
330
1F
100
AcDbEntity
  8
F-2ﾚｲﾔ
  6
Continuous
 62
     3
370
     9
100
AcDbLine
 10
-759.4864964130188
 20
-883.4210922330396
 30
0.0
 11
-915.484635665551
 21
-883.4210922330396
 31
0.0
  0
LINE
  5
1D5
330
1F
100
AcDbEntity
  8
F-2ﾚｲﾔ
  6
Continuous
 62
     3
370
     9
100
AcDbLine
 10
-759.4864964130188
 20
-918.7765664970962
 30
0.0
 11
-915.484635665551
 21
-918.7765664970962
 31
0.0
  0
LINE
  5
1D6
330
1F
100
AcDbEntity
  8
F-2ﾚｲﾔ
  6
Continuous
 62
     3
370
     9
100
AcDbLine
 10
-759.4864964130188
 20
-954.1317703516944
 30
0.0
 11
-915.484635665551
 21
-954.1317703516944
 31
0.0
  0
LINE
  5
1D7
330
1F
100
AcDbEntity
  8
F-2ﾚｲﾔ
  6
Continuous
 62
     3
370
     9
100
AcDbLine
 10
-1052.483850456515
 20
-837.7765664970963
 30
0.0
 11
-1132.482134873745
 21
-837.7765664970963
 31
0.0
  0
LINE
  5
1D8
330
1F
100
AcDbEntity
  8
F-2ﾚｲﾔ
  6
Continuous
 62
     3
370
     9
100
AcDbLine
 10
-929.9851041516156
 20
-918.7765664970962
 30
0.0
 11
-1085.482920082781
 21
-918.7765664970962
 31
0.0
  0
LINE
  5
1D9
330
1F
100
AcDbEntity
  8
F-2ﾚｲﾔ
  6
Continuous
 62
     3
370
     9
100
AcDbLine
 10
-929.9851041516156
 20
-883.4210922330396
 30
0.0
 11
-1085.482920082781
 21
-883.4210922330396
 31
0.0
  0
LINE
  5
1DA
330
1F
100
AcDbEntity
  8
F-2ﾚｲﾔ
  6
Continuous
 62
     3
370
     9
100
AcDbLine
 10
-929.9851041516156
 20
-954.1317703516944
 30
0.0
 11
-1085.482920082781
 21
-954.1317703516944
 31
0.0
  0
LINE
  5
1DB
330
1F
100
AcDbEntity
  8
F-2ﾚｲﾔ
  6
Continuous
 62
     3
370
     9
100
AcDbLine
 10
-1085.482920082781
 20
-987.7763190572756
 30
0.0
 11
-1099.483065247477
 21
-987.7763190572756
 31
0.0
  0
LINE
  5
1DC
330
1F
100
AcDbEntity
  8
F-2ﾚｲﾔ
  6
Continuous
 62
     3
370
     9
100
AcDbLine
 10
-1052.483850456515
 20
-837.7765664970963
 30
0.0
 11
-1052.483850456515
 21
-849.7765664970963
 31
0.0
  0
LINE
  5
1DD
330
1F
100
AcDbEntity
  8
F-2ﾚｲﾔ
  6
Continuous
 62
     3
370
     9
100
AcDbLine
 10
-1132.482134873745
 20
-837.7765664970963
 30
0.0
 11
-1132.482134873745
 21
-849.7765664970963
 31
0.0
  0
LINE
  5
1DE
330
1F
100
AcDbEntity
  8
F-2ﾚｲﾔ
  6
Continuous
 62
     3
370
     9
100
AcDbLine
 10
-1052.483850456515
 20
-849.7765664970963
 30
0.0
 11
-1132.482134873745
 21
-849.7765664970963
 31
0.0
  0
ARC
  5
1DF
330
1F
100
AcDbEntity
  8
F-2ﾚｲﾔ
  6
Continuous
 62
     3
370
     9
100
AcDbCircle
 10
-1075.483134530627
 20
-859.7763520492482
 30
0.0
 40
10.00000012887491
100
AcDbArc
 50
90.0
 51
180.0
  0
ARC
  5
1E0
330
1F
100
AcDbEntity
  8
F-2ﾚｲﾔ
  6
Continuous
 62
     3
370
     9
100
AcDbCircle
 10
-1109.482850799631
 20
-859.7763520492482
 30
0.0
 40
10.00000012887491
100
AcDbArc
 50
0.0
 51
90.0
  0
LINE
  5
1E1
330
1F
100
AcDbEntity
  8
F-2ﾚｲﾔ
  6
Continuous
 62
     3
370
     9
100
AcDbLine
 10
-1099.483065247477
 20
-849.7765664970963
 30
0.0
 11
-1099.483065247477
 21
-987.7763190572756
 31
0.0
  0
LINE
  5
1E2
330
1F
100
AcDbEntity
  8
F-2ﾚｲﾔ
  6
Continuous
 62
     3
370
     9
100
AcDbLine
 10
-1085.482920082781
 20
-849.7765664970963
 30
0.0
 11
-1085.482920082781
 21
-987.7763190572756
 31
0.0
  0
LINE
  5
1E3
330
1F
100
AcDbEntity
  8
F-2ﾚｲﾔ
  6
Continuous
 62
     3
370
     9
100
AcDbLine
 10
-1222.482134873745
 20
-837.7765664970963
 30
0.0
 11
-1302.480419290975
 21
-837.7765664970963
 31
0.0
  0
LINE
  5
1E4
330
1F
100
AcDbEntity
  8
F-2ﾚｲﾔ
  6
Continuous
 62
     3
370
     9
100
AcDbLine
 10
-1099.483065247477
 20
-918.7765664970962
 30
0.0
 11
-1255.481204500011
 21
-918.7765664970962
 31
0.0
  0
LINE
  5
1E5
330
1F
100
AcDbEntity
  8
F-2ﾚｲﾔ
  6
Continuous
 62
     3
370
     9
100
AcDbLine
 10
-1099.483065247477
 20
-883.4210922330396
 30
0.0
 11
-1255.481204500011
 21
-883.4210922330396
 31
0.0
  0
LINE
  5
1E6
330
1F
100
AcDbEntity
  8
F-2ﾚｲﾔ
  6
Continuous
 62
     3
370
     9
100
AcDbLine
 10
-1099.483065247477
 20
-954.1317703516944
 30
0.0
 11
-1255.481204500011
 21
-954.1317703516944
 31
0.0
  0
LINE
  5
1E7
330
1F
100
AcDbEntity
  8
F-2ﾚｲﾔ
  6
Continuous
 62
     3
370
     9
100
AcDbLine
 10
-1255.481204500013
 20
-987.7763190572756
 30
0.0
 11
-1269.481349664708
 21
-987.7763190572756
 31
0.0
  0
LINE
  5
1E8
330
1F
100
AcDbEntity
  8
F-2ﾚｲﾔ
  6
Continuous
 62
     3
370
     9
100
AcDbLine
 10
-1222.482134873745
 20
-837.7765664970963
 30
0.0
 11
-1222.482134873745
 21
-849.7765664970963
 31
0.0
  0
LINE
  5
1E9
330
1F
100
AcDbEntity
  8
F-2ﾚｲﾔ
  6
Continuous
 62
     3
370
     9
100
AcDbLine
 10
-1302.480419290975
 20
-837.7765664970963
 30
0.0
 11
-1302.480419290975
 21
-849.7765664970963
 31
0.0
  0
LINE
  5
1EA
330
1F
100
AcDbEntity
  8
F-2ﾚｲﾔ
  6
Continuous
 62
     3
370
     9
100
AcDbLine
 10
-1222.482134873745
 20
-849.7765664970963
 30
0.0
 11
-1302.480419290975
 21
-849.7765664970963
 31
0.0
  0
ARC
  5
1EB
330
1F
100
AcDbEntity
  8
F-2ﾚｲﾔ
  6
Continuous
 62
     3
370
     9
100
AcDbCircle
 10
-1245.481418947857
 20
-859.7763520492482
 30
0.0
 40
10.00000012887491
100
AcDbArc
 50
90.0
 51
180.0
  0
ARC
  5
1EC
330
1F
100
AcDbEntity
  8
F-2ﾚｲﾔ
  6
Continuous
 62
     3
370
     9
100
AcDbCircle
 10
-1279.481135216862
 20
-859.7763520492482
 30
0.0
 40
10.00000012887491
100
AcDbArc
 50
0.0
 51
90.0
  0
LINE
  5
1ED
330
1F
100
AcDbEntity
  8
F-2ﾚｲﾔ
  6
Continuous
 62
     3
370
     9
100
AcDbLine
 10
-1269.481349664707
 20
-849.7765664970963
 30
0.0
 11
-1269.481349664707
 21
-987.7763190572756
 31
0.0
  0
LINE
  5
1EE
330
1F
100
AcDbEntity
  8
F-2ﾚｲﾔ
  6
Continuous
 62
     3
370
     9
100
AcDbLine
 10
-1255.481204500011
 20
-849.7765664970963
 30
0.0
 11
-1255.481204500011
 21
-987.7763190572756
 31
0.0
  0
LINE
  5
1EF
330
1F
100
AcDbEntity
  8
F-2ﾚｲﾔ
  6
Continuous
 62
     3
370
     9
100
AcDbLine
 10
-1392.480419290975
 20
-837.7765664970963
 30
0.0
 11
-1472.478703708204
 21
-837.7765664970963
 31
0.0
  0
LINE
  5
1F0
330
1F
100
AcDbEntity
  8
F-2ﾚｲﾔ
  6
Continuous
 62
     3
370
     9
100
AcDbLine
 10
-1269.481349664707
 20
-918.7765664970962
 30
0.0
 11
-1425.47948891724
 21
-918.7765664970962
 31
0.0
  0
LINE
  5
1F1
330
1F
100
AcDbEntity
  8
F-2ﾚｲﾔ
  6
Continuous
 62
     3
370
     9
100
AcDbLine
 10
-1269.481349664707
 20
-883.4210922330396
 30
0.0
 11
-1425.47948891724
 21
-883.4210922330396
 31
0.0
  0
LINE
  5
1F2
330
1F
100
AcDbEntity
  8
F-2ﾚｲﾔ
  6
Continuous
 62
     3
370
     9
100
AcDbLine
 10
-1269.481349664707
 20
-954.1317703516944
 30
0.0
 11
-1425.47948891724
 21
-954.1317703516944
 31
0.0
  0
LINE
  5
1F3
330
1F
100
AcDbEntity
  8
F-2ﾚｲﾔ
  6
Continuous
 62
     3
370
     9
100
AcDbLine
 10
-1425.479488917242
 20
-987.7763190572756
 30
0.0
 11
-1439.479634081938
 21
-987.7763190572756
 31
0.0
  0
LINE
  5
1F4
330
1F
100
AcDbEntity
  8
F-2ﾚｲﾔ
  6
Continuous
 62
     3
370
     9
100
AcDbLine
 10
-1392.480419290975
 20
-837.7765664970963
 30
0.0
 11
-1392.480419290975
 21
-849.7765664970963
 31
0.0
  0
LINE
  5
1F5
330
1F
100
AcDbEntity
  8
F-2ﾚｲﾔ
  6
Continuous
 62
     3
370
     9
100
AcDbLine
 10
-1472.478703708204
 20
-837.7765664970963
 30
0.0
 11
-1472.478703708204
 21
-849.7765664970963
 31
0.0
  0
LINE
  5
1F6
330
1F
100
AcDbEntity
  8
F-2ﾚｲﾔ
  6
Continuous
 62
     3
370
     9
100
AcDbLine
 10
-1392.480419290975
 20
-849.7765664970963
 30
0.0
 11
-1472.478703708204
 21
-849.7765664970963
 31
0.0
  0
ARC
  5
1F7
330
1F
100
AcDbEntity
  8
F-2ﾚｲﾔ
  6
Continuous
 62
     3
370
     9
100
AcDbCircle
 10
-1415.479703365088
 20
-859.7763520492482
 30
0.0
 40
10.00000012887491
100
AcDbArc
 50
90.0
 51
180.0
  0
ARC
  5
1F8
330
1F
100
AcDbEntity
  8
F-2ﾚｲﾔ
  6
Continuous
 62
     3
370
     9
100
AcDbCircle
 10
-1449.47941963409
 20
-859.7763520492482
 30
0.0
 40
10.00000012887491
100
AcDbArc
 50
0.0
 51
90.0
  0
LINE
  5
1F9
330
1F
100
AcDbEntity
  8
F-2ﾚｲﾔ
  6
Continuous
 62
     3
370
     9
100
AcDbLine
 10
-1439.479634081938
 20
-849.7765664970963
 30
0.0
 11
-1439.479634081938
 21
-987.7763190572756
 31
0.0
  0
LINE
  5
1FA
330
1F
100
AcDbEntity
  8
F-2ﾚｲﾔ
  6
Continuous
 62
     3
370
     9
100
AcDbLine
 10
-1425.47948891724
 20
-849.7765664970963
 30
0.0
 11
-1425.47948891724
 21
-987.7763190572756
 31
0.0
  0
LINE
  5
1FB
330
1F
100
AcDbEntity
  8
F-2ﾚｲﾔ
  6
Continuous
 62
     3
370
     9
100
AcDbLine
 10
-617.4885023251813
 20
-837.7765664970963
 30
0.0
 11
-1492.410503587432
 21
-837.7765664970963
 31
0.0
  0
LINE
  5
1FC
330
1F
100
AcDbEntity
  8
F-2ﾚｲﾔ
  6
Continuous
 62
     3
370
     9
100
AcDbLine
 10
-1439.479634081936
 20
-883.4210922330396
 30
0.0
 11
-1492.410503587432
 21
-883.4210922330396
 31
0.0
  0
LINE
  5
1FD
330
1F
100
AcDbEntity
  8
F-2ﾚｲﾔ
  6
Continuous
 62
     3
370
     9
100
AcDbLine
 10
-1439.479634081936
 20
-918.7765664970962
 30
0.0
 11
-1492.410503587432
 21
-918.7765664970962
 31
0.0
  0
LINE
  5
1FE
330
1F
100
AcDbEntity
  8
F-2ﾚｲﾔ
  6
Continuous
 62
     3
370
     9
100
AcDbLine
 10
-1439.479634081936
 20
-954.1317703516944
 30
0.0
 11
-1492.410503587432
 21
-954.1317703516944
 31
0.0
  0
LINE
  5
1FF
330
1F
100
AcDbEntity
  8
F-4ﾚｲﾔ
  6
Continuous
 62
     7
370
     9
100
AcDbLine
 10
-712.4872816220563
 20
-758.7304136025352
 30
0.0
 11
-792.4855660392855
 21
-758.7304136025352
 31
0.0
  0
LWPOLYLINE
  5
200
330
1F
100
AcDbEntity
  8
F-4ﾚｲﾔ
  6
Continuous
 62
     7
370
     9
100
AcDbPolyline
 90
        4
 70
     1
 43
1.0
 10
-711.9872816220563
 20
-758.7304136025352
 42
0.4142135623731
 10
-712.4872816220563
 20
-758.2304136025352
 42
0.4142135623731
 10
-712.9872816220563
 20
-758.7304136025352
 42
0.4142135623731
 10
-712.4872816220563
 20
-759.2304136025352
 42
0.4142135623731
  0
LWPOLYLINE
  5
201
330
1F
100
AcDbEntity
  8
F-4ﾚｲﾔ
  6
Continuous
 62
     7
370
     9
100
AcDbPolyline
 90
        4
 70
     1
 43
1.0
 10
-791.9855660392855
 20
-758.7304136025352
 42
0.4142135623731
 10
-792.4855660392855
 20
-758.2304136025352
 42
0.4142135623731
 10
-792.9855660392855
 20
-758.7304136025352
 42
0.4142135623731
 10
-792.4855660392855
 20
-759.2304136025352
 42
0.4142135623731
  0
LINE
  5
202
330
1F
100
AcDbEntity
  8
F-4ﾚｲﾔ
  6
Continuous
 62
     7
370
     9
100
AcDbLine
 10
-712.4872816220563
 20
-755.7304136025352
 30
0.0
 11
-712.4872816220563
 21
-817.7765664970963
 31
0.0
  0
LINE
  5
203
330
1F
100
AcDbEntity
  8
F-4ﾚｲﾔ
  6
Continuous
 62
     7
370
     9
100
AcDbLine
 10
-792.4855660392855
 20
-755.7304136025352
 30
0.0
 11
-792.4855660392855
 21
-817.7765664970963
 31
0.0
  0
TEXT
  5
204
330
1F
100
AcDbEntity
  8
F-4ﾚｲﾔ
  6
Continuous
 62
     2
370
   211
100
AcDbText
 10
-762.4864238306709
 20
-747.0904136025352
 30
0.0
 40
30.48
  1
8
 41
0.9999999999999998
  7
ＭＳ ゴシック
100
AcDbText
  0
LWPOLYLINE
  5
205
330
1F
100
AcDbEntity
  8
F-4ﾚｲﾔ
  6
Continuous
 62
     7
370
     9
100
AcDbPolyline
 90
        4
 70
     1
 43
1.0
 10
-881.9855660392855
 20
-758.7304136025352
 42
0.4142135623731
 10
-882.4855660392855
 20
-758.2304136025352
 42
0.4142135623731
 10
-882.9855660392855
 20
-758.7304136025352
 42
0.4142135623731
 10
-882.4855660392855
 20
-759.2304136025352
 42
0.4142135623731
  0
LINE
  5
206
330
1F
100
AcDbEntity
  8
F-4ﾚｲﾔ
  6
Continuous
 62
     7
370
     9
100
AcDbLine
 10
-882.4855660392855
 20
-755.7304136025352
 30
0.0
 11
-882.4855660392855
 21
-817.7765664970963
 31
0.0
  0
LINE
  5
207
330
1F
100
AcDbEntity
  8
F-4ﾚｲﾔ
  6
Continuous
 62
     7
370
     9
100
AcDbLine
 10
-882.4855660392855
 20
-758.7304136025352
 30
0.0
 11
-962.4838504565146
 21
-758.7304136025352
 31
0.0
  0
LWPOLYLINE
  5
208
330
1F
100
AcDbEntity
  8
F-4ﾚｲﾔ
  6
Continuous
 62
     7
370
     9
100
AcDbPolyline
 90
        4
 70
     1
 43
1.0
 10
-961.9838504565146
 20
-758.7304136025352
 42
0.4142135623731
 10
-962.4838504565146
 20
-758.2304136025352
 42
0.4142135623731
 10
-962.9838504565146
 20
-758.7304136025352
 42
0.4142135623731
 10
-962.4838504565146
 20
-759.2304136025352
 42
0.4142135623731
  0
LINE
  5
209
330
1F
100
AcDbEntity
  8
F-4ﾚｲﾔ
  6
Continuous
 62
     7
370
     9
100
AcDbLine
 10
-962.4838504565146
 20
-755.7304136025352
 30
0.0
 11
-962.4838504565146
 21
-817.7765664970963
 31
0.0
  0
TEXT
  5
20A
330
1F
100
AcDbEntity
  8
F-4ﾚｲﾔ
  6
Continuous
 62
     2
370
   211
100
AcDbText
 10
-932.4847082479
 20
-747.0904136025352
 30
0.0
 40
30.48
  1
8
 41
0.9999999999999998
  7
ＭＳ ゴシック
100
AcDbText
  0
LWPOLYLINE
  5
20B
330
1F
100
AcDbEntity
  8
F-4ﾚｲﾔ
  6
Continuous
 62
     7
370
     9
100
AcDbPolyline
 90
        4
 70
     1
 43
1.0
 10
-1051.983850456515
 20
-758.7304136025352
 42
0.4142135623731
 10
-1052.483850456515
 20
-758.2304136025352
 42
0.4142135623731
 10
-1052.983850456514
 20
-758.7304136025352
 42
0.4142135623731
 10
-1052.483850456515
 20
-759.2304136025352
 42
0.4142135623731
  0
LINE
  5
20C
330
1F
100
AcDbEntity
  8
F-4ﾚｲﾔ
  6
Continuous
 62
     7
370
     9
100
AcDbLine
 10
-1052.483850456515
 20
-755.7304136025352
 30
0.0
 11
-1052.483850456515
 21
-817.7765664970963
 31
0.0
  0
LINE
  5
20D
330
1F
100
AcDbEntity
  8
F-4ﾚｲﾔ
  6
Continuous
 62
     7
370
     9
100
AcDbLine
 10
-1052.483850456515
 20
-758.7304136025352
 30
0.0
 11
-1132.482134873745
 21
-758.7304136025352
 31
0.0
  0
LWPOLYLINE
  5
20E
330
1F
100
AcDbEntity
  8
F-4ﾚｲﾔ
  6
Continuous
 62
     7
370
     9
100
AcDbPolyline
 90
        4
 70
     1
 43
1.0
 10
-1131.982134873745
 20
-758.7304136025352
 42
0.4142135623731
 10
-1132.482134873745
 20
-758.2304136025352
 42
0.4142135623731
 10
-1132.982134873745
 20
-758.7304136025352
 42
0.4142135623731
 10
-1132.482134873745
 20
-759.2304136025352
 42
0.4142135623731
  0
LINE
  5
20F
330
1F
100
AcDbEntity
  8
F-4ﾚｲﾔ
  6
Continuous
 62
     7
370
     9
100
AcDbLine
 10
-1132.482134873745
 20
-755.7304136025352
 30
0.0
 11
-1132.482134873745
 21
-817.7765664970963
 31
0.0
  0
TEXT
  5
210
330
1F
100
AcDbEntity
  8
F-4ﾚｲﾔ
  6
Continuous
 62
     2
370
   211
100
AcDbText
 10
-1102.48299266513
 20
-747.0904136025352
 30
0.0
 40
30.48
  1
8
 41
0.9999999999999998
  7
ＭＳ ゴシック
100
AcDbText
  0
LINE
  5
211
330
1F
100
AcDbEntity
  8
F-4ﾚｲﾔ
  6
Continuous
 62
     7
370
     9
100
AcDbLine
 10
-792.4855660392855
 20
-758.7304136025352
 30
0.0
 11
-882.4855660392855
 21
-758.7304136025352
 31
0.0
  0
TEXT
  5
212
330
1F
100
AcDbEntity
  8
F-4ﾚｲﾔ
  6
Continuous
 62
     2
370
   211
100
AcDbText
 10
-847.4855660392855
 20
-747.0904136025352
 30
0.0
 40
30.48
  1
9
 41
0.9999999999999998
  7
ＭＳ ゴシック
100
AcDbText
  0
LINE
  5
213
330
1F
100
AcDbEntity
  8
F-4ﾚｲﾔ
  6
Continuous
 62
     7
370
     9
100
AcDbLine
 10
-962.4838504565146
 20
-758.7304136025352
 30
0.0
 11
-1052.483850456515
 21
-758.7304136025352
 31
0.0
  0
TEXT
  5
214
330
1F
100
AcDbEntity
  8
F-4ﾚｲﾔ
  6
Continuous
 62
     2
370
   211
100
AcDbText
 10
-1017.483850456514
 20
-747.0904136025352
 30
0.0
 40
30.48
  1
9
 41
0.9999999999999998
  7
ＭＳ ゴシック
100
AcDbText
  0
LWPOLYLINE
  5
215
330
1F
100
AcDbEntity
  8
F-4ﾚｲﾔ
  6
Continuous
 62
     7
370
     9
100
AcDbPolyline
 90
        4
 70
     1
 43
1.0
 10
-928.9847808302479
 20
-1066.119214146242
 42
0.4142135623731
 10
-929.4847808302479
 20
-1065.619214146242
 42
0.4142135623731
 10
-929.9847808302479
 20
-1066.119214146242
 42
0.4142135623731
 10
-929.4847808302479
 20
-1066.619214146242
 42
0.4142135623731
  0
LWPOLYLINE
  5
216
330
1F
100
AcDbEntity
  8
F-4ﾚｲﾔ
  6
Continuous
 62
     7
370
     9
100
AcDbPolyline
 90
        4
 70
     1
 43
1.0
 10
-914.9846356655521
 20
-1066.119214146242
 42
0.4142135623731
 10
-915.4846356655521
 20
-1065.619214146242
 42
0.4142135623731
 10
-915.9846356655521
 20
-1066.119214146242
 42
0.4142135623731
 10
-915.4846356655521
 20
-1066.619214146242
 42
0.4142135623731
  0
LINE
  5
217
330
1F
100
AcDbEntity
  8
F-4ﾚｲﾔ
  6
Continuous
 62
     7
370
     9
100
AcDbLine
 10
-915.4846356655521
 20
-1005.77680691968
 30
0.0
 11
-915.4846356655521
 21
-1069.119174555872
 31
0.0
  0
LINE
  5
218
330
1F
100
AcDbEntity
  8
F-4ﾚｲﾔ
  6
Continuous
 62
     7
370
     9
100
AcDbLine
 10
-929.4847808302479
 20
-1005.77680691968
 30
0.0
 11
-929.4847808302479
 21
-1069.119174555872
 31
0.0
  0
LINE
  5
219
330
1F
100
AcDbEntity
  8
F-4ﾚｲﾔ
  6
Continuous
 62
     7
370
     9
100
AcDbLine
 10
-813.4978588496729
 20
-1066.119214146242
 30
0.0
 11
-929.4847808302479
 21
-1066.119214146242
 31
0.0
  0
TEXT
  5
21A
330
1F
100
AcDbEntity
  8
F-4ﾚｲﾔ
  6
Continuous
 62
     2
370
     9
100
AcDbText
 10
-881.8293556296562
 20
-1050.479181154266
 30
0.0
 40
30.48
  1
1.4
 41
1.083333333333333
  7
ＭＳ ゴシック
100
AcDbText
  0
LINE
  5
21B
330
1F
100
AcDbEntity
  8
E-A
  6
Continuous
 62
     3
370
     9
100
AcDbLine
 10
-1822.430458751904
 20
597.5812284131677
 30
0.0
 11
-1822.430458751904
 21
613.581182224401
 31
0.0
  0
LINE
  5
21C
330
1F
100
AcDbEntity
  8
E-A
  6
Continuous
 62
     3
370
     9
100
AcDbLine
 10
-162.4304488543102
 20
613.581182224401
 30
0.0
 11
-162.4304488543102
 21
597.5812284131677
 31
0.0
  0
LINE
  5
21D
330
1F
100
AcDbEntity
  8
E-A
  6
Continuous
 62
     3
370
     9
100
AcDbLine
 10
-1769.501794003171
 20
579.5812284131712
 30
0.0
 11
-1769.501794003171
 21
597.5812284131711
 31
0.0
  0
LINE
  5
21E
330
1F
100
AcDbEntity
  8
E-A
  6
Continuous
 62
     3
370
     9
100
AcDbLine
 10
-1762.430458751904
 20
579.5812284131712
 30
0.0
 11
-1762.430458751904
 21
597.5812284131711
 31
0.0
  0
LINE
  5
21F
330
1F
100
AcDbEntity
  8
E-A
  6
Continuous
 62
     3
370
     9
100
AcDbLine
 10
-1755.359420428425
 20
579.5812284131712
 30
0.0
 11
-1755.359420428425
 21
597.5812284131711
 31
0.0
  0
LINE
  5
220
330
1F
100
AcDbEntity
  8
E-A
  6
Continuous
 62
     3
370
     9
100
AcDbLine
 10
-229.5014871777915
 20
579.5812284131712
 30
0.0
 11
-229.5014871777915
 21
597.5812284131711
 31
0.0
  0
LINE
  5
221
330
1F
100
AcDbEntity
  8
E-A
  6
Continuous
 62
     3
370
     9
100
AcDbLine
 10
-222.4304488543102
 20
579.5812284131712
 30
0.0
 11
-222.4304488543102
 21
597.5812284131711
 31
0.0
  0
LINE
  5
222
330
1F
100
AcDbEntity
  8
E-A
  6
Continuous
 62
     3
370
     9
100
AcDbLine
 10
-215.3592620669373
 20
579.5812284131712
 30
0.0
 11
-215.3592620669373
 21
597.5812284131711
 31
0.0
  0
LINE
  5
223
330
1F
100
AcDbEntity
  8
E-A
  6
Continuous
 62
     3
370
     9
100
AcDbLine
 10
-162.4304488543102
 20
613.581182224401
 30
0.0
 11
-162.4304488543102
 21
597.5812284131677
 31
0.0
  0
LINE
  5
224
330
1F
100
AcDbEntity
  8
E-A
  6
Continuous
 62
     3
370
     9
100
AcDbLine
 10
-1769.501794003171
 20
579.5812284131723
 30
0.0
 11
-1769.501794003171
 21
597.5812284131711
 31
0.0
  0
LINE
  5
225
330
1F
100
AcDbEntity
  8
E-A
  6
Continuous
 62
     3
370
     9
100
AcDbLine
 10
-1762.430458751904
 20
579.5812284131723
 30
0.0
 11
-1762.430458751904
 21
597.5812284131711
 31
0.0
  0
LINE
  5
226
330
1F
100
AcDbEntity
  8
E-A
  6
Continuous
 62
     3
370
     9
100
AcDbLine
 10
-1755.359420428425
 20
579.5812284131723
 30
0.0
 11
-1755.359420428425
 21
597.5812284131711
 31
0.0
  0
LINE
  5
227
330
1F
100
AcDbEntity
  8
E-A
  6
Continuous
 62
     3
370
     9
100
AcDbLine
 10
-229.5014871777915
 20
579.5812284131723
 30
0.0
 11
-229.5014871777915
 21
597.5812284131711
 31
0.0
  0
LINE
  5
228
330
1F
100
AcDbEntity
  8
E-A
  6
Continuous
 62
     3
370
     9
100
AcDbLine
 10
-222.4304488543102
 20
579.5812284131723
 30
0.0
 11
-222.4304488543102
 21
597.5812284131711
 31
0.0
  0
LINE
  5
229
330
1F
100
AcDbEntity
  8
E-A
  6
Continuous
 62
     3
370
     9
100
AcDbLine
 10
-215.3592620669373
 20
579.5812284131723
 30
0.0
 11
-215.3592620669373
 21
597.5812284131711
 31
0.0
  0
LINE
  5
22A
330
1F
100
AcDbEntity
  8
E-A
  6
Continuous
 62
     3
370
     9
100
AcDbLine
 10
-1822.430458751904
 20
597.5812284131677
 30
0.0
 11
-1822.430458751904
 21
613.581182224401
 31
0.0
  0
LINE
  5
22B
330
1F
100
AcDbEntity
  8
E-A
  6
Continuous
 62
     3
370
     9
100
AcDbLine
 10
-162.4304488543102
 20
613.581182224401
 30
0.0
 11
-162.4304488543102
 21
597.5812284131677
 31
0.0
  0
LINE
  5
22C
330
1F
100
AcDbEntity
  8
E-A
  6
Continuous
 62
     3
370
     9
100
AcDbLine
 10
-1769.501794003171
 20
579.5812284131712
 30
0.0
 11
-1769.501794003171
 21
597.5812284131711
 31
0.0
  0
LINE
  5
22D
330
1F
100
AcDbEntity
  8
E-A
  6
Continuous
 62
     3
370
     9
100
AcDbLine
 10
-1762.430458751904
 20
579.5812284131712
 30
0.0
 11
-1762.430458751904
 21
597.5812284131711
 31
0.0
  0
LINE
  5
22E
330
1F
100
AcDbEntity
  8
E-A
  6
Continuous
 62
     3
370
     9
100
AcDbLine
 10
-1755.359420428425
 20
579.5812284131712
 30
0.0
 11
-1755.359420428425
 21
597.5812284131711
 31
0.0
  0
LINE
  5
22F
330
1F
100
AcDbEntity
  8
E-A
  6
Continuous
 62
     3
370
     9
100
AcDbLine
 10
-229.5014871777915
 20
579.5812284131712
 30
0.0
 11
-229.5014871777915
 21
597.5812284131711
 31
0.0
  0
LINE
  5
230
330
1F
100
AcDbEntity
  8
E-A
  6
Continuous
 62
     3
370
     9
100
AcDbLine
 10
-222.4304488543102
 20
579.5812284131712
 30
0.0
 11
-222.4304488543102
 21
597.5812284131711
 31
0.0
  0
LINE
  5
231
330
1F
100
AcDbEntity
  8
E-A
  6
Continuous
 62
     3
370
     9
100
AcDbLine
 10
-215.3592620669373
 20
579.5812284131712
 30
0.0
 11
-215.3592620669373
 21
597.5812284131711
 31
0.0
  0
LINE
  5
232
330
1F
100
AcDbEntity
  8
E-A
  6
Continuous
 62
     3
370
     9
100
AcDbLine
 10
-162.4304488543102
 20
613.5811822244011
 30
0.0
 11
-162.4304488543102
 21
597.5812284131678
 31
0.0
  0
LINE
  5
233
330
1F
100
AcDbEntity
  8
E-A
  6
Continuous
 62
     3
370
     9
100
AcDbLine
 10
-237.3782159573523
 20
613.5811822244011
 30
0.0
 11
-162.4304488543102
 21
613.5811822244011
 31
0.0
  0
LINE
  5
234
330
1F
100
AcDbEntity
  8
E-A
  6
Continuous
 62
     3
370
     9
100
AcDbLine
 10
-237.3782159573523
 20
597.5812284131678
 30
0.0
 11
-162.4304488543102
 21
597.5812284131678
 31
0.0
  0
LINE
  5
235
330
1F
100
AcDbEntity
  8
E-A
  6
Continuous
 62
     3
370
     9
100
AcDbLine
 10
-229.5014871777915
 20
579.5812284131725
 30
0.0
 11
-229.5014871777915
 21
597.5812284131712
 31
0.0
  0
LINE
  5
236
330
1F
100
AcDbEntity
  8
E-A
  6
Continuous
 62
     3
370
     9
100
AcDbLine
 10
-222.4304488543102
 20
579.5812284131725
 30
0.0
 11
-222.4304488543102
 21
597.5812284131712
 31
0.0
  0
LINE
  5
237
330
1F
100
AcDbEntity
  8
E-A
  6
Continuous
 62
     3
370
     9
100
AcDbLine
 10
-215.3592620669373
 20
579.5812284131725
 30
0.0
 11
-215.3592620669373
 21
597.5812284131712
 31
0.0
  0
LINE
  5
238
330
1F
100
AcDbEntity
  8
E-A
  6
Continuous
 62
     3
370
     9
100
AcDbLine
 10
-1822.430458751904
 20
631.5811822244
 30
0.0
 11
-1822.430458751904
 21
647.5811360356333
 31
0.0
  0
LINE
  5
239
330
1F
100
AcDbEntity
  8
E-A
  6
Continuous
 62
     3
370
     9
100
AcDbLine
 10
-162.4304488543102
 20
647.5811360356333
 30
0.0
 11
-162.4304488543102
 21
631.5811822244
 31
0.0
  0
LINE
  5
23A
330
1F
100
AcDbEntity
  8
E-A
  6
Continuous
 62
     3
370
     9
100
AcDbLine
 10
-1769.501794003171
 20
613.5811822244044
 30
0.0
 11
-1769.501794003171
 21
631.5811822244034
 31
0.0
  0
LINE
  5
23B
330
1F
100
AcDbEntity
  8
E-A
  6
Continuous
 62
     3
370
     9
100
AcDbLine
 10
-1762.430458751904
 20
613.5811822244044
 30
0.0
 11
-1762.430458751904
 21
631.5811822244034
 31
0.0
  0
LINE
  5
23C
330
1F
100
AcDbEntity
  8
E-A
  6
Continuous
 62
     3
370
     9
100
AcDbLine
 10
-1755.359420428425
 20
613.5811822244044
 30
0.0
 11
-1755.359420428425
 21
631.5811822244034
 31
0.0
  0
LINE
  5
23D
330
1F
100
AcDbEntity
  8
E-A
  6
Continuous
 62
     3
370
     9
100
AcDbLine
 10
-229.5014871777915
 20
613.5811822244044
 30
0.0
 11
-229.5014871777915
 21
631.5811822244034
 31
0.0
  0
LINE
  5
23E
330
1F
100
AcDbEntity
  8
E-A
  6
Continuous
 62
     3
370
     9
100
AcDbLine
 10
-222.4304488543102
 20
613.5811822244044
 30
0.0
 11
-222.4304488543102
 21
631.5811822244034
 31
0.0
  0
LINE
  5
23F
330
1F
100
AcDbEntity
  8
E-A
  6
Continuous
 62
     3
370
     9
100
AcDbLine
 10
-215.3592620669373
 20
613.5811822244044
 30
0.0
 11
-215.3592620669373
 21
631.5811822244034
 31
0.0
  0
LINE
  5
240
330
1F
100
AcDbEntity
  8
E-A
  6
Continuous
 62
     3
370
     9
100
AcDbLine
 10
-162.4304488543102
 20
647.5811360356345
 30
0.0
 11
-162.4304488543102
 21
631.5811822244011
 31
0.0
  0
LINE
  5
241
330
1F
100
AcDbEntity
  8
E-A
  6
Continuous
 62
     3
370
     9
100
AcDbLine
 10
-229.5014871777915
 20
613.5811822244044
 30
0.0
 11
-229.5014871777915
 21
631.5811822244045
 31
0.0
  0
LINE
  5
242
330
1F
100
AcDbEntity
  8
E-A
  6
Continuous
 62
     3
370
     9
100
AcDbLine
 10
-222.4304488543102
 20
613.5811822244044
 30
0.0
 11
-222.4304488543102
 21
631.5811822244045
 31
0.0
  0
LINE
  5
243
330
1F
100
AcDbEntity
  8
E-A
  6
Continuous
 62
     3
370
     9
100
AcDbLine
 10
-215.3592620669373
 20
613.5811822244044
 30
0.0
 11
-215.3592620669373
 21
631.5811822244045
 31
0.0
  0
LINE
  5
244
330
1F
100
AcDbEntity
  8
E-A
  6
Continuous
 62
     3
370
     9
100
AcDbLine
 10
-162.4304488543102
 20
647.5811360356333
 30
0.0
 11
-162.4304488543102
 21
631.5811822244
 31
0.0
  0
LINE
  5
245
330
1F
100
AcDbEntity
  8
E-A
  6
Continuous
 62
     3
370
     9
100
AcDbLine
 10
-1769.501794003171
 20
613.5811822244044
 30
0.0
 11
-1769.501794003171
 21
631.5811822244034
 31
0.0
  0
LINE
  5
246
330
1F
100
AcDbEntity
  8
E-A
  6
Continuous
 62
     3
370
     9
100
AcDbLine
 10
-1762.430458751904
 20
613.5811822244044
 30
0.0
 11
-1762.430458751904
 21
631.5811822244034
 31
0.0
  0
LINE
  5
247
330
1F
100
AcDbEntity
  8
E-A
  6
Continuous
 62
     3
370
     9
100
AcDbLine
 10
-1755.359420428425
 20
613.5811822244044
 30
0.0
 11
-1755.359420428425
 21
631.5811822244034
 31
0.0
  0
LINE
  5
248
330
1F
100
AcDbEntity
  8
E-A
  6
Continuous
 62
     3
370
     9
100
AcDbLine
 10
-229.5014871777915
 20
613.5811822244044
 30
0.0
 11
-229.5014871777915
 21
631.5811822244034
 31
0.0
  0
LINE
  5
249
330
1F
100
AcDbEntity
  8
E-A
  6
Continuous
 62
     3
370
     9
100
AcDbLine
 10
-222.4304488543102
 20
613.5811822244044
 30
0.0
 11
-222.4304488543102
 21
631.5811822244034
 31
0.0
  0
LINE
  5
24A
330
1F
100
AcDbEntity
  8
E-A
  6
Continuous
 62
     3
370
     9
100
AcDbLine
 10
-215.3592620669373
 20
613.5811822244044
 30
0.0
 11
-215.3592620669373
 21
631.5811822244034
 31
0.0
  0
LINE
  5
24B
330
1F
100
AcDbEntity
  8
E-A
  6
Continuous
 62
     3
370
     9
100
AcDbLine
 10
-1822.430458751904
 20
665.5811360356345
 30
0.0
 11
-1822.430458751904
 21
681.5810898468678
 31
0.0
  0
LINE
  5
24C
330
1F
100
AcDbEntity
  8
E-A
  6
Continuous
 62
     3
370
     9
100
AcDbLine
 10
-162.4304488543102
 20
681.5810898468678
 30
0.0
 11
-162.4304488543102
 21
665.5811360356345
 31
0.0
  0
LINE
  5
24D
330
1F
100
AcDbEntity
  8
E-A
  6
Continuous
 62
     3
370
     9
100
AcDbLine
 10
-1769.501794003171
 20
647.5811360356367
 30
0.0
 11
-1769.501794003171
 21
665.5811360356379
 31
0.0
  0
LINE
  5
24E
330
1F
100
AcDbEntity
  8
E-A
  6
Continuous
 62
     3
370
     9
100
AcDbLine
 10
-1762.430458751904
 20
647.5811360356367
 30
0.0
 11
-1762.430458751904
 21
665.5811360356379
 31
0.0
  0
LINE
  5
24F
330
1F
100
AcDbEntity
  8
E-A
  6
Continuous
 62
     3
370
     9
100
AcDbLine
 10
-1755.359420428425
 20
647.5811360356367
 30
0.0
 11
-1755.359420428425
 21
665.5811360356379
 31
0.0
  0
LINE
  5
250
330
1F
100
AcDbEntity
  8
E-A
  6
Continuous
 62
     3
370
     9
100
AcDbLine
 10
-229.5014871777915
 20
647.5811360356367
 30
0.0
 11
-229.5014871777915
 21
665.5811360356379
 31
0.0
  0
LINE
  5
251
330
1F
100
AcDbEntity
  8
E-A
  6
Continuous
 62
     3
370
     9
100
AcDbLine
 10
-222.4304488543102
 20
647.5811360356367
 30
0.0
 11
-222.4304488543102
 21
665.5811360356379
 31
0.0
  0
LINE
  5
252
330
1F
100
AcDbEntity
  8
E-A
  6
Continuous
 62
     3
370
     9
100
AcDbLine
 10
-215.3592620669373
 20
647.5811360356367
 30
0.0
 11
-215.3592620669373
 21
665.5811360356379
 31
0.0
  0
LINE
  5
253
330
1F
100
AcDbEntity
  8
E-A
  6
Continuous
 62
     3
370
     9
100
AcDbLine
 10
-162.4304488543102
 20
681.5810898468679
 30
0.0
 11
-162.4304488543102
 21
665.5811360356345
 31
0.0
  0
LINE
  5
254
330
1F
100
AcDbEntity
  8
E-A
  6
Continuous
 62
     3
370
     9
100
AcDbLine
 10
-891.8748573741585
 20
681.5810898468679
 30
0.0
 11
-162.4304488543102
 21
681.5810898468679
 31
0.0
  0
LINE
  5
255
330
1F
100
AcDbEntity
  8
E-A
  6
Continuous
 62
     3
370
     9
100
AcDbLine
 10
-891.8748573741585
 20
665.5811360356345
 30
0.0
 11
-162.4304488543102
 21
665.5811360356345
 31
0.0
  0
LINE
  5
256
330
1F
100
AcDbEntity
  8
E-A
  6
Continuous
 62
     3
370
     9
100
AcDbLine
 10
-229.5014871777915
 20
647.5811360356379
 30
0.0
 11
-229.5014871777915
 21
665.5811360356379
 31
0.0
  0
LINE
  5
257
330
1F
100
AcDbEntity
  8
E-A
  6
Continuous
 62
     3
370
     9
100
AcDbLine
 10
-222.4304488543102
 20
647.5811360356379
 30
0.0
 11
-222.4304488543102
 21
665.5811360356379
 31
0.0
  0
LINE
  5
258
330
1F
100
AcDbEntity
  8
E-A
  6
Continuous
 62
     3
370
     9
100
AcDbLine
 10
-215.3592620669373
 20
647.5811360356379
 30
0.0
 11
-215.3592620669373
 21
665.5811360356379
 31
0.0
  0
LINE
  5
259
330
1F
100
AcDbEntity
  8
E-A
  6
Continuous
 62
     3
370
     9
100
AcDbLine
 10
-162.4304488543102
 20
681.5810898468678
 30
0.0
 11
-162.4304488543102
 21
665.5811360356345
 31
0.0
  0
LINE
  5
25A
330
1F
100
AcDbEntity
  8
E-A
  6
Continuous
 62
     3
370
     9
100
AcDbLine
 10
-229.5014871777915
 20
647.5811360356367
 30
0.0
 11
-229.5014871777915
 21
665.5811360356379
 31
0.0
  0
LINE
  5
25B
330
1F
100
AcDbEntity
  8
E-A
  6
Continuous
 62
     3
370
     9
100
AcDbLine
 10
-222.4304488543102
 20
647.5811360356367
 30
0.0
 11
-222.4304488543102
 21
665.5811360356379
 31
0.0
  0
LINE
  5
25C
330
1F
100
AcDbEntity
  8
E-A
  6
Continuous
 62
     3
370
     9
100
AcDbLine
 10
-215.3592620669373
 20
647.5811360356367
 30
0.0
 11
-215.3592620669373
 21
665.5811360356379
 31
0.0
  0
LINE
  5
25D
330
1F
100
AcDbEntity
  8
E-A
  6
Continuous
 62
     3
370
     9
100
AcDbLine
 10
-1822.430458751904
 20
699.5810898468665
 30
0.0
 11
-1822.430458751904
 21
715.5810436580998
 31
0.0
  0
LINE
  5
25E
330
1F
100
AcDbEntity
  8
E-A
  6
Continuous
 62
     3
370
     9
100
AcDbLine
 10
-162.4304488543102
 20
715.5810436580998
 30
0.0
 11
-162.4304488543102
 21
699.5810898468665
 31
0.0
  0
LINE
  5
25F
330
1F
100
AcDbEntity
  8
E-A
  6
Continuous
 62
     3
370
     9
100
AcDbLine
 10
-1769.501794003171
 20
681.5810898468712
 30
0.0
 11
-1769.501794003171
 21
699.5810898468699
 31
0.0
  0
LINE
  5
260
330
1F
100
AcDbEntity
  8
E-A
  6
Continuous
 62
     3
370
     9
100
AcDbLine
 10
-1762.430458751904
 20
681.5810898468712
 30
0.0
 11
-1762.430458751904
 21
699.5810898468699
 31
0.0
  0
LINE
  5
261
330
1F
100
AcDbEntity
  8
E-A
  6
Continuous
 62
     3
370
     9
100
AcDbLine
 10
-1755.359420428425
 20
681.5810898468712
 30
0.0
 11
-1755.359420428425
 21
699.5810898468699
 31
0.0
  0
LINE
  5
262
330
1F
100
AcDbEntity
  8
E-A
  6
Continuous
 62
     3
370
     9
100
AcDbLine
 10
-229.5014871777915
 20
681.5810898468712
 30
0.0
 11
-229.5014871777915
 21
699.5810898468699
 31
0.0
  0
LINE
  5
263
330
1F
100
AcDbEntity
  8
E-A
  6
Continuous
 62
     3
370
     9
100
AcDbLine
 10
-222.4304488543102
 20
681.5810898468712
 30
0.0
 11
-222.4304488543102
 21
699.5810898468699
 31
0.0
  0
LINE
  5
264
330
1F
100
AcDbEntity
  8
E-A
  6
Continuous
 62
     3
370
     9
100
AcDbLine
 10
-215.3592620669373
 20
681.5810898468712
 30
0.0
 11
-215.3592620669373
 21
699.5810898468699
 31
0.0
  0
LINE
  5
265
330
1F
100
AcDbEntity
  8
E-A
  6
Continuous
 62
     3
370
     9
100
AcDbLine
 10
-162.4304488543102
 20
715.5810436581011
 30
0.0
 11
-162.4304488543102
 21
699.5810898468677
 31
0.0
  0
LINE
  5
266
330
1F
100
AcDbEntity
  8
E-A
  6
Continuous
 62
     3
370
     9
100
AcDbLine
 10
-563.3002592164315
 20
715.5810436581011
 30
0.0
 11
-162.4304488543102
 21
715.5810436581011
 31
0.0
  0
LINE
  5
267
330
1F
100
AcDbEntity
  8
E-A
  6
Continuous
 62
     3
370
     9
100
AcDbLine
 10
-563.3002592164315
 20
699.5810898468677
 30
0.0
 11
-162.4304488543102
 21
699.5810898468677
 31
0.0
  0
LINE
  5
268
330
1F
100
AcDbEntity
  8
E-A
  6
Continuous
 62
     3
370
     9
100
AcDbLine
 10
-229.5014871777915
 20
681.5810898468714
 30
0.0
 11
-229.5014871777915
 21
699.5810898468711
 31
0.0
  0
LINE
  5
269
330
1F
100
AcDbEntity
  8
E-A
  6
Continuous
 62
     3
370
     9
100
AcDbLine
 10
-222.4304488543102
 20
681.5810898468714
 30
0.0
 11
-222.4304488543102
 21
699.5810898468711
 31
0.0
  0
LINE
  5
26A
330
1F
100
AcDbEntity
  8
E-A
  6
Continuous
 62
     3
370
     9
100
AcDbLine
 10
-215.3592620669373
 20
681.5810898468714
 30
0.0
 11
-215.3592620669373
 21
699.5810898468711
 31
0.0
  0
LINE
  5
26B
330
1F
100
AcDbEntity
  8
E-A
  6
Continuous
 62
     3
370
     9
100
AcDbLine
 10
-162.4304488543102
 20
715.5810436580999
 30
0.0
 11
-162.4304488543102
 21
699.5810898468665
 31
0.0
  0
LINE
  5
26C
330
1F
100
AcDbEntity
  8
E-A
  6
Continuous
 62
     3
370
     9
100
AcDbLine
 10
-891.8748573741585
 20
715.5810436580999
 30
0.0
 11
-162.4304488543102
 21
715.5810436580999
 31
0.0
  0
LINE
  5
26D
330
1F
100
AcDbEntity
  8
E-A
  6
Continuous
 62
     3
370
     9
100
AcDbLine
 10
-891.8748573741585
 20
699.5810898468665
 30
0.0
 11
-162.4304488543102
 21
699.5810898468665
 31
0.0
  0
LINE
  5
26E
330
1F
100
AcDbEntity
  8
E-A
  6
Continuous
 62
     3
370
     9
100
AcDbLine
 10
-229.5014871777915
 20
681.5810898468712
 30
0.0
 11
-229.5014871777915
 21
699.5810898468699
 31
0.0
  0
LINE
  5
26F
330
1F
100
AcDbEntity
  8
E-A
  6
Continuous
 62
     3
370
     9
100
AcDbLine
 10
-222.4304488543102
 20
681.5810898468712
 30
0.0
 11
-222.4304488543102
 21
699.5810898468699
 31
0.0
  0
LINE
  5
270
330
1F
100
AcDbEntity
  8
E-A
  6
Continuous
 62
     3
370
     9
100
AcDbLine
 10
-215.3592620669373
 20
681.5810898468712
 30
0.0
 11
-215.3592620669373
 21
699.5810898468699
 31
0.0
  0
LINE
  5
271
330
1F
100
AcDbEntity
  8
E-A
  6
Continuous
 62
     3
370
     9
100
AcDbLine
 10
-1822.430458751904
 20
733.581043658101
 30
0.0
 11
-1822.430458751904
 21
749.5809974693343
 31
0.0
  0
LINE
  5
272
330
1F
100
AcDbEntity
  8
E-A
  6
Continuous
 62
     3
370
     9
100
AcDbLine
 10
-162.4304488543102
 20
749.5809974693343
 30
0.0
 11
-162.4304488543102
 21
733.581043658101
 31
0.0
  0
LINE
  5
273
330
1F
100
AcDbEntity
  8
E-A
  6
Continuous
 62
     3
370
     9
100
AcDbLine
 10
-1769.501794003171
 20
715.5810436581032
 30
0.0
 11
-1769.501794003171
 21
733.5810436581044
 31
0.0
  0
LINE
  5
274
330
1F
100
AcDbEntity
  8
E-A
  6
Continuous
 62
     3
370
     9
100
AcDbLine
 10
-1762.430458751904
 20
715.5810436581032
 30
0.0
 11
-1762.430458751904
 21
733.5810436581044
 31
0.0
  0
LINE
  5
275
330
1F
100
AcDbEntity
  8
E-A
  6
Continuous
 62
     3
370
     9
100
AcDbLine
 10
-1755.359420428425
 20
715.5810436581032
 30
0.0
 11
-1755.359420428425
 21
733.5810436581044
 31
0.0
  0
LINE
  5
276
330
1F
100
AcDbEntity
  8
E-A
  6
Continuous
 62
     3
370
     9
100
AcDbLine
 10
-229.5014871777915
 20
715.5810436581032
 30
0.0
 11
-229.5014871777915
 21
733.5810436581044
 31
0.0
  0
LINE
  5
277
330
1F
100
AcDbEntity
  8
E-A
  6
Continuous
 62
     3
370
     9
100
AcDbLine
 10
-222.4304488543102
 20
715.5810436581032
 30
0.0
 11
-222.4304488543102
 21
733.5810436581044
 31
0.0
  0
LINE
  5
278
330
1F
100
AcDbEntity
  8
E-A
  6
Continuous
 62
     3
370
     9
100
AcDbLine
 10
-215.3592620669373
 20
715.5810436581032
 30
0.0
 11
-215.3592620669373
 21
733.5810436581044
 31
0.0
  0
LINE
  5
279
330
1F
100
AcDbEntity
  8
E-A
  6
Continuous
 62
     3
370
     9
100
AcDbLine
 10
-162.4304488543102
 20
749.5809974693344
 30
0.0
 11
-162.4304488543102
 21
733.5810436581011
 31
0.0
  0
LINE
  5
27A
330
1F
100
AcDbEntity
  8
E-A
  6
Continuous
 62
     3
370
     9
100
AcDbLine
 10
-237.3782159573523
 20
749.5809974693344
 30
0.0
 11
-162.4304488543102
 21
749.5809974693344
 31
0.0
  0
LINE
  5
27B
330
1F
100
AcDbEntity
  8
E-A
  6
Continuous
 62
     3
370
     9
100
AcDbLine
 10
-237.3782159573523
 20
733.5810436581011
 30
0.0
 11
-162.4304488543102
 21
733.5810436581011
 31
0.0
  0
LINE
  5
27C
330
1F
100
AcDbEntity
  8
E-A
  6
Continuous
 62
     3
370
     9
100
AcDbLine
 10
-229.5014871777915
 20
715.5810436581045
 30
0.0
 11
-229.5014871777915
 21
733.5810436581045
 31
0.0
  0
LINE
  5
27D
330
1F
100
AcDbEntity
  8
E-A
  6
Continuous
 62
     3
370
     9
100
AcDbLine
 10
-222.4304488543102
 20
715.5810436581045
 30
0.0
 11
-222.4304488543102
 21
733.5810436581045
 31
0.0
  0
LINE
  5
27E
330
1F
100
AcDbEntity
  8
E-A
  6
Continuous
 62
     3
370
     9
100
AcDbLine
 10
-215.3592620669373
 20
715.5810436581045
 30
0.0
 11
-215.3592620669373
 21
733.5810436581045
 31
0.0
  0
LINE
  5
27F
330
1F
100
AcDbEntity
  8
E-A
  6
Continuous
 62
     3
370
     9
100
AcDbLine
 10
-162.4304488543102
 20
749.5809974693344
 30
0.0
 11
-162.4304488543102
 21
733.5810436581011
 31
0.0
  0
LINE
  5
280
330
1F
100
AcDbEntity
  8
E-A
  6
Continuous
 62
     3
370
     9
100
AcDbLine
 10
-563.3002592164315
 20
749.5809974693344
 30
0.0
 11
-162.4304488543102
 21
749.5809974693344
 31
0.0
  0
LINE
  5
281
330
1F
100
AcDbEntity
  8
E-A
  6
Continuous
 62
     3
370
     9
100
AcDbLine
 10
-563.3002592164315
 20
733.5810436581011
 30
0.0
 11
-162.4304488543102
 21
733.5810436581011
 31
0.0
  0
LINE
  5
282
330
1F
100
AcDbEntity
  8
E-A
  6
Continuous
 62
     3
370
     9
100
AcDbLine
 10
-229.5014871777915
 20
715.5810436581033
 30
0.0
 11
-229.5014871777915
 21
733.5810436581045
 31
0.0
  0
LINE
  5
283
330
1F
100
AcDbEntity
  8
E-A
  6
Continuous
 62
     3
370
     9
100
AcDbLine
 10
-222.4304488543102
 20
715.5810436581033
 30
0.0
 11
-222.4304488543102
 21
733.5810436581045
 31
0.0
  0
LINE
  5
284
330
1F
100
AcDbEntity
  8
E-A
  6
Continuous
 62
     3
370
     9
100
AcDbLine
 10
-215.3592620669373
 20
715.5810436581033
 30
0.0
 11
-215.3592620669373
 21
733.5810436581045
 31
0.0
  0
LINE
  5
285
330
1F
100
AcDbEntity
  8
E-A
  6
Continuous
 62
     3
370
     9
100
AcDbLine
 10
-162.4304488543102
 20
783.5809512805677
 30
0.0
 11
-162.4304488543102
 21
767.5809974693343
 31
0.0
  0
LINE
  5
286
330
1F
100
AcDbEntity
  8
E-A
  6
Continuous
 62
     3
370
     9
100
AcDbLine
 10
-1769.501794003171
 20
749.5809974693377
 30
0.0
 11
-1769.501794003171
 21
767.5809974693377
 31
0.0
  0
LINE
  5
287
330
1F
100
AcDbEntity
  8
E-A
  6
Continuous
 62
     3
370
     9
100
AcDbLine
 10
-1762.430458751904
 20
749.5809974693377
 30
0.0
 11
-1762.430458751904
 21
767.5809974693377
 31
0.0
  0
LINE
  5
288
330
1F
100
AcDbEntity
  8
E-A
  6
Continuous
 62
     3
370
     9
100
AcDbLine
 10
-1755.359420428425
 20
749.5809974693377
 30
0.0
 11
-1755.359420428425
 21
767.5809974693377
 31
0.0
  0
LINE
  5
289
330
1F
100
AcDbEntity
  8
E-A
  6
Continuous
 62
     3
370
     9
100
AcDbLine
 10
-229.5014871777915
 20
749.5809974693377
 30
0.0
 11
-229.5014871777915
 21
767.5809974693377
 31
0.0
  0
LINE
  5
28A
330
1F
100
AcDbEntity
  8
E-A
  6
Continuous
 62
     3
370
     9
100
AcDbLine
 10
-222.4304488543102
 20
749.5809974693377
 30
0.0
 11
-222.4304488543102
 21
767.5809974693377
 31
0.0
  0
LINE
  5
28B
330
1F
100
AcDbEntity
  8
E-A
  6
Continuous
 62
     3
370
     9
100
AcDbLine
 10
-215.3592620669373
 20
749.5809974693377
 30
0.0
 11
-215.3592620669373
 21
767.5809974693377
 31
0.0
  0
LINE
  5
28C
330
1F
100
AcDbEntity
  8
E-A
  6
Continuous
 62
     3
370
     9
100
AcDbLine
 10
-162.4304488543102
 20
783.5809512805678
 30
0.0
 11
-162.4304488543102
 21
767.5809974693344
 31
0.0
  0
LINE
  5
28D
330
1F
100
AcDbEntity
  8
E-A
  6
Continuous
 62
     3
370
     9
100
AcDbLine
 10
-237.3782159573523
 20
783.5809512805678
 30
0.0
 11
-162.4304488543102
 21
783.5809512805678
 31
0.0
  0
LINE
  5
28E
330
1F
100
AcDbEntity
  8
E-A
  6
Continuous
 62
     3
370
     9
100
AcDbLine
 10
-237.3782159573523
 20
767.5809974693344
 30
0.0
 11
-162.4304488543102
 21
767.5809974693344
 31
0.0
  0
LINE
  5
28F
330
1F
100
AcDbEntity
  8
E-A
  6
Continuous
 62
     3
370
     9
100
AcDbLine
 10
-229.5014871777915
 20
749.5809974693378
 30
0.0
 11
-229.5014871777915
 21
767.5809974693378
 31
0.0
  0
LINE
  5
290
330
1F
100
AcDbEntity
  8
E-A
  6
Continuous
 62
     3
370
     9
100
AcDbLine
 10
-222.4304488543102
 20
749.5809974693378
 30
0.0
 11
-222.4304488543102
 21
767.5809974693378
 31
0.0
  0
LINE
  5
291
330
1F
100
AcDbEntity
  8
E-A
  6
Continuous
 62
     3
370
     9
100
AcDbLine
 10
-215.3592620669373
 20
749.5809974693378
 30
0.0
 11
-215.3592620669373
 21
767.5809974693378
 31
0.0
  0
LINE
  5
292
330
1F
100
AcDbEntity
  8
E-A
  6
Continuous
 62
     3
370
     9
100
AcDbLine
 10
-162.4304488543102
 20
817.580905091801
 30
0.0
 11
-162.4304488543102
 21
801.5809512805677
 31
0.0
  0
LINE
  5
293
330
1F
100
AcDbEntity
  8
E-A
  6
Continuous
 62
     3
370
     9
100
AcDbLine
 10
-229.5014871777915
 20
783.5809512805711
 30
0.0
 11
-229.5014871777915
 21
801.5809512805711
 31
0.0
  0
LINE
  5
294
330
1F
100
AcDbEntity
  8
E-A
  6
Continuous
 62
     3
370
     9
100
AcDbLine
 10
-222.4304488543102
 20
783.5809512805711
 30
0.0
 11
-222.4304488543102
 21
801.5809512805711
 31
0.0
  0
LINE
  5
295
330
1F
100
AcDbEntity
  8
E-A
  6
Continuous
 62
     3
370
     9
100
AcDbLine
 10
-215.3592620669373
 20
783.5809512805711
 30
0.0
 11
-215.3592620669373
 21
801.5809512805711
 31
0.0
  0
LINE
  5
296
330
1F
100
AcDbEntity
  8
E-A
  6
Continuous
 62
     3
370
     9
100
AcDbLine
 10
-162.4304488543102
 20
851.5808589030346
 30
0.0
 11
-162.4304488543102
 21
835.580905091801
 31
0.0
  0
LINE
  5
297
330
1F
100
AcDbEntity
  8
E-A
  6
Continuous
 62
     3
370
     9
100
AcDbLine
 10
-891.8748573741585
 20
851.5808589030346
 30
0.0
 11
-162.4304488543102
 21
851.5808589030346
 31
0.0
  0
LINE
  5
298
330
1F
100
AcDbEntity
  8
E-A
  6
Continuous
 62
     3
370
     9
100
AcDbLine
 10
-891.8748573741585
 20
835.580905091801
 30
0.0
 11
-162.4304488543102
 21
835.580905091801
 31
0.0
  0
LINE
  5
299
330
1F
100
AcDbEntity
  8
E-A
  6
Continuous
 62
     3
370
     9
100
AcDbLine
 10
-229.5014871777915
 20
817.5809050918044
 30
0.0
 11
-229.5014871777915
 21
835.5809050918044
 31
0.0
  0
LINE
  5
29A
330
1F
100
AcDbEntity
  8
E-A
  6
Continuous
 62
     3
370
     9
100
AcDbLine
 10
-222.4304488543102
 20
817.5809050918044
 30
0.0
 11
-222.4304488543102
 21
835.5809050918044
 31
0.0
  0
LINE
  5
29B
330
1F
100
AcDbEntity
  8
E-A
  6
Continuous
 62
     3
370
     9
100
AcDbLine
 10
-215.3592620669373
 20
817.5809050918044
 30
0.0
 11
-215.3592620669373
 21
835.5809050918044
 31
0.0
  0
LINE
  5
29C
330
1F
100
AcDbEntity
  8
E-A
  6
Continuous
 62
     3
370
     9
100
AcDbLine
 10
-162.4304488543102
 20
885.5808127142678
 30
0.0
 11
-162.4304488543102
 21
869.5808589030345
 31
0.0
  0
LINE
  5
29D
330
1F
100
AcDbEntity
  8
E-A
  6
Continuous
 62
     3
370
     9
100
AcDbLine
 10
-563.3002592164315
 20
885.5808127142678
 30
0.0
 11
-162.4304488543102
 21
885.5808127142678
 31
0.0
  0
LINE
  5
29E
330
1F
100
AcDbEntity
  8
E-A
  6
Continuous
 62
     3
370
     9
100
AcDbLine
 10
-563.3002592164315
 20
869.5808589030345
 30
0.0
 11
-162.4304488543102
 21
869.5808589030345
 31
0.0
  0
LINE
  5
29F
330
1F
100
AcDbEntity
  8
E-A
  6
Continuous
 62
     3
370
     9
100
AcDbLine
 10
-229.5014871777915
 20
851.580858903038
 30
0.0
 11
-229.5014871777915
 21
869.5808589030379
 31
0.0
  0
LINE
  5
2A0
330
1F
100
AcDbEntity
  8
E-A
  6
Continuous
 62
     3
370
     9
100
AcDbLine
 10
-222.4304488543102
 20
851.580858903038
 30
0.0
 11
-222.4304488543102
 21
869.5808589030379
 31
0.0
  0
LINE
  5
2A1
330
1F
100
AcDbEntity
  8
E-A
  6
Continuous
 62
     3
370
     9
100
AcDbLine
 10
-215.3592620669373
 20
851.580858903038
 30
0.0
 11
-215.3592620669373
 21
869.5808589030379
 31
0.0
  0
LINE
  5
2A2
330
1F
100
AcDbEntity
  8
E-A
  6
Continuous
 62
     3
370
     9
100
AcDbLine
 10
-237.3782159573523
 20
903.5808127142678
 30
0.0
 11
-162.4304488543102
 21
903.5808127142678
 31
0.0
  0
LINE
  5
2A3
330
1F
100
AcDbEntity
  8
E-A
  6
Continuous
 62
     3
370
     9
100
AcDbLine
 10
-229.5014871777915
 20
885.5808127142712
 30
0.0
 11
-229.5014871777915
 21
903.5808127142712
 31
0.0
  0
LINE
  5
2A4
330
1F
100
AcDbEntity
  8
E-A
  6
Continuous
 62
     3
370
     9
100
AcDbLine
 10
-222.4304488543102
 20
885.5808127142712
 30
0.0
 11
-222.4304488543102
 21
903.5808127142712
 31
0.0
  0
LINE
  5
2A5
330
1F
100
AcDbEntity
  8
E-A
  6
Continuous
 62
     3
370
     9
100
AcDbLine
 10
-215.3592620669373
 20
885.5808127142712
 30
0.0
 11
-215.3592620669373
 21
903.5808127142712
 31
0.0
  0
LINE
  5
2A6
330
1F
100
AcDbEntity
  8
E-A
  6
Continuous
 62
     3
370
     9
100
AcDbLine
 10
-162.4304488543102
 20
919.5808127142677
 30
0.0
 11
-162.4304488543102
 21
903.5808127142678
 31
0.0
  0
LINE
  5
2A7
330
1F
100
AcDbEntity
  8
E-A
  6
Continuous
 62
     3
370
     9
100
AcDbLine
 10
-237.3782159573523
 20
919.5808127142677
 30
0.0
 11
-162.4304488543102
 21
919.5808127142677
 31
0.0
  0
LINE
  5
2A8
330
1F
100
AcDbEntity
  8
E-A
  6
Continuous
 62
     3
370
     9
100
AcDbLine
 10
-1222.620560799097
 20
817.580905091801
 30
0.0
 11
-1040.072658965883
 21
817.580905091801
 31
0.0
  0
LINE
  5
2A9
330
1F
100
AcDbEntity
  8
E-A
  6
Continuous
 62
     3
370
     9
100
AcDbLine
 10
-1822.430458751904
 20
563.5812746019344
 30
0.0
 11
-1063.259392336612
 21
563.5812746019344
 31
0.0
  0
LINE
  5
2AA
330
1F
100
AcDbEntity
  8
E-A
  6
Continuous
 62
     3
370
     9
100
AcDbLine
 10
-1822.430458751904
 20
579.5812284131678
 30
0.0
 11
-1061.798812798565
 21
579.5812284131678
 31
0.0
  0
LINE
  5
2AB
330
1F
100
AcDbEntity
  8
E-A
  6
Continuous
 62
     3
370
     9
100
AcDbLine
 10
-1822.430458751904
 20
563.5812746019355
 30
0.0
 11
-1063.259392336612
 21
563.5812746019355
 31
0.0
  0
LINE
  5
2AC
330
1F
100
AcDbEntity
  8
E-A
  6
Continuous
 62
     3
370
     9
100
AcDbLine
 10
-1822.430458751904
 20
579.5812284131689
 30
0.0
 11
-1061.798812798565
 21
579.5812284131689
 31
0.0
  0
LINE
  5
2AD
330
1F
100
AcDbEntity
  8
E-A
  6
Continuous
 62
     3
370
     9
100
AcDbLine
 10
-1822.430458751904
 20
563.5812746019344
 30
0.0
 11
-1063.259392336612
 21
563.5812746019344
 31
0.0
  0
LINE
  5
2AE
330
1F
100
AcDbEntity
  8
E-A
  6
Continuous
 62
     3
370
     9
100
AcDbLine
 10
-1822.430458751904
 20
579.5812284131678
 30
0.0
 11
-1061.798812798565
 21
579.5812284131678
 31
0.0
  0
LINE
  5
2AF
330
1F
100
AcDbEntity
  8
E-A
  6
Continuous
 62
     3
370
     9
100
AcDbLine
 10
-1822.430458751904
 20
597.5812284131677
 30
0.0
 11
-1060.1556560748
 21
597.5812284131677
 31
0.0
  0
LINE
  5
2B0
330
1F
100
AcDbEntity
  8
E-A
  6
Continuous
 62
     3
370
     9
100
AcDbLine
 10
-1822.430458751904
 20
613.581182224401
 30
0.0
 11
-1058.695076536753
 21
613.581182224401
 31
0.0
  0
LINE
  5
2B1
330
1F
100
AcDbEntity
  8
E-A
  6
Continuous
 62
     3
370
     9
100
AcDbLine
 10
-1596.362013597767
 20
613.581182224401
 30
0.0
 11
-1058.695076536753
 21
613.581182224401
 31
0.0
  0
LINE
  5
2B2
330
1F
100
AcDbEntity
  8
E-A
  6
Continuous
 62
     3
370
     9
100
AcDbLine
 10
-1596.362013597767
 20
597.5812284131677
 30
0.0
 11
-1060.1556560748
 21
597.5812284131677
 31
0.0
  0
LINE
  5
2B3
330
1F
100
AcDbEntity
  8
E-A
  6
Continuous
 62
     3
370
     9
100
AcDbLine
 10
-1822.430458751904
 20
597.5812284131677
 30
0.0
 11
-1060.1556560748
 21
597.5812284131677
 31
0.0
  0
LINE
  5
2B4
330
1F
100
AcDbEntity
  8
E-A
  6
Continuous
 62
     3
370
     9
100
AcDbLine
 10
-1822.430458751904
 20
613.581182224401
 30
0.0
 11
-1058.695076536753
 21
613.581182224401
 31
0.0
  0
LINE
  5
2B5
330
1F
100
AcDbEntity
  8
E-A
  6
Continuous
 62
     3
370
     9
100
AcDbLine
 10
-1822.430458751904
 20
631.5811822244
 30
0.0
 11
-1057.051919812989
 21
631.5811822244
 31
0.0
  0
LINE
  5
2B6
330
1F
100
AcDbEntity
  8
E-A
  6
Continuous
 62
     3
370
     9
100
AcDbLine
 10
-1822.430458751904
 20
647.5811360356333
 30
0.0
 11
-1055.591340274942
 21
647.5811360356333
 31
0.0
  0
LINE
  5
2B7
330
1F
100
AcDbEntity
  8
E-A
  6
Continuous
 62
     3
370
     9
100
AcDbLine
 10
-1222.620560799097
 20
647.5811360356345
 30
0.0
 11
-1055.591340274942
 21
647.5811360356345
 31
0.0
  0
LINE
  5
2B8
330
1F
100
AcDbEntity
  8
E-A
  6
Continuous
 62
     3
370
     9
100
AcDbLine
 10
-1222.620560799097
 20
631.5811822244011
 30
0.0
 11
-1057.051919812989
 21
631.5811822244011
 31
0.0
  0
LINE
  5
2B9
330
1F
100
AcDbEntity
  8
E-A
  6
Continuous
 62
     3
370
     9
100
AcDbLine
 10
-1596.362013597767
 20
647.5811360356333
 30
0.0
 11
-1055.591340274942
 21
647.5811360356333
 31
0.0
  0
LINE
  5
2BA
330
1F
100
AcDbEntity
  8
E-A
  6
Continuous
 62
     3
370
     9
100
AcDbLine
 10
-1596.362013597767
 20
631.5811822244
 30
0.0
 11
-1057.051919812989
 21
631.5811822244
 31
0.0
  0
LINE
  5
2BB
330
1F
100
AcDbEntity
  8
E-A
  6
Continuous
 62
     3
370
     9
100
AcDbLine
 10
-1822.430458751904
 20
665.5811360356345
 30
0.0
 11
-1053.948183551177
 21
665.5811360356345
 31
0.0
  0
LINE
  5
2BC
330
1F
100
AcDbEntity
  8
E-A
  6
Continuous
 62
     3
370
     9
100
AcDbLine
 10
-1822.430458751904
 20
681.5810898468678
 30
0.0
 11
-1052.48760401313
 21
681.5810898468678
 31
0.0
  0
LINE
  5
2BD
330
1F
100
AcDbEntity
  8
E-A
  6
Continuous
 62
     3
370
     9
100
AcDbLine
 10
-1222.620560799097
 20
681.5810898468678
 30
0.0
 11
-1052.48760401313
 21
681.5810898468678
 31
0.0
  0
LINE
  5
2BE
330
1F
100
AcDbEntity
  8
E-A
  6
Continuous
 62
     3
370
     9
100
AcDbLine
 10
-1222.620560799097
 20
665.5811360356345
 30
0.0
 11
-1053.948183551177
 21
665.5811360356345
 31
0.0
  0
LINE
  5
2BF
330
1F
100
AcDbEntity
  8
E-A
  6
Continuous
 62
     3
370
     9
100
AcDbLine
 10
-1822.430458751904
 20
699.5810898468665
 30
0.0
 11
-1050.844447289366
 21
699.5810898468665
 31
0.0
  0
LINE
  5
2C0
330
1F
100
AcDbEntity
  8
E-A
  6
Continuous
 62
     3
370
     9
100
AcDbLine
 10
-1822.430458751904
 20
715.5810436580998
 30
0.0
 11
-1049.383867751319
 21
715.5810436580998
 31
0.0
  0
LINE
  5
2C1
330
1F
100
AcDbEntity
  8
E-A
  6
Continuous
 62
     3
370
     9
100
AcDbLine
 10
-1822.430458751904
 20
733.581043658101
 30
0.0
 11
-1047.740711027554
 21
733.581043658101
 31
0.0
  0
LINE
  5
2C2
330
1F
100
AcDbEntity
  8
E-A
  6
Continuous
 62
     3
370
     9
100
AcDbLine
 10
-1822.430458751904
 20
749.5809974693343
 30
0.0
 11
-1046.280131489507
 21
749.5809974693343
 31
0.0
  0
LINE
  5
2C3
330
1F
100
AcDbEntity
  8
E-A
  6
Continuous
 62
     3
370
     9
100
AcDbLine
 10
-1596.362013597767
 20
767.5809974693343
 30
0.0
 11
-1044.636974765742
 21
767.5809974693343
 31
0.0
  0
LINE
  5
2C4
330
1F
100
AcDbEntity
  8
E-A
  6
Continuous
 62
     3
370
     9
100
AcDbLine
 10
-1596.362013597767
 20
783.5809512805677
 30
0.0
 11
-1043.176395227695
 21
783.5809512805677
 31
0.0
  0
LINE
  5
2C5
330
1F
100
AcDbEntity
  8
E-A
  6
Continuous
 62
     3
370
     9
100
AcDbLine
 10
-1222.620560799097
 20
801.5809512805677
 30
0.0
 11
-1041.533238503931
 21
801.5809512805677
 31
0.0
  0
LINE
  5
2C6
330
1F
100
AcDbEntity
  8
E-A
  6
Continuous
 62
     3
370
     9
100
AcDbLine
 10
-1024.006111305293
 20
817.580905091801
 30
0.0
 11
-162.4304488543102
 21
817.580905091801
 31
0.0
  0
LINE
  5
2C7
330
1F
100
AcDbEntity
  8
E-A
  6
Continuous
 62
     3
370
     9
100
AcDbLine
 10
-1047.192729491645
 20
563.5812746019344
 30
0.0
 11
-162.4304488543102
 21
563.5812746019344
 31
0.0
  0
LINE
  5
2C8
330
1F
100
AcDbEntity
  8
E-A
  6
Continuous
 62
     3
370
     9
100
AcDbLine
 10
-1047.192729491645
 20
563.5812746019344
 30
0.0
 11
-162.4304488543102
 21
563.5812746019344
 31
0.0
  0
LINE
  5
2C9
330
1F
100
AcDbEntity
  8
E-A
  6
Continuous
 62
     3
370
     9
100
AcDbLine
 10
-1045.732157209296
 20
579.5812284131678
 30
0.0
 11
-162.4304488543102
 21
579.5812284131678
 31
0.0
  0
LINE
  5
2CA
330
1F
100
AcDbEntity
  8
E-A
  6
Continuous
 62
     3
370
     9
100
AcDbLine
 10
-1047.192729491645
 20
563.5812746019355
 30
0.0
 11
-162.4304488543102
 21
563.5812746019355
 31
0.0
  0
LINE
  5
2CB
330
1F
100
AcDbEntity
  8
E-A
  6
Continuous
 62
     3
370
     9
100
AcDbLine
 10
-1045.732157209296
 20
579.5812284131689
 30
0.0
 11
-162.4304488543102
 21
579.5812284131689
 31
0.0
  0
LINE
  5
2CC
330
1F
100
AcDbEntity
  8
E-A
  6
Continuous
 62
     3
370
     9
100
AcDbLine
 10
-1045.732157209296
 20
579.5812284131678
 30
0.0
 11
-162.4304488543102
 21
579.5812284131678
 31
0.0
  0
LINE
  5
2CD
330
1F
100
AcDbEntity
  8
E-A
  6
Continuous
 62
     3
370
     9
100
AcDbLine
 10
-1044.089008648216
 20
597.5812284131677
 30
0.0
 11
-162.4304488543102
 21
597.5812284131677
 31
0.0
  0
LINE
  5
2CE
330
1F
100
AcDbEntity
  8
E-A
  6
Continuous
 62
     3
370
     9
100
AcDbLine
 10
-1042.628436365867
 20
613.581182224401
 30
0.0
 11
-162.4304488543102
 21
613.581182224401
 31
0.0
  0
LINE
  5
2CF
330
1F
100
AcDbEntity
  8
E-A
  6
Continuous
 62
     3
370
     9
100
AcDbLine
 10
-1042.628436365867
 20
613.581182224401
 30
0.0
 11
-162.4304488543102
 21
613.581182224401
 31
0.0
  0
LINE
  5
2D0
330
1F
100
AcDbEntity
  8
E-A
  6
Continuous
 62
     3
370
     9
100
AcDbLine
 10
-1044.089008648216
 20
597.5812284131677
 30
0.0
 11
-162.4304488543102
 21
597.5812284131677
 31
0.0
  0
LINE
  5
2D1
330
1F
100
AcDbEntity
  8
E-A
  6
Continuous
 62
     3
370
     9
100
AcDbLine
 10
-1044.089008648216
 20
597.5812284131677
 30
0.0
 11
-162.4304488543102
 21
597.5812284131677
 31
0.0
  0
LINE
  5
2D2
330
1F
100
AcDbEntity
  8
E-A
  6
Continuous
 62
     3
370
     9
100
AcDbLine
 10
-1042.628436365867
 20
613.581182224401
 30
0.0
 11
-162.4304488543102
 21
613.581182224401
 31
0.0
  0
LINE
  5
2D3
330
1F
100
AcDbEntity
  8
E-A
  6
Continuous
 62
     3
370
     9
100
AcDbLine
 10
-1040.985287804787
 20
631.5811822244
 30
0.0
 11
-162.4304488543102
 21
631.5811822244
 31
0.0
  0
LINE
  5
2D4
330
1F
100
AcDbEntity
  8
E-A
  6
Continuous
 62
     3
370
     9
100
AcDbLine
 10
-1039.524715522438
 20
647.5811360356333
 30
0.0
 11
-162.4304488543102
 21
647.5811360356333
 31
0.0
  0
LINE
  5
2D5
330
1F
100
AcDbEntity
  8
E-A
  6
Continuous
 62
     3
370
     9
100
AcDbLine
 10
-1039.524715522438
 20
647.5811360356345
 30
0.0
 11
-162.4304488543102
 21
647.5811360356345
 31
0.0
  0
LINE
  5
2D6
330
1F
100
AcDbEntity
  8
E-A
  6
Continuous
 62
     3
370
     9
100
AcDbLine
 10
-1040.985287804787
 20
631.5811822244011
 30
0.0
 11
-162.4304488543102
 21
631.5811822244011
 31
0.0
  0
LINE
  5
2D7
330
1F
100
AcDbEntity
  8
E-A
  6
Continuous
 62
     3
370
     9
100
AcDbLine
 10
-1039.524715522438
 20
647.5811360356333
 30
0.0
 11
-162.4304488543102
 21
647.5811360356333
 31
0.0
  0
LINE
  5
2D8
330
1F
100
AcDbEntity
  8
E-A
  6
Continuous
 62
     3
370
     9
100
AcDbLine
 10
-1040.985287804787
 20
631.5811822244
 30
0.0
 11
-162.4304488543102
 21
631.5811822244
 31
0.0
  0
LINE
  5
2D9
330
1F
100
AcDbEntity
  8
E-A
  6
Continuous
 62
     3
370
     9
100
AcDbLine
 10
-1037.881566961358
 20
665.5811360356345
 30
0.0
 11
-162.4304488543102
 21
665.5811360356345
 31
0.0
  0
LINE
  5
2DA
330
1F
100
AcDbEntity
  8
E-A
  6
Continuous
 62
     3
370
     9
100
AcDbLine
 10
-1036.420994679009
 20
681.5810898468678
 30
0.0
 11
-162.4304488543102
 21
681.5810898468678
 31
0.0
  0
LINE
  5
2DB
330
1F
100
AcDbEntity
  8
E-A
  6
Continuous
 62
     3
370
     9
100
AcDbLine
 10
-1036.420994679009
 20
681.5810898468678
 30
0.0
 11
-162.4304488543102
 21
681.5810898468678
 31
0.0
  0
LINE
  5
2DC
330
1F
100
AcDbEntity
  8
E-A
  6
Continuous
 62
     3
370
     9
100
AcDbLine
 10
-1037.881566961358
 20
665.5811360356345
 30
0.0
 11
-162.4304488543102
 21
665.5811360356345
 31
0.0
  0
LINE
  5
2DD
330
1F
100
AcDbEntity
  8
E-A
  6
Continuous
 62
     3
370
     9
100
AcDbLine
 10
-1034.777846117929
 20
699.5810898468665
 30
0.0
 11
-162.4304488543102
 21
699.5810898468665
 31
0.0
  0
LINE
  5
2DE
330
1F
100
AcDbEntity
  8
E-A
  6
Continuous
 62
     3
370
     9
100
AcDbLine
 10
-1033.31727383558
 20
715.5810436580998
 30
0.0
 11
-162.4304488543102
 21
715.5810436580998
 31
0.0
  0
LINE
  5
2DF
330
1F
100
AcDbEntity
  8
E-A
  6
Continuous
 62
     3
370
     9
100
AcDbLine
 10
-1031.674125274499
 20
733.581043658101
 30
0.0
 11
-162.4304488543102
 21
733.581043658101
 31
0.0
  0
LINE
  5
2E0
330
1F
100
AcDbEntity
  8
E-A
  6
Continuous
 62
     3
370
     9
100
AcDbLine
 10
-1030.213552992151
 20
749.5809974693343
 30
0.0
 11
-162.4304488543102
 21
749.5809974693343
 31
0.0
  0
LINE
  5
2E1
330
1F
100
AcDbEntity
  8
E-A
  6
Continuous
 62
     3
370
     9
100
AcDbLine
 10
-1027.109832148721
 20
783.5809512805677
 30
0.0
 11
-162.4304488543102
 21
783.5809512805677
 31
0.0
  0
LINE
  5
2E2
330
1F
100
AcDbEntity
  8
E-A
  6
Continuous
 62
     3
370
     9
100
AcDbLine
 10
-1028.57040443107
 20
767.5809974693343
 30
0.0
 11
-162.4304488543102
 21
767.5809974693343
 31
0.0
  0
LINE
  5
2E3
330
1F
100
AcDbEntity
  8
E-A
  6
Continuous
 62
     3
370
     9
100
AcDbLine
 10
-1025.466683587641
 20
801.5809512805677
 30
0.0
 11
-162.4304488543102
 21
801.5809512805677
 31
0.0
  0
LINE
  5
2E4
330
1F
100
AcDbEntity
  8
E-A
  6
Continuous
 62
     3
370
     9
100
AcDbLine
 10
-1822.430458751904
 20
1580.452869656183
 30
0.0
 11
-1822.430458751904
 21
1596.452823467416
 31
0.0
  0
LINE
  5
2E5
330
1F
100
AcDbEntity
  8
E-A
  6
Continuous
 62
     3
370
     9
100
AcDbLine
 10
-162.4304488543102
 20
1596.452823467416
 30
0.0
 11
-162.4304488543102
 21
1580.452869656183
 31
0.0
  0
LINE
  5
2E6
330
1F
100
AcDbEntity
  8
E-A
  6
Continuous
 62
     3
370
     9
100
AcDbLine
 10
-1769.501794003171
 20
1596.452823467419
 30
0.0
 11
-1769.501794003171
 21
1614.45282346742
 31
0.0
  0
LINE
  5
2E7
330
1F
100
AcDbEntity
  8
E-A
  6
Continuous
 62
     3
370
     9
100
AcDbLine
 10
-1762.430458751904
 20
1596.452823467419
 30
0.0
 11
-1762.430458751904
 21
1614.45282346742
 31
0.0
  0
LINE
  5
2E8
330
1F
100
AcDbEntity
  8
E-A
  6
Continuous
 62
     3
370
     9
100
AcDbLine
 10
-1755.359420428425
 20
1596.452823467419
 30
0.0
 11
-1755.359420428425
 21
1614.45282346742
 31
0.0
  0
LINE
  5
2E9
330
1F
100
AcDbEntity
  8
E-A
  6
Continuous
 62
     3
370
     9
100
AcDbLine
 10
-229.5014871777915
 20
1596.452823467419
 30
0.0
 11
-229.5014871777915
 21
1614.45282346742
 31
0.0
  0
LINE
  5
2EA
330
1F
100
AcDbEntity
  8
E-A
  6
Continuous
 62
     3
370
     9
100
AcDbLine
 10
-222.4304488543102
 20
1596.452823467419
 30
0.0
 11
-222.4304488543102
 21
1614.45282346742
 31
0.0
  0
LINE
  5
2EB
330
1F
100
AcDbEntity
  8
E-A
  6
Continuous
 62
     3
370
     9
100
AcDbLine
 10
-215.3592620669373
 20
1596.452823467419
 30
0.0
 11
-215.3592620669373
 21
1614.45282346742
 31
0.0
  0
LINE
  5
2EC
330
1F
100
AcDbEntity
  8
E-A
  6
Continuous
 62
     3
370
     9
100
AcDbLine
 10
-1822.430458751904
 20
1546.45291584495
 30
0.0
 11
-1822.430458751904
 21
1562.452869656183
 31
0.0
  0
LINE
  5
2ED
330
1F
100
AcDbEntity
  8
E-A
  6
Continuous
 62
     3
370
     9
100
AcDbLine
 10
-1769.501794003171
 20
1562.452869656186
 30
0.0
 11
-1769.501794003171
 21
1580.452869656186
 31
0.0
  0
LINE
  5
2EE
330
1F
100
AcDbEntity
  8
E-A
  6
Continuous
 62
     3
370
     9
100
AcDbLine
 10
-1762.430458751904
 20
1562.452869656186
 30
0.0
 11
-1762.430458751904
 21
1580.452869656186
 31
0.0
  0
LINE
  5
2EF
330
1F
100
AcDbEntity
  8
E-A
  6
Continuous
 62
     3
370
     9
100
AcDbLine
 10
-1755.359420428425
 20
1562.452869656186
 30
0.0
 11
-1755.359420428425
 21
1580.452869656186
 31
0.0
  0
LINE
  5
2F0
330
1F
100
AcDbEntity
  8
E-A
  6
Continuous
 62
     3
370
     9
100
AcDbLine
 10
-229.5014871777915
 20
1562.452869656183
 30
0.0
 11
-229.5014871777915
 21
1580.452869656186
 31
0.0
  0
LINE
  5
2F1
330
1F
100
AcDbEntity
  8
E-A
  6
Continuous
 62
     3
370
     9
100
AcDbLine
 10
-222.4304488543102
 20
1562.452869656183
 30
0.0
 11
-222.4304488543102
 21
1580.452869656186
 31
0.0
  0
LINE
  5
2F2
330
1F
100
AcDbEntity
  8
E-A
  6
Continuous
 62
     3
370
     9
100
AcDbLine
 10
-215.3592620669373
 20
1562.452869656183
 30
0.0
 11
-215.3592620669373
 21
1580.452869656186
 31
0.0
  0
LINE
  5
2F3
330
1F
100
AcDbEntity
  8
E-A
  6
Continuous
 62
     3
370
     9
100
AcDbLine
 10
-1822.430458751904
 20
1512.452962033716
 30
0.0
 11
-1822.430458751904
 21
1528.45291584495
 31
0.0
  0
LINE
  5
2F4
330
1F
100
AcDbEntity
  8
E-A
  6
Continuous
 62
     3
370
     9
100
AcDbLine
 10
-1769.501794003171
 20
1528.452915844953
 30
0.0
 11
-1769.501794003171
 21
1546.452915844953
 31
0.0
  0
LINE
  5
2F5
330
1F
100
AcDbEntity
  8
E-A
  6
Continuous
 62
     3
370
     9
100
AcDbLine
 10
-1762.430458751904
 20
1528.452915844953
 30
0.0
 11
-1762.430458751904
 21
1546.452915844953
 31
0.0
  0
LINE
  5
2F6
330
1F
100
AcDbEntity
  8
E-A
  6
Continuous
 62
     3
370
     9
100
AcDbLine
 10
-1755.359420428425
 20
1528.452915844953
 30
0.0
 11
-1755.359420428425
 21
1546.452915844953
 31
0.0
  0
LINE
  5
2F7
330
1F
100
AcDbEntity
  8
E-A
  6
Continuous
 62
     3
370
     9
100
AcDbLine
 10
-1822.430458751904
 20
1478.453008222482
 30
0.0
 11
-1822.430458751904
 21
1494.452962033716
 31
0.0
  0
LINE
  5
2F8
330
1F
100
AcDbEntity
  8
E-A
  6
Continuous
 62
     3
370
     9
100
AcDbLine
 10
-1769.501794003171
 20
1494.452962033719
 30
0.0
 11
-1769.501794003171
 21
1512.45296203372
 31
0.0
  0
LINE
  5
2F9
330
1F
100
AcDbEntity
  8
E-A
  6
Continuous
 62
     3
370
     9
100
AcDbLine
 10
-1762.430458751904
 20
1494.452962033719
 30
0.0
 11
-1762.430458751904
 21
1512.45296203372
 31
0.0
  0
LINE
  5
2FA
330
1F
100
AcDbEntity
  8
E-A
  6
Continuous
 62
     3
370
     9
100
AcDbLine
 10
-1755.359420428425
 20
1494.452962033719
 30
0.0
 11
-1755.359420428425
 21
1512.45296203372
 31
0.0
  0
LINE
  5
2FB
330
1F
100
AcDbEntity
  8
E-A
  6
Continuous
 62
     3
370
     9
100
AcDbLine
 10
-1822.430458751904
 20
1444.453054411253
 30
0.0
 11
-1822.430458751904
 21
1460.453008222486
 31
0.0
  0
LINE
  5
2FC
330
1F
100
AcDbEntity
  8
E-A
  6
Continuous
 62
     3
370
     9
100
AcDbLine
 10
-1822.430458751904
 20
1444.453054411253
 30
0.0
 11
-1211.622710691223
 21
1444.453054411253
 31
0.0
  0
LINE
  5
2FD
330
1F
100
AcDbEntity
  8
E-A
  6
Continuous
 62
     3
370
     9
100
AcDbLine
 10
-1822.430458751904
 20
1460.453008222486
 30
0.0
 11
-1211.622710691223
 21
1460.453008222486
 31
0.0
  0
LINE
  5
2FE
330
1F
100
AcDbEntity
  8
E-A
  6
Continuous
 62
     3
370
     9
100
AcDbLine
 10
-1769.501794003171
 20
1460.453008222489
 30
0.0
 11
-1769.501794003171
 21
1478.453008222486
 31
0.0
  0
LINE
  5
2FF
330
1F
100
AcDbEntity
  8
E-A
  6
Continuous
 62
     3
370
     9
100
AcDbLine
 10
-1762.430458751904
 20
1460.453008222489
 30
0.0
 11
-1762.430458751904
 21
1478.453008222486
 31
0.0
  0
LINE
  5
300
330
1F
100
AcDbEntity
  8
E-A
  6
Continuous
 62
     3
370
     9
100
AcDbLine
 10
-1755.359420428425
 20
1460.453008222489
 30
0.0
 11
-1755.359420428425
 21
1478.453008222486
 31
0.0
  0
LINE
  5
301
330
1F
100
AcDbEntity
  8
E-A
  6
Continuous
 62
     3
370
     9
100
AcDbLine
 10
-1822.430458751904
 20
1410.45310060002
 30
0.0
 11
-1822.430458751904
 21
1426.453054411253
 31
0.0
  0
LINE
  5
302
330
1F
100
AcDbEntity
  8
E-A
  6
Continuous
 62
     3
370
     9
100
AcDbLine
 10
-1822.430458751904
 20
1410.45310060002
 30
0.0
 11
-1607.787547407942
 21
1410.45310060002
 31
0.0
  0
LINE
  5
303
330
1F
100
AcDbEntity
  8
E-A
  6
Continuous
 62
     3
370
     9
100
AcDbLine
 10
-1822.430458751904
 20
1426.453054411253
 30
0.0
 11
-1607.787547407942
 21
1426.453054411253
 31
0.0
  0
LINE
  5
304
330
1F
100
AcDbEntity
  8
E-A
  6
Continuous
 62
     3
370
     9
100
AcDbLine
 10
-1769.501794003171
 20
1426.453054411256
 30
0.0
 11
-1769.501794003171
 21
1444.453054411256
 31
0.0
  0
LINE
  5
305
330
1F
100
AcDbEntity
  8
E-A
  6
Continuous
 62
     3
370
     9
100
AcDbLine
 10
-1762.430458751904
 20
1426.453054411256
 30
0.0
 11
-1762.430458751904
 21
1444.453054411256
 31
0.0
  0
LINE
  5
306
330
1F
100
AcDbEntity
  8
E-A
  6
Continuous
 62
     3
370
     9
100
AcDbLine
 10
-1755.359420428425
 20
1426.453054411256
 30
0.0
 11
-1755.359420428425
 21
1444.453054411256
 31
0.0
  0
LINE
  5
307
330
1F
100
AcDbEntity
  8
E-A
  6
Continuous
 62
     3
370
     9
100
AcDbLine
 10
-1822.430458751904
 20
1630.45277727865
 30
0.0
 11
-1028.288359682714
 21
1630.45277727865
 31
0.0
  0
LINE
  5
308
330
1F
100
AcDbEntity
  8
E-A
  6
Continuous
 62
     3
370
     9
100
AcDbLine
 10
-1822.430458751904
 20
1478.453008222482
 30
0.0
 11
-1042.163884268007
 21
1478.453008222482
 31
0.0
  0
LINE
  5
309
330
1F
100
AcDbEntity
  8
E-A
  6
Continuous
 62
     3
370
     9
100
AcDbLine
 10
-1822.430458751904
 20
1614.452823467416
 30
0.0
 11
-1029.748939220761
 21
1614.452823467416
 31
0.0
  0
LINE
  5
30A
330
1F
100
AcDbEntity
  8
E-A
  6
Continuous
 62
     3
370
     9
100
AcDbLine
 10
-1822.430458751904
 20
1580.452869656183
 30
0.0
 11
-1032.852675482572
 21
1580.452869656183
 31
0.0
  0
LINE
  5
30B
330
1F
100
AcDbEntity
  8
E-A
  6
Continuous
 62
     3
370
     9
100
AcDbLine
 10
-1822.430458751904
 20
1596.452823467416
 30
0.0
 11
-1031.392095944525
 21
1596.452823467416
 31
0.0
  0
LINE
  5
30C
330
1F
100
AcDbEntity
  8
E-A
  6
Continuous
 62
     3
370
     9
100
AcDbLine
 10
-1822.430458751904
 20
1546.45291584495
 30
0.0
 11
-1035.956411744384
 21
1546.45291584495
 31
0.0
  0
LINE
  5
30D
330
1F
100
AcDbEntity
  8
E-A
  6
Continuous
 62
     3
370
     9
100
AcDbLine
 10
-1822.430458751904
 20
1562.452869656183
 30
0.0
 11
-1034.495832206337
 21
1562.452869656183
 31
0.0
  0
LINE
  5
30E
330
1F
100
AcDbEntity
  8
E-A
  6
Continuous
 62
     3
370
     9
100
AcDbLine
 10
-1822.430458751904
 20
1528.45291584495
 30
0.0
 11
-1037.599568468148
 21
1528.45291584495
 31
0.0
  0
LINE
  5
30F
330
1F
100
AcDbEntity
  8
E-A
  6
Continuous
 62
     3
370
     9
100
AcDbLine
 10
-1822.430458751904
 20
1512.452962033716
 30
0.0
 11
-1039.060148006195
 21
1512.452962033716
 31
0.0
  0
LINE
  5
310
330
1F
100
AcDbEntity
  8
E-A
  6
Continuous
 62
     3
370
     9
100
AcDbLine
 10
-1822.430458751904
 20
1494.452962033716
 30
0.0
 11
-1040.70330472996
 21
1494.452962033716
 31
0.0
  0
LINE
  5
311
330
1F
100
AcDbEntity
  8
E-A
  6
Continuous
 62
     3
370
     9
100
AcDbLine
 10
-1012.221950788076
 20
1630.45277727865
 30
0.0
 11
-162.4304488543102
 21
1630.45277727865
 31
0.0
  0
LINE
  5
312
330
1F
100
AcDbEntity
  8
E-A
  6
Continuous
 62
     3
370
     9
100
AcDbLine
 10
-1026.09740644414
 20
1478.453008222482
 30
0.0
 11
-812.2437736537212
 21
1478.453008222482
 31
0.0
  0
LINE
  5
313
330
1F
100
AcDbEntity
  8
E-A
  6
Continuous
 62
     3
370
     9
100
AcDbLine
 10
-1013.682523070425
 20
1614.452823467416
 30
0.0
 11
-162.4304488543102
 21
1614.452823467416
 31
0.0
  0
LINE
  5
314
330
1F
100
AcDbEntity
  8
E-A
  6
Continuous
 62
     3
370
     9
100
AcDbLine
 10
-1016.786243913854
 20
1580.452869656183
 30
0.0
 11
-162.4304488543102
 21
1580.452869656183
 31
0.0
  0
LINE
  5
315
330
1F
100
AcDbEntity
  8
E-A
  6
Continuous
 62
     3
370
     9
100
AcDbLine
 10
-1015.325671631505
 20
1596.452823467416
 30
0.0
 11
-162.4304488543102
 21
1596.452823467416
 31
0.0
  0
LINE
  5
316
330
1F
100
AcDbEntity
  8
E-A
  6
Continuous
 62
     3
370
     9
100
AcDbLine
 10
-1019.889964757283
 20
1546.45291584495
 30
0.0
 11
-287.2365978988626
 21
1546.45291584495
 31
0.0
  0
LINE
  5
317
330
1F
100
AcDbEntity
  8
E-A
  6
Continuous
 62
     3
370
     9
100
AcDbLine
 10
-1018.429392474934
 20
1562.452869656183
 30
0.0
 11
-287.2365978988626
 21
1562.452869656183
 31
0.0
  0
LINE
  5
318
330
1F
100
AcDbEntity
  8
E-A
  6
Continuous
 62
     3
370
     9
100
AcDbLine
 10
-1021.533113318363
 20
1528.45291584495
 30
0.0
 11
-456.7480923034248
 21
1528.45291584495
 31
0.0
  0
LINE
  5
319
330
1F
100
AcDbEntity
  8
E-A
  6
Continuous
 62
     3
370
     9
100
AcDbLine
 10
-1022.993685600711
 20
1512.452962033716
 30
0.0
 11
-456.7480923034248
 21
1512.452962033716
 31
0.0
  0
LINE
  5
31A
330
1F
100
AcDbEntity
  8
E-A
  6
Continuous
 62
     3
370
     9
100
AcDbLine
 10
-1024.636834161792
 20
1494.452962033716
 30
0.0
 11
-812.2437736537212
 21
1494.452962033716
 31
0.0
  0
LINE
  5
31B
330
1F
100
AcDbEntity
  8
D-2
  6
Continuous
 62
     3
370
     9
100
AcDbLine
 10
1825.28787874491
 20
902.8051145885036
 30
0.0
 11
1825.28787874491
 21
862.8052300604202
 31
0.0
  0
LINE
  5
31C
330
1F
100
AcDbEntity
  8
D-2
  6
Continuous
 62
     3
370
     9
100
AcDbLine
 10
1825.28787874491
 20
862.8052300604202
 30
0.0
 11
1198.453524859772
 21
862.8052300604202
 31
0.0
  0
LINE
  5
31D
330
1F
100
AcDbEntity
  8
D-2
  6
Continuous
 62
     3
370
     9
100
AcDbLine
 10
1825.28787874491
 20
902.8051145885036
 30
0.0
 11
1198.453524859772
 21
902.8051145885036
 31
0.0
  0
LINE
  5
31E
330
1F
100
AcDbEntity
  8
D-2
  6
Continuous
 62
     3
370
     9
100
AcDbLine
 10
1675.28787874491
 20
817.8052300604202
 30
0.0
 11
1675.28787874491
 21
862.8052300604202
 31
0.0
  0
LINE
  5
31F
330
1F
100
AcDbEntity
  8
D-2
  6
Continuous
 62
     3
370
     9
100
AcDbLine
 10
1657.610209215243
 20
817.8052300604202
 30
0.0
 11
1657.610209215243
 21
862.8052300604202
 31
0.0
  0
LINE
  5
320
330
1F
100
AcDbEntity
  8
D-2
  6
Continuous
 62
     3
370
     9
100
AcDbLine
 10
1692.965548274572
 20
817.8052300604202
 30
0.0
 11
1692.965548274572
 21
862.8052300604202
 31
0.0
  0
LINE
  5
321
330
1F
100
AcDbEntity
  8
D-2
  6
Continuous
 62
     3
370
     9
100
AcDbLine
 10
1825.28787874491
 20
987.8049991165858
 30
0.0
 11
1825.28787874491
 21
947.8051145885036
 31
0.0
  0
LINE
  5
322
330
1F
100
AcDbEntity
  8
D-2
  6
Continuous
 62
     3
370
     9
100
AcDbLine
 10
1825.28787874491
 20
947.8051145885036
 30
0.0
 11
1198.453524859772
 21
947.8051145885036
 31
0.0
  0
LINE
  5
323
330
1F
100
AcDbEntity
  8
D-2
  6
Continuous
 62
     3
370
     9
100
AcDbLine
 10
1825.28787874491
 20
987.8049991165858
 30
0.0
 11
1198.453524859772
 21
987.8049991165858
 31
0.0
  0
LINE
  5
324
330
1F
100
AcDbEntity
  8
D-2
  6
Continuous
 62
     3
370
     9
100
AcDbLine
 10
1675.28787874491
 20
902.8051145885036
 30
0.0
 11
1675.28787874491
 21
947.8051145885036
 31
0.0
  0
LINE
  5
325
330
1F
100
AcDbEntity
  8
D-2
  6
Continuous
 62
     3
370
     9
100
AcDbLine
 10
1657.610209215243
 20
902.8051145885036
 30
0.0
 11
1657.610209215243
 21
947.8051145885036
 31
0.0
  0
LINE
  5
326
330
1F
100
AcDbEntity
  8
D-2
  6
Continuous
 62
     3
370
     9
100
AcDbLine
 10
1692.965548274572
 20
902.8051145885036
 30
0.0
 11
1692.965548274572
 21
947.8051145885036
 31
0.0
  0
LINE
  5
327
330
1F
100
AcDbEntity
  8
D-2
  6
Continuous
 62
     3
370
     9
100
AcDbLine
 10
1825.28787874491
 20
1072.804883644669
 30
0.0
 11
1825.28787874491
 21
1032.804999116586
 31
0.0
  0
LINE
  5
328
330
1F
100
AcDbEntity
  8
D-2
  6
Continuous
 62
     3
370
     9
100
AcDbLine
 10
1825.28787874491
 20
1032.804999116586
 30
0.0
 11
1198.453524859772
 21
1032.804999116586
 31
0.0
  0
LINE
  5
329
330
1F
100
AcDbEntity
  8
D-2
  6
Continuous
 62
     3
370
     9
100
AcDbLine
 10
1825.28787874491
 20
1072.804883644669
 30
0.0
 11
1198.453524859772
 21
1072.804883644669
 31
0.0
  0
LINE
  5
32A
330
1F
100
AcDbEntity
  8
D-2
  6
Continuous
 62
     3
370
     9
100
AcDbLine
 10
1675.28787874491
 20
987.8049991165858
 30
0.0
 11
1675.28787874491
 21
1032.804999116586
 31
0.0
  0
LINE
  5
32B
330
1F
100
AcDbEntity
  8
D-2
  6
Continuous
 62
     3
370
     9
100
AcDbLine
 10
1657.610209215243
 20
987.8049991165858
 30
0.0
 11
1657.610209215243
 21
1032.804999116586
 31
0.0
  0
LINE
  5
32C
330
1F
100
AcDbEntity
  8
D-2
  6
Continuous
 62
     3
370
     9
100
AcDbLine
 10
1692.965548274572
 20
987.8049991165858
 30
0.0
 11
1692.965548274572
 21
1032.804999116586
 31
0.0
  0
LINE
  5
32D
330
1F
100
AcDbEntity
  8
D-2
  6
Continuous
 62
     3
370
     9
100
AcDbLine
 10
1825.28787874491
 20
1157.804768172751
 30
0.0
 11
1825.28787874491
 21
1117.804883644669
 31
0.0
  0
LINE
  5
32E
330
1F
100
AcDbEntity
  8
D-2
  6
Continuous
 62
     3
370
     9
100
AcDbLine
 10
1825.28787874491
 20
1117.804883644669
 30
0.0
 11
1198.453524859772
 21
1117.804883644669
 31
0.0
  0
LINE
  5
32F
330
1F
100
AcDbEntity
  8
D-2
  6
Continuous
 62
     3
370
     9
100
AcDbLine
 10
1825.28787874491
 20
1157.804768172751
 30
0.0
 11
1198.453524859772
 21
1157.804768172751
 31
0.0
  0
LINE
  5
330
330
1F
100
AcDbEntity
  8
D-2
  6
Continuous
 62
     3
370
     9
100
AcDbLine
 10
1675.28787874491
 20
1072.804883644669
 30
0.0
 11
1675.28787874491
 21
1117.804883644669
 31
0.0
  0
LINE
  5
331
330
1F
100
AcDbEntity
  8
D-2
  6
Continuous
 62
     3
370
     9
100
AcDbLine
 10
1657.610209215243
 20
1072.804883644669
 30
0.0
 11
1657.610209215243
 21
1117.804883644669
 31
0.0
  0
LINE
  5
332
330
1F
100
AcDbEntity
  8
D-2
  6
Continuous
 62
     3
370
     9
100
AcDbLine
 10
1692.965548274572
 20
1072.804883644669
 30
0.0
 11
1692.965548274572
 21
1117.804883644669
 31
0.0
  0
LINE
  5
333
330
1F
100
AcDbEntity
  8
D-2
  6
Continuous
 62
     3
370
     9
100
AcDbLine
 10
1825.28787874491
 20
1242.804652700835
 30
0.0
 11
1825.28787874491
 21
1202.804768172751
 31
0.0
  0
LINE
  5
334
330
1F
100
AcDbEntity
  8
D-2
  6
Continuous
 62
     3
370
     9
100
AcDbLine
 10
1825.28787874491
 20
1202.804768172751
 30
0.0
 11
1198.453524859772
 21
1202.804768172751
 31
0.0
  0
LINE
  5
335
330
1F
100
AcDbEntity
  8
D-2
  6
Continuous
 62
     3
370
     9
100
AcDbLine
 10
1825.28787874491
 20
1242.804652700835
 30
0.0
 11
1198.453524859772
 21
1242.804652700835
 31
0.0
  0
LINE
  5
336
330
1F
100
AcDbEntity
  8
D-2
  6
Continuous
 62
     3
370
     9
100
AcDbLine
 10
1675.28787874491
 20
1157.804768172751
 30
0.0
 11
1675.28787874491
 21
1202.804768172751
 31
0.0
  0
LINE
  5
337
330
1F
100
AcDbEntity
  8
D-2
  6
Continuous
 62
     3
370
     9
100
AcDbLine
 10
1657.610209215243
 20
1157.804768172751
 30
0.0
 11
1657.610209215243
 21
1202.804768172751
 31
0.0
  0
LINE
  5
338
330
1F
100
AcDbEntity
  8
D-2
  6
Continuous
 62
     3
370
     9
100
AcDbLine
 10
1692.965548274572
 20
1157.804768172751
 30
0.0
 11
1692.965548274572
 21
1202.804768172751
 31
0.0
  0
LINE
  5
339
330
1F
100
AcDbEntity
  8
D-2
  6
Continuous
 62
     3
370
     9
100
AcDbLine
 10
1825.28787874491
 20
1327.804537228917
 30
0.0
 11
1825.28787874491
 21
1287.804652700835
 31
0.0
  0
LINE
  5
33A
330
1F
100
AcDbEntity
  8
D-2
  6
Continuous
 62
     3
370
     9
100
AcDbLine
 10
1825.28787874491
 20
1287.804652700835
 30
0.0
 11
1198.453524859772
 21
1287.804652700835
 31
0.0
  0
LINE
  5
33B
330
1F
100
AcDbEntity
  8
D-2
  6
Continuous
 62
     3
370
     9
100
AcDbLine
 10
1825.28787874491
 20
1327.804537228917
 30
0.0
 11
1198.453524859772
 21
1327.804537228917
 31
0.0
  0
LINE
  5
33C
330
1F
100
AcDbEntity
  8
D-2
  6
Continuous
 62
     3
370
     9
100
AcDbLine
 10
1675.28787874491
 20
1242.804652700835
 30
0.0
 11
1675.28787874491
 21
1287.804652700835
 31
0.0
  0
LINE
  5
33D
330
1F
100
AcDbEntity
  8
D-2
  6
Continuous
 62
     3
370
     9
100
AcDbLine
 10
1657.610209215243
 20
1242.804652700835
 30
0.0
 11
1657.610209215243
 21
1287.804652700835
 31
0.0
  0
LINE
  5
33E
330
1F
100
AcDbEntity
  8
D-2
  6
Continuous
 62
     3
370
     9
100
AcDbLine
 10
1692.965548274572
 20
1242.804652700835
 30
0.0
 11
1692.965548274572
 21
1287.804652700835
 31
0.0
  0
LINE
  5
33F
330
1F
100
AcDbEntity
  8
D-2
  6
Continuous
 62
     3
370
     9
100
AcDbLine
 10
1675.28787874491
 20
1327.804537228917
 30
0.0
 11
1675.28787874491
 21
1372.804537228917
 31
0.0
  0
LINE
  5
340
330
1F
100
AcDbEntity
  8
D-2
  6
Continuous
 62
     3
370
     9
100
AcDbLine
 10
1657.610209215243
 20
1327.804537228917
 30
0.0
 11
1657.610209215243
 21
1372.804537228917
 31
0.0
  0
LINE
  5
341
330
1F
100
AcDbEntity
  8
D-2
  6
Continuous
 62
     3
370
     9
100
AcDbLine
 10
1692.965548274572
 20
1327.804537228917
 30
0.0
 11
1692.965548274572
 21
1372.804537228917
 31
0.0
  0
LINE
  5
342
330
1F
100
AcDbEntity
  8
E-4
  6
Continuous
 62
     7
370
     9
100
AcDbLine
 10
-80.3310176359821
 20
402.3885918493665
 30
0.0
 11
-7.931610171877992
 21
402.3885918493665
 31
0.0
  0
LINE
  5
343
330
1F
100
AcDbEntity
  8
E-4
  6
Continuous
 62
     7
370
     9
100
AcDbLine
 10
-80.3310176359821
 20
402.3885918493665
 30
0.0
 11
-116.0823604094197
 21
447.0786982154989
 31
0.0
  0
LINE
  5
344
330
1F
100
AcDbEntity
  8
E-4
  6
Continuous
 62
     7
370
     9
100
AcDbLine
 10
-116.0823604094197
 20
447.0786982154989
 30
0.0
 11
-98.05092565435316
 21
429.7618696682009
 31
0.0
  0
LINE
  5
345
330
1F
100
AcDbEntity
  8
E-4
  6
Continuous
 62
     7
370
     9
100
AcDbLine
 10
-116.0823604094197
 20
447.0786982154989
 30
0.0
 11
-103.1471962413447
 21
425.6852985902874
 31
0.0
  0
CIRCLE
  5
346
330
1F
100
AcDbEntity
  8
E-4
  6
Continuous
 62
     7
370
     9
100
AcDbCircle
 10
-241.020170533999
 20
603.2533115495364
 30
0.0
 40
199.9999948450037
  0
TEXT
  5
347
330
1F
100
AcDbEntity
  8
E-4
  6
Continuous
 62
     2
370
     9
100
AcDbText
 10
-66.03369724430308
 20
413.9859530191312
 30
0.0
 40
30.48
  1
Ｂ
 41
0.9999999999999998
  7
ＭＳ ゴシック
100
AcDbText
  0
LINE
  5
348
330
1F
100
AcDbEntity
  8
D-1
  6
Continuous
 62
     2
370
     9
100
AcDbLine
 10
1875.287548825145
 20
1372.804537228917
 30
0.0
 11
1875.287548825145
 21
727.8050568525441
 31
0.0
  0
LINE
  5
349
330
1F
100
AcDbEntity
  8
D-1
  6
Continuous
 62
     2
370
     9
100
AcDbLine
 10
1835.287664297062
 20
1372.804537228917
 30
0.0
 11
1835.287664297062
 21
767.805065100539
 31
0.0
  0
LINE
  5
34A
330
1F
100
AcDbEntity
  8
D-1
  6
Continuous
 62
     2
370
     9
100
AcDbLine
 10
1173.168886583801
 20
1372.804537228917
 30
0.0
 11
1899.776420631522
 21
1372.804537228917
 31
0.0
  0
LINE
  5
34B
330
1F
100
AcDbEntity
  8
D-1
  6
Continuous
 62
     2
370
     9
100
AcDbLine
 10
1198.453524859772
 20
1398.104537228917
 30
0.0
 11
1198.453524859772
 21
709.9027856848932
 31
0.0
  0
TEXT
  5
34C
330
1F
100
AcDbEntity
  8
D-4
  6
Continuous
 62
     2
370
     9
100
AcDbText
 10
1275.437671076518
 20
1503.91063137482
 30
0.0
 40
30.48
  1
クロスバー：□5
 41
1.116666666666666
  7
ＭＳ ゴシック
100
AcDbText
  0
LINE
  5
34D
330
1F
100
AcDbEntity
  8
D-4
  6
Continuous
 62
     7
370
     9
100
AcDbLine
 10
1271.140953547745
 20
1482.804652700834
 30
0.0
 11
1594.101562018243
 21
1482.804652700834
 31
0.0
  0
LINE
  5
34E
330
1F
100
AcDbEntity
  8
D-4
  6
Continuous
 62
     7
370
     9
100
AcDbLine
 10
1657.610209215243
 20
1372.804537228917
 30
0.0
 11
1594.101562018243
 21
1482.804652700834
 31
0.0
  0
LINE
  5
34F
330
1F
100
AcDbEntity
  8
D-4
  6
Continuous
 62
     7
370
     9
100
AcDbLine
 10
1657.610209215243
 20
1372.804537228917
 30
0.0
 11
1642.391175484247
 21
1392.638323652059
 31
0.0
  0
LINE
  5
350
330
1F
100
AcDbEntity
  8
D-4
  6
Continuous
 62
     7
370
     9
100
AcDbLine
 10
1657.610209215243
 20
1372.804537228917
 30
0.0
 11
1648.043195912878
 21
1395.901560032971
 31
0.0
  0
LINE
  5
351
330
1F
100
AcDbEntity
  8
D-4
  6
Continuous
 62
     7
370
     9
100
AcDbLine
 10
1443.904219007186
 20
1597.896750036145
 30
0.0
 11
1685.796537462965
 21
1597.896750036145
 31
0.0
  0
TEXT
  5
352
330
1F
100
AcDbEntity
  8
D-4
  6
Continuous
 62
     2
370
     9
100
AcDbText
 10
1450.687575034351
 20
1612.911813503049
 30
0.0
 40
30.48
  1
メインバー
 41
1.1
  7
ＭＳ ゴシック
100
AcDbText
  0
LINE
  5
353
330
1F
100
AcDbEntity
  8
D-4
  6
Continuous
 62
     7
370
     9
100
AcDbLine
 10
1788.652938873701
 20
1327.804537228917
 30
0.0
 11
1782.881405010737
 21
1352.129356432887
 31
0.0
  0
LINE
  5
354
330
1F
100
AcDbEntity
  8
D-4
  6
Continuous
 62
     7
370
     9
100
AcDbLine
 10
1685.796537462965
 20
1597.896750036145
 30
0.0
 11
1788.652938873701
 21
1327.804537228917
 31
0.0
  0
LINE
  5
355
330
1F
100
AcDbEntity
  8
D-4
  6
Continuous
 62
     7
370
     9
100
AcDbLine
 10
1788.652938873701
 20
1327.804537228917
 30
0.0
 11
1776.782260822603
 21
1349.806886257634
 31
0.0
  0
LINE
  5
356
330
1F
100
AcDbEntity
  8
F-4ﾚｲﾔ
  6
Continuous
 62
     7
370
     9
100
AcDbLine
 10
-1465.172618329512
 20
-987.7767970220873
 30
0.0
 11
-1615.336627953985
 21
-987.7767970220873
 31
0.0
  0
TEXT
  5
357
330
1F
100
AcDbEntity
  8
E-4
  6
Continuous
 62
     2
370
   211
100
AcDbText
 10
-1047.430453803107
 20
75.22132079070154
 30
0.0
 40
30.48
  1
1172
 41
1.09375
  7
ＭＳ ゴシック
100
AcDbText
  0
TEXT
  5
358
330
1F
100
AcDbEntity
  8
E-4
  6
Continuous
 62
     2
370
   211
100
AcDbText
 10
-1047.430577523018
 20
-64.77867920929825
 30
0.0
 40
30.48
  1
1192
 41
1.09375
  7
ＭＳ ゴシック
100
AcDbText
  0
TEXT
  5
359
330
1F
100
AcDbEntity
  8
E-4
  6
Continuous
 62
     2
370
   211
100
AcDbText
 10
-1114.930453803107
 20
226.7216541410449
 30
0.0
 40
30.48
  1
200×4=800
 41
1.1125
  7
ＭＳ ゴシック
100
AcDbText
  0
LINE
  5
35A
330
1F
100
AcDbEntity
  8
E-A
  6
Continuous
 62
     3
370
     9
100
AcDbLine
 10
-1457.501794003171
 20
579.5812284131712
 30
0.0
 11
-1457.501794003171
 21
597.5812284131711
 31
0.0
  0
LINE
  5
35B
330
1F
100
AcDbEntity
  8
E-A
  6
Continuous
 62
     3
370
     9
100
AcDbLine
 10
-1450.430458751905
 20
579.5812284131712
 30
0.0
 11
-1450.430458751905
 21
597.5812284131711
 31
0.0
  0
LINE
  5
35C
330
1F
100
AcDbEntity
  8
E-A
  6
Continuous
 62
     3
370
     9
100
AcDbLine
 10
-1443.359420428425
 20
579.5812284131712
 30
0.0
 11
-1443.359420428425
 21
597.5812284131711
 31
0.0
  0
LINE
  5
35D
330
1F
100
AcDbEntity
  8
E-A
  6
Continuous
 62
     3
370
     9
100
AcDbLine
 10
-1457.501794003171
 20
579.5812284131723
 30
0.0
 11
-1457.501794003171
 21
597.5812284131711
 31
0.0
  0
LINE
  5
35E
330
1F
100
AcDbEntity
  8
E-A
  6
Continuous
 62
     3
370
     9
100
AcDbLine
 10
-1450.430458751905
 20
579.5812284131723
 30
0.0
 11
-1450.430458751905
 21
597.5812284131711
 31
0.0
  0
LINE
  5
35F
330
1F
100
AcDbEntity
  8
E-A
  6
Continuous
 62
     3
370
     9
100
AcDbLine
 10
-1443.359420428425
 20
579.5812284131723
 30
0.0
 11
-1443.359420428425
 21
597.5812284131711
 31
0.0
  0
LINE
  5
360
330
1F
100
AcDbEntity
  8
E-A
  6
Continuous
 62
     3
370
     9
100
AcDbLine
 10
-1457.501794003171
 20
579.5812284131712
 30
0.0
 11
-1457.501794003171
 21
597.5812284131711
 31
0.0
  0
LINE
  5
361
330
1F
100
AcDbEntity
  8
E-A
  6
Continuous
 62
     3
370
     9
100
AcDbLine
 10
-1450.430458751905
 20
579.5812284131712
 30
0.0
 11
-1450.430458751905
 21
597.5812284131711
 31
0.0
  0
LINE
  5
362
330
1F
100
AcDbEntity
  8
E-A
  6
Continuous
 62
     3
370
     9
100
AcDbLine
 10
-1443.359420428425
 20
579.5812284131712
 30
0.0
 11
-1443.359420428425
 21
597.5812284131711
 31
0.0
  0
LINE
  5
363
330
1F
100
AcDbEntity
  8
E-A
  6
Continuous
 62
     3
370
     9
100
AcDbLine
 10
-1457.501794003171
 20
613.5811822244044
 30
0.0
 11
-1457.501794003171
 21
631.5811822244034
 31
0.0
  0
LINE
  5
364
330
1F
100
AcDbEntity
  8
E-A
  6
Continuous
 62
     3
370
     9
100
AcDbLine
 10
-1450.430458751905
 20
613.5811822244044
 30
0.0
 11
-1450.430458751905
 21
631.5811822244034
 31
0.0
  0
LINE
  5
365
330
1F
100
AcDbEntity
  8
E-A
  6
Continuous
 62
     3
370
     9
100
AcDbLine
 10
-1443.359420428425
 20
613.5811822244044
 30
0.0
 11
-1443.359420428425
 21
631.5811822244034
 31
0.0
  0
LINE
  5
366
330
1F
100
AcDbEntity
  8
E-A
  6
Continuous
 62
     3
370
     9
100
AcDbLine
 10
-1457.501794003171
 20
613.5811822244044
 30
0.0
 11
-1457.501794003171
 21
631.5811822244045
 31
0.0
  0
LINE
  5
367
330
1F
100
AcDbEntity
  8
E-A
  6
Continuous
 62
     3
370
     9
100
AcDbLine
 10
-1450.430458751905
 20
613.5811822244044
 30
0.0
 11
-1450.430458751905
 21
631.5811822244045
 31
0.0
  0
LINE
  5
368
330
1F
100
AcDbEntity
  8
E-A
  6
Continuous
 62
     3
370
     9
100
AcDbLine
 10
-1443.359420428425
 20
613.5811822244044
 30
0.0
 11
-1443.359420428425
 21
631.5811822244045
 31
0.0
  0
LINE
  5
369
330
1F
100
AcDbEntity
  8
E-A
  6
Continuous
 62
     3
370
     9
100
AcDbLine
 10
-1457.501794003171
 20
613.5811822244044
 30
0.0
 11
-1457.501794003171
 21
631.5811822244034
 31
0.0
  0
LINE
  5
36A
330
1F
100
AcDbEntity
  8
E-A
  6
Continuous
 62
     3
370
     9
100
AcDbLine
 10
-1450.430458751905
 20
613.5811822244044
 30
0.0
 11
-1450.430458751905
 21
631.5811822244034
 31
0.0
  0
LINE
  5
36B
330
1F
100
AcDbEntity
  8
E-A
  6
Continuous
 62
     3
370
     9
100
AcDbLine
 10
-1443.359420428425
 20
613.5811822244044
 30
0.0
 11
-1443.359420428425
 21
631.5811822244034
 31
0.0
  0
LINE
  5
36C
330
1F
100
AcDbEntity
  8
E-A
  6
Continuous
 62
     3
370
     9
100
AcDbLine
 10
-1457.501794003171
 20
647.5811360356367
 30
0.0
 11
-1457.501794003171
 21
665.5811360356379
 31
0.0
  0
LINE
  5
36D
330
1F
100
AcDbEntity
  8
E-A
  6
Continuous
 62
     3
370
     9
100
AcDbLine
 10
-1450.430458751905
 20
647.5811360356367
 30
0.0
 11
-1450.430458751905
 21
665.5811360356379
 31
0.0
  0
LINE
  5
36E
330
1F
100
AcDbEntity
  8
E-A
  6
Continuous
 62
     3
370
     9
100
AcDbLine
 10
-1443.359420428425
 20
647.5811360356367
 30
0.0
 11
-1443.359420428425
 21
665.5811360356379
 31
0.0
  0
LINE
  5
36F
330
1F
100
AcDbEntity
  8
E-A
  6
Continuous
 62
     3
370
     9
100
AcDbLine
 10
-1457.501794003171
 20
647.5811360356367
 30
0.0
 11
-1457.501794003171
 21
665.5811360356379
 31
0.0
  0
LINE
  5
370
330
1F
100
AcDbEntity
  8
E-A
  6
Continuous
 62
     3
370
     9
100
AcDbLine
 10
-1450.430458751905
 20
647.5811360356367
 30
0.0
 11
-1450.430458751905
 21
665.5811360356379
 31
0.0
  0
LINE
  5
371
330
1F
100
AcDbEntity
  8
E-A
  6
Continuous
 62
     3
370
     9
100
AcDbLine
 10
-1443.359420428425
 20
647.5811360356367
 30
0.0
 11
-1443.359420428425
 21
665.5811360356379
 31
0.0
  0
LINE
  5
372
330
1F
100
AcDbEntity
  8
E-A
  6
Continuous
 62
     3
370
     9
100
AcDbLine
 10
-1057.501497075384
 20
647.5811360356367
 30
0.0
 11
-1057.501497075384
 21
665.5811360356379
 31
0.0
  0
LINE
  5
373
330
1F
100
AcDbEntity
  8
E-A
  6
Continuous
 62
     3
370
     9
100
AcDbLine
 10
-1057.501497075384
 20
647.5811360356379
 30
0.0
 11
-1057.501497075384
 21
665.5811360356379
 31
0.0
  0
LINE
  5
374
330
1F
100
AcDbEntity
  8
E-A
  6
Continuous
 62
     3
370
     9
100
AcDbLine
 10
-1057.501497075384
 20
647.5811360356367
 30
0.0
 11
-1057.501497075384
 21
665.5811360356379
 31
0.0
  0
LINE
  5
375
330
1F
100
AcDbEntity
  8
E-A
  6
Continuous
 62
     3
370
     9
100
AcDbLine
 10
-1457.501794003171
 20
681.5810898468712
 30
0.0
 11
-1457.501794003171
 21
699.5810898468699
 31
0.0
  0
LINE
  5
376
330
1F
100
AcDbEntity
  8
E-A
  6
Continuous
 62
     3
370
     9
100
AcDbLine
 10
-1450.430458751905
 20
681.5810898468712
 30
0.0
 11
-1450.430458751905
 21
699.5810898468699
 31
0.0
  0
LINE
  5
377
330
1F
100
AcDbEntity
  8
E-A
  6
Continuous
 62
     3
370
     9
100
AcDbLine
 10
-1443.359420428425
 20
681.5810898468712
 30
0.0
 11
-1443.359420428425
 21
699.5810898468699
 31
0.0
  0
LINE
  5
378
330
1F
100
AcDbEntity
  8
E-A
  6
Continuous
 62
     3
370
     9
100
AcDbLine
 10
-1057.501497075384
 20
681.5810898468712
 30
0.0
 11
-1057.501497075384
 21
699.5810898468699
 31
0.0
  0
LINE
  5
379
330
1F
100
AcDbEntity
  8
E-A
  6
Continuous
 62
     3
370
     9
100
AcDbLine
 10
-1057.501497075384
 20
681.5810898468712
 30
0.0
 11
-1057.501497075384
 21
699.5810898468699
 31
0.0
  0
LINE
  5
37A
330
1F
100
AcDbEntity
  8
E-A
  6
Continuous
 62
     3
370
     9
100
AcDbLine
 10
-1457.501794003171
 20
715.5810436581032
 30
0.0
 11
-1457.501794003171
 21
733.5810436581044
 31
0.0
  0
LINE
  5
37B
330
1F
100
AcDbEntity
  8
E-A
  6
Continuous
 62
     3
370
     9
100
AcDbLine
 10
-1450.430458751905
 20
715.5810436581032
 30
0.0
 11
-1450.430458751905
 21
733.5810436581044
 31
0.0
  0
LINE
  5
37C
330
1F
100
AcDbEntity
  8
E-A
  6
Continuous
 62
     3
370
     9
100
AcDbLine
 10
-1443.359420428425
 20
715.5810436581032
 30
0.0
 11
-1443.359420428425
 21
733.5810436581044
 31
0.0
  0
LINE
  5
37D
330
1F
100
AcDbEntity
  8
E-A
  6
Continuous
 62
     3
370
     9
100
AcDbLine
 10
-1057.501497075384
 20
715.5810436581032
 30
0.0
 11
-1057.501497075384
 21
733.5810436581044
 31
0.0
  0
LINE
  5
37E
330
1F
100
AcDbEntity
  8
E-A
  6
Continuous
 62
     3
370
     9
100
AcDbLine
 10
-1050.430458751905
 20
715.5810436581032
 30
0.0
 11
-1050.430458751905
 21
733.5810436581044
 31
0.0
  0
LINE
  5
37F
330
1F
100
AcDbEntity
  8
E-A
  6
Continuous
 62
     3
370
     9
100
AcDbLine
 10
-1457.501794003171
 20
749.5809974693377
 30
0.0
 11
-1457.501794003171
 21
767.5809974693377
 31
0.0
  0
LINE
  5
380
330
1F
100
AcDbEntity
  8
E-A
  6
Continuous
 62
     3
370
     9
100
AcDbLine
 10
-1450.430458751905
 20
749.5809974693377
 30
0.0
 11
-1450.430458751905
 21
767.5809974693377
 31
0.0
  0
LINE
  5
381
330
1F
100
AcDbEntity
  8
E-A
  6
Continuous
 62
     3
370
     9
100
AcDbLine
 10
-1443.359420428425
 20
749.5809974693377
 30
0.0
 11
-1443.359420428425
 21
767.5809974693377
 31
0.0
  0
LINE
  5
382
330
1F
100
AcDbEntity
  8
E-A
  6
Continuous
 62
     3
370
     9
100
AcDbLine
 10
-1057.501497075384
 20
749.5809974693377
 30
0.0
 11
-1057.501497075384
 21
767.5809974693377
 31
0.0
  0
LINE
  5
383
330
1F
100
AcDbEntity
  8
E-A
  6
Continuous
 62
     3
370
     9
100
AcDbLine
 10
-1050.430458751905
 20
749.5809974693377
 30
0.0
 11
-1050.430458751905
 21
767.5809974693377
 31
0.0
  0
LINE
  5
384
330
1F
100
AcDbEntity
  8
E-A
  6
Continuous
 62
     3
370
     9
100
AcDbLine
 10
-1057.501497075384
 20
783.5809512805711
 30
0.0
 11
-1057.501497075384
 21
801.5809512805711
 31
0.0
  0
LINE
  5
385
330
1F
100
AcDbEntity
  8
E-A
  6
Continuous
 62
     3
370
     9
100
AcDbLine
 10
-1050.430458751905
 20
783.5809512805711
 30
0.0
 11
-1050.430458751905
 21
801.5809512805711
 31
0.0
  0
LINE
  5
386
330
1F
100
AcDbEntity
  8
E-A
  6
Continuous
 62
     3
370
     9
100
AcDbLine
 10
-1043.359271964532
 20
783.5809512805711
 30
0.0
 11
-1043.359271964532
 21
801.5809512805711
 31
0.0
  0
LINE
  5
387
330
1F
100
AcDbEntity
  8
E-A
  6
Continuous
 62
     3
370
     9
100
AcDbLine
 10
-1057.501497075384
 20
817.5809050918044
 30
0.0
 11
-1057.501497075384
 21
835.5809050918044
 31
0.0
  0
LINE
  5
388
330
1F
100
AcDbEntity
  8
E-A
  6
Continuous
 62
     3
370
     9
100
AcDbLine
 10
-1050.430458751905
 20
817.5809050918044
 30
0.0
 11
-1050.430458751905
 21
835.5809050918044
 31
0.0
  0
LINE
  5
389
330
1F
100
AcDbEntity
  8
E-A
  6
Continuous
 62
     3
370
     9
100
AcDbLine
 10
-1043.359271964532
 20
817.5809050918044
 30
0.0
 11
-1043.359271964532
 21
835.5809050918044
 31
0.0
  0
LINE
  5
38A
330
1F
100
AcDbEntity
  8
E-A
  6
Continuous
 62
     3
370
     9
100
AcDbLine
 10
-1457.501794003171
 20
1596.452823467419
 30
0.0
 11
-1457.501794003171
 21
1614.45282346742
 31
0.0
  0
LINE
  5
38B
330
1F
100
AcDbEntity
  8
E-A
  6
Continuous
 62
     3
370
     9
100
AcDbLine
 10
-1450.430458751905
 20
1596.452823467419
 30
0.0
 11
-1450.430458751905
 21
1614.45282346742
 31
0.0
  0
LINE
  5
38C
330
1F
100
AcDbEntity
  8
E-A
  6
Continuous
 62
     3
370
     9
100
AcDbLine
 10
-1443.359420428425
 20
1596.452823467419
 30
0.0
 11
-1443.359420428425
 21
1614.45282346742
 31
0.0
  0
LINE
  5
38D
330
1F
100
AcDbEntity
  8
E-A
  6
Continuous
 62
     3
370
     9
100
AcDbLine
 10
-1057.501794003171
 20
1596.452823467419
 30
0.0
 11
-1057.501794003171
 21
1614.45282346742
 31
0.0
  0
LINE
  5
38E
330
1F
100
AcDbEntity
  8
E-A
  6
Continuous
 62
     3
370
     9
100
AcDbLine
 10
-1050.430458751905
 20
1596.452823467419
 30
0.0
 11
-1050.430458751905
 21
1614.45282346742
 31
0.0
  0
LINE
  5
38F
330
1F
100
AcDbEntity
  8
E-A
  6
Continuous
 62
     3
370
     9
100
AcDbLine
 10
-1043.359420428425
 20
1596.452823467419
 30
0.0
 11
-1043.359420428425
 21
1614.45282346742
 31
0.0
  0
LINE
  5
390
330
1F
100
AcDbEntity
  8
E-A
  6
Continuous
 62
     3
370
     9
100
AcDbLine
 10
-1457.501794003171
 20
1562.452869656186
 30
0.0
 11
-1457.501794003171
 21
1580.452869656186
 31
0.0
  0
LINE
  5
391
330
1F
100
AcDbEntity
  8
E-A
  6
Continuous
 62
     3
370
     9
100
AcDbLine
 10
-1450.430458751905
 20
1562.452869656186
 30
0.0
 11
-1450.430458751905
 21
1580.452869656186
 31
0.0
  0
LINE
  5
392
330
1F
100
AcDbEntity
  8
E-A
  6
Continuous
 62
     3
370
     9
100
AcDbLine
 10
-1443.359420428425
 20
1562.452869656186
 30
0.0
 11
-1443.359420428425
 21
1580.452869656186
 31
0.0
  0
LINE
  5
393
330
1F
100
AcDbEntity
  8
E-A
  6
Continuous
 62
     3
370
     9
100
AcDbLine
 10
-1057.501794003171
 20
1562.452869656186
 30
0.0
 11
-1057.501794003171
 21
1580.452869656186
 31
0.0
  0
LINE
  5
394
330
1F
100
AcDbEntity
  8
E-A
  6
Continuous
 62
     3
370
     9
100
AcDbLine
 10
-1050.430458751905
 20
1562.452869656186
 30
0.0
 11
-1050.430458751905
 21
1580.452869656186
 31
0.0
  0
LINE
  5
395
330
1F
100
AcDbEntity
  8
E-A
  6
Continuous
 62
     3
370
     9
100
AcDbLine
 10
-1043.359420428425
 20
1562.452869656186
 30
0.0
 11
-1043.359420428425
 21
1580.452869656186
 31
0.0
  0
LINE
  5
396
330
1F
100
AcDbEntity
  8
E-A
  6
Continuous
 62
     3
370
     9
100
AcDbLine
 10
-1457.501794003171
 20
1528.452915844953
 30
0.0
 11
-1457.501794003171
 21
1546.452915844953
 31
0.0
  0
LINE
  5
397
330
1F
100
AcDbEntity
  8
E-A
  6
Continuous
 62
     3
370
     9
100
AcDbLine
 10
-1450.430458751905
 20
1528.452915844953
 30
0.0
 11
-1450.430458751905
 21
1546.452915844953
 31
0.0
  0
LINE
  5
398
330
1F
100
AcDbEntity
  8
E-A
  6
Continuous
 62
     3
370
     9
100
AcDbLine
 10
-1443.359420428425
 20
1528.452915844953
 30
0.0
 11
-1443.359420428425
 21
1546.452915844953
 31
0.0
  0
LINE
  5
399
330
1F
100
AcDbEntity
  8
E-A
  6
Continuous
 62
     3
370
     9
100
AcDbLine
 10
-1057.501794003171
 20
1528.452915844953
 30
0.0
 11
-1057.501794003171
 21
1546.452915844953
 31
0.0
  0
LINE
  5
39A
330
1F
100
AcDbEntity
  8
E-A
  6
Continuous
 62
     3
370
     9
100
AcDbLine
 10
-1050.430458751905
 20
1528.452915844953
 30
0.0
 11
-1050.430458751905
 21
1546.452915844953
 31
0.0
  0
LINE
  5
39B
330
1F
100
AcDbEntity
  8
E-A
  6
Continuous
 62
     3
370
     9
100
AcDbLine
 10
-1043.359420428425
 20
1528.452915844953
 30
0.0
 11
-1043.359420428425
 21
1546.452915844953
 31
0.0
  0
LINE
  5
39C
330
1F
100
AcDbEntity
  8
E-A
  6
Continuous
 62
     3
370
     9
100
AcDbLine
 10
-1457.501794003171
 20
1494.452962033719
 30
0.0
 11
-1457.501794003171
 21
1512.45296203372
 31
0.0
  0
LINE
  5
39D
330
1F
100
AcDbEntity
  8
E-A
  6
Continuous
 62
     3
370
     9
100
AcDbLine
 10
-1450.430458751905
 20
1494.452962033719
 30
0.0
 11
-1450.430458751905
 21
1512.45296203372
 31
0.0
  0
LINE
  5
39E
330
1F
100
AcDbEntity
  8
E-A
  6
Continuous
 62
     3
370
     9
100
AcDbLine
 10
-1443.359420428425
 20
1494.452962033719
 30
0.0
 11
-1443.359420428425
 21
1512.45296203372
 31
0.0
  0
LINE
  5
39F
330
1F
100
AcDbEntity
  8
E-A
  6
Continuous
 62
     3
370
     9
100
AcDbLine
 10
-1057.501794003171
 20
1494.452962033719
 30
0.0
 11
-1057.501794003171
 21
1512.45296203372
 31
0.0
  0
LINE
  5
3A0
330
1F
100
AcDbEntity
  8
E-A
  6
Continuous
 62
     3
370
     9
100
AcDbLine
 10
-1050.430458751905
 20
1494.452962033719
 30
0.0
 11
-1050.430458751905
 21
1512.45296203372
 31
0.0
  0
LINE
  5
3A1
330
1F
100
AcDbEntity
  8
E-A
  6
Continuous
 62
     3
370
     9
100
AcDbLine
 10
-1043.359420428425
 20
1494.452962033719
 30
0.0
 11
-1043.359420428425
 21
1512.45296203372
 31
0.0
  0
LINE
  5
3A2
330
1F
100
AcDbEntity
  8
E-A
  6
Continuous
 62
     3
370
     9
100
AcDbLine
 10
-1457.501794003171
 20
1460.453008222489
 30
0.0
 11
-1457.501794003171
 21
1478.453008222486
 31
0.0
  0
LINE
  5
3A3
330
1F
100
AcDbEntity
  8
E-A
  6
Continuous
 62
     3
370
     9
100
AcDbLine
 10
-1450.430458751905
 20
1460.453008222489
 30
0.0
 11
-1450.430458751905
 21
1478.453008222486
 31
0.0
  0
LINE
  5
3A4
330
1F
100
AcDbEntity
  8
E-A
  6
Continuous
 62
     3
370
     9
100
AcDbLine
 10
-1443.359420428425
 20
1460.453008222489
 30
0.0
 11
-1443.359420428425
 21
1478.453008222486
 31
0.0
  0
LINE
  5
3A5
330
1F
100
AcDbEntity
  8
E-A
  6
Continuous
 62
     3
370
     9
100
AcDbLine
 10
-1057.501794003171
 20
1460.453008222489
 30
0.0
 11
-1057.501794003171
 21
1478.453008222486
 31
0.0
  0
LINE
  5
3A6
330
1F
100
AcDbEntity
  8
E-A
  6
Continuous
 62
     3
370
     9
100
AcDbLine
 10
-1050.430458751905
 20
1460.453008222489
 30
0.0
 11
-1050.430458751905
 21
1478.453008222486
 31
0.0
  0
LINE
  5
3A7
330
1F
100
AcDbEntity
  8
E-A
  6
Continuous
 62
     3
370
     9
100
AcDbLine
 10
-1457.501794003171
 20
1426.453054411256
 30
0.0
 11
-1457.501794003171
 21
1444.453054411256
 31
0.0
  0
LINE
  5
3A8
330
1F
100
AcDbEntity
  8
E-A
  6
Continuous
 62
     3
370
     9
100
AcDbLine
 10
-1450.430458751905
 20
1426.453054411256
 30
0.0
 11
-1450.430458751905
 21
1444.453054411256
 31
0.0
  0
LINE
  5
3A9
330
1F
100
AcDbEntity
  8
E-A
  6
Continuous
 62
     3
370
     9
100
AcDbLine
 10
-1443.359420428425
 20
1426.453054411256
 30
0.0
 11
-1443.359420428425
 21
1444.453054411256
 31
0.0
  0
LINE
  5
3AA
330
1F
100
AcDbEntity
  8
E-A
  6
Continuous
 62
     3
370
     9
100
AcDbLine
 10
-541.5014871777894
 20
579.5812284131712
 30
0.0
 11
-541.5014871777894
 21
597.5812284131711
 31
0.0
  0
LINE
  5
3AB
330
1F
100
AcDbEntity
  8
E-A
  6
Continuous
 62
     3
370
     9
100
AcDbLine
 10
-534.4304488543103
 20
579.5812284131712
 30
0.0
 11
-534.4304488543103
 21
597.5812284131711
 31
0.0
  0
LINE
  5
3AC
330
1F
100
AcDbEntity
  8
E-A
  6
Continuous
 62
     3
370
     9
100
AcDbLine
 10
-527.3592620669374
 20
579.5812284131712
 30
0.0
 11
-527.3592620669374
 21
597.5812284131711
 31
0.0
  0
LINE
  5
3AD
330
1F
100
AcDbEntity
  8
E-A
  6
Continuous
 62
     3
370
     9
100
AcDbLine
 10
-541.5014871777894
 20
579.5812284131723
 30
0.0
 11
-541.5014871777894
 21
597.5812284131711
 31
0.0
  0
LINE
  5
3AE
330
1F
100
AcDbEntity
  8
E-A
  6
Continuous
 62
     3
370
     9
100
AcDbLine
 10
-534.4304488543103
 20
579.5812284131723
 30
0.0
 11
-534.4304488543103
 21
597.5812284131711
 31
0.0
  0
LINE
  5
3AF
330
1F
100
AcDbEntity
  8
E-A
  6
Continuous
 62
     3
370
     9
100
AcDbLine
 10
-527.3592620669374
 20
579.5812284131723
 30
0.0
 11
-527.3592620669374
 21
597.5812284131711
 31
0.0
  0
LINE
  5
3B0
330
1F
100
AcDbEntity
  8
E-A
  6
Continuous
 62
     3
370
     9
100
AcDbLine
 10
-541.5014871777894
 20
579.5812284131712
 30
0.0
 11
-541.5014871777894
 21
597.5812284131711
 31
0.0
  0
LINE
  5
3B1
330
1F
100
AcDbEntity
  8
E-A
  6
Continuous
 62
     3
370
     9
100
AcDbLine
 10
-534.4304488543103
 20
579.5812284131712
 30
0.0
 11
-534.4304488543103
 21
597.5812284131711
 31
0.0
  0
LINE
  5
3B2
330
1F
100
AcDbEntity
  8
E-A
  6
Continuous
 62
     3
370
     9
100
AcDbLine
 10
-527.3592620669374
 20
579.5812284131712
 30
0.0
 11
-527.3592620669374
 21
597.5812284131711
 31
0.0
  0
LINE
  5
3B3
330
1F
100
AcDbEntity
  8
E-A
  6
Continuous
 62
     3
370
     9
100
AcDbLine
 10
-541.5014871777894
 20
579.5812284131725
 30
0.0
 11
-541.5014871777894
 21
597.5812284131712
 31
0.0
  0
LINE
  5
3B4
330
1F
100
AcDbEntity
  8
E-A
  6
Continuous
 62
     3
370
     9
100
AcDbLine
 10
-534.4304488543103
 20
579.5812284131725
 30
0.0
 11
-534.4304488543103
 21
597.5812284131712
 31
0.0
  0
LINE
  5
3B5
330
1F
100
AcDbEntity
  8
E-A
  6
Continuous
 62
     3
370
     9
100
AcDbLine
 10
-527.3592620669374
 20
579.5812284131725
 30
0.0
 11
-527.3592620669374
 21
597.5812284131712
 31
0.0
  0
LINE
  5
3B6
330
1F
100
AcDbEntity
  8
E-A
  6
Continuous
 62
     3
370
     9
100
AcDbLine
 10
-941.5014871777894
 20
579.5812284131712
 30
0.0
 11
-941.5014871777894
 21
597.5812284131711
 31
0.0
  0
LINE
  5
3B7
330
1F
100
AcDbEntity
  8
E-A
  6
Continuous
 62
     3
370
     9
100
AcDbLine
 10
-934.4304488543103
 20
579.5812284131712
 30
0.0
 11
-934.4304488543103
 21
597.5812284131711
 31
0.0
  0
LINE
  5
3B8
330
1F
100
AcDbEntity
  8
E-A
  6
Continuous
 62
     3
370
     9
100
AcDbLine
 10
-927.3592620669374
 20
579.5812284131712
 30
0.0
 11
-927.3592620669374
 21
597.5812284131711
 31
0.0
  0
LINE
  5
3B9
330
1F
100
AcDbEntity
  8
E-A
  6
Continuous
 62
     3
370
     9
100
AcDbLine
 10
-941.5014871777894
 20
579.5812284131723
 30
0.0
 11
-941.5014871777894
 21
597.5812284131711
 31
0.0
  0
LINE
  5
3BA
330
1F
100
AcDbEntity
  8
E-A
  6
Continuous
 62
     3
370
     9
100
AcDbLine
 10
-934.4304488543103
 20
579.5812284131723
 30
0.0
 11
-934.4304488543103
 21
597.5812284131711
 31
0.0
  0
LINE
  5
3BB
330
1F
100
AcDbEntity
  8
E-A
  6
Continuous
 62
     3
370
     9
100
AcDbLine
 10
-927.3592620669374
 20
579.5812284131723
 30
0.0
 11
-927.3592620669374
 21
597.5812284131711
 31
0.0
  0
LINE
  5
3BC
330
1F
100
AcDbEntity
  8
E-A
  6
Continuous
 62
     3
370
     9
100
AcDbLine
 10
-941.5014871777894
 20
579.5812284131712
 30
0.0
 11
-941.5014871777894
 21
597.5812284131711
 31
0.0
  0
LINE
  5
3BD
330
1F
100
AcDbEntity
  8
E-A
  6
Continuous
 62
     3
370
     9
100
AcDbLine
 10
-934.4304488543103
 20
579.5812284131712
 30
0.0
 11
-934.4304488543103
 21
597.5812284131711
 31
0.0
  0
LINE
  5
3BE
330
1F
100
AcDbEntity
  8
E-A
  6
Continuous
 62
     3
370
     9
100
AcDbLine
 10
-927.3592620669374
 20
579.5812284131712
 30
0.0
 11
-927.3592620669374
 21
597.5812284131711
 31
0.0
  0
LINE
  5
3BF
330
1F
100
AcDbEntity
  8
E-A
  6
Continuous
 62
     3
370
     9
100
AcDbLine
 10
-541.5014871777894
 20
613.5811822244044
 30
0.0
 11
-541.5014871777894
 21
631.5811822244034
 31
0.0
  0
LINE
  5
3C0
330
1F
100
AcDbEntity
  8
E-A
  6
Continuous
 62
     3
370
     9
100
AcDbLine
 10
-534.4304488543103
 20
613.5811822244044
 30
0.0
 11
-534.4304488543103
 21
631.5811822244034
 31
0.0
  0
LINE
  5
3C1
330
1F
100
AcDbEntity
  8
E-A
  6
Continuous
 62
     3
370
     9
100
AcDbLine
 10
-527.3592620669374
 20
613.5811822244044
 30
0.0
 11
-527.3592620669374
 21
631.5811822244034
 31
0.0
  0
LINE
  5
3C2
330
1F
100
AcDbEntity
  8
E-A
  6
Continuous
 62
     3
370
     9
100
AcDbLine
 10
-541.5014871777894
 20
613.5811822244044
 30
0.0
 11
-541.5014871777894
 21
631.5811822244045
 31
0.0
  0
LINE
  5
3C3
330
1F
100
AcDbEntity
  8
E-A
  6
Continuous
 62
     3
370
     9
100
AcDbLine
 10
-534.4304488543103
 20
613.5811822244044
 30
0.0
 11
-534.4304488543103
 21
631.5811822244045
 31
0.0
  0
LINE
  5
3C4
330
1F
100
AcDbEntity
  8
E-A
  6
Continuous
 62
     3
370
     9
100
AcDbLine
 10
-527.3592620669374
 20
613.5811822244044
 30
0.0
 11
-527.3592620669374
 21
631.5811822244045
 31
0.0
  0
LINE
  5
3C5
330
1F
100
AcDbEntity
  8
E-A
  6
Continuous
 62
     3
370
     9
100
AcDbLine
 10
-541.5014871777894
 20
613.5811822244044
 30
0.0
 11
-541.5014871777894
 21
631.5811822244034
 31
0.0
  0
LINE
  5
3C6
330
1F
100
AcDbEntity
  8
E-A
  6
Continuous
 62
     3
370
     9
100
AcDbLine
 10
-534.4304488543103
 20
613.5811822244044
 30
0.0
 11
-534.4304488543103
 21
631.5811822244034
 31
0.0
  0
LINE
  5
3C7
330
1F
100
AcDbEntity
  8
E-A
  6
Continuous
 62
     3
370
     9
100
AcDbLine
 10
-527.3592620669374
 20
613.5811822244044
 30
0.0
 11
-527.3592620669374
 21
631.5811822244034
 31
0.0
  0
LINE
  5
3C8
330
1F
100
AcDbEntity
  8
E-A
  6
Continuous
 62
     3
370
     9
100
AcDbLine
 10
-941.5014871777894
 20
613.5811822244044
 30
0.0
 11
-941.5014871777894
 21
631.5811822244034
 31
0.0
  0
LINE
  5
3C9
330
1F
100
AcDbEntity
  8
E-A
  6
Continuous
 62
     3
370
     9
100
AcDbLine
 10
-934.4304488543103
 20
613.5811822244044
 30
0.0
 11
-934.4304488543103
 21
631.5811822244034
 31
0.0
  0
LINE
  5
3CA
330
1F
100
AcDbEntity
  8
E-A
  6
Continuous
 62
     3
370
     9
100
AcDbLine
 10
-927.3592620669374
 20
613.5811822244044
 30
0.0
 11
-927.3592620669374
 21
631.5811822244034
 31
0.0
  0
LINE
  5
3CB
330
1F
100
AcDbEntity
  8
E-A
  6
Continuous
 62
     3
370
     9
100
AcDbLine
 10
-941.5014871777894
 20
613.5811822244044
 30
0.0
 11
-941.5014871777894
 21
631.5811822244045
 31
0.0
  0
LINE
  5
3CC
330
1F
100
AcDbEntity
  8
E-A
  6
Continuous
 62
     3
370
     9
100
AcDbLine
 10
-934.4304488543103
 20
613.5811822244044
 30
0.0
 11
-934.4304488543103
 21
631.5811822244045
 31
0.0
  0
LINE
  5
3CD
330
1F
100
AcDbEntity
  8
E-A
  6
Continuous
 62
     3
370
     9
100
AcDbLine
 10
-927.3592620669374
 20
613.5811822244044
 30
0.0
 11
-927.3592620669374
 21
631.5811822244045
 31
0.0
  0
LINE
  5
3CE
330
1F
100
AcDbEntity
  8
E-A
  6
Continuous
 62
     3
370
     9
100
AcDbLine
 10
-941.5014871777894
 20
613.5811822244044
 30
0.0
 11
-941.5014871777894
 21
631.5811822244034
 31
0.0
  0
LINE
  5
3CF
330
1F
100
AcDbEntity
  8
E-A
  6
Continuous
 62
     3
370
     9
100
AcDbLine
 10
-934.4304488543103
 20
613.5811822244044
 30
0.0
 11
-934.4304488543103
 21
631.5811822244034
 31
0.0
  0
LINE
  5
3D0
330
1F
100
AcDbEntity
  8
E-A
  6
Continuous
 62
     3
370
     9
100
AcDbLine
 10
-927.3592620669374
 20
613.5811822244044
 30
0.0
 11
-927.3592620669374
 21
631.5811822244034
 31
0.0
  0
LINE
  5
3D1
330
1F
100
AcDbEntity
  8
E-A
  6
Continuous
 62
     3
370
     9
100
AcDbLine
 10
-541.5014871777894
 20
647.5811360356367
 30
0.0
 11
-541.5014871777894
 21
665.5811360356379
 31
0.0
  0
LINE
  5
3D2
330
1F
100
AcDbEntity
  8
E-A
  6
Continuous
 62
     3
370
     9
100
AcDbLine
 10
-534.4304488543103
 20
647.5811360356367
 30
0.0
 11
-534.4304488543103
 21
665.5811360356379
 31
0.0
  0
LINE
  5
3D3
330
1F
100
AcDbEntity
  8
E-A
  6
Continuous
 62
     3
370
     9
100
AcDbLine
 10
-527.3592620669374
 20
647.5811360356367
 30
0.0
 11
-527.3592620669374
 21
665.5811360356379
 31
0.0
  0
LINE
  5
3D4
330
1F
100
AcDbEntity
  8
E-A
  6
Continuous
 62
     3
370
     9
100
AcDbLine
 10
-541.5014871777894
 20
647.5811360356379
 30
0.0
 11
-541.5014871777894
 21
665.5811360356379
 31
0.0
  0
LINE
  5
3D5
330
1F
100
AcDbEntity
  8
E-A
  6
Continuous
 62
     3
370
     9
100
AcDbLine
 10
-534.4304488543103
 20
647.5811360356379
 30
0.0
 11
-534.4304488543103
 21
665.5811360356379
 31
0.0
  0
LINE
  5
3D6
330
1F
100
AcDbEntity
  8
E-A
  6
Continuous
 62
     3
370
     9
100
AcDbLine
 10
-527.3592620669374
 20
647.5811360356379
 30
0.0
 11
-527.3592620669374
 21
665.5811360356379
 31
0.0
  0
LINE
  5
3D7
330
1F
100
AcDbEntity
  8
E-A
  6
Continuous
 62
     3
370
     9
100
AcDbLine
 10
-541.5014871777894
 20
647.5811360356367
 30
0.0
 11
-541.5014871777894
 21
665.5811360356379
 31
0.0
  0
LINE
  5
3D8
330
1F
100
AcDbEntity
  8
E-A
  6
Continuous
 62
     3
370
     9
100
AcDbLine
 10
-534.4304488543103
 20
647.5811360356367
 30
0.0
 11
-534.4304488543103
 21
665.5811360356379
 31
0.0
  0
LINE
  5
3D9
330
1F
100
AcDbEntity
  8
E-A
  6
Continuous
 62
     3
370
     9
100
AcDbLine
 10
-527.3592620669374
 20
647.5811360356367
 30
0.0
 11
-527.3592620669374
 21
665.5811360356379
 31
0.0
  0
LINE
  5
3DA
330
1F
100
AcDbEntity
  8
E-A
  6
Continuous
 62
     3
370
     9
100
AcDbLine
 10
-941.5014871777894
 20
647.5811360356367
 30
0.0
 11
-941.5014871777894
 21
665.5811360356379
 31
0.0
  0
LINE
  5
3DB
330
1F
100
AcDbEntity
  8
E-A
  6
Continuous
 62
     3
370
     9
100
AcDbLine
 10
-934.4304488543103
 20
647.5811360356367
 30
0.0
 11
-934.4304488543103
 21
665.5811360356379
 31
0.0
  0
LINE
  5
3DC
330
1F
100
AcDbEntity
  8
E-A
  6
Continuous
 62
     3
370
     9
100
AcDbLine
 10
-927.3592620669374
 20
647.5811360356367
 30
0.0
 11
-927.3592620669374
 21
665.5811360356379
 31
0.0
  0
LINE
  5
3DD
330
1F
100
AcDbEntity
  8
E-A
  6
Continuous
 62
     3
370
     9
100
AcDbLine
 10
-941.5014871777894
 20
647.5811360356379
 30
0.0
 11
-941.5014871777894
 21
665.5811360356379
 31
0.0
  0
LINE
  5
3DE
330
1F
100
AcDbEntity
  8
E-A
  6
Continuous
 62
     3
370
     9
100
AcDbLine
 10
-934.4304488543103
 20
647.5811360356379
 30
0.0
 11
-934.4304488543103
 21
665.5811360356379
 31
0.0
  0
LINE
  5
3DF
330
1F
100
AcDbEntity
  8
E-A
  6
Continuous
 62
     3
370
     9
100
AcDbLine
 10
-927.3592620669374
 20
647.5811360356379
 30
0.0
 11
-927.3592620669374
 21
665.5811360356379
 31
0.0
  0
LINE
  5
3E0
330
1F
100
AcDbEntity
  8
E-A
  6
Continuous
 62
     3
370
     9
100
AcDbLine
 10
-941.5014871777894
 20
647.5811360356367
 30
0.0
 11
-941.5014871777894
 21
665.5811360356379
 31
0.0
  0
LINE
  5
3E1
330
1F
100
AcDbEntity
  8
E-A
  6
Continuous
 62
     3
370
     9
100
AcDbLine
 10
-934.4304488543103
 20
647.5811360356367
 30
0.0
 11
-934.4304488543103
 21
665.5811360356379
 31
0.0
  0
LINE
  5
3E2
330
1F
100
AcDbEntity
  8
E-A
  6
Continuous
 62
     3
370
     9
100
AcDbLine
 10
-927.3592620669374
 20
647.5811360356367
 30
0.0
 11
-927.3592620669374
 21
665.5811360356379
 31
0.0
  0
LINE
  5
3E3
330
1F
100
AcDbEntity
  8
E-A
  6
Continuous
 62
     3
370
     9
100
AcDbLine
 10
-541.5014871777894
 20
681.5810898468712
 30
0.0
 11
-541.5014871777894
 21
699.5810898468699
 31
0.0
  0
LINE
  5
3E4
330
1F
100
AcDbEntity
  8
E-A
  6
Continuous
 62
     3
370
     9
100
AcDbLine
 10
-534.4304488543103
 20
681.5810898468712
 30
0.0
 11
-534.4304488543103
 21
699.5810898468699
 31
0.0
  0
LINE
  5
3E5
330
1F
100
AcDbEntity
  8
E-A
  6
Continuous
 62
     3
370
     9
100
AcDbLine
 10
-527.3592620669374
 20
681.5810898468712
 30
0.0
 11
-527.3592620669374
 21
699.5810898468699
 31
0.0
  0
LINE
  5
3E6
330
1F
100
AcDbEntity
  8
E-A
  6
Continuous
 62
     3
370
     9
100
AcDbLine
 10
-541.5014871777894
 20
681.5810898468714
 30
0.0
 11
-541.5014871777894
 21
699.5810898468711
 31
0.0
  0
LINE
  5
3E7
330
1F
100
AcDbEntity
  8
E-A
  6
Continuous
 62
     3
370
     9
100
AcDbLine
 10
-534.4304488543103
 20
681.5810898468714
 30
0.0
 11
-534.4304488543103
 21
699.5810898468711
 31
0.0
  0
LINE
  5
3E8
330
1F
100
AcDbEntity
  8
E-A
  6
Continuous
 62
     3
370
     9
100
AcDbLine
 10
-527.3592620669374
 20
681.5810898468714
 30
0.0
 11
-527.3592620669374
 21
699.5810898468711
 31
0.0
  0
LINE
  5
3E9
330
1F
100
AcDbEntity
  8
E-A
  6
Continuous
 62
     3
370
     9
100
AcDbLine
 10
-541.5014871777894
 20
681.5810898468712
 30
0.0
 11
-541.5014871777894
 21
699.5810898468699
 31
0.0
  0
LINE
  5
3EA
330
1F
100
AcDbEntity
  8
E-A
  6
Continuous
 62
     3
370
     9
100
AcDbLine
 10
-534.4304488543103
 20
681.5810898468712
 30
0.0
 11
-534.4304488543103
 21
699.5810898468699
 31
0.0
  0
LINE
  5
3EB
330
1F
100
AcDbEntity
  8
E-A
  6
Continuous
 62
     3
370
     9
100
AcDbLine
 10
-527.3592620669374
 20
681.5810898468712
 30
0.0
 11
-527.3592620669374
 21
699.5810898468699
 31
0.0
  0
LINE
  5
3EC
330
1F
100
AcDbEntity
  8
E-A
  6
Continuous
 62
     3
370
     9
100
AcDbLine
 10
-941.5014871777894
 20
681.5810898468712
 30
0.0
 11
-941.5014871777894
 21
699.5810898468699
 31
0.0
  0
LINE
  5
3ED
330
1F
100
AcDbEntity
  8
E-A
  6
Continuous
 62
     3
370
     9
100
AcDbLine
 10
-934.4304488543103
 20
681.5810898468712
 30
0.0
 11
-934.4304488543103
 21
699.5810898468699
 31
0.0
  0
LINE
  5
3EE
330
1F
100
AcDbEntity
  8
E-A
  6
Continuous
 62
     3
370
     9
100
AcDbLine
 10
-927.3592620669374
 20
681.5810898468712
 30
0.0
 11
-927.3592620669374
 21
699.5810898468699
 31
0.0
  0
LINE
  5
3EF
330
1F
100
AcDbEntity
  8
E-A
  6
Continuous
 62
     3
370
     9
100
AcDbLine
 10
-941.5014871777894
 20
681.5810898468712
 30
0.0
 11
-941.5014871777894
 21
699.5810898468699
 31
0.0
  0
LINE
  5
3F0
330
1F
100
AcDbEntity
  8
E-A
  6
Continuous
 62
     3
370
     9
100
AcDbLine
 10
-934.4304488543103
 20
681.5810898468712
 30
0.0
 11
-934.4304488543103
 21
699.5810898468699
 31
0.0
  0
LINE
  5
3F1
330
1F
100
AcDbEntity
  8
E-A
  6
Continuous
 62
     3
370
     9
100
AcDbLine
 10
-927.3592620669374
 20
681.5810898468712
 30
0.0
 11
-927.3592620669374
 21
699.5810898468699
 31
0.0
  0
LINE
  5
3F2
330
1F
100
AcDbEntity
  8
E-A
  6
Continuous
 62
     3
370
     9
100
AcDbLine
 10
-541.5014871777894
 20
715.5810436581032
 30
0.0
 11
-541.5014871777894
 21
733.5810436581044
 31
0.0
  0
LINE
  5
3F3
330
1F
100
AcDbEntity
  8
E-A
  6
Continuous
 62
     3
370
     9
100
AcDbLine
 10
-534.4304488543103
 20
715.5810436581032
 30
0.0
 11
-534.4304488543103
 21
733.5810436581044
 31
0.0
  0
LINE
  5
3F4
330
1F
100
AcDbEntity
  8
E-A
  6
Continuous
 62
     3
370
     9
100
AcDbLine
 10
-527.3592620669374
 20
715.5810436581032
 30
0.0
 11
-527.3592620669374
 21
733.5810436581044
 31
0.0
  0
LINE
  5
3F5
330
1F
100
AcDbEntity
  8
E-A
  6
Continuous
 62
     3
370
     9
100
AcDbLine
 10
-541.5014871777894
 20
715.5810436581045
 30
0.0
 11
-541.5014871777894
 21
733.5810436581045
 31
0.0
  0
LINE
  5
3F6
330
1F
100
AcDbEntity
  8
E-A
  6
Continuous
 62
     3
370
     9
100
AcDbLine
 10
-534.4304488543103
 20
715.5810436581045
 30
0.0
 11
-534.4304488543103
 21
733.5810436581045
 31
0.0
  0
LINE
  5
3F7
330
1F
100
AcDbEntity
  8
E-A
  6
Continuous
 62
     3
370
     9
100
AcDbLine
 10
-527.3592620669374
 20
715.5810436581045
 30
0.0
 11
-527.3592620669374
 21
733.5810436581045
 31
0.0
  0
LINE
  5
3F8
330
1F
100
AcDbEntity
  8
E-A
  6
Continuous
 62
     3
370
     9
100
AcDbLine
 10
-541.5014871777894
 20
715.5810436581033
 30
0.0
 11
-541.5014871777894
 21
733.5810436581045
 31
0.0
  0
LINE
  5
3F9
330
1F
100
AcDbEntity
  8
E-A
  6
Continuous
 62
     3
370
     9
100
AcDbLine
 10
-534.4304488543103
 20
715.5810436581033
 30
0.0
 11
-534.4304488543103
 21
733.5810436581045
 31
0.0
  0
LINE
  5
3FA
330
1F
100
AcDbEntity
  8
E-A
  6
Continuous
 62
     3
370
     9
100
AcDbLine
 10
-527.3592620669374
 20
715.5810436581033
 30
0.0
 11
-527.3592620669374
 21
733.5810436581045
 31
0.0
  0
LINE
  5
3FB
330
1F
100
AcDbEntity
  8
E-A
  6
Continuous
 62
     3
370
     9
100
AcDbLine
 10
-941.5014871777894
 20
715.5810436581032
 30
0.0
 11
-941.5014871777894
 21
733.5810436581044
 31
0.0
  0
LINE
  5
3FC
330
1F
100
AcDbEntity
  8
E-A
  6
Continuous
 62
     3
370
     9
100
AcDbLine
 10
-934.4304488543103
 20
715.5810436581032
 30
0.0
 11
-934.4304488543103
 21
733.5810436581044
 31
0.0
  0
LINE
  5
3FD
330
1F
100
AcDbEntity
  8
E-A
  6
Continuous
 62
     3
370
     9
100
AcDbLine
 10
-927.3592620669374
 20
715.5810436581032
 30
0.0
 11
-927.3592620669374
 21
733.5810436581044
 31
0.0
  0
LINE
  5
3FE
330
1F
100
AcDbEntity
  8
E-A
  6
Continuous
 62
     3
370
     9
100
AcDbLine
 10
-541.5014871777894
 20
749.5809974693377
 30
0.0
 11
-541.5014871777894
 21
767.5809974693377
 31
0.0
  0
LINE
  5
3FF
330
1F
100
AcDbEntity
  8
E-A
  6
Continuous
 62
     3
370
     9
100
AcDbLine
 10
-534.4304488543103
 20
749.5809974693377
 30
0.0
 11
-534.4304488543103
 21
767.5809974693377
 31
0.0
  0
LINE
  5
400
330
1F
100
AcDbEntity
  8
E-A
  6
Continuous
 62
     3
370
     9
100
AcDbLine
 10
-527.3592620669374
 20
749.5809974693377
 30
0.0
 11
-527.3592620669374
 21
767.5809974693377
 31
0.0
  0
LINE
  5
401
330
1F
100
AcDbEntity
  8
E-A
  6
Continuous
 62
     3
370
     9
100
AcDbLine
 10
-541.5014871777894
 20
749.5809974693378
 30
0.0
 11
-541.5014871777894
 21
767.5809974693378
 31
0.0
  0
LINE
  5
402
330
1F
100
AcDbEntity
  8
E-A
  6
Continuous
 62
     3
370
     9
100
AcDbLine
 10
-534.4304488543103
 20
749.5809974693378
 30
0.0
 11
-534.4304488543103
 21
767.5809974693378
 31
0.0
  0
LINE
  5
403
330
1F
100
AcDbEntity
  8
E-A
  6
Continuous
 62
     3
370
     9
100
AcDbLine
 10
-527.3592620669374
 20
749.5809974693378
 30
0.0
 11
-527.3592620669374
 21
767.5809974693378
 31
0.0
  0
LINE
  5
404
330
1F
100
AcDbEntity
  8
E-A
  6
Continuous
 62
     3
370
     9
100
AcDbLine
 10
-941.5014871777894
 20
749.5809974693377
 30
0.0
 11
-941.5014871777894
 21
767.5809974693377
 31
0.0
  0
LINE
  5
405
330
1F
100
AcDbEntity
  8
E-A
  6
Continuous
 62
     3
370
     9
100
AcDbLine
 10
-934.4304488543103
 20
749.5809974693377
 30
0.0
 11
-934.4304488543103
 21
767.5809974693377
 31
0.0
  0
LINE
  5
406
330
1F
100
AcDbEntity
  8
E-A
  6
Continuous
 62
     3
370
     9
100
AcDbLine
 10
-927.3592620669374
 20
749.5809974693377
 30
0.0
 11
-927.3592620669374
 21
767.5809974693377
 31
0.0
  0
LINE
  5
407
330
1F
100
AcDbEntity
  8
E-A
  6
Continuous
 62
     3
370
     9
100
AcDbLine
 10
-541.5014871777894
 20
783.5809512805711
 30
0.0
 11
-541.5014871777894
 21
801.5809512805711
 31
0.0
  0
LINE
  5
408
330
1F
100
AcDbEntity
  8
E-A
  6
Continuous
 62
     3
370
     9
100
AcDbLine
 10
-534.4304488543103
 20
783.5809512805711
 30
0.0
 11
-534.4304488543103
 21
801.5809512805711
 31
0.0
  0
LINE
  5
409
330
1F
100
AcDbEntity
  8
E-A
  6
Continuous
 62
     3
370
     9
100
AcDbLine
 10
-527.3592620669374
 20
783.5809512805711
 30
0.0
 11
-527.3592620669374
 21
801.5809512805711
 31
0.0
  0
LINE
  5
40A
330
1F
100
AcDbEntity
  8
E-A
  6
Continuous
 62
     3
370
     9
100
AcDbLine
 10
-941.5014871777894
 20
783.5809512805711
 30
0.0
 11
-941.5014871777894
 21
801.5809512805711
 31
0.0
  0
LINE
  5
40B
330
1F
100
AcDbEntity
  8
E-A
  6
Continuous
 62
     3
370
     9
100
AcDbLine
 10
-934.4304488543103
 20
783.5809512805711
 30
0.0
 11
-934.4304488543103
 21
801.5809512805711
 31
0.0
  0
LINE
  5
40C
330
1F
100
AcDbEntity
  8
E-A
  6
Continuous
 62
     3
370
     9
100
AcDbLine
 10
-927.3592620669374
 20
783.5809512805711
 30
0.0
 11
-927.3592620669374
 21
801.5809512805711
 31
0.0
  0
LINE
  5
40D
330
1F
100
AcDbEntity
  8
E-A
  6
Continuous
 62
     3
370
     9
100
AcDbLine
 10
-541.5014871777894
 20
817.5809050918044
 30
0.0
 11
-541.5014871777894
 21
835.5809050918044
 31
0.0
  0
LINE
  5
40E
330
1F
100
AcDbEntity
  8
E-A
  6
Continuous
 62
     3
370
     9
100
AcDbLine
 10
-534.4304488543103
 20
817.5809050918044
 30
0.0
 11
-534.4304488543103
 21
835.5809050918044
 31
0.0
  0
LINE
  5
40F
330
1F
100
AcDbEntity
  8
E-A
  6
Continuous
 62
     3
370
     9
100
AcDbLine
 10
-527.3592620669374
 20
817.5809050918044
 30
0.0
 11
-527.3592620669374
 21
835.5809050918044
 31
0.0
  0
LINE
  5
410
330
1F
100
AcDbEntity
  8
E-A
  6
Continuous
 62
     3
370
     9
100
AcDbLine
 10
-941.5014871777894
 20
817.5809050918044
 30
0.0
 11
-941.5014871777894
 21
835.5809050918044
 31
0.0
  0
LINE
  5
411
330
1F
100
AcDbEntity
  8
E-A
  6
Continuous
 62
     3
370
     9
100
AcDbLine
 10
-934.4304488543103
 20
817.5809050918044
 30
0.0
 11
-934.4304488543103
 21
835.5809050918044
 31
0.0
  0
LINE
  5
412
330
1F
100
AcDbEntity
  8
E-A
  6
Continuous
 62
     3
370
     9
100
AcDbLine
 10
-927.3592620669374
 20
817.5809050918044
 30
0.0
 11
-927.3592620669374
 21
835.5809050918044
 31
0.0
  0
LINE
  5
413
330
1F
100
AcDbEntity
  8
E-A
  6
Continuous
 62
     3
370
     9
100
AcDbLine
 10
-541.5014871777894
 20
851.580858903038
 30
0.0
 11
-541.5014871777894
 21
869.5808589030379
 31
0.0
  0
LINE
  5
414
330
1F
100
AcDbEntity
  8
E-A
  6
Continuous
 62
     3
370
     9
100
AcDbLine
 10
-534.4304488543103
 20
851.580858903038
 30
0.0
 11
-534.4304488543103
 21
869.5808589030379
 31
0.0
  0
LINE
  5
415
330
1F
100
AcDbEntity
  8
E-A
  6
Continuous
 62
     3
370
     9
100
AcDbLine
 10
-527.3592620669374
 20
851.580858903038
 30
0.0
 11
-527.3592620669374
 21
869.5808589030379
 31
0.0
  0
LINE
  5
416
330
1F
100
AcDbEntity
  8
E-A
  6
Continuous
 62
     3
370
     9
100
AcDbLine
 10
-541.5014871777894
 20
885.5808127142712
 30
0.0
 11
-541.5014871777894
 21
903.5808127142712
 31
0.0
  0
LINE
  5
417
330
1F
100
AcDbEntity
  8
E-A
  6
Continuous
 62
     3
370
     9
100
AcDbLine
 10
-534.4304488543103
 20
885.5808127142712
 30
0.0
 11
-534.4304488543103
 21
903.5808127142712
 31
0.0
  0
LINE
  5
418
330
1F
100
AcDbEntity
  8
E-A
  6
Continuous
 62
     3
370
     9
100
AcDbLine
 10
-527.3592620669374
 20
885.5808127142712
 30
0.0
 11
-527.3592620669374
 21
903.5808127142712
 31
0.0
  0
LINE
  5
419
330
1F
100
AcDbEntity
  8
E-A
  6
Continuous
 62
     3
370
     9
100
AcDbLine
 10
-541.5014871777894
 20
1596.452823467419
 30
0.0
 11
-541.5014871777894
 21
1614.45282346742
 31
0.0
  0
LINE
  5
41A
330
1F
100
AcDbEntity
  8
E-A
  6
Continuous
 62
     3
370
     9
100
AcDbLine
 10
-534.4304488543103
 20
1596.452823467419
 30
0.0
 11
-534.4304488543103
 21
1614.45282346742
 31
0.0
  0
LINE
  5
41B
330
1F
100
AcDbEntity
  8
E-A
  6
Continuous
 62
     3
370
     9
100
AcDbLine
 10
-527.3592620669374
 20
1596.452823467419
 30
0.0
 11
-527.3592620669374
 21
1614.45282346742
 31
0.0
  0
LINE
  5
41C
330
1F
100
AcDbEntity
  8
E-A
  6
Continuous
 62
     3
370
     9
100
AcDbLine
 10
-941.5014871777894
 20
1596.452823467419
 30
0.0
 11
-941.5014871777894
 21
1614.45282346742
 31
0.0
  0
LINE
  5
41D
330
1F
100
AcDbEntity
  8
E-A
  6
Continuous
 62
     3
370
     9
100
AcDbLine
 10
-934.4304488543103
 20
1596.452823467419
 30
0.0
 11
-934.4304488543103
 21
1614.45282346742
 31
0.0
  0
LINE
  5
41E
330
1F
100
AcDbEntity
  8
E-A
  6
Continuous
 62
     3
370
     9
100
AcDbLine
 10
-927.3592620669374
 20
1596.452823467419
 30
0.0
 11
-927.3592620669374
 21
1614.45282346742
 31
0.0
  0
LINE
  5
41F
330
1F
100
AcDbEntity
  8
E-A
  6
Continuous
 62
     3
370
     9
100
AcDbLine
 10
-541.5014871777894
 20
1562.452869656186
 30
0.0
 11
-541.5014871777894
 21
1580.452869656186
 31
0.0
  0
LINE
  5
420
330
1F
100
AcDbEntity
  8
E-A
  6
Continuous
 62
     3
370
     9
100
AcDbLine
 10
-534.4304488543103
 20
1562.452869656186
 30
0.0
 11
-534.4304488543103
 21
1580.452869656186
 31
0.0
  0
LINE
  5
421
330
1F
100
AcDbEntity
  8
E-A
  6
Continuous
 62
     3
370
     9
100
AcDbLine
 10
-527.3592620669374
 20
1562.452869656186
 30
0.0
 11
-527.3592620669374
 21
1580.452869656186
 31
0.0
  0
LINE
  5
422
330
1F
100
AcDbEntity
  8
E-A
  6
Continuous
 62
     3
370
     9
100
AcDbLine
 10
-941.5014871777894
 20
1562.452869656186
 30
0.0
 11
-941.5014871777894
 21
1580.452869656186
 31
0.0
  0
LINE
  5
423
330
1F
100
AcDbEntity
  8
E-A
  6
Continuous
 62
     3
370
     9
100
AcDbLine
 10
-934.4304488543103
 20
1562.452869656186
 30
0.0
 11
-934.4304488543103
 21
1580.452869656186
 31
0.0
  0
LINE
  5
424
330
1F
100
AcDbEntity
  8
E-A
  6
Continuous
 62
     3
370
     9
100
AcDbLine
 10
-927.3592620669374
 20
1562.452869656186
 30
0.0
 11
-927.3592620669374
 21
1580.452869656186
 31
0.0
  0
LINE
  5
425
330
1F
100
AcDbEntity
  8
E-A
  6
Continuous
 62
     3
370
     9
100
AcDbLine
 10
-541.5014871777894
 20
1528.452915844953
 30
0.0
 11
-541.5014871777894
 21
1546.452915844953
 31
0.0
  0
LINE
  5
426
330
1F
100
AcDbEntity
  8
E-A
  6
Continuous
 62
     3
370
     9
100
AcDbLine
 10
-534.4304488543103
 20
1528.452915844953
 30
0.0
 11
-534.4304488543103
 21
1546.452915844953
 31
0.0
  0
LINE
  5
427
330
1F
100
AcDbEntity
  8
E-A
  6
Continuous
 62
     3
370
     9
100
AcDbLine
 10
-527.3592620669374
 20
1528.452915844953
 30
0.0
 11
-527.3592620669374
 21
1546.452915844953
 31
0.0
  0
LINE
  5
428
330
1F
100
AcDbEntity
  8
E-A
  6
Continuous
 62
     3
370
     9
100
AcDbLine
 10
-941.5014871777894
 20
1528.452915844953
 30
0.0
 11
-941.5014871777894
 21
1546.452915844953
 31
0.0
  0
LINE
  5
429
330
1F
100
AcDbEntity
  8
E-A
  6
Continuous
 62
     3
370
     9
100
AcDbLine
 10
-934.4304488543103
 20
1528.452915844953
 30
0.0
 11
-934.4304488543103
 21
1546.452915844953
 31
0.0
  0
LINE
  5
42A
330
1F
100
AcDbEntity
  8
E-A
  6
Continuous
 62
     3
370
     9
100
AcDbLine
 10
-927.3592620669374
 20
1528.452915844953
 30
0.0
 11
-927.3592620669374
 21
1546.452915844953
 31
0.0
  0
LINE
  5
42B
330
1F
100
AcDbEntity
  8
E-A
  6
Continuous
 62
     3
370
     9
100
AcDbLine
 10
-941.5014871777894
 20
1494.452962033719
 30
0.0
 11
-941.5014871777894
 21
1512.45296203372
 31
0.0
  0
LINE
  5
42C
330
1F
100
AcDbEntity
  8
E-A
  6
Continuous
 62
     3
370
     9
100
AcDbLine
 10
-934.4304488543103
 20
1494.452962033719
 30
0.0
 11
-934.4304488543103
 21
1512.45296203372
 31
0.0
  0
LINE
  5
42D
330
1F
100
AcDbEntity
  8
E-A
  6
Continuous
 62
     3
370
     9
100
AcDbLine
 10
-927.3592620669374
 20
1494.452962033719
 30
0.0
 11
-927.3592620669374
 21
1512.45296203372
 31
0.0
  0
LINE
  5
42E
330
1F
100
AcDbEntity
  8
E-A
  6
Continuous
 62
     3
370
     9
100
AcDbLine
 10
-941.5017841055769
 20
1460.453008222489
 30
0.0
 11
-941.5017841055769
 21
1478.453008222486
 31
0.0
  0
LINE
  5
42F
330
1F
100
AcDbEntity
  8
E-A
  6
Continuous
 62
     3
370
     9
100
AcDbLine
 10
-934.4304488543103
 20
1460.453008222489
 30
0.0
 11
-934.4304488543103
 21
1478.453008222486
 31
0.0
  0
LINE
  5
430
330
1F
100
AcDbEntity
  8
E-A
  6
Continuous
 62
     3
370
     9
100
AcDbLine
 10
-927.3594105308312
 20
1460.453008222489
 30
0.0
 11
-927.3594105308312
 21
1478.453008222486
 31
0.0
  0
LINE
  5
431
330
1F
100
AcDbEntity
  8
E-A
  6
Continuous
 62
     3
370
     9
100
AcDbLine
 10
-1043.359420428425
 20
1465.356478490229
 30
0.0
 11
-1043.359420428425
 21
1478.453008222486
 31
0.0
  0
LINE
  5
432
330
1F
100
AcDbEntity
  8
E-A
  6
Continuous
 62
     3
370
     9
100
AcDbLine
 10
-1057.501497075384
 20
626.6562772496842
 30
0.0
 11
-1057.501497075384
 21
631.5811822244034
 31
0.0
  0
LINE
  5
433
330
1F
100
AcDbEntity
  8
E-A
  6
Continuous
 62
     3
370
     9
100
AcDbLine
 10
-1057.501497075384
 20
626.6562772496842
 30
0.0
 11
-1057.501497075384
 21
631.5811822244045
 31
0.0
  0
LWPOLYLINE
  5
434
330
1F
100
AcDbEntity
  8
E-4
  6
Continuous
 62
     7
370
     9
100
AcDbPolyline
 90
        4
 70
     1
 43
1.0
 10
-1449.930458751904
 20
215.0816541410458
 42
0.4142135623731
 10
-1450.430458751905
 20
215.5816541410458
 42
0.4142135623731
 10
-1450.930458751905
 20
215.0816541410458
 42
0.4142135623731
 10
-1450.430458751905
 20
214.5816541410457
 42
0.4142135623731
  0
LINE
  5
435
330
1F
100
AcDbEntity
  8
E-4
  6
Continuous
 62
     7
370
     9
100
AcDbLine
 10
-1762.430458751904
 20
215.0816541410458
 30
0.0
 11
-1450.430458751905
 21
215.0816541410458
 31
0.0
  0
TEXT
  5
436
330
1F
100
AcDbEntity
  8
E-4
  6
Continuous
 62
     2
370
   211
100
AcDbText
 10
-1638.930458751904
 20
226.7216541410457
 30
0.0
 40
30.48
  1
156
 41
1.083333333333333
  7
ＭＳ ゴシック
100
AcDbText
  0
LWPOLYLINE
  5
437
330
1F
100
AcDbEntity
  8
E-4
  6
Continuous
 62
     7
370
     9
100
AcDbPolyline
 90
        4
 70
     1
 43
1.0
 10
-533.9304488543103
 20
355.0816541410458
 42
0.4142135623731
 10
-534.4304488543103
 20
355.5816541410457
 42
0.4142135623731
 10
-534.9304488543102
 20
355.0816541410458
 42
0.4142135623731
 10
-534.4304488543103
 20
354.5816541410458
 42
0.4142135623731
  0
LWPOLYLINE
  5
438
330
1F
100
AcDbEntity
  8
E-4
  6
Continuous
 62
     7
370
     9
100
AcDbPolyline
 90
        4
 70
     1
 43
1.0
 10
-533.9304488543103
 20
215.0816541410458
 42
0.4142135623731
 10
-534.4304488543103
 20
215.5816541410458
 42
0.4142135623731
 10
-534.9304488543102
 20
215.0816541410458
 42
0.4142135623731
 10
-534.4304488543103
 20
214.5816541410457
 42
0.4142135623731
  0
LINE
  5
439
330
1F
100
AcDbEntity
  8
E-4
  6
Continuous
 62
     7
370
     9
100
AcDbLine
 10
-534.4304488543103
 20
212.0816541410451
 30
0.0
 11
-534.4304488543103
 21
523.5813207907026
 31
0.0
  0
LWPOLYLINE
  5
43A
330
1F
100
AcDbEntity
  8
E-4
  6
Continuous
 62
     7
370
     9
100
AcDbPolyline
 90
        4
 70
     1
 43
1.0
 10
-933.9304488543103
 20
355.0816541410458
 42
0.4142135623731
 10
-934.4304488543103
 20
355.5816541410457
 42
0.4142135623731
 10
-934.9304488543102
 20
355.0816541410458
 42
0.4142135623731
 10
-934.4304488543103
 20
354.5816541410458
 42
0.4142135623731
  0
LINE
  5
43B
330
1F
100
AcDbEntity
  8
E-4
  6
Continuous
 62
     7
370
     9
100
AcDbLine
 10
-934.4304488543103
 20
352.0816541410451
 30
0.0
 11
-934.4304488543103
 21
523.5813207907026
 31
0.0
  0
LINE
  5
43C
330
1F
100
AcDbEntity
  8
E-4
  6
Continuous
 62
     7
370
     9
100
AcDbLine
 10
-934.4304488543103
 20
355.0816541410458
 30
0.0
 11
-534.4304488543103
 21
355.0816541410458
 31
0.0
  0
TEXT
  5
43D
330
1F
100
AcDbEntity
  8
E-4
  6
Continuous
 62
     2
370
   211
100
AcDbText
 10
-766.9304488543103
 20
366.7216541410448
 30
0.0
 40
30.48
  1
200
 41
1.083333333333333
  7
ＭＳ ゴシック
100
AcDbText
  0
LINE
  5
43E
330
1F
100
AcDbEntity
  8
E-4
  6
Continuous
 62
     7
370
     9
100
AcDbLine
 10
-1450.430458751905
 20
215.0816541410458
 30
0.0
 11
-534.4304488543103
 21
215.0816541410458
 31
0.0
  0
LINE
  5
43F
330
1F
100
AcDbEntity
  8
E-4
  6
Continuous
 62
     7
370
     9
100
AcDbLine
 10
-1450.430458751905
 20
212.0816541410451
 30
0.0
 11
-1450.430458751905
 21
523.5813207907026
 31
0.0
  0
LINE
  5
440
330
1F
100
AcDbEntity
  8
E-4
  6
Continuous
 62
     7
370
     9
100
AcDbLine
 10
-534.4304488543103
 20
215.0816541410458
 30
0.0
 11
-222.4304488543102
 21
215.0816541410458
 31
0.0
  0
TEXT
  5
441
330
1F
100
AcDbEntity
  8
E-4
  6
Continuous
 62
     2
370
   211
100
AcDbText
 10
-410.9304488543102
 20
226.7216541410448
 30
0.0
 40
30.48
  1
156
 41
1.083333333333333
  7
ＭＳ ゴシック
100
AcDbText
  0
LINE
  5
442
330
1F
100
AcDbEntity
  8
E-A
  6
Continuous
 62
     3
370
     9
100
AcDbLine
 10
-1450.430458751905
 20
783.5809512805711
 30
0.0
 11
-1450.430458751905
 21
801.5809512805677
 31
0.0
  0
LINE
  5
443
330
1F
100
AcDbEntity
  8
E-A
  6
Continuous
 62
     3
370
     9
100
AcDbLine
 10
-1443.359420428425
 20
783.5809512805711
 30
0.0
 11
-1443.359420428425
 21
801.5809512805677
 31
0.0
  0
LINE
  5
444
330
1F
100
AcDbEntity
  8
E-A
  6
Continuous
 62
     3
370
     9
100
AcDbLine
 10
-1457.501794003171
 20
783.5809512805711
 30
0.0
 11
-1457.501794003171
 21
801.5809512805677
 31
0.0
  0
TEXT
  5
445
330
1F
100
AcDbEntity
  8
D-2
  6
Continuous
 62
     2
370
     9
100
AcDbText
 10
1203.121477113785
 20
470.3957404462941
 30
0.0
 40
30.48
  1
1192
 41
1.09375
  7
ＭＳ ゴシック
100
AcDbText
  0
TEXT
  5
446
330
1F
100
AcDbEntity
  8
E-4
  6
Continuous
 62
     2
370
   211
100
AcDbText
 10
45.92950495692286
 20
1041.18519967042
 30
0.0
 40
30.48
  1
872
 50
90.0
 41
1.083333333333333
  7
ＭＳ ゴシック
100
AcDbText
  0
TEXT
  5
447
330
1F
100
AcDbEntity
  8
E-4
  6
Continuous
 62
     2
370
   211
100
AcDbText
 10
185.9295049569229
 20
1042.017025940293
 30
0.0
 40
30.48
  1
892
 50
90.0
 41
1.083333333333333
  7
ＭＳ ゴシック
100
AcDbText
  0
TEXT
  5
448
330
1F
100
AcDbEntity
  8
D-2
  6
Continuous
 62
     2
370
     9
100
AcDbText
 10
2104.647581817125
 20
1333.467365175598
 30
0.0
 40
30.48
  1
892
 50
90.0
 41
1.083333333333333
  7
ＭＳ ゴシック
100
AcDbText
  0
TEXT
  5
449
330
1F
100
AcDbEntity
  8
F-4ﾚｲﾔ
  6
Continuous
 62
     2
370
     9
100
AcDbText
 10
-1494.816360982913
 20
-668.090875490204
 30
0.0
 40
30.48
  1
892
 41
1.083333333333333
  7
ＭＳ ゴシック
100
AcDbText
  0
LINE
  5
44A
330
1F
100
AcDbEntity
  8
F-5ﾚｲﾔ
  6
Continuous
 62
     7
370
     9
100
AcDbLine
 10
-506.9002223948594
 20
-1328.498216072975
 30
0.0
 11
-1120.343627958628
 21
-1328.498216072975
 31
0.0
  0
LINE
  5
44B
330
1F
100
AcDbEntity
  8
E-5
  6
Continuous
 62
     7
370
     9
100
AcDbLine
 10
-720.6770704759323
 20
-224.0412790206408
 30
0.0
 11
-1264.184084570103
 21
-224.0412790206408
 31
0.0
  0
TEXT
  5
44C
330
1F
100
AcDbEntity
  8
F-4ﾚｲﾔ
  6
Continuous
 62
     2
370
     9
100
AcDbText
 10
-1081.121941672732
 20
-1310.35879343256
 30
0.0
 40
30.48
  1
Ａ断面詳細図　Ｓ＝１：１
 41
1.114583333333333
  7
ＭＳ ゴシック
100
AcDbText
  0
LINE
  5
44D
330
1F
100
AcDbEntity
  8
D-5
  6
Continuous
 62
     7
370
     9
100
AcDbLine
 10
1870.452327251033
 20
314.7379247790649
 30
0.0
 11
1203.288746433887
 21
314.7379247790649
 31
0.0
  0
TEXT
  5
44E
330
1F
100
AcDbEntity
  8
F-5ﾚｲﾔ
  6
Continuous
 62
     2
370
     9
100
AcDbText
 10
1145.194958958527
 20
-842.3566583106043
 30
0.0
 40
30.48
  1
仕　様
 41
1.083333333333338
  7
ＭＳ ゴシック
100
AcDbText
  0
LINE
  5
44F
330
1F
100
AcDbEntity
  8
F-4ﾚｲﾔ
  6
Continuous
 62
     2
370
     9
100
AcDbLine
 10
1097.694806370637
 20
-802.9966583106043
 30
0.0
 11
1322.695111546418
 21
-802.9966583106043
 31
0.0
  0
LINE
  5
450
330
1F
100
AcDbEntity
  8
F-4ﾚｲﾔ
  6
Continuous
 62
     2
370
     9
100
AcDbLine
 10
1097.694806370637
 20
-852.9964294287684
 30
0.0
 11
1097.694806370637
 21
-802.9966583106043
 31
0.0
  0
LINE
  5
451
330
1F
100
AcDbEntity
  8
F-4ﾚｲﾔ
  6
Continuous
 62
     2
370
     9
100
AcDbLine
 10
1322.695111546418
 20
-802.9966583106043
 30
0.0
 11
1322.695111546418
 21
-852.9964294287684
 31
0.0
  0
LINE
  5
452
330
1F
100
AcDbEntity
  8
F-4ﾚｲﾔ
  6
Continuous
 62
     2
370
     9
100
AcDbLine
 10
1322.695111546418
 20
-852.9964294287684
 30
0.0
 11
1097.694806370637
 21
-852.9964294287684
 31
0.0
  0
TEXT
  5
453
330
1F
100
AcDbEntity
  8
F-0ﾚｲﾔ
  6
Continuous
 62
     2
370
     9
100
AcDbText
 10
1182.449189552363
 20
-1103.598788107837
 30
0.0
 40
30.48
  1
本体材質：ＳＵＳ３０４
 41
1.113636363636364
  7
ＭＳ ゴシック
100
AcDbText
  0
TEXT
  5
454
330
1F
100
AcDbEntity
  8
F-0ﾚｲﾔ
  6
Continuous
 62
     2
370
     9
100
AcDbText
 10
1182.449189552363
 20
-1163.598788107837
 30
0.0
 40
30.48
  1
受枠材質：ＳＵＳ３０４（但し、アンカー除く）
 41
1.119318181818182
  7
ＭＳ ゴシック
100
AcDbText
  0
TEXT
  5
455
330
1F
100
AcDbEntity
  8
F-0ﾚｲﾔ
  6
Continuous
 62
     2
370
     9
100
AcDbText
 10
1182.449189552363
 20
-983.5987881078366
 30
0.0
 40
30.48
  1
一般歩行用玄関マット（すきま９ｍｍ）
 41
1.118055555555555
  7
ＭＳ ゴシック
100
AcDbText
  0
TEXT
  5
456
330
1F
100
AcDbEntity
  8
F-0ﾚｲﾔ
  6
Continuous
 62
     2
370
     9
100
AcDbText
 10
1182.449189552363
 20
-923.5987881078366
 30
0.0
 40
30.48
  1
ステンレス製　プレーンタイプ
 41
1.116071428571428
  7
ＭＳ ゴシック
100
AcDbText
  0
TEXT
  5
457
330
1F
100
AcDbEntity
  8
F-0ﾚｲﾔ
  6
Continuous
 62
     2
370
     9
100
AcDbText
 10
1182.449189552363
 20
-1043.598788107837
 30
0.0
 40
30.48
  1
ＭＹＲ－１５　１２００×９００（呼称寸法）
 41
1.119047619047619
  7
ＭＳ ゴシック
100
AcDbText
  0
TEXT
  5
458
330
1F
100
AcDbEntity
  8
F-5ﾚｲﾔ
  6
Continuous
 62
     7
370
     0
100
AcDbText
 10
-73.88992604202585
 20
-1887.953000421128
 30
0.0
 40
22.86
  1
ステンレス製　プレーンタイプ　一般歩行用玄関マット（すきま９ｍｍ）
 41
1.161616161616162
  7
ＭＳ ゴシック
100
AcDbText
  0
TEXT
  5
459
330
1F
100
AcDbEntity
  8
F-5ﾚｲﾔ
  6
Continuous
 62
     7
370
     0
100
AcDbText
 10
-74.37342345423403
 20
-1929.069006294844
 30
0.0
 40
22.86
  1
ＭＹＲ－１５　１２００×９００（呼称寸法）
 41
1.158730158730159
  7
ＭＳ ゴシック
100
AcDbText
  0
LINE
  5
45A
330
1F
100
AcDbEntity
  8
F-1ﾚｲﾔ
  6
Continuous
 62
     2
370
     9
100
AcDbLine
 10
-422.4887617729927
 20
-942.7766485581947
 30
0.0
 11
-412.4885683091345
 21
-942.7766485581947
 31
0.0
  0
LINE
  5
45B
330
1F
100
AcDbEntity
  8
F-1ﾚｲﾔ
  6
Continuous
 62
     2
370
     9
100
AcDbLine
 10
-418.4886380041663
 20
-946.7767607309133
 30
0.0
 11
-416.4886804818532
 21
-946.7767607309133
 31
0.0
  0
LINE
  5
45C
330
1F
100
AcDbEntity
  8
F-1ﾚｲﾔ
  6
Continuous
 62
     2
370
     9
100
AcDbLine
 10
-416.4886804818532
 20
-948.7767124554751
 30
0.0
 11
-416.4886804818532
 21
-946.7767607309133
 31
0.0
  0
LINE
  5
45D
330
1F
100
AcDbEntity
  8
F-1ﾚｲﾔ
  6
Continuous
 62
     2
370
     9
100
AcDbLine
 10
-412.4885683091345
 20
-952.7768130321198
 30
0.0
 11
-412.4885683091345
 21
-927.7768465100519
 31
0.0
  0
ARC
  5
45E
330
1F
100
AcDbEntity
  8
F-1ﾚｲﾔ
  6
Continuous
 62
     2
370
     9
100
AcDbCircle
 10
-426.2021781592177
 20
-962.7767145421467
 30
0.0
 40
39.7132564235378
100
AcDbArc
 50
339.9753054587212
 51
60.23855590820312
  0
ENDSEC
  0
SECTION
  2
OBJECTS
  0
DICTIONARY
  5
C
330
0
100
AcDbDictionary
281
     1
  3
ACAD_GROUP
350
D
  3
ACAD_LAYOUT
350
1A
  3
ACAD_MLEADERSTYLE
350
460
  3
ACAD_MLINESTYLE
350
17
  3
ACAD_PLOTSETTINGS
350
19
  3
ACAD_PLOTSTYLENAME
350
E
  3
ACAD_TABLESTYLE
350
45F
  3
ACAD_VISUALSTYLE
350
2A
  0
DICTIONARY
  5
D
102
{ACAD_REACTORS
330
C
102
}
330
C
100
AcDbDictionary
281
     1
  0
DICTIONARY
  5
1A
102
{ACAD_REACTORS
330
C
102
}
330
C
100
AcDbDictionary
281
     1
  3
Layout1
350
1E
  3
Layout2
350
26
  3
Model
350
22
  0
DICTIONARY
  5
460
102
{ACAD_REACTORS
330
C
102
}
330
C
100
AcDbDictionary
281
     1
  0
DICTIONARY
  5
17
102
{ACAD_REACTORS
330
C
102
}
330
C
100
AcDbDictionary
281
     1
  3
Standard
350
18
  0
DICTIONARY
  5
19
102
{ACAD_REACTORS
330
C
102
}
330
C
100
AcDbDictionary
281
     1
  0
ACDBDICTIONARYWDFLT
  5
E
102
{ACAD_REACTORS
330
C
102
}
330
C
100
AcDbDictionary
281
     1
  3
Normal
350
F
100
AcDbDictionaryWithDefault
340
F
  0
DICTIONARY
  5
45F
102
{ACAD_REACTORS
330
C
102
}
330
C
100
AcDbDictionary
281
     1
  0
DICTIONARY
  5
2A
102
{ACAD_REACTORS
330
C
102
}
330
C
100
AcDbDictionary
281
     1
  3
2dWireframe
350
2F
  3
3D Hidden
350
31
  3
3dWireframe
350
30
  3
Basic
350
32
  3
Brighten
350
36
  3
ColorChange
350
3A
  3
Conceptual
350
34
  3
Dim
350
35
  3
Facepattern
350
39
  3
Flat
350
2B
  3
FlatWithEdges
350
2C
  3
Gouraud
350
2D
  3
GouraudWithEdges
350
2E
  3
Linepattern
350
38
  3
Realistic
350
33
  3
Thicken
350
37
  0
LAYOUT
  5
1E
102
{ACAD_REACTORS
330
1A
102
}
330
1A
100
AcDbPlotSettings
  1

  2
none_device
  4

  6

 40
0.0
 41
0.0
 42
0.0
 43
0.0
 44
0.0
 45
0.0
 46
0.0
 47
0.0
 48
0.0
 49
0.0
140
0.0
141
0.0
142
1.0
143
1.0
 70
   688
 72
     0
 73
     0
 74
     5
  7

 75
    16
 76
     0
 77
     5
 78
   300
147
1.0
148
0.0
149
0.0
100
AcDbLayout
  1
Layout1
 70
     1
 71
     1
 10
0.0
 20
0.0
 11
420.0
 21
297.0
 12
0.0
 22
0.0
 32
0.0
 14
1.000000000000000E+20
 24
1.000000000000000E+20
 34
1.000000000000000E+20
 15
-1.000000000000000E+20
 25
-1.000000000000000E+20
 35
-1.000000000000000E+20
146
0.0
 13
0.0
 23
0.0
 33
0.0
 16
1.0
 26
0.0
 36
0.0
 17
0.0
 27
1.0
 37
0.0
 76
     0
330
1B
  0
LAYOUT
  5
26
102
{ACAD_REACTORS
330
1A
102
}
330
1A
100
AcDbPlotSettings
  1

  2
none_device
  4

  6

 40
0.0
 41
0.0
 42
0.0
 43
0.0
 44
0.0
 45
0.0
 46
0.0
 47
0.0
 48
0.0
 49
0.0
140
0.0
141
0.0
142
1.0
143
1.0
 70
   688
 72
     0
 73
     0
 74
     5
  7

 75
    16
 76
     0
 77
     5
 78
   300
147
1.0
148
0.0
149
0.0
100
AcDbLayout
  1
Layout2
 70
     1
 71
     2
 10
0.0
 20
0.0
 11
0.0
 21
0.0
 12
0.0
 22
0.0
 32
0.0
 14
0.0
 24
0.0
 34
0.0
 15
0.0
 25
0.0
 35
0.0
146
0.0
 13
0.0
 23
0.0
 33
0.0
 16
1.0
 26
0.0
 36
0.0
 17
0.0
 27
1.0
 37
0.0
 76
     0
330
23
  0
LAYOUT
  5
22
102
{ACAD_REACTORS
330
1A
102
}
330
1A
100
AcDbPlotSettings
  1

  2
none_device
  4

  6

 40
0.0
 41
0.0
 42
0.0
 43
0.0
 44
0.0
 45
0.0
 46
0.0
 47
0.0
 48
0.0
 49
0.0
140
0.0
141
0.0
142
1.0
143
1.0
 70
  1712
 72
     0
 73
     0
 74
     0
  7

 75
     0
 76
     0
 77
     5
 78
   300
147
1.0
148
0.0
149
0.0
100
AcDbLayout
  1
Model
 70
     1
 71
     0
 10
-2970.0
 20
-2100.0
 11
2970.0
 21
2100.0
 12
0.0
 22
0.0
 32
0.0
 14
-2970.0
 24
-2100.0
 34
0.0
 15
2970.0
 25
2100.0
 35
0.0
146
0.0
 13
0.0
 23
0.0
 33
0.0
 16
1.0
 26
0.0
 36
0.0
 17
0.0
 27
1.0
 37
0.0
 76
     0
330
1F
331
29
  0
MLINESTYLE
  5
18
102
{ACAD_REACTORS
330
17
102
}
330
17
100
AcDbMlineStyle
  2
Standard
 70
     0
  3

 62
   256
 51
90.0
 52
90.0
 71
     2
 49
0.5
 62
   256
  6
BYLAYER
 49
-0.5
 62
   256
  6
BYLAYER
  0
ACDBPLACEHOLDER
  5
F
102
{ACAD_REACTORS
330
E
102
}
330
E
  0
VISUALSTYLE
  5
2F
102
{ACAD_REACTORS
330
2A
102
}
330
2A
100
AcDbVisualStyle
  2
2dWireframe
 70
     4
 71
     0
 72
     2
 73
     0
 90
        0
 40
-0.6
 41
-30.0
 62
     5
 63
     7
421
 16777215
 74
     1
 91
        4
 64
     7
 65
   257
 75
     1
175
     1
 42
1.0
 92
        0
 66
   257
 43
1.0
 76
     1
 77
     6
 78
     2
 67
     7
 79
     5
170
     0
171
     0
290
     0
174
     0
 93
        1
 44
0.0
173
     0
291
     0
 45
0.0
1001
ACAD
1000
AcDbSavedByObjectVersion
1070
     0
  0
VISUALSTYLE
  5
31
102
{ACAD_REACTORS
330
2A
102
}
330
2A
100
AcDbVisualStyle
  2
3D Hidden
 70
     6
 71
     1
 72
     2
 73
     2
 90
        0
 40
-0.6
 41
-30.0
 62
     5
 63
     7
421
 16777215
 74
     2
 91
        2
 64
     7
 65
   257
 75
     2
175
     1
 42
40.0
 92
        0
 66
   257
 43
1.0
 76
     1
 77
     6
 78
     2
 67
     7
 79
     3
170
     0
171
     0
290
     0
174
     0
 93
        1
 44
0.0
173
     0
291
     0
 45
0.0
1001
ACAD
1000
AcDbSavedByObjectVersion
1070
     0
  0
VISUALSTYLE
  5
30
102
{ACAD_REACTORS
330
2A
102
}
330
2A
100
AcDbVisualStyle
  2
3dWireframe
 70
     5
 71
     0
 72
     2
 73
     0
 90
        0
 40
-0.6
 41
-30.0
 62
     5
 63
     7
421
 16777215
 74
     1
 91
        4
 64
     7
 65
   257
 75
     1
175
     1
 42
1.0
 92
        0
 66
   257
 43
1.0
 76
     1
 77
     6
 78
     2
 67
     7
 79
     5
170
     0
171
     0
290
     0
174
     0
 93
        1
 44
0.0
173
     0
291
     0
 45
0.0
1001
ACAD
1000
AcDbSavedByObjectVersion
1070
     0
  0
VISUALSTYLE
  5
32
102
{ACAD_REACTORS
330
2A
102
}
330
2A
100
AcDbVisualStyle
  2
Basic
 70
     7
 71
     1
 72
     0
 73
     1
 90
        0
 40
-0.6
 41
-30.0
 62
     5
 63
     7
421
 16777215
 74
     0
 91
        4
 64
     7
 65
   257
 75
     1
175
     1
 42
1.0
 92
        8
 66
     7
 43
1.0
 76
     1
 77
     6
 78
     2
 67
     7
 79
     5
170
     0
171
     0
290
     0
174
     0
 93
        1
 44
0.0
173
     0
291
     1
 45
0.0
1001
ACAD
1000
AcDbSavedByObjectVersion
1070
     0
  0
VISUALSTYLE
  5
36
102
{ACAD_REACTORS
330
2A
102
}
330
2A
100
AcDbVisualStyle
  2
Brighten
 70
    12
 71
     2
 72
     2
 73
     0
 90
        0
 40
-0.6
 41
-30.0
 62
     5
 63
     7
421
 16777215
 74
     1
 91
        4
 64
     7
 65
   257
 75
     1
175
     1
 42
1.0
 92
        8
 66
     7
 43
1.0
 76
     1
 77
     6
 78
     2
 67
     7
 79
     5
170
     0
171
     0
290
     0
174
     0
 93
        1
 44
50.0
173
     0
291
     1
 45
0.0
1001
ACAD
1000
AcDbSavedByObjectVersion
1070
     0
  0
VISUALSTYLE
  5
3A
102
{ACAD_REACTORS
330
2A
102
}
330
2A
100
AcDbVisualStyle
  2
ColorChange
 70
    16
 71
     2
 72
     2
 73
     3
 90
        0
 40
-0.6
 41
-30.0
 62
     5
 63
     8
421
  8421504
 74
     1
 91
        4
 64
     7
 65
   257
 75
     1
175
     1
 42
1.0
 92
        8
 66
     8
424
  8421504
 43
1.0
 76
     1
 77
     6
 78
     2
 67
     7
 79
     5
170
     0
171
     0
290
     0
174
     0
 93
        1
 44
0.0
173
     0
291
     1
 45
0.0
1001
ACAD
1000
AcDbSavedByObjectVersion
1070
     0
  0
VISUALSTYLE
  5
34
102
{ACAD_REACTORS
330
2A
102
}
330
2A
100
AcDbVisualStyle
  2
Conceptual
 70
     9
 71
     3
 72
     2
 73
     0
 90
        0
 40
-0.6
 41
-30.0
 62
     5
 63
     7
421
 16777215
 74
     2
 91
        2
 64
     7
 65
   257
 75
     1
175
     1
 42
40.0
 92
        8
 66
     7
 43
1.0
 76
     1
 77
     6
 78
     2
 67
     7
 79
     3
170
     0
171
     0
290
     0
174
     0
 93
        1
 44
0.0
173
     0
291
     0
 45
0.0
1001
ACAD
1000
AcDbSavedByObjectVersion
1070
     0
  0
VISUALSTYLE
  5
35
102
{ACAD_REACTORS
330
2A
102
}
330
2A
100
AcDbVisualStyle
  2
Dim
 70
    11
 71
     2
 72
     2
 73
     0
 90
        0
 40
-0.6
 41
-30.0
 62
     5
 63
     7
421
 16777215
 74
     1
 91
        4
 64
     7
 65
   257
 75
     1
175
     1
 42
1.0
 92
        8
 66
     7
 43
1.0
 76
     1
 77
     6
 78
     2
 67
     7
 79
     5
170
     0
171
     0
290
     0
174
     0
 93
        1
 44
-50.0
173
     0
291
     1
 45
0.0
1001
ACAD
1000
AcDbSavedByObjectVersion
1070
     0
  0
VISUALSTYLE
  5
39
102
{ACAD_REACTORS
330
2A
102
}
330
2A
100
AcDbVisualStyle
  2
Facepattern
 70
    15
 71
     2
 72
     2
 73
     0
 90
        0
 40
-0.6
 41
-30.0
 62
     5
 63
     7
421
 16777215
 74
     1
 91
        4
 64
     7
 65
   257
 75
     1
175
     1
 42
1.0
 92
        8
 66
     7
 43
1.0
 76
     1
 77
     6
 78
     2
 67
     7
 79
     5
170
     0
171
     0
290
     0
174
     0
 93
        1
 44
0.0
173
     0
291
     1
 45
0.0
1001
ACAD
1000
AcDbSavedByObjectVersion
1070
     0
  0
VISUALSTYLE
  5
2B
102
{ACAD_REACTORS
330
2A
102
}
330
2A
100
AcDbVisualStyle
  2
Flat
 70
     0
 71
     2
 72
     1
 73
     1
 90
        2
 40
-0.6
 41
30.0
 62
     5
 63
     7
421
 16777215
 74
     0
 91
        4
 64
     7
 65
   257
 75
     1
175
     1
 42
1.0
 92
        8
 66
     7
 43
1.0
 76
     1
 77
     6
 78
     2
 67
     7
 79
     5
170
     0
171
     0
290
     0
174
     0
 93
       13
 44
0.0
173
     0
291
     1
 45
0.0
1001
ACAD
1000
AcDbSavedByObjectVersion
1070
     0
  0
VISUALSTYLE
  5
2C
102
{ACAD_REACTORS
330
2A
102
}
330
2A
100
AcDbVisualStyle
  2
FlatWithEdges
 70
     1
 71
     2
 72
     1
 73
     1
 90
        2
 40
-0.6
 41
30.0
 62
     5
 63
     7
421
 16777215
 74
     1
 91
        4
 64
     7
 65
   257
 75
     1
175
     1
 42
1.0
 92
        0
 66
   257
 43
1.0
 76
     1
 77
     6
 78
     2
 67
     7
 79
     5
170
     0
171
     0
290
     0
174
     0
 93
       13
 44
0.0
173
     0
291
     1
 45
0.0
1001
ACAD
1000
AcDbSavedByObjectVersion
1070
     0
  0
VISUALSTYLE
  5
2D
102
{ACAD_REACTORS
330
2A
102
}
330
2A
100
AcDbVisualStyle
  2
Gouraud
 70
     2
 71
     2
 72
     2
 73
     1
 90
        2
 40
-0.6
 41
30.0
 62
     5
 63
     7
421
 16777215
 74
     0
 91
        4
 64
     7
 65
   257
 75
     1
175
     1
 42
1.0
 92
        0
 66
     7
 43
1.0
 76
     1
 77
     6
 78
     2
 67
     7
 79
     5
170
     0
171
     0
290
     0
174
     0
 93
       13
 44
0.0
173
     0
291
     1
 45
0.0
1001
ACAD
1000
AcDbSavedByObjectVersion
1070
     0
  0
VISUALSTYLE
  5
2E
102
{ACAD_REACTORS
330
2A
102
}
330
2A
100
AcDbVisualStyle
  2
GouraudWithEdges
 70
     3
 71
     2
 72
     2
 73
     1
 90
        2
 40
-0.6
 41
30.0
 62
     5
 63
     7
421
 16777215
 74
     1
 91
        4
 64
     7
 65
   257
 75
     1
175
     1
 42
1.0
 92
        0
 66
   257
 43
1.0
 76
     1
 77
     6
 78
     2
 67
     7
 79
     5
170
     0
171
     0
290
     0
174
     0
 93
       13
 44
0.0
173
     0
291
     1
 45
0.0
1001
ACAD
1000
AcDbSavedByObjectVersion
1070
     0
  0
VISUALSTYLE
  5
38
102
{ACAD_REACTORS
330
2A
102
}
330
2A
100
AcDbVisualStyle
  2
Linepattern
 70
    14
 71
     2
 72
     2
 73
     0
 90
        0
 40
-0.6
 41
-30.0
 62
     5
 63
     7
421
 16777215
 74
     1
 91
        4
 64
     7
 65
   257
 75
     7
175
     7
 42
1.0
 92
        8
 66
     7
 43
1.0
 76
     1
 77
     6
 78
     2
 67
     7
 79
     5
170
     0
171
     0
290
     0
174
     0
 93
        1
 44
0.0
173
     0
291
     1
 45
0.0
1001
ACAD
1000
AcDbSavedByObjectVersion
1070
     0
  0
VISUALSTYLE
  5
33
102
{ACAD_REACTORS
330
2A
102
}
330
2A
100
AcDbVisualStyle
  2
Realistic
 70
     8
 71
     2
 72
     2
 73
     0
 90
        0
 40
-0.6
 41
-30.0
 62
     5
 63
     7
421
 16777215
 74
     1
 91
        0
 64
     7
 65
   257
 75
     1
175
     1
 42
1.0
 92
        8
 66
     8
424
  7895160
 43
1.0
 76
     1
 77
     6
 78
     2
 67
     7
 79
     5
170
     0
171
     0
290
     0
174
     0
 93
       13
 44
0.0
173
     0
291
     0
 45
0.0
1001
ACAD
1000
AcDbSavedByObjectVersion
1070
     0
  0
VISUALSTYLE
  5
37
102
{ACAD_REACTORS
330
2A
102
}
330
2A
100
AcDbVisualStyle
  2
Thicken
 70
    13
 71
     2
 72
     2
 73
     0
 90
        0
 40
-0.6
 41
-30.0
 62
     5
 63
     7
421
 16777215
 74
     1
 91
        4
 64
     7
 65
   257
 75
     1
175
     1
 42
1.0
 92
       12
 66
     7
 43
1.0
 76
     1
 77
     6
 78
     2
 67
     7
 79
     5
170
     0
171
     0
290
     0
174
     0
 93
        1
 44
0.0
173
     0
291
     1
 45
0.0
1001
ACAD
1000
AcDbSavedByObjectVersion
1070
     0
  0
ENDSEC
  0
EOF
