  0
SECTION
  2
HEADER
  9
$ACADVER
  1
AC1018
  9
$ACADMAINTVER
 70
     0
  9
$DWGCODEPAGE
  3
ANSI_932
  9
$INSBASE
 10
0.0
 20
0.0
 30
0.0
  9
$EXTMIN
 10
-2100.0
 20
-1485.0
 30
0.0
  9
$EXTMAX
 10
2100.0
 20
1485.0
 30
0.0
  9
$LIMMIN
 10
-2100.0
 20
-1485.0
  9
$LIMMAX
 10
2100.0
 20
1485.0
  9
$ORTHOMODE
 70
     0
  9
$REGENMODE
 70
     1
  9
$FILLMODE
 70
     1
  9
$QTEXTMODE
 70
     0
  9
$MIRRTEXT
 70
     1
  9
$LTSCALE
 40
10.0
  9
$ATTMODE
 70
     1
  9
$TEXTSIZE
 40
2.5
  9
$TRACEWID
 40
1.0
  9
$TEXTSTYLE
  7
Standard
  9
$CLAYER
  8
0
  9
$CELTYPE
  6
ByLayer
  9
$CECOLOR
 62
   256
  9
$CELTSCALE
 40
1.0
  9
$DISPSILH
 70
     0
  9
$DIMSCALE
 40
1.0
  9
$DIMASZ
 40
2.5
  9
$DIMEXO
 40
0.625
  9
$DIMDLI
 40
3.75
  9
$DIMRND
 40
0.0
  9
$DIMDLE
 40
0.0
  9
$DIMEXE
 40
1.25
  9
$DIMTP
 40
0.0
  9
$DIMTM
 40
0.0
  9
$DIMTXT
 40
2.5
  9
$DIMCEN
 40
2.5
  9
$DIMTSZ
 40
0.0
  9
$DIMTOL
 70
     0
  9
$DIMLIM
 70
     0
  9
$DIMTIH
 70
     0
  9
$DIMTOH
 70
     0
  9
$DIMSE1
 70
     0
  9
$DIMSE2
 70
     0
  9
$DIMTAD
 70
     1
  9
$DIMZIN
 70
     8
  9
$DIMBLK
  1

  9
$DIMASO
 70
     1
  9
$DIMSHO
 70
     1
  9
$DIMPOST
  1

  9
$DIMAPOST
  1

  9
$DIMALT
 70
     0
  9
$DIMALTD
 70
     3
  9
$DIMALTF
 40
0.03937007874016
  9
$DIMLFAC
 40
1.0
  9
$DIMTOFL
 70
     1
  9
$DIMTVP
 40
0.0
  9
$DIMTIX
 70
     0
  9
$DIMSOXD
 70
     0
  9
$DIMSAH
 70
     0
  9
$DIMBLK1
  1

  9
$DIMBLK2
  1

  9
$DIMSTYLE
  2
ISO-25
  9
$DIMCLRD
 70
     0
  9
$DIMCLRE
 70
     0
  9
$DIMCLRT
 70
     0
  9
$DIMTFAC
 40
1.0
  9
$DIMGAP
 40
0.625
  9
$DIMJUST
 70
     0
  9
$DIMSD1
 70
     0
  9
$DIMSD2
 70
     0
  9
$DIMTOLJ
 70
     0
  9
$DIMTZIN
 70
     8
  9
$DIMALTZ
 70
     0
  9
$DIMALTTZ
 70
     0
  9
$DIMUPT
 70
     0
  9
$DIMDEC
 70
     2
  9
$DIMTDEC
 70
     2
  9
$DIMALTU
 70
     2
  9
$DIMALTTD
 70
     3
  9
$DIMTXSTY
  7
Standard
  9
$DIMAUNIT
 70
     0
  9
$DIMADEC
 70
     0
  9
$DIMALTRND
 40
0.0
  9
$DIMAZIN
 70
     0
  9
$DIMDSEP
 70
    44
  9
$DIMATFIT
 70
     3
  9
$DIMFRAC
 70
     0
  9
$DIMLDRBLK
  1

  9
$DIMLUNIT
 70
     2
  9
$DIMLWD
 70
    -2
  9
$DIMLWE
 70
    -2
  9
$DIMTMOVE
 70
     0
  9
$LUNITS
 70
     2
  9
$LUPREC
 70
     4
  9
$SKETCHINC
 40
1.0
  9
$FILLETRAD
 40
10.0
  9
$AUNITS
 70
     0
  9
$AUPREC
 70
     0
  9
$MENU
  1
.
  9
$ELEVATION
 40
0.0
  9
$PELEVATION
 40
0.0
  9
$THICKNESS
 40
0.0
  9
$LIMCHECK
 70
     0
  9
$CHAMFERA
 40
10.0
  9
$CHAMFERB
 40
10.0
  9
$CHAMFERC
 40
20.0
  9
$CHAMFERD
 40
0.0
  9
$SKPOLY
 70
     0
  9
$TDCREATE
 40
2456499.582611134
  9
$TDUCREATE
 40
2456499.207611134
  9
$TDUPDATE
 40
2456499.582611146
  9
$TDUUPDATE
 40
2456499.207611146
  9
$TDINDWG
 40
0.0000000116
  9
$TDUSRTIMER
 40
0.0000000116
  9
$USRTIMER
 70
     1
  9
$ANGBASE
 50
0.0
  9
$ANGDIR
 70
     0
  9
$PDMODE
 70
     0
  9
$PDSIZE
 40
0.0
  9
$PLINEWID
 40
0.0
  9
$SPLFRAME
 70
     0
  9
$SPLINETYPE
 70
     6
  9
$SPLINESEGS
 70
     8
  9
$HANDSEED
  5
639
  9
$SURFTAB1
 70
     6
  9
$SURFTAB2
 70
     6
  9
$SURFTYPE
 70
     6
  9
$SURFU
 70
     6
  9
$SURFV
 70
     6
  9
$UCSBASE
  2

  9
$UCSNAME
  2

  9
$UCSORG
 10
0.0
 20
0.0
 30
0.0
  9
$UCSXDIR
 10
1.0
 20
0.0
 30
0.0
  9
$UCSYDIR
 10
0.0
 20
1.0
 30
0.0
  9
$UCSORTHOREF
  2

  9
$UCSORTHOVIEW
 70
     0
  9
$UCSORGTOP
 10
0.0
 20
0.0
 30
0.0
  9
$UCSORGBOTTOM
 10
0.0
 20
0.0
 30
0.0
  9
$UCSORGLEFT
 10
0.0
 20
0.0
 30
0.0
  9
$UCSORGRIGHT
 10
0.0
 20
0.0
 30
0.0
  9
$UCSORGFRONT
 10
0.0
 20
0.0
 30
0.0
  9
$UCSORGBACK
 10
0.0
 20
0.0
 30
0.0
  9
$PUCSBASE
  2

  9
$PUCSNAME
  2

  9
$PUCSORG
 10
0.0
 20
0.0
 30
0.0
  9
$PUCSXDIR
 10
1.0
 20
0.0
 30
0.0
  9
$PUCSYDIR
 10
0.0
 20
1.0
 30
0.0
  9
$PUCSORTHOREF
  2

  9
$PUCSORTHOVIEW
 70
     0
  9
$PUCSORGTOP
 10
0.0
 20
0.0
 30
0.0
  9
$PUCSORGBOTTOM
 10
0.0
 20
0.0
 30
0.0
  9
$PUCSORGLEFT
 10
0.0
 20
0.0
 30
0.0
  9
$PUCSORGRIGHT
 10
0.0
 20
0.0
 30
0.0
  9
$PUCSORGFRONT
 10
0.0
 20
0.0
 30
0.0
  9
$PUCSORGBACK
 10
0.0
 20
0.0
 30
0.0
  9
$USERI1
 70
     0
  9
$USERI2
 70
     0
  9
$USERI3
 70
     0
  9
$USERI4
 70
     0
  9
$USERI5
 70
     0
  9
$USERR1
 40
0.0
  9
$USERR2
 40
0.0
  9
$USERR3
 40
0.0
  9
$USERR4
 40
0.0
  9
$USERR5
 40
0.0
  9
$WORLDVIEW
 70
     1
  9
$SHADEDGE
 70
     3
  9
$SHADEDIF
 70
    70
  9
$TILEMODE
 70
     1
  9
$MAXACTVP
 70
    64
  9
$PINSBASE
 10
0.0
 20
0.0
 30
0.0
  9
$PLIMCHECK
 70
     0
  9
$PEXTMIN
 10
1.000000000000000E+20
 20
1.000000000000000E+20
 30
1.000000000000000E+20
  9
$PEXTMAX
 10
-1.000000000000000E+20
 20
-1.000000000000000E+20
 30
-1.000000000000000E+20
  9
$PLIMMIN
 10
0.0
 20
0.0
  9
$PLIMMAX
 10
420.0
 20
297.0
  9
$UNITMODE
 70
     0
  9
$VISRETAIN
 70
     1
  9
$PLINEGEN
 70
     0
  9
$PSLTSCALE
 70
     1
  9
$TREEDEPTH
 70
  3020
  9
$CMLSTYLE
  2
Standard
  9
$CMLJUST
 70
     0
  9
$CMLSCALE
 40
20.0
  9
$PROXYGRAPHICS
 70
     1
  9
$MEASUREMENT
 70
     1
  9
$CELWEIGHT
370
    -1
  9
$ENDCAPS
280
     0
  9
$JOINSTYLE
280
     0
  9
$LWDISPLAY
290
     0
  9
$INSUNITS
 70
     4
  9
$HYPERLINKBASE
  1

  9
$STYLESHEET
  1

  9
$XEDIT
290
     1
  9
$CEPSNTYPE
380
     0
  9
$PSTYLEMODE
290
     1
  9
$FINGERPRINTGUID
  2
{CB236671-FD17-4C94-9981-DDEFA1D384D6}
  9
$VERSIONGUID
  2
{FAEB1C32-E019-11D5-929B-00C0DF256EC4}
  9
$EXTNAMES
290
     1
  9
$PSVPSCALE
 40
0.0
  9
$OLESTARTUP
290
     0
  9
$SORTENTS
280
   127
  9
$INDEXCTL
280
     0
  9
$HIDETEXT
280
     1
  9
$XCLIPFRAME
290
     0
  9
$HALOGAP
280
     0
  9
$OBSCOLOR
 70
   257
  9
$OBSLTYPE
280
     0
  9
$INTERSECTIONDISPLAY
280
     0
  9
$INTERSECTIONCOLOR
 70
   257
  9
$DIMASSOC
280
     2
  9
$PROJECTNAME
  1

  0
ENDSEC
  0
SECTION
  2
CLASSES
  0
CLASS
  1
ACDBDICTIONARYWDFLT
  2
AcDbDictionaryWithDefault
  3
ObjectDBX Classes
 90
        0
 91
        4
280
     0
281
     0
  0
CLASS
  1
VISUALSTYLE
  2
AcDbVisualStyle
  3
ObjectDBX Classes
 90
     4095
 91
        4
280
     0
281
     0
  0
ENDSEC
  0
SECTION
  2
TABLES
  0
TABLE
  2
VPORT
  5
8
330
0
100
AcDbSymbolTable
 70
     1
  0
VPORT
  5
29
330
8
100
AcDbSymbolTableRecord
100
AcDbViewportTableRecord
  2
*Active
 70
     0
 10
0.0
 20
0.0
 11
1.0
 21
1.0
 12
0.0
 22
0.0
 13
0.0
 23
0.0
 14
10.0
 24
10.0
 15
10.0
 25
10.0
 16
0.0
 26
0.0
 36
1.0
 17
0.0
 27
0.0
 37
0.0
 40
3267.0
 41
1.414141414141414
 42
50.0
 43
0.0
 44
0.0
 50
0.0
 51
0.0
 71
     0
 72
 10000
 73
     1
 74
     3
 75
     0
 76
     0
 77
     0
 78
     0
281
     0
 65
     1
110
0.0
120
0.0
130
0.0
111
1.0
121
0.0
131
0.0
112
0.0
122
1.0
132
0.0
 79
     0
146
0.0
  0
ENDTAB
  0
TABLE
  2
LTYPE
  5
5
330
0
100
AcDbSymbolTable
 70
     5
  0
LTYPE
  5
14
330
5
100
AcDbSymbolTableRecord
100
AcDbLinetypeTableRecord
  2
ByBlock
 70
     0
  3

 72
    65
 73
     0
 40
0.0
  0
LTYPE
  5
15
330
5
100
AcDbSymbolTableRecord
100
AcDbLinetypeTableRecord
  2
ByLayer
 70
     0
  3

 72
    65
 73
     0
 40
0.0
  0
LTYPE
  5
16
330
5
100
AcDbSymbolTableRecord
100
AcDbLinetypeTableRecord
  2
Continuous
 70
     0
  3
Solid line
 72
    65
 73
     0
 40
0.0
  0
LTYPE
  5
3C
330
5
100
AcDbSymbolTableRecord
100
AcDbLinetypeTableRecord
  2
JWW_CENTER2
 70
     0
  3
-------------  --  -------------
 72
    65
 73
     4
 40
13.54666666666667
 49
11.00666666666667
 74
     0
 49
-0.8466666666666667
 74
     0
 49
0.8466666666666667
 74
     0
 49
-0.8466666666666667
 74
     0
  0
LTYPE
  5
3D
330
5
100
AcDbSymbolTableRecord
100
AcDbLinetypeTableRecord
  2
JWW_CENTER1
 70
     0
  3
-----  --  ----------  --  -----
 72
    65
 73
     4
 40
6.773333333333333
 49
4.233333333333333
 74
     0
 49
-0.8466666666666667
 74
     0
 49
0.8466666666666667
 74
     0
 49
-0.8466666666666667
 74
     0
  0
LTYPE
  5
3E
330
5
100
AcDbSymbolTableRecord
100
AcDbLinetypeTableRecord
  2
JWW_DASHED1
 70
     0
  3
-  --  --  --  --  --  --  --  -
 72
    65
 73
     2
 40
1.693333333333333
 49
0.8466666666666667
 74
     0
 49
-0.8466666666666667
 74
     0
  0
LTYPE
  5
3F
330
5
100
AcDbSymbolTableRecord
100
AcDbLinetypeTableRecord
  2
JWW_DASHED3
 70
     0
  3
---  ------  ------  ------  ---
 72
    65
 73
     2
 40
3.386666666666667
 49
2.54
 74
     0
 49
-0.8466666666666667
 74
     0
  0
ENDTAB
  0
TABLE
  2
LAYER
  5
2
330
0
100
AcDbSymbolTable
 70
    20
  0
LAYER
  5
10
330
2
100
AcDbSymbolTableRecord
100
AcDbLayerTableRecord
  2
0
 70
     0
 62
     7
  6
Continuous
370
    -3
390
F
  0
LAYER
  5
40
330
2
100
AcDbSymbolTableRecord
100
AcDbLayerTableRecord
  2
1-5
 70
     0
 62
     7
  6
Continuous
370
    -3
390
F
  0
LAYER
  5
41
330
2
100
AcDbSymbolTableRecord
100
AcDbLayerTableRecord
  2
1-9
 70
     0
 62
     7
  6
Continuous
370
    -3
390
F
  0
LAYER
  5
42
330
2
100
AcDbSymbolTableRecord
100
AcDbLayerTableRecord
  2
1-1
 70
     0
 62
     7
  6
Continuous
370
    -3
390
F
  0
LAYER
  5
43
330
2
100
AcDbSymbolTableRecord
100
AcDbLayerTableRecord
  2
D-2
 70
     0
 62
     7
  6
Continuous
370
    -3
390
F
  0
LAYER
  5
44
330
2
100
AcDbSymbolTableRecord
100
AcDbLayerTableRecord
  2
D-0
 70
     0
 62
     7
  6
Continuous
370
    -3
390
F
  0
LAYER
  5
45
330
2
100
AcDbSymbolTableRecord
100
AcDbLayerTableRecord
  2
D-A
 70
     0
 62
     7
  6
Continuous
370
    -3
390
F
  0
LAYER
  5
46
330
2
100
AcDbSymbolTableRecord
100
AcDbLayerTableRecord
  2
D-1
 70
     0
 62
     7
  6
Continuous
370
    -3
390
F
  0
LAYER
  5
47
330
2
100
AcDbSymbolTableRecord
100
AcDbLayerTableRecord
  2
2-1
 70
     0
 62
     7
  6
Continuous
370
    -3
390
F
  0
LAYER
  5
48
330
2
100
AcDbSymbolTableRecord
100
AcDbLayerTableRecord
  2
2-9
 70
     0
 62
     7
  6
Continuous
370
    -3
390
F
  0
LAYER
  5
49
330
2
100
AcDbSymbolTableRecord
100
AcDbLayerTableRecord
  2
2-5
 70
     0
 62
     7
  6
Continuous
370
    -3
390
F
  0
LAYER
  5
4A
330
2
100
AcDbSymbolTableRecord
100
AcDbLayerTableRecord
  2
2-4
 70
     0
 62
     7
  6
Continuous
370
    -3
390
F
  0
LAYER
  5
4B
330
2
100
AcDbSymbolTableRecord
100
AcDbLayerTableRecord
  2
D-5
 70
     0
 62
     7
  6
Continuous
370
    -3
390
F
  0
LAYER
  5
4C
330
2
100
AcDbSymbolTableRecord
100
AcDbLayerTableRecord
  2
D-4
 70
     0
 62
     7
  6
Continuous
370
    -3
390
F
  0
LAYER
  5
4D
330
2
100
AcDbSymbolTableRecord
100
AcDbLayerTableRecord
  2
1-2
 70
     0
 62
     7
  6
Continuous
370
    -3
390
F
  0
LAYER
  5
4E
330
2
100
AcDbSymbolTableRecord
100
AcDbLayerTableRecord
  2
1-4
 70
     0
 62
     7
  6
Continuous
370
    -3
390
F
  0
LAYER
  5
4F
330
2
100
AcDbSymbolTableRecord
100
AcDbLayerTableRecord
  2
2-0
 70
     0
 62
     7
  6
Continuous
370
    -3
390
F
  0
LAYER
  5
50
330
2
100
AcDbSymbolTableRecord
100
AcDbLayerTableRecord
  2
2-2
 70
     0
 62
     7
  6
Continuous
370
    -3
390
F
  0
LAYER
  5
51
330
2
100
AcDbSymbolTableRecord
100
AcDbLayerTableRecord
  2
2-F
 70
     0
 62
     7
  6
Continuous
370
    -3
390
F
  0
LAYER
  5
52
330
2
100
AcDbSymbolTableRecord
100
AcDbLayerTableRecord
  2
F-4
 70
     0
 62
     7
  6
Continuous
370
    -3
390
F
  0
ENDTAB
  0
TABLE
  2
STYLE
  5
3
330
0
100
AcDbSymbolTable
 70
     2
  0
STYLE
  5
11
330
3
100
AcDbSymbolTableRecord
100
AcDbTextStyleTableRecord
  2
Standard
 70
     0
 40
0.0
 41
1.0
 50
0.0
 71
     0
 42
2.5
  3
txt
  4

1001
ACAD
1000

1071
        0
  0
STYLE
  5
3B
330
3
100
AcDbSymbolTableRecord
100
AcDbTextStyleTableRecord
  2
ＭＳ ゴシック
 70
     0
 40
1.0
 41
1.0
 50
0.0
 71
     0
 42
10.0
  3

  4

1001
ACAD
1000
MS Gothic
1071
    32817
  0
ENDTAB
  0
TABLE
  2
VIEW
  5
6
330
0
100
AcDbSymbolTable
 70
     0
  0
ENDTAB
  0
TABLE
  2
UCS
  5
7
330
0
100
AcDbSymbolTable
 70
     0
  0
ENDTAB
  0
TABLE
  2
APPID
  5
9
330
0
100
AcDbSymbolTable
 70
     1
  0
APPID
  5
12
330
9
100
AcDbSymbolTableRecord
100
AcDbRegAppTableRecord
  2
ACAD
 70
     0
  0
ENDTAB
  0
TABLE
  2
DIMSTYLE
  5
A
330
0
100
AcDbSymbolTable
 70
     1
100
AcDbDimStyleTable
  0
DIMSTYLE
105
27
330
A
100
AcDbSymbolTableRecord
100
AcDbDimStyleTableRecord
  2
ISO-25
 70
     0
 41
2.5
 42
0.625
 43
3.75
 44
1.25
 73
     0
 74
     0
 77
     1
 78
     8
140
2.5
141
2.5
143
0.03937007874016
147
0.625
171
     3
172
     1
271
     2
272
     2
274
     3
278
    44
283
     0
284
     8
340
11
  0
ENDTAB
  0
TABLE
  2
BLOCK_RECORD
  5
1
330
0
100
AcDbSymbolTable
 70
     1
  0
BLOCK_RECORD
  5
1F
330
1
100
AcDbSymbolTableRecord
100
AcDbBlockTableRecord
  2
*Model_Space
340
22
  0
BLOCK_RECORD
  5
1B
330
1
100
AcDbSymbolTableRecord
100
AcDbBlockTableRecord
  2
*Paper_Space
340
1E
  0
BLOCK_RECORD
  5
23
330
1
100
AcDbSymbolTableRecord
100
AcDbBlockTableRecord
  2
*Paper_Space0
340
26
  0
ENDTAB
  0
ENDSEC
  0
SECTION
  2
BLOCKS
  0
BLOCK
  5
20
330
1F
100
AcDbEntity
  8
0
100
AcDbBlockBegin
  2
*Model_Space
 70
     0
 10
0.0
 20
0.0
 30
0.0
  3
*Model_Space
  1

  0
ENDBLK
  5
21
330
1F
100
AcDbEntity
  8
0
100
AcDbBlockEnd
  0
BLOCK
  5
1C
330
1B
100
AcDbEntity
 67
     1
  8
0
100
AcDbBlockBegin
  2
*Paper_Space
 70
     0
 10
0.0
 20
0.0
 30
0.0
  3
*Paper_Space
  1

  0
ENDBLK
  5
1D
330
1B
100
AcDbEntity
 67
     1
  8
0
100
AcDbBlockEnd
  0
BLOCK
  5
24
330
23
100
AcDbEntity
  8
0
100
AcDbBlockBegin
  2
*Paper_Space0
 70
     0
 10
0.0
 20
0.0
 30
0.0
  3
*Paper_Space0
  1

  0
ENDBLK
  5
25
330
23
100
AcDbEntity
  8
0
100
AcDbBlockEnd
  0
ENDSEC
  0
SECTION
  2
ENTITIES
  0
LINE
  5
53
330
1F
100
AcDbEntity
  8
1-5
  6
Continuous
 62
     7
370
     9
100
AcDbLine
 10
-511.7315343908362
 20
1240.958169473184
 30
0.0
 11
-451.7313364389778
 21
1240.958169473184
 31
0.0
  0
LINE
  5
54
330
1F
100
AcDbEntity
  8
1-5
  6
Continuous
 62
     7
370
     9
100
AcDbLine
 10
-492.4129176784206
 20
1246.134610562711
 30
0.0
 11
-511.7315343908362
 21
1240.958169473184
 31
0.0
  0
LINE
  5
55
330
1F
100
AcDbEntity
  8
1-5
  6
Continuous
 62
     7
370
     9
100
AcDbLine
 10
-511.7315343908362
 20
1008.732431772593
 30
0.0
 11
-511.7315343908362
 21
1250.958697344806
 31
0.0
  0
LINE
  5
56
330
1F
100
AcDbEntity
  8
1-9
  6
JWW_CENTER2
 62
     3
370
     9
100
AcDbLine
 10
-1384.294911977407
 20
-22.18154494826848
 30
0.0
 11
-1384.294911977407
 21
-1.751428552576044
 31
0.0
  0
LINE
  5
57
330
1F
100
AcDbEntity
  8
1-9
  6
Continuous
 62
     3
370
     9
100
AcDbLine
 10
-1394.294944969383
 20
-31.26753523543073
 30
0.0
 11
-1398.894851272171
 21
-31.26753523543073
 31
0.0
  0
LINE
  5
58
330
1F
100
AcDbEntity
  8
1-9
  6
Continuous
 62
     3
370
     9
100
AcDbLine
 10
-1394.294944969383
 20
-11.26746925147785
 30
0.0
 11
-1394.294944969383
 21
-71.2676672033362
 31
0.0
  0
LINE
  5
59
330
1F
100
AcDbEntity
  8
1-9
  6
Continuous
 62
     3
370
     9
100
AcDbLine
 10
-1394.294944969383
 20
-71.2676672033362
 30
0.0
 11
-1418.294875686233
 21
-71.2676672033362
 31
0.0
  0
LINE
  5
5A
330
1F
100
AcDbEntity
  8
1-9
  6
Continuous
 62
     3
370
     9
100
AcDbLine
 10
-1744.295109929265
 20
303.3324700432857
 30
0.0
 11
-1684.294911977407
 21
303.3324700432857
 31
0.0
  0
LINE
  5
5B
330
1F
100
AcDbEntity
  8
1-9
  6
JWW_CENTER2
 62
     3
370
     9
100
AcDbLine
 10
-1705.578200881546
 20
288.7325307485222
 30
0.0
 11
-1672.961673221073
 21
288.7325307485222
 31
0.0
  0
LINE
  5
5C
330
1F
100
AcDbEntity
  8
1-9
  6
Continuous
 62
     3
370
     9
100
AcDbLine
 10
-1694.294944969383
 20
322.7327418971706
 30
0.0
 11
-1694.294944969383
 21
303.3324700432857
 31
0.0
  0
LINE
  5
5D
330
1F
100
AcDbEntity
  8
1-9
  6
Continuous
 62
     3
370
     9
100
AcDbLine
 10
-1738.294941670186
 20
328.7326627164273
 30
0.0
 11
-1700.29486578864
 21
328.7326627164273
 31
0.0
  0
LINE
  5
5E
330
1F
100
AcDbEntity
  8
1-9
  6
Continuous
 62
     3
370
     9
100
AcDbLine
 10
-1704.29497796136
 20
898.7320688608531
 30
0.0
 11
-1704.29497796136
 21
903.3324700432856
 31
0.0
  0
LINE
  5
5F
330
1F
100
AcDbEntity
  8
1-9
  6
JWW_CENTER2
 62
     3
370
     9
100
AcDbLine
 10
-1704.740617081925
 20
888.7325307485221
 30
0.0
 11
-1676.419397302576
 21
888.7325307485221
 31
0.0
  0
LINE
  5
60
330
1F
100
AcDbEntity
  8
1-9
  6
Continuous
 62
     3
370
     9
100
AcDbLine
 10
-1684.294911977407
 20
898.7320688608531
 30
0.0
 11
-1744.295109929265
 21
898.7320688608531
 31
0.0
  0
LINE
  5
61
330
1F
100
AcDbEntity
  8
1-9
  6
Continuous
 62
     3
370
     9
100
AcDbLine
 10
-1744.295109929265
 20
898.7320688608531
 30
0.0
 11
-1744.295109929265
 21
922.7322470175255
 31
0.0
  0
LINE
  5
62
330
1F
100
AcDbEntity
  8
1-9
  6
Continuous
 62
     3
370
     9
100
AcDbLine
 10
-1369.694972682644
 20
1248.73272870038
 30
0.0
 11
-1369.694972682644
 21
1188.732530748522
 31
0.0
  0
LINE
  5
63
330
1F
100
AcDbEntity
  8
1-9
  6
JWW_CENTER2
 62
     3
370
     9
100
AcDbLine
 10
-1384.294911977407
 20
1204.946767446157
 30
0.0
 11
-1384.294911977407
 21
1180.839695286107
 31
0.0
  0
LINE
  5
64
330
1F
100
AcDbEntity
  8
1-9
  6
Continuous
 62
     3
370
     9
100
AcDbLine
 10
-1350.294948268581
 20
1198.732068860853
 30
0.0
 11
-1369.694972682644
 21
1198.732068860853
 31
0.0
  0
LINE
  5
65
330
1F
100
AcDbEntity
  8
1-9
  6
Continuous
 62
     3
370
     9
100
AcDbLine
 10
-274.2949614653716
 20
1208.732596732475
 30
0.0
 11
-269.6950551625844
 21
1208.732596732475
 31
0.0
  0
LINE
  5
66
330
1F
100
AcDbEntity
  8
1-9
  6
Continuous
 62
     3
370
     9
100
AcDbLine
 10
-274.2949614653716
 20
1188.732530748522
 30
0.0
 11
-274.2949614653716
 21
1248.73272870038
 31
0.0
  0
LINE
  5
67
330
1F
100
AcDbEntity
  8
1-9
  6
JWW_CENTER2
 62
     3
370
     9
100
AcDbLine
 10
-284.2949944573479
 20
1212.241788297086
 30
0.0
 11
-284.2949944573479
 21
1177.872396933066
 31
0.0
  0
LINE
  5
68
330
1F
100
AcDbEntity
  8
1-9
  6
Continuous
 62
     3
370
     9
100
AcDbLine
 10
-274.2949614653716
 20
1248.73272870038
 30
0.0
 11
-250.2950307485219
 21
1248.73272870038
 31
0.0
  0
LINE
  5
69
330
1F
100
AcDbEntity
  8
1-9
  6
Continuous
 62
     3
370
     9
100
AcDbLine
 10
75.70520349451016
 20
874.1325914537586
 30
0.0
 11
15.70451066300677
 21
874.1325914537586
 31
0.0
  0
LINE
  5
6A
330
1F
100
AcDbEntity
  8
1-9
  6
Continuous
 62
     3
370
     9
100
AcDbLine
 10
25.70503853462839
 20
854.7323195998734
 30
0.0
 11
25.70503853462839
 21
874.1325914537586
 31
0.0
  0
LINE
  5
6B
330
1F
100
AcDbEntity
  8
1-1
  6
Continuous
 62
     2
370
     9
100
AcDbLine
 10
-1668.294958166174
 20
560.2314222181167
 30
0.0
 11
-1668.294958166174
 21
1172.732082057644
 31
0.0
  0
LINE
  5
6C
330
1F
100
AcDbEntity
  8
1-1
  6
Continuous
 62
     2
370
     9
100
AcDbLine
 10
-1684.294911977407
 20
559.2995638460727
 30
0.0
 11
-1684.294911977407
 21
1188.732530748522
 31
0.0
  0
LINE
  5
6D
330
1F
100
AcDbEntity
  8
1-1
  6
Continuous
 62
     2
370
     9
100
AcDbLine
 10
-0.2951957084036394
 20
641.329329207137
 30
0.0
 11
-0.2951957084036394
 21
4.732484559755221
 31
0.0
  0
LINE
  5
6E
330
1F
100
AcDbEntity
  8
1-1
  6
Continuous
 62
     2
370
     9
100
AcDbLine
 10
15.70451066300677
 20
642.2611875791807
 30
0.0
 11
15.70451066300677
 21
-11.26746925147785
 31
0.0
  0
LINE
  5
6F
330
1F
100
AcDbEntity
  8
1-9
  6
Continuous
 62
     3
370
     9
100
AcDbLine
 10
69.70528267525339
 20
848.7323987806167
 30
0.0
 11
31.70495935388516
 21
848.7323987806167
 31
0.0
  0
LINE
  5
70
330
1F
100
AcDbEntity
  8
1-9
  6
Continuous
 62
     3
370
     9
100
AcDbLine
 10
75.70520349451016
 20
878.7320028769005
 30
0.0
 11
75.70520349451016
 21
854.7323195998734
 31
0.0
  0
LINE
  5
71
330
1F
100
AcDbEntity
  8
1-9
  6
JWW_CENTER2
 62
     3
370
     9
100
AcDbLine
 10
32.38022262985652
 20
888.7325307485221
 30
0.0
 11
6.494305584881772
 21
888.7325307485221
 31
0.0
  0
LINE
  5
72
330
1F
100
AcDbEntity
  8
1-1
  6
JWW_CENTER2
 62
     2
370
     9
100
AcDbLine
 10
-1721.31537360114
 20
557.1443629909209
 30
0.0
 11
-1526.794021194046
 21
568.4706734322214
 31
0.0
  0
LINE
  5
73
330
1F
100
AcDbEntity
  8
1-1
  6
JWW_CENTER2
 62
     2
370
     9
100
AcDbLine
 10
-1720.385494747677
 20
541.170637800887
 30
0.0
 11
-1525.863647460938
 21
552.4979380014781
 31
0.0
  0
LINE
  5
74
330
1F
100
AcDbEntity
  8
1-9
  6
Continuous
 62
     3
370
     9
100
AcDbLine
 10
15.70451066300677
 20
878.7320028769005
 30
0.0
 11
75.70520349451016
 21
878.7320028769005
 31
0.0
  0
LINE
  5
75
330
1F
100
AcDbEntity
  8
1-9
  6
Continuous
 62
     3
370
     9
100
AcDbLine
 10
35.70482408678231
 20
878.7320028769005
 30
0.0
 11
35.70482408678231
 21
874.1325914537586
 31
0.0
  0
LINE
  5
76
330
1F
100
AcDbEntity
  8
1-1
  6
JWW_CENTER2
 62
     2
370
     9
100
AcDbLine
 10
-144.8386527396536
 20
632.9134059596709
 30
0.0
 11
46.16113611169766
 21
644.0348362278294
 31
0.0
  0
LINE
  5
77
330
1F
100
AcDbEntity
  8
1-1
  6
JWW_CENTER2
 62
     2
370
     9
100
AcDbLine
 10
-145.7686553130279
 20
648.8861413904141
 30
0.0
 11
45.2312572582349
 21
660.0075716585727
 31
0.0
  0
LINE
  5
78
330
1F
100
AcDbEntity
  8
1-9
  6
Continuous
 62
     3
370
     9
100
AcDbLine
 10
35.70482408678231
 20
278.7324977565456
 30
0.0
 11
35.70482408678231
 21
274.1325914537586
 31
0.0
  0
LINE
  5
79
330
1F
100
AcDbEntity
  8
1-9
  6
JWW_CENTER2
 62
     3
370
     9
100
AcDbLine
 10
32.3272705078125
 20
288.7325307485222
 30
0.0
 11
2.737921637457816
 21
288.7325307485222
 31
0.0
  0
LINE
  5
7A
330
1F
100
AcDbEntity
  8
1-9
  6
Continuous
 62
     3
370
     9
100
AcDbLine
 10
15.70451066300677
 20
278.7324977565456
 30
0.0
 11
75.70520349451016
 21
278.7324977565456
 31
0.0
  0
LINE
  5
7B
330
1F
100
AcDbEntity
  8
1-9
  6
Continuous
 62
     3
370
     9
100
AcDbLine
 10
75.70520349451016
 20
278.7324977565456
 30
0.0
 11
75.70520349451016
 21
254.7323195998734
 31
0.0
  0
LINE
  5
7C
330
1F
100
AcDbEntity
  8
1-9
  6
Continuous
 62
     3
370
     9
100
AcDbLine
 10
69.70528267525339
 20
248.7323987806167
 30
0.0
 11
31.70495935388516
 21
248.7323987806167
 31
0.0
  0
LINE
  5
7D
330
1F
100
AcDbEntity
  8
1-9
  6
Continuous
 62
     3
370
     9
100
AcDbLine
 10
25.70503853462839
 20
254.7323195998734
 30
0.0
 11
25.70503853462839
 21
274.1325914537586
 31
0.0
  0
LINE
  5
7E
330
1F
100
AcDbEntity
  8
1-9
  6
Continuous
 62
     3
370
     9
100
AcDbLine
 10
75.70520349451016
 20
274.1325914537586
 30
0.0
 11
15.70451066300677
 21
274.1325914537586
 31
0.0
  0
LINE
  5
7F
330
1F
100
AcDbEntity
  8
1-9
  6
JWW_CENTER2
 62
     3
370
     9
100
AcDbLine
 10
-284.2949944573479
 20
-26.35338035789687
 30
0.0
 11
-284.2949944573479
 21
-1.697981550886709
 31
0.0
  0
LINE
  5
80
330
1F
100
AcDbEntity
  8
1-9
  6
Continuous
 62
     3
370
     9
100
AcDbLine
 10
-1424.295043945312
 20
-65.26725150443411
 30
0.0
 11
-1424.295043945312
 21
-27.2674230627112
 31
0.0
  0
LINE
  5
81
330
1F
100
AcDbEntity
  8
1-1
  6
Continuous
 62
     2
370
     9
100
AcDbLine
 10
15.70451066300677
 20
1188.732530748522
 30
0.0
 11
-0.2951957084036394
 21
1172.732082057644
 31
0.0
  0
LINE
  5
82
330
1F
100
AcDbEntity
  8
1-1
  6
Continuous
 62
     2
370
     9
100
AcDbLine
 10
-0.2951957084036394
 20
4.732484559755221
 30
0.0
 11
15.70451066300677
 21
-11.26746925147785
 31
0.0
  0
LINE
  5
83
330
1F
100
AcDbEntity
  8
1-1
  6
Continuous
 62
     2
370
     9
100
AcDbLine
 10
-1684.294911977407
 20
-11.26746925147785
 30
0.0
 11
-1668.294958166174
 21
4.732484559755221
 31
0.0
  0
LINE
  5
84
330
1F
100
AcDbEntity
  8
1-1
  6
Continuous
 62
     2
370
     9
100
AcDbLine
 10
-1684.294911977407
 20
1188.732530748522
 30
0.0
 11
-1668.294958166174
 21
1172.732082057644
 31
0.0
  0
LINE
  5
85
330
1F
100
AcDbEntity
  8
1-1
  6
Continuous
 62
     2
370
     9
100
AcDbLine
 10
-0.2951957084036394
 20
1172.732082057644
 30
0.0
 11
-0.2951957084036394
 21
657.3565013988599
 31
0.0
  0
LINE
  5
86
330
1F
100
AcDbEntity
  8
1-1
  6
Continuous
 62
     2
370
     9
100
AcDbLine
 10
-1668.294958166174
 20
4.732484559755221
 30
0.0
 11
-1668.294958166174
 21
544.2042500263938
 31
0.0
  0
LINE
  5
87
330
1F
100
AcDbEntity
  8
1-1
  6
Continuous
 62
     2
370
     9
100
AcDbLine
 10
-1684.294911977407
 20
-11.26746925147785
 30
0.0
 11
-1684.294911977407
 21
543.2723916543498
 31
0.0
  0
LINE
  5
88
330
1F
100
AcDbEntity
  8
1-1
  6
Continuous
 62
     2
370
     9
100
AcDbLine
 10
15.70451066300677
 20
1188.732530748522
 30
0.0
 11
15.70451066300677
 21
658.288359770904
 31
0.0
  0
LINE
  5
89
330
1F
100
AcDbEntity
  8
D-2
  6
Continuous
 62
     3
370
     9
100
AcDbLine
 10
1381.428816511825
 20
1041.62163811761
 30
0.0
 11
1381.428816511825
 21
1026.621836069468
 31
0.0
  0
LINE
  5
8A
330
1F
100
AcDbEntity
  8
D-2
  6
Continuous
 62
     3
370
     9
100
AcDbLine
 10
1381.428816511825
 20
1026.621836069468
 30
0.0
 11
754.594710066512
 21
1026.621836069468
 31
0.0
  0
LINE
  5
8B
330
1F
100
AcDbEntity
  8
D-2
  6
Continuous
 62
     3
370
     9
100
AcDbLine
 10
1381.428816511825
 20
578.7458595069679
 30
0.0
 11
1375.450917836782
 21
571.6215721336573
 31
0.0
  0
LINE
  5
8C
330
1F
100
AcDbEntity
  8
D-2
  6
Continuous
 62
     3
370
     9
100
AcDbLine
 10
1381.428816511825
 20
589.4981095597552
 30
0.0
 11
1371.255328204181
 21
601.6221659892315
 31
0.0
  0
LINE
  5
8D
330
1F
100
AcDbEntity
  8
D-2
  6
Continuous
 62
     3
370
     9
100
AcDbLine
 10
1381.428816511825
 20
575.1970775707349
 30
0.0
 11
1359.255486565667
 21
601.6221659892315
 31
0.0
  0
LINE
  5
8E
330
1F
100
AcDbEntity
  8
D-2
  6
Continuous
 62
     3
370
     9
100
AcDbLine
 10
1381.428816511825
 20
593.0468914959883
 30
0.0
 11
1363.451076198269
 21
571.6215721336573
 31
0.0
  0
LINE
  5
8F
330
1F
100
AcDbEntity
  8
D-2
  6
Continuous
 62
     3
370
     9
100
AcDbLine
 10
1144.428479993666
 20
571.6215721336573
 30
0.0
 11
1138.939769847973
 21
578.1628912848396
 31
0.0
  0
LINE
  5
90
330
1F
100
AcDbEntity
  8
D-2
  6
Continuous
 62
     3
370
     9
100
AcDbLine
 10
1154.428512985642
 20
571.6215721336573
 30
0.0
 11
1143.939786343961
 21
584.1217370935391
 31
0.0
  0
LINE
  5
91
330
1F
100
AcDbEntity
  8
D-2
  6
Continuous
 62
     3
370
     9
100
AcDbLine
 10
1164.428545977618
 20
571.6215721336573
 30
0.0
 11
1148.93980283995
 21
590.0805829022383
 31
0.0
  0
LINE
  5
92
330
1F
100
AcDbEntity
  8
D-2
  6
Continuous
 62
     3
370
     9
100
AcDbLine
 10
1174.428578969595
 20
571.6215721336573
 30
0.0
 11
1153.939819335938
 21
596.0394287109375
 31
0.0
  0
LINE
  5
93
330
1F
100
AcDbEntity
  8
D-2
  6
Continuous
 62
     3
370
     9
100
AcDbLine
 10
1184.428611961571
 20
571.6215721336573
 30
0.0
 11
1159.255321605785
 21
601.6221659892315
 31
0.0
  0
LINE
  5
94
330
1F
100
AcDbEntity
  8
D-2
  6
Continuous
 62
     3
370
     9
100
AcDbLine
 10
1194.428644953548
 20
571.6215721336573
 30
0.0
 11
1169.255354597762
 21
601.6221659892315
 31
0.0
  0
LINE
  5
95
330
1F
100
AcDbEntity
  8
D-2
  6
Continuous
 62
     3
370
     9
100
AcDbLine
 10
1204.428677945524
 20
571.6215721336573
 30
0.0
 11
1179.255140149916
 21
601.6221659892315
 31
0.0
  0
LINE
  5
96
330
1F
100
AcDbEntity
  8
D-2
  6
Continuous
 62
     3
370
     9
100
AcDbLine
 10
1214.4287109375
 20
571.6215721336573
 30
0.0
 11
1189.255668021538
 21
601.6221659892315
 31
0.0
  0
LINE
  5
97
330
1F
100
AcDbEntity
  8
D-2
  6
Continuous
 62
     3
370
     9
100
AcDbLine
 10
1224.428496489654
 20
571.6215721336573
 30
0.0
 11
1199.255453573691
 21
601.6221659892315
 31
0.0
  0
LINE
  5
98
330
1F
100
AcDbEntity
  8
D-2
  6
Continuous
 62
     3
370
     9
100
AcDbLine
 10
1234.42852948163
 20
571.6215721336573
 30
0.0
 11
1209.255486565667
 21
601.6221659892315
 31
0.0
  0
LINE
  5
99
330
1F
100
AcDbEntity
  8
D-2
  6
Continuous
 62
     3
370
     9
100
AcDbLine
 10
1244.428562473607
 20
571.6215721336573
 30
0.0
 11
1219.255519557644
 21
601.6221659892315
 31
0.0
  0
LINE
  5
9A
330
1F
100
AcDbEntity
  8
D-2
  6
Continuous
 62
     3
370
     9
100
AcDbLine
 10
1254.428595465583
 20
571.6215721336573
 30
0.0
 11
1229.25555254962
 21
601.6221659892315
 31
0.0
  0
LINE
  5
9B
330
1F
100
AcDbEntity
  8
D-2
  6
Continuous
 62
     3
370
     9
100
AcDbLine
 10
1264.428628457559
 20
571.6215721336573
 30
0.0
 11
1239.255338101774
 21
601.6221659892315
 31
0.0
  0
LINE
  5
9C
330
1F
100
AcDbEntity
  8
D-2
  6
Continuous
 62
     3
370
     9
100
AcDbLine
 10
1274.428414009713
 20
571.6215721336573
 30
0.0
 11
1249.25537109375
 21
601.6221659892315
 31
0.0
  0
LINE
  5
9D
330
1F
100
AcDbEntity
  8
D-2
  6
Continuous
 62
     3
370
     9
100
AcDbLine
 10
1284.428694441512
 20
571.6215721336573
 30
0.0
 11
1259.255651525549
 21
601.6221659892315
 31
0.0
  0
LINE
  5
9E
330
1F
100
AcDbEntity
  8
D-2
  6
Continuous
 62
     3
370
     9
100
AcDbLine
 10
1294.428479993666
 20
571.6215721336573
 30
0.0
 11
1269.255684517525
 21
601.6221659892315
 31
0.0
  0
LINE
  5
9F
330
1F
100
AcDbEntity
  8
D-2
  6
Continuous
 62
     3
370
     9
100
AcDbLine
 10
1304.428512985642
 20
571.6215721336573
 30
0.0
 11
1279.255470069679
 21
601.6221659892315
 31
0.0
  0
LINE
  5
A0
330
1F
100
AcDbEntity
  8
D-2
  6
Continuous
 62
     3
370
     9
100
AcDbLine
 10
1314.428545977618
 20
571.6215721336573
 30
0.0
 11
1289.255503061656
 21
601.6221659892315
 31
0.0
  0
LINE
  5
A1
330
1F
100
AcDbEntity
  8
D-2
  6
Continuous
 62
     3
370
     9
100
AcDbLine
 10
1324.428578969595
 20
571.6215721336573
 30
0.0
 11
1299.255536053632
 21
601.6221659892315
 31
0.0
  0
LINE
  5
A2
330
1F
100
AcDbEntity
  8
D-2
  6
Continuous
 62
     3
370
     9
100
AcDbLine
 10
1334.428611961571
 20
571.6215721336573
 30
0.0
 11
1309.255321605785
 21
601.6221659892315
 31
0.0
  0
LINE
  5
A3
330
1F
100
AcDbEntity
  8
D-2
  6
Continuous
 62
     3
370
     9
100
AcDbLine
 10
1344.428397513725
 20
571.6215721336573
 30
0.0
 11
1319.255354597762
 21
601.6221659892315
 31
0.0
  0
LINE
  5
A4
330
1F
100
AcDbEntity
  8
D-2
  6
Continuous
 62
     3
370
     9
100
AcDbLine
 10
1354.428677945524
 20
571.6215721336573
 30
0.0
 11
1329.255140149916
 21
601.6221659892315
 31
0.0
  0
LINE
  5
A5
330
1F
100
AcDbEntity
  8
D-2
  6
Continuous
 62
     3
370
     9
100
AcDbLine
 10
1364.4287109375
 20
571.6215721336573
 30
0.0
 11
1339.255668021538
 21
601.6221659892315
 31
0.0
  0
LINE
  5
A6
330
1F
100
AcDbEntity
  8
D-2
  6
Continuous
 62
     3
370
     9
100
AcDbLine
 10
1374.428496489654
 20
571.6215721336573
 30
0.0
 11
1349.255453573691
 21
601.6221659892315
 31
0.0
  0
LINE
  5
A7
330
1F
100
AcDbEntity
  8
D-2
  6
Continuous
 62
     3
370
     9
100
AcDbLine
 10
1381.428816511825
 20
961.6218690614443
 30
0.0
 11
754.594710066512
 21
961.6218690614443
 31
0.0
  0
LINE
  5
A8
330
1F
100
AcDbEntity
  8
D-2
  6
Continuous
 62
     3
370
     9
100
AcDbLine
 10
1158.624102618243
 20
601.6221659892315
 30
0.0
 11
1133.451059702281
 21
571.6215721336573
 31
0.0
  0
LINE
  5
A9
330
1F
100
AcDbEntity
  8
D-2
  6
Continuous
 62
     3
370
     9
100
AcDbLine
 10
1168.62413561022
 20
601.6221659892315
 30
0.0
 11
1143.451092694257
 21
571.6215721336573
 31
0.0
  0
LINE
  5
AA
330
1F
100
AcDbEntity
  8
D-2
  6
Continuous
 62
     3
370
     9
100
AcDbLine
 10
1178.624168602196
 20
601.6221659892315
 30
0.0
 11
1153.45087824641
 21
571.6215721336573
 31
0.0
  0
LINE
  5
AB
330
1F
100
AcDbEntity
  8
D-2
  6
Continuous
 62
     3
370
     9
100
AcDbLine
 10
1188.624201594173
 20
601.6221659892315
 30
0.0
 11
1163.450911238387
 21
571.6215721336573
 31
0.0
  0
LINE
  5
AC
330
1F
100
AcDbEntity
  8
D-2
  6
Continuous
 62
     3
370
     9
100
AcDbLine
 10
1198.624234586149
 20
601.6221659892315
 30
0.0
 11
1173.450696790541
 21
571.6215721336573
 31
0.0
  0
LINE
  5
AD
330
1F
100
AcDbEntity
  8
D-2
  6
Continuous
 62
     3
370
     9
100
AcDbLine
 10
1208.624267578125
 20
601.6221659892315
 30
0.0
 11
1183.451224662163
 21
571.6215721336573
 31
0.0
  0
LINE
  5
AE
330
1F
100
AcDbEntity
  8
D-2
  6
Continuous
 62
     3
370
     9
100
AcDbLine
 10
1218.624053130279
 20
601.6221659892315
 30
0.0
 11
1193.451010214316
 21
571.6215721336573
 31
0.0
  0
LINE
  5
AF
330
1F
100
AcDbEntity
  8
D-2
  6
Continuous
 62
     3
370
     9
100
AcDbLine
 10
1228.624086122255
 20
601.6221659892315
 30
0.0
 11
1203.451043206292
 21
571.6215721336573
 31
0.0
  0
LINE
  5
B0
330
1F
100
AcDbEntity
  8
D-2
  6
Continuous
 62
     3
370
     9
100
AcDbLine
 10
1238.624119114232
 20
601.6221659892315
 30
0.0
 11
1213.451076198269
 21
571.6215721336573
 31
0.0
  0
LINE
  5
B1
330
1F
100
AcDbEntity
  8
D-2
  6
Continuous
 62
     3
370
     9
100
AcDbLine
 10
1248.624152106208
 20
601.6221659892315
 30
0.0
 11
1223.451109190245
 21
571.6215721336573
 31
0.0
  0
LINE
  5
B2
330
1F
100
AcDbEntity
  8
D-2
  6
Continuous
 62
     3
370
     9
100
AcDbLine
 10
1258.624185098184
 20
601.6221659892315
 30
0.0
 11
1233.450894742399
 21
571.6215721336573
 31
0.0
  0
LINE
  5
B3
330
1F
100
AcDbEntity
  8
D-2
  6
Continuous
 62
     3
370
     9
100
AcDbLine
 10
1268.623970650338
 20
601.6221659892315
 30
0.0
 11
1243.450927734375
 21
571.6215721336573
 31
0.0
  0
LINE
  5
B4
330
1F
100
AcDbEntity
  8
D-2
  6
Continuous
 62
     3
370
     9
100
AcDbLine
 10
1278.624251082137
 20
601.6221659892315
 30
0.0
 11
1253.451208166174
 21
571.6215721336573
 31
0.0
  0
LINE
  5
B5
330
1F
100
AcDbEntity
  8
D-2
  6
Continuous
 62
     3
370
     9
100
AcDbLine
 10
1288.624036634291
 20
601.6221659892315
 30
0.0
 11
1263.45124115815
 21
571.6215721336573
 31
0.0
  0
LINE
  5
B6
330
1F
100
AcDbEntity
  8
D-2
  6
Continuous
 62
     3
370
     9
100
AcDbLine
 10
1298.624069626267
 20
601.6221659892315
 30
0.0
 11
1273.451026710304
 21
571.6215721336573
 31
0.0
  0
LINE
  5
B7
330
1F
100
AcDbEntity
  8
D-2
  6
Continuous
 62
     3
370
     9
100
AcDbLine
 10
1308.624102618243
 20
601.6221659892315
 30
0.0
 11
1283.451059702281
 21
571.6215721336573
 31
0.0
  0
LINE
  5
B8
330
1F
100
AcDbEntity
  8
D-2
  6
Continuous
 62
     3
370
     9
100
AcDbLine
 10
1318.62413561022
 20
601.6221659892315
 30
0.0
 11
1293.451092694257
 21
571.6215721336573
 31
0.0
  0
LINE
  5
B9
330
1F
100
AcDbEntity
  8
D-2
  6
Continuous
 62
     3
370
     9
100
AcDbLine
 10
1328.624168602196
 20
601.6221659892315
 30
0.0
 11
1303.45087824641
 21
571.6215721336573
 31
0.0
  0
LINE
  5
BA
330
1F
100
AcDbEntity
  8
D-2
  6
Continuous
 62
     3
370
     9
100
AcDbLine
 10
1338.62395415435
 20
601.6221659892315
 30
0.0
 11
1313.450911238387
 21
571.6215721336573
 31
0.0
  0
LINE
  5
BB
330
1F
100
AcDbEntity
  8
D-2
  6
Continuous
 62
     3
370
     9
100
AcDbLine
 10
1348.624234586149
 20
601.6221659892315
 30
0.0
 11
1323.450696790541
 21
571.6215721336573
 31
0.0
  0
LINE
  5
BC
330
1F
100
AcDbEntity
  8
D-2
  6
Continuous
 62
     3
370
     9
100
AcDbLine
 10
1358.624267578125
 20
601.6221659892315
 30
0.0
 11
1333.451224662163
 21
571.6215721336573
 31
0.0
  0
LINE
  5
BD
330
1F
100
AcDbEntity
  8
D-2
  6
Continuous
 62
     3
370
     9
100
AcDbLine
 10
1368.624053130279
 20
601.6221659892315
 30
0.0
 11
1343.451010214316
 21
571.6215721336573
 31
0.0
  0
LINE
  5
BE
330
1F
100
AcDbEntity
  8
D-2
  6
Continuous
 62
     3
370
     9
100
AcDbLine
 10
1378.624086122255
 20
601.6221659892315
 30
0.0
 11
1353.451043206292
 21
571.6215721336573
 31
0.0
  0
LINE
  5
BF
330
1F
100
AcDbEntity
  8
D-2
  6
Continuous
 62
     3
370
     9
100
AcDbLine
 10
1381.428816511825
 20
528.0464296083193
 30
0.0
 11
1363.451076198269
 21
506.6221000052789
 31
0.0
  0
LINE
  5
C0
330
1F
100
AcDbEntity
  8
D-2
  6
Continuous
 62
     3
370
     9
100
AcDbLine
 10
1381.428816511825
 20
510.1971105627112
 30
0.0
 11
1359.255486565667
 21
536.6217041015625
 31
0.0
  0
LINE
  5
C1
330
1F
100
AcDbEntity
  8
D-2
  6
Continuous
 62
     3
370
     9
100
AcDbLine
 10
1381.428816511825
 20
524.4981425517315
 30
0.0
 11
1371.255328204181
 21
536.6217041015625
 31
0.0
  0
LINE
  5
C2
330
1F
100
AcDbEntity
  8
D-2
  6
Continuous
 62
     3
370
     9
100
AcDbLine
 10
1381.428816511825
 20
513.745397619299
 30
0.0
 11
1375.450917836782
 21
506.6221000052789
 31
0.0
  0
LINE
  5
C3
330
1F
100
AcDbEntity
  8
D-2
  6
Continuous
 62
     3
370
     9
100
AcDbLine
 10
1378.624086122255
 20
536.6217041015625
 30
0.0
 11
1353.451043206292
 21
506.6221000052789
 31
0.0
  0
LINE
  5
C4
330
1F
100
AcDbEntity
  8
D-2
  6
Continuous
 62
     3
370
     9
100
AcDbLine
 10
1368.624053130279
 20
536.6217041015625
 30
0.0
 11
1343.451010214316
 21
506.6221000052789
 31
0.0
  0
LINE
  5
C5
330
1F
100
AcDbEntity
  8
D-2
  6
Continuous
 62
     3
370
     9
100
AcDbLine
 10
1358.624267578125
 20
536.6217041015625
 30
0.0
 11
1333.451224662163
 21
506.6221000052789
 31
0.0
  0
LINE
  5
C6
330
1F
100
AcDbEntity
  8
D-2
  6
Continuous
 62
     3
370
     9
100
AcDbLine
 10
1348.624234586149
 20
536.6217041015625
 30
0.0
 11
1323.450696790541
 21
506.6221000052789
 31
0.0
  0
LINE
  5
C7
330
1F
100
AcDbEntity
  8
D-0
  6
Continuous
 62
     2
370
     9
100
AcDbLine
 10
729.3098243507183
 20
1041.62163811761
 30
0.0
 11
1455.917358398438
 21
1041.62163811761
 31
0.0
  0
LINE
  5
C8
330
1F
100
AcDbEntity
  8
D-2
  6
Continuous
 62
     3
370
     9
100
AcDbLine
 10
1338.62395415435
 20
536.6217041015625
 30
0.0
 11
1313.450911238387
 21
506.6221000052789
 31
0.0
  0
LINE
  5
C9
330
1F
100
AcDbEntity
  8
D-2
  6
Continuous
 62
     3
370
     9
100
AcDbLine
 10
1328.624168602196
 20
536.6217041015625
 30
0.0
 11
1303.45087824641
 21
506.6221000052789
 31
0.0
  0
LINE
  5
CA
330
1F
100
AcDbEntity
  8
D-2
  6
Continuous
 62
     3
370
     9
100
AcDbLine
 10
1318.62413561022
 20
536.6217041015625
 30
0.0
 11
1293.451092694257
 21
506.6221000052789
 31
0.0
  0
LINE
  5
CB
330
1F
100
AcDbEntity
  8
D-2
  6
Continuous
 62
     3
370
     9
100
AcDbLine
 10
1308.624102618243
 20
536.6217041015625
 30
0.0
 11
1283.451059702281
 21
506.6221000052789
 31
0.0
  0
LINE
  5
CC
330
1F
100
AcDbEntity
  8
D-2
  6
Continuous
 62
     3
370
     9
100
AcDbLine
 10
1298.624069626267
 20
536.6217041015625
 30
0.0
 11
1273.451026710304
 21
506.6221000052789
 31
0.0
  0
LINE
  5
CD
330
1F
100
AcDbEntity
  8
D-2
  6
Continuous
 62
     3
370
     9
100
AcDbLine
 10
1288.624036634291
 20
536.6217041015625
 30
0.0
 11
1263.45124115815
 21
506.6221000052789
 31
0.0
  0
LINE
  5
CE
330
1F
100
AcDbEntity
  8
D-2
  6
Continuous
 62
     3
370
     9
100
AcDbLine
 10
1278.624251082137
 20
536.6217041015625
 30
0.0
 11
1253.451208166174
 21
506.6221000052789
 31
0.0
  0
LINE
  5
CF
330
1F
100
AcDbEntity
  8
D-2
  6
Continuous
 62
     3
370
     9
100
AcDbLine
 10
1268.623970650338
 20
536.6217041015625
 30
0.0
 11
1243.450927734375
 21
506.6221000052789
 31
0.0
  0
LINE
  5
D0
330
1F
100
AcDbEntity
  8
D-2
  6
Continuous
 62
     3
370
     9
100
AcDbLine
 10
1258.624185098184
 20
536.6217041015625
 30
0.0
 11
1233.450894742399
 21
506.6221000052789
 31
0.0
  0
LINE
  5
D1
330
1F
100
AcDbEntity
  8
D-2
  6
Continuous
 62
     3
370
     9
100
AcDbLine
 10
1381.428816511825
 20
448.7454306112755
 30
0.0
 11
1375.450917836782
 21
441.6216381176099
 31
0.0
  0
LINE
  5
D2
330
1F
100
AcDbEntity
  8
D-2
  6
Continuous
 62
     3
370
     9
100
AcDbLine
 10
1248.624152106208
 20
536.6217041015625
 30
0.0
 11
1223.451109190245
 21
506.6221000052789
 31
0.0
  0
LINE
  5
D3
330
1F
100
AcDbEntity
  8
D-2
  6
Continuous
 62
     3
370
     9
100
AcDbLine
 10
1238.624119114232
 20
536.6217041015625
 30
0.0
 11
1213.451076198269
 21
506.6221000052789
 31
0.0
  0
LINE
  5
D4
330
1F
100
AcDbEntity
  8
D-2
  6
Continuous
 62
     3
370
     9
100
AcDbLine
 10
1228.624086122255
 20
536.6217041015625
 30
0.0
 11
1203.451043206292
 21
506.6221000052789
 31
0.0
  0
LINE
  5
D5
330
1F
100
AcDbEntity
  8
D-2
  6
Continuous
 62
     3
370
     9
100
AcDbLine
 10
1381.428816511825
 20
459.4981755437078
 30
0.0
 11
1371.255328204181
 21
471.6217370935391
 31
0.0
  0
LINE
  5
D6
330
1F
100
AcDbEntity
  8
D-2
  6
Continuous
 62
     3
370
     9
100
AcDbLine
 10
1218.624053130279
 20
536.6217041015625
 30
0.0
 11
1193.451010214316
 21
506.6221000052789
 31
0.0
  0
LINE
  5
D7
330
1F
100
AcDbEntity
  8
D-2
  6
Continuous
 62
     3
370
     9
100
AcDbLine
 10
1208.624267578125
 20
536.6217041015625
 30
0.0
 11
1183.451224662163
 21
506.6221000052789
 31
0.0
  0
LINE
  5
D8
330
1F
100
AcDbEntity
  8
1-9
  6
Continuous
 62
     3
370
     9
100
AcDbLine
 10
-298.8946863122888
 20
-71.2676672033362
 30
0.0
 11
-298.8946863122888
 21
-11.26746925147785
 31
0.0
  0
LINE
  5
D9
330
1F
100
AcDbEntity
  8
1-9
  6
Continuous
 62
     3
370
     9
100
AcDbLine
 10
-318.294958166174
 20
-21.26700736380911
 30
0.0
 11
-298.8946863122888
 21
-21.26700736380911
 31
0.0
  0
LINE
  5
DA
330
1F
100
AcDbEntity
  8
1-9
  6
Continuous
 62
     3
370
     9
100
AcDbLine
 10
-324.2948789854307
 20
-65.26725150443411
 30
0.0
 11
-324.2948789854307
 21
-27.2674230627112
 31
0.0
  0
LINE
  5
DB
330
1F
100
AcDbEntity
  8
1-9
  6
Continuous
 62
     3
370
     9
100
AcDbLine
 10
-294.2947800095016
 20
-71.2676672033362
 30
0.0
 11
-318.294958166174
 21
-71.2676672033362
 31
0.0
  0
LINE
  5
DC
330
1F
100
AcDbEntity
  8
1-9
  6
Continuous
 62
     3
370
     9
100
AcDbLine
 10
-294.2947800095016
 20
-11.26746925147785
 30
0.0
 11
-294.2947800095016
 21
-71.2676672033362
 31
0.0
  0
LINE
  5
DD
330
1F
100
AcDbEntity
  8
D-2
  6
Continuous
 62
     3
370
     9
100
AcDbLine
 10
1198.624234586149
 20
536.6217041015625
 30
0.0
 11
1173.450696790541
 21
506.6221000052789
 31
0.0
  0
LINE
  5
DE
330
1F
100
AcDbEntity
  8
D-2
  6
Continuous
 62
     3
370
     9
100
AcDbLine
 10
1188.624201594173
 20
536.6217041015625
 30
0.0
 11
1163.450911238387
 21
506.6221000052789
 31
0.0
  0
LINE
  5
DF
330
1F
100
AcDbEntity
  8
D-2
  6
Continuous
 62
     3
370
     9
100
AcDbLine
 10
1178.624168602196
 20
536.6217041015625
 30
0.0
 11
1153.45087824641
 21
506.6221000052789
 31
0.0
  0
LINE
  5
E0
330
1F
100
AcDbEntity
  8
D-2
  6
Continuous
 62
     3
370
     9
100
AcDbLine
 10
1168.62413561022
 20
536.6217041015625
 30
0.0
 11
1143.451092694257
 21
506.6221000052789
 31
0.0
  0
LINE
  5
E1
330
1F
100
AcDbEntity
  8
D-2
  6
Continuous
 62
     3
370
     9
100
AcDbLine
 10
1158.624102618243
 20
536.6217041015625
 30
0.0
 11
1133.451059702281
 21
506.6221000052789
 31
0.0
  0
LINE
  5
E2
330
1F
100
AcDbEntity
  8
1-9
  6
Continuous
 62
     3
370
     9
100
AcDbLine
 10
-294.2947800095016
 20
-31.26753523543073
 30
0.0
 11
-298.8946863122888
 21
-31.26753523543073
 31
0.0
  0
LINE
  5
E3
330
1F
100
AcDbEntity
  8
1-9
  6
Continuous
 62
     3
370
     9
100
AcDbLine
 10
-1418.294875686233
 20
-21.26700736380911
 30
0.0
 11
-1398.894851272171
 21
-21.26700736380911
 31
0.0
  0
LINE
  5
E4
330
1F
100
AcDbEntity
  8
D-2
  6
Continuous
 62
     3
370
     9
100
AcDbLine
 10
1148.624069626267
 20
536.6217041015625
 30
0.0
 11
1123.451026710304
 21
506.6221000052789
 31
0.0
  0
LINE
  5
E5
330
1F
100
AcDbEntity
  8
D-2
  6
Continuous
 62
     3
370
     9
100
AcDbLine
 10
1138.624036634291
 20
536.6217041015625
 30
0.0
 11
1113.450993718328
 21
506.6221000052789
 31
0.0
  0
LINE
  5
E6
330
1F
100
AcDbEntity
  8
D-2
  6
Continuous
 62
     3
370
     9
100
AcDbLine
 10
1128.624251082137
 20
536.6217041015625
 30
0.0
 11
1103.451208166174
 21
506.6221000052789
 31
0.0
  0
LINE
  5
E7
330
1F
100
AcDbEntity
  8
1-9
  6
Continuous
 62
     3
370
     9
100
AcDbLine
 10
-1398.894851272171
 20
-71.2676672033362
 30
0.0
 11
-1398.894851272171
 21
-11.26746925147785
 31
0.0
  0
LINE
  5
E8
330
1F
100
AcDbEntity
  8
D-2
  6
Continuous
 62
     3
370
     9
100
AcDbLine
 10
1118.623970650338
 20
536.6217041015625
 30
0.0
 11
1093.450927734375
 21
506.6221000052789
 31
0.0
  0
LINE
  5
E9
330
1F
100
AcDbEntity
  8
D-2
  6
Continuous
 62
     3
370
     9
100
AcDbLine
 10
1108.624185098184
 20
536.6217041015625
 30
0.0
 11
1083.450894742399
 21
506.6221000052789
 31
0.0
  0
LINE
  5
EA
330
1F
100
AcDbEntity
  8
D-2
  6
Continuous
 62
     3
370
     9
100
AcDbLine
 10
1098.624152106208
 20
536.6217041015625
 30
0.0
 11
1073.451109190245
 21
506.6221000052789
 31
0.0
  0
LINE
  5
EB
330
1F
100
AcDbEntity
  8
D-2
  6
Continuous
 62
     3
370
     9
100
AcDbLine
 10
1088.624119114232
 20
536.6217041015625
 30
0.0
 11
1063.451076198269
 21
506.6221000052789
 31
0.0
  0
LINE
  5
EC
330
1F
100
AcDbEntity
  8
D-2
  6
Continuous
 62
     3
370
     9
100
AcDbLine
 10
1078.624086122255
 20
536.6217041015625
 30
0.0
 11
1053.451043206292
 21
506.6221000052789
 31
0.0
  0
LINE
  5
ED
330
1F
100
AcDbEntity
  8
D-2
  6
Continuous
 62
     3
370
     9
100
AcDbLine
 10
1068.624053130279
 20
536.6217041015625
 30
0.0
 11
1043.451010214316
 21
506.6221000052789
 31
0.0
  0
LINE
  5
EE
330
1F
100
AcDbEntity
  8
D-2
  6
Continuous
 62
     3
370
     9
100
AcDbLine
 10
1374.428496489654
 20
506.6221000052789
 30
0.0
 11
1349.255453573691
 21
536.6217041015625
 31
0.0
  0
LINE
  5
EF
330
1F
100
AcDbEntity
  8
D-2
  6
Continuous
 62
     3
370
     9
100
AcDbLine
 10
1364.4287109375
 20
506.6221000052789
 30
0.0
 11
1339.255668021538
 21
536.6217041015625
 31
0.0
  0
LINE
  5
F0
330
1F
100
AcDbEntity
  8
D-2
  6
Continuous
 62
     3
370
     9
100
AcDbLine
 10
1354.428677945524
 20
506.6221000052789
 30
0.0
 11
1329.255140149916
 21
536.6217041015625
 31
0.0
  0
LINE
  5
F1
330
1F
100
AcDbEntity
  8
D-2
  6
Continuous
 62
     3
370
     9
100
AcDbLine
 10
1344.428397513725
 20
506.6221000052789
 30
0.0
 11
1319.255354597762
 21
536.6217041015625
 31
0.0
  0
LINE
  5
F2
330
1F
100
AcDbEntity
  8
D-2
  6
Continuous
 62
     3
370
     9
100
AcDbLine
 10
1334.428611961571
 20
506.6221000052789
 30
0.0
 11
1309.255321605785
 21
536.6217041015625
 31
0.0
  0
LINE
  5
F3
330
1F
100
AcDbEntity
  8
D-2
  6
Continuous
 62
     3
370
     9
100
AcDbLine
 10
1324.428578969595
 20
506.6221000052789
 30
0.0
 11
1299.255536053632
 21
536.6217041015625
 31
0.0
  0
LINE
  5
F4
330
1F
100
AcDbEntity
  8
D-2
  6
Continuous
 62
     3
370
     9
100
AcDbLine
 10
1314.428545977618
 20
506.6221000052789
 30
0.0
 11
1289.255503061656
 21
536.6217041015625
 31
0.0
  0
LINE
  5
F5
330
1F
100
AcDbEntity
  8
D-2
  6
Continuous
 62
     3
370
     9
100
AcDbLine
 10
1304.428512985642
 20
506.6221000052789
 30
0.0
 11
1279.255470069679
 21
536.6217041015625
 31
0.0
  0
LINE
  5
F6
330
1F
100
AcDbEntity
  8
D-2
  6
Continuous
 62
     3
370
     9
100
AcDbLine
 10
1294.428479993666
 20
506.6221000052789
 30
0.0
 11
1269.255684517525
 21
536.6217041015625
 31
0.0
  0
LINE
  5
F7
330
1F
100
AcDbEntity
  8
D-2
  6
Continuous
 62
     3
370
     9
100
AcDbLine
 10
1284.428694441512
 20
506.6221000052789
 30
0.0
 11
1259.255651525549
 21
536.6217041015625
 31
0.0
  0
LINE
  5
F8
330
1F
100
AcDbEntity
  8
D-2
  6
Continuous
 62
     3
370
     9
100
AcDbLine
 10
1274.428414009713
 20
506.6221000052789
 30
0.0
 11
1249.25537109375
 21
536.6217041015625
 31
0.0
  0
LINE
  5
F9
330
1F
100
AcDbEntity
  8
D-2
  6
Continuous
 62
     3
370
     9
100
AcDbLine
 10
1264.428628457559
 20
506.6221000052789
 30
0.0
 11
1239.255338101774
 21
536.6217041015625
 31
0.0
  0
LINE
  5
FA
330
1F
100
AcDbEntity
  8
D-2
  6
Continuous
 62
     3
370
     9
100
AcDbLine
 10
1254.428595465583
 20
506.6221000052789
 30
0.0
 11
1229.25555254962
 21
536.6217041015625
 31
0.0
  0
LINE
  5
FB
330
1F
100
AcDbEntity
  8
D-2
  6
Continuous
 62
     3
370
     9
100
AcDbLine
 10
1244.428562473607
 20
506.6221000052789
 30
0.0
 11
1219.255519557644
 21
536.6217041015625
 31
0.0
  0
LINE
  5
FC
330
1F
100
AcDbEntity
  8
D-2
  6
Continuous
 62
     3
370
     9
100
AcDbLine
 10
1234.42852948163
 20
506.6221000052789
 30
0.0
 11
1209.255486565667
 21
536.6217041015625
 31
0.0
  0
LINE
  5
FD
330
1F
100
AcDbEntity
  8
D-2
  6
Continuous
 62
     3
370
     9
100
AcDbLine
 10
1224.428496489654
 20
506.6221000052789
 30
0.0
 11
1199.255453573691
 21
536.6217041015625
 31
0.0
  0
LINE
  5
FE
330
1F
100
AcDbEntity
  8
D-2
  6
Continuous
 62
     3
370
     9
100
AcDbLine
 10
1214.4287109375
 20
506.6221000052789
 30
0.0
 11
1189.255668021538
 21
536.6217041015625
 31
0.0
  0
LINE
  5
FF
330
1F
100
AcDbEntity
  8
D-2
  6
Continuous
 62
     3
370
     9
100
AcDbLine
 10
1204.428677945524
 20
506.6221000052789
 30
0.0
 11
1179.255140149916
 21
536.6217041015625
 31
0.0
  0
LINE
  5
100
330
1F
100
AcDbEntity
  8
D-2
  6
Continuous
 62
     3
370
     9
100
AcDbLine
 10
1194.428644953548
 20
506.6221000052789
 30
0.0
 11
1169.255354597762
 21
536.6217041015625
 31
0.0
  0
LINE
  5
101
330
1F
100
AcDbEntity
  8
D-2
  6
Continuous
 62
     3
370
     9
100
AcDbLine
 10
1184.428611961571
 20
506.6221000052789
 30
0.0
 11
1159.255321605785
 21
536.6217041015625
 31
0.0
  0
LINE
  5
102
330
1F
100
AcDbEntity
  8
D-2
  6
Continuous
 62
     3
370
     9
100
AcDbLine
 10
1174.428578969595
 20
506.6221000052789
 30
0.0
 11
1149.255536053632
 21
536.6217041015625
 31
0.0
  0
LINE
  5
103
330
1F
100
AcDbEntity
  8
D-2
  6
Continuous
 62
     3
370
     9
100
AcDbLine
 10
1164.428545977618
 20
506.6221000052789
 30
0.0
 11
1139.255503061656
 21
536.6217041015625
 31
0.0
  0
LINE
  5
104
330
1F
100
AcDbEntity
  8
D-2
  6
Continuous
 62
     3
370
     9
100
AcDbLine
 10
1154.428512985642
 20
506.6221000052789
 30
0.0
 11
1129.255470069679
 21
536.6217041015625
 31
0.0
  0
LINE
  5
105
330
1F
100
AcDbEntity
  8
D-2
  6
Continuous
 62
     3
370
     9
100
AcDbLine
 10
1144.428479993666
 20
506.6221000052789
 30
0.0
 11
1119.255684517525
 21
536.6217041015625
 31
0.0
  0
LINE
  5
106
330
1F
100
AcDbEntity
  8
D-2
  6
Continuous
 62
     3
370
     9
100
AcDbLine
 10
1134.428694441512
 20
506.6221000052789
 30
0.0
 11
1109.255651525549
 21
536.6217041015625
 31
0.0
  0
LINE
  5
107
330
1F
100
AcDbEntity
  8
D-2
  6
Continuous
 62
     3
370
     9
100
AcDbLine
 10
1124.428414009713
 20
506.6221000052789
 30
0.0
 11
1099.25537109375
 21
536.6217041015625
 31
0.0
  0
LINE
  5
108
330
1F
100
AcDbEntity
  8
D-2
  6
Continuous
 62
     3
370
     9
100
AcDbLine
 10
1114.428628457559
 20
506.6221000052789
 30
0.0
 11
1089.255338101774
 21
536.6217041015625
 31
0.0
  0
LINE
  5
109
330
1F
100
AcDbEntity
  8
D-2
  6
Continuous
 62
     3
370
     9
100
AcDbLine
 10
1104.428595465583
 20
506.6221000052789
 30
0.0
 11
1079.25555254962
 21
536.6217041015625
 31
0.0
  0
LINE
  5
10A
330
1F
100
AcDbEntity
  8
D-2
  6
Continuous
 62
     3
370
     9
100
AcDbLine
 10
1094.428562473607
 20
506.6221000052789
 30
0.0
 11
1069.255519557644
 21
536.6217041015625
 31
0.0
  0
LINE
  5
10B
330
1F
100
AcDbEntity
  8
D-2
  6
Continuous
 62
     3
370
     9
100
AcDbLine
 10
1084.42852948163
 20
506.6221000052789
 30
0.0
 11
1063.939769847973
 21
531.0394617029141
 31
0.0
  0
LINE
  5
10C
330
1F
100
AcDbEntity
  8
D-2
  6
Continuous
 62
     3
370
     9
100
AcDbLine
 10
1074.428496489654
 20
506.6221000052789
 30
0.0
 11
1058.939753351985
 21
525.0801210145693
 31
0.0
  0
LINE
  5
10D
330
1F
100
AcDbEntity
  8
D-2
  6
Continuous
 62
     3
370
     9
100
AcDbLine
 10
1064.4287109375
 20
506.6221000052789
 30
0.0
 11
1053.939736855997
 21
519.1217700855154
 31
0.0
  0
LINE
  5
10E
330
1F
100
AcDbEntity
  8
D-2
  6
Continuous
 62
     3
370
     9
100
AcDbLine
 10
974.4286614495354
 20
441.6216381176099
 30
0.0
 11
963.9396873680323
 21
454.1218030774917
 31
0.0
  0
LINE
  5
10F
330
1F
100
AcDbEntity
  8
D-2
  6
Continuous
 62
     3
370
     9
100
AcDbLine
 10
984.428694441512
 20
441.6216381176099
 30
0.0
 11
968.9397038640203
 21
460.0806488861909
 31
0.0
  0
LINE
  5
110
330
1F
100
AcDbEntity
  8
D-2
  6
Continuous
 62
     3
370
     9
100
AcDbLine
 10
994.4284799936656
 20
441.6216381176099
 30
0.0
 11
973.9397203600089
 21
466.0394946948904
 31
0.0
  0
LINE
  5
111
330
1F
100
AcDbEntity
  8
D-2
  6
Continuous
 62
     3
370
     9
100
AcDbLine
 10
1004.428512985642
 20
441.6216381176099
 30
0.0
 11
979.2554700696792
 21
471.6217370935391
 31
0.0
  0
LINE
  5
112
330
1F
100
AcDbEntity
  8
D-2
  6
Continuous
 62
     3
370
     9
100
AcDbLine
 10
1014.428545977618
 20
441.6216381176099
 30
0.0
 11
989.2555030616558
 21
471.6217370935391
 31
0.0
  0
LINE
  5
113
330
1F
100
AcDbEntity
  8
D-2
  6
Continuous
 62
     3
370
     9
100
AcDbLine
 10
1024.428578969595
 20
441.6216381176099
 30
0.0
 11
999.2555360536318
 21
471.6217370935391
 31
0.0
  0
LINE
  5
114
330
1F
100
AcDbEntity
  8
D-2
  6
Continuous
 62
     3
370
     9
100
AcDbLine
 10
1034.428611961571
 20
441.6216381176099
 30
0.0
 11
1009.255321605785
 21
471.6217370935391
 31
0.0
  0
LINE
  5
115
330
1F
100
AcDbEntity
  8
D-2
  6
Continuous
 62
     3
370
     9
100
AcDbLine
 10
1044.428644953548
 20
441.6216381176099
 30
0.0
 11
1019.255354597762
 21
471.6217370935391
 31
0.0
  0
LINE
  5
116
330
1F
100
AcDbEntity
  8
D-2
  6
Continuous
 62
     3
370
     9
100
AcDbLine
 10
1054.428677945524
 20
441.6216381176099
 30
0.0
 11
1029.255140149916
 21
471.6217370935391
 31
0.0
  0
LINE
  5
117
330
1F
100
AcDbEntity
  8
D-2
  6
Continuous
 62
     3
370
     9
100
AcDbLine
 10
1064.4287109375
 20
441.6216381176099
 30
0.0
 11
1039.255668021538
 21
471.6217370935391
 31
0.0
  0
LINE
  5
118
330
1F
100
AcDbEntity
  8
D-2
  6
Continuous
 62
     3
370
     9
100
AcDbLine
 10
1074.428496489654
 20
441.6216381176099
 30
0.0
 11
1049.255453573691
 21
471.6217370935391
 31
0.0
  0
LINE
  5
119
330
1F
100
AcDbEntity
  8
D-2
  6
Continuous
 62
     3
370
     9
100
AcDbLine
 10
1084.42852948163
 20
441.6216381176099
 30
0.0
 11
1059.255486565667
 21
471.6217370935391
 31
0.0
  0
LINE
  5
11A
330
1F
100
AcDbEntity
  8
D-2
  6
Continuous
 62
     3
370
     9
100
AcDbLine
 10
1094.428562473607
 20
441.6216381176099
 30
0.0
 11
1069.255519557644
 21
471.6217370935391
 31
0.0
  0
LINE
  5
11B
330
1F
100
AcDbEntity
  8
D-2
  6
Continuous
 62
     3
370
     9
100
AcDbLine
 10
1104.428595465583
 20
441.6216381176099
 30
0.0
 11
1079.25555254962
 21
471.6217370935391
 31
0.0
  0
LINE
  5
11C
330
1F
100
AcDbEntity
  8
D-2
  6
Continuous
 62
     3
370
     9
100
AcDbLine
 10
1114.428628457559
 20
441.6216381176099
 30
0.0
 11
1089.255338101774
 21
471.6217370935391
 31
0.0
  0
LINE
  5
11D
330
1F
100
AcDbEntity
  8
D-2
  6
Continuous
 62
     3
370
     9
100
AcDbLine
 10
1124.428414009713
 20
441.6216381176099
 30
0.0
 11
1099.25537109375
 21
471.6217370935391
 31
0.0
  0
LINE
  5
11E
330
1F
100
AcDbEntity
  8
D-2
  6
Continuous
 62
     3
370
     9
100
AcDbLine
 10
1134.428694441512
 20
441.6216381176099
 30
0.0
 11
1109.255651525549
 21
471.6217370935391
 31
0.0
  0
LINE
  5
11F
330
1F
100
AcDbEntity
  8
D-2
  6
Continuous
 62
     3
370
     9
100
AcDbLine
 10
1144.428479993666
 20
441.6216381176099
 30
0.0
 11
1119.255684517525
 21
471.6217370935391
 31
0.0
  0
LINE
  5
120
330
1F
100
AcDbEntity
  8
D-2
  6
Continuous
 62
     3
370
     9
100
AcDbLine
 10
1154.428512985642
 20
441.6216381176099
 30
0.0
 11
1129.255470069679
 21
471.6217370935391
 31
0.0
  0
LINE
  5
121
330
1F
100
AcDbEntity
  8
D-2
  6
Continuous
 62
     3
370
     9
100
AcDbLine
 10
1164.428545977618
 20
441.6216381176099
 30
0.0
 11
1139.255503061656
 21
471.6217370935391
 31
0.0
  0
LINE
  5
122
330
1F
100
AcDbEntity
  8
D-2
  6
Continuous
 62
     3
370
     9
100
AcDbLine
 10
1174.428578969595
 20
441.6216381176099
 30
0.0
 11
1149.255536053632
 21
471.6217370935391
 31
0.0
  0
LINE
  5
123
330
1F
100
AcDbEntity
  8
D-2
  6
Continuous
 62
     3
370
     9
100
AcDbLine
 10
1184.428611961571
 20
441.6216381176099
 30
0.0
 11
1159.255321605785
 21
471.6217370935391
 31
0.0
  0
LINE
  5
124
330
1F
100
AcDbEntity
  8
D-2
  6
Continuous
 62
     3
370
     9
100
AcDbLine
 10
1194.428644953548
 20
441.6216381176099
 30
0.0
 11
1169.255354597762
 21
471.6217370935391
 31
0.0
  0
LINE
  5
125
330
1F
100
AcDbEntity
  8
D-2
  6
Continuous
 62
     3
370
     9
100
AcDbLine
 10
1204.428677945524
 20
441.6216381176099
 30
0.0
 11
1179.255140149916
 21
471.6217370935391
 31
0.0
  0
LINE
  5
126
330
1F
100
AcDbEntity
  8
D-2
  6
Continuous
 62
     3
370
     9
100
AcDbLine
 10
1214.4287109375
 20
441.6216381176099
 30
0.0
 11
1189.255668021538
 21
471.6217370935391
 31
0.0
  0
LINE
  5
127
330
1F
100
AcDbEntity
  8
D-2
  6
Continuous
 62
     3
370
     9
100
AcDbLine
 10
1224.428496489654
 20
441.6216381176099
 30
0.0
 11
1199.255453573691
 21
471.6217370935391
 31
0.0
  0
LINE
  5
128
330
1F
100
AcDbEntity
  8
D-2
  6
Continuous
 62
     3
370
     9
100
AcDbLine
 10
1234.42852948163
 20
441.6216381176099
 30
0.0
 11
1209.255486565667
 21
471.6217370935391
 31
0.0
  0
LINE
  5
129
330
1F
100
AcDbEntity
  8
D-2
  6
Continuous
 62
     3
370
     9
100
AcDbLine
 10
1244.428562473607
 20
441.6216381176099
 30
0.0
 11
1219.255519557644
 21
471.6217370935391
 31
0.0
  0
LINE
  5
12A
330
1F
100
AcDbEntity
  8
D-2
  6
Continuous
 62
     3
370
     9
100
AcDbLine
 10
1254.428595465583
 20
441.6216381176099
 30
0.0
 11
1229.25555254962
 21
471.6217370935391
 31
0.0
  0
LINE
  5
12B
330
1F
100
AcDbEntity
  8
D-2
  6
Continuous
 62
     3
370
     9
100
AcDbLine
 10
1264.428628457559
 20
441.6216381176099
 30
0.0
 11
1239.255338101774
 21
471.6217370935391
 31
0.0
  0
LINE
  5
12C
330
1F
100
AcDbEntity
  8
D-2
  6
Continuous
 62
     3
370
     9
100
AcDbLine
 10
1274.428414009713
 20
441.6216381176099
 30
0.0
 11
1249.25537109375
 21
471.6217370935391
 31
0.0
  0
LINE
  5
12D
330
1F
100
AcDbEntity
  8
D-2
  6
Continuous
 62
     3
370
     9
100
AcDbLine
 10
1284.428694441512
 20
441.6216381176099
 30
0.0
 11
1259.255651525549
 21
471.6217370935391
 31
0.0
  0
LINE
  5
12E
330
1F
100
AcDbEntity
  8
D-2
  6
Continuous
 62
     3
370
     9
100
AcDbLine
 10
1294.428479993666
 20
441.6216381176099
 30
0.0
 11
1269.255684517525
 21
471.6217370935391
 31
0.0
  0
LINE
  5
12F
330
1F
100
AcDbEntity
  8
D-2
  6
Continuous
 62
     3
370
     9
100
AcDbLine
 10
1304.428512985642
 20
441.6216381176099
 30
0.0
 11
1279.255470069679
 21
471.6217370935391
 31
0.0
  0
LINE
  5
130
330
1F
100
AcDbEntity
  8
D-2
  6
Continuous
 62
     3
370
     9
100
AcDbLine
 10
1314.428545977618
 20
441.6216381176099
 30
0.0
 11
1289.255503061656
 21
471.6217370935391
 31
0.0
  0
LINE
  5
131
330
1F
100
AcDbEntity
  8
D-2
  6
Continuous
 62
     3
370
     9
100
AcDbLine
 10
1324.428578969595
 20
441.6216381176099
 30
0.0
 11
1299.255536053632
 21
471.6217370935391
 31
0.0
  0
LINE
  5
132
330
1F
100
AcDbEntity
  8
D-2
  6
Continuous
 62
     3
370
     9
100
AcDbLine
 10
1334.428611961571
 20
441.6216381176099
 30
0.0
 11
1309.255321605785
 21
471.6217370935391
 31
0.0
  0
LINE
  5
133
330
1F
100
AcDbEntity
  8
D-2
  6
Continuous
 62
     3
370
     9
100
AcDbLine
 10
1344.428397513725
 20
441.6216381176099
 30
0.0
 11
1319.255354597762
 21
471.6217370935391
 31
0.0
  0
LINE
  5
134
330
1F
100
AcDbEntity
  8
D-2
  6
Continuous
 62
     3
370
     9
100
AcDbLine
 10
1354.428677945524
 20
441.6216381176099
 30
0.0
 11
1329.255140149916
 21
471.6217370935391
 31
0.0
  0
LINE
  5
135
330
1F
100
AcDbEntity
  8
D-2
  6
Continuous
 62
     3
370
     9
100
AcDbLine
 10
1364.4287109375
 20
441.6216381176099
 30
0.0
 11
1339.255668021538
 21
471.6217370935391
 31
0.0
  0
LINE
  5
136
330
1F
100
AcDbEntity
  8
D-2
  6
Continuous
 62
     3
370
     9
100
AcDbLine
 10
1374.428496489654
 20
441.6216381176099
 30
0.0
 11
1349.255453573691
 21
471.6217370935391
 31
0.0
  0
LINE
  5
137
330
1F
100
AcDbEntity
  8
D-2
  6
Continuous
 62
     3
370
     9
100
AcDbLine
 10
978.624251082137
 20
471.6217370935391
 30
0.0
 11
953.451208166174
 21
441.6216381176099
 31
0.0
  0
LINE
  5
138
330
1F
100
AcDbEntity
  8
D-2
  6
Continuous
 62
     3
370
     9
100
AcDbLine
 10
988.6240366342906
 20
471.6217370935391
 30
0.0
 11
963.4509937183276
 21
441.6216381176099
 31
0.0
  0
LINE
  5
139
330
1F
100
AcDbEntity
  8
D-2
  6
Continuous
 62
     3
370
     9
100
AcDbLine
 10
998.6240696262672
 20
471.6217370935391
 30
0.0
 11
973.4510267103042
 21
441.6216381176099
 31
0.0
  0
LINE
  5
13A
330
1F
100
AcDbEntity
  8
D-2
  6
Continuous
 62
     3
370
     9
100
AcDbLine
 10
1008.624102618243
 20
471.6217370935391
 30
0.0
 11
983.4510597022808
 21
441.6216381176099
 31
0.0
  0
LINE
  5
13B
330
1F
100
AcDbEntity
  8
D-2
  6
Continuous
 62
     3
370
     9
100
AcDbLine
 10
1018.62413561022
 20
471.6217370935391
 30
0.0
 11
993.4510926942568
 21
441.6216381176099
 31
0.0
  0
LINE
  5
13C
330
1F
100
AcDbEntity
  8
D-2
  6
Continuous
 62
     3
370
     9
100
AcDbLine
 10
1028.624168602196
 20
471.6217370935391
 30
0.0
 11
1003.45087824641
 21
441.6216381176099
 31
0.0
  0
LINE
  5
13D
330
1F
100
AcDbEntity
  8
D-2
  6
Continuous
 62
     3
370
     9
100
AcDbLine
 10
1038.624201594173
 20
471.6217370935391
 30
0.0
 11
1013.450911238387
 21
441.6216381176099
 31
0.0
  0
LINE
  5
13E
330
1F
100
AcDbEntity
  8
D-2
  6
Continuous
 62
     3
370
     9
100
AcDbLine
 10
1048.624234586149
 20
471.6217370935391
 30
0.0
 11
1023.450696790541
 21
441.6216381176099
 31
0.0
  0
LINE
  5
13F
330
1F
100
AcDbEntity
  8
D-2
  6
Continuous
 62
     3
370
     9
100
AcDbLine
 10
1058.624267578125
 20
471.6217370935391
 30
0.0
 11
1033.451224662163
 21
441.6216381176099
 31
0.0
  0
LINE
  5
140
330
1F
100
AcDbEntity
  8
D-2
  6
Continuous
 62
     3
370
     9
100
AcDbLine
 10
1068.624053130279
 20
471.6217370935391
 30
0.0
 11
1043.451010214316
 21
441.6216381176099
 31
0.0
  0
LINE
  5
141
330
1F
100
AcDbEntity
  8
D-2
  6
Continuous
 62
     3
370
     9
100
AcDbLine
 10
1078.624086122255
 20
471.6217370935391
 30
0.0
 11
1053.451043206292
 21
441.6216381176099
 31
0.0
  0
LINE
  5
142
330
1F
100
AcDbEntity
  8
D-2
  6
Continuous
 62
     3
370
     9
100
AcDbLine
 10
1088.624119114232
 20
471.6217370935391
 30
0.0
 11
1063.451076198269
 21
441.6216381176099
 31
0.0
  0
LINE
  5
143
330
1F
100
AcDbEntity
  8
D-2
  6
Continuous
 62
     3
370
     9
100
AcDbLine
 10
1098.624152106208
 20
471.6217370935391
 30
0.0
 11
1073.451109190245
 21
441.6216381176099
 31
0.0
  0
LINE
  5
144
330
1F
100
AcDbEntity
  8
D-2
  6
Continuous
 62
     3
370
     9
100
AcDbLine
 10
1108.624185098184
 20
471.6217370935391
 30
0.0
 11
1083.450894742399
 21
441.6216381176099
 31
0.0
  0
LINE
  5
145
330
1F
100
AcDbEntity
  8
D-2
  6
Continuous
 62
     3
370
     9
100
AcDbLine
 10
1118.623970650338
 20
471.6217370935391
 30
0.0
 11
1093.450927734375
 21
441.6216381176099
 31
0.0
  0
LINE
  5
146
330
1F
100
AcDbEntity
  8
D-2
  6
Continuous
 62
     3
370
     9
100
AcDbLine
 10
1128.624251082137
 20
471.6217370935391
 30
0.0
 11
1103.451208166174
 21
441.6216381176099
 31
0.0
  0
LINE
  5
147
330
1F
100
AcDbEntity
  8
D-2
  6
Continuous
 62
     3
370
     9
100
AcDbLine
 10
1138.624036634291
 20
471.6217370935391
 30
0.0
 11
1113.450993718328
 21
441.6216381176099
 31
0.0
  0
LINE
  5
148
330
1F
100
AcDbEntity
  8
D-2
  6
Continuous
 62
     3
370
     9
100
AcDbLine
 10
1148.624069626267
 20
471.6217370935391
 30
0.0
 11
1123.451026710304
 21
441.6216381176099
 31
0.0
  0
LINE
  5
149
330
1F
100
AcDbEntity
  8
D-2
  6
Continuous
 62
     3
370
     9
100
AcDbLine
 10
1158.624102618243
 20
471.6217370935391
 30
0.0
 11
1133.451059702281
 21
441.6216381176099
 31
0.0
  0
LINE
  5
14A
330
1F
100
AcDbEntity
  8
D-2
  6
Continuous
 62
     3
370
     9
100
AcDbLine
 10
1168.62413561022
 20
471.6217370935391
 30
0.0
 11
1143.451092694257
 21
441.6216381176099
 31
0.0
  0
LINE
  5
14B
330
1F
100
AcDbEntity
  8
D-2
  6
Continuous
 62
     3
370
     9
100
AcDbLine
 10
1178.624168602196
 20
471.6217370935391
 30
0.0
 11
1153.45087824641
 21
441.6216381176099
 31
0.0
  0
LINE
  5
14C
330
1F
100
AcDbEntity
  8
D-2
  6
Continuous
 62
     3
370
     9
100
AcDbLine
 10
1188.624201594173
 20
471.6217370935391
 30
0.0
 11
1163.450911238387
 21
441.6216381176099
 31
0.0
  0
LINE
  5
14D
330
1F
100
AcDbEntity
  8
D-2
  6
Continuous
 62
     3
370
     9
100
AcDbLine
 10
1198.624234586149
 20
471.6217370935391
 30
0.0
 11
1173.450696790541
 21
441.6216381176099
 31
0.0
  0
LINE
  5
14E
330
1F
100
AcDbEntity
  8
D-2
  6
Continuous
 62
     3
370
     9
100
AcDbLine
 10
1208.624267578125
 20
471.6217370935391
 30
0.0
 11
1183.451224662163
 21
441.6216381176099
 31
0.0
  0
LINE
  5
14F
330
1F
100
AcDbEntity
  8
D-2
  6
Continuous
 62
     3
370
     9
100
AcDbLine
 10
1218.624053130279
 20
471.6217370935391
 30
0.0
 11
1193.451010214316
 21
441.6216381176099
 31
0.0
  0
LINE
  5
150
330
1F
100
AcDbEntity
  8
D-2
  6
Continuous
 62
     3
370
     9
100
AcDbLine
 10
1228.624086122255
 20
471.6217370935391
 30
0.0
 11
1203.451043206292
 21
441.6216381176099
 31
0.0
  0
LINE
  5
151
330
1F
100
AcDbEntity
  8
D-2
  6
Continuous
 62
     3
370
     9
100
AcDbLine
 10
1238.624119114232
 20
471.6217370935391
 30
0.0
 11
1213.451076198269
 21
441.6216381176099
 31
0.0
  0
LINE
  5
152
330
1F
100
AcDbEntity
  8
D-2
  6
Continuous
 62
     3
370
     9
100
AcDbLine
 10
1248.624152106208
 20
471.6217370935391
 30
0.0
 11
1223.451109190245
 21
441.6216381176099
 31
0.0
  0
LINE
  5
153
330
1F
100
AcDbEntity
  8
D-2
  6
Continuous
 62
     3
370
     9
100
AcDbLine
 10
1258.624185098184
 20
471.6217370935391
 30
0.0
 11
1233.450894742399
 21
441.6216381176099
 31
0.0
  0
LINE
  5
154
330
1F
100
AcDbEntity
  8
D-2
  6
Continuous
 62
     3
370
     9
100
AcDbLine
 10
1268.623970650338
 20
471.6217370935391
 30
0.0
 11
1243.450927734375
 21
441.6216381176099
 31
0.0
  0
LINE
  5
155
330
1F
100
AcDbEntity
  8
D-2
  6
Continuous
 62
     3
370
     9
100
AcDbLine
 10
1278.624251082137
 20
471.6217370935391
 30
0.0
 11
1253.451208166174
 21
441.6216381176099
 31
0.0
  0
LINE
  5
156
330
1F
100
AcDbEntity
  8
D-2
  6
Continuous
 62
     3
370
     9
100
AcDbLine
 10
1288.624036634291
 20
471.6217370935391
 30
0.0
 11
1263.45124115815
 21
441.6216381176099
 31
0.0
  0
LINE
  5
157
330
1F
100
AcDbEntity
  8
D-2
  6
Continuous
 62
     3
370
     9
100
AcDbLine
 10
1298.624069626267
 20
471.6217370935391
 30
0.0
 11
1273.451026710304
 21
441.6216381176099
 31
0.0
  0
LINE
  5
158
330
1F
100
AcDbEntity
  8
D-2
  6
Continuous
 62
     3
370
     9
100
AcDbLine
 10
1308.624102618243
 20
471.6217370935391
 30
0.0
 11
1283.451059702281
 21
441.6216381176099
 31
0.0
  0
LINE
  5
159
330
1F
100
AcDbEntity
  8
D-2
  6
Continuous
 62
     3
370
     9
100
AcDbLine
 10
1318.62413561022
 20
471.6217370935391
 30
0.0
 11
1293.451092694257
 21
441.6216381176099
 31
0.0
  0
LINE
  5
15A
330
1F
100
AcDbEntity
  8
D-2
  6
Continuous
 62
     3
370
     9
100
AcDbLine
 10
1328.624168602196
 20
471.6217370935391
 30
0.0
 11
1303.45087824641
 21
441.6216381176099
 31
0.0
  0
LINE
  5
15B
330
1F
100
AcDbEntity
  8
D-2
  6
Continuous
 62
     3
370
     9
100
AcDbLine
 10
1338.62395415435
 20
471.6217370935391
 30
0.0
 11
1313.450911238387
 21
441.6216381176099
 31
0.0
  0
LINE
  5
15C
330
1F
100
AcDbEntity
  8
D-2
  6
Continuous
 62
     3
370
     9
100
AcDbLine
 10
1348.624234586149
 20
471.6217370935391
 30
0.0
 11
1323.450696790541
 21
441.6216381176099
 31
0.0
  0
LINE
  5
15D
330
1F
100
AcDbEntity
  8
D-2
  6
Continuous
 62
     3
370
     9
100
AcDbLine
 10
1358.624267578125
 20
471.6217370935391
 30
0.0
 11
1333.451224662163
 21
441.6216381176099
 31
0.0
  0
LINE
  5
15E
330
1F
100
AcDbEntity
  8
D-2
  6
Continuous
 62
     3
370
     9
100
AcDbLine
 10
1368.624053130279
 20
471.6217370935391
 30
0.0
 11
1343.451010214316
 21
441.6216381176099
 31
0.0
  0
LINE
  5
15F
330
1F
100
AcDbEntity
  8
D-2
  6
Continuous
 62
     3
370
     9
100
AcDbLine
 10
1378.624086122255
 20
471.6217370935391
 30
0.0
 11
1353.451043206292
 21
441.6216381176099
 31
0.0
  0
LINE
  5
160
330
1F
100
AcDbEntity
  8
D-2
  6
Continuous
 62
     3
370
     9
100
AcDbLine
 10
1381.428816511825
 20
445.1971435546875
 30
0.0
 11
1359.255486565667
 21
471.6217370935391
 31
0.0
  0
LINE
  5
161
330
1F
100
AcDbEntity
  8
D-2
  6
Continuous
 62
     3
370
     9
100
AcDbLine
 10
1381.428816511825
 20
463.0464626002959
 30
0.0
 11
1363.451076198269
 21
441.6216381176099
 31
0.0
  0
LINE
  5
162
330
1F
100
AcDbEntity
  8
D-A
  6
Continuous
 62
     3
370
     9
100
AcDbLine
 10
1446.428536080025
 20
609.1215721336573
 30
0.0
 11
1449.428496489654
 21
608.8592859216641
 31
0.0
  0
LINE
  5
163
330
1F
100
AcDbEntity
  8
D-A
  6
Continuous
 62
     3
370
     9
100
AcDbLine
 10
1449.428496489654
 20
574.3839903135557
 30
0.0
 11
1446.428536080025
 21
574.1217041015625
 31
0.0
  0
LINE
  5
164
330
1F
100
AcDbEntity
  8
D-A
  6
Continuous
 62
     3
370
     9
100
AcDbLine
 10
1449.428496489654
 20
458.8592859216641
 30
0.0
 11
1446.428536080025
 21
459.1215721336573
 31
0.0
  0
LINE
  5
165
330
1F
100
AcDbEntity
  8
D-A
  6
Continuous
 62
     3
370
     9
100
AcDbLine
 10
1446.428536080025
 20
424.1217041015625
 30
0.0
 11
1449.428496489654
 21
424.3839903135557
 31
0.0
  0
LINE
  5
166
330
1F
100
AcDbEntity
  8
D-A
  6
Continuous
 62
     3
370
     9
100
AcDbLine
 10
1398.665969436233
 20
373.6222055796031
 30
0.0
 11
1398.928503088049
 21
376.6216711095862
 31
0.0
  0
LINE
  5
167
330
1F
100
AcDbEntity
  8
D-A
  6
Continuous
 62
     3
370
     9
100
AcDbLine
 10
1363.928635055955
 20
376.6216711095862
 30
0.0
 11
1364.190921267948
 21
373.6222055796031
 31
0.0
  0
LINE
  5
168
330
1F
100
AcDbEntity
  8
D-A
  6
Continuous
 62
     3
370
     9
100
AcDbLine
 10
1248.928503088049
 20
376.6216711095862
 30
0.0
 11
1248.665969436233
 21
373.6222055796031
 31
0.0
  0
LINE
  5
169
330
1F
100
AcDbEntity
  8
D-A
  6
Continuous
 62
     3
370
     9
100
AcDbLine
 10
1213.928635055955
 20
376.6216711095862
 30
0.0
 11
1214.190921267948
 21
373.6222055796031
 31
0.0
  0
LINE
  5
16A
330
1F
100
AcDbEntity
  8
D-A
  6
JWW_CENTER1
 62
     3
370
     9
100
AcDbLine
 10
1431.428486592061
 20
441.6216381176099
 30
0.0
 11
1467.240699561867
 21
441.6216381176099
 31
0.0
  0
LINE
  5
16B
330
1F
100
AcDbEntity
  8
D-A
  6
JWW_CENTER1
 62
     3
370
     9
100
AcDbLine
 10
1381.428816511825
 20
356.9096250791807
 30
0.0
 11
1381.428816511825
 21
391.6219680373734
 31
0.0
  0
LINE
  5
16C
330
1F
100
AcDbEntity
  8
D-A
  6
JWW_CENTER1
 62
     3
370
     9
100
AcDbLine
 10
1231.428816511825
 20
356.9096250791807
 30
0.0
 11
1231.428816511825
 21
391.6219680373734
 31
0.0
  0
LINE
  5
16D
330
1F
100
AcDbEntity
  8
D-A
  6
JWW_CENTER1
 62
     3
370
     9
100
AcDbLine
 10
1431.428486592061
 20
591.6216381176099
 30
0.0
 11
1467.240699561867
 21
591.6216381176099
 31
0.0
  0
LINE
  5
16E
330
1F
100
AcDbEntity
  8
D-A
  6
Continuous
 62
     3
370
     9
100
AcDbLine
 10
1248.928503088049
 20
376.6216711095862
 30
0.0
 11
1213.928635055955
 21
376.6216711095862
 31
0.0
  0
LINE
  5
16F
330
1F
100
AcDbEntity
  8
D-A
  6
Continuous
 62
     3
370
     9
100
AcDbLine
 10
1241.428602063978
 20
376.6216711095862
 30
0.0
 11
1241.428602063978
 21
391.6219680373734
 31
0.0
  0
LINE
  5
170
330
1F
100
AcDbEntity
  8
D-A
  6
Continuous
 62
     3
370
     9
100
AcDbLine
 10
1221.428536080025
 20
376.6216711095862
 30
0.0
 11
1221.428536080025
 21
391.6219680373734
 31
0.0
  0
LINE
  5
171
330
1F
100
AcDbEntity
  8
D-A
  6
Continuous
 62
     3
370
     9
100
AcDbLine
 10
1371.428536080025
 20
376.6216711095862
 30
0.0
 11
1371.428536080025
 21
391.6219680373734
 31
0.0
  0
LINE
  5
172
330
1F
100
AcDbEntity
  8
D-A
  6
Continuous
 62
     3
370
     9
100
AcDbLine
 10
1391.428602063978
 20
376.6216711095862
 30
0.0
 11
1391.428602063978
 21
391.6219680373734
 31
0.0
  0
LINE
  5
173
330
1F
100
AcDbEntity
  8
D-A
  6
Continuous
 62
     3
370
     9
100
AcDbLine
 10
1398.928503088049
 20
376.6216711095862
 30
0.0
 11
1363.928635055955
 21
376.6216711095862
 31
0.0
  0
LINE
  5
174
330
1F
100
AcDbEntity
  8
D-A
  6
Continuous
 62
     3
370
     9
100
AcDbLine
 10
1446.428536080025
 20
459.1215721336573
 30
0.0
 11
1446.428536080025
 21
424.1217041015625
 31
0.0
  0
LINE
  5
175
330
1F
100
AcDbEntity
  8
D-A
  6
Continuous
 62
     3
370
     9
100
AcDbLine
 10
1446.428536080025
 20
451.6216711095862
 30
0.0
 11
1431.428486592061
 21
451.6216711095862
 31
0.0
  0
LINE
  5
176
330
1F
100
AcDbEntity
  8
D-A
  6
Continuous
 62
     3
370
     9
100
AcDbLine
 10
1446.428536080025
 20
431.6221000052789
 30
0.0
 11
1431.428486592061
 21
431.6221000052789
 31
0.0
  0
LINE
  5
177
330
1F
100
AcDbEntity
  8
D-A
  6
Continuous
 62
     3
370
     9
100
AcDbLine
 10
1446.428536080025
 20
581.622100005279
 30
0.0
 11
1431.428486592061
 21
581.622100005279
 31
0.0
  0
LINE
  5
178
330
1F
100
AcDbEntity
  8
D-A
  6
Continuous
 62
     3
370
     9
100
AcDbLine
 10
1446.428536080025
 20
601.6221659892315
 30
0.0
 11
1431.428486592061
 21
601.6221659892315
 31
0.0
  0
LINE
  5
179
330
1F
100
AcDbEntity
  8
D-A
  6
Continuous
 62
     3
370
     9
100
AcDbLine
 10
1446.428536080025
 20
609.1215721336573
 30
0.0
 11
1446.428536080025
 21
574.1217041015625
 31
0.0
  0
LINE
  5
17A
330
1F
100
AcDbEntity
  8
1-9
  6
Continuous
 62
     3
370
     9
100
AcDbLine
 10
-1744.295109929265
 20
298.7325637404984
 30
0.0
 11
-1744.295109929265
 21
322.7327418971706
 31
0.0
  0
LINE
  5
17B
330
1F
100
AcDbEntity
  8
1-9
  6
Continuous
 62
     3
370
     9
100
AcDbLine
 10
-1684.294911977407
 20
298.7325637404984
 30
0.0
 11
-1744.295109929265
 21
298.7325637404984
 31
0.0
  0
LINE
  5
17C
330
1F
100
AcDbEntity
  8
D-1
  6
Continuous
 62
     2
370
     9
100
AcDbLine
 10
1431.428486592061
 20
391.6219680373734
 30
0.0
 11
754.594710066512
 21
391.6219680373734
 31
0.0
  0
LINE
  5
17D
330
1F
100
AcDbEntity
  8
D-1
  6
Continuous
 62
     2
370
     9
100
AcDbLine
 10
1391.428602063978
 20
431.6221000052789
 30
0.0
 11
754.594710066512
 21
431.6221000052789
 31
0.0
  0
LINE
  5
17E
330
1F
100
AcDbEntity
  8
D-1
  6
Continuous
 62
     2
370
     9
100
AcDbLine
 10
1391.428602063978
 20
431.6221000052789
 30
0.0
 11
1431.428486592061
 21
391.6219680373734
 31
0.0
  0
LINE
  5
17F
330
1F
100
AcDbEntity
  8
D-2
  6
Continuous
 62
     3
370
     9
100
AcDbLine
 10
1381.428816511825
 20
441.6216381176099
 30
0.0
 11
754.594710066512
 21
441.6216381176099
 31
0.0
  0
LINE
  5
180
330
1F
100
AcDbEntity
  8
D-2
  6
Continuous
 62
     3
370
     9
100
AcDbLine
 10
1381.428816511825
 20
471.6217370935391
 30
0.0
 11
754.594710066512
 21
471.6217370935391
 31
0.0
  0
LINE
  5
181
330
1F
100
AcDbEntity
  8
D-2
  6
Continuous
 62
     3
370
     9
100
AcDbLine
 10
1381.428816511825
 20
471.6217370935391
 30
0.0
 11
1381.428816511825
 21
441.6216381176099
 31
0.0
  0
LINE
  5
182
330
1F
100
AcDbEntity
  8
D-2
  6
Continuous
 62
     3
370
     9
100
AcDbLine
 10
1381.428816511825
 20
536.6217041015625
 30
0.0
 11
1381.428816511825
 21
506.6221000052789
 31
0.0
  0
LINE
  5
183
330
1F
100
AcDbEntity
  8
D-2
  6
Continuous
 62
     3
370
     9
100
AcDbLine
 10
1381.428816511825
 20
536.6217041015625
 30
0.0
 11
754.594710066512
 21
536.6217041015625
 31
0.0
  0
LINE
  5
184
330
1F
100
AcDbEntity
  8
D-2
  6
Continuous
 62
     3
370
     9
100
AcDbLine
 10
1381.428816511825
 20
506.6221000052789
 30
0.0
 11
754.594710066512
 21
506.6221000052789
 31
0.0
  0
LINE
  5
185
330
1F
100
AcDbEntity
  8
D-2
  6
Continuous
 62
     3
370
     9
100
AcDbLine
 10
1381.428816511825
 20
571.6215721336573
 30
0.0
 11
754.594710066512
 21
571.6215721336573
 31
0.0
  0
LINE
  5
186
330
1F
100
AcDbEntity
  8
D-2
  6
Continuous
 62
     3
370
     9
100
AcDbLine
 10
1381.428816511825
 20
601.6221659892315
 30
0.0
 11
754.594710066512
 21
601.6221659892315
 31
0.0
  0
LINE
  5
187
330
1F
100
AcDbEntity
  8
D-2
  6
Continuous
 62
     3
370
     9
100
AcDbLine
 10
1381.428816511825
 20
601.6221659892315
 30
0.0
 11
1381.428816511825
 21
571.6215721336573
 31
0.0
  0
LINE
  5
188
330
1F
100
AcDbEntity
  8
D-2
  6
Continuous
 62
     3
370
     9
100
AcDbLine
 10
1381.428816511825
 20
991.6219680373734
 30
0.0
 11
754.594710066512
 21
991.6219680373734
 31
0.0
  0
LINE
  5
189
330
1F
100
AcDbEntity
  8
D-2
  6
Continuous
 62
     3
370
     9
100
AcDbLine
 10
1381.428816511825
 20
991.6219680373734
 30
0.0
 11
1381.428816511825
 21
961.6218690614443
 31
0.0
  0
LINE
  5
18A
330
1F
100
AcDbEntity
  8
D-2
  6
Continuous
 62
     3
370
     9
100
AcDbLine
 10
1381.428816511825
 20
926.6220010293498
 30
0.0
 11
1381.428816511825
 21
896.6219020534209
 31
0.0
  0
LINE
  5
18B
330
1F
100
AcDbEntity
  8
D-2
  6
Continuous
 62
     3
370
     9
100
AcDbLine
 10
1381.428816511825
 20
926.6220010293498
 30
0.0
 11
754.594710066512
 21
926.6220010293498
 31
0.0
  0
LINE
  5
18C
330
1F
100
AcDbEntity
  8
D-2
  6
Continuous
 62
     3
370
     9
100
AcDbLine
 10
1381.428816511825
 20
896.6219020534209
 30
0.0
 11
754.594710066512
 21
896.6219020534209
 31
0.0
  0
LINE
  5
18D
330
1F
100
AcDbEntity
  8
D-2
  6
Continuous
 62
     3
370
     9
100
AcDbLine
 10
1381.428816511825
 20
831.6219350453971
 30
0.0
 11
754.594710066512
 21
831.6219350453971
 31
0.0
  0
LINE
  5
18E
330
1F
100
AcDbEntity
  8
D-2
  6
Continuous
 62
     3
370
     9
100
AcDbLine
 10
1381.428816511825
 20
861.622034021326
 30
0.0
 11
754.594710066512
 21
861.622034021326
 31
0.0
  0
LINE
  5
18F
330
1F
100
AcDbEntity
  8
D-2
  6
Continuous
 62
     3
370
     9
100
AcDbLine
 10
1381.428816511825
 20
861.622034021326
 30
0.0
 11
1381.428816511825
 21
831.6219350453971
 31
0.0
  0
LINE
  5
190
330
1F
100
AcDbEntity
  8
D-2
  6
Continuous
 62
     3
370
     9
100
AcDbLine
 10
1381.428816511825
 20
796.6215721336573
 30
0.0
 11
1381.428816511825
 21
766.6219680373734
 31
0.0
  0
LINE
  5
191
330
1F
100
AcDbEntity
  8
D-2
  6
Continuous
 62
     3
370
     9
100
AcDbLine
 10
1381.428816511825
 20
701.6215061497044
 30
0.0
 11
754.594710066512
 21
701.6215061497044
 31
0.0
  0
LINE
  5
192
330
1F
100
AcDbEntity
  8
D-2
  6
Continuous
 62
     3
370
     9
100
AcDbLine
 10
1381.428816511825
 20
731.622100005279
 30
0.0
 11
754.594710066512
 21
731.622100005279
 31
0.0
  0
LINE
  5
193
330
1F
100
AcDbEntity
  8
D-2
  6
Continuous
 62
     3
370
     9
100
AcDbLine
 10
1381.428816511825
 20
731.622100005279
 30
0.0
 11
1381.428816511825
 21
701.6215061497044
 31
0.0
  0
LINE
  5
194
330
1F
100
AcDbEntity
  8
D-2
  6
Continuous
 62
     3
370
     9
100
AcDbLine
 10
1381.428816511825
 20
666.6216381176099
 30
0.0
 11
1381.428816511825
 21
636.622034021326
 31
0.0
  0
LINE
  5
195
330
1F
100
AcDbEntity
  8
D-2
  6
Continuous
 62
     3
370
     9
100
AcDbLine
 10
1381.428816511825
 20
666.6216381176099
 30
0.0
 11
754.594710066512
 21
666.6216381176099
 31
0.0
  0
LINE
  5
196
330
1F
100
AcDbEntity
  8
D-2
  6
Continuous
 62
     3
370
     9
100
AcDbLine
 10
1381.428816511825
 20
636.622034021326
 30
0.0
 11
754.594710066512
 21
636.622034021326
 31
0.0
  0
LINE
  5
197
330
1F
100
AcDbEntity
  8
1-9
  6
Continuous
 62
     3
370
     9
100
AcDbLine
 10
-1704.29497796136
 20
298.7325637404984
 30
0.0
 11
-1704.29497796136
 21
303.3324700432857
 31
0.0
  0
LINE
  5
198
330
1F
100
AcDbEntity
  8
1-9
  6
Continuous
 62
     3
370
     9
100
AcDbLine
 10
-1738.294941670186
 20
928.7326627164276
 30
0.0
 11
-1700.29486578864
 21
928.7326627164276
 31
0.0
  0
LINE
  5
199
330
1F
100
AcDbEntity
  8
1-9
  6
Continuous
 62
     3
370
     9
100
AcDbLine
 10
-1694.294944969383
 20
922.7322470175255
 30
0.0
 11
-1694.294944969383
 21
903.3324700432856
 31
0.0
  0
LINE
  5
19A
330
1F
100
AcDbEntity
  8
1-9
  6
Continuous
 62
     3
370
     9
100
AcDbLine
 10
-1744.295109929265
 20
903.3324700432856
 30
0.0
 11
-1684.294911977407
 21
903.3324700432856
 31
0.0
  0
LINE
  5
19B
330
1F
100
AcDbEntity
  8
1-9
  6
Continuous
 62
     3
370
     9
100
AcDbLine
 10
-1344.294780009502
 20
1242.732313001478
 30
0.0
 11
-1344.294780009502
 21
1204.732484559755
 31
0.0
  0
LINE
  5
19C
330
1F
100
AcDbEntity
  8
1-9
  6
Continuous
 62
     3
370
     9
100
AcDbLine
 10
-1374.294878985431
 20
1248.73272870038
 30
0.0
 11
-1350.294948268581
 21
1248.73272870038
 31
0.0
  0
LINE
  5
19D
330
1F
100
AcDbEntity
  8
1-9
  6
Continuous
 62
     3
370
     9
100
AcDbLine
 10
-1374.294878985431
 20
1188.732530748522
 30
0.0
 11
-1374.294878985431
 21
1248.73272870038
 31
0.0
  0
LINE
  5
19E
330
1F
100
AcDbEntity
  8
1-9
  6
Continuous
 62
     3
370
     9
100
AcDbLine
 10
-1374.294878985431
 20
1208.732596732475
 30
0.0
 11
-1369.694972682644
 21
1208.732596732475
 31
0.0
  0
LINE
  5
19F
330
1F
100
AcDbEntity
  8
D-1
  6
Continuous
 62
     2
370
     9
100
AcDbLine
 10
1431.428486592061
 20
1041.62163811761
 30
0.0
 11
1431.428486592061
 21
391.6219680373734
 31
0.0
  0
LINE
  5
1A0
330
1F
100
AcDbEntity
  8
D-1
  6
Continuous
 62
     2
370
     9
100
AcDbLine
 10
1391.428602063978
 20
1041.62163811761
 30
0.0
 11
1391.428602063978
 21
431.6221000052789
 31
0.0
  0
LINE
  5
1A1
330
1F
100
AcDbEntity
  8
D-0
  6
Continuous
 62
     2
370
     9
100
AcDbLine
 10
754.594710066512
 20
1059.463039088894
 30
0.0
 11
754.594710066512
 21
373.719201990076
 31
0.0
  0
LINE
  5
1A2
330
1F
100
AcDbEntity
  8
1-9
  6
Continuous
 62
     3
370
     9
100
AcDbLine
 10
-244.2951099292651
 20
1242.732313001478
 30
0.0
 11
-244.2951099292651
 21
1204.732484559755
 31
0.0
  0
LINE
  5
1A3
330
1F
100
AcDbEntity
  8
1-9
  6
Continuous
 62
     3
370
     9
100
AcDbLine
 10
-250.2950307485219
 20
1198.732068860853
 30
0.0
 11
-269.6950551625844
 21
1198.732068860853
 31
0.0
  0
LINE
  5
1A4
330
1F
100
AcDbEntity
  8
1-9
  6
Continuous
 62
     3
370
     9
100
AcDbLine
 10
-269.6950551625844
 20
1248.73272870038
 30
0.0
 11
-269.6950551625844
 21
1188.732530748522
 31
0.0
  0
LINE
  5
1A5
330
1F
100
AcDbEntity
  8
2-1
  6
Continuous
 62
     2
370
     9
100
AcDbLine
 10
1301.172204919764
 20
-493.1283156936233
 30
0.0
 11
1301.172204919764
 21
-538.1282167176943
 31
0.0
  0
LINE
  5
1A6
330
1F
100
AcDbEntity
  8
2-9
  6
Continuous
 62
     3
370
     9
100
AcDbLine
 10
1301.172204919764
 20
-498.1280847497888
 30
0.0
 11
1301.172204919764
 21
-558.1282827016469
 31
0.0
  0
LINE
  5
1A7
330
1F
100
AcDbEntity
  8
2-9
  6
Continuous
 62
     3
370
     9
100
AcDbLine
 10
1241.172254407728
 20
-592.1284938502956
 30
0.0
 11
1278.172178526183
 21
-592.1284938502956
 31
0.0
  0
LINE
  5
1A8
330
1F
100
AcDbEntity
  8
2-9
  6
Continuous
 62
     3
370
     9
100
AcDbLine
 10
1241.172254407728
 20
-624.1284014727617
 30
0.0
 11
1278.172178526183
 21
-624.1284014727617
 31
0.0
  0
LINE
  5
1A9
330
1F
100
AcDbEntity
  8
2-9
  6
Continuous
 62
     3
370
     9
100
AcDbLine
 10
1337.17222471495
 20
-624.1284014727617
 30
0.0
 11
1337.17222471495
 21
-592.1284938502956
 31
0.0
  0
LINE
  5
1AA
330
1F
100
AcDbEntity
  8
2-9
  6
Continuous
 62
     3
370
     9
100
AcDbLine
 10
1245.172119140625
 20
-628.1282662056587
 30
0.0
 11
1245.172119140625
 21
-588.1283816775759
 31
0.0
  0
LINE
  5
1AB
330
1F
100
AcDbEntity
  8
2-1
  6
Continuous
 62
     2
370
     9
100
AcDbLine
 10
1311.17223791174
 20
-678.1281837257178
 30
0.0
 11
1311.17223791174
 21
-728.1283486855996
 31
0.0
  0
LINE
  5
1AC
330
1F
100
AcDbEntity
  8
2-1
  6
Continuous
 62
     2
370
     9
100
AcDbLine
 10
1231.172221415752
 20
-728.1283486855996
 30
0.0
 11
1231.172221415752
 21
-488.1285466374577
 31
0.0
  0
LINE
  5
1AD
330
1F
100
AcDbEntity
  8
2-1
  6
Continuous
 62
     2
370
     9
100
AcDbLine
 10
1311.17223791174
 20
-488.1285466374577
 30
0.0
 11
1311.17223791174
 21
-538.1282167176943
 31
0.0
  0
LINE
  5
1AE
330
1F
100
AcDbEntity
  8
2-1
  6
Continuous
 62
     2
370
     9
100
AcDbLine
 10
1241.172254407728
 20
-723.1283321896115
 30
0.0
 11
1241.172254407728
 21
-493.1283156936233
 31
0.0
  0
LINE
  5
1AF
330
1F
100
AcDbEntity
  8
2-1
  6
Continuous
 62
     2
370
     9
100
AcDbLine
 10
1241.172254407728
 20
-493.1283156936233
 30
0.0
 11
1301.172204919764
 21
-493.1283156936233
 31
0.0
  0
LINE
  5
1B0
330
1F
100
AcDbEntity
  8
2-1
  6
Continuous
 62
     2
370
     9
100
AcDbLine
 10
1301.172204919764
 20
-678.1281837257178
 30
0.0
 11
1301.172204919764
 21
-723.1283321896115
 31
0.0
  0
LINE
  5
1B1
330
1F
100
AcDbEntity
  8
2-1
  6
Continuous
 62
     2
370
     9
100
AcDbLine
 10
1301.172204919764
 20
-723.1283321896115
 30
0.0
 11
1241.172254407728
 21
-723.1283321896115
 31
0.0
  0
LINE
  5
1B2
330
1F
100
AcDbEntity
  8
2-1
  6
Continuous
 62
     2
370
     9
100
AcDbLine
 10
1301.172204919764
 20
-678.1281837257178
 30
0.0
 11
1311.17223791174
 21
-678.1281837257178
 31
0.0
  0
LINE
  5
1B3
330
1F
100
AcDbEntity
  8
2-1
  6
Continuous
 62
     2
370
     9
100
AcDbLine
 10
1301.172204919764
 20
-538.1282167176943
 30
0.0
 11
1311.17223791174
 21
-538.1282167176943
 31
0.0
  0
LINE
  5
1B4
330
1F
100
AcDbEntity
  8
2-9
  6
JWW_CENTER2
 62
     3
370
     9
100
AcDbLine
 10
1231.172221415752
 20
-608.128200221706
 30
0.0
 11
1374.344119510135
 21
-608.128200221706
 31
0.0
  0
LINE
  5
1B5
330
1F
100
AcDbEntity
  8
2-9
  6
Continuous
 62
     3
370
     9
100
AcDbLine
 10
1245.172119140625
 20
-588.1283816775759
 30
0.0
 11
1278.172178526183
 21
-588.1283816775759
 31
0.0
  0
LINE
  5
1B6
330
1F
100
AcDbEntity
  8
2-9
  6
Continuous
 62
     3
370
     9
100
AcDbLine
 10
1245.172119140625
 20
-628.1282662056587
 30
0.0
 11
1278.172178526183
 21
-628.1282662056587
 31
0.0
  0
LINE
  5
1B7
330
1F
100
AcDbEntity
  8
2-9
  6
Continuous
 62
     3
370
     9
100
AcDbLine
 10
1341.172336887669
 20
-643.1283156936233
 30
0.0
 11
1341.172336887669
 21
-573.1280847497887
 31
0.0
  0
LINE
  5
1B8
330
1F
100
AcDbEntity
  8
2-9
  6
Continuous
 62
     3
370
     9
100
AcDbLine
 10
1347.172257706926
 20
-573.6531520534206
 30
0.0
 11
1341.172336887669
 21
-573.1280847497887
 31
0.0
  0
LINE
  5
1B9
330
1F
100
AcDbEntity
  8
2-9
  6
Continuous
 62
     3
370
     9
100
AcDbLine
 10
1347.172257706926
 20
-642.6032483899916
 30
0.0
 11
1341.172336887669
 21
-643.1283156936233
 31
0.0
  0
LINE
  5
1BA
330
1F
100
AcDbEntity
  8
2-9
  6
Continuous
 62
     3
370
     9
100
AcDbLine
 10
1245.172119140625
 20
-588.1283816775759
 30
0.0
 11
1241.172254407728
 21
-592.1284938502956
 31
0.0
  0
LINE
  5
1BB
330
1F
100
AcDbEntity
  8
2-9
  6
Continuous
 62
     3
370
     9
100
AcDbLine
 10
1241.172254407728
 20
-624.1284014727617
 30
0.0
 11
1245.172119140625
 21
-628.1282662056587
 31
0.0
  0
LINE
  5
1BC
330
1F
100
AcDbEntity
  8
2-9
  6
Continuous
 62
     3
370
     9
100
AcDbLine
 10
1341.172336887669
 20
-588.1283816775759
 30
0.0
 11
1337.17222471495
 21
-592.1284938502956
 31
0.0
  0
LINE
  5
1BD
330
1F
100
AcDbEntity
  8
2-9
  6
Continuous
 62
     3
370
     9
100
AcDbLine
 10
1337.17222471495
 20
-624.1284014727617
 30
0.0
 11
1341.172336887669
 21
-628.1282662056587
 31
0.0
  0
LINE
  5
1BE
330
1F
100
AcDbEntity
  8
2-9
  6
Continuous
 62
     3
370
     9
100
AcDbLine
 10
1301.172204919764
 20
-624.1284014727617
 30
0.0
 11
1337.17222471495
 21
-624.1284014727617
 31
0.0
  0
LINE
  5
1BF
330
1F
100
AcDbEntity
  8
2-9
  6
Continuous
 62
     3
370
     9
100
AcDbLine
 10
1301.172204919764
 20
-628.1282662056587
 30
0.0
 11
1341.172336887669
 21
-628.1282662056587
 31
0.0
  0
LINE
  5
1C0
330
1F
100
AcDbEntity
  8
2-9
  6
Continuous
 62
     3
370
     9
100
AcDbLine
 10
1301.172204919764
 20
-592.1284938502956
 30
0.0
 11
1337.17222471495
 21
-592.1284938502956
 31
0.0
  0
LINE
  5
1C1
330
1F
100
AcDbEntity
  8
2-9
  6
Continuous
 62
     3
370
     9
100
AcDbLine
 10
1301.172204919764
 20
-588.1283816775759
 30
0.0
 11
1341.172336887669
 21
-588.1283816775759
 31
0.0
  0
LINE
  5
1C2
330
1F
100
AcDbEntity
  8
2-9
  6
JWW_DASHED1
 62
     3
370
     9
100
AcDbLine
 10
1278.172178526183
 20
-628.1282662056587
 30
0.0
 11
1301.172204919764
 21
-628.1282662056587
 31
0.0
  0
LINE
  5
1C3
330
1F
100
AcDbEntity
  8
2-9
  6
JWW_DASHED1
 62
     3
370
     9
100
AcDbLine
 10
1278.172178526183
 20
-624.1284014727617
 30
0.0
 11
1301.172204919764
 21
-624.1284014727617
 31
0.0
  0
LINE
  5
1C4
330
1F
100
AcDbEntity
  8
2-9
  6
JWW_DASHED1
 62
     3
370
     9
100
AcDbLine
 10
1278.172178526183
 20
-592.1284938502956
 30
0.0
 11
1301.172204919764
 21
-592.1284938502956
 31
0.0
  0
LINE
  5
1C5
330
1F
100
AcDbEntity
  8
2-9
  6
JWW_DASHED1
 62
     3
370
     9
100
AcDbLine
 10
1278.172178526183
 20
-588.1283816775759
 30
0.0
 11
1301.172204919764
 21
-588.1283816775759
 31
0.0
  0
LINE
  5
1C6
330
1F
100
AcDbEntity
  8
2-1
  6
Continuous
 62
     2
370
     9
100
AcDbLine
 10
343.6723863756336
 20
-462.4348903346706
 30
0.0
 11
343.6723863756336
 21
-754.667506862331
 31
0.0
  0
LINE
  5
1C7
330
1F
100
AcDbEntity
  8
2-9
  6
Continuous
 62
     3
370
     9
100
AcDbLine
 10
1278.172178526183
 20
-498.1280847497888
 30
0.0
 11
1278.172178526183
 21
-723.1283321896115
 31
0.0
  0
LINE
  5
1C8
330
1F
100
AcDbEntity
  8
2-9
  6
Continuous
 62
     3
370
     9
100
AcDbLine
 10
1301.172204919764
 20
-723.1283321896115
 30
0.0
 11
1278.172178526183
 21
-723.1283321896115
 31
0.0
  0
LINE
  5
1C9
330
1F
100
AcDbEntity
  8
2-9
  6
Continuous
 62
     3
370
     9
100
AcDbLine
 10
1301.172204919764
 20
-723.1283321896115
 30
0.0
 11
1301.172204919764
 21
-658.1281177417651
 31
0.0
  0
LINE
  5
1CA
330
1F
100
AcDbEntity
  8
2-9
  6
Continuous
 62
     3
370
     9
100
AcDbLine
 10
1301.172204919764
 20
-498.1280847497888
 30
0.0
 11
1278.172178526183
 21
-498.1280847497888
 31
0.0
  0
LINE
  5
1CB
330
1F
100
AcDbEntity
  8
2-9
  6
Continuous
 62
     3
370
     9
100
AcDbLine
 10
1421.883000554266
 20
-658.1281177417651
 30
0.0
 11
1581.172138935811
 21
-658.1281177417651
 31
0.0
  0
LINE
  5
1CC
330
1F
100
AcDbEntity
  8
2-9
  6
Continuous
 62
     3
370
     9
100
AcDbLine
 10
1345.314232078759
 20
-702.2703923405827
 30
0.0
 11
1301.172204919764
 21
-658.1281177417651
 31
0.0
  0
LINE
  5
1CD
330
1F
100
AcDbEntity
  8
2-9
  6
Continuous
 62
     3
370
     9
100
AcDbLine
 10
1601.172204919764
 20
-735.128173828125
 30
0.0
 11
1351.172122439823
 21
-735.128173828125
 31
0.0
  0
LINE
  5
1CE
330
1F
100
AcDbEntity
  8
2-9
  6
JWW_DASHED3
 62
     3
370
     9
100
AcDbLine
 10
1301.172204919764
 20
-658.1281177417651
 30
0.0
 11
1301.172204919764
 21
-558.1282827016469
 31
0.0
  0
LINE
  5
1CF
330
1F
100
AcDbEntity
  8
2-9
  6
Continuous
 62
     3
370
     9
100
AcDbLine
 10
1351.172122439823
 20
-758.128200221706
 30
0.0
 11
1601.172204919764
 21
-758.128200221706
 31
0.0
  0
LINE
  5
1D0
330
1F
100
AcDbEntity
  8
2-5
  6
Continuous
 62
     7
370
     9
100
AcDbLine
 10
1355.167533255913
 20
-967.7144313502956
 30
0.0
 11
964.2977327913854
 21
-967.7144313502956
 31
0.0
  0
LINE
  5
1D1
330
1F
100
AcDbEntity
  8
2-4
  6
Continuous
 62
     7
370
     9
100
AcDbLine
 10
270.9572456978464
 20
-483.1282827016469
 30
0.0
 11
270.9572456978464
 21
-683.128200221706
 31
0.0
  0
LINE
  5
1D2
330
1F
100
AcDbEntity
  8
2-4
  6
Continuous
 62
     7
370
     9
100
AcDbLine
 10
328.0581912478885
 20
-483.1282827016469
 30
0.0
 11
187.6964672191724
 21
-483.1282827016469
 31
0.0
  0
LINE
  5
1D3
330
1F
100
AcDbEntity
  8
2-4
  6
Continuous
 62
     7
370
     9
100
AcDbLine
 10
190.6964276288008
 20
-483.1282827016469
 30
0.0
 11
190.6964276288008
 21
-733.1281177417651
 31
0.0
  0
LINE
  5
1D4
330
1F
100
AcDbEntity
  8
2-4
  6
Continuous
 62
     7
370
     9
100
AcDbLine
 10
329.5037346917232
 20
-733.1281177417651
 30
0.0
 11
187.6964672191724
 21
-733.1281177417651
 31
0.0
  0
LINE
  5
1D5
330
1F
100
AcDbEntity
  8
2-9
  6
Continuous
 62
     3
370
     9
100
AcDbLine
 10
1301.172204919764
 20
-558.1282827016469
 30
0.0
 11
1331.172303895693
 21
-588.1283816775759
 31
0.0
  0
LINE
  5
1D6
330
1F
100
AcDbEntity
  8
2-9
  6
Continuous
 62
     3
370
     9
100
AcDbLine
 10
1364.77141509185
 20
-621.7272454339104
 30
0.0
 11
1386.527808936867
 21
-643.4836392789273
 31
0.0
  0
LINE
  5
1D7
330
1F
100
AcDbEntity
  8
2-9
  6
Continuous
 62
     3
370
     9
100
AcDbLine
 10
1351.172122439823
 20
-758.128200221706
 30
0.0
 11
1351.172122439823
 21
-716.4125679634712
 31
0.0
  0
LINE
  5
1D8
330
1F
100
AcDbEntity
  8
2-4
  6
Continuous
 62
     7
370
     9
100
AcDbLine
 10
1698.423725849873
 20
-758.128200221706
 30
0.0
 11
1698.423725849873
 21
-483.1282827016469
 31
0.0
  0
LINE
  5
1D9
330
1F
100
AcDbEntity
  8
2-4
  6
Continuous
 62
     7
370
     9
100
AcDbLine
 10
1616.172254407728
 20
-758.128200221706
 30
0.0
 11
1701.423686259502
 21
-758.128200221706
 31
0.0
  0
LINE
  5
1DA
330
1F
100
AcDbEntity
  8
2-4
  6
Continuous
 62
     7
370
     9
100
AcDbLine
 10
1596.172188423775
 20
-658.1281177417651
 30
0.0
 11
1701.423686259502
 21
-658.1281177417651
 31
0.0
  0
LINE
  5
1DB
330
1F
100
AcDbEntity
  8
2-4
  6
Continuous
 62
     7
370
     9
100
AcDbLine
 10
1321.172270903716
 20
-483.1282827016469
 30
0.0
 11
1701.423686259502
 21
-483.1282827016469
 31
0.0
  0
LINE
  5
1DC
330
1F
100
AcDbEntity
  8
2-4
  6
Continuous
 62
     7
370
     9
100
AcDbLine
 10
1211.172155431799
 20
-416.7312704550253
 30
0.0
 11
1311.17223791174
 21
-416.7312704550253
 31
0.0
  0
LINE
  5
1DD
330
1F
100
AcDbEntity
  8
2-4
  6
Continuous
 62
     7
370
     9
100
AcDbLine
 10
1231.172221415752
 20
-473.1282497096706
 30
0.0
 11
1231.172221415752
 21
-413.7313100453969
 31
0.0
  0
LINE
  5
1DE
330
1F
100
AcDbEntity
  8
2-4
  6
Continuous
 62
     7
370
     9
100
AcDbLine
 10
343.6723863756336
 20
-344.032460805532
 30
0.0
 11
1601.172204919764
 21
-344.032460805532
 31
0.0
  0
LINE
  5
1DF
330
1F
100
AcDbEntity
  8
2-4
  6
Continuous
 62
     7
370
     9
100
AcDbLine
 10
1601.172204919764
 20
-663.1283816775759
 30
0.0
 11
1601.172204919764
 21
-341.0325003959036
 31
0.0
  0
LINE
  5
1E0
330
1F
100
AcDbEntity
  8
2-9
  6
Continuous
 62
     3
370
     9
100
AcDbLine
 10
1601.172204919764
 20
-678.1281837257178
 30
0.0
 11
1601.172204919764
 21
-758.128200221706
 31
0.0
  0
LINE
  5
1E1
330
1F
100
AcDbEntity
  8
2-4
  6
Continuous
 62
     7
370
     9
100
AcDbLine
 10
1311.17223791174
 20
-473.1282497096706
 30
0.0
 11
1311.17223791174
 21
-341.0325003959036
 31
0.0
  0
LINE
  5
1E2
330
1F
100
AcDbEntity
  8
2-5
  6
Continuous
 62
     7
370
     9
100
AcDbLine
 10
74.32028280722136
 20
-817.3784080711571
 30
0.0
 11
356.248762800887
 21
-817.3784080711571
 31
0.0
  0
LINE
  5
1E3
330
1F
100
AcDbEntity
  8
2-5
  6
Continuous
 62
     7
370
     9
100
AcDbLine
 10
800.4576811919344
 20
-890.2509204761401
 30
0.0
 11
1145.457582216005
 21
-890.2509204761401
 31
0.0
  0
LINE
  5
1E4
330
1F
100
AcDbEntity
  8
2-5
  6
Continuous
 62
     7
370
     9
100
AcDbLine
 10
474.172643713049
 20
-613.1282167176943
 30
0.0
 11
356.248762800887
 21
-817.3784080711571
 31
0.0
  0
LINE
  5
1E5
330
1F
100
AcDbEntity
  8
2-5
  6
Continuous
 62
     7
370
     9
100
AcDbLine
 10
474.172643713049
 20
-613.1282167176943
 30
0.0
 11
464.6056304106844
 21
-636.2252395217483
 31
0.0
  0
LINE
  5
1E6
330
1F
100
AcDbEntity
  8
2-5
  6
Continuous
 62
     7
370
     9
100
AcDbLine
 10
474.172643713049
 20
-613.1282167176943
 30
0.0
 11
458.9536099820526
 21
-632.962003140836
 31
0.0
  0
LINE
  5
1E7
330
1F
100
AcDbEntity
  8
2-5
  6
Continuous
 62
     7
370
     9
100
AcDbLine
 10
1236.17223791174
 20
-733.1283651815877
 30
0.0
 11
1226.605224609375
 21
-756.2253879856418
 31
0.0
  0
LINE
  5
1E8
330
1F
100
AcDbEntity
  8
2-5
  6
Continuous
 62
     7
370
     9
100
AcDbLine
 10
1236.17223791174
 20
-733.1283651815877
 30
0.0
 11
1220.953204180743
 21
-752.9621516047297
 31
0.0
  0
LINE
  5
1E9
330
1F
100
AcDbEntity
  8
2-5
  6
Continuous
 62
     7
370
     9
100
AcDbLine
 10
1476.172287399705
 20
-758.128200221706
 30
0.0
 11
1355.167533255913
 21
-967.7144313502956
 31
0.0
  0
LINE
  5
1EA
330
1F
100
AcDbEntity
  8
2-5
  6
Continuous
 62
     7
370
     9
100
AcDbLine
 10
1476.172287399705
 20
-758.128200221706
 30
0.0
 11
1466.60527409734
 21
-781.2252230257602
 31
0.0
  0
LINE
  5
1EB
330
1F
100
AcDbEntity
  8
2-5
  6
Continuous
 62
     7
370
     9
100
AcDbLine
 10
1476.172287399705
 20
-758.128200221706
 30
0.0
 11
1460.953253668708
 21
-777.9622340846706
 31
0.0
  0
LINE
  5
1EC
330
1F
100
AcDbEntity
  8
2-5
  6
Continuous
 62
     7
370
     9
100
AcDbLine
 10
1236.17223791174
 20
-733.1283651815877
 30
0.0
 11
1145.457582216005
 21
-890.2509204761401
 31
0.0
  0
LINE
  5
1ED
330
1F
100
AcDbEntity
  8
2-4
  6
Continuous
 62
     7
370
     9
100
AcDbLine
 10
659.1725117451438
 20
-688.1282167176943
 30
0.0
 11
659.1725117451438
 21
-799.2623488967483
 31
0.0
  0
LINE
  5
1EE
330
1F
100
AcDbEntity
  8
2-4
  6
Continuous
 62
     7
370
     9
100
AcDbLine
 10
679.1725777290964
 20
-688.1282167176943
 30
0.0
 11
679.1725777290964
 21
-799.2623488967483
 31
0.0
  0
LINE
  5
1EF
330
1F
100
AcDbEntity
  8
2-4
  6
Continuous
 62
     7
370
     9
100
AcDbLine
 10
621.9399941934125
 20
-796.2623884871199
 30
0.0
 11
679.1725777290964
 21
-796.2623884871199
 31
0.0
  0
LINE
  5
1F0
330
1F
100
AcDbEntity
  8
D-5
  6
Continuous
 62
     7
370
     9
100
AcDbLine
 10
1754.710346943623
 20
193.3929773279141
 30
0.0
 11
1479.710429423565
 21
193.3929773279141
 31
0.0
  0
LINE
  5
1F1
330
1F
100
AcDbEntity
  8
D-5
  6
Continuous
 62
     7
370
     9
100
AcDbLine
 10
1381.428816511825
 20
363.6216777079815
 30
0.0
 11
1479.710429423565
 21
193.3929773279141
 31
0.0
  0
LINE
  5
1F2
330
1F
100
AcDbEntity
  8
D-5
  6
Continuous
 62
     7
370
     9
100
AcDbLine
 10
1381.428816511825
 20
363.6216777079815
 30
0.0
 11
1396.647850242821
 21
343.7878912848396
 31
0.0
  0
LINE
  5
1F3
330
1F
100
AcDbEntity
  8
D-5
  6
Continuous
 62
     7
370
     9
100
AcDbLine
 10
1381.428816511825
 20
363.6216777079815
 30
0.0
 11
1390.99582981419
 21
340.5246549039273
 31
0.0
  0
LINE
  5
1F4
330
1F
100
AcDbEntity
  8
D-5
  6
Continuous
 62
     7
370
     9
100
AcDbLine
 10
1211.428750527872
 20
1009.121902053421
 30
0.0
 11
1196.209716796875
 21
1028.955688476562
 31
0.0
  0
LINE
  5
1F5
330
1F
100
AcDbEntity
  8
D-5
  6
Continuous
 62
     7
370
     9
100
AcDbLine
 10
1211.428750527872
 20
1009.121902053421
 30
0.0
 11
1201.861737225507
 21
1032.218924857475
 31
0.0
  0
LINE
  5
1F6
330
1F
100
AcDbEntity
  8
D-5
  6
Continuous
 62
     7
370
     9
100
AcDbLine
 10
957.4171736433703
 20
991.6219680373734
 30
0.0
 11
897.2492114917651
 21
1095.835703256968
 31
0.0
  0
LINE
  5
1F7
330
1F
100
AcDbEntity
  8
D-5
  6
Continuous
 62
     7
370
     9
100
AcDbLine
 10
957.4171736433703
 20
991.6219680373734
 30
0.0
 11
942.1981399123734
 21
1011.455754460515
 31
0.0
  0
LINE
  5
1F8
330
1F
100
AcDbEntity
  8
D-5
  6
Continuous
 62
     7
370
     9
100
AcDbLine
 10
957.4171736433703
 20
991.6219680373734
 30
0.0
 11
947.8501603410052
 21
1014.718990841428
 31
0.0
  0
LINE
  5
1F9
330
1F
100
AcDbEntity
  8
D-5
  6
Continuous
 62
     7
370
     9
100
AcDbLine
 10
897.2492114917651
 20
1095.835703256968
 30
0.0
 11
552.2493104676943
 21
1095.835703256968
 31
0.0
  0
LINE
  5
1FA
330
1F
100
AcDbEntity
  8
D-5
  6
Continuous
 62
     7
370
     9
100
AcDbLine
 10
1126.014255832982
 20
1157.063697608742
 30
0.0
 11
849.7499208192568
 21
1157.063697608742
 31
0.0
  0
LINE
  5
1FB
330
1F
100
AcDbEntity
  8
D-5
  6
Continuous
 62
     7
370
     9
100
AcDbLine
 10
1211.428750527872
 20
1009.121902053421
 30
0.0
 11
1126.014255832982
 21
1157.063697608742
 31
0.0
  0
LINE
  5
1FC
330
1F
100
AcDbEntity
  8
D-4
  6
Continuous
 62
     7
370
     9
100
AcDbLine
 10
663.0991342905406
 20
391.6219680373734
 30
0.0
 11
663.0991342905406
 21
466.8446638777451
 31
0.0
  0
LINE
  5
1FD
330
1F
100
AcDbEntity
  8
D-4
  6
Continuous
 62
     7
370
     9
100
AcDbLine
 10
739.5946605785474
 20
391.6219680373734
 30
0.0
 11
660.0991738809125
 21
391.6219680373734
 31
0.0
  0
LINE
  5
1FE
330
1F
100
AcDbEntity
  8
D-4
  6
Continuous
 62
     7
370
     9
100
AcDbLine
 10
739.5946605785474
 20
431.6221000052789
 30
0.0
 11
660.0991738809125
 21
431.6221000052789
 31
0.0
  0
LINE
  5
1FF
330
1F
100
AcDbEntity
  8
D-4
  6
Continuous
 62
     7
370
     9
100
AcDbLine
 10
739.5946605785474
 20
441.6216381176099
 30
0.0
 11
660.0991738809125
 21
441.6216381176099
 31
0.0
  0
LINE
  5
200
330
1F
100
AcDbEntity
  8
D-4
  6
Continuous
 62
     7
370
     9
100
AcDbLine
 10
754.594710066512
 20
113.7722860800255
 30
0.0
 11
1431.428486592061
 21
113.7722860800255
 31
0.0
  0
LINE
  5
201
330
1F
100
AcDbEntity
  8
D-4
  6
Continuous
 62
     7
370
     9
100
AcDbLine
 10
1431.428486592061
 20
376.6216711095862
 30
0.0
 11
1431.428486592061
 21
110.7723256703972
 31
0.0
  0
LINE
  5
202
330
1F
100
AcDbEntity
  8
D-4
  6
Continuous
 62
     7
370
     9
100
AcDbLine
 10
1663.038099134291
 20
391.6219680373734
 30
0.0
 11
1663.038099134291
 21
1041.62163811761
 31
0.0
  0
LINE
  5
203
330
1F
100
AcDbEntity
  8
D-4
  6
Continuous
 62
     7
370
     9
100
AcDbLine
 10
1446.428536080025
 20
391.6219680373734
 30
0.0
 11
1666.038059543919
 21
391.6219680373734
 31
0.0
  0
LINE
  5
204
330
1F
100
AcDbEntity
  8
1-5
  6
Continuous
 62
     7
370
     9
100
AcDbLine
 10
44.17716361380911
 20
-57.7911047033362
 30
0.0
 11
153.5438331397805
 21
-167.1580216691299
 31
0.0
  0
LINE
  5
205
330
1F
100
AcDbEntity
  8
1-5
  6
Continuous
 62
     7
370
     9
100
AcDbLine
 10
44.17716361380911
 20
-57.7911047033362
 30
0.0
 11
64.01095003695104
 21
-73.01063331397785
 31
0.0
  0
LINE
  5
206
330
1F
100
AcDbEntity
  8
1-5
  6
Continuous
 62
     7
370
     9
100
AcDbLine
 10
44.17716361380911
 20
-57.7911047033362
 30
0.0
 11
59.39619734480573
 21
-77.62489112647785
 31
0.0
  0
LINE
  5
207
330
1F
100
AcDbEntity
  8
1-5
  6
Continuous
 62
     7
370
     9
100
AcDbLine
 10
153.5438331397805
 20
-167.1580216691299
 30
0.0
 11
238.4421683646539
 21
-167.1580216691299
 31
0.0
  0
LINE
  5
208
330
1F
100
AcDbEntity
  8
1-2
  6
Continuous
 62
     3
370
     9
100
AcDbLine
 10
-4.295307881123165
 20
20.73243837098829
 30
0.0
 11
-4.295307881123165
 21
8.732596732474747
 31
0.0
  0
LINE
  5
209
330
1F
100
AcDbEntity
  8
1-2
  6
Continuous
 62
     3
370
     9
100
AcDbLine
 10
-1664.294845993454
 20
8.732596732474747
 30
0.0
 11
-1664.294845993454
 21
20.73243837098829
 31
0.0
  0
LINE
  5
20A
330
1F
100
AcDbEntity
  8
1-2
  6
Continuous
 62
     3
370
     9
100
AcDbLine
 10
-4.295307881123165
 20
46.73242517419766
 30
0.0
 11
-4.295307881123165
 21
34.73258353568411
 31
0.0
  0
LINE
  5
20B
330
1F
100
AcDbEntity
  8
1-2
  6
Continuous
 62
     3
370
     9
100
AcDbLine
 10
-1664.294845993454
 20
34.73258353568411
 30
0.0
 11
-1664.294845993454
 21
46.73242517419766
 31
0.0
  0
LINE
  5
20C
330
1F
100
AcDbEntity
  8
1-2
  6
Continuous
 62
     3
370
     9
100
AcDbLine
 10
-4.295307881123165
 20
72.73241197740731
 30
0.0
 11
-4.295307881123165
 21
60.73257033889377
 31
0.0
  0
LINE
  5
20D
330
1F
100
AcDbEntity
  8
1-2
  6
Continuous
 62
     3
370
     9
100
AcDbLine
 10
-1664.294845993454
 20
60.73257033889377
 30
0.0
 11
-1664.294845993454
 21
72.73241197740731
 31
0.0
  0
LINE
  5
20E
330
1F
100
AcDbEntity
  8
1-2
  6
Continuous
 62
     3
370
     9
100
AcDbLine
 10
-4.295307881123165
 20
98.73239878061668
 30
0.0
 11
-4.295307881123165
 21
86.73255714210313
 31
0.0
  0
LINE
  5
20F
330
1F
100
AcDbEntity
  8
1-2
  6
Continuous
 62
     3
370
     9
100
AcDbLine
 10
-1664.294845993454
 20
86.73255714210313
 30
0.0
 11
-1664.294845993454
 21
98.73239878061668
 31
0.0
  0
LINE
  5
210
330
1F
100
AcDbEntity
  8
1-2
  6
Continuous
 62
     3
370
     9
100
AcDbLine
 10
-4.295307881123165
 20
124.732385583826
 30
0.0
 11
-4.295307881123165
 21
112.7325439453125
 31
0.0
  0
LINE
  5
211
330
1F
100
AcDbEntity
  8
1-2
  6
Continuous
 62
     3
370
     9
100
AcDbLine
 10
-1664.294845993454
 20
112.7325439453125
 30
0.0
 11
-1664.294845993454
 21
124.732385583826
 31
0.0
  0
LINE
  5
212
330
1F
100
AcDbEntity
  8
1-2
  6
Continuous
 62
     3
370
     9
100
AcDbLine
 10
-4.295307881123165
 20
150.7323723870357
 30
0.0
 11
-4.295307881123165
 21
138.7325307485222
 31
0.0
  0
LINE
  5
213
330
1F
100
AcDbEntity
  8
1-2
  6
Continuous
 62
     3
370
     9
100
AcDbLine
 10
-1664.294845993454
 20
138.7325307485222
 30
0.0
 11
-1664.294845993454
 21
150.7323723870357
 31
0.0
  0
LINE
  5
214
330
1F
100
AcDbEntity
  8
1-2
  6
Continuous
 62
     3
370
     9
100
AcDbLine
 10
-4.295307881123165
 20
176.7323591902451
 30
0.0
 11
-4.295307881123165
 21
164.7325175517315
 31
0.0
  0
LINE
  5
215
330
1F
100
AcDbEntity
  8
1-2
  6
Continuous
 62
     3
370
     9
100
AcDbLine
 10
-1664.294845993454
 20
164.7325175517315
 30
0.0
 11
-1664.294845993454
 21
176.7323591902451
 31
0.0
  0
LINE
  5
216
330
1F
100
AcDbEntity
  8
1-2
  6
Continuous
 62
     3
370
     9
100
AcDbLine
 10
-4.295307881123165
 20
202.7323459934544
 30
0.0
 11
-4.295307881123165
 21
190.7325043549409
 31
0.0
  0
LINE
  5
217
330
1F
100
AcDbEntity
  8
1-2
  6
Continuous
 62
     3
370
     9
100
AcDbLine
 10
-1664.294845993454
 20
190.7325043549409
 30
0.0
 11
-1664.294845993454
 21
202.7323459934544
 31
0.0
  0
LINE
  5
218
330
1F
100
AcDbEntity
  8
1-2
  6
Continuous
 62
     3
370
     9
100
AcDbLine
 10
-4.295307881123165
 20
228.7323327966641
 30
0.0
 11
-4.295307881123165
 21
216.7324911581505
 31
0.0
  0
LINE
  5
219
330
1F
100
AcDbEntity
  8
1-2
  6
Continuous
 62
     3
370
     9
100
AcDbLine
 10
-1664.294845993454
 20
216.7324911581505
 30
0.0
 11
-1664.294845993454
 21
228.7323327966641
 31
0.0
  0
LINE
  5
21A
330
1F
100
AcDbEntity
  8
1-2
  6
Continuous
 62
     3
370
     9
100
AcDbLine
 10
-4.295307881123165
 20
254.7323195998734
 30
0.0
 11
-4.295307881123165
 21
242.7324779613599
 31
0.0
  0
LINE
  5
21B
330
1F
100
AcDbEntity
  8
1-2
  6
Continuous
 62
     3
370
     9
100
AcDbLine
 10
-1664.294845993454
 20
242.7324779613599
 30
0.0
 11
-1664.294845993454
 21
254.7323195998734
 31
0.0
  0
LINE
  5
21C
330
1F
100
AcDbEntity
  8
1-2
  6
Continuous
 62
     3
370
     9
100
AcDbLine
 10
-4.295307881123165
 20
280.7323064030828
 30
0.0
 11
-4.295307881123165
 21
268.7324647645693
 31
0.0
  0
LINE
  5
21D
330
1F
100
AcDbEntity
  8
1-2
  6
Continuous
 62
     3
370
     9
100
AcDbLine
 10
-1664.294845993454
 20
268.7324647645693
 30
0.0
 11
-1664.294845993454
 21
280.7323064030828
 31
0.0
  0
LINE
  5
21E
330
1F
100
AcDbEntity
  8
1-2
  6
Continuous
 62
     3
370
     9
100
AcDbLine
 10
-4.295307881123165
 20
306.7322932062925
 30
0.0
 11
-4.295307881123165
 21
294.7324515677789
 31
0.0
  0
LINE
  5
21F
330
1F
100
AcDbEntity
  8
1-2
  6
Continuous
 62
     3
370
     9
100
AcDbLine
 10
-1664.294845993454
 20
294.7324515677789
 30
0.0
 11
-1664.294845993454
 21
306.7322932062925
 31
0.0
  0
LINE
  5
220
330
1F
100
AcDbEntity
  8
1-2
  6
Continuous
 62
     3
370
     9
100
AcDbLine
 10
-4.295307881123165
 20
332.7322800095018
 30
0.0
 11
-4.295307881123165
 21
320.7324383709883
 31
0.0
  0
LINE
  5
221
330
1F
100
AcDbEntity
  8
1-2
  6
Continuous
 62
     3
370
     9
100
AcDbLine
 10
-4.295307881123165
 20
358.7322668127112
 30
0.0
 11
-4.295307881123165
 21
346.7324251741977
 31
0.0
  0
LINE
  5
222
330
1F
100
AcDbEntity
  8
1-2
  6
Continuous
 62
     3
370
     9
100
AcDbLine
 10
-4.295307881123165
 20
384.7322536159209
 30
0.0
 11
-4.295307881123165
 21
372.7324119774073
 31
0.0
  0
LINE
  5
223
330
1F
100
AcDbEntity
  8
1-2
  6
Continuous
 62
     3
370
     9
100
AcDbLine
 10
-4.295307881123165
 20
410.7322404191302
 30
0.0
 11
-4.295307881123165
 21
398.7323987806167
 31
0.0
  0
LINE
  5
224
330
1F
100
AcDbEntity
  8
1-2
  6
Continuous
 62
     3
370
     9
100
AcDbLine
 10
-4.295307881123165
 20
436.7327221019849
 30
0.0
 11
-4.295307881123165
 21
424.732385583826
 31
0.0
  0
LINE
  5
225
330
1F
100
AcDbEntity
  8
1-2
  6
Continuous
 62
     3
370
     9
100
AcDbLine
 10
-4.295307881123165
 20
436.7327221019849
 30
0.0
 11
-206.2603924725505
 21
436.7327221019849
 31
0.0
  0
LINE
  5
226
330
1F
100
AcDbEntity
  8
1-2
  6
Continuous
 62
     3
370
     9
100
AcDbLine
 10
-4.295307881123165
 20
424.732385583826
 30
0.0
 11
-206.2603924725505
 21
424.732385583826
 31
0.0
  0
LINE
  5
227
330
1F
100
AcDbEntity
  8
1-2
  6
Continuous
 62
     3
370
     9
100
AcDbLine
 10
-4.295307881123165
 20
384.7322536159209
 30
0.0
 11
-800.7709400073901
 21
384.7322536159209
 31
0.0
  0
LINE
  5
228
330
1F
100
AcDbEntity
  8
1-2
  6
Continuous
 62
     3
370
     9
100
AcDbLine
 10
-4.295307881123165
 20
372.7324119774073
 30
0.0
 11
-800.7709400073901
 21
372.7324119774073
 31
0.0
  0
LINE
  5
229
330
1F
100
AcDbEntity
  8
1-2
  6
Continuous
 62
     3
370
     9
100
AcDbLine
 10
-4.295307881123165
 20
410.7322404191302
 30
0.0
 11
-541.3310282939187
 21
410.7322404191302
 31
0.0
  0
LINE
  5
22A
330
1F
100
AcDbEntity
  8
1-2
  6
Continuous
 62
     3
370
     9
100
AcDbLine
 10
-4.295307881123165
 20
398.7323987806167
 30
0.0
 11
-541.3310282939187
 21
398.7323987806167
 31
0.0
  0
LINE
  5
22B
330
1F
100
AcDbEntity
  8
1-1
  6
Continuous
 62
     2
370
     9
100
AcDbLine
 10
-923.099002322635
 20
-11.26746925147785
 30
0.0
 11
-1684.294911977407
 21
-11.26746925147785
 31
0.0
  0
LINE
  5
22C
330
1F
100
AcDbEntity
  8
1-1
  6
Continuous
 62
     2
370
     9
100
AcDbLine
 10
-921.6383650496199
 20
4.732484559755221
 30
0.0
 11
-1668.294958166174
 21
4.732484559755221
 31
0.0
  0
LINE
  5
22D
330
1F
100
AcDbEntity
  8
1-2
  6
Continuous
 62
     3
370
     9
100
AcDbLine
 10
-921.2731438714104
 20
8.732596732474747
 30
0.0
 11
-1664.294845993454
 21
8.732596732474747
 31
0.0
  0
LINE
  5
22E
330
1F
100
AcDbEntity
  8
1-2
  6
Continuous
 62
     3
370
     9
100
AcDbLine
 10
-920.1779752164273
 20
20.73243837098829
 30
0.0
 11
-1664.294845993454
 21
20.73243837098829
 31
0.0
  0
LINE
  5
22F
330
1F
100
AcDbEntity
  8
1-2
  6
Continuous
 62
     3
370
     9
100
AcDbLine
 10
-918.8997010926942
 20
34.73258353568411
 30
0.0
 11
-1664.294845993454
 21
34.73258353568411
 31
0.0
  0
LINE
  5
230
330
1F
100
AcDbEntity
  8
1-2
  6
Continuous
 62
     3
370
     9
100
AcDbLine
 10
-917.804532437711
 20
46.73242517419766
 30
0.0
 11
-1664.294845993454
 21
46.73242517419766
 31
0.0
  0
LINE
  5
231
330
1F
100
AcDbEntity
  8
1-2
  6
Continuous
 62
     3
370
     9
100
AcDbLine
 10
-916.526258313978
 20
60.73257033889377
 30
0.0
 11
-1664.294845993454
 21
60.73257033889377
 31
0.0
  0
LINE
  5
232
330
1F
100
AcDbEntity
  8
1-2
  6
Continuous
 62
     3
370
     9
100
AcDbLine
 10
-915.4310896589949
 20
72.73241197740731
 30
0.0
 11
-1664.294845993454
 21
72.73241197740731
 31
0.0
  0
LINE
  5
233
330
1F
100
AcDbEntity
  8
1-2
  6
Continuous
 62
     3
370
     9
100
AcDbLine
 10
-914.1528155352617
 20
86.73255714210313
 30
0.0
 11
-1664.294845993454
 21
86.73255714210313
 31
0.0
  0
LINE
  5
234
330
1F
100
AcDbEntity
  8
1-2
  6
Continuous
 62
     3
370
     9
100
AcDbLine
 10
-913.0576468802786
 20
98.73239878061668
 30
0.0
 11
-1664.294845993454
 21
98.73239878061668
 31
0.0
  0
LINE
  5
235
330
1F
100
AcDbEntity
  8
1-2
  6
Continuous
 62
     3
370
     9
100
AcDbLine
 10
-911.7793727565456
 20
112.7325439453125
 30
0.0
 11
-1664.294845993454
 21
112.7325439453125
 31
0.0
  0
LINE
  5
236
330
1F
100
AcDbEntity
  8
1-2
  6
Continuous
 62
     3
370
     9
100
AcDbLine
 10
-910.6842041015625
 20
124.732385583826
 30
0.0
 11
-1664.294845993454
 21
124.732385583826
 31
0.0
  0
LINE
  5
237
330
1F
100
AcDbEntity
  8
1-2
  6
Continuous
 62
     3
370
     9
100
AcDbLine
 10
-909.4059299778293
 20
138.7325307485222
 30
0.0
 11
-1664.294845993454
 21
138.7325307485222
 31
0.0
  0
LINE
  5
238
330
1F
100
AcDbEntity
  8
1-2
  6
Continuous
 62
     3
370
     9
100
AcDbLine
 10
-908.3110087626688
 20
150.7323723870357
 30
0.0
 11
-1664.294845993454
 21
150.7323723870357
 31
0.0
  0
LINE
  5
239
330
1F
100
AcDbEntity
  8
1-2
  6
Continuous
 62
     3
370
     9
100
AcDbLine
 10
-907.0324871991131
 20
164.7325175517315
 30
0.0
 11
-1664.294845993454
 21
164.7325175517315
 31
0.0
  0
LINE
  5
23A
330
1F
100
AcDbEntity
  8
1-2
  6
Continuous
 62
     3
370
     9
100
AcDbLine
 10
-904.6590444203969
 20
190.7325043549409
 30
0.0
 11
-1664.294845993454
 21
190.7325043549409
 31
0.0
  0
LINE
  5
23B
330
1F
100
AcDbEntity
  8
1-2
  6
Continuous
 62
     3
370
     9
100
AcDbLine
 10
-903.5638757654137
 20
202.7323459934544
 30
0.0
 11
-1664.294845993454
 21
202.7323459934544
 31
0.0
  0
LINE
  5
23C
330
1F
100
AcDbEntity
  8
1-2
  6
Continuous
 62
     3
370
     9
100
AcDbLine
 10
-902.2856016416807
 20
216.7324911581505
 30
0.0
 11
-1664.294845993454
 21
216.7324911581505
 31
0.0
  0
LINE
  5
23D
330
1F
100
AcDbEntity
  8
1-2
  6
Continuous
 62
     3
370
     9
100
AcDbLine
 10
-901.1904329866975
 20
228.7323327966641
 30
0.0
 11
-1664.294845993454
 21
228.7323327966641
 31
0.0
  0
LINE
  5
23E
330
1F
100
AcDbEntity
  8
1-2
  6
Continuous
 62
     3
370
     9
100
AcDbLine
 10
-899.9121588629645
 20
242.7324779613599
 30
0.0
 11
-1664.294845993454
 21
242.7324779613599
 31
0.0
  0
LINE
  5
23F
330
1F
100
AcDbEntity
  8
1-2
  6
Continuous
 62
     3
370
     9
100
AcDbLine
 10
-898.8169902079813
 20
254.7323195998734
 30
0.0
 11
-1664.294845993454
 21
254.7323195998734
 31
0.0
  0
LINE
  5
240
330
1F
100
AcDbEntity
  8
1-2
  6
Continuous
 62
     3
370
     9
100
AcDbLine
 10
-897.5387160842483
 20
268.7324647645693
 30
0.0
 11
-1664.294845993454
 21
268.7324647645693
 31
0.0
  0
LINE
  5
241
330
1F
100
AcDbEntity
  8
1-2
  6
Continuous
 62
     3
370
     9
100
AcDbLine
 10
-896.4435474292651
 20
280.7323064030828
 30
0.0
 11
-1664.294845993454
 21
280.7323064030828
 31
0.0
  0
LINE
  5
242
330
1F
100
AcDbEntity
  8
1-2
  6
Continuous
 62
     3
370
     9
100
AcDbLine
 10
-895.1652733055321
 20
294.7324515677789
 30
0.0
 11
-1664.294845993454
 21
294.7324515677789
 31
0.0
  0
LINE
  5
243
330
1F
100
AcDbEntity
  8
1-2
  6
Continuous
 62
     3
370
     9
100
AcDbLine
 10
-894.070104650549
 20
306.7322932062925
 30
0.0
 11
-1664.294845993454
 21
306.7322932062925
 31
0.0
  0
LINE
  5
244
330
1F
100
AcDbEntity
  8
1-2
  6
Continuous
 62
     3
370
     9
100
AcDbLine
 10
-889.3232190931166
 20
358.7322668127112
 30
0.0
 11
-1127.741138355152
 21
358.7322668127112
 31
0.0
  0
LINE
  5
245
330
1F
100
AcDbEntity
  8
1-2
  6
Continuous
 62
     3
370
     9
100
AcDbLine
 10
-890.4183877480996
 20
346.7324251741977
 30
0.0
 11
-1127.741138355152
 21
346.7324251741977
 31
0.0
  0
LINE
  5
246
330
1F
100
AcDbEntity
  8
1-2
  6
Continuous
 62
     3
370
     9
100
AcDbLine
 10
-891.6966618718327
 20
332.7322800095018
 30
0.0
 11
-1456.284311655405
 21
332.7322800095018
 31
0.0
  0
LINE
  5
247
330
1F
100
AcDbEntity
  8
1-2
  6
Continuous
 62
     3
370
     9
100
AcDbLine
 10
-892.7918305268157
 20
320.7324383709883
 30
0.0
 11
-1456.284311655405
 21
320.7324383709883
 31
0.0
  0
LINE
  5
248
330
1F
100
AcDbEntity
  8
1-2
  6
Continuous
 62
     3
370
     9
100
AcDbLine
 10
-905.93731854413
 20
176.7323591902451
 30
0.0
 11
-1664.294845993454
 21
176.7323591902451
 31
0.0
  0
LINE
  5
249
330
1F
100
AcDbEntity
  8
1-1
  6
Continuous
 62
     2
370
     9
100
AcDbLine
 10
-0.2951957084036394
 20
4.732484559755221
 30
0.0
 11
-905.5720973659206
 21
4.732484559755221
 31
0.0
  0
LINE
  5
24A
330
1F
100
AcDbEntity
  8
1-1
  6
Continuous
 62
     2
370
     9
100
AcDbLine
 10
15.70451066300677
 20
-11.26746925147785
 30
0.0
 11
-907.0324871991131
 21
-11.26746925147785
 31
0.0
  0
LINE
  5
24B
330
1F
100
AcDbEntity
  8
1-2
  6
Continuous
 62
     3
370
     9
100
AcDbLine
 10
-4.295307881123165
 20
8.732596732474747
 30
0.0
 11
-905.206876187711
 21
8.732596732474747
 31
0.0
  0
LINE
  5
24C
330
1F
100
AcDbEntity
  8
1-2
  6
Continuous
 62
     3
370
     9
100
AcDbLine
 10
-4.295307881123165
 20
20.73243837098829
 30
0.0
 11
-904.1112126530827
 21
20.73243837098829
 31
0.0
  0
LINE
  5
24D
330
1F
100
AcDbEntity
  8
1-2
  6
Continuous
 62
     3
370
     9
100
AcDbLine
 10
-4.295307881123165
 20
34.73258353568411
 30
0.0
 11
-902.8334334089949
 21
34.73258353568411
 31
0.0
  0
LINE
  5
24E
330
1F
100
AcDbEntity
  8
1-2
  6
Continuous
 62
     3
370
     9
100
AcDbLine
 10
-4.295307881123165
 20
46.73242517419766
 30
0.0
 11
-901.7377698743666
 21
46.73242517419766
 31
0.0
  0
LINE
  5
24F
330
1F
100
AcDbEntity
  8
1-2
  6
Continuous
 62
     3
370
     9
100
AcDbLine
 10
-4.295307881123165
 20
60.73257033889377
 30
0.0
 11
-900.4599906302786
 21
60.73257033889377
 31
0.0
  0
LINE
  5
250
330
1F
100
AcDbEntity
  8
1-2
  6
Continuous
 62
     3
370
     9
100
AcDbLine
 10
-4.295307881123165
 20
72.73241197740731
 30
0.0
 11
-899.3643270956502
 21
72.73241197740731
 31
0.0
  0
LINE
  5
251
330
1F
100
AcDbEntity
  8
1-2
  6
Continuous
 62
     3
370
     9
100
AcDbLine
 10
-4.295307881123165
 20
86.73255714210313
 30
0.0
 11
-898.0865478515625
 21
86.73255714210313
 31
0.0
  0
LINE
  5
252
330
1F
100
AcDbEntity
  8
1-2
  6
Continuous
 62
     3
370
     9
100
AcDbLine
 10
-4.295307881123165
 20
98.73239878061668
 30
0.0
 11
-896.9908843169342
 21
98.73239878061668
 31
0.0
  0
LINE
  5
253
330
1F
100
AcDbEntity
  8
1-2
  6
Continuous
 62
     3
370
     9
100
AcDbLine
 10
-4.295307881123165
 20
112.7325439453125
 30
0.0
 11
-895.7133525126688
 21
112.7325439453125
 31
0.0
  0
LINE
  5
254
330
1F
100
AcDbEntity
  8
1-2
  6
Continuous
 62
     3
370
     9
100
AcDbLine
 10
-4.295307881123165
 20
124.732385583826
 30
0.0
 11
-894.6174415382178
 21
124.732385583826
 31
0.0
  0
LINE
  5
255
330
1F
100
AcDbEntity
  8
1-2
  6
Continuous
 62
     3
370
     9
100
AcDbLine
 10
-4.295307881123165
 20
138.7325307485222
 30
0.0
 11
-893.33966229413
 21
138.7325307485222
 31
0.0
  0
LINE
  5
256
330
1F
100
AcDbEntity
  8
1-2
  6
Continuous
 62
     3
370
     9
100
AcDbLine
 10
-4.295307881123165
 20
150.7323723870357
 30
0.0
 11
-892.2439987595017
 21
150.7323723870357
 31
0.0
  0
LINE
  5
257
330
1F
100
AcDbEntity
  8
1-2
  6
Continuous
 62
     3
370
     9
100
AcDbLine
 10
-4.295307881123165
 20
164.7325175517315
 30
0.0
 11
-890.9662195154137
 21
164.7325175517315
 31
0.0
  0
LINE
  5
258
330
1F
100
AcDbEntity
  8
1-2
  6
Continuous
 62
     3
370
     9
100
AcDbLine
 10
-4.295307881123165
 20
176.7323591902451
 30
0.0
 11
-889.8705559807854
 21
176.7323591902451
 31
0.0
  0
LINE
  5
259
330
1F
100
AcDbEntity
  8
1-2
  6
Continuous
 62
     3
370
     9
100
AcDbLine
 10
-4.295307881123165
 20
190.7325043549409
 30
0.0
 11
-888.5927767366975
 21
190.7325043549409
 31
0.0
  0
LINE
  5
25A
330
1F
100
AcDbEntity
  8
1-2
  6
Continuous
 62
     3
370
     9
100
AcDbLine
 10
-4.295307881123165
 20
202.7323459934544
 30
0.0
 11
-887.4971132020692
 21
202.7323459934544
 31
0.0
  0
LINE
  5
25B
330
1F
100
AcDbEntity
  8
1-2
  6
Continuous
 62
     3
370
     9
100
AcDbLine
 10
-4.295307881123165
 20
216.7324911581505
 30
0.0
 11
-886.2193339579813
 21
216.7324911581505
 31
0.0
  0
LINE
  5
25C
330
1F
100
AcDbEntity
  8
1-2
  6
Continuous
 62
     3
370
     9
100
AcDbLine
 10
-4.295307881123165
 20
228.7323327966641
 30
0.0
 11
-885.123670423353
 21
228.7323327966641
 31
0.0
  0
LINE
  5
25D
330
1F
100
AcDbEntity
  8
1-2
  6
Continuous
 62
     3
370
     9
100
AcDbLine
 10
-4.295307881123165
 20
242.7324779613599
 30
0.0
 11
-883.8458911792651
 21
242.7324779613599
 31
0.0
  0
LINE
  5
25E
330
1F
100
AcDbEntity
  8
1-2
  6
Continuous
 62
     3
370
     9
100
AcDbLine
 10
-4.295307881123165
 20
254.7323195998734
 30
0.0
 11
-882.7502276446367
 21
254.7323195998734
 31
0.0
  0
LINE
  5
25F
330
1F
100
AcDbEntity
  8
1-2
  6
Continuous
 62
     3
370
     9
100
AcDbLine
 10
-4.295307881123165
 20
268.7324647645693
 30
0.0
 11
-881.472448400549
 21
268.7324647645693
 31
0.0
  0
LINE
  5
260
330
1F
100
AcDbEntity
  8
1-2
  6
Continuous
 62
     3
370
     9
100
AcDbLine
 10
-4.295307881123165
 20
280.7323064030828
 30
0.0
 11
-880.3767848659206
 21
280.7323064030828
 31
0.0
  0
LINE
  5
261
330
1F
100
AcDbEntity
  8
1-2
  6
Continuous
 62
     3
370
     9
100
AcDbLine
 10
-4.295307881123165
 20
294.7324515677789
 30
0.0
 11
-879.0990056218327
 21
294.7324515677789
 31
0.0
  0
LINE
  5
262
330
1F
100
AcDbEntity
  8
1-2
  6
Continuous
 62
     3
370
     9
100
AcDbLine
 10
-4.295307881123165
 20
306.7322932062925
 30
0.0
 11
-878.003589527027
 21
306.7322932062925
 31
0.0
  0
LINE
  5
263
330
1F
100
AcDbEntity
  8
1-2
  6
Continuous
 62
     3
370
     9
100
AcDbLine
 10
-4.295307881123165
 20
320.7324383709883
 30
0.0
 11
-876.7255628431166
 21
320.7324383709883
 31
0.0
  0
LINE
  5
264
330
1F
100
AcDbEntity
  8
1-2
  6
Continuous
 62
     3
370
     9
100
AcDbLine
 10
-4.295307881123165
 20
332.7322800095018
 30
0.0
 11
-875.6298993084881
 21
332.7322800095018
 31
0.0
  0
LINE
  5
265
330
1F
100
AcDbEntity
  8
1-2
  6
Continuous
 62
     3
370
     9
100
AcDbLine
 10
-4.295307881123165
 20
358.7322668127112
 30
0.0
 11
-873.2564565297719
 21
358.7322668127112
 31
0.0
  0
LINE
  5
266
330
1F
100
AcDbEntity
  8
1-2
  6
Continuous
 62
     3
370
     9
100
AcDbLine
 10
-4.295307881123165
 20
346.7324251741977
 30
0.0
 11
-874.3521200644002
 21
346.7324251741977
 31
0.0
  0
LINE
  5
267
330
1F
100
AcDbEntity
  8
1-2
  6
Continuous
 62
     3
370
     9
100
AcDbLine
 10
-1664.294845993454
 20
1156.732623126056
 30
0.0
 11
-1664.294845993454
 21
1168.732464764569
 31
0.0
  0
LINE
  5
268
330
1F
100
AcDbEntity
  8
1-2
  6
Continuous
 62
     3
370
     9
100
AcDbLine
 10
-4.295307881123165
 20
1168.732464764569
 30
0.0
 11
-4.295307881123165
 21
1156.732623126056
 31
0.0
  0
LINE
  5
269
330
1F
100
AcDbEntity
  8
1-2
  6
Continuous
 62
     3
370
     9
100
AcDbLine
 10
-1664.294845993454
 20
1130.732636322846
 30
0.0
 11
-1664.294845993454
 21
1142.73247796136
 31
0.0
  0
LINE
  5
26A
330
1F
100
AcDbEntity
  8
1-2
  6
Continuous
 62
     3
370
     9
100
AcDbLine
 10
-4.295307881123165
 20
1142.73247796136
 30
0.0
 11
-4.295307881123165
 21
1130.732636322846
 31
0.0
  0
LINE
  5
26B
330
1F
100
AcDbEntity
  8
1-2
  6
Continuous
 62
     3
370
     9
100
AcDbLine
 10
-1664.294845993454
 20
1104.732649519637
 30
0.0
 11
-1664.294845993454
 21
1116.73249115815
 31
0.0
  0
LINE
  5
26C
330
1F
100
AcDbEntity
  8
1-2
  6
Continuous
 62
     3
370
     9
100
AcDbLine
 10
-4.295307881123165
 20
1116.73249115815
 30
0.0
 11
-4.295307881123165
 21
1104.732649519637
 31
0.0
  0
LINE
  5
26D
330
1F
100
AcDbEntity
  8
1-2
  6
Continuous
 62
     3
370
     9
100
AcDbLine
 10
-1664.294845993454
 20
1078.732662716428
 30
0.0
 11
-1664.294845993454
 21
1090.732504354941
 31
0.0
  0
LINE
  5
26E
330
1F
100
AcDbEntity
  8
1-2
  6
Continuous
 62
     3
370
     9
100
AcDbLine
 10
-4.295307881123165
 20
1090.732504354941
 30
0.0
 11
-4.295307881123165
 21
1078.732662716428
 31
0.0
  0
LINE
  5
26F
330
1F
100
AcDbEntity
  8
1-2
  6
Continuous
 62
     3
370
     9
100
AcDbLine
 10
-1664.294845993454
 20
1052.732675913218
 30
0.0
 11
-1664.294845993454
 21
1064.732517551731
 31
0.0
  0
LINE
  5
270
330
1F
100
AcDbEntity
  8
1-2
  6
Continuous
 62
     3
370
     9
100
AcDbLine
 10
-4.295307881123165
 20
1064.732517551731
 30
0.0
 11
-4.295307881123165
 21
1052.732675913218
 31
0.0
  0
LINE
  5
271
330
1F
100
AcDbEntity
  8
1-2
  6
Continuous
 62
     3
370
     9
100
AcDbLine
 10
-1664.294845993454
 20
1026.732689110009
 30
0.0
 11
-1664.294845993454
 21
1038.732530748522
 31
0.0
  0
LINE
  5
272
330
1F
100
AcDbEntity
  8
1-2
  6
Continuous
 62
     3
370
     9
100
AcDbLine
 10
-4.295307881123165
 20
1038.732530748522
 30
0.0
 11
-4.295307881123165
 21
1026.732689110009
 31
0.0
  0
LINE
  5
273
330
1F
100
AcDbEntity
  8
1-2
  6
Continuous
 62
     3
370
     9
100
AcDbLine
 10
-1664.294845993454
 20
1000.732702306799
 30
0.0
 11
-1664.294845993454
 21
1012.732543945312
 31
0.0
  0
LINE
  5
274
330
1F
100
AcDbEntity
  8
1-2
  6
Continuous
 62
     3
370
     9
100
AcDbLine
 10
-4.295307881123165
 20
1012.732543945312
 30
0.0
 11
-4.295307881123165
 21
1000.732702306799
 31
0.0
  0
LINE
  5
275
330
1F
100
AcDbEntity
  8
1-2
  6
Continuous
 62
     3
370
     9
100
AcDbLine
 10
-1664.294845993454
 20
974.7327155035896
 30
0.0
 11
-1664.294845993454
 21
986.7325571421031
 31
0.0
  0
LINE
  5
276
330
1F
100
AcDbEntity
  8
1-2
  6
Continuous
 62
     3
370
     9
100
AcDbLine
 10
-4.295307881123165
 20
986.7325571421031
 30
0.0
 11
-4.295307881123165
 21
974.7327155035896
 31
0.0
  0
LINE
  5
277
330
1F
100
AcDbEntity
  8
1-2
  6
Continuous
 62
     3
370
     9
100
AcDbLine
 10
-1664.294845993454
 20
948.7327287003802
 30
0.0
 11
-1664.294845993454
 21
960.7325703388938
 31
0.0
  0
LINE
  5
278
330
1F
100
AcDbEntity
  8
1-2
  6
Continuous
 62
     3
370
     9
100
AcDbLine
 10
-4.295307881123165
 20
960.7325703388938
 30
0.0
 11
-4.295307881123165
 21
948.7327287003802
 31
0.0
  0
LINE
  5
279
330
1F
100
AcDbEntity
  8
1-2
  6
Continuous
 62
     3
370
     9
100
AcDbLine
 10
-1664.294845993454
 20
922.7327418971709
 30
0.0
 11
-1664.294845993454
 21
934.7325835356842
 31
0.0
  0
LINE
  5
27A
330
1F
100
AcDbEntity
  8
1-2
  6
Continuous
 62
     3
370
     9
100
AcDbLine
 10
-4.295307881123165
 20
934.7325835356842
 30
0.0
 11
-4.295307881123165
 21
922.7327418971709
 31
0.0
  0
LINE
  5
27B
330
1F
100
AcDbEntity
  8
1-2
  6
Continuous
 62
     3
370
     9
100
AcDbLine
 10
-1664.294845993454
 20
896.7327550939613
 30
0.0
 11
-1664.294845993454
 21
908.7325967324748
 31
0.0
  0
LINE
  5
27C
330
1F
100
AcDbEntity
  8
1-2
  6
Continuous
 62
     3
370
     9
100
AcDbLine
 10
-4.295307881123165
 20
908.7325967324748
 30
0.0
 11
-4.295307881123165
 21
896.7327550939613
 31
0.0
  0
LINE
  5
27D
330
1F
100
AcDbEntity
  8
1-2
  6
Continuous
 62
     3
370
     9
100
AcDbLine
 10
-1664.294845993454
 20
870.7327682907519
 30
0.0
 11
-1664.294845993454
 21
882.7326099292654
 31
0.0
  0
LINE
  5
27E
330
1F
100
AcDbEntity
  8
1-2
  6
Continuous
 62
     3
370
     9
100
AcDbLine
 10
-4.295307881123165
 20
882.7326099292654
 30
0.0
 11
-4.295307881123165
 21
870.7327682907519
 31
0.0
  0
LINE
  5
27F
330
1F
100
AcDbEntity
  8
1-2
  6
Continuous
 62
     3
370
     9
100
AcDbLine
 10
-1664.294845993454
 20
844.7327814875425
 30
0.0
 11
-1664.294845993454
 21
856.7326231260561
 31
0.0
  0
LINE
  5
280
330
1F
100
AcDbEntity
  8
1-2
  6
Continuous
 62
     3
370
     9
100
AcDbLine
 10
-1664.294845993454
 20
818.7327946843328
 30
0.0
 11
-1664.294845993454
 21
830.7326363228464
 31
0.0
  0
LINE
  5
281
330
1F
100
AcDbEntity
  8
1-2
  6
Continuous
 62
     3
370
     9
100
AcDbLine
 10
-1664.294845993454
 20
792.7328078811234
 30
0.0
 11
-1664.294845993454
 21
804.732649519637
 31
0.0
  0
LINE
  5
282
330
1F
100
AcDbEntity
  8
1-2
  6
Continuous
 62
     3
370
     9
100
AcDbLine
 10
-1664.294845993454
 20
766.7328210779141
 30
0.0
 11
-1664.294845993454
 21
778.7326627164276
 31
0.0
  0
LINE
  5
283
330
1F
100
AcDbEntity
  8
1-2
  6
Continuous
 62
     3
370
     9
100
AcDbLine
 10
-1664.294845993454
 20
740.7328342747044
 30
0.0
 11
-1664.294845993454
 21
752.7326759132179
 31
0.0
  0
LINE
  5
284
330
1F
100
AcDbEntity
  8
1-2
  6
Continuous
 62
     3
370
     9
100
AcDbLine
 10
-1664.294845993454
 20
740.7328342747044
 30
0.0
 11
-1462.329761402027
 21
740.7328342747044
 31
0.0
  0
LINE
  5
285
330
1F
100
AcDbEntity
  8
1-2
  6
Continuous
 62
     3
370
     9
100
AcDbLine
 10
-1664.294845993454
 20
752.7326759132179
 30
0.0
 11
-1462.329761402027
 21
752.7326759132179
 31
0.0
  0
LINE
  5
286
330
1F
100
AcDbEntity
  8
1-2
  6
Continuous
 62
     3
370
     9
100
AcDbLine
 10
-1664.294845993454
 20
792.7328078811234
 30
0.0
 11
-867.8192138671875
 21
792.7328078811234
 31
0.0
  0
LINE
  5
287
330
1F
100
AcDbEntity
  8
1-2
  6
Continuous
 62
     3
370
     9
100
AcDbLine
 10
-1664.294845993454
 20
804.732649519637
 30
0.0
 11
-867.8192138671875
 21
804.732649519637
 31
0.0
  0
LINE
  5
288
330
1F
100
AcDbEntity
  8
1-2
  6
Continuous
 62
     3
370
     9
100
AcDbLine
 10
-1664.294845993454
 20
766.7328210779141
 30
0.0
 11
-1127.259125580659
 21
766.7328210779141
 31
0.0
  0
LINE
  5
289
330
1F
100
AcDbEntity
  8
1-2
  6
Continuous
 62
     3
370
     9
100
AcDbLine
 10
-1664.294845993454
 20
778.7326627164276
 30
0.0
 11
-1127.259125580659
 21
778.7326627164276
 31
0.0
  0
LINE
  5
28A
330
1F
100
AcDbEntity
  8
1-1
  6
JWW_CENTER2
 62
     2
370
     9
100
AcDbLine
 10
-924.9382225242821
 20
-31.41500936972108
 30
0.0
 11
-886.4336168443833
 21
390.3837791649073
 31
0.0
  0
LINE
  5
28B
330
1F
100
AcDbEntity
  8
1-1
  6
JWW_CENTER2
 62
     2
370
     9
100
AcDbLine
 10
-909.0045825855151
 20
-32.86946064717057
 30
0.0
 11
-870.4999769056166
 21
388.9288330078125
 31
0.0
  0
LINE
  5
28C
330
1F
100
AcDbEntity
  8
1-1
  6
JWW_CENTER2
 62
     2
370
     9
100
AcDbLine
 10
-852.3413580817145
 20
763.8491573849242
 30
0.0
 11
-811.3202894056164
 21
1213.218185837205
 31
0.0
  0
LINE
  5
28D
330
1F
100
AcDbEntity
  8
1-1
  6
JWW_CENTER2
 62
     2
370
     9
100
AcDbLine
 10
-836.4077181429475
 20
762.3947061074748
 30
0.0
 11
-795.3864020270271
 21
1211.763734559755
 31
0.0
  0
LINE
  5
28E
330
1F
100
AcDbEntity
  8
1-1
  6
Continuous
 62
     2
370
     9
100
AcDbLine
 10
-1668.294958166174
 20
1172.732082057644
 30
0.0
 11
-815.0160505964948
 21
1172.732082057644
 31
0.0
  0
LINE
  5
28F
330
1F
100
AcDbEntity
  8
1-1
  6
Continuous
 62
     2
370
     9
100
AcDbLine
 10
-1684.294911977407
 20
1188.732530748522
 30
0.0
 11
-813.5554133234797
 21
1188.732530748522
 31
0.0
  0
LINE
  5
290
330
1F
100
AcDbEntity
  8
1-2
  6
Continuous
 62
     3
370
     9
100
AcDbLine
 10
-1664.294845993454
 20
1168.732464764569
 30
0.0
 11
-815.3812717747044
 21
1168.732464764569
 31
0.0
  0
LINE
  5
291
330
1F
100
AcDbEntity
  8
1-2
  6
Continuous
 62
     3
370
     9
100
AcDbLine
 10
-1664.294845993454
 20
1156.732623126056
 30
0.0
 11
-816.4766878695102
 21
1156.732623126056
 31
0.0
  0
LINE
  5
292
330
1F
100
AcDbEntity
  8
1-2
  6
Continuous
 62
     3
370
     9
100
AcDbLine
 10
-1664.294845993454
 20
1142.73247796136
 30
0.0
 11
-817.7547145534206
 21
1142.73247796136
 31
0.0
  0
LINE
  5
293
330
1F
100
AcDbEntity
  8
1-2
  6
Continuous
 62
     3
370
     9
100
AcDbLine
 10
-1664.294845993454
 20
1130.732636322846
 30
0.0
 11
-818.8501306482262
 21
1130.732636322846
 31
0.0
  0
LINE
  5
294
330
1F
100
AcDbEntity
  8
1-2
  6
Continuous
 62
     3
370
     9
100
AcDbLine
 10
-1664.294845993454
 20
1116.73249115815
 30
0.0
 11
-820.1281573321367
 21
1116.73249115815
 31
0.0
  0
LINE
  5
295
330
1F
100
AcDbEntity
  8
1-2
  6
Continuous
 62
     3
370
     9
100
AcDbLine
 10
-1664.294845993454
 20
1104.732649519637
 30
0.0
 11
-821.2235734269425
 21
1104.732649519637
 31
0.0
  0
LINE
  5
296
330
1F
100
AcDbEntity
  8
1-2
  6
Continuous
 62
     3
370
     9
100
AcDbLine
 10
-1664.294845993454
 20
1090.732504354941
 30
0.0
 11
-822.501600110853
 21
1090.732504354941
 31
0.0
  0
LINE
  5
297
330
1F
100
AcDbEntity
  8
1-2
  6
Continuous
 62
     3
370
     9
100
AcDbLine
 10
-1664.294845993454
 20
1078.732662716428
 30
0.0
 11
-823.5970162056587
 21
1078.732662716428
 31
0.0
  0
LINE
  5
298
330
1F
100
AcDbEntity
  8
1-2
  6
Continuous
 62
     3
370
     9
100
AcDbLine
 10
-1664.294845993454
 20
1064.732517551731
 30
0.0
 11
-824.8750428895692
 21
1064.732517551731
 31
0.0
  0
LINE
  5
299
330
1F
100
AcDbEntity
  8
1-2
  6
Continuous
 62
     3
370
     9
100
AcDbLine
 10
-1664.294845993454
 20
1052.732675913218
 30
0.0
 11
-825.970458984375
 21
1052.732675913218
 31
0.0
  0
LINE
  5
29A
330
1F
100
AcDbEntity
  8
1-2
  6
Continuous
 62
     3
370
     9
100
AcDbLine
 10
-1664.294845993454
 20
1038.732530748522
 30
0.0
 11
-827.2484856682854
 21
1038.732530748522
 31
0.0
  0
LINE
  5
29B
330
1F
100
AcDbEntity
  8
1-2
  6
Continuous
 62
     3
370
     9
100
AcDbLine
 10
-1664.294845993454
 20
1026.732689110009
 30
0.0
 11
-828.3439017630911
 21
1026.732689110009
 31
0.0
  0
LINE
  5
29C
330
1F
100
AcDbEntity
  8
1-2
  6
Continuous
 62
     3
370
     9
100
AcDbLine
 10
-1664.294845993454
 20
1012.732543945312
 30
0.0
 11
-829.6219284470016
 21
1012.732543945312
 31
0.0
  0
LINE
  5
29D
330
1F
100
AcDbEntity
  8
1-2
  6
Continuous
 62
     3
370
     9
100
AcDbLine
 10
-1664.294845993454
 20
1000.732702306799
 30
0.0
 11
-830.7173445418074
 21
1000.732702306799
 31
0.0
  0
LINE
  5
29E
330
1F
100
AcDbEntity
  8
1-2
  6
Continuous
 62
     3
370
     9
100
AcDbLine
 10
-1664.294845993454
 20
986.7325571421031
 30
0.0
 11
-831.9953712257178
 21
986.7325571421031
 31
0.0
  0
LINE
  5
29F
330
1F
100
AcDbEntity
  8
1-2
  6
Continuous
 62
     3
370
     9
100
AcDbLine
 10
-1664.294845993454
 20
974.7327155035896
 30
0.0
 11
-833.0907873205235
 21
974.7327155035896
 31
0.0
  0
LINE
  5
2A0
330
1F
100
AcDbEntity
  8
1-2
  6
Continuous
 62
     3
370
     9
100
AcDbLine
 10
-1664.294845993454
 20
960.7325703388938
 30
0.0
 11
-834.3688140044342
 21
960.7325703388938
 31
0.0
  0
LINE
  5
2A1
330
1F
100
AcDbEntity
  8
1-2
  6
Continuous
 62
     3
370
     9
100
AcDbLine
 10
-1664.294845993454
 20
948.7327287003802
 30
0.0
 11
-835.4642300992398
 21
948.7327287003802
 31
0.0
  0
LINE
  5
2A2
330
1F
100
AcDbEntity
  8
1-2
  6
Continuous
 62
     3
370
     9
100
AcDbLine
 10
-1664.294845993454
 20
934.7325835356842
 30
0.0
 11
-836.7422567831502
 21
934.7325835356842
 31
0.0
  0
LINE
  5
2A3
330
1F
100
AcDbEntity
  8
1-2
  6
Continuous
 62
     3
370
     9
100
AcDbLine
 10
-1664.294845993454
 20
922.7327418971709
 30
0.0
 11
-837.837672877956
 21
922.7327418971709
 31
0.0
  0
LINE
  5
2A4
330
1F
100
AcDbEntity
  8
1-2
  6
Continuous
 62
     3
370
     9
100
AcDbLine
 10
-1664.294845993454
 20
908.7325967324748
 30
0.0
 11
-839.1156995618666
 21
908.7325967324748
 31
0.0
  0
LINE
  5
2A5
330
1F
100
AcDbEntity
  8
1-2
  6
Continuous
 62
     3
370
     9
100
AcDbLine
 10
-1664.294845993454
 20
896.7327550939613
 30
0.0
 11
-840.2111156566723
 21
896.7327550939613
 31
0.0
  0
LINE
  5
2A6
330
1F
100
AcDbEntity
  8
1-2
  6
Continuous
 62
     3
370
     9
100
AcDbLine
 10
-1664.294845993454
 20
882.7326099292654
 30
0.0
 11
-841.4891423405827
 21
882.7326099292654
 31
0.0
  0
LINE
  5
2A7
330
1F
100
AcDbEntity
  8
1-2
  6
Continuous
 62
     3
370
     9
100
AcDbLine
 10
-1664.294845993454
 20
870.7327682907519
 30
0.0
 11
-842.5843109955657
 21
870.7327682907519
 31
0.0
  0
LINE
  5
2A8
330
1F
100
AcDbEntity
  8
1-2
  6
Continuous
 62
     3
370
     9
100
AcDbLine
 10
-1664.294845993454
 20
856.7326231260561
 30
0.0
 11
-843.862585119299
 21
856.7326231260561
 31
0.0
  0
LINE
  5
2A9
330
1F
100
AcDbEntity
  8
1-2
  6
Continuous
 62
     3
370
     9
100
AcDbLine
 10
-1664.294845993454
 20
844.7327814875425
 30
0.0
 11
-844.9580012141047
 21
844.7327814875425
 31
0.0
  0
LINE
  5
2AA
330
1F
100
AcDbEntity
  8
1-2
  6
Continuous
 62
     3
370
     9
100
AcDbLine
 10
-1664.294845993454
 20
818.7327946843328
 30
0.0
 11
-847.3314439928208
 21
818.7327946843328
 31
0.0
  0
LINE
  5
2AB
330
1F
100
AcDbEntity
  8
1-2
  6
Continuous
 62
     3
370
     9
100
AcDbLine
 10
-1664.294845993454
 20
830.7326363228464
 30
0.0
 11
-846.2360278980151
 21
830.7326363228464
 31
0.0
  0
LINE
  5
2AC
330
1F
100
AcDbEntity
  8
1-1
  6
Continuous
 62
     2
370
     9
100
AcDbLine
 10
-797.4888981999578
 20
1188.732530748522
 30
0.0
 11
15.70451066300677
 21
1188.732530748522
 31
0.0
  0
LINE
  5
2AD
330
1F
100
AcDbEntity
  8
1-1
  6
Continuous
 62
     2
370
     9
100
AcDbLine
 10
-798.9492880331502
 20
1172.732082057644
 30
0.0
 11
-0.2951957084036394
 21
1172.732082057644
 31
0.0
  0
LINE
  5
2AE
330
1F
100
AcDbEntity
  8
1-2
  6
Continuous
 62
     3
370
     9
100
AcDbLine
 10
-799.3145092113596
 20
1168.732464764569
 30
0.0
 11
-4.295307881123165
 21
1168.732464764569
 31
0.0
  0
LINE
  5
2AF
330
1F
100
AcDbEntity
  8
1-2
  6
Continuous
 62
     3
370
     9
100
AcDbLine
 10
-800.410172745988
 20
1156.732623126056
 30
0.0
 11
-4.295307881123165
 21
1156.732623126056
 31
0.0
  0
LINE
  5
2B0
330
1F
100
AcDbEntity
  8
1-2
  6
Continuous
 62
     3
370
     9
100
AcDbLine
 10
-801.687951990076
 20
1142.73247796136
 30
0.0
 11
-4.295307881123165
 21
1142.73247796136
 31
0.0
  0
LINE
  5
2B1
330
1F
100
AcDbEntity
  8
1-2
  6
Continuous
 62
     3
370
     9
100
AcDbLine
 10
-802.7836155247044
 20
1130.732636322846
 30
0.0
 11
-4.295307881123165
 21
1130.732636322846
 31
0.0
  0
LINE
  5
2B2
330
1F
100
AcDbEntity
  8
1-2
  6
Continuous
 62
     3
370
     9
100
AcDbLine
 10
-804.0613947687922
 20
1116.73249115815
 30
0.0
 11
-4.295307881123165
 21
1116.73249115815
 31
0.0
  0
LINE
  5
2B3
330
1F
100
AcDbEntity
  8
1-2
  6
Continuous
 62
     3
370
     9
100
AcDbLine
 10
-805.1570583034206
 20
1104.732649519637
 30
0.0
 11
-4.295307881123165
 21
1104.732649519637
 31
0.0
  0
LINE
  5
2B4
330
1F
100
AcDbEntity
  8
1-2
  6
Continuous
 62
     3
370
     9
100
AcDbLine
 10
-806.4348375475083
 20
1090.732504354941
 30
0.0
 11
-4.295307881123165
 21
1090.732504354941
 31
0.0
  0
LINE
  5
2B5
330
1F
100
AcDbEntity
  8
1-2
  6
Continuous
 62
     3
370
     9
100
AcDbLine
 10
-807.5305010821367
 20
1078.732662716428
 30
0.0
 11
-4.295307881123165
 21
1078.732662716428
 31
0.0
  0
LINE
  5
2B6
330
1F
100
AcDbEntity
  8
1-2
  6
Continuous
 62
     3
370
     9
100
AcDbLine
 10
-808.8082803262245
 20
1064.732517551731
 30
0.0
 11
-4.295307881123165
 21
1064.732517551731
 31
0.0
  0
LINE
  5
2B7
330
1F
100
AcDbEntity
  8
1-2
  6
Continuous
 62
     3
370
     9
100
AcDbLine
 10
-809.9039438608529
 20
1052.732675913218
 30
0.0
 11
-4.295307881123165
 21
1052.732675913218
 31
0.0
  0
LINE
  5
2B8
330
1F
100
AcDbEntity
  8
1-2
  6
Continuous
 62
     3
370
     9
100
AcDbLine
 10
-811.1817231049408
 20
1038.732530748522
 30
0.0
 11
-4.295307881123165
 21
1038.732530748522
 31
0.0
  0
LINE
  5
2B9
330
1F
100
AcDbEntity
  8
1-2
  6
Continuous
 62
     3
370
     9
100
AcDbLine
 10
-812.2773866395693
 20
1026.732689110009
 30
0.0
 11
-4.295307881123165
 21
1026.732689110009
 31
0.0
  0
LINE
  5
2BA
330
1F
100
AcDbEntity
  8
1-2
  6
Continuous
 62
     3
370
     9
100
AcDbLine
 10
-813.5551658836571
 20
1012.732543945312
 30
0.0
 11
-4.295307881123165
 21
1012.732543945312
 31
0.0
  0
LINE
  5
2BB
330
1F
100
AcDbEntity
  8
1-2
  6
Continuous
 62
     3
370
     9
100
AcDbLine
 10
-815.9286086623731
 20
986.7325571421031
 30
0.0
 11
-4.295307881123165
 21
986.7325571421031
 31
0.0
  0
LINE
  5
2BC
330
1F
100
AcDbEntity
  8
1-2
  6
Continuous
 62
     3
370
     9
100
AcDbLine
 10
-817.0242721970016
 20
974.7327155035896
 30
0.0
 11
-4.295307881123165
 21
974.7327155035896
 31
0.0
  0
LINE
  5
2BD
330
1F
100
AcDbEntity
  8
1-2
  6
Continuous
 62
     3
370
     9
100
AcDbLine
 10
-818.3020514410896
 20
960.7325703388938
 30
0.0
 11
-4.295307881123165
 21
960.7325703388938
 31
0.0
  0
LINE
  5
2BE
330
1F
100
AcDbEntity
  8
1-2
  6
Continuous
 62
     3
370
     9
100
AcDbLine
 10
-819.3977149757179
 20
948.7327287003802
 30
0.0
 11
-4.295307881123165
 21
948.7327287003802
 31
0.0
  0
LINE
  5
2BF
330
1F
100
AcDbEntity
  8
1-2
  6
Continuous
 62
     3
370
     9
100
AcDbLine
 10
-820.6754942198057
 20
934.7325835356842
 30
0.0
 11
-4.295307881123165
 21
934.7325835356842
 31
0.0
  0
LINE
  5
2C0
330
1F
100
AcDbEntity
  8
1-2
  6
Continuous
 62
     3
370
     9
100
AcDbLine
 10
-821.7711577544342
 20
922.7327418971709
 30
0.0
 11
-4.295307881123165
 21
922.7327418971709
 31
0.0
  0
LINE
  5
2C1
330
1F
100
AcDbEntity
  8
1-2
  6
Continuous
 62
     3
370
     9
100
AcDbLine
 10
-823.0489369985219
 20
908.7325967324748
 30
0.0
 11
-4.295307881123165
 21
908.7325967324748
 31
0.0
  0
LINE
  5
2C2
330
1F
100
AcDbEntity
  8
1-2
  6
Continuous
 62
     3
370
     9
100
AcDbLine
 10
-824.1446005331502
 20
896.7327550939613
 30
0.0
 11
-4.295307881123165
 21
896.7327550939613
 31
0.0
  0
LINE
  5
2C3
330
1F
100
AcDbEntity
  8
1-2
  6
Continuous
 62
     3
370
     9
100
AcDbLine
 10
-825.4223797772381
 20
882.7326099292654
 30
0.0
 11
-4.295307881123165
 21
882.7326099292654
 31
0.0
  0
LINE
  5
2C4
330
1F
100
AcDbEntity
  8
1-2
  6
Continuous
 62
     3
370
     9
100
AcDbLine
 10
-826.5180433118666
 20
870.7327682907519
 30
0.0
 11
-4.295307881123165
 21
870.7327682907519
 31
0.0
  0
LINE
  5
2C5
330
1F
100
AcDbEntity
  8
1-2
  6
Continuous
 62
     3
370
     9
100
AcDbLine
 10
-831.264928869299
 20
818.7327946843328
 30
0.0
 11
-540.8490155194255
 21
818.7327946843328
 31
0.0
  0
LINE
  5
2C6
330
1F
100
AcDbEntity
  8
1-2
  6
Continuous
 62
     3
370
     9
100
AcDbLine
 10
-830.1692653346706
 20
830.7326363228464
 30
0.0
 11
-540.8490155194255
 21
830.7326363228464
 31
0.0
  0
LINE
  5
2C7
330
1F
100
AcDbEntity
  8
1-2
  6
Continuous
 62
     3
370
     9
100
AcDbLine
 10
-828.8914860905827
 20
844.7327814875425
 30
0.0
 11
-212.3058422191721
 21
844.7327814875425
 31
0.0
  0
LINE
  5
2C8
330
1F
100
AcDbEntity
  8
1-2
  6
Continuous
 62
     3
370
     9
100
AcDbLine
 10
-827.7958225559543
 20
856.7326231260561
 30
0.0
 11
-212.3058422191721
 21
856.7326231260561
 31
0.0
  0
LINE
  5
2C9
330
1F
100
AcDbEntity
  8
1-2
  6
Continuous
 62
     3
370
     9
100
AcDbLine
 10
-814.6508294182854
 20
1000.732702306799
 30
0.0
 11
-4.295307881123165
 21
1000.732702306799
 31
0.0
  0
LINE
  5
2CA
330
1F
100
AcDbEntity
  8
1-4
  6
Continuous
 62
     7
370
     9
100
AcDbLine
 10
-700.2947833086992
 20
-104.8195173933698
 30
0.0
 11
-360.2948987806164
 21
-104.8195173933698
 31
0.0
  0
LINE
  5
2CB
330
1F
100
AcDbEntity
  8
1-4
  6
Continuous
 62
     7
370
     9
100
AcDbLine
 10
-700.2947833086992
 20
5.732636322846361
 30
0.0
 11
-700.2947833086992
 21
-107.8194778029982
 31
0.0
  0
LINE
  5
2CC
330
1F
100
AcDbEntity
  8
1-4
  6
Continuous
 62
     7
370
     9
100
AcDbLine
 10
-1664.294845993454
 20
-170.8691241290117
 30
0.0
 11
-4.295307881123165
 21
-170.8691241290117
 31
0.0
  0
LINE
  5
2CD
330
1F
100
AcDbEntity
  8
1-4
  6
Continuous
 62
     7
370
     9
100
AcDbLine
 10
-1604.294895481419
 20
5.732636322846361
 30
0.0
 11
-1604.295142921242
 21
-173.8690845386401
 31
0.0
  0
LINE
  5
2CE
330
1F
100
AcDbEntity
  8
1-4
  6
Continuous
 62
     7
370
     9
100
AcDbLine
 10
-1308.294760214316
 20
5.732636322846361
 30
0.0
 11
-1308.294760214316
 21
-173.8690845386401
 31
0.0
  0
LINE
  5
2CF
330
1F
100
AcDbEntity
  8
1-4
  6
Continuous
 62
     7
370
     9
100
AcDbLine
 10
-64.29525839315858
 20
5.732636322846361
 30
0.0
 11
-64.29525839315858
 21
-173.8690845386401
 31
0.0
  0
LINE
  5
2D0
330
1F
100
AcDbEntity
  8
1-4
  6
Continuous
 62
     7
370
     9
100
AcDbLine
 10
-1668.294958166174
 20
-10.26731748838671
 30
0.0
 11
-1668.294958166174
 21
-236.9810856999577
 31
0.0
  0
LINE
  5
2D1
330
1F
100
AcDbEntity
  8
1-4
  6
Continuous
 62
     7
370
     9
100
AcDbLine
 10
-1714.564225480363
 20
-233.9811252903293
 30
0.0
 11
47.04697067673152
 21
-233.9811252903293
 31
0.0
  0
LINE
  5
2D2
330
1F
100
AcDbEntity
  8
1-4
  6
Continuous
 62
     7
370
     9
100
AcDbLine
 10
-0.2951957084036394
 20
-10.26731748838671
 30
0.0
 11
-0.2951957084036394
 21
-236.9810856999577
 31
0.0
  0
LINE
  5
2D3
330
1F
100
AcDbEntity
  8
1-4
  6
Continuous
 62
     7
370
     9
100
AcDbLine
 10
-1684.294911977407
 20
-295.8222755225928
 30
0.0
 11
15.70451066300677
 21
-295.8222755225928
 31
0.0
  0
LINE
  5
2D4
330
1F
100
AcDbEntity
  8
1-4
  6
Continuous
 62
     7
370
     9
100
AcDbLine
 10
-1664.294845993454
 20
-6.267205315667184
 30
0.0
 11
-1664.294845993454
 21
-236.9810856999577
 31
0.0
  0
LINE
  5
2D5
330
1F
100
AcDbEntity
  8
1-4
  6
Continuous
 62
     7
370
     9
100
AcDbLine
 10
-1684.294911977407
 20
-26.26727129961978
 30
0.0
 11
-1684.294911977407
 21
-298.8222359322212
 31
0.0
  0
LINE
  5
2D6
330
1F
100
AcDbEntity
  8
1-4
  6
Continuous
 62
     7
370
     9
100
AcDbLine
 10
-4.295307881123165
 20
-6.267205315667184
 30
0.0
 11
-4.295307881123165
 21
-236.9810856999577
 31
0.0
  0
LINE
  5
2D7
330
1F
100
AcDbEntity
  8
1-4
  6
Continuous
 62
     7
370
     9
100
AcDbLine
 10
15.70451066300677
 20
-26.26727129961978
 30
0.0
 11
15.70451066300677
 21
-298.8222359322212
 31
0.0
  0
LINE
  5
2D8
330
1F
100
AcDbEntity
  8
1-4
  6
Continuous
 62
     7
370
     9
100
AcDbLine
 10
-360.2948987806164
 20
5.732636322846361
 30
0.0
 11
-360.2948987806164
 21
-173.8690845386401
 31
0.0
  0
LINE
  5
2D9
330
1F
100
AcDbEntity
  8
1-4
  6
Continuous
 62
     7
370
     9
100
AcDbLine
 10
14.70485377956095
 20
4.732484559755221
 30
0.0
 11
186.8544295027451
 21
4.732484559755221
 31
0.0
  0
LINE
  5
2DA
330
1F
100
AcDbEntity
  8
1-4
  6
Continuous
 62
     7
370
     9
100
AcDbLine
 10
183.8544690931167
 20
-40.87017987225494
 30
0.0
 11
183.8544690931167
 21
1216.895141601562
 31
0.0
  0
LINE
  5
2DB
330
1F
100
AcDbEntity
  8
1-4
  6
Continuous
 62
     7
370
     9
100
AcDbLine
 10
10.70474160684142
 20
8.732596732474747
 30
0.0
 11
186.8544295027451
 21
8.732596732474747
 31
0.0
  0
LINE
  5
2DC
330
1F
100
AcDbEntity
  8
1-4
  6
Continuous
 62
     7
370
     9
100
AcDbLine
 10
10.70474160684142
 20
1168.732464764569
 30
0.0
 11
186.8544295027451
 21
1168.732464764569
 31
0.0
  0
LINE
  5
2DD
330
1F
100
AcDbEntity
  8
1-4
  6
Continuous
 62
     7
370
     9
100
AcDbLine
 10
14.70485377956095
 20
1172.732082057644
 30
0.0
 11
186.8544295027451
 21
1172.732082057644
 31
0.0
  0
LINE
  5
2DE
330
1F
100
AcDbEntity
  8
1-4
  6
Continuous
 62
     7
370
     9
100
AcDbLine
 10
251.5396530563768
 20
-11.26746925147785
 30
0.0
 11
251.5396530563768
 21
1188.732530748522
 31
0.0
  0
LINE
  5
2DF
330
1F
100
AcDbEntity
  8
1-4
  6
Continuous
 62
     7
370
     9
100
AcDbLine
 10
30.70480759079402
 20
1188.732530748522
 30
0.0
 11
254.5396134660052
 21
1188.732530748522
 31
0.0
  0
LINE
  5
2E0
330
1F
100
AcDbEntity
  8
1-4
  6
Continuous
 62
     7
370
     9
100
AcDbLine
 10
30.70480759079402
 20
-11.26746925147785
 30
0.0
 11
254.5396134660052
 21
-11.26746925147785
 31
0.0
  0
LINE
  5
2E1
330
1F
100
AcDbEntity
  8
2-0
  6
Continuous
 62
     3
370
     9
100
AcDbLine
 10
-1548.755542652027
 20
-778.2715338629645
 30
0.0
 11
-1548.755542652027
 21
-548.2712699271536
 31
0.0
  0
LINE
  5
2E2
330
1F
100
AcDbEntity
  8
2-0
  6
Continuous
 62
     3
370
     9
100
AcDbLine
 10
-1608.75524572424
 20
-761.0630839579813
 30
0.0
 11
-1608.75524572424
 21
-531.0628200221706
 31
0.0
  0
LINE
  5
2E3
330
1F
100
AcDbEntity
  8
2-5
  6
Continuous
 62
     7
370
     9
100
AcDbLine
 10
-1796.382677232897
 20
-839.0674982844172
 30
0.0
 11
-1358.347629856419
 21
-839.0674982844172
 31
0.0
  0
LINE
  5
2E4
330
1F
100
AcDbEntity
  8
2-4
  6
Continuous
 62
     7
370
     9
100
AcDbLine
 10
-1608.75524572424
 20
-501.1602123363598
 30
0.0
 11
-1548.755047772382
 21
-501.1602123363598
 31
0.0
  0
LINE
  5
2E5
330
1F
100
AcDbEntity
  8
2-4
  6
Continuous
 62
     7
370
     9
100
AcDbLine
 10
-1608.75524572424
 20
-523.794522672086
 30
0.0
 11
-1608.75524572424
 21
-498.159757047086
 31
0.0
  0
LINE
  5
2E6
330
1F
100
AcDbEntity
  8
2-4
  6
Continuous
 62
     7
370
     9
100
AcDbLine
 10
-1548.755047772382
 20
-540.5650040910051
 30
0.0
 11
-1548.755047772382
 21
-498.159757047086
 31
0.0
  0
LINE
  5
2E7
330
1F
100
AcDbEntity
  8
2-5
  6
Continuous
 62
     7
370
     9
100
AcDbLine
 10
-1552.23578375739
 20
-667.1453197582348
 30
0.0
 11
-1505.553786819046
 21
-586.2899037953969
 31
0.0
  0
LINE
  5
2E8
330
1F
100
AcDbEntity
  8
2-5
  6
Continuous
 62
     7
370
     9
100
AcDbLine
 10
-1552.23578375739
 20
-667.1453197582348
 30
0.0
 11
-1542.668523015202
 21
-644.0485443940033
 31
0.0
  0
LINE
  5
2E9
330
1F
100
AcDbEntity
  8
2-5
  6
Continuous
 62
     7
370
     9
100
AcDbLine
 10
-1552.23578375739
 20
-667.1453197582348
 30
0.0
 11
-1537.016750026394
 21
-647.3117807749155
 31
0.0
  0
LINE
  5
2EA
330
1F
100
AcDbEntity
  8
2-5
  6
Continuous
 62
     7
370
     9
100
AcDbLine
 10
-1505.553786819046
 20
-586.2899037953969
 30
0.0
 11
-1159.151396880279
 21
-586.2899037953969
 31
0.0
  0
LINE
  5
2EB
330
1F
100
AcDbEntity
  8
2-2
  6
Continuous
 62
     3
370
     9
100
AcDbLine
 10
-1608.75524572424
 20
-577.3009099187077
 30
0.0
 11
-1569.723345782306
 21
-544.5497749947212
 31
0.0
  0
LINE
  5
2EC
330
1F
100
AcDbEntity
  8
2-2
  6
Continuous
 62
     3
370
     9
100
AcDbLine
 10
-1608.75524572424
 20
-556.793592298353
 30
0.0
 11
-1583.473081846495
 21
-535.5785967852617
 31
0.0
  0
LINE
  5
2ED
330
1F
100
AcDbEntity
  8
2-2
  6
Continuous
 62
     3
370
     9
100
AcDbLine
 10
-1559.40411541913
 20
-547.8585403029983
 30
0.0
 11
-1548.755542652027
 21
-556.793592298353
 31
0.0
  0
LINE
  5
2EE
330
1F
100
AcDbEntity
  8
2-2
  6
Continuous
 62
     3
370
     9
100
AcDbLine
 10
-1572.930908203125
 20
-772.8263731260557
 30
0.0
 11
-1548.755542652027
 21
-752.5407615867821
 31
0.0
  0
LINE
  5
2EF
330
1F
100
AcDbEntity
  8
2-2
  6
Continuous
 62
     3
370
     9
100
AcDbLine
 10
-1586.782094594595
 20
-763.940809095228
 30
0.0
 11
-1548.755542652027
 21
-732.0324542071369
 31
0.0
  0
LINE
  5
2F0
330
1F
100
AcDbEntity
  8
2-2
  6
Continuous
 62
     3
370
     9
100
AcDbLine
 10
-1608.75524572424
 20
-670.5095115867821
 30
0.0
 11
-1548.755542652027
 21
-720.8555974187077
 31
0.0
  0
LINE
  5
2F1
330
1F
100
AcDbEntity
  8
2-2
  6
Continuous
 62
     3
370
     9
100
AcDbLine
 10
-1608.75524572424
 20
-650.0012042071367
 30
0.0
 11
-1548.755542652027
 21
-700.3477849187077
 31
0.0
  0
LINE
  5
2F2
330
1F
100
AcDbEntity
  8
2-2
  6
Continuous
 62
     3
370
     9
100
AcDbLine
 10
-1608.75524572424
 20
-629.4936391469594
 30
0.0
 11
-1548.755542652027
 21
-679.8392300992398
 31
0.0
  0
LINE
  5
2F3
330
1F
100
AcDbEntity
  8
2-2
  6
Continuous
 62
     3
370
     9
100
AcDbLine
 10
-1608.75524572424
 20
-691.0170766469594
 30
0.0
 11
-1548.755542652027
 21
-741.3631624788852
 31
0.0
  0
LINE
  5
2F4
330
1F
100
AcDbEntity
  8
2-2
  6
Continuous
 62
     3
370
     9
100
AcDbLine
 10
-1608.75524572424
 20
-711.5251365867821
 30
0.0
 11
-1548.755542652027
 21
-761.8707275390625
 31
0.0
  0
LINE
  5
2F5
330
1F
100
AcDbEntity
  8
2-2
  6
Continuous
 62
     3
370
     9
100
AcDbLine
 10
-1608.75524572424
 20
-608.9863215266047
 30
0.0
 11
-1548.755542652027
 21
-659.3319124788852
 31
0.0
  0
LINE
  5
2F6
330
1F
100
AcDbEntity
  8
2-2
  6
Continuous
 62
     3
370
     9
100
AcDbLine
 10
-1608.75524572424
 20
-588.4787564664273
 30
0.0
 11
-1548.755542652027
 21
-638.8243474187077
 31
0.0
  0
LINE
  5
2F7
330
1F
100
AcDbEntity
  8
2-2
  6
Continuous
 62
     3
370
     9
100
AcDbLine
 10
-1608.75524572424
 20
-567.9704490867821
 30
0.0
 11
-1548.755542652027
 21
-618.3160400390625
 31
0.0
  0
LINE
  5
2F8
330
1F
100
AcDbEntity
  8
2-2
  6
Continuous
 62
     3
370
     9
100
AcDbLine
 10
-1608.75524572424
 20
-547.4626365867821
 30
0.0
 11
-1548.755542652027
 21
-597.8087224187077
 31
0.0
  0
LINE
  5
2F9
330
1F
100
AcDbEntity
  8
2-2
  6
Continuous
 62
     3
370
     9
100
AcDbLine
 10
-1608.75524572424
 20
-618.3167823585303
 30
0.0
 11
-1548.755542652027
 21
-567.9704490867821
 31
0.0
  0
LINE
  5
2FA
330
1F
100
AcDbEntity
  8
2-2
  6
Continuous
 62
     3
370
     9
100
AcDbLine
 10
-1608.75524572424
 20
-638.8243474187077
 30
0.0
 11
-1548.755542652027
 21
-588.4787564664273
 31
0.0
  0
LINE
  5
2FB
330
1F
100
AcDbEntity
  8
2-2
  6
Continuous
 62
     3
370
     9
100
AcDbLine
 10
-1608.75524572424
 20
-659.3319124788852
 30
0.0
 11
-1548.755542652027
 21
-608.9863215266047
 31
0.0
  0
LINE
  5
2FC
330
1F
100
AcDbEntity
  8
2-2
  6
Continuous
 62
     3
370
     9
100
AcDbLine
 10
-1608.75524572424
 20
-679.8392300992398
 30
0.0
 11
-1548.755542652027
 21
-629.4936391469594
 31
0.0
  0
LINE
  5
2FD
330
1F
100
AcDbEntity
  8
2-2
  6
Continuous
 62
     3
370
     9
100
AcDbLine
 10
-1608.75524572424
 20
-700.3477849187077
 30
0.0
 11
-1548.755542652027
 21
-650.0021939664273
 31
0.0
  0
LINE
  5
2FE
330
1F
100
AcDbEntity
  8
2-2
  6
Continuous
 62
     3
370
     9
100
AcDbLine
 10
-1608.75524572424
 20
-720.8555974187077
 30
0.0
 11
-1548.755542652027
 21
-670.5095115867821
 31
0.0
  0
LINE
  5
2FF
330
1F
100
AcDbEntity
  8
2-2
  6
Continuous
 62
     3
370
     9
100
AcDbLine
 10
-1608.75524572424
 20
-741.3631624788852
 30
0.0
 11
-1548.755542652027
 21
-691.0170766469594
 31
0.0
  0
LINE
  5
300
330
1F
100
AcDbEntity
  8
2-2
  6
Continuous
 62
     3
370
     9
100
AcDbLine
 10
-1608.75524572424
 20
-752.5412564664273
 30
0.0
 11
-1598.932874524916
 21
-760.7824871991131
 31
0.0
  0
LINE
  5
301
330
1F
100
AcDbEntity
  8
2-2
  6
Continuous
 62
     3
370
     9
100
AcDbLine
 10
-1607.601928710938
 20
-760.9024955130911
 30
0.0
 11
-1548.755542652027
 21
-711.5251365867821
 31
0.0
  0
LINE
  5
302
330
1F
100
AcDbEntity
  8
2-2
  6
Continuous
 62
     3
370
     9
100
AcDbLine
 10
-1608.75524572424
 20
-732.0324542071369
 30
0.0
 11
-1553.445764490076
 21
-778.4435045396959
 31
0.0
  0
LINE
  5
303
330
1F
100
AcDbEntity
  8
2-2
  6
Continuous
 62
     3
370
     9
100
AcDbLine
 10
-1555.098662505279
 20
-778.3717469911318
 30
0.0
 11
-1548.755542652027
 21
-773.04931640625
 31
0.0
  0
LINE
  5
304
330
1F
100
AcDbEntity
  8
2-2
  6
Continuous
 62
     3
370
     9
100
AcDbLine
 10
-1608.75524572424
 20
-597.8087224187077
 30
0.0
 11
-1549.823987806166
 21
-548.3598533836571
 31
0.0
  0
LINE
  5
305
330
1F
100
AcDbEntity
  8
2-2
  6
Continuous
 62
     3
370
     9
100
AcDbLine
 10
-1604.369374868032
 20
-530.6357388883023
 30
0.0
 11
-1548.755542652027
 21
-577.3009099187077
 31
0.0
  0
LINE
  5
306
330
1F
100
AcDbEntity
  8
D-2
  6
Continuous
 62
     3
370
     9
100
AcDbLine
 10
1206.678648252745
 20
991.6219680373734
 30
0.0
 11
1206.678648252745
 21
1026.621836069468
 31
0.0
  0
LINE
  5
307
330
1F
100
AcDbEntity
  8
D-2
  6
Continuous
 62
     3
370
     9
100
AcDbLine
 10
1206.678648252745
 20
926.6220010293498
 30
0.0
 11
1206.678648252745
 21
961.6218690614443
 31
0.0
  0
LINE
  5
308
330
1F
100
AcDbEntity
  8
D-2
  6
Continuous
 62
     3
370
     9
100
AcDbLine
 10
1206.678648252745
 20
861.622034021326
 30
0.0
 11
1206.678648252745
 21
896.6219020534209
 31
0.0
  0
LINE
  5
309
330
1F
100
AcDbEntity
  8
D-2
  6
Continuous
 62
     3
370
     9
100
AcDbLine
 10
1381.428816511825
 20
766.6219680373734
 30
0.0
 11
754.594710066512
 21
766.6219680373734
 31
0.0
  0
LINE
  5
30A
330
1F
100
AcDbEntity
  8
D-2
  6
Continuous
 62
     3
370
     9
100
AcDbLine
 10
1381.428816511825
 20
796.6215721336573
 30
0.0
 11
754.594710066512
 21
796.6215721336573
 31
0.0
  0
LINE
  5
30B
330
1F
100
AcDbEntity
  8
D-2
  6
Continuous
 62
     3
370
     9
100
AcDbLine
 10
1206.678648252745
 20
796.6215721336573
 30
0.0
 11
1206.678648252745
 21
831.6219350453971
 31
0.0
  0
LINE
  5
30C
330
1F
100
AcDbEntity
  8
D-2
  6
Continuous
 62
     3
370
     9
100
AcDbLine
 10
1206.678648252745
 20
731.622100005279
 30
0.0
 11
1206.678648252745
 21
766.6219680373734
 31
0.0
  0
LINE
  5
30D
330
1F
100
AcDbEntity
  8
D-2
  6
Continuous
 62
     3
370
     9
100
AcDbLine
 10
1206.678648252745
 20
666.6216381176099
 30
0.0
 11
1206.678648252745
 21
701.6215061497044
 31
0.0
  0
LINE
  5
30E
330
1F
100
AcDbEntity
  8
D-2
  6
Continuous
 62
     3
370
     9
100
AcDbLine
 10
1206.678648252745
 20
601.6221659892315
 30
0.0
 11
1206.678648252745
 21
636.622034021326
 31
0.0
  0
LINE
  5
30F
330
1F
100
AcDbEntity
  8
D-2
  6
Continuous
 62
     3
370
     9
100
AcDbLine
 10
1206.678648252745
 20
471.6217370935391
 30
0.0
 11
1206.678648252745
 21
506.6221000052789
 31
0.0
  0
LINE
  5
310
330
1F
100
AcDbEntity
  8
D-2
  6
Continuous
 62
     3
370
     9
100
AcDbLine
 10
1206.678648252745
 20
536.6217041015625
 30
0.0
 11
1206.678648252745
 21
571.6215721336573
 31
0.0
  0
LINE
  5
311
330
1F
100
AcDbEntity
  8
D-2
  6
Continuous
 62
     3
370
     9
100
AcDbLine
 10
1256.178489891259
 20
471.6217370935391
 30
0.0
 11
1256.178489891259
 21
506.6221000052789
 31
0.0
  0
LINE
  5
312
330
1F
100
AcDbEntity
  8
D-2
  6
Continuous
 62
     3
370
     9
100
AcDbLine
 10
1256.178489891259
 20
536.6217041015625
 30
0.0
 11
1256.178489891259
 21
571.6215721336573
 31
0.0
  0
LINE
  5
313
330
1F
100
AcDbEntity
  8
D-2
  6
Continuous
 62
     3
370
     9
100
AcDbLine
 10
1256.178489891259
 20
601.6221659892315
 30
0.0
 11
1256.178489891259
 21
636.622034021326
 31
0.0
  0
LINE
  5
314
330
1F
100
AcDbEntity
  8
D-2
  6
Continuous
 62
     3
370
     9
100
AcDbLine
 10
1256.178489891259
 20
991.6219680373734
 30
0.0
 11
1256.178489891259
 21
1026.621836069468
 31
0.0
  0
LINE
  5
315
330
1F
100
AcDbEntity
  8
D-2
  6
Continuous
 62
     3
370
     9
100
AcDbLine
 10
1256.178489891259
 20
926.6220010293498
 30
0.0
 11
1256.178489891259
 21
961.6218690614443
 31
0.0
  0
LINE
  5
316
330
1F
100
AcDbEntity
  8
D-2
  6
Continuous
 62
     3
370
     9
100
AcDbLine
 10
1256.178489891259
 20
861.622034021326
 30
0.0
 11
1256.178489891259
 21
896.6219020534209
 31
0.0
  0
LINE
  5
317
330
1F
100
AcDbEntity
  8
D-2
  6
Continuous
 62
     3
370
     9
100
AcDbLine
 10
1256.178489891259
 20
796.6215721336573
 30
0.0
 11
1256.178489891259
 21
831.6219350453971
 31
0.0
  0
LINE
  5
318
330
1F
100
AcDbEntity
  8
D-2
  6
Continuous
 62
     3
370
     9
100
AcDbLine
 10
1256.178489891259
 20
666.6216381176099
 30
0.0
 11
1256.178489891259
 21
701.6215061497044
 31
0.0
  0
LINE
  5
319
330
1F
100
AcDbEntity
  8
D-2
  6
Continuous
 62
     3
370
     9
100
AcDbLine
 10
1256.178489891259
 20
731.622100005279
 30
0.0
 11
1256.178489891259
 21
766.6219680373734
 31
0.0
  0
LINE
  5
31A
330
1F
100
AcDbEntity
  8
1-2
  6
Continuous
 62
     3
370
     9
100
AcDbLine
 10
-1614.194715345228
 20
1156.732623126056
 30
0.0
 11
-1614.194715345228
 21
1142.73247796136
 31
0.0
  0
LINE
  5
31B
330
1F
100
AcDbEntity
  8
1-2
  6
Continuous
 62
     3
370
     9
100
AcDbLine
 10
-1604.294648041596
 20
1156.732623126056
 30
0.0
 11
-1604.294648041596
 21
1142.73247796136
 31
0.0
  0
LINE
  5
31C
330
1F
100
AcDbEntity
  8
1-2
  6
Continuous
 62
     3
370
     9
100
AcDbLine
 10
-1594.394580737965
 20
1156.732623126056
 30
0.0
 11
-1594.394580737965
 21
1142.73247796136
 31
0.0
  0
LINE
  5
31D
330
1F
100
AcDbEntity
  8
1-2
  6
Continuous
 62
     3
370
     9
100
AcDbLine
 10
-1614.194715345228
 20
1130.732636322846
 30
0.0
 11
-1614.194715345228
 21
1116.73249115815
 31
0.0
  0
LINE
  5
31E
330
1F
100
AcDbEntity
  8
1-2
  6
Continuous
 62
     3
370
     9
100
AcDbLine
 10
-1604.294648041596
 20
1130.732636322846
 30
0.0
 11
-1604.294648041596
 21
1116.73249115815
 31
0.0
  0
LINE
  5
31F
330
1F
100
AcDbEntity
  8
1-2
  6
Continuous
 62
     3
370
     9
100
AcDbLine
 10
-1594.394580737965
 20
1130.732636322846
 30
0.0
 11
-1594.394580737965
 21
1116.73249115815
 31
0.0
  0
LINE
  5
320
330
1F
100
AcDbEntity
  8
1-2
  6
Continuous
 62
     3
370
     9
100
AcDbLine
 10
-1614.194715345228
 20
1104.732649519637
 30
0.0
 11
-1614.194715345228
 21
1090.732504354941
 31
0.0
  0
LINE
  5
321
330
1F
100
AcDbEntity
  8
1-2
  6
Continuous
 62
     3
370
     9
100
AcDbLine
 10
-1604.294648041596
 20
1104.732649519637
 30
0.0
 11
-1604.294648041596
 21
1090.732504354941
 31
0.0
  0
LINE
  5
322
330
1F
100
AcDbEntity
  8
1-2
  6
Continuous
 62
     3
370
     9
100
AcDbLine
 10
-1594.394580737965
 20
1104.732649519637
 30
0.0
 11
-1594.394580737965
 21
1090.732504354941
 31
0.0
  0
LINE
  5
323
330
1F
100
AcDbEntity
  8
1-2
  6
Continuous
 62
     3
370
     9
100
AcDbLine
 10
-1614.194715345228
 20
1078.732662716428
 30
0.0
 11
-1614.194715345228
 21
1064.732517551731
 31
0.0
  0
LINE
  5
324
330
1F
100
AcDbEntity
  8
1-2
  6
Continuous
 62
     3
370
     9
100
AcDbLine
 10
-1604.294648041596
 20
1078.732662716428
 30
0.0
 11
-1604.294648041596
 21
1064.732517551731
 31
0.0
  0
LINE
  5
325
330
1F
100
AcDbEntity
  8
1-2
  6
Continuous
 62
     3
370
     9
100
AcDbLine
 10
-1594.394580737965
 20
1078.732662716428
 30
0.0
 11
-1594.394580737965
 21
1064.732517551731
 31
0.0
  0
LINE
  5
326
330
1F
100
AcDbEntity
  8
1-2
  6
Continuous
 62
     3
370
     9
100
AcDbLine
 10
-1614.194715345228
 20
1052.732675913218
 30
0.0
 11
-1614.194715345228
 21
1038.732530748522
 31
0.0
  0
LINE
  5
327
330
1F
100
AcDbEntity
  8
1-2
  6
Continuous
 62
     3
370
     9
100
AcDbLine
 10
-1604.294648041596
 20
1052.732675913218
 30
0.0
 11
-1604.294648041596
 21
1038.732530748522
 31
0.0
  0
LINE
  5
328
330
1F
100
AcDbEntity
  8
1-2
  6
Continuous
 62
     3
370
     9
100
AcDbLine
 10
-1594.394580737965
 20
1052.732675913218
 30
0.0
 11
-1594.394580737965
 21
1038.732530748522
 31
0.0
  0
LINE
  5
329
330
1F
100
AcDbEntity
  8
1-2
  6
Continuous
 62
     3
370
     9
100
AcDbLine
 10
-1614.194715345228
 20
1026.732689110009
 30
0.0
 11
-1614.194715345228
 21
1012.732543945312
 31
0.0
  0
LINE
  5
32A
330
1F
100
AcDbEntity
  8
1-2
  6
Continuous
 62
     3
370
     9
100
AcDbLine
 10
-1604.294648041596
 20
1026.732689110009
 30
0.0
 11
-1604.294648041596
 21
1012.732543945312
 31
0.0
  0
LINE
  5
32B
330
1F
100
AcDbEntity
  8
1-2
  6
Continuous
 62
     3
370
     9
100
AcDbLine
 10
-1594.394580737965
 20
1026.732689110009
 30
0.0
 11
-1594.394580737965
 21
1012.732543945312
 31
0.0
  0
LINE
  5
32C
330
1F
100
AcDbEntity
  8
1-2
  6
Continuous
 62
     3
370
     9
100
AcDbLine
 10
-1614.194715345228
 20
1000.732702306799
 30
0.0
 11
-1614.194715345228
 21
986.7325571421031
 31
0.0
  0
LINE
  5
32D
330
1F
100
AcDbEntity
  8
1-2
  6
Continuous
 62
     3
370
     9
100
AcDbLine
 10
-1604.294648041596
 20
1000.732702306799
 30
0.0
 11
-1604.294648041596
 21
986.7325571421031
 31
0.0
  0
LINE
  5
32E
330
1F
100
AcDbEntity
  8
1-2
  6
Continuous
 62
     3
370
     9
100
AcDbLine
 10
-1594.394580737965
 20
1000.732702306799
 30
0.0
 11
-1594.394580737965
 21
986.7325571421031
 31
0.0
  0
LINE
  5
32F
330
1F
100
AcDbEntity
  8
1-2
  6
Continuous
 62
     3
370
     9
100
AcDbLine
 10
-1614.194715345228
 20
974.7327155035896
 30
0.0
 11
-1614.194715345228
 21
960.7325703388938
 31
0.0
  0
LINE
  5
330
330
1F
100
AcDbEntity
  8
1-2
  6
Continuous
 62
     3
370
     9
100
AcDbLine
 10
-1604.294648041596
 20
974.7327155035896
 30
0.0
 11
-1604.294648041596
 21
960.7325703388938
 31
0.0
  0
LINE
  5
331
330
1F
100
AcDbEntity
  8
1-2
  6
Continuous
 62
     3
370
     9
100
AcDbLine
 10
-1594.394580737965
 20
974.7327155035896
 30
0.0
 11
-1594.394580737965
 21
960.7325703388938
 31
0.0
  0
LINE
  5
332
330
1F
100
AcDbEntity
  8
1-2
  6
Continuous
 62
     3
370
     9
100
AcDbLine
 10
-1614.194715345228
 20
948.7327287003802
 30
0.0
 11
-1614.194715345228
 21
934.7325835356842
 31
0.0
  0
LINE
  5
333
330
1F
100
AcDbEntity
  8
1-2
  6
Continuous
 62
     3
370
     9
100
AcDbLine
 10
-1604.294648041596
 20
948.7327287003802
 30
0.0
 11
-1604.294648041596
 21
934.7325835356842
 31
0.0
  0
LINE
  5
334
330
1F
100
AcDbEntity
  8
1-2
  6
Continuous
 62
     3
370
     9
100
AcDbLine
 10
-1594.394580737965
 20
948.7327287003802
 30
0.0
 11
-1594.394580737965
 21
934.7325835356842
 31
0.0
  0
LINE
  5
335
330
1F
100
AcDbEntity
  8
1-2
  6
Continuous
 62
     3
370
     9
100
AcDbLine
 10
-1614.194715345228
 20
922.7327418971709
 30
0.0
 11
-1614.194715345228
 21
908.7325967324748
 31
0.0
  0
LINE
  5
336
330
1F
100
AcDbEntity
  8
1-2
  6
Continuous
 62
     3
370
     9
100
AcDbLine
 10
-1604.294648041596
 20
922.7327418971709
 30
0.0
 11
-1604.294648041596
 21
908.7325967324748
 31
0.0
  0
LINE
  5
337
330
1F
100
AcDbEntity
  8
1-2
  6
Continuous
 62
     3
370
     9
100
AcDbLine
 10
-1594.394580737965
 20
922.7327418971709
 30
0.0
 11
-1594.394580737965
 21
908.7325967324748
 31
0.0
  0
LINE
  5
338
330
1F
100
AcDbEntity
  8
1-2
  6
Continuous
 62
     3
370
     9
100
AcDbLine
 10
-1614.194715345228
 20
896.7327550939613
 30
0.0
 11
-1614.194715345228
 21
882.7326099292654
 31
0.0
  0
LINE
  5
339
330
1F
100
AcDbEntity
  8
1-2
  6
Continuous
 62
     3
370
     9
100
AcDbLine
 10
-1604.294648041596
 20
896.7327550939613
 30
0.0
 11
-1604.294648041596
 21
882.7326099292654
 31
0.0
  0
LINE
  5
33A
330
1F
100
AcDbEntity
  8
1-2
  6
Continuous
 62
     3
370
     9
100
AcDbLine
 10
-1594.394580737965
 20
896.7327550939613
 30
0.0
 11
-1594.394580737965
 21
882.7326099292654
 31
0.0
  0
LINE
  5
33B
330
1F
100
AcDbEntity
  8
1-2
  6
Continuous
 62
     3
370
     9
100
AcDbLine
 10
-1614.194715345228
 20
870.7327682907519
 30
0.0
 11
-1614.194715345228
 21
856.7326231260561
 31
0.0
  0
LINE
  5
33C
330
1F
100
AcDbEntity
  8
1-2
  6
Continuous
 62
     3
370
     9
100
AcDbLine
 10
-1604.294648041596
 20
870.7327682907519
 30
0.0
 11
-1604.294648041596
 21
856.7326231260561
 31
0.0
  0
LINE
  5
33D
330
1F
100
AcDbEntity
  8
1-2
  6
Continuous
 62
     3
370
     9
100
AcDbLine
 10
-1594.394580737965
 20
870.7327682907519
 30
0.0
 11
-1594.394580737965
 21
856.7326231260561
 31
0.0
  0
LINE
  5
33E
330
1F
100
AcDbEntity
  8
1-2
  6
Continuous
 62
     3
370
     9
100
AcDbLine
 10
-1614.194715345228
 20
844.7327814875425
 30
0.0
 11
-1614.194715345228
 21
830.7326363228464
 31
0.0
  0
LINE
  5
33F
330
1F
100
AcDbEntity
  8
1-2
  6
Continuous
 62
     3
370
     9
100
AcDbLine
 10
-1604.294648041596
 20
844.7327814875425
 30
0.0
 11
-1604.294648041596
 21
830.7326363228464
 31
0.0
  0
LINE
  5
340
330
1F
100
AcDbEntity
  8
1-2
  6
Continuous
 62
     3
370
     9
100
AcDbLine
 10
-1594.394580737965
 20
844.7327814875425
 30
0.0
 11
-1594.394580737965
 21
830.7326363228464
 31
0.0
  0
LINE
  5
341
330
1F
100
AcDbEntity
  8
1-2
  6
Continuous
 62
     3
370
     9
100
AcDbLine
 10
-1614.194715345228
 20
818.7327946843328
 30
0.0
 11
-1614.194715345228
 21
804.732649519637
 31
0.0
  0
LINE
  5
342
330
1F
100
AcDbEntity
  8
1-2
  6
Continuous
 62
     3
370
     9
100
AcDbLine
 10
-1604.294648041596
 20
818.7327946843328
 30
0.0
 11
-1604.294648041596
 21
804.732649519637
 31
0.0
  0
LINE
  5
343
330
1F
100
AcDbEntity
  8
1-2
  6
Continuous
 62
     3
370
     9
100
AcDbLine
 10
-1594.394580737965
 20
818.7327946843328
 30
0.0
 11
-1594.394580737965
 21
804.732649519637
 31
0.0
  0
LINE
  5
344
330
1F
100
AcDbEntity
  8
1-2
  6
Continuous
 62
     3
370
     9
100
AcDbLine
 10
-1614.194715345228
 20
792.7328078811234
 30
0.0
 11
-1614.194715345228
 21
778.7326627164276
 31
0.0
  0
LINE
  5
345
330
1F
100
AcDbEntity
  8
1-2
  6
Continuous
 62
     3
370
     9
100
AcDbLine
 10
-1604.294648041596
 20
792.7328078811234
 30
0.0
 11
-1604.294648041596
 21
778.7326627164276
 31
0.0
  0
LINE
  5
346
330
1F
100
AcDbEntity
  8
1-2
  6
Continuous
 62
     3
370
     9
100
AcDbLine
 10
-1594.394580737965
 20
792.7328078811234
 30
0.0
 11
-1594.394580737965
 21
778.7326627164276
 31
0.0
  0
LINE
  5
347
330
1F
100
AcDbEntity
  8
1-2
  6
Continuous
 62
     3
370
     9
100
AcDbLine
 10
-1614.194715345228
 20
766.7328210779141
 30
0.0
 11
-1614.194715345228
 21
752.7326759132179
 31
0.0
  0
LINE
  5
348
330
1F
100
AcDbEntity
  8
1-2
  6
Continuous
 62
     3
370
     9
100
AcDbLine
 10
-1604.294648041596
 20
766.7328210779141
 30
0.0
 11
-1604.294648041596
 21
752.7326759132179
 31
0.0
  0
LINE
  5
349
330
1F
100
AcDbEntity
  8
1-2
  6
Continuous
 62
     3
370
     9
100
AcDbLine
 10
-1594.394580737965
 20
766.7328210779141
 30
0.0
 11
-1594.394580737965
 21
752.7326759132179
 31
0.0
  0
LINE
  5
34A
330
1F
100
AcDbEntity
  8
1-2
  6
Continuous
 62
     3
370
     9
100
AcDbLine
 10
-1614.194715345228
 20
34.73258353568411
 30
0.0
 11
-1614.194715345228
 21
20.73243837098829
 31
0.0
  0
LINE
  5
34B
330
1F
100
AcDbEntity
  8
1-2
  6
Continuous
 62
     3
370
     9
100
AcDbLine
 10
-1614.194715345228
 20
60.73257033889377
 30
0.0
 11
-1614.194715345228
 21
46.73242517419766
 31
0.0
  0
LINE
  5
34C
330
1F
100
AcDbEntity
  8
1-2
  6
Continuous
 62
     3
370
     9
100
AcDbLine
 10
-1614.194715345228
 20
86.73255714210313
 30
0.0
 11
-1614.194715345228
 21
72.73241197740731
 31
0.0
  0
LINE
  5
34D
330
1F
100
AcDbEntity
  8
1-2
  6
Continuous
 62
     3
370
     9
100
AcDbLine
 10
-1614.194715345228
 20
112.7325439453125
 30
0.0
 11
-1614.194715345228
 21
98.73239878061668
 31
0.0
  0
LINE
  5
34E
330
1F
100
AcDbEntity
  8
1-2
  6
Continuous
 62
     3
370
     9
100
AcDbLine
 10
-1614.194715345228
 20
138.7325307485222
 30
0.0
 11
-1614.194715345228
 21
124.732385583826
 31
0.0
  0
LINE
  5
34F
330
1F
100
AcDbEntity
  8
1-2
  6
Continuous
 62
     3
370
     9
100
AcDbLine
 10
-1614.194715345228
 20
164.7325175517315
 30
0.0
 11
-1614.194715345228
 21
150.7323723870357
 31
0.0
  0
LINE
  5
350
330
1F
100
AcDbEntity
  8
1-2
  6
Continuous
 62
     3
370
     9
100
AcDbLine
 10
-1614.194715345228
 20
190.7325043549409
 30
0.0
 11
-1614.194715345228
 21
176.7323591902451
 31
0.0
  0
LINE
  5
351
330
1F
100
AcDbEntity
  8
1-2
  6
Continuous
 62
     3
370
     9
100
AcDbLine
 10
-1614.194715345228
 20
216.7324911581505
 30
0.0
 11
-1614.194715345228
 21
202.7323459934544
 31
0.0
  0
LINE
  5
352
330
1F
100
AcDbEntity
  8
1-2
  6
Continuous
 62
     3
370
     9
100
AcDbLine
 10
-1614.194715345228
 20
242.7324779613599
 30
0.0
 11
-1614.194715345228
 21
228.7323327966641
 31
0.0
  0
LINE
  5
353
330
1F
100
AcDbEntity
  8
1-2
  6
Continuous
 62
     3
370
     9
100
AcDbLine
 10
-1614.194715345228
 20
268.7324647645693
 30
0.0
 11
-1614.194715345228
 21
254.7323195998734
 31
0.0
  0
LINE
  5
354
330
1F
100
AcDbEntity
  8
1-2
  6
Continuous
 62
     3
370
     9
100
AcDbLine
 10
-1614.194715345228
 20
320.7324383709883
 30
0.0
 11
-1614.194715345228
 21
306.7322932062925
 31
0.0
  0
LINE
  5
355
330
1F
100
AcDbEntity
  8
1-2
  6
Continuous
 62
     3
370
     9
100
AcDbLine
 10
-1614.194715345228
 20
294.7324515677789
 30
0.0
 11
-1614.194715345228
 21
280.7323064030828
 31
0.0
  0
LINE
  5
356
330
1F
100
AcDbEntity
  8
1-2
  6
Continuous
 62
     3
370
     9
100
AcDbLine
 10
-1604.294648041596
 20
34.73258353568411
 30
0.0
 11
-1604.294648041596
 21
20.73243837098829
 31
0.0
  0
LINE
  5
357
330
1F
100
AcDbEntity
  8
1-2
  6
Continuous
 62
     3
370
     9
100
AcDbLine
 10
-1604.294648041596
 20
60.73257033889377
 30
0.0
 11
-1604.294648041596
 21
46.73242517419766
 31
0.0
  0
LINE
  5
358
330
1F
100
AcDbEntity
  8
1-2
  6
Continuous
 62
     3
370
     9
100
AcDbLine
 10
-1604.294648041596
 20
86.73255714210313
 30
0.0
 11
-1604.294648041596
 21
72.73241197740731
 31
0.0
  0
LINE
  5
359
330
1F
100
AcDbEntity
  8
1-2
  6
Continuous
 62
     3
370
     9
100
AcDbLine
 10
-1604.294648041596
 20
112.7325439453125
 30
0.0
 11
-1604.294648041596
 21
98.73239878061668
 31
0.0
  0
LINE
  5
35A
330
1F
100
AcDbEntity
  8
1-2
  6
Continuous
 62
     3
370
     9
100
AcDbLine
 10
-1604.294648041596
 20
138.7325307485222
 30
0.0
 11
-1604.294648041596
 21
124.732385583826
 31
0.0
  0
LINE
  5
35B
330
1F
100
AcDbEntity
  8
1-2
  6
Continuous
 62
     3
370
     9
100
AcDbLine
 10
-1604.294648041596
 20
164.7325175517315
 30
0.0
 11
-1604.294648041596
 21
150.7323723870357
 31
0.0
  0
LINE
  5
35C
330
1F
100
AcDbEntity
  8
1-2
  6
Continuous
 62
     3
370
     9
100
AcDbLine
 10
-1604.294648041596
 20
190.7325043549409
 30
0.0
 11
-1604.294648041596
 21
176.7323591902451
 31
0.0
  0
LINE
  5
35D
330
1F
100
AcDbEntity
  8
1-2
  6
Continuous
 62
     3
370
     9
100
AcDbLine
 10
-1604.294648041596
 20
216.7324911581505
 30
0.0
 11
-1604.294648041596
 21
202.7323459934544
 31
0.0
  0
LINE
  5
35E
330
1F
100
AcDbEntity
  8
1-2
  6
Continuous
 62
     3
370
     9
100
AcDbLine
 10
-1604.294648041596
 20
242.7324779613599
 30
0.0
 11
-1604.294648041596
 21
228.7323327966641
 31
0.0
  0
LINE
  5
35F
330
1F
100
AcDbEntity
  8
1-2
  6
Continuous
 62
     3
370
     9
100
AcDbLine
 10
-1604.294648041596
 20
268.7324647645693
 30
0.0
 11
-1604.294648041596
 21
254.7323195998734
 31
0.0
  0
LINE
  5
360
330
1F
100
AcDbEntity
  8
1-2
  6
Continuous
 62
     3
370
     9
100
AcDbLine
 10
-1604.294648041596
 20
320.7324383709883
 30
0.0
 11
-1604.294648041596
 21
306.7322932062925
 31
0.0
  0
LINE
  5
361
330
1F
100
AcDbEntity
  8
1-2
  6
Continuous
 62
     3
370
     9
100
AcDbLine
 10
-1604.294648041596
 20
294.7324515677789
 30
0.0
 11
-1604.294648041596
 21
280.7323064030828
 31
0.0
  0
LINE
  5
362
330
1F
100
AcDbEntity
  8
1-2
  6
Continuous
 62
     3
370
     9
100
AcDbLine
 10
-1594.394580737965
 20
320.7324383709883
 30
0.0
 11
-1594.394580737965
 21
306.7322932062925
 31
0.0
  0
LINE
  5
363
330
1F
100
AcDbEntity
  8
1-2
  6
Continuous
 62
     3
370
     9
100
AcDbLine
 10
-1594.394580737965
 20
294.7324515677789
 30
0.0
 11
-1594.394580737965
 21
280.7323064030828
 31
0.0
  0
LINE
  5
364
330
1F
100
AcDbEntity
  8
1-2
  6
Continuous
 62
     3
370
     9
100
AcDbLine
 10
-1594.394580737965
 20
268.7324647645693
 30
0.0
 11
-1594.394580737965
 21
254.7323195998734
 31
0.0
  0
LINE
  5
365
330
1F
100
AcDbEntity
  8
1-2
  6
Continuous
 62
     3
370
     9
100
AcDbLine
 10
-1594.394580737965
 20
242.7324779613599
 30
0.0
 11
-1594.394580737965
 21
228.7323327966641
 31
0.0
  0
LINE
  5
366
330
1F
100
AcDbEntity
  8
1-2
  6
Continuous
 62
     3
370
     9
100
AcDbLine
 10
-1594.394580737965
 20
216.7324911581505
 30
0.0
 11
-1594.394580737965
 21
202.7323459934544
 31
0.0
  0
LINE
  5
367
330
1F
100
AcDbEntity
  8
1-2
  6
Continuous
 62
     3
370
     9
100
AcDbLine
 10
-1594.394580737965
 20
190.7325043549409
 30
0.0
 11
-1594.394580737965
 21
176.7323591902451
 31
0.0
  0
LINE
  5
368
330
1F
100
AcDbEntity
  8
1-2
  6
Continuous
 62
     3
370
     9
100
AcDbLine
 10
-1594.394580737965
 20
164.7325175517315
 30
0.0
 11
-1594.394580737965
 21
150.7323723870357
 31
0.0
  0
LINE
  5
369
330
1F
100
AcDbEntity
  8
1-2
  6
Continuous
 62
     3
370
     9
100
AcDbLine
 10
-1594.394580737965
 20
138.7325307485222
 30
0.0
 11
-1594.394580737965
 21
124.732385583826
 31
0.0
  0
LINE
  5
36A
330
1F
100
AcDbEntity
  8
1-2
  6
Continuous
 62
     3
370
     9
100
AcDbLine
 10
-1594.394580737965
 20
112.7325439453125
 30
0.0
 11
-1594.394580737965
 21
98.73239878061668
 31
0.0
  0
LINE
  5
36B
330
1F
100
AcDbEntity
  8
1-2
  6
Continuous
 62
     3
370
     9
100
AcDbLine
 10
-1594.394580737965
 20
86.73255714210313
 30
0.0
 11
-1594.394580737965
 21
72.73241197740731
 31
0.0
  0
LINE
  5
36C
330
1F
100
AcDbEntity
  8
1-2
  6
Continuous
 62
     3
370
     9
100
AcDbLine
 10
-1594.394580737965
 20
60.73257033889377
 30
0.0
 11
-1594.394580737965
 21
46.73242517419766
 31
0.0
  0
LINE
  5
36D
330
1F
100
AcDbEntity
  8
1-2
  6
Continuous
 62
     3
370
     9
100
AcDbLine
 10
-1594.394580737965
 20
34.73258353568411
 30
0.0
 11
-1594.394580737965
 21
20.73243837098829
 31
0.0
  0
LINE
  5
36E
330
1F
100
AcDbEntity
  8
1-2
  6
Continuous
 62
     3
370
     9
100
AcDbLine
 10
-1318.194827517948
 20
1156.732623126056
 30
0.0
 11
-1318.194827517948
 21
1142.73247796136
 31
0.0
  0
LINE
  5
36F
330
1F
100
AcDbEntity
  8
1-2
  6
Continuous
 62
     3
370
     9
100
AcDbLine
 10
-1308.294760214316
 20
1156.732623126056
 30
0.0
 11
-1308.294760214316
 21
1142.73247796136
 31
0.0
  0
LINE
  5
370
330
1F
100
AcDbEntity
  8
1-2
  6
Continuous
 62
     3
370
     9
100
AcDbLine
 10
-1298.394940350507
 20
1156.732623126056
 30
0.0
 11
-1298.394940350507
 21
1142.73247796136
 31
0.0
  0
LINE
  5
371
330
1F
100
AcDbEntity
  8
1-2
  6
Continuous
 62
     3
370
     9
100
AcDbLine
 10
-1318.194827517948
 20
1130.732636322846
 30
0.0
 11
-1318.194827517948
 21
1116.73249115815
 31
0.0
  0
LINE
  5
372
330
1F
100
AcDbEntity
  8
1-2
  6
Continuous
 62
     3
370
     9
100
AcDbLine
 10
-1308.294760214316
 20
1130.732636322846
 30
0.0
 11
-1308.294760214316
 21
1116.73249115815
 31
0.0
  0
LINE
  5
373
330
1F
100
AcDbEntity
  8
1-2
  6
Continuous
 62
     3
370
     9
100
AcDbLine
 10
-1298.394940350507
 20
1130.732636322846
 30
0.0
 11
-1298.394940350507
 21
1116.73249115815
 31
0.0
  0
LINE
  5
374
330
1F
100
AcDbEntity
  8
1-2
  6
Continuous
 62
     3
370
     9
100
AcDbLine
 10
-1318.194827517948
 20
1104.732649519637
 30
0.0
 11
-1318.194827517948
 21
1090.732504354941
 31
0.0
  0
LINE
  5
375
330
1F
100
AcDbEntity
  8
1-2
  6
Continuous
 62
     3
370
     9
100
AcDbLine
 10
-1308.294760214316
 20
1104.732649519637
 30
0.0
 11
-1308.294760214316
 21
1090.732504354941
 31
0.0
  0
LINE
  5
376
330
1F
100
AcDbEntity
  8
1-2
  6
Continuous
 62
     3
370
     9
100
AcDbLine
 10
-1298.394940350507
 20
1104.732649519637
 30
0.0
 11
-1298.394940350507
 21
1090.732504354941
 31
0.0
  0
LINE
  5
377
330
1F
100
AcDbEntity
  8
1-2
  6
Continuous
 62
     3
370
     9
100
AcDbLine
 10
-1318.194827517948
 20
1078.732662716428
 30
0.0
 11
-1318.194827517948
 21
1064.732517551731
 31
0.0
  0
LINE
  5
378
330
1F
100
AcDbEntity
  8
1-2
  6
Continuous
 62
     3
370
     9
100
AcDbLine
 10
-1308.294760214316
 20
1078.732662716428
 30
0.0
 11
-1308.294760214316
 21
1064.732517551731
 31
0.0
  0
LINE
  5
379
330
1F
100
AcDbEntity
  8
1-2
  6
Continuous
 62
     3
370
     9
100
AcDbLine
 10
-1298.394940350507
 20
1078.732662716428
 30
0.0
 11
-1298.394940350507
 21
1064.732517551731
 31
0.0
  0
LINE
  5
37A
330
1F
100
AcDbEntity
  8
1-2
  6
Continuous
 62
     3
370
     9
100
AcDbLine
 10
-1318.194827517948
 20
1052.732675913218
 30
0.0
 11
-1318.194827517948
 21
1038.732530748522
 31
0.0
  0
LINE
  5
37B
330
1F
100
AcDbEntity
  8
1-2
  6
Continuous
 62
     3
370
     9
100
AcDbLine
 10
-1308.294760214316
 20
1052.732675913218
 30
0.0
 11
-1308.294760214316
 21
1038.732530748522
 31
0.0
  0
LINE
  5
37C
330
1F
100
AcDbEntity
  8
1-2
  6
Continuous
 62
     3
370
     9
100
AcDbLine
 10
-1298.394940350507
 20
1052.732675913218
 30
0.0
 11
-1298.394940350507
 21
1038.732530748522
 31
0.0
  0
LINE
  5
37D
330
1F
100
AcDbEntity
  8
1-2
  6
Continuous
 62
     3
370
     9
100
AcDbLine
 10
-1318.194827517948
 20
1026.732689110009
 30
0.0
 11
-1318.194827517948
 21
1012.732543945312
 31
0.0
  0
LINE
  5
37E
330
1F
100
AcDbEntity
  8
1-2
  6
Continuous
 62
     3
370
     9
100
AcDbLine
 10
-1308.294760214316
 20
1026.732689110009
 30
0.0
 11
-1308.294760214316
 21
1012.732543945312
 31
0.0
  0
LINE
  5
37F
330
1F
100
AcDbEntity
  8
1-2
  6
Continuous
 62
     3
370
     9
100
AcDbLine
 10
-1298.394940350507
 20
1026.732689110009
 30
0.0
 11
-1298.394940350507
 21
1012.732543945312
 31
0.0
  0
LINE
  5
380
330
1F
100
AcDbEntity
  8
1-2
  6
Continuous
 62
     3
370
     9
100
AcDbLine
 10
-1318.194827517948
 20
1000.732702306799
 30
0.0
 11
-1318.194827517948
 21
986.7325571421031
 31
0.0
  0
LINE
  5
381
330
1F
100
AcDbEntity
  8
1-2
  6
Continuous
 62
     3
370
     9
100
AcDbLine
 10
-1308.294760214316
 20
1000.732702306799
 30
0.0
 11
-1308.294760214316
 21
986.7325571421031
 31
0.0
  0
LINE
  5
382
330
1F
100
AcDbEntity
  8
1-2
  6
Continuous
 62
     3
370
     9
100
AcDbLine
 10
-1298.394940350507
 20
1000.732702306799
 30
0.0
 11
-1298.394940350507
 21
986.7325571421031
 31
0.0
  0
LINE
  5
383
330
1F
100
AcDbEntity
  8
1-2
  6
Continuous
 62
     3
370
     9
100
AcDbLine
 10
-1318.194827517948
 20
974.7327155035896
 30
0.0
 11
-1318.194827517948
 21
960.7325703388938
 31
0.0
  0
LINE
  5
384
330
1F
100
AcDbEntity
  8
1-2
  6
Continuous
 62
     3
370
     9
100
AcDbLine
 10
-1308.294760214316
 20
974.7327155035896
 30
0.0
 11
-1308.294760214316
 21
960.7325703388938
 31
0.0
  0
LINE
  5
385
330
1F
100
AcDbEntity
  8
1-2
  6
Continuous
 62
     3
370
     9
100
AcDbLine
 10
-1298.394940350507
 20
974.7327155035896
 30
0.0
 11
-1298.394940350507
 21
960.7325703388938
 31
0.0
  0
LINE
  5
386
330
1F
100
AcDbEntity
  8
1-2
  6
Continuous
 62
     3
370
     9
100
AcDbLine
 10
-1318.194827517948
 20
948.7327287003802
 30
0.0
 11
-1318.194827517948
 21
934.7325835356842
 31
0.0
  0
LINE
  5
387
330
1F
100
AcDbEntity
  8
1-2
  6
Continuous
 62
     3
370
     9
100
AcDbLine
 10
-1308.294760214316
 20
948.7327287003802
 30
0.0
 11
-1308.294760214316
 21
934.7325835356842
 31
0.0
  0
LINE
  5
388
330
1F
100
AcDbEntity
  8
1-2
  6
Continuous
 62
     3
370
     9
100
AcDbLine
 10
-1298.394940350507
 20
948.7327287003802
 30
0.0
 11
-1298.394940350507
 21
934.7325835356842
 31
0.0
  0
LINE
  5
389
330
1F
100
AcDbEntity
  8
1-2
  6
Continuous
 62
     3
370
     9
100
AcDbLine
 10
-1318.194827517948
 20
922.7327418971709
 30
0.0
 11
-1318.194827517948
 21
908.7325967324748
 31
0.0
  0
LINE
  5
38A
330
1F
100
AcDbEntity
  8
1-2
  6
Continuous
 62
     3
370
     9
100
AcDbLine
 10
-1308.294760214316
 20
922.7327418971709
 30
0.0
 11
-1308.294760214316
 21
908.7325967324748
 31
0.0
  0
LINE
  5
38B
330
1F
100
AcDbEntity
  8
1-2
  6
Continuous
 62
     3
370
     9
100
AcDbLine
 10
-1298.394940350507
 20
922.7327418971709
 30
0.0
 11
-1298.394940350507
 21
908.7325967324748
 31
0.0
  0
LINE
  5
38C
330
1F
100
AcDbEntity
  8
1-2
  6
Continuous
 62
     3
370
     9
100
AcDbLine
 10
-1318.194827517948
 20
896.7327550939613
 30
0.0
 11
-1318.194827517948
 21
882.7326099292654
 31
0.0
  0
LINE
  5
38D
330
1F
100
AcDbEntity
  8
1-2
  6
Continuous
 62
     3
370
     9
100
AcDbLine
 10
-1308.294760214316
 20
896.7327550939613
 30
0.0
 11
-1308.294760214316
 21
882.7326099292654
 31
0.0
  0
LINE
  5
38E
330
1F
100
AcDbEntity
  8
1-2
  6
Continuous
 62
     3
370
     9
100
AcDbLine
 10
-1298.394940350507
 20
896.7327550939613
 30
0.0
 11
-1298.394940350507
 21
882.7326099292654
 31
0.0
  0
LINE
  5
38F
330
1F
100
AcDbEntity
  8
1-2
  6
Continuous
 62
     3
370
     9
100
AcDbLine
 10
-1318.194827517948
 20
870.7327682907519
 30
0.0
 11
-1318.194827517948
 21
856.7326231260561
 31
0.0
  0
LINE
  5
390
330
1F
100
AcDbEntity
  8
1-2
  6
Continuous
 62
     3
370
     9
100
AcDbLine
 10
-1308.294760214316
 20
870.7327682907519
 30
0.0
 11
-1308.294760214316
 21
856.7326231260561
 31
0.0
  0
LINE
  5
391
330
1F
100
AcDbEntity
  8
1-2
  6
Continuous
 62
     3
370
     9
100
AcDbLine
 10
-1298.394940350507
 20
870.7327682907519
 30
0.0
 11
-1298.394940350507
 21
856.7326231260561
 31
0.0
  0
LINE
  5
392
330
1F
100
AcDbEntity
  8
1-2
  6
Continuous
 62
     3
370
     9
100
AcDbLine
 10
-1318.194827517948
 20
844.7327814875425
 30
0.0
 11
-1318.194827517948
 21
830.7326363228464
 31
0.0
  0
LINE
  5
393
330
1F
100
AcDbEntity
  8
1-2
  6
Continuous
 62
     3
370
     9
100
AcDbLine
 10
-1308.294760214316
 20
844.7327814875425
 30
0.0
 11
-1308.294760214316
 21
830.7326363228464
 31
0.0
  0
LINE
  5
394
330
1F
100
AcDbEntity
  8
1-2
  6
Continuous
 62
     3
370
     9
100
AcDbLine
 10
-1298.394940350507
 20
844.7327814875425
 30
0.0
 11
-1298.394940350507
 21
830.7326363228464
 31
0.0
  0
LINE
  5
395
330
1F
100
AcDbEntity
  8
1-2
  6
Continuous
 62
     3
370
     9
100
AcDbLine
 10
-1318.194827517948
 20
818.7327946843328
 30
0.0
 11
-1318.194827517948
 21
804.732649519637
 31
0.0
  0
LINE
  5
396
330
1F
100
AcDbEntity
  8
1-2
  6
Continuous
 62
     3
370
     9
100
AcDbLine
 10
-1308.294760214316
 20
818.7327946843328
 30
0.0
 11
-1308.294760214316
 21
804.732649519637
 31
0.0
  0
LINE
  5
397
330
1F
100
AcDbEntity
  8
1-2
  6
Continuous
 62
     3
370
     9
100
AcDbLine
 10
-1298.394940350507
 20
818.7327946843328
 30
0.0
 11
-1298.394940350507
 21
804.732649519637
 31
0.0
  0
LINE
  5
398
330
1F
100
AcDbEntity
  8
1-2
  6
Continuous
 62
     3
370
     9
100
AcDbLine
 10
-1318.194827517948
 20
792.7328078811234
 30
0.0
 11
-1318.194827517948
 21
778.7326627164276
 31
0.0
  0
LINE
  5
399
330
1F
100
AcDbEntity
  8
1-2
  6
Continuous
 62
     3
370
     9
100
AcDbLine
 10
-1308.294760214316
 20
792.7328078811234
 30
0.0
 11
-1308.294760214316
 21
778.7326627164276
 31
0.0
  0
LINE
  5
39A
330
1F
100
AcDbEntity
  8
1-2
  6
Continuous
 62
     3
370
     9
100
AcDbLine
 10
-1298.394940350507
 20
792.7328078811234
 30
0.0
 11
-1298.394940350507
 21
778.7326627164276
 31
0.0
  0
LINE
  5
39B
330
1F
100
AcDbEntity
  8
1-2
  6
Continuous
 62
     3
370
     9
100
AcDbLine
 10
-1318.194827517948
 20
766.7328210779141
 30
0.0
 11
-1318.194827517948
 21
752.7326759132179
 31
0.0
  0
LINE
  5
39C
330
1F
100
AcDbEntity
  8
1-2
  6
Continuous
 62
     3
370
     9
100
AcDbLine
 10
-1308.294760214316
 20
766.7328210779141
 30
0.0
 11
-1308.294760214316
 21
752.7326759132179
 31
0.0
  0
LINE
  5
39D
330
1F
100
AcDbEntity
  8
1-2
  6
Continuous
 62
     3
370
     9
100
AcDbLine
 10
-1298.394940350507
 20
766.7328210779141
 30
0.0
 11
-1298.394940350507
 21
752.7326759132179
 31
0.0
  0
LINE
  5
39E
330
1F
100
AcDbEntity
  8
1-2
  6
Continuous
 62
     3
370
     9
100
AcDbLine
 10
-978.1949429898648
 20
1156.732623126056
 30
0.0
 11
-978.1949429898648
 21
1142.73247796136
 31
0.0
  0
LINE
  5
39F
330
1F
100
AcDbEntity
  8
1-2
  6
Continuous
 62
     3
370
     9
100
AcDbLine
 10
-968.2948756862331
 20
1156.732623126056
 30
0.0
 11
-968.2948756862331
 21
1142.73247796136
 31
0.0
  0
LINE
  5
3A0
330
1F
100
AcDbEntity
  8
1-2
  6
Continuous
 62
     3
370
     9
100
AcDbLine
 10
-958.3948083826012
 20
1156.732623126056
 30
0.0
 11
-958.3948083826012
 21
1142.73247796136
 31
0.0
  0
LINE
  5
3A1
330
1F
100
AcDbEntity
  8
1-2
  6
Continuous
 62
     3
370
     9
100
AcDbLine
 10
-978.1949429898648
 20
1130.732636322846
 30
0.0
 11
-978.1949429898648
 21
1116.73249115815
 31
0.0
  0
LINE
  5
3A2
330
1F
100
AcDbEntity
  8
1-2
  6
Continuous
 62
     3
370
     9
100
AcDbLine
 10
-968.2948756862331
 20
1130.732636322846
 30
0.0
 11
-968.2948756862331
 21
1116.73249115815
 31
0.0
  0
LINE
  5
3A3
330
1F
100
AcDbEntity
  8
1-2
  6
Continuous
 62
     3
370
     9
100
AcDbLine
 10
-958.3948083826012
 20
1130.732636322846
 30
0.0
 11
-958.3948083826012
 21
1116.73249115815
 31
0.0
  0
LINE
  5
3A4
330
1F
100
AcDbEntity
  8
1-2
  6
Continuous
 62
     3
370
     9
100
AcDbLine
 10
-978.1949429898648
 20
1104.732649519637
 30
0.0
 11
-978.1949429898648
 21
1090.732504354941
 31
0.0
  0
LINE
  5
3A5
330
1F
100
AcDbEntity
  8
1-2
  6
Continuous
 62
     3
370
     9
100
AcDbLine
 10
-968.2948756862331
 20
1104.732649519637
 30
0.0
 11
-968.2948756862331
 21
1090.732504354941
 31
0.0
  0
LINE
  5
3A6
330
1F
100
AcDbEntity
  8
1-2
  6
Continuous
 62
     3
370
     9
100
AcDbLine
 10
-958.3948083826012
 20
1104.732649519637
 30
0.0
 11
-958.3948083826012
 21
1090.732504354941
 31
0.0
  0
LINE
  5
3A7
330
1F
100
AcDbEntity
  8
1-2
  6
Continuous
 62
     3
370
     9
100
AcDbLine
 10
-978.1949429898648
 20
1078.732662716428
 30
0.0
 11
-978.1949429898648
 21
1064.732517551731
 31
0.0
  0
LINE
  5
3A8
330
1F
100
AcDbEntity
  8
1-2
  6
Continuous
 62
     3
370
     9
100
AcDbLine
 10
-968.2948756862331
 20
1078.732662716428
 30
0.0
 11
-968.2948756862331
 21
1064.732517551731
 31
0.0
  0
LINE
  5
3A9
330
1F
100
AcDbEntity
  8
1-2
  6
Continuous
 62
     3
370
     9
100
AcDbLine
 10
-958.3948083826012
 20
1078.732662716428
 30
0.0
 11
-958.3948083826012
 21
1064.732517551731
 31
0.0
  0
LINE
  5
3AA
330
1F
100
AcDbEntity
  8
1-2
  6
Continuous
 62
     3
370
     9
100
AcDbLine
 10
-978.1949429898648
 20
1052.732675913218
 30
0.0
 11
-978.1949429898648
 21
1038.732530748522
 31
0.0
  0
LINE
  5
3AB
330
1F
100
AcDbEntity
  8
1-2
  6
Continuous
 62
     3
370
     9
100
AcDbLine
 10
-968.2948756862331
 20
1052.732675913218
 30
0.0
 11
-968.2948756862331
 21
1038.732530748522
 31
0.0
  0
LINE
  5
3AC
330
1F
100
AcDbEntity
  8
1-2
  6
Continuous
 62
     3
370
     9
100
AcDbLine
 10
-958.3948083826012
 20
1052.732675913218
 30
0.0
 11
-958.3948083826012
 21
1038.732530748522
 31
0.0
  0
LINE
  5
3AD
330
1F
100
AcDbEntity
  8
1-2
  6
Continuous
 62
     3
370
     9
100
AcDbLine
 10
-978.1949429898648
 20
1026.732689110009
 30
0.0
 11
-978.1949429898648
 21
1012.732543945312
 31
0.0
  0
LINE
  5
3AE
330
1F
100
AcDbEntity
  8
1-2
  6
Continuous
 62
     3
370
     9
100
AcDbLine
 10
-968.2948756862331
 20
1026.732689110009
 30
0.0
 11
-968.2948756862331
 21
1012.732543945312
 31
0.0
  0
LINE
  5
3AF
330
1F
100
AcDbEntity
  8
1-2
  6
Continuous
 62
     3
370
     9
100
AcDbLine
 10
-958.3948083826012
 20
1026.732689110009
 30
0.0
 11
-958.3948083826012
 21
1012.732543945312
 31
0.0
  0
LINE
  5
3B0
330
1F
100
AcDbEntity
  8
1-2
  6
Continuous
 62
     3
370
     9
100
AcDbLine
 10
-978.1949429898648
 20
1000.732702306799
 30
0.0
 11
-978.1949429898648
 21
986.7325571421031
 31
0.0
  0
LINE
  5
3B1
330
1F
100
AcDbEntity
  8
1-2
  6
Continuous
 62
     3
370
     9
100
AcDbLine
 10
-968.2948756862331
 20
1000.732702306799
 30
0.0
 11
-968.2948756862331
 21
986.7325571421031
 31
0.0
  0
LINE
  5
3B2
330
1F
100
AcDbEntity
  8
1-2
  6
Continuous
 62
     3
370
     9
100
AcDbLine
 10
-958.3948083826012
 20
1000.732702306799
 30
0.0
 11
-958.3948083826012
 21
986.7325571421031
 31
0.0
  0
LINE
  5
3B3
330
1F
100
AcDbEntity
  8
1-2
  6
Continuous
 62
     3
370
     9
100
AcDbLine
 10
-978.1949429898648
 20
974.7327155035896
 30
0.0
 11
-978.1949429898648
 21
960.7325703388938
 31
0.0
  0
LINE
  5
3B4
330
1F
100
AcDbEntity
  8
1-2
  6
Continuous
 62
     3
370
     9
100
AcDbLine
 10
-968.2948756862331
 20
974.7327155035896
 30
0.0
 11
-968.2948756862331
 21
960.7325703388938
 31
0.0
  0
LINE
  5
3B5
330
1F
100
AcDbEntity
  8
1-2
  6
Continuous
 62
     3
370
     9
100
AcDbLine
 10
-958.3948083826012
 20
974.7327155035896
 30
0.0
 11
-958.3948083826012
 21
960.7325703388938
 31
0.0
  0
LINE
  5
3B6
330
1F
100
AcDbEntity
  8
1-2
  6
Continuous
 62
     3
370
     9
100
AcDbLine
 10
-978.1949429898648
 20
948.7327287003802
 30
0.0
 11
-978.1949429898648
 21
934.7325835356842
 31
0.0
  0
LINE
  5
3B7
330
1F
100
AcDbEntity
  8
1-2
  6
Continuous
 62
     3
370
     9
100
AcDbLine
 10
-968.2948756862331
 20
948.7327287003802
 30
0.0
 11
-968.2948756862331
 21
934.7325835356842
 31
0.0
  0
LINE
  5
3B8
330
1F
100
AcDbEntity
  8
1-2
  6
Continuous
 62
     3
370
     9
100
AcDbLine
 10
-958.3948083826012
 20
948.7327287003802
 30
0.0
 11
-958.3948083826012
 21
934.7325835356842
 31
0.0
  0
LINE
  5
3B9
330
1F
100
AcDbEntity
  8
1-2
  6
Continuous
 62
     3
370
     9
100
AcDbLine
 10
-978.1949429898648
 20
922.7327418971709
 30
0.0
 11
-978.1949429898648
 21
908.7325967324748
 31
0.0
  0
LINE
  5
3BA
330
1F
100
AcDbEntity
  8
1-2
  6
Continuous
 62
     3
370
     9
100
AcDbLine
 10
-968.2948756862331
 20
922.7327418971709
 30
0.0
 11
-968.2948756862331
 21
908.7325967324748
 31
0.0
  0
LINE
  5
3BB
330
1F
100
AcDbEntity
  8
1-2
  6
Continuous
 62
     3
370
     9
100
AcDbLine
 10
-958.3948083826012
 20
922.7327418971709
 30
0.0
 11
-958.3948083826012
 21
908.7325967324748
 31
0.0
  0
LINE
  5
3BC
330
1F
100
AcDbEntity
  8
1-2
  6
Continuous
 62
     3
370
     9
100
AcDbLine
 10
-978.1949429898648
 20
896.7327550939613
 30
0.0
 11
-978.1949429898648
 21
882.7326099292654
 31
0.0
  0
LINE
  5
3BD
330
1F
100
AcDbEntity
  8
1-2
  6
Continuous
 62
     3
370
     9
100
AcDbLine
 10
-968.2948756862331
 20
896.7327550939613
 30
0.0
 11
-968.2948756862331
 21
882.7326099292654
 31
0.0
  0
LINE
  5
3BE
330
1F
100
AcDbEntity
  8
1-2
  6
Continuous
 62
     3
370
     9
100
AcDbLine
 10
-958.3948083826012
 20
896.7327550939613
 30
0.0
 11
-958.3948083826012
 21
882.7326099292654
 31
0.0
  0
LINE
  5
3BF
330
1F
100
AcDbEntity
  8
1-2
  6
Continuous
 62
     3
370
     9
100
AcDbLine
 10
-978.1949429898648
 20
870.7327682907519
 30
0.0
 11
-978.1949429898648
 21
856.7326231260561
 31
0.0
  0
LINE
  5
3C0
330
1F
100
AcDbEntity
  8
1-2
  6
Continuous
 62
     3
370
     9
100
AcDbLine
 10
-968.2948756862331
 20
870.7327682907519
 30
0.0
 11
-968.2948756862331
 21
856.7326231260561
 31
0.0
  0
LINE
  5
3C1
330
1F
100
AcDbEntity
  8
1-2
  6
Continuous
 62
     3
370
     9
100
AcDbLine
 10
-958.3948083826012
 20
870.7327682907519
 30
0.0
 11
-958.3948083826012
 21
856.7326231260561
 31
0.0
  0
LINE
  5
3C2
330
1F
100
AcDbEntity
  8
1-2
  6
Continuous
 62
     3
370
     9
100
AcDbLine
 10
-978.1949429898648
 20
844.7327814875425
 30
0.0
 11
-978.1949429898648
 21
830.7326363228464
 31
0.0
  0
LINE
  5
3C3
330
1F
100
AcDbEntity
  8
1-2
  6
Continuous
 62
     3
370
     9
100
AcDbLine
 10
-968.2948756862331
 20
844.7327814875425
 30
0.0
 11
-968.2948756862331
 21
830.7326363228464
 31
0.0
  0
LINE
  5
3C4
330
1F
100
AcDbEntity
  8
1-2
  6
Continuous
 62
     3
370
     9
100
AcDbLine
 10
-958.3948083826012
 20
844.7327814875425
 30
0.0
 11
-958.3948083826012
 21
830.7326363228464
 31
0.0
  0
LINE
  5
3C5
330
1F
100
AcDbEntity
  8
1-2
  6
Continuous
 62
     3
370
     9
100
AcDbLine
 10
-978.1949429898648
 20
818.7327946843328
 30
0.0
 11
-978.1949429898648
 21
804.732649519637
 31
0.0
  0
LINE
  5
3C6
330
1F
100
AcDbEntity
  8
1-2
  6
Continuous
 62
     3
370
     9
100
AcDbLine
 10
-968.2948756862331
 20
818.7327946843328
 30
0.0
 11
-968.2948756862331
 21
804.732649519637
 31
0.0
  0
LINE
  5
3C7
330
1F
100
AcDbEntity
  8
1-2
  6
Continuous
 62
     3
370
     9
100
AcDbLine
 10
-958.3948083826012
 20
818.7327946843328
 30
0.0
 11
-958.3948083826012
 21
804.732649519637
 31
0.0
  0
LINE
  5
3C8
330
1F
100
AcDbEntity
  8
1-2
  6
Continuous
 62
     3
370
     9
100
AcDbLine
 10
-978.1949429898648
 20
792.7328078811234
 30
0.0
 11
-978.1949429898648
 21
778.7326627164276
 31
0.0
  0
LINE
  5
3C9
330
1F
100
AcDbEntity
  8
1-2
  6
Continuous
 62
     3
370
     9
100
AcDbLine
 10
-968.2948756862331
 20
792.7328078811234
 30
0.0
 11
-968.2948756862331
 21
778.7326627164276
 31
0.0
  0
LINE
  5
3CA
330
1F
100
AcDbEntity
  8
1-2
  6
Continuous
 62
     3
370
     9
100
AcDbLine
 10
-958.3948083826012
 20
792.7328078811234
 30
0.0
 11
-958.3948083826012
 21
778.7326627164276
 31
0.0
  0
LINE
  5
3CB
330
1F
100
AcDbEntity
  8
1-2
  6
Continuous
 62
     3
370
     9
100
AcDbLine
 10
-710.194850612331
 20
1156.732623126056
 30
0.0
 11
-710.194850612331
 21
1142.73247796136
 31
0.0
  0
LINE
  5
3CC
330
1F
100
AcDbEntity
  8
1-2
  6
Continuous
 62
     3
370
     9
100
AcDbLine
 10
-700.2947833086992
 20
1156.732623126056
 30
0.0
 11
-700.2947833086992
 21
1142.73247796136
 31
0.0
  0
LINE
  5
3CD
330
1F
100
AcDbEntity
  8
1-2
  6
Continuous
 62
     3
370
     9
100
AcDbLine
 10
-690.3947160050675
 20
1156.732623126056
 30
0.0
 11
-690.3947160050675
 21
1142.73247796136
 31
0.0
  0
LINE
  5
3CE
330
1F
100
AcDbEntity
  8
1-2
  6
Continuous
 62
     3
370
     9
100
AcDbLine
 10
-710.194850612331
 20
1130.732636322846
 30
0.0
 11
-710.194850612331
 21
1116.73249115815
 31
0.0
  0
LINE
  5
3CF
330
1F
100
AcDbEntity
  8
1-2
  6
Continuous
 62
     3
370
     9
100
AcDbLine
 10
-700.2947833086992
 20
1130.732636322846
 30
0.0
 11
-700.2947833086992
 21
1116.73249115815
 31
0.0
  0
LINE
  5
3D0
330
1F
100
AcDbEntity
  8
1-2
  6
Continuous
 62
     3
370
     9
100
AcDbLine
 10
-690.3947160050675
 20
1130.732636322846
 30
0.0
 11
-690.3947160050675
 21
1116.73249115815
 31
0.0
  0
LINE
  5
3D1
330
1F
100
AcDbEntity
  8
1-2
  6
Continuous
 62
     3
370
     9
100
AcDbLine
 10
-710.194850612331
 20
1104.732649519637
 30
0.0
 11
-710.194850612331
 21
1090.732504354941
 31
0.0
  0
LINE
  5
3D2
330
1F
100
AcDbEntity
  8
1-2
  6
Continuous
 62
     3
370
     9
100
AcDbLine
 10
-700.2947833086992
 20
1104.732649519637
 30
0.0
 11
-700.2947833086992
 21
1090.732504354941
 31
0.0
  0
LINE
  5
3D3
330
1F
100
AcDbEntity
  8
1-2
  6
Continuous
 62
     3
370
     9
100
AcDbLine
 10
-690.3947160050675
 20
1104.732649519637
 30
0.0
 11
-690.3947160050675
 21
1090.732504354941
 31
0.0
  0
LINE
  5
3D4
330
1F
100
AcDbEntity
  8
1-2
  6
Continuous
 62
     3
370
     9
100
AcDbLine
 10
-710.194850612331
 20
1078.732662716428
 30
0.0
 11
-710.194850612331
 21
1064.732517551731
 31
0.0
  0
LINE
  5
3D5
330
1F
100
AcDbEntity
  8
1-2
  6
Continuous
 62
     3
370
     9
100
AcDbLine
 10
-700.2947833086992
 20
1078.732662716428
 30
0.0
 11
-700.2947833086992
 21
1064.732517551731
 31
0.0
  0
LINE
  5
3D6
330
1F
100
AcDbEntity
  8
1-2
  6
Continuous
 62
     3
370
     9
100
AcDbLine
 10
-690.3947160050675
 20
1078.732662716428
 30
0.0
 11
-690.3947160050675
 21
1064.732517551731
 31
0.0
  0
LINE
  5
3D7
330
1F
100
AcDbEntity
  8
1-2
  6
Continuous
 62
     3
370
     9
100
AcDbLine
 10
-710.194850612331
 20
1052.732675913218
 30
0.0
 11
-710.194850612331
 21
1038.732530748522
 31
0.0
  0
LINE
  5
3D8
330
1F
100
AcDbEntity
  8
1-2
  6
Continuous
 62
     3
370
     9
100
AcDbLine
 10
-700.2947833086992
 20
1052.732675913218
 30
0.0
 11
-700.2947833086992
 21
1038.732530748522
 31
0.0
  0
LINE
  5
3D9
330
1F
100
AcDbEntity
  8
1-2
  6
Continuous
 62
     3
370
     9
100
AcDbLine
 10
-690.3947160050675
 20
1052.732675913218
 30
0.0
 11
-690.3947160050675
 21
1038.732530748522
 31
0.0
  0
LINE
  5
3DA
330
1F
100
AcDbEntity
  8
1-2
  6
Continuous
 62
     3
370
     9
100
AcDbLine
 10
-710.194850612331
 20
1026.732689110009
 30
0.0
 11
-710.194850612331
 21
1012.732543945312
 31
0.0
  0
LINE
  5
3DB
330
1F
100
AcDbEntity
  8
1-2
  6
Continuous
 62
     3
370
     9
100
AcDbLine
 10
-700.2947833086992
 20
1026.732689110009
 30
0.0
 11
-700.2947833086992
 21
1012.732543945312
 31
0.0
  0
LINE
  5
3DC
330
1F
100
AcDbEntity
  8
1-2
  6
Continuous
 62
     3
370
     9
100
AcDbLine
 10
-690.3947160050675
 20
1026.732689110009
 30
0.0
 11
-690.3947160050675
 21
1012.732543945312
 31
0.0
  0
LINE
  5
3DD
330
1F
100
AcDbEntity
  8
1-2
  6
Continuous
 62
     3
370
     9
100
AcDbLine
 10
-710.194850612331
 20
1000.732702306799
 30
0.0
 11
-710.194850612331
 21
986.7325571421031
 31
0.0
  0
LINE
  5
3DE
330
1F
100
AcDbEntity
  8
1-2
  6
Continuous
 62
     3
370
     9
100
AcDbLine
 10
-700.2947833086992
 20
1000.732702306799
 30
0.0
 11
-700.2947833086992
 21
986.7325571421031
 31
0.0
  0
LINE
  5
3DF
330
1F
100
AcDbEntity
  8
1-2
  6
Continuous
 62
     3
370
     9
100
AcDbLine
 10
-690.3947160050675
 20
1000.732702306799
 30
0.0
 11
-690.3947160050675
 21
986.7325571421031
 31
0.0
  0
LINE
  5
3E0
330
1F
100
AcDbEntity
  8
1-2
  6
Continuous
 62
     3
370
     9
100
AcDbLine
 10
-710.194850612331
 20
974.7327155035896
 30
0.0
 11
-710.194850612331
 21
960.7325703388938
 31
0.0
  0
LINE
  5
3E1
330
1F
100
AcDbEntity
  8
1-2
  6
Continuous
 62
     3
370
     9
100
AcDbLine
 10
-700.2947833086992
 20
974.7327155035896
 30
0.0
 11
-700.2947833086992
 21
960.7325703388938
 31
0.0
  0
LINE
  5
3E2
330
1F
100
AcDbEntity
  8
1-2
  6
Continuous
 62
     3
370
     9
100
AcDbLine
 10
-690.3947160050675
 20
974.7327155035896
 30
0.0
 11
-690.3947160050675
 21
960.7325703388938
 31
0.0
  0
LINE
  5
3E3
330
1F
100
AcDbEntity
  8
1-2
  6
Continuous
 62
     3
370
     9
100
AcDbLine
 10
-710.194850612331
 20
948.7327287003802
 30
0.0
 11
-710.194850612331
 21
934.7325835356842
 31
0.0
  0
LINE
  5
3E4
330
1F
100
AcDbEntity
  8
1-2
  6
Continuous
 62
     3
370
     9
100
AcDbLine
 10
-700.2947833086992
 20
948.7327287003802
 30
0.0
 11
-700.2947833086992
 21
934.7325835356842
 31
0.0
  0
LINE
  5
3E5
330
1F
100
AcDbEntity
  8
1-2
  6
Continuous
 62
     3
370
     9
100
AcDbLine
 10
-690.3947160050675
 20
948.7327287003802
 30
0.0
 11
-690.3947160050675
 21
934.7325835356842
 31
0.0
  0
LINE
  5
3E6
330
1F
100
AcDbEntity
  8
1-2
  6
Continuous
 62
     3
370
     9
100
AcDbLine
 10
-710.194850612331
 20
922.7327418971709
 30
0.0
 11
-710.194850612331
 21
908.7325967324748
 31
0.0
  0
LINE
  5
3E7
330
1F
100
AcDbEntity
  8
1-2
  6
Continuous
 62
     3
370
     9
100
AcDbLine
 10
-700.2947833086992
 20
922.7327418971709
 30
0.0
 11
-700.2947833086992
 21
908.7325967324748
 31
0.0
  0
LINE
  5
3E8
330
1F
100
AcDbEntity
  8
1-2
  6
Continuous
 62
     3
370
     9
100
AcDbLine
 10
-690.3947160050675
 20
922.7327418971709
 30
0.0
 11
-690.3947160050675
 21
908.7325967324748
 31
0.0
  0
LINE
  5
3E9
330
1F
100
AcDbEntity
  8
1-2
  6
Continuous
 62
     3
370
     9
100
AcDbLine
 10
-710.194850612331
 20
896.7327550939613
 30
0.0
 11
-710.194850612331
 21
882.7326099292654
 31
0.0
  0
LINE
  5
3EA
330
1F
100
AcDbEntity
  8
1-2
  6
Continuous
 62
     3
370
     9
100
AcDbLine
 10
-700.2947833086992
 20
896.7327550939613
 30
0.0
 11
-700.2947833086992
 21
882.7326099292654
 31
0.0
  0
LINE
  5
3EB
330
1F
100
AcDbEntity
  8
1-2
  6
Continuous
 62
     3
370
     9
100
AcDbLine
 10
-690.3947160050675
 20
896.7327550939613
 30
0.0
 11
-690.3947160050675
 21
882.7326099292654
 31
0.0
  0
LINE
  5
3EC
330
1F
100
AcDbEntity
  8
1-2
  6
Continuous
 62
     3
370
     9
100
AcDbLine
 10
-710.194850612331
 20
870.7327682907519
 30
0.0
 11
-710.194850612331
 21
856.7326231260561
 31
0.0
  0
LINE
  5
3ED
330
1F
100
AcDbEntity
  8
1-2
  6
Continuous
 62
     3
370
     9
100
AcDbLine
 10
-700.2947833086992
 20
870.7327682907519
 30
0.0
 11
-700.2947833086992
 21
856.7326231260561
 31
0.0
  0
LINE
  5
3EE
330
1F
100
AcDbEntity
  8
1-2
  6
Continuous
 62
     3
370
     9
100
AcDbLine
 10
-690.3947160050675
 20
870.7327682907519
 30
0.0
 11
-690.3947160050675
 21
856.7326231260561
 31
0.0
  0
LINE
  5
3EF
330
1F
100
AcDbEntity
  8
1-2
  6
Continuous
 62
     3
370
     9
100
AcDbLine
 10
-710.194850612331
 20
844.7327814875425
 30
0.0
 11
-710.194850612331
 21
830.7326363228464
 31
0.0
  0
LINE
  5
3F0
330
1F
100
AcDbEntity
  8
1-2
  6
Continuous
 62
     3
370
     9
100
AcDbLine
 10
-700.2947833086992
 20
844.7327814875425
 30
0.0
 11
-700.2947833086992
 21
830.7326363228464
 31
0.0
  0
LINE
  5
3F1
330
1F
100
AcDbEntity
  8
1-2
  6
Continuous
 62
     3
370
     9
100
AcDbLine
 10
-690.3947160050675
 20
844.7327814875425
 30
0.0
 11
-690.3947160050675
 21
830.7326363228464
 31
0.0
  0
LINE
  5
3F2
330
1F
100
AcDbEntity
  8
1-2
  6
Continuous
 62
     3
370
     9
100
AcDbLine
 10
-710.194850612331
 20
818.7327946843328
 30
0.0
 11
-710.194850612331
 21
804.732649519637
 31
0.0
  0
LINE
  5
3F3
330
1F
100
AcDbEntity
  8
1-2
  6
Continuous
 62
     3
370
     9
100
AcDbLine
 10
-700.2947833086992
 20
818.7327946843328
 30
0.0
 11
-700.2947833086992
 21
804.732649519637
 31
0.0
  0
LINE
  5
3F4
330
1F
100
AcDbEntity
  8
1-2
  6
Continuous
 62
     3
370
     9
100
AcDbLine
 10
-690.3947160050675
 20
818.7327946843328
 30
0.0
 11
-690.3947160050675
 21
804.732649519637
 31
0.0
  0
LINE
  5
3F5
330
1F
100
AcDbEntity
  8
1-2
  6
Continuous
 62
     3
370
     9
100
AcDbLine
 10
-370.1949660842482
 20
1156.732623126056
 30
0.0
 11
-370.1949660842482
 21
1142.73247796136
 31
0.0
  0
LINE
  5
3F6
330
1F
100
AcDbEntity
  8
1-2
  6
Continuous
 62
     3
370
     9
100
AcDbLine
 10
-360.2948987806164
 20
1156.732623126056
 30
0.0
 11
-360.2948987806164
 21
1142.73247796136
 31
0.0
  0
LINE
  5
3F7
330
1F
100
AcDbEntity
  8
1-2
  6
Continuous
 62
     3
370
     9
100
AcDbLine
 10
-350.3948314769846
 20
1156.732623126056
 30
0.0
 11
-350.3948314769846
 21
1142.73247796136
 31
0.0
  0
LINE
  5
3F8
330
1F
100
AcDbEntity
  8
1-2
  6
Continuous
 62
     3
370
     9
100
AcDbLine
 10
-370.1949660842482
 20
1130.732636322846
 30
0.0
 11
-370.1949660842482
 21
1116.73249115815
 31
0.0
  0
LINE
  5
3F9
330
1F
100
AcDbEntity
  8
1-2
  6
Continuous
 62
     3
370
     9
100
AcDbLine
 10
-360.2948987806164
 20
1130.732636322846
 30
0.0
 11
-360.2948987806164
 21
1116.73249115815
 31
0.0
  0
LINE
  5
3FA
330
1F
100
AcDbEntity
  8
1-2
  6
Continuous
 62
     3
370
     9
100
AcDbLine
 10
-350.3948314769846
 20
1130.732636322846
 30
0.0
 11
-350.3948314769846
 21
1116.73249115815
 31
0.0
  0
LINE
  5
3FB
330
1F
100
AcDbEntity
  8
1-2
  6
Continuous
 62
     3
370
     9
100
AcDbLine
 10
-370.1949660842482
 20
1104.732649519637
 30
0.0
 11
-370.1949660842482
 21
1090.732504354941
 31
0.0
  0
LINE
  5
3FC
330
1F
100
AcDbEntity
  8
1-2
  6
Continuous
 62
     3
370
     9
100
AcDbLine
 10
-360.2948987806164
 20
1104.732649519637
 30
0.0
 11
-360.2948987806164
 21
1090.732504354941
 31
0.0
  0
LINE
  5
3FD
330
1F
100
AcDbEntity
  8
1-2
  6
Continuous
 62
     3
370
     9
100
AcDbLine
 10
-350.3948314769846
 20
1104.732649519637
 30
0.0
 11
-350.3948314769846
 21
1090.732504354941
 31
0.0
  0
LINE
  5
3FE
330
1F
100
AcDbEntity
  8
1-2
  6
Continuous
 62
     3
370
     9
100
AcDbLine
 10
-370.1949660842482
 20
1078.732662716428
 30
0.0
 11
-370.1949660842482
 21
1064.732517551731
 31
0.0
  0
LINE
  5
3FF
330
1F
100
AcDbEntity
  8
1-2
  6
Continuous
 62
     3
370
     9
100
AcDbLine
 10
-360.2948987806164
 20
1078.732662716428
 30
0.0
 11
-360.2948987806164
 21
1064.732517551731
 31
0.0
  0
LINE
  5
400
330
1F
100
AcDbEntity
  8
1-2
  6
Continuous
 62
     3
370
     9
100
AcDbLine
 10
-350.3948314769846
 20
1078.732662716428
 30
0.0
 11
-350.3948314769846
 21
1064.732517551731
 31
0.0
  0
LINE
  5
401
330
1F
100
AcDbEntity
  8
1-2
  6
Continuous
 62
     3
370
     9
100
AcDbLine
 10
-370.1949660842482
 20
1052.732675913218
 30
0.0
 11
-370.1949660842482
 21
1038.732530748522
 31
0.0
  0
LINE
  5
402
330
1F
100
AcDbEntity
  8
1-2
  6
Continuous
 62
     3
370
     9
100
AcDbLine
 10
-360.2948987806164
 20
1052.732675913218
 30
0.0
 11
-360.2948987806164
 21
1038.732530748522
 31
0.0
  0
LINE
  5
403
330
1F
100
AcDbEntity
  8
1-2
  6
Continuous
 62
     3
370
     9
100
AcDbLine
 10
-350.3948314769846
 20
1052.732675913218
 30
0.0
 11
-350.3948314769846
 21
1038.732530748522
 31
0.0
  0
LINE
  5
404
330
1F
100
AcDbEntity
  8
1-2
  6
Continuous
 62
     3
370
     9
100
AcDbLine
 10
-370.1949660842482
 20
1026.732689110009
 30
0.0
 11
-370.1949660842482
 21
1012.732543945312
 31
0.0
  0
LINE
  5
405
330
1F
100
AcDbEntity
  8
1-2
  6
Continuous
 62
     3
370
     9
100
AcDbLine
 10
-360.2948987806164
 20
1026.732689110009
 30
0.0
 11
-360.2948987806164
 21
1012.732543945312
 31
0.0
  0
LINE
  5
406
330
1F
100
AcDbEntity
  8
1-2
  6
Continuous
 62
     3
370
     9
100
AcDbLine
 10
-350.3948314769846
 20
1026.732689110009
 30
0.0
 11
-350.3948314769846
 21
1012.732543945312
 31
0.0
  0
LINE
  5
407
330
1F
100
AcDbEntity
  8
1-2
  6
Continuous
 62
     3
370
     9
100
AcDbLine
 10
-370.1949660842482
 20
1000.732702306799
 30
0.0
 11
-370.1949660842482
 21
986.7325571421031
 31
0.0
  0
LINE
  5
408
330
1F
100
AcDbEntity
  8
1-2
  6
Continuous
 62
     3
370
     9
100
AcDbLine
 10
-360.2948987806164
 20
1000.732702306799
 30
0.0
 11
-360.2948987806164
 21
986.7325571421031
 31
0.0
  0
LINE
  5
409
330
1F
100
AcDbEntity
  8
1-2
  6
Continuous
 62
     3
370
     9
100
AcDbLine
 10
-350.3948314769846
 20
1000.732702306799
 30
0.0
 11
-350.3948314769846
 21
986.7325571421031
 31
0.0
  0
LINE
  5
40A
330
1F
100
AcDbEntity
  8
1-2
  6
Continuous
 62
     3
370
     9
100
AcDbLine
 10
-370.1949660842482
 20
974.7327155035896
 30
0.0
 11
-370.1949660842482
 21
960.7325703388938
 31
0.0
  0
LINE
  5
40B
330
1F
100
AcDbEntity
  8
1-2
  6
Continuous
 62
     3
370
     9
100
AcDbLine
 10
-360.2948987806164
 20
974.7327155035896
 30
0.0
 11
-360.2948987806164
 21
960.7325703388938
 31
0.0
  0
LINE
  5
40C
330
1F
100
AcDbEntity
  8
1-2
  6
Continuous
 62
     3
370
     9
100
AcDbLine
 10
-350.3948314769846
 20
974.7327155035896
 30
0.0
 11
-350.3948314769846
 21
960.7325703388938
 31
0.0
  0
LINE
  5
40D
330
1F
100
AcDbEntity
  8
1-2
  6
Continuous
 62
     3
370
     9
100
AcDbLine
 10
-370.1949660842482
 20
948.7327287003802
 30
0.0
 11
-370.1949660842482
 21
934.7325835356842
 31
0.0
  0
LINE
  5
40E
330
1F
100
AcDbEntity
  8
1-2
  6
Continuous
 62
     3
370
     9
100
AcDbLine
 10
-360.2948987806164
 20
948.7327287003802
 30
0.0
 11
-360.2948987806164
 21
934.7325835356842
 31
0.0
  0
LINE
  5
40F
330
1F
100
AcDbEntity
  8
1-2
  6
Continuous
 62
     3
370
     9
100
AcDbLine
 10
-350.3948314769846
 20
948.7327287003802
 30
0.0
 11
-350.3948314769846
 21
934.7325835356842
 31
0.0
  0
LINE
  5
410
330
1F
100
AcDbEntity
  8
1-2
  6
Continuous
 62
     3
370
     9
100
AcDbLine
 10
-370.1949660842482
 20
922.7327418971709
 30
0.0
 11
-370.1949660842482
 21
908.7325967324748
 31
0.0
  0
LINE
  5
411
330
1F
100
AcDbEntity
  8
1-2
  6
Continuous
 62
     3
370
     9
100
AcDbLine
 10
-360.2948987806164
 20
922.7327418971709
 30
0.0
 11
-360.2948987806164
 21
908.7325967324748
 31
0.0
  0
LINE
  5
412
330
1F
100
AcDbEntity
  8
1-2
  6
Continuous
 62
     3
370
     9
100
AcDbLine
 10
-350.3948314769846
 20
922.7327418971709
 30
0.0
 11
-350.3948314769846
 21
908.7325967324748
 31
0.0
  0
LINE
  5
413
330
1F
100
AcDbEntity
  8
1-2
  6
Continuous
 62
     3
370
     9
100
AcDbLine
 10
-370.1949660842482
 20
896.7327550939613
 30
0.0
 11
-370.1949660842482
 21
882.7326099292654
 31
0.0
  0
LINE
  5
414
330
1F
100
AcDbEntity
  8
1-2
  6
Continuous
 62
     3
370
     9
100
AcDbLine
 10
-360.2948987806164
 20
896.7327550939613
 30
0.0
 11
-360.2948987806164
 21
882.7326099292654
 31
0.0
  0
LINE
  5
415
330
1F
100
AcDbEntity
  8
1-2
  6
Continuous
 62
     3
370
     9
100
AcDbLine
 10
-350.3948314769846
 20
896.7327550939613
 30
0.0
 11
-350.3948314769846
 21
882.7326099292654
 31
0.0
  0
LINE
  5
416
330
1F
100
AcDbEntity
  8
1-2
  6
Continuous
 62
     3
370
     9
100
AcDbLine
 10
-370.1949660842482
 20
870.7327682907519
 30
0.0
 11
-370.1949660842482
 21
856.7326231260561
 31
0.0
  0
LINE
  5
417
330
1F
100
AcDbEntity
  8
1-2
  6
Continuous
 62
     3
370
     9
100
AcDbLine
 10
-360.2948987806164
 20
870.7327682907519
 30
0.0
 11
-360.2948987806164
 21
856.7326231260561
 31
0.0
  0
LINE
  5
418
330
1F
100
AcDbEntity
  8
1-2
  6
Continuous
 62
     3
370
     9
100
AcDbLine
 10
-350.3948314769846
 20
870.7327682907519
 30
0.0
 11
-350.3948314769846
 21
856.7326231260561
 31
0.0
  0
LINE
  5
419
330
1F
100
AcDbEntity
  8
1-2
  6
Continuous
 62
     3
370
     9
100
AcDbLine
 10
-370.1949660842482
 20
844.7327814875425
 30
0.0
 11
-370.1949660842482
 21
830.7326363228464
 31
0.0
  0
LINE
  5
41A
330
1F
100
AcDbEntity
  8
1-2
  6
Continuous
 62
     3
370
     9
100
AcDbLine
 10
-360.2948987806164
 20
844.7327814875425
 30
0.0
 11
-360.2948987806164
 21
830.7326363228464
 31
0.0
  0
LINE
  5
41B
330
1F
100
AcDbEntity
  8
1-2
  6
Continuous
 62
     3
370
     9
100
AcDbLine
 10
-350.3948314769846
 20
844.7327814875425
 30
0.0
 11
-350.3948314769846
 21
830.7326363228464
 31
0.0
  0
LINE
  5
41C
330
1F
100
AcDbEntity
  8
1-2
  6
Continuous
 62
     3
370
     9
100
AcDbLine
 10
-74.19507825696769
 20
1156.732623126056
 30
0.0
 11
-74.19507825696769
 21
1142.73247796136
 31
0.0
  0
LINE
  5
41D
330
1F
100
AcDbEntity
  8
1-2
  6
Continuous
 62
     3
370
     9
100
AcDbLine
 10
-64.29501095333592
 20
1156.732623126056
 30
0.0
 11
-64.29501095333592
 21
1142.73247796136
 31
0.0
  0
LINE
  5
41E
330
1F
100
AcDbEntity
  8
1-2
  6
Continuous
 62
     3
370
     9
100
AcDbLine
 10
-54.39494364970415
 20
1156.732623126056
 30
0.0
 11
-54.39494364970415
 21
1142.73247796136
 31
0.0
  0
LINE
  5
41F
330
1F
100
AcDbEntity
  8
1-2
  6
Continuous
 62
     3
370
     9
100
AcDbLine
 10
-74.19507825696769
 20
1130.732636322846
 30
0.0
 11
-74.19507825696769
 21
1116.73249115815
 31
0.0
  0
LINE
  5
420
330
1F
100
AcDbEntity
  8
1-2
  6
Continuous
 62
     3
370
     9
100
AcDbLine
 10
-64.29501095333592
 20
1130.732636322846
 30
0.0
 11
-64.29501095333592
 21
1116.73249115815
 31
0.0
  0
LINE
  5
421
330
1F
100
AcDbEntity
  8
1-2
  6
Continuous
 62
     3
370
     9
100
AcDbLine
 10
-54.39494364970415
 20
1130.732636322846
 30
0.0
 11
-54.39494364970415
 21
1116.73249115815
 31
0.0
  0
LINE
  5
422
330
1F
100
AcDbEntity
  8
1-2
  6
Continuous
 62
     3
370
     9
100
AcDbLine
 10
-74.19507825696769
 20
1104.732649519637
 30
0.0
 11
-74.19507825696769
 21
1090.732504354941
 31
0.0
  0
LINE
  5
423
330
1F
100
AcDbEntity
  8
1-2
  6
Continuous
 62
     3
370
     9
100
AcDbLine
 10
-64.29501095333592
 20
1104.732649519637
 30
0.0
 11
-64.29501095333592
 21
1090.732504354941
 31
0.0
  0
LINE
  5
424
330
1F
100
AcDbEntity
  8
1-2
  6
Continuous
 62
     3
370
     9
100
AcDbLine
 10
-54.39494364970415
 20
1104.732649519637
 30
0.0
 11
-54.39494364970415
 21
1090.732504354941
 31
0.0
  0
LINE
  5
425
330
1F
100
AcDbEntity
  8
1-2
  6
Continuous
 62
     3
370
     9
100
AcDbLine
 10
-74.19507825696769
 20
1078.732662716428
 30
0.0
 11
-74.19507825696769
 21
1064.732517551731
 31
0.0
  0
LINE
  5
426
330
1F
100
AcDbEntity
  8
1-2
  6
Continuous
 62
     3
370
     9
100
AcDbLine
 10
-64.29501095333592
 20
1078.732662716428
 30
0.0
 11
-64.29501095333592
 21
1064.732517551731
 31
0.0
  0
LINE
  5
427
330
1F
100
AcDbEntity
  8
1-2
  6
Continuous
 62
     3
370
     9
100
AcDbLine
 10
-54.39494364970415
 20
1078.732662716428
 30
0.0
 11
-54.39494364970415
 21
1064.732517551731
 31
0.0
  0
LINE
  5
428
330
1F
100
AcDbEntity
  8
1-2
  6
Continuous
 62
     3
370
     9
100
AcDbLine
 10
-74.19507825696769
 20
1052.732675913218
 30
0.0
 11
-74.19507825696769
 21
1038.732530748522
 31
0.0
  0
LINE
  5
429
330
1F
100
AcDbEntity
  8
1-2
  6
Continuous
 62
     3
370
     9
100
AcDbLine
 10
-64.29501095333592
 20
1052.732675913218
 30
0.0
 11
-64.29501095333592
 21
1038.732530748522
 31
0.0
  0
LINE
  5
42A
330
1F
100
AcDbEntity
  8
1-2
  6
Continuous
 62
     3
370
     9
100
AcDbLine
 10
-54.39494364970415
 20
1052.732675913218
 30
0.0
 11
-54.39494364970415
 21
1038.732530748522
 31
0.0
  0
LINE
  5
42B
330
1F
100
AcDbEntity
  8
1-2
  6
Continuous
 62
     3
370
     9
100
AcDbLine
 10
-74.19507825696769
 20
1026.732689110009
 30
0.0
 11
-74.19507825696769
 21
1012.732543945312
 31
0.0
  0
LINE
  5
42C
330
1F
100
AcDbEntity
  8
1-2
  6
Continuous
 62
     3
370
     9
100
AcDbLine
 10
-64.29501095333592
 20
1026.732689110009
 30
0.0
 11
-64.29501095333592
 21
1012.732543945312
 31
0.0
  0
LINE
  5
42D
330
1F
100
AcDbEntity
  8
1-2
  6
Continuous
 62
     3
370
     9
100
AcDbLine
 10
-54.39494364970415
 20
1026.732689110009
 30
0.0
 11
-54.39494364970415
 21
1012.732543945312
 31
0.0
  0
LINE
  5
42E
330
1F
100
AcDbEntity
  8
1-2
  6
Continuous
 62
     3
370
     9
100
AcDbLine
 10
-74.19507825696769
 20
1000.732702306799
 30
0.0
 11
-74.19507825696769
 21
986.7325571421031
 31
0.0
  0
LINE
  5
42F
330
1F
100
AcDbEntity
  8
1-2
  6
Continuous
 62
     3
370
     9
100
AcDbLine
 10
-64.29501095333592
 20
1000.732702306799
 30
0.0
 11
-64.29501095333592
 21
986.7325571421031
 31
0.0
  0
LINE
  5
430
330
1F
100
AcDbEntity
  8
1-2
  6
Continuous
 62
     3
370
     9
100
AcDbLine
 10
-54.39494364970415
 20
1000.732702306799
 30
0.0
 11
-54.39494364970415
 21
986.7325571421031
 31
0.0
  0
LINE
  5
431
330
1F
100
AcDbEntity
  8
1-2
  6
Continuous
 62
     3
370
     9
100
AcDbLine
 10
-74.19507825696769
 20
974.7327155035896
 30
0.0
 11
-74.19507825696769
 21
960.7325703388938
 31
0.0
  0
LINE
  5
432
330
1F
100
AcDbEntity
  8
1-2
  6
Continuous
 62
     3
370
     9
100
AcDbLine
 10
-64.29501095333592
 20
974.7327155035896
 30
0.0
 11
-64.29501095333592
 21
960.7325703388938
 31
0.0
  0
LINE
  5
433
330
1F
100
AcDbEntity
  8
1-2
  6
Continuous
 62
     3
370
     9
100
AcDbLine
 10
-54.39494364970415
 20
974.7327155035896
 30
0.0
 11
-54.39494364970415
 21
960.7325703388938
 31
0.0
  0
LINE
  5
434
330
1F
100
AcDbEntity
  8
1-2
  6
Continuous
 62
     3
370
     9
100
AcDbLine
 10
-74.19507825696769
 20
948.7327287003802
 30
0.0
 11
-74.19507825696769
 21
934.7325835356842
 31
0.0
  0
LINE
  5
435
330
1F
100
AcDbEntity
  8
1-2
  6
Continuous
 62
     3
370
     9
100
AcDbLine
 10
-64.29501095333592
 20
948.7327287003802
 30
0.0
 11
-64.29501095333592
 21
934.7325835356842
 31
0.0
  0
LINE
  5
436
330
1F
100
AcDbEntity
  8
1-2
  6
Continuous
 62
     3
370
     9
100
AcDbLine
 10
-54.39494364970415
 20
948.7327287003802
 30
0.0
 11
-54.39494364970415
 21
934.7325835356842
 31
0.0
  0
LINE
  5
437
330
1F
100
AcDbEntity
  8
1-2
  6
Continuous
 62
     3
370
     9
100
AcDbLine
 10
-74.19507825696769
 20
922.7327418971709
 30
0.0
 11
-74.19507825696769
 21
908.7325967324748
 31
0.0
  0
LINE
  5
438
330
1F
100
AcDbEntity
  8
1-2
  6
Continuous
 62
     3
370
     9
100
AcDbLine
 10
-64.29501095333592
 20
922.7327418971709
 30
0.0
 11
-64.29501095333592
 21
908.7325967324748
 31
0.0
  0
LINE
  5
439
330
1F
100
AcDbEntity
  8
1-2
  6
Continuous
 62
     3
370
     9
100
AcDbLine
 10
-54.39494364970415
 20
922.7327418971709
 30
0.0
 11
-54.39494364970415
 21
908.7325967324748
 31
0.0
  0
LINE
  5
43A
330
1F
100
AcDbEntity
  8
1-2
  6
Continuous
 62
     3
370
     9
100
AcDbLine
 10
-74.19507825696769
 20
896.7327550939613
 30
0.0
 11
-74.19507825696769
 21
882.7326099292654
 31
0.0
  0
LINE
  5
43B
330
1F
100
AcDbEntity
  8
1-2
  6
Continuous
 62
     3
370
     9
100
AcDbLine
 10
-64.29501095333592
 20
896.7327550939613
 30
0.0
 11
-64.29501095333592
 21
882.7326099292654
 31
0.0
  0
LINE
  5
43C
330
1F
100
AcDbEntity
  8
1-2
  6
Continuous
 62
     3
370
     9
100
AcDbLine
 10
-54.39494364970415
 20
896.7327550939613
 30
0.0
 11
-54.39494364970415
 21
882.7326099292654
 31
0.0
  0
LINE
  5
43D
330
1F
100
AcDbEntity
  8
1-2
  6
Continuous
 62
     3
370
     9
100
AcDbLine
 10
-74.19507825696769
 20
870.7327682907519
 30
0.0
 11
-74.19507825696769
 21
856.7326231260561
 31
0.0
  0
LINE
  5
43E
330
1F
100
AcDbEntity
  8
1-2
  6
Continuous
 62
     3
370
     9
100
AcDbLine
 10
-64.29501095333592
 20
870.7327682907519
 30
0.0
 11
-64.29501095333592
 21
856.7326231260561
 31
0.0
  0
LINE
  5
43F
330
1F
100
AcDbEntity
  8
1-2
  6
Continuous
 62
     3
370
     9
100
AcDbLine
 10
-54.39494364970415
 20
870.7327682907519
 30
0.0
 11
-54.39494364970415
 21
856.7326231260561
 31
0.0
  0
LINE
  5
440
330
1F
100
AcDbEntity
  8
1-2
  6
Continuous
 62
     3
370
     9
100
AcDbLine
 10
-1318.194827517948
 20
34.73258353568411
 30
0.0
 11
-1318.194827517948
 21
20.73243837098829
 31
0.0
  0
LINE
  5
441
330
1F
100
AcDbEntity
  8
1-2
  6
Continuous
 62
     3
370
     9
100
AcDbLine
 10
-1318.194827517948
 20
60.73257033889377
 30
0.0
 11
-1318.194827517948
 21
46.73242517419766
 31
0.0
  0
LINE
  5
442
330
1F
100
AcDbEntity
  8
1-2
  6
Continuous
 62
     3
370
     9
100
AcDbLine
 10
-1318.194827517948
 20
86.73255714210313
 30
0.0
 11
-1318.194827517948
 21
72.73241197740731
 31
0.0
  0
LINE
  5
443
330
1F
100
AcDbEntity
  8
1-2
  6
Continuous
 62
     3
370
     9
100
AcDbLine
 10
-1318.194827517948
 20
112.7325439453125
 30
0.0
 11
-1318.194827517948
 21
98.73239878061668
 31
0.0
  0
LINE
  5
444
330
1F
100
AcDbEntity
  8
1-2
  6
Continuous
 62
     3
370
     9
100
AcDbLine
 10
-1318.194827517948
 20
138.7325307485222
 30
0.0
 11
-1318.194827517948
 21
124.732385583826
 31
0.0
  0
LINE
  5
445
330
1F
100
AcDbEntity
  8
1-2
  6
Continuous
 62
     3
370
     9
100
AcDbLine
 10
-1318.194827517948
 20
164.7325175517315
 30
0.0
 11
-1318.194827517948
 21
150.7323723870357
 31
0.0
  0
LINE
  5
446
330
1F
100
AcDbEntity
  8
1-2
  6
Continuous
 62
     3
370
     9
100
AcDbLine
 10
-1318.194827517948
 20
190.7325043549409
 30
0.0
 11
-1318.194827517948
 21
176.7323591902451
 31
0.0
  0
LINE
  5
447
330
1F
100
AcDbEntity
  8
1-2
  6
Continuous
 62
     3
370
     9
100
AcDbLine
 10
-1318.194827517948
 20
216.7324911581505
 30
0.0
 11
-1318.194827517948
 21
202.7323459934544
 31
0.0
  0
LINE
  5
448
330
1F
100
AcDbEntity
  8
1-2
  6
Continuous
 62
     3
370
     9
100
AcDbLine
 10
-1318.194827517948
 20
242.7324779613599
 30
0.0
 11
-1318.194827517948
 21
228.7323327966641
 31
0.0
  0
LINE
  5
449
330
1F
100
AcDbEntity
  8
1-2
  6
Continuous
 62
     3
370
     9
100
AcDbLine
 10
-1318.194827517948
 20
268.7324647645693
 30
0.0
 11
-1318.194827517948
 21
254.7323195998734
 31
0.0
  0
LINE
  5
44A
330
1F
100
AcDbEntity
  8
1-2
  6
Continuous
 62
     3
370
     9
100
AcDbLine
 10
-1318.194827517948
 20
320.7324383709883
 30
0.0
 11
-1318.194827517948
 21
306.7322932062925
 31
0.0
  0
LINE
  5
44B
330
1F
100
AcDbEntity
  8
1-2
  6
Continuous
 62
     3
370
     9
100
AcDbLine
 10
-1318.194827517948
 20
294.7324515677789
 30
0.0
 11
-1318.194827517948
 21
280.7323064030828
 31
0.0
  0
LINE
  5
44C
330
1F
100
AcDbEntity
  8
1-2
  6
Continuous
 62
     3
370
     9
100
AcDbLine
 10
-1308.294760214316
 20
34.73258353568411
 30
0.0
 11
-1308.294760214316
 21
20.73243837098829
 31
0.0
  0
LINE
  5
44D
330
1F
100
AcDbEntity
  8
1-2
  6
Continuous
 62
     3
370
     9
100
AcDbLine
 10
-1308.294760214316
 20
60.73257033889377
 30
0.0
 11
-1308.294760214316
 21
46.73242517419766
 31
0.0
  0
LINE
  5
44E
330
1F
100
AcDbEntity
  8
1-2
  6
Continuous
 62
     3
370
     9
100
AcDbLine
 10
-1308.294760214316
 20
86.73255714210313
 30
0.0
 11
-1308.294760214316
 21
72.73241197740731
 31
0.0
  0
LINE
  5
44F
330
1F
100
AcDbEntity
  8
1-2
  6
Continuous
 62
     3
370
     9
100
AcDbLine
 10
-1308.294760214316
 20
112.7325439453125
 30
0.0
 11
-1308.294760214316
 21
98.73239878061668
 31
0.0
  0
LINE
  5
450
330
1F
100
AcDbEntity
  8
1-2
  6
Continuous
 62
     3
370
     9
100
AcDbLine
 10
-1308.294760214316
 20
138.7325307485222
 30
0.0
 11
-1308.294760214316
 21
124.732385583826
 31
0.0
  0
LINE
  5
451
330
1F
100
AcDbEntity
  8
1-2
  6
Continuous
 62
     3
370
     9
100
AcDbLine
 10
-1308.294760214316
 20
164.7325175517315
 30
0.0
 11
-1308.294760214316
 21
150.7323723870357
 31
0.0
  0
LINE
  5
452
330
1F
100
AcDbEntity
  8
1-2
  6
Continuous
 62
     3
370
     9
100
AcDbLine
 10
-1308.294760214316
 20
190.7325043549409
 30
0.0
 11
-1308.294760214316
 21
176.7323591902451
 31
0.0
  0
LINE
  5
453
330
1F
100
AcDbEntity
  8
1-2
  6
Continuous
 62
     3
370
     9
100
AcDbLine
 10
-1308.294760214316
 20
216.7324911581505
 30
0.0
 11
-1308.294760214316
 21
202.7323459934544
 31
0.0
  0
LINE
  5
454
330
1F
100
AcDbEntity
  8
1-2
  6
Continuous
 62
     3
370
     9
100
AcDbLine
 10
-1308.294760214316
 20
242.7324779613599
 30
0.0
 11
-1308.294760214316
 21
228.7323327966641
 31
0.0
  0
LINE
  5
455
330
1F
100
AcDbEntity
  8
1-2
  6
Continuous
 62
     3
370
     9
100
AcDbLine
 10
-1308.294760214316
 20
268.7324647645693
 30
0.0
 11
-1308.294760214316
 21
254.7323195998734
 31
0.0
  0
LINE
  5
456
330
1F
100
AcDbEntity
  8
1-2
  6
Continuous
 62
     3
370
     9
100
AcDbLine
 10
-1308.294760214316
 20
320.7324383709883
 30
0.0
 11
-1308.294760214316
 21
306.7322932062925
 31
0.0
  0
LINE
  5
457
330
1F
100
AcDbEntity
  8
1-2
  6
Continuous
 62
     3
370
     9
100
AcDbLine
 10
-1308.294760214316
 20
294.7324515677789
 30
0.0
 11
-1308.294760214316
 21
280.7323064030828
 31
0.0
  0
LINE
  5
458
330
1F
100
AcDbEntity
  8
1-2
  6
Continuous
 62
     3
370
     9
100
AcDbLine
 10
-1298.394692910684
 20
320.7324383709883
 30
0.0
 11
-1298.394692910684
 21
306.7322932062925
 31
0.0
  0
LINE
  5
459
330
1F
100
AcDbEntity
  8
1-2
  6
Continuous
 62
     3
370
     9
100
AcDbLine
 10
-1298.394692910684
 20
294.7324515677789
 30
0.0
 11
-1298.394692910684
 21
280.7323064030828
 31
0.0
  0
LINE
  5
45A
330
1F
100
AcDbEntity
  8
1-2
  6
Continuous
 62
     3
370
     9
100
AcDbLine
 10
-1298.394692910684
 20
268.7324647645693
 30
0.0
 11
-1298.394692910684
 21
254.7323195998734
 31
0.0
  0
LINE
  5
45B
330
1F
100
AcDbEntity
  8
1-2
  6
Continuous
 62
     3
370
     9
100
AcDbLine
 10
-1298.394692910684
 20
242.7324779613599
 30
0.0
 11
-1298.394692910684
 21
228.7323327966641
 31
0.0
  0
LINE
  5
45C
330
1F
100
AcDbEntity
  8
1-2
  6
Continuous
 62
     3
370
     9
100
AcDbLine
 10
-1298.394692910684
 20
216.7324911581505
 30
0.0
 11
-1298.394692910684
 21
202.7323459934544
 31
0.0
  0
LINE
  5
45D
330
1F
100
AcDbEntity
  8
1-2
  6
Continuous
 62
     3
370
     9
100
AcDbLine
 10
-1298.394692910684
 20
190.7325043549409
 30
0.0
 11
-1298.394692910684
 21
176.7323591902451
 31
0.0
  0
LINE
  5
45E
330
1F
100
AcDbEntity
  8
1-2
  6
Continuous
 62
     3
370
     9
100
AcDbLine
 10
-1298.394692910684
 20
164.7325175517315
 30
0.0
 11
-1298.394692910684
 21
150.7323723870357
 31
0.0
  0
LINE
  5
45F
330
1F
100
AcDbEntity
  8
1-2
  6
Continuous
 62
     3
370
     9
100
AcDbLine
 10
-1298.394692910684
 20
138.7325307485222
 30
0.0
 11
-1298.394692910684
 21
124.732385583826
 31
0.0
  0
LINE
  5
460
330
1F
100
AcDbEntity
  8
1-2
  6
Continuous
 62
     3
370
     9
100
AcDbLine
 10
-1298.394692910684
 20
112.7325439453125
 30
0.0
 11
-1298.394692910684
 21
98.73239878061668
 31
0.0
  0
LINE
  5
461
330
1F
100
AcDbEntity
  8
1-2
  6
Continuous
 62
     3
370
     9
100
AcDbLine
 10
-1298.394692910684
 20
86.73255714210313
 30
0.0
 11
-1298.394692910684
 21
72.73241197740731
 31
0.0
  0
LINE
  5
462
330
1F
100
AcDbEntity
  8
1-2
  6
Continuous
 62
     3
370
     9
100
AcDbLine
 10
-1298.394692910684
 20
60.73257033889377
 30
0.0
 11
-1298.394692910684
 21
46.73242517419766
 31
0.0
  0
LINE
  5
463
330
1F
100
AcDbEntity
  8
1-2
  6
Continuous
 62
     3
370
     9
100
AcDbLine
 10
-1298.394692910684
 20
34.73258353568411
 30
0.0
 11
-1298.394692910684
 21
20.73243837098829
 31
0.0
  0
LINE
  5
464
330
1F
100
AcDbEntity
  8
1-2
  6
Continuous
 62
     3
370
     9
100
AcDbLine
 10
-978.1949429898648
 20
34.73258353568411
 30
0.0
 11
-978.1949429898648
 21
20.73243837098829
 31
0.0
  0
LINE
  5
465
330
1F
100
AcDbEntity
  8
1-2
  6
Continuous
 62
     3
370
     9
100
AcDbLine
 10
-978.1949429898648
 20
60.73257033889377
 30
0.0
 11
-978.1949429898648
 21
46.73242517419766
 31
0.0
  0
LINE
  5
466
330
1F
100
AcDbEntity
  8
1-2
  6
Continuous
 62
     3
370
     9
100
AcDbLine
 10
-978.1949429898648
 20
86.73255714210313
 30
0.0
 11
-978.1949429898648
 21
72.73241197740731
 31
0.0
  0
LINE
  5
467
330
1F
100
AcDbEntity
  8
1-2
  6
Continuous
 62
     3
370
     9
100
AcDbLine
 10
-978.1949429898648
 20
112.7325439453125
 30
0.0
 11
-978.1949429898648
 21
98.73239878061668
 31
0.0
  0
LINE
  5
468
330
1F
100
AcDbEntity
  8
1-2
  6
Continuous
 62
     3
370
     9
100
AcDbLine
 10
-978.1949429898648
 20
138.7325307485222
 30
0.0
 11
-978.1949429898648
 21
124.732385583826
 31
0.0
  0
LINE
  5
469
330
1F
100
AcDbEntity
  8
1-2
  6
Continuous
 62
     3
370
     9
100
AcDbLine
 10
-978.1949429898648
 20
164.7325175517315
 30
0.0
 11
-978.1949429898648
 21
150.7323723870357
 31
0.0
  0
LINE
  5
46A
330
1F
100
AcDbEntity
  8
1-2
  6
Continuous
 62
     3
370
     9
100
AcDbLine
 10
-978.1949429898648
 20
190.7325043549409
 30
0.0
 11
-978.1949429898648
 21
176.7323591902451
 31
0.0
  0
LINE
  5
46B
330
1F
100
AcDbEntity
  8
1-2
  6
Continuous
 62
     3
370
     9
100
AcDbLine
 10
-978.1949429898648
 20
216.7324911581505
 30
0.0
 11
-978.1949429898648
 21
202.7323459934544
 31
0.0
  0
LINE
  5
46C
330
1F
100
AcDbEntity
  8
1-2
  6
Continuous
 62
     3
370
     9
100
AcDbLine
 10
-978.1949429898648
 20
242.7324779613599
 30
0.0
 11
-978.1949429898648
 21
228.7323327966641
 31
0.0
  0
LINE
  5
46D
330
1F
100
AcDbEntity
  8
1-2
  6
Continuous
 62
     3
370
     9
100
AcDbLine
 10
-978.1949429898648
 20
268.7324647645693
 30
0.0
 11
-978.1949429898648
 21
254.7323195998734
 31
0.0
  0
LINE
  5
46E
330
1F
100
AcDbEntity
  8
1-2
  6
Continuous
 62
     3
370
     9
100
AcDbLine
 10
-978.1949429898648
 20
320.7324383709883
 30
0.0
 11
-978.1949429898648
 21
306.7322932062925
 31
0.0
  0
LINE
  5
46F
330
1F
100
AcDbEntity
  8
1-2
  6
Continuous
 62
     3
370
     9
100
AcDbLine
 10
-978.1949429898648
 20
294.7324515677789
 30
0.0
 11
-978.1949429898648
 21
280.7323064030828
 31
0.0
  0
LINE
  5
470
330
1F
100
AcDbEntity
  8
1-2
  6
Continuous
 62
     3
370
     9
100
AcDbLine
 10
-968.2948756862331
 20
34.73258353568411
 30
0.0
 11
-968.2948756862331
 21
20.73243837098829
 31
0.0
  0
LINE
  5
471
330
1F
100
AcDbEntity
  8
1-2
  6
Continuous
 62
     3
370
     9
100
AcDbLine
 10
-968.2948756862331
 20
60.73257033889377
 30
0.0
 11
-968.2948756862331
 21
46.73242517419766
 31
0.0
  0
LINE
  5
472
330
1F
100
AcDbEntity
  8
1-2
  6
Continuous
 62
     3
370
     9
100
AcDbLine
 10
-968.2948756862331
 20
86.73255714210313
 30
0.0
 11
-968.2948756862331
 21
72.73241197740731
 31
0.0
  0
LINE
  5
473
330
1F
100
AcDbEntity
  8
1-2
  6
Continuous
 62
     3
370
     9
100
AcDbLine
 10
-968.2948756862331
 20
112.7325439453125
 30
0.0
 11
-968.2948756862331
 21
98.73239878061668
 31
0.0
  0
LINE
  5
474
330
1F
100
AcDbEntity
  8
1-2
  6
Continuous
 62
     3
370
     9
100
AcDbLine
 10
-968.2948756862331
 20
138.7325307485222
 30
0.0
 11
-968.2948756862331
 21
124.732385583826
 31
0.0
  0
LINE
  5
475
330
1F
100
AcDbEntity
  8
1-2
  6
Continuous
 62
     3
370
     9
100
AcDbLine
 10
-968.2948756862331
 20
164.7325175517315
 30
0.0
 11
-968.2948756862331
 21
150.7323723870357
 31
0.0
  0
LINE
  5
476
330
1F
100
AcDbEntity
  8
1-2
  6
Continuous
 62
     3
370
     9
100
AcDbLine
 10
-968.2948756862331
 20
190.7325043549409
 30
0.0
 11
-968.2948756862331
 21
176.7323591902451
 31
0.0
  0
LINE
  5
477
330
1F
100
AcDbEntity
  8
1-2
  6
Continuous
 62
     3
370
     9
100
AcDbLine
 10
-968.2948756862331
 20
216.7324911581505
 30
0.0
 11
-968.2948756862331
 21
202.7323459934544
 31
0.0
  0
LINE
  5
478
330
1F
100
AcDbEntity
  8
1-2
  6
Continuous
 62
     3
370
     9
100
AcDbLine
 10
-968.2948756862331
 20
242.7324779613599
 30
0.0
 11
-968.2948756862331
 21
228.7323327966641
 31
0.0
  0
LINE
  5
479
330
1F
100
AcDbEntity
  8
1-2
  6
Continuous
 62
     3
370
     9
100
AcDbLine
 10
-968.2948756862331
 20
268.7324647645693
 30
0.0
 11
-968.2948756862331
 21
254.7323195998734
 31
0.0
  0
LINE
  5
47A
330
1F
100
AcDbEntity
  8
1-2
  6
Continuous
 62
     3
370
     9
100
AcDbLine
 10
-968.2948756862331
 20
320.7324383709883
 30
0.0
 11
-968.2948756862331
 21
306.7322932062925
 31
0.0
  0
LINE
  5
47B
330
1F
100
AcDbEntity
  8
1-2
  6
Continuous
 62
     3
370
     9
100
AcDbLine
 10
-968.2948756862331
 20
294.7324515677789
 30
0.0
 11
-968.2948756862331
 21
280.7323064030828
 31
0.0
  0
LINE
  5
47C
330
1F
100
AcDbEntity
  8
1-2
  6
Continuous
 62
     3
370
     9
100
AcDbLine
 10
-958.3948083826012
 20
320.7324383709883
 30
0.0
 11
-958.3948083826012
 21
306.7322932062925
 31
0.0
  0
LINE
  5
47D
330
1F
100
AcDbEntity
  8
1-2
  6
Continuous
 62
     3
370
     9
100
AcDbLine
 10
-958.3948083826012
 20
294.7324515677789
 30
0.0
 11
-958.3948083826012
 21
280.7323064030828
 31
0.0
  0
LINE
  5
47E
330
1F
100
AcDbEntity
  8
1-2
  6
Continuous
 62
     3
370
     9
100
AcDbLine
 10
-958.3948083826012
 20
268.7324647645693
 30
0.0
 11
-958.3948083826012
 21
254.7323195998734
 31
0.0
  0
LINE
  5
47F
330
1F
100
AcDbEntity
  8
1-2
  6
Continuous
 62
     3
370
     9
100
AcDbLine
 10
-958.3948083826012
 20
242.7324779613599
 30
0.0
 11
-958.3948083826012
 21
228.7323327966641
 31
0.0
  0
LINE
  5
480
330
1F
100
AcDbEntity
  8
1-2
  6
Continuous
 62
     3
370
     9
100
AcDbLine
 10
-958.3948083826012
 20
216.7324911581505
 30
0.0
 11
-958.3948083826012
 21
202.7323459934544
 31
0.0
  0
LINE
  5
481
330
1F
100
AcDbEntity
  8
1-2
  6
Continuous
 62
     3
370
     9
100
AcDbLine
 10
-958.3948083826012
 20
190.7325043549409
 30
0.0
 11
-958.3948083826012
 21
176.7323591902451
 31
0.0
  0
LINE
  5
482
330
1F
100
AcDbEntity
  8
1-2
  6
Continuous
 62
     3
370
     9
100
AcDbLine
 10
-958.3948083826012
 20
164.7325175517315
 30
0.0
 11
-958.3948083826012
 21
150.7323723870357
 31
0.0
  0
LINE
  5
483
330
1F
100
AcDbEntity
  8
1-2
  6
Continuous
 62
     3
370
     9
100
AcDbLine
 10
-958.3948083826012
 20
138.7325307485222
 30
0.0
 11
-958.3948083826012
 21
124.732385583826
 31
0.0
  0
LINE
  5
484
330
1F
100
AcDbEntity
  8
1-2
  6
Continuous
 62
     3
370
     9
100
AcDbLine
 10
-958.3948083826012
 20
112.7325439453125
 30
0.0
 11
-958.3948083826012
 21
98.73239878061668
 31
0.0
  0
LINE
  5
485
330
1F
100
AcDbEntity
  8
1-2
  6
Continuous
 62
     3
370
     9
100
AcDbLine
 10
-958.3948083826012
 20
86.73255714210313
 30
0.0
 11
-958.3948083826012
 21
72.73241197740731
 31
0.0
  0
LINE
  5
486
330
1F
100
AcDbEntity
  8
1-2
  6
Continuous
 62
     3
370
     9
100
AcDbLine
 10
-958.3948083826012
 20
60.73257033889377
 30
0.0
 11
-958.3948083826012
 21
46.73242517419766
 31
0.0
  0
LINE
  5
487
330
1F
100
AcDbEntity
  8
1-2
  6
Continuous
 62
     3
370
     9
100
AcDbLine
 10
-958.3948083826012
 20
34.73258353568411
 30
0.0
 11
-958.3948083826012
 21
20.73243837098829
 31
0.0
  0
LINE
  5
488
330
1F
100
AcDbEntity
  8
1-2
  6
Continuous
 62
     3
370
     9
100
AcDbLine
 10
-710.194850612331
 20
34.73258353568411
 30
0.0
 11
-710.194850612331
 21
20.73243837098829
 31
0.0
  0
LINE
  5
489
330
1F
100
AcDbEntity
  8
1-2
  6
Continuous
 62
     3
370
     9
100
AcDbLine
 10
-710.194850612331
 20
60.73257033889377
 30
0.0
 11
-710.194850612331
 21
46.73242517419766
 31
0.0
  0
LINE
  5
48A
330
1F
100
AcDbEntity
  8
1-2
  6
Continuous
 62
     3
370
     9
100
AcDbLine
 10
-710.194850612331
 20
86.73255714210313
 30
0.0
 11
-710.194850612331
 21
72.73241197740731
 31
0.0
  0
LINE
  5
48B
330
1F
100
AcDbEntity
  8
1-2
  6
Continuous
 62
     3
370
     9
100
AcDbLine
 10
-710.194850612331
 20
112.7325439453125
 30
0.0
 11
-710.194850612331
 21
98.73239878061668
 31
0.0
  0
LINE
  5
48C
330
1F
100
AcDbEntity
  8
1-2
  6
Continuous
 62
     3
370
     9
100
AcDbLine
 10
-710.194850612331
 20
138.7325307485222
 30
0.0
 11
-710.194850612331
 21
124.732385583826
 31
0.0
  0
LINE
  5
48D
330
1F
100
AcDbEntity
  8
1-2
  6
Continuous
 62
     3
370
     9
100
AcDbLine
 10
-710.194850612331
 20
164.7325175517315
 30
0.0
 11
-710.194850612331
 21
150.7323723870357
 31
0.0
  0
LINE
  5
48E
330
1F
100
AcDbEntity
  8
1-2
  6
Continuous
 62
     3
370
     9
100
AcDbLine
 10
-710.194850612331
 20
190.7325043549409
 30
0.0
 11
-710.194850612331
 21
176.7323591902451
 31
0.0
  0
LINE
  5
48F
330
1F
100
AcDbEntity
  8
1-2
  6
Continuous
 62
     3
370
     9
100
AcDbLine
 10
-710.194850612331
 20
216.7324911581505
 30
0.0
 11
-710.194850612331
 21
202.7323459934544
 31
0.0
  0
LINE
  5
490
330
1F
100
AcDbEntity
  8
1-2
  6
Continuous
 62
     3
370
     9
100
AcDbLine
 10
-710.194850612331
 20
242.7324779613599
 30
0.0
 11
-710.194850612331
 21
228.7323327966641
 31
0.0
  0
LINE
  5
491
330
1F
100
AcDbEntity
  8
1-2
  6
Continuous
 62
     3
370
     9
100
AcDbLine
 10
-710.194850612331
 20
268.7324647645693
 30
0.0
 11
-710.194850612331
 21
254.7323195998734
 31
0.0
  0
LINE
  5
492
330
1F
100
AcDbEntity
  8
1-2
  6
Continuous
 62
     3
370
     9
100
AcDbLine
 10
-710.194850612331
 20
320.7324383709883
 30
0.0
 11
-710.194850612331
 21
306.7322932062925
 31
0.0
  0
LINE
  5
493
330
1F
100
AcDbEntity
  8
1-2
  6
Continuous
 62
     3
370
     9
100
AcDbLine
 10
-710.194850612331
 20
294.7324515677789
 30
0.0
 11
-710.194850612331
 21
280.7323064030828
 31
0.0
  0
LINE
  5
494
330
1F
100
AcDbEntity
  8
1-2
  6
Continuous
 62
     3
370
     9
100
AcDbLine
 10
-700.2947833086992
 20
34.73258353568411
 30
0.0
 11
-700.2947833086992
 21
20.73243837098829
 31
0.0
  0
LINE
  5
495
330
1F
100
AcDbEntity
  8
1-2
  6
Continuous
 62
     3
370
     9
100
AcDbLine
 10
-700.2947833086992
 20
60.73257033889377
 30
0.0
 11
-700.2947833086992
 21
46.73242517419766
 31
0.0
  0
LINE
  5
496
330
1F
100
AcDbEntity
  8
1-2
  6
Continuous
 62
     3
370
     9
100
AcDbLine
 10
-700.2947833086992
 20
86.73255714210313
 30
0.0
 11
-700.2947833086992
 21
72.73241197740731
 31
0.0
  0
LINE
  5
497
330
1F
100
AcDbEntity
  8
1-2
  6
Continuous
 62
     3
370
     9
100
AcDbLine
 10
-700.2947833086992
 20
112.7325439453125
 30
0.0
 11
-700.2947833086992
 21
98.73239878061668
 31
0.0
  0
LINE
  5
498
330
1F
100
AcDbEntity
  8
1-2
  6
Continuous
 62
     3
370
     9
100
AcDbLine
 10
-700.2947833086992
 20
138.7325307485222
 30
0.0
 11
-700.2947833086992
 21
124.732385583826
 31
0.0
  0
LINE
  5
499
330
1F
100
AcDbEntity
  8
1-2
  6
Continuous
 62
     3
370
     9
100
AcDbLine
 10
-700.2947833086992
 20
164.7325175517315
 30
0.0
 11
-700.2947833086992
 21
150.7323723870357
 31
0.0
  0
LINE
  5
49A
330
1F
100
AcDbEntity
  8
1-2
  6
Continuous
 62
     3
370
     9
100
AcDbLine
 10
-700.2947833086992
 20
190.7325043549409
 30
0.0
 11
-700.2947833086992
 21
176.7323591902451
 31
0.0
  0
LINE
  5
49B
330
1F
100
AcDbEntity
  8
1-2
  6
Continuous
 62
     3
370
     9
100
AcDbLine
 10
-700.2947833086992
 20
216.7324911581505
 30
0.0
 11
-700.2947833086992
 21
202.7323459934544
 31
0.0
  0
LINE
  5
49C
330
1F
100
AcDbEntity
  8
1-2
  6
Continuous
 62
     3
370
     9
100
AcDbLine
 10
-700.2947833086992
 20
242.7324779613599
 30
0.0
 11
-700.2947833086992
 21
228.7323327966641
 31
0.0
  0
LINE
  5
49D
330
1F
100
AcDbEntity
  8
1-2
  6
Continuous
 62
     3
370
     9
100
AcDbLine
 10
-700.2947833086992
 20
268.7324647645693
 30
0.0
 11
-700.2947833086992
 21
254.7323195998734
 31
0.0
  0
LINE
  5
49E
330
1F
100
AcDbEntity
  8
1-2
  6
Continuous
 62
     3
370
     9
100
AcDbLine
 10
-700.2947833086992
 20
320.7324383709883
 30
0.0
 11
-700.2947833086992
 21
306.7322932062925
 31
0.0
  0
LINE
  5
49F
330
1F
100
AcDbEntity
  8
1-2
  6
Continuous
 62
     3
370
     9
100
AcDbLine
 10
-700.2947833086992
 20
294.7324515677789
 30
0.0
 11
-700.2947833086992
 21
280.7323064030828
 31
0.0
  0
LINE
  5
4A0
330
1F
100
AcDbEntity
  8
1-2
  6
Continuous
 62
     3
370
     9
100
AcDbLine
 10
-690.3947160050675
 20
320.7324383709883
 30
0.0
 11
-690.3947160050675
 21
306.7322932062925
 31
0.0
  0
LINE
  5
4A1
330
1F
100
AcDbEntity
  8
1-2
  6
Continuous
 62
     3
370
     9
100
AcDbLine
 10
-690.3947160050675
 20
294.7324515677789
 30
0.0
 11
-690.3947160050675
 21
280.7323064030828
 31
0.0
  0
LINE
  5
4A2
330
1F
100
AcDbEntity
  8
1-2
  6
Continuous
 62
     3
370
     9
100
AcDbLine
 10
-690.3947160050675
 20
268.7324647645693
 30
0.0
 11
-690.3947160050675
 21
254.7323195998734
 31
0.0
  0
LINE
  5
4A3
330
1F
100
AcDbEntity
  8
1-2
  6
Continuous
 62
     3
370
     9
100
AcDbLine
 10
-690.3947160050675
 20
242.7324779613599
 30
0.0
 11
-690.3947160050675
 21
228.7323327966641
 31
0.0
  0
LINE
  5
4A4
330
1F
100
AcDbEntity
  8
1-2
  6
Continuous
 62
     3
370
     9
100
AcDbLine
 10
-690.3947160050675
 20
216.7324911581505
 30
0.0
 11
-690.3947160050675
 21
202.7323459934544
 31
0.0
  0
LINE
  5
4A5
330
1F
100
AcDbEntity
  8
1-2
  6
Continuous
 62
     3
370
     9
100
AcDbLine
 10
-690.3947160050675
 20
190.7325043549409
 30
0.0
 11
-690.3947160050675
 21
176.7323591902451
 31
0.0
  0
LINE
  5
4A6
330
1F
100
AcDbEntity
  8
1-2
  6
Continuous
 62
     3
370
     9
100
AcDbLine
 10
-690.3947160050675
 20
164.7325175517315
 30
0.0
 11
-690.3947160050675
 21
150.7323723870357
 31
0.0
  0
LINE
  5
4A7
330
1F
100
AcDbEntity
  8
1-2
  6
Continuous
 62
     3
370
     9
100
AcDbLine
 10
-690.3947160050675
 20
138.7325307485222
 30
0.0
 11
-690.3947160050675
 21
124.732385583826
 31
0.0
  0
LINE
  5
4A8
330
1F
100
AcDbEntity
  8
1-2
  6
Continuous
 62
     3
370
     9
100
AcDbLine
 10
-690.3947160050675
 20
112.7325439453125
 30
0.0
 11
-690.3947160050675
 21
98.73239878061668
 31
0.0
  0
LINE
  5
4A9
330
1F
100
AcDbEntity
  8
1-2
  6
Continuous
 62
     3
370
     9
100
AcDbLine
 10
-690.3947160050675
 20
86.73255714210313
 30
0.0
 11
-690.3947160050675
 21
72.73241197740731
 31
0.0
  0
LINE
  5
4AA
330
1F
100
AcDbEntity
  8
1-2
  6
Continuous
 62
     3
370
     9
100
AcDbLine
 10
-690.3947160050675
 20
60.73257033889377
 30
0.0
 11
-690.3947160050675
 21
46.73242517419766
 31
0.0
  0
LINE
  5
4AB
330
1F
100
AcDbEntity
  8
1-2
  6
Continuous
 62
     3
370
     9
100
AcDbLine
 10
-690.3947160050675
 20
34.73258353568411
 30
0.0
 11
-690.3947160050675
 21
20.73243837098829
 31
0.0
  0
LINE
  5
4AC
330
1F
100
AcDbEntity
  8
1-2
  6
Continuous
 62
     3
370
     9
100
AcDbLine
 10
-370.1949660842482
 20
34.73258353568411
 30
0.0
 11
-370.1949660842482
 21
20.73243837098829
 31
0.0
  0
LINE
  5
4AD
330
1F
100
AcDbEntity
  8
1-2
  6
Continuous
 62
     3
370
     9
100
AcDbLine
 10
-370.1949660842482
 20
60.73257033889377
 30
0.0
 11
-370.1949660842482
 21
46.73242517419766
 31
0.0
  0
LINE
  5
4AE
330
1F
100
AcDbEntity
  8
1-2
  6
Continuous
 62
     3
370
     9
100
AcDbLine
 10
-370.1949660842482
 20
86.73255714210313
 30
0.0
 11
-370.1949660842482
 21
72.73241197740731
 31
0.0
  0
LINE
  5
4AF
330
1F
100
AcDbEntity
  8
1-2
  6
Continuous
 62
     3
370
     9
100
AcDbLine
 10
-370.1949660842482
 20
112.7325439453125
 30
0.0
 11
-370.1949660842482
 21
98.73239878061668
 31
0.0
  0
LINE
  5
4B0
330
1F
100
AcDbEntity
  8
1-2
  6
Continuous
 62
     3
370
     9
100
AcDbLine
 10
-370.1949660842482
 20
138.7325307485222
 30
0.0
 11
-370.1949660842482
 21
124.732385583826
 31
0.0
  0
LINE
  5
4B1
330
1F
100
AcDbEntity
  8
1-2
  6
Continuous
 62
     3
370
     9
100
AcDbLine
 10
-370.1949660842482
 20
164.7325175517315
 30
0.0
 11
-370.1949660842482
 21
150.7323723870357
 31
0.0
  0
LINE
  5
4B2
330
1F
100
AcDbEntity
  8
1-2
  6
Continuous
 62
     3
370
     9
100
AcDbLine
 10
-370.1949660842482
 20
190.7325043549409
 30
0.0
 11
-370.1949660842482
 21
176.7323591902451
 31
0.0
  0
LINE
  5
4B3
330
1F
100
AcDbEntity
  8
1-2
  6
Continuous
 62
     3
370
     9
100
AcDbLine
 10
-370.1949660842482
 20
216.7324911581505
 30
0.0
 11
-370.1949660842482
 21
202.7323459934544
 31
0.0
  0
LINE
  5
4B4
330
1F
100
AcDbEntity
  8
1-2
  6
Continuous
 62
     3
370
     9
100
AcDbLine
 10
-370.1949660842482
 20
242.7324779613599
 30
0.0
 11
-370.1949660842482
 21
228.7323327966641
 31
0.0
  0
LINE
  5
4B5
330
1F
100
AcDbEntity
  8
1-2
  6
Continuous
 62
     3
370
     9
100
AcDbLine
 10
-370.1949660842482
 20
268.7324647645693
 30
0.0
 11
-370.1949660842482
 21
254.7323195998734
 31
0.0
  0
LINE
  5
4B6
330
1F
100
AcDbEntity
  8
1-2
  6
Continuous
 62
     3
370
     9
100
AcDbLine
 10
-370.1949660842482
 20
320.7324383709883
 30
0.0
 11
-370.1949660842482
 21
306.7322932062925
 31
0.0
  0
LINE
  5
4B7
330
1F
100
AcDbEntity
  8
1-2
  6
Continuous
 62
     3
370
     9
100
AcDbLine
 10
-370.1949660842482
 20
294.7324515677789
 30
0.0
 11
-370.1949660842482
 21
280.7323064030828
 31
0.0
  0
LINE
  5
4B8
330
1F
100
AcDbEntity
  8
1-2
  6
Continuous
 62
     3
370
     9
100
AcDbLine
 10
-360.2948987806164
 20
34.73258353568411
 30
0.0
 11
-360.2948987806164
 21
20.73243837098829
 31
0.0
  0
LINE
  5
4B9
330
1F
100
AcDbEntity
  8
1-2
  6
Continuous
 62
     3
370
     9
100
AcDbLine
 10
-360.2948987806164
 20
60.73257033889377
 30
0.0
 11
-360.2948987806164
 21
46.73242517419766
 31
0.0
  0
LINE
  5
4BA
330
1F
100
AcDbEntity
  8
1-2
  6
Continuous
 62
     3
370
     9
100
AcDbLine
 10
-360.2948987806164
 20
86.73255714210313
 30
0.0
 11
-360.2948987806164
 21
72.73241197740731
 31
0.0
  0
LINE
  5
4BB
330
1F
100
AcDbEntity
  8
1-2
  6
Continuous
 62
     3
370
     9
100
AcDbLine
 10
-360.2948987806164
 20
112.7325439453125
 30
0.0
 11
-360.2948987806164
 21
98.73239878061668
 31
0.0
  0
LINE
  5
4BC
330
1F
100
AcDbEntity
  8
1-2
  6
Continuous
 62
     3
370
     9
100
AcDbLine
 10
-360.2948987806164
 20
138.7325307485222
 30
0.0
 11
-360.2948987806164
 21
124.732385583826
 31
0.0
  0
LINE
  5
4BD
330
1F
100
AcDbEntity
  8
1-2
  6
Continuous
 62
     3
370
     9
100
AcDbLine
 10
-360.2948987806164
 20
164.7325175517315
 30
0.0
 11
-360.2948987806164
 21
150.7323723870357
 31
0.0
  0
LINE
  5
4BE
330
1F
100
AcDbEntity
  8
1-2
  6
Continuous
 62
     3
370
     9
100
AcDbLine
 10
-360.2948987806164
 20
190.7325043549409
 30
0.0
 11
-360.2948987806164
 21
176.7323591902451
 31
0.0
  0
LINE
  5
4BF
330
1F
100
AcDbEntity
  8
1-2
  6
Continuous
 62
     3
370
     9
100
AcDbLine
 10
-360.2948987806164
 20
216.7324911581505
 30
0.0
 11
-360.2948987806164
 21
202.7323459934544
 31
0.0
  0
LINE
  5
4C0
330
1F
100
AcDbEntity
  8
1-2
  6
Continuous
 62
     3
370
     9
100
AcDbLine
 10
-360.2948987806164
 20
242.7324779613599
 30
0.0
 11
-360.2948987806164
 21
228.7323327966641
 31
0.0
  0
LINE
  5
4C1
330
1F
100
AcDbEntity
  8
1-2
  6
Continuous
 62
     3
370
     9
100
AcDbLine
 10
-360.2948987806164
 20
268.7324647645693
 30
0.0
 11
-360.2948987806164
 21
254.7323195998734
 31
0.0
  0
LINE
  5
4C2
330
1F
100
AcDbEntity
  8
1-2
  6
Continuous
 62
     3
370
     9
100
AcDbLine
 10
-360.2948987806164
 20
320.7324383709883
 30
0.0
 11
-360.2948987806164
 21
306.7322932062925
 31
0.0
  0
LINE
  5
4C3
330
1F
100
AcDbEntity
  8
1-2
  6
Continuous
 62
     3
370
     9
100
AcDbLine
 10
-360.2948987806164
 20
294.7324515677789
 30
0.0
 11
-360.2948987806164
 21
280.7323064030828
 31
0.0
  0
LINE
  5
4C4
330
1F
100
AcDbEntity
  8
1-2
  6
Continuous
 62
     3
370
     9
100
AcDbLine
 10
-350.3948314769846
 20
320.7324383709883
 30
0.0
 11
-350.3948314769846
 21
306.7322932062925
 31
0.0
  0
LINE
  5
4C5
330
1F
100
AcDbEntity
  8
1-2
  6
Continuous
 62
     3
370
     9
100
AcDbLine
 10
-350.3948314769846
 20
294.7324515677789
 30
0.0
 11
-350.3948314769846
 21
280.7323064030828
 31
0.0
  0
LINE
  5
4C6
330
1F
100
AcDbEntity
  8
1-2
  6
Continuous
 62
     3
370
     9
100
AcDbLine
 10
-350.3948314769846
 20
268.7324647645693
 30
0.0
 11
-350.3948314769846
 21
254.7323195998734
 31
0.0
  0
LINE
  5
4C7
330
1F
100
AcDbEntity
  8
1-2
  6
Continuous
 62
     3
370
     9
100
AcDbLine
 10
-350.3948314769846
 20
242.7324779613599
 30
0.0
 11
-350.3948314769846
 21
228.7323327966641
 31
0.0
  0
LINE
  5
4C8
330
1F
100
AcDbEntity
  8
1-2
  6
Continuous
 62
     3
370
     9
100
AcDbLine
 10
-350.3948314769846
 20
216.7324911581505
 30
0.0
 11
-350.3948314769846
 21
202.7323459934544
 31
0.0
  0
LINE
  5
4C9
330
1F
100
AcDbEntity
  8
1-2
  6
Continuous
 62
     3
370
     9
100
AcDbLine
 10
-350.3948314769846
 20
190.7325043549409
 30
0.0
 11
-350.3948314769846
 21
176.7323591902451
 31
0.0
  0
LINE
  5
4CA
330
1F
100
AcDbEntity
  8
1-2
  6
Continuous
 62
     3
370
     9
100
AcDbLine
 10
-350.3948314769846
 20
164.7325175517315
 30
0.0
 11
-350.3948314769846
 21
150.7323723870357
 31
0.0
  0
LINE
  5
4CB
330
1F
100
AcDbEntity
  8
1-2
  6
Continuous
 62
     3
370
     9
100
AcDbLine
 10
-350.3948314769846
 20
138.7325307485222
 30
0.0
 11
-350.3948314769846
 21
124.732385583826
 31
0.0
  0
LINE
  5
4CC
330
1F
100
AcDbEntity
  8
1-2
  6
Continuous
 62
     3
370
     9
100
AcDbLine
 10
-350.3948314769846
 20
112.7325439453125
 30
0.0
 11
-350.3948314769846
 21
98.73239878061668
 31
0.0
  0
LINE
  5
4CD
330
1F
100
AcDbEntity
  8
1-2
  6
Continuous
 62
     3
370
     9
100
AcDbLine
 10
-350.3948314769846
 20
86.73255714210313
 30
0.0
 11
-350.3948314769846
 21
72.73241197740731
 31
0.0
  0
LINE
  5
4CE
330
1F
100
AcDbEntity
  8
1-2
  6
Continuous
 62
     3
370
     9
100
AcDbLine
 10
-350.3948314769846
 20
60.73257033889377
 30
0.0
 11
-350.3948314769846
 21
46.73242517419766
 31
0.0
  0
LINE
  5
4CF
330
1F
100
AcDbEntity
  8
1-2
  6
Continuous
 62
     3
370
     9
100
AcDbLine
 10
-350.3948314769846
 20
34.73258353568411
 30
0.0
 11
-350.3948314769846
 21
20.73243837098829
 31
0.0
  0
LINE
  5
4D0
330
1F
100
AcDbEntity
  8
1-2
  6
Continuous
 62
     3
370
     9
100
AcDbLine
 10
-74.19507825696769
 20
34.73258353568411
 30
0.0
 11
-74.19507825696769
 21
20.73243837098829
 31
0.0
  0
LINE
  5
4D1
330
1F
100
AcDbEntity
  8
1-2
  6
Continuous
 62
     3
370
     9
100
AcDbLine
 10
-74.19507825696769
 20
60.73257033889377
 30
0.0
 11
-74.19507825696769
 21
46.73242517419766
 31
0.0
  0
LINE
  5
4D2
330
1F
100
AcDbEntity
  8
1-2
  6
Continuous
 62
     3
370
     9
100
AcDbLine
 10
-74.19507825696769
 20
86.73255714210313
 30
0.0
 11
-74.19507825696769
 21
72.73241197740731
 31
0.0
  0
LINE
  5
4D3
330
1F
100
AcDbEntity
  8
1-2
  6
Continuous
 62
     3
370
     9
100
AcDbLine
 10
-74.19507825696769
 20
112.7325439453125
 30
0.0
 11
-74.19507825696769
 21
98.73239878061668
 31
0.0
  0
LINE
  5
4D4
330
1F
100
AcDbEntity
  8
1-2
  6
Continuous
 62
     3
370
     9
100
AcDbLine
 10
-74.19507825696769
 20
138.7325307485222
 30
0.0
 11
-74.19507825696769
 21
124.732385583826
 31
0.0
  0
LINE
  5
4D5
330
1F
100
AcDbEntity
  8
1-2
  6
Continuous
 62
     3
370
     9
100
AcDbLine
 10
-74.19507825696769
 20
164.7325175517315
 30
0.0
 11
-74.19507825696769
 21
150.7323723870357
 31
0.0
  0
LINE
  5
4D6
330
1F
100
AcDbEntity
  8
1-2
  6
Continuous
 62
     3
370
     9
100
AcDbLine
 10
-74.19507825696769
 20
190.7325043549409
 30
0.0
 11
-74.19507825696769
 21
176.7323591902451
 31
0.0
  0
LINE
  5
4D7
330
1F
100
AcDbEntity
  8
1-2
  6
Continuous
 62
     3
370
     9
100
AcDbLine
 10
-74.19507825696769
 20
216.7324911581505
 30
0.0
 11
-74.19507825696769
 21
202.7323459934544
 31
0.0
  0
LINE
  5
4D8
330
1F
100
AcDbEntity
  8
1-2
  6
Continuous
 62
     3
370
     9
100
AcDbLine
 10
-74.19507825696769
 20
242.7324779613599
 30
0.0
 11
-74.19507825696769
 21
228.7323327966641
 31
0.0
  0
LINE
  5
4D9
330
1F
100
AcDbEntity
  8
1-2
  6
Continuous
 62
     3
370
     9
100
AcDbLine
 10
-74.19507825696769
 20
268.7324647645693
 30
0.0
 11
-74.19507825696769
 21
254.7323195998734
 31
0.0
  0
LINE
  5
4DA
330
1F
100
AcDbEntity
  8
1-2
  6
Continuous
 62
     3
370
     9
100
AcDbLine
 10
-74.19507825696769
 20
320.7324383709883
 30
0.0
 11
-74.19507825696769
 21
306.7322932062925
 31
0.0
  0
LINE
  5
4DB
330
1F
100
AcDbEntity
  8
1-2
  6
Continuous
 62
     3
370
     9
100
AcDbLine
 10
-74.19507825696769
 20
294.7324515677789
 30
0.0
 11
-74.19507825696769
 21
280.7323064030828
 31
0.0
  0
LINE
  5
4DC
330
1F
100
AcDbEntity
  8
1-2
  6
Continuous
 62
     3
370
     9
100
AcDbLine
 10
-64.29501095333592
 20
34.73258353568411
 30
0.0
 11
-64.29501095333592
 21
20.73243837098829
 31
0.0
  0
LINE
  5
4DD
330
1F
100
AcDbEntity
  8
1-2
  6
Continuous
 62
     3
370
     9
100
AcDbLine
 10
-64.29501095333592
 20
60.73257033889377
 30
0.0
 11
-64.29501095333592
 21
46.73242517419766
 31
0.0
  0
LINE
  5
4DE
330
1F
100
AcDbEntity
  8
1-2
  6
Continuous
 62
     3
370
     9
100
AcDbLine
 10
-64.29501095333592
 20
86.73255714210313
 30
0.0
 11
-64.29501095333592
 21
72.73241197740731
 31
0.0
  0
LINE
  5
4DF
330
1F
100
AcDbEntity
  8
1-2
  6
Continuous
 62
     3
370
     9
100
AcDbLine
 10
-64.29501095333592
 20
112.7325439453125
 30
0.0
 11
-64.29501095333592
 21
98.73239878061668
 31
0.0
  0
LINE
  5
4E0
330
1F
100
AcDbEntity
  8
1-2
  6
Continuous
 62
     3
370
     9
100
AcDbLine
 10
-64.29501095333592
 20
138.7325307485222
 30
0.0
 11
-64.29501095333592
 21
124.732385583826
 31
0.0
  0
LINE
  5
4E1
330
1F
100
AcDbEntity
  8
1-2
  6
Continuous
 62
     3
370
     9
100
AcDbLine
 10
-64.29501095333592
 20
164.7325175517315
 30
0.0
 11
-64.29501095333592
 21
150.7323723870357
 31
0.0
  0
LINE
  5
4E2
330
1F
100
AcDbEntity
  8
1-2
  6
Continuous
 62
     3
370
     9
100
AcDbLine
 10
-64.29501095333592
 20
190.7325043549409
 30
0.0
 11
-64.29501095333592
 21
176.7323591902451
 31
0.0
  0
LINE
  5
4E3
330
1F
100
AcDbEntity
  8
1-2
  6
Continuous
 62
     3
370
     9
100
AcDbLine
 10
-64.29501095333592
 20
216.7324911581505
 30
0.0
 11
-64.29501095333592
 21
202.7323459934544
 31
0.0
  0
LINE
  5
4E4
330
1F
100
AcDbEntity
  8
1-2
  6
Continuous
 62
     3
370
     9
100
AcDbLine
 10
-64.29501095333592
 20
242.7324779613599
 30
0.0
 11
-64.29501095333592
 21
228.7323327966641
 31
0.0
  0
LINE
  5
4E5
330
1F
100
AcDbEntity
  8
1-2
  6
Continuous
 62
     3
370
     9
100
AcDbLine
 10
-64.29501095333592
 20
268.7324647645693
 30
0.0
 11
-64.29501095333592
 21
254.7323195998734
 31
0.0
  0
LINE
  5
4E6
330
1F
100
AcDbEntity
  8
1-2
  6
Continuous
 62
     3
370
     9
100
AcDbLine
 10
-64.29501095333592
 20
320.7324383709883
 30
0.0
 11
-64.29501095333592
 21
306.7322932062925
 31
0.0
  0
LINE
  5
4E7
330
1F
100
AcDbEntity
  8
1-2
  6
Continuous
 62
     3
370
     9
100
AcDbLine
 10
-64.29501095333592
 20
294.7324515677789
 30
0.0
 11
-64.29501095333592
 21
280.7323064030828
 31
0.0
  0
LINE
  5
4E8
330
1F
100
AcDbEntity
  8
1-2
  6
Continuous
 62
     3
370
     9
100
AcDbLine
 10
-54.39494364970415
 20
320.7324383709883
 30
0.0
 11
-54.39494364970415
 21
306.7322932062925
 31
0.0
  0
LINE
  5
4E9
330
1F
100
AcDbEntity
  8
1-2
  6
Continuous
 62
     3
370
     9
100
AcDbLine
 10
-54.39494364970415
 20
294.7324515677789
 30
0.0
 11
-54.39494364970415
 21
280.7323064030828
 31
0.0
  0
LINE
  5
4EA
330
1F
100
AcDbEntity
  8
1-2
  6
Continuous
 62
     3
370
     9
100
AcDbLine
 10
-54.39494364970415
 20
268.7324647645693
 30
0.0
 11
-54.39494364970415
 21
254.7323195998734
 31
0.0
  0
LINE
  5
4EB
330
1F
100
AcDbEntity
  8
1-2
  6
Continuous
 62
     3
370
     9
100
AcDbLine
 10
-54.39494364970415
 20
242.7324779613599
 30
0.0
 11
-54.39494364970415
 21
228.7323327966641
 31
0.0
  0
LINE
  5
4EC
330
1F
100
AcDbEntity
  8
1-2
  6
Continuous
 62
     3
370
     9
100
AcDbLine
 10
-54.39494364970415
 20
216.7324911581505
 30
0.0
 11
-54.39494364970415
 21
202.7323459934544
 31
0.0
  0
LINE
  5
4ED
330
1F
100
AcDbEntity
  8
1-2
  6
Continuous
 62
     3
370
     9
100
AcDbLine
 10
-54.39494364970415
 20
190.7325043549409
 30
0.0
 11
-54.39494364970415
 21
176.7323591902451
 31
0.0
  0
LINE
  5
4EE
330
1F
100
AcDbEntity
  8
1-2
  6
Continuous
 62
     3
370
     9
100
AcDbLine
 10
-54.39494364970415
 20
164.7325175517315
 30
0.0
 11
-54.39494364970415
 21
150.7323723870357
 31
0.0
  0
LINE
  5
4EF
330
1F
100
AcDbEntity
  8
1-2
  6
Continuous
 62
     3
370
     9
100
AcDbLine
 10
-54.39494364970415
 20
138.7325307485222
 30
0.0
 11
-54.39494364970415
 21
124.732385583826
 31
0.0
  0
LINE
  5
4F0
330
1F
100
AcDbEntity
  8
1-2
  6
Continuous
 62
     3
370
     9
100
AcDbLine
 10
-54.39494364970415
 20
112.7325439453125
 30
0.0
 11
-54.39494364970415
 21
98.73239878061668
 31
0.0
  0
LINE
  5
4F1
330
1F
100
AcDbEntity
  8
1-2
  6
Continuous
 62
     3
370
     9
100
AcDbLine
 10
-54.39494364970415
 20
86.73255714210313
 30
0.0
 11
-54.39494364970415
 21
72.73241197740731
 31
0.0
  0
LINE
  5
4F2
330
1F
100
AcDbEntity
  8
1-2
  6
Continuous
 62
     3
370
     9
100
AcDbLine
 10
-54.39494364970415
 20
60.73257033889377
 30
0.0
 11
-54.39494364970415
 21
46.73242517419766
 31
0.0
  0
LINE
  5
4F3
330
1F
100
AcDbEntity
  8
1-2
  6
Continuous
 62
     3
370
     9
100
AcDbLine
 10
-54.39494364970415
 20
34.73258353568411
 30
0.0
 11
-54.39494364970415
 21
20.73243837098829
 31
0.0
  0
LINE
  5
4F4
330
1F
100
AcDbEntity
  8
1-2
  6
Continuous
 62
     3
370
     9
100
AcDbLine
 10
-1318.194827517948
 20
346.7324251741977
 30
0.0
 11
-1318.194827517948
 21
332.7322800095018
 31
0.0
  0
LINE
  5
4F5
330
1F
100
AcDbEntity
  8
1-2
  6
Continuous
 62
     3
370
     9
100
AcDbLine
 10
-1308.294760214316
 20
346.7324251741977
 30
0.0
 11
-1308.294760214316
 21
332.7322800095018
 31
0.0
  0
LINE
  5
4F6
330
1F
100
AcDbEntity
  8
1-2
  6
Continuous
 62
     3
370
     9
100
AcDbLine
 10
-1298.394692910684
 20
346.7324251741977
 30
0.0
 11
-1298.394692910684
 21
332.7322800095018
 31
0.0
  0
LINE
  5
4F7
330
1F
100
AcDbEntity
  8
1-2
  6
Continuous
 62
     3
370
     9
100
AcDbLine
 10
-978.1949429898648
 20
346.7324251741977
 30
0.0
 11
-978.1949429898648
 21
332.7322800095018
 31
0.0
  0
LINE
  5
4F8
330
1F
100
AcDbEntity
  8
1-2
  6
Continuous
 62
     3
370
     9
100
AcDbLine
 10
-968.2948756862331
 20
346.7324251741977
 30
0.0
 11
-968.2948756862331
 21
332.7322800095018
 31
0.0
  0
LINE
  5
4F9
330
1F
100
AcDbEntity
  8
1-2
  6
Continuous
 62
     3
370
     9
100
AcDbLine
 10
-958.3948083826012
 20
346.7324251741977
 30
0.0
 11
-958.3948083826012
 21
332.7322800095018
 31
0.0
  0
LINE
  5
4FA
330
1F
100
AcDbEntity
  8
1-2
  6
Continuous
 62
     3
370
     9
100
AcDbLine
 10
-710.194850612331
 20
346.7324251741977
 30
0.0
 11
-710.194850612331
 21
332.7322800095018
 31
0.0
  0
LINE
  5
4FB
330
1F
100
AcDbEntity
  8
1-2
  6
Continuous
 62
     3
370
     9
100
AcDbLine
 10
-700.2947833086992
 20
346.7324251741977
 30
0.0
 11
-700.2947833086992
 21
332.7322800095018
 31
0.0
  0
LINE
  5
4FC
330
1F
100
AcDbEntity
  8
1-2
  6
Continuous
 62
     3
370
     9
100
AcDbLine
 10
-690.3947160050675
 20
346.7324251741977
 30
0.0
 11
-690.3947160050675
 21
332.7322800095018
 31
0.0
  0
LINE
  5
4FD
330
1F
100
AcDbEntity
  8
1-2
  6
Continuous
 62
     3
370
     9
100
AcDbLine
 10
-370.1949660842482
 20
346.7324251741977
 30
0.0
 11
-370.1949660842482
 21
332.7322800095018
 31
0.0
  0
LINE
  5
4FE
330
1F
100
AcDbEntity
  8
1-2
  6
Continuous
 62
     3
370
     9
100
AcDbLine
 10
-360.2948987806164
 20
346.7324251741977
 30
0.0
 11
-360.2948987806164
 21
332.7322800095018
 31
0.0
  0
LINE
  5
4FF
330
1F
100
AcDbEntity
  8
1-2
  6
Continuous
 62
     3
370
     9
100
AcDbLine
 10
-350.3948314769846
 20
346.7324251741977
 30
0.0
 11
-350.3948314769846
 21
332.7322800095018
 31
0.0
  0
LINE
  5
500
330
1F
100
AcDbEntity
  8
1-2
  6
Continuous
 62
     3
370
     9
100
AcDbLine
 10
-74.19507825696769
 20
346.7324251741977
 30
0.0
 11
-74.19507825696769
 21
332.7322800095018
 31
0.0
  0
LINE
  5
501
330
1F
100
AcDbEntity
  8
1-2
  6
Continuous
 62
     3
370
     9
100
AcDbLine
 10
-64.29501095333592
 20
346.7324251741977
 30
0.0
 11
-64.29501095333592
 21
332.7322800095018
 31
0.0
  0
LINE
  5
502
330
1F
100
AcDbEntity
  8
1-2
  6
Continuous
 62
     3
370
     9
100
AcDbLine
 10
-54.39494364970415
 20
346.7324251741977
 30
0.0
 11
-54.39494364970415
 21
332.7322800095018
 31
0.0
  0
LINE
  5
503
330
1F
100
AcDbEntity
  8
1-2
  6
Continuous
 62
     3
370
     9
100
AcDbLine
 10
-978.1949429898648
 20
372.7324119774073
 30
0.0
 11
-978.1949429898648
 21
358.7322668127112
 31
0.0
  0
LINE
  5
504
330
1F
100
AcDbEntity
  8
1-2
  6
Continuous
 62
     3
370
     9
100
AcDbLine
 10
-968.2948756862331
 20
372.7324119774073
 30
0.0
 11
-968.2948756862331
 21
358.7322668127112
 31
0.0
  0
LINE
  5
505
330
1F
100
AcDbEntity
  8
1-2
  6
Continuous
 62
     3
370
     9
100
AcDbLine
 10
-958.3948083826012
 20
372.7324119774073
 30
0.0
 11
-958.3948083826012
 21
358.7322668127112
 31
0.0
  0
LINE
  5
506
330
1F
100
AcDbEntity
  8
1-2
  6
Continuous
 62
     3
370
     9
100
AcDbLine
 10
-710.194850612331
 20
372.7324119774073
 30
0.0
 11
-710.194850612331
 21
358.7322668127112
 31
0.0
  0
LINE
  5
507
330
1F
100
AcDbEntity
  8
1-2
  6
Continuous
 62
     3
370
     9
100
AcDbLine
 10
-700.2947833086992
 20
372.7324119774073
 30
0.0
 11
-700.2947833086992
 21
358.7322668127112
 31
0.0
  0
LINE
  5
508
330
1F
100
AcDbEntity
  8
1-2
  6
Continuous
 62
     3
370
     9
100
AcDbLine
 10
-690.3947160050675
 20
372.7324119774073
 30
0.0
 11
-690.3947160050675
 21
358.7322668127112
 31
0.0
  0
LINE
  5
509
330
1F
100
AcDbEntity
  8
1-2
  6
Continuous
 62
     3
370
     9
100
AcDbLine
 10
-370.1949660842482
 20
372.7324119774073
 30
0.0
 11
-370.1949660842482
 21
358.7322668127112
 31
0.0
  0
LINE
  5
50A
330
1F
100
AcDbEntity
  8
1-2
  6
Continuous
 62
     3
370
     9
100
AcDbLine
 10
-360.2948987806164
 20
372.7324119774073
 30
0.0
 11
-360.2948987806164
 21
358.7322668127112
 31
0.0
  0
LINE
  5
50B
330
1F
100
AcDbEntity
  8
1-2
  6
Continuous
 62
     3
370
     9
100
AcDbLine
 10
-350.3948314769846
 20
372.7324119774073
 30
0.0
 11
-350.3948314769846
 21
358.7322668127112
 31
0.0
  0
LINE
  5
50C
330
1F
100
AcDbEntity
  8
1-2
  6
Continuous
 62
     3
370
     9
100
AcDbLine
 10
-74.19507825696769
 20
372.7324119774073
 30
0.0
 11
-74.19507825696769
 21
358.7322668127112
 31
0.0
  0
LINE
  5
50D
330
1F
100
AcDbEntity
  8
1-2
  6
Continuous
 62
     3
370
     9
100
AcDbLine
 10
-64.29501095333592
 20
372.7324119774073
 30
0.0
 11
-64.29501095333592
 21
358.7322668127112
 31
0.0
  0
LINE
  5
50E
330
1F
100
AcDbEntity
  8
1-2
  6
Continuous
 62
     3
370
     9
100
AcDbLine
 10
-54.39494364970415
 20
372.7324119774073
 30
0.0
 11
-54.39494364970415
 21
358.7322668127112
 31
0.0
  0
LINE
  5
50F
330
1F
100
AcDbEntity
  8
1-2
  6
Continuous
 62
     3
370
     9
100
AcDbLine
 10
-710.194850612331
 20
398.7323987806167
 30
0.0
 11
-710.194850612331
 21
384.7322536159209
 31
0.0
  0
LINE
  5
510
330
1F
100
AcDbEntity
  8
1-2
  6
Continuous
 62
     3
370
     9
100
AcDbLine
 10
-700.2947833086992
 20
398.7323987806167
 30
0.0
 11
-700.2947833086992
 21
384.7322536159209
 31
0.0
  0
LINE
  5
511
330
1F
100
AcDbEntity
  8
1-2
  6
Continuous
 62
     3
370
     9
100
AcDbLine
 10
-690.3947160050675
 20
398.7323987806167
 30
0.0
 11
-690.3947160050675
 21
384.7322536159209
 31
0.0
  0
LINE
  5
512
330
1F
100
AcDbEntity
  8
1-2
  6
Continuous
 62
     3
370
     9
100
AcDbLine
 10
-370.1949660842482
 20
398.7323987806167
 30
0.0
 11
-370.1949660842482
 21
384.7322536159209
 31
0.0
  0
LINE
  5
513
330
1F
100
AcDbEntity
  8
1-2
  6
Continuous
 62
     3
370
     9
100
AcDbLine
 10
-360.2948987806164
 20
398.7323987806167
 30
0.0
 11
-360.2948987806164
 21
384.7322536159209
 31
0.0
  0
LINE
  5
514
330
1F
100
AcDbEntity
  8
1-2
  6
Continuous
 62
     3
370
     9
100
AcDbLine
 10
-350.3948314769846
 20
398.7323987806167
 30
0.0
 11
-350.3948314769846
 21
384.7322536159209
 31
0.0
  0
LINE
  5
515
330
1F
100
AcDbEntity
  8
1-2
  6
Continuous
 62
     3
370
     9
100
AcDbLine
 10
-74.19507825696769
 20
398.7323987806167
 30
0.0
 11
-74.19507825696769
 21
384.7322536159209
 31
0.0
  0
LINE
  5
516
330
1F
100
AcDbEntity
  8
1-2
  6
Continuous
 62
     3
370
     9
100
AcDbLine
 10
-64.29501095333592
 20
398.7323987806167
 30
0.0
 11
-64.29501095333592
 21
384.7322536159209
 31
0.0
  0
LINE
  5
517
330
1F
100
AcDbEntity
  8
1-2
  6
Continuous
 62
     3
370
     9
100
AcDbLine
 10
-54.39494364970415
 20
398.7323987806167
 30
0.0
 11
-54.39494364970415
 21
384.7322536159209
 31
0.0
  0
LINE
  5
518
330
1F
100
AcDbEntity
  8
1-2
  6
Continuous
 62
     3
370
     9
100
AcDbLine
 10
-370.1949660842482
 20
424.732385583826
 30
0.0
 11
-370.1949660842482
 21
410.7322404191302
 31
0.0
  0
LINE
  5
519
330
1F
100
AcDbEntity
  8
1-2
  6
Continuous
 62
     3
370
     9
100
AcDbLine
 10
-360.2948987806164
 20
424.732385583826
 30
0.0
 11
-360.2948987806164
 21
410.7322404191302
 31
0.0
  0
LINE
  5
51A
330
1F
100
AcDbEntity
  8
1-2
  6
Continuous
 62
     3
370
     9
100
AcDbLine
 10
-350.3948314769846
 20
424.732385583826
 30
0.0
 11
-350.3948314769846
 21
410.7322404191302
 31
0.0
  0
LINE
  5
51B
330
1F
100
AcDbEntity
  8
1-2
  6
Continuous
 62
     3
370
     9
100
AcDbLine
 10
-74.19507825696769
 20
424.732385583826
 30
0.0
 11
-74.19507825696769
 21
410.7322404191302
 31
0.0
  0
LINE
  5
51C
330
1F
100
AcDbEntity
  8
1-2
  6
Continuous
 62
     3
370
     9
100
AcDbLine
 10
-64.29501095333592
 20
424.732385583826
 30
0.0
 11
-64.29501095333592
 21
410.7322404191302
 31
0.0
  0
LINE
  5
51D
330
1F
100
AcDbEntity
  8
1-2
  6
Continuous
 62
     3
370
     9
100
AcDbLine
 10
-54.39494364970415
 20
424.732385583826
 30
0.0
 11
-54.39494364970415
 21
410.7322404191302
 31
0.0
  0
LINE
  5
51E
330
1F
100
AcDbEntity
  8
D-2
  6
Continuous
 62
     3
370
     9
100
AcDbLine
 10
1231.428569072002
 20
1026.621836069468
 30
0.0
 11
1231.428569072002
 21
991.6219680373734
 31
0.0
  0
LINE
  5
51F
330
1F
100
AcDbEntity
  8
D-2
  6
Continuous
 62
     3
370
     9
100
AcDbLine
 10
1231.428569072002
 20
961.6218690614443
 30
0.0
 11
1231.428569072002
 21
926.6220010293498
 31
0.0
  0
LINE
  5
520
330
1F
100
AcDbEntity
  8
D-2
  6
Continuous
 62
     3
370
     9
100
AcDbLine
 10
1231.428569072002
 20
896.6219020534209
 30
0.0
 11
1231.428569072002
 21
861.622034021326
 31
0.0
  0
LINE
  5
521
330
1F
100
AcDbEntity
  8
D-2
  6
Continuous
 62
     3
370
     9
100
AcDbLine
 10
1231.428569072002
 20
831.6219350453971
 30
0.0
 11
1231.428569072002
 21
796.6220670133026
 31
0.0
  0
LINE
  5
522
330
1F
100
AcDbEntity
  8
D-2
  6
Continuous
 62
     3
370
     9
100
AcDbLine
 10
1231.428569072002
 20
766.6219680373734
 30
0.0
 11
1231.428569072002
 21
731.622100005279
 31
0.0
  0
LINE
  5
523
330
1F
100
AcDbEntity
  8
D-2
  6
Continuous
 62
     3
370
     9
100
AcDbLine
 10
1231.428569072002
 20
701.6215061497044
 30
0.0
 11
1231.428569072002
 21
666.6216381176099
 31
0.0
  0
LINE
  5
524
330
1F
100
AcDbEntity
  8
D-2
  6
Continuous
 62
     3
370
     9
100
AcDbLine
 10
1231.428569072002
 20
636.622034021326
 30
0.0
 11
1231.428569072002
 21
601.6221659892315
 31
0.0
  0
LINE
  5
525
330
1F
100
AcDbEntity
  8
D-2
  6
Continuous
 62
     3
370
     9
100
AcDbLine
 10
1231.428569072002
 20
571.6215721336573
 30
0.0
 11
1231.428569072002
 21
536.6217041015625
 31
0.0
  0
LINE
  5
526
330
1F
100
AcDbEntity
  8
D-2
  6
Continuous
 62
     3
370
     9
100
AcDbLine
 10
1231.428569072002
 20
506.6221000052789
 30
0.0
 11
1231.428569072002
 21
471.6222319731841
 31
0.0
  0
LINE
  5
527
330
1F
100
AcDbEntity
  8
2-1
  6
Continuous
 62
     2
370
     9
100
AcDbLine
 10
343.6723863756336
 20
-483.1282827016469
 30
0.0
 11
1306.172221415752
 21
-483.1282827016469
 31
0.0
  0
LINE
  5
528
330
1F
100
AcDbEntity
  8
2-1
  6
Continuous
 62
     2
370
     9
100
AcDbLine
 10
1306.172221415752
 20
-733.1281177417651
 30
0.0
 11
343.6723863756336
 21
-733.1281177417651
 31
0.0
  0
LINE
  5
529
330
1F
100
AcDbEntity
  8
1-4
  6
Continuous
 62
     2
370
     9
100
AcDbLine
 10
-1094.053938582137
 20
-497.8370955183699
 30
0.0
 11
-1094.053938582137
 21
-432.8376233899916
 31
0.0
  0
LINE
  5
52A
330
1F
100
AcDbEntity
  8
1-4
  6
Continuous
 62
     2
370
     9
100
AcDbLine
 10
-1094.053938582137
 20
-432.8376233899916
 30
0.0
 11
-550.5469244879644
 21
-432.8376233899916
 31
0.0
  0
LINE
  5
52B
330
1F
100
AcDbEntity
  8
1-4
  6
Continuous
 62
     2
370
     9
100
AcDbLine
 10
-550.5469244879644
 20
-432.8376233899916
 30
0.0
 11
-550.5469244879644
 21
-497.8370955183699
 31
0.0
  0
LINE
  5
52C
330
1F
100
AcDbEntity
  8
1-4
  6
Continuous
 62
     2
370
     9
100
AcDbLine
 10
-550.5469244879644
 20
-497.8370955183699
 30
0.0
 11
-1094.053938582137
 21
-497.8370955183699
 31
0.0
  0
LINE
  5
52D
330
1F
100
AcDbEntity
  8
D-4
  6
Continuous
 62
     2
370
     9
100
AcDbLine
 10
800.8944124788854
 20
-68.77099939294766
 30
0.0
 11
800.8944124788854
 21
-3.771032384923956
 31
0.0
  0
LINE
  5
52E
330
1F
100
AcDbEntity
  8
D-4
  6
Continuous
 62
     2
370
     9
100
AcDbLine
 10
800.8944124788854
 20
-3.771032384923956
 30
0.0
 11
1468.057993296031
 21
-3.771032384923956
 31
0.0
  0
LINE
  5
52F
330
1F
100
AcDbEntity
  8
D-4
  6
Continuous
 62
     2
370
     9
100
AcDbLine
 10
1468.057993296031
 20
-3.771032384923956
 30
0.0
 11
1468.057993296031
 21
-68.77099939294766
 31
0.0
  0
LINE
  5
530
330
1F
100
AcDbEntity
  8
D-4
  6
Continuous
 62
     2
370
     9
100
AcDbLine
 10
1468.057993296031
 20
-68.77099939294766
 30
0.0
 11
800.8944124788854
 21
-68.77099939294766
 31
0.0
  0
LINE
  5
531
330
1F
100
AcDbEntity
  8
2-4
  6
Continuous
 62
     2
370
     9
100
AcDbLine
 10
638.1153828388938
 20
-1126.732623126056
 30
0.0
 11
638.1153828388938
 21
-1061.732903557855
 31
0.0
  0
LINE
  5
532
330
1F
100
AcDbEntity
  8
2-4
  6
Continuous
 62
     2
370
     9
100
AcDbLine
 10
638.1153828388938
 20
-1061.732903557855
 30
0.0
 11
1251.55878840266
 21
-1061.732903557855
 31
0.0
  0
LINE
  5
533
330
1F
100
AcDbEntity
  8
2-4
  6
Continuous
 62
     2
370
     9
100
AcDbLine
 10
1251.55878840266
 20
-1061.732903557855
 30
0.0
 11
1251.55878840266
 21
-1126.732623126056
 31
0.0
  0
LINE
  5
534
330
1F
100
AcDbEntity
  8
2-4
  6
Continuous
 62
     2
370
     9
100
AcDbLine
 10
1251.55878840266
 20
-1126.732623126056
 30
0.0
 11
638.1153828388938
 21
-1126.732623126056
 31
0.0
  0
LINE
  5
535
330
1F
100
AcDbEntity
  8
2-F
  6
Continuous
 62
     7
370
     9
100
AcDbLine
 10
1282.705523516681
 20
-1215.526898358319
 30
0.0
 11
1293.868028795397
 21
-1204.363650760135
 31
0.0
  0
CIRCLE
  5
536
330
1F
100
AcDbEntity
  8
1-5
  6
Continuous
 62
     7
370
     9
100
AcDbCircle
 10
-97.24409773543073
 20
83.63015664590392
 30
0.0
 40
200.0000103099926
  0
ARC
  5
537
330
1F
100
AcDbEntity
  8
1-9
  6
Continuous
 62
     3
370
     9
100
AcDbCircle
 10
-1700.29486578864
 20
322.7327418971706
 30
0.0
 40
5.999999594044041
100
AcDbArc
 50
0.0
 51
90.0
  0
ARC
  5
538
330
1F
100
AcDbEntity
  8
1-9
  6
Continuous
 62
     3
370
     9
100
AcDbCircle
 10
-1738.294941670186
 20
322.7327418971706
 30
0.0
 40
5.999999594044041
100
AcDbArc
 50
90.0
 51
180.0
  0
ARC
  5
539
330
1F
100
AcDbEntity
  8
1-9
  6
Continuous
 62
     3
370
     9
100
AcDbCircle
 10
31.70495935388516
 20
854.7323195998734
 30
0.0
 40
5.999999594044041
100
AcDbArc
 50
180.0
 51
270.0
  0
ARC
  5
53A
330
1F
100
AcDbEntity
  8
1-9
  6
Continuous
 62
     3
370
     9
100
AcDbCircle
 10
-1350.294948268581
 20
1204.732484559755
 30
0.0
 40
5.999999594044041
100
AcDbArc
 50
270.0
 51
0.0
  0
ARC
  5
53B
330
1F
100
AcDbEntity
  8
1-9
  6
Continuous
 62
     3
370
     9
100
AcDbCircle
 10
-1350.294948268581
 20
1242.732313001478
 30
0.0
 40
5.999999594044041
100
AcDbArc
 50
0.0
 51
90.0
  0
ARC
  5
53C
330
1F
100
AcDbEntity
  8
1-9
  6
Continuous
 62
     3
370
     9
100
AcDbCircle
 10
69.70528267525339
 20
854.7323195998734
 30
0.0
 40
5.999999594044041
100
AcDbArc
 50
270.0
 51
0.0
  0
ARC
  5
53D
330
1F
100
AcDbEntity
  8
1-9
  6
Continuous
 62
     3
370
     9
100
AcDbCircle
 10
69.70528267525339
 20
254.7323195998734
 30
0.0
 40
5.999999594044041
100
AcDbArc
 50
270.0
 51
0.0
  0
ARC
  5
53E
330
1F
100
AcDbEntity
  8
1-9
  6
Continuous
 62
     3
370
     9
100
AcDbCircle
 10
31.70495935388516
 20
254.7323195998734
 30
0.0
 40
5.999999594044041
100
AcDbArc
 50
180.0
 51
270.0
  0
ARC
  5
53F
330
1F
100
AcDbEntity
  8
1-9
  6
Continuous
 62
     3
370
     9
100
AcDbCircle
 10
-318.294958166174
 20
-27.2674230627112
 30
0.0
 40
5.999999594044041
100
AcDbArc
 50
90.0
 51
180.0
  0
ARC
  5
540
330
1F
100
AcDbEntity
  8
1-9
  6
Continuous
 62
     3
370
     9
100
AcDbCircle
 10
-318.294958166174
 20
-65.26725150443411
 30
0.0
 40
5.999999594044041
100
AcDbArc
 50
180.0
 51
270.0
  0
ARC
  5
541
330
1F
100
AcDbEntity
  8
1-9
  6
Continuous
 62
     3
370
     9
100
AcDbCircle
 10
-1418.294875686233
 20
-65.26725150443411
 30
0.0
 40
5.999999594044041
100
AcDbArc
 50
180.0
 51
270.0
  0
ARC
  5
542
330
1F
100
AcDbEntity
  8
1-9
  6
Continuous
 62
     3
370
     9
100
AcDbCircle
 10
-1418.294875686233
 20
-27.2674230627112
 30
0.0
 40
5.999999594044041
100
AcDbArc
 50
90.0
 51
180.0
  0
ARC
  5
543
330
1F
100
AcDbEntity
  8
D-A
  6
Continuous
 62
     3
370
     9
100
AcDbCircle
 10
1231.428816511825
 20
383.4782285948057
 30
0.0
 40
19.8566282117689
100
AcDbArc
 50
209.7614288330078
 51
330.2385559082031
  0
ARC
  5
544
330
1F
100
AcDbEntity
  8
D-A
  6
Continuous
 62
     3
370
     9
100
AcDbCircle
 10
1381.428816511825
 20
383.4782285948057
 30
0.0
 40
19.8566282117689
100
AcDbArc
 50
209.7614288330078
 51
330.2385559082031
  0
ARC
  5
545
330
1F
100
AcDbEntity
  8
D-A
  6
Continuous
 62
     3
370
     9
100
AcDbCircle
 10
1439.571731154983
 20
441.6216381176099
 30
0.0
 40
19.8566282117689
100
AcDbArc
 50
299.7614288330078
 51
60.23855590820312
  0
ARC
  5
546
330
1F
100
AcDbEntity
  8
D-A
  6
Continuous
 62
     3
370
     9
100
AcDbCircle
 10
1439.571731154983
 20
591.6216381176099
 30
0.0
 40
19.8566282117689
100
AcDbArc
 50
299.7614288330078
 51
60.23855590820312
  0
ARC
  5
547
330
1F
100
AcDbEntity
  8
1-9
  6
Continuous
 62
     3
370
     9
100
AcDbCircle
 10
-1738.294941670186
 20
922.7322470175255
 30
0.0
 40
5.999999594044041
100
AcDbArc
 50
90.0
 51
180.0
  0
ARC
  5
548
330
1F
100
AcDbEntity
  8
1-9
  6
Continuous
 62
     3
370
     9
100
AcDbCircle
 10
-1700.29486578864
 20
922.7322470175255
 30
0.0
 40
5.999999594044041
100
AcDbArc
 50
0.0
 51
90.0
  0
ARC
  5
549
330
1F
100
AcDbEntity
  8
1-9
  6
Continuous
 62
     3
370
     9
100
AcDbCircle
 10
-250.2950307485219
 20
1242.732313001478
 30
0.0
 40
5.999999594044041
100
AcDbArc
 50
0.0
 51
90.0
  0
ARC
  5
54A
330
1F
100
AcDbEntity
  8
1-9
  6
Continuous
 62
     3
370
     9
100
AcDbCircle
 10
-250.2950307485219
 20
1204.732484559755
 30
0.0
 40
5.999999594044041
100
AcDbArc
 50
270.0
 51
0.0
  0
ARC
  5
54B
330
1F
100
AcDbEntity
  8
2-1
  6
Continuous
 62
     2
370
     9
100
AcDbCircle
 10
1236.17223791174
 20
-488.1285466374577
 30
0.0
 40
4.99999958115655
100
AcDbArc
 50
90.0
 51
180.0
  0
ARC
  5
54C
330
1F
100
AcDbEntity
  8
2-1
  6
Continuous
 62
     2
370
     9
100
AcDbCircle
 10
1306.172221415752
 20
-488.1285466374577
 30
0.0
 40
4.99999958115655
100
AcDbArc
 50
0.0
 51
90.0
  0
ARC
  5
54D
330
1F
100
AcDbEntity
  8
2-1
  6
Continuous
 62
     2
370
     9
100
AcDbCircle
 10
1236.17223791174
 20
-728.1283486855996
 30
0.0
 40
4.99999958115655
100
AcDbArc
 50
180.0
 51
270.0
  0
ARC
  5
54E
330
1F
100
AcDbEntity
  8
2-1
  6
Continuous
 62
     2
370
     9
100
AcDbCircle
 10
1306.172221415752
 20
-728.1283486855996
 30
0.0
 40
4.99999958115655
100
AcDbArc
 50
270.0
 51
0.0
  0
ARC
  5
54F
330
1F
100
AcDbEntity
  8
2-9
  6
Continuous
 62
     3
370
     9
100
AcDbCircle
 10
1327.458974477407
 20
-608.128200221706
 30
0.0
 40
39.7132564235378
100
AcDbArc
 50
299.7614288330078
 51
60.23855590820312
  0
ARC
  5
550
330
1F
100
AcDbEntity
  8
2-9
  6
Continuous
 62
     3
370
     9
100
AcDbCircle
 10
1421.883000554266
 20
-608.128200221706
 30
0.0
 40
50.00000257749815
100
AcDbArc
 50
225.0
 51
270.0
  0
ARC
  5
551
330
1F
100
AcDbEntity
  8
2-9
  6
Continuous
 62
     3
370
     9
100
AcDbCircle
 10
1331.172303895693
 20
-716.4125679634712
 30
0.0
 40
19.9999983246262
100
AcDbArc
 50
0.0
 51
45.0
  0
ARC
  5
552
330
1F
100
AcDbEntity
  8
2-9
  6
Continuous
 62
     3
370
     9
100
AcDbCircle
 10
1581.172138935811
 20
-678.1281837257178
 30
0.0
 40
19.9999983246262
100
AcDbArc
 50
0.0
 51
90.0
  0
ARC
  5
553
330
1F
100
AcDbEntity
  8
2-0
  6
Continuous
 62
     3
370
     9
100
AcDbCircle
 10
-1602.72216796875
 20
-800.3139681429477
 30
0.0
 40
39.7122589317528
100
AcDbArc
 50
50.82627868652344
 51
129.1737060546875
  0
ARC
  5
554
330
1F
100
AcDbEntity
  8
2-0
  6
Continuous
 62
     3
370
     9
100
AcDbCircle
 10
-1552.552011850718
 20
-738.7410426784206
 30
0.0
 40
39.7122589317528
100
AcDbArc
 50
230.8262786865235
 51
309.1737060546876
  0
ARC
  5
555
330
1F
100
AcDbEntity
  8
2-0
  6
Continuous
 62
     3
370
     9
100
AcDbCircle
 10
-1552.552011850718
 20
-508.7412736222551
 30
0.0
 40
39.7122589317528
100
AcDbArc
 50
230.8262786865235
 51
309.1737060546876
  0
ARC
  5
556
330
1F
100
AcDbEntity
  8
2-0
  6
Continuous
 62
     3
370
     9
100
AcDbCircle
 10
-1602.72216796875
 20
-570.3141990867821
 30
0.0
 40
39.7122589317528
100
AcDbArc
 50
50.82627868652344
 51
129.1737060546875
  0
TEXT
  5
557
330
1F
100
AcDbEntity
  8
D-4
  6
Continuous
 62
     2
370
     9
100
AcDbText
 10
758.5950531830658
 20
124.4125500158362
 30
0.0
 40
30.48
  1
892
 41
1.083333333333333
  7
ＭＳ ゴシック
100
AcDbText
  0
TEXT
  5
558
330
1F
100
AcDbEntity
  8
D-4
  6
Continuous
 62
     2
370
     9
100
AcDbText
 10
1652.398082638302
 20
975.3122030722129
 30
0.0
 40
30.48
  1
592
 50
90.0
 41
1.083333333333333
  7
ＭＳ ゴシック
100
AcDbText
  0
TEXT
  5
559
330
1F
100
AcDbEntity
  8
2-4
  6
Continuous
 62
     2
370
     9
100
AcDbText
 10
355.9233629381336
 20
-333.3921968697213
 30
0.0
 40
30.48
  1
592
 41
1.083333333333333
  7
ＭＳ ゴシック
100
AcDbText
  0
TEXT
  5
55A
330
1F
100
AcDbEntity
  8
F-4
  6
Continuous
 62
     2
370
     9
100
AcDbText
 10
-877.663618757918
 20
-1351.641708588471
 30
0.0
 40
30.48
  1
ノンスリップタイプステンレス製玄関マット　ＱＭ２０　９００×６００（呼称寸法）
 41
0.7743589743589743
  7
ＭＳ ゴシック
100
AcDbText
  0
TEXT
  5
55B
330
1F
100
AcDbEntity
  8
2-0
  6
Continuous
 62
     2
370
     9
100
AcDbText
 10
-1126.173120447107
 20
-879.3419368929477
 30
0.0
 40
30.48
  1
※本体：ＳＵＳ３０４
 41
1.1125
  7
ＭＳ ゴシック
100
AcDbText
  0
TEXT
  5
55C
330
1F
100
AcDbEntity
  8
2-0
  6
Continuous
 62
     2
370
     9
100
AcDbText
 10
-1126.173108075116
 20
-931.8419863809121
 30
0.0
 40
30.48
  1
　枠　：ＳＵＳ３０４（但し、アンカー除く）
 41
1.119047619047619
  7
ＭＳ ゴシック
100
AcDbText
  0
TEXT
  5
55D
330
1F
100
AcDbEntity
  8
1-5
  6
Continuous
 62
     2
370
     9
100
AcDbText
 10
-484.9793264028187
 20
1256.457656645904
 30
0.0
 40
30.48
  1
Ａ
 41
0.9999999999999998
  7
ＭＳ ゴシック
100
AcDbText
  0
TEXT
  5
55E
330
1F
100
AcDbEntity
  8
D-5
  6
Continuous
 62
     7
370
     9
100
AcDbText
 10
1479.710388183594
 20
202.975100691512
 30
0.0
 40
22.86
  1
コーナー補助金物
 41
1.145833333333333
  7
ＭＳ ゴシック
100
AcDbText
  0
TEXT
  5
55F
330
1F
100
AcDbEntity
  8
2-5
  6
Continuous
 62
     7
370
     9
100
AcDbText
 10
969.7325093037375
 20
-955.432244642103
 30
0.0
 40
22.86
  1
溶接用アンカー＠３００
 41
1.151515151515152
  7
ＭＳ ゴシック
100
AcDbText
  0
TEXT
  5
560
330
1F
100
AcDbEntity
  8
2-5
  6
Continuous
 62
     7
370
     9
100
AcDbText
 10
969.7325093037375
 20
-1002.005368058488
 30
0.0
 40
22.86
  1
ｔ＝２．３（ＳＰＨＣ）
 41
1.151515151515152
  7
ＭＳ ゴシック
100
AcDbText
  0
TEXT
  5
561
330
1F
100
AcDbEntity
  8
2-4
  6
Continuous
 62
     2
370
     9
100
AcDbText
 10
260.3172292018584
 20
-604.3782414616765
 30
0.0
 40
30.48
  1
20
 50
90.0
 41
1.0625
  7
ＭＳ ゴシック
100
AcDbText
  0
TEXT
  5
562
330
1F
100
AcDbEntity
  8
2-4
  6
Continuous
 62
     2
370
     9
100
AcDbText
 10
180.0564111328125
 20
-629.3783239416174
 30
0.0
 40
30.48
  1
25
 50
90.0
 41
1.0625
  7
ＭＳ ゴシック
100
AcDbText
  0
TEXT
  5
563
330
1F
100
AcDbEntity
  8
2-4
  6
Continuous
 62
     2
370
     9
100
AcDbText
 10
1687.783709353885
 20
-729.3781589817356
 30
0.0
 40
30.48
  1
10
 50
90.0
 41
1.0625
  7
ＭＳ ゴシック
100
AcDbText
  0
TEXT
  5
564
330
1F
100
AcDbEntity
  8
2-4
  6
Continuous
 62
     2
370
     9
100
AcDbText
 10
1687.783709353885
 20
-591.8780765017947
 30
0.0
 40
30.48
  1
17
 50
90.0
 41
1.0625
  7
ＭＳ ゴシック
100
AcDbText
  0
TEXT
  5
565
330
1F
100
AcDbEntity
  8
2-4
  6
Continuous
 62
     2
370
     9
100
AcDbText
 10
1211.172188423775
 20
-406.0915013988598
 30
0.0
 40
30.48
  1
2
 41
0.9999999999999998
  7
ＭＳ ゴシック
100
AcDbText
  0
TEXT
  5
566
330
1F
100
AcDbEntity
  8
2-4
  6
Continuous
 62
     2
370
     9
100
AcDbText
 10
1261.172353383657
 20
-406.0915013988598
 30
0.0
 40
30.48
  1
8
 41
0.9999999999999998
  7
ＭＳ ゴシック
100
AcDbText
  0
TEXT
  5
567
330
1F
100
AcDbEntity
  8
2-4
  6
Continuous
 62
     2
370
     9
100
AcDbText
 10
1434.922345135663
 20
-333.3921968697213
 30
0.0
 40
30.48
  1
29
 41
1.0625
  7
ＭＳ ゴシック
100
AcDbText
  0
TEXT
  5
568
330
1F
100
AcDbEntity
  8
2-5
  6
Continuous
 62
     7
370
     9
100
AcDbText
 10
800.4576317039698
 20
-877.2815933804898
 30
0.0
 40
22.86
  1
枠：８×２５×１．０
 41
1.15
  7
ＭＳ ゴシック
100
AcDbText
  0
TEXT
  5
569
330
1F
100
AcDbEntity
  8
2-4
  6
Continuous
 62
     2
370
     9
100
AcDbText
 10
621.9400271853888
 20
-785.6223719911318
 30
0.0
 40
30.48
  1
2
 41
0.9999999999999998
  7
ＭＳ ゴシック
100
AcDbText
  0
TEXT
  5
56A
330
1F
100
AcDbEntity
  8
D-5
  6
Continuous
 62
     7
370
     9
100
AcDbText
 10
552.2492609797297
 20
1107.709119378167
 30
0.0
 40
22.86
  1
メインバー：ｔ２．０
 41
1.15
  7
ＭＳ ゴシック
100
AcDbText
  0
TEXT
  5
56B
330
1F
100
AcDbEntity
  8
D-4
  6
Continuous
 62
     2
370
     9
100
AcDbText
 10
652.4591177945526
 20
401.6219721613704
 30
0.0
 40
30.48
  1
8
 50
90.0
 41
0.9999999999999998
  7
ＭＳ ゴシック
100
AcDbText
  0
TEXT
  5
56C
330
1F
100
AcDbEntity
  8
D-4
  6
Continuous
 62
     2
370
     9
100
AcDbText
 10
652.4591177945526
 20
446.844569025813
 30
0.0
 40
30.48
  1
2
 50
90.0
 41
0.9999999999999998
  7
ＭＳ ゴシック
100
AcDbText
  0
TEXT
  5
56D
330
1F
100
AcDbEntity
  8
1-5
  6
Continuous
 62
     2
370
     9
100
AcDbText
 10
180.2182831635346
 20
-155.6170767789274
 30
0.0
 40
30.48
  1
Ｂ
 41
0.9999999999999998
  7
ＭＳ ゴシック
100
AcDbText
  0
TEXT
  5
56E
330
1F
100
AcDbEntity
  8
1-4
  6
Continuous
 62
     2
370
     9
100
AcDbText
 10
-562.7947173247464
 20
-94.17925345755911
 30
0.0
 40
30.48
  1
170
 41
1.083333333333333
  7
ＭＳ ゴシック
100
AcDbText
  0
TEXT
  5
56F
330
1F
100
AcDbEntity
  8
1-4
  6
Continuous
 62
     2
370
     9
100
AcDbText
 10
-1655.544870737436
 20
-160.2293550728461
 30
0.0
 40
30.48
  1
30
 41
1.0625
  7
ＭＳ ゴシック
100
AcDbText
  0
TEXT
  5
570
330
1F
100
AcDbEntity
  8
1-4
  6
Continuous
 62
     2
370
     9
100
AcDbText
 10
-55.54528313714101
 20
-160.2293550728461
 30
0.0
 40
30.48
  1
30
 41
1.0625
  7
ＭＳ ゴシック
100
AcDbText
  0
TEXT
  5
571
330
1F
100
AcDbEntity
  8
1-4
  6
Continuous
 62
     2
370
     9
100
AcDbText
 10
-1714.564223418365
 20
-223.3408613545185
 30
0.0
 40
30.48
  1
8
 41
0.9999999999999998
  7
ＭＳ ゴシック
100
AcDbText
  0
TEXT
  5
572
330
1F
100
AcDbEntity
  8
1-4
  6
Continuous
 62
     2
370
     9
100
AcDbText
 10
-1656.082316218196
 20
-223.3408613545185
 30
0.0
 40
30.48
  1
2
 41
0.9999999999999998
  7
ＭＳ ゴシック
100
AcDbText
  0
TEXT
  5
573
330
1F
100
AcDbEntity
  8
1-4
  6
Continuous
 62
     2
370
     9
100
AcDbText
 10
-30.91979980468736
 20
-223.3408613545185
 30
0.0
 40
30.48
  1
2
 41
0.9999999999999998
  7
ＭＳ ゴシック
100
AcDbText
  0
TEXT
  5
574
330
1F
100
AcDbEntity
  8
1-4
  6
Continuous
 62
     2
370
     9
100
AcDbText
 10
27.04693768475522
 20
-223.3408613545185
 30
0.0
 40
30.48
  1
8
 41
0.9999999999999998
  7
ＭＳ ゴシック
100
AcDbText
  0
TEXT
  5
575
330
1F
100
AcDbEntity
  8
1-4
  6
Continuous
 62
     2
370
     9
100
AcDbText
 10
173.2144525971284
 20
-40.87020874023423
 30
0.0
 40
30.48
  1
8
 50
90.0
 41
0.9999999999999998
  7
ＭＳ ゴシック
100
AcDbText
  0
TEXT
  5
576
330
1F
100
AcDbEntity
  8
1-4
  6
Continuous
 62
     2
370
     9
100
AcDbText
 10
173.2144525971284
 20
16.72091509844805
 30
0.0
 40
30.48
  1
2
 50
90.0
 41
0.9999999999999998
  7
ＭＳ ゴシック
100
AcDbText
  0
TEXT
  5
577
330
1F
100
AcDbEntity
  8
1-4
  6
Continuous
 62
     2
370
     9
100
AcDbText
 10
173.2144525971284
 20
1142.297511745144
 30
0.0
 40
30.48
  1
2
 50
90.0
 41
0.9999999999999998
  7
ＭＳ ゴシック
100
AcDbText
  0
TEXT
  5
578
330
1F
100
AcDbEntity
  8
1-4
  6
Continuous
 62
     2
370
     9
100
AcDbText
 10
173.2144525971284
 20
1196.895108609586
 30
0.0
 40
30.48
  1
8
 50
90.0
 41
0.9999999999999998
  7
ＭＳ ゴシック
100
AcDbText
  0
TEXT
  5
579
330
1F
100
AcDbEntity
  8
2-4
  6
Continuous
 62
     2
370
     9
100
AcDbText
 10
-1839.968675149453
 20
-1102.205541464316
 30
0.0
 40
30.48
  1
注記：メインバーの両端部のピッチは、玄関マットの大きさにより狭くなる場合があります。
 41
1.122023809523809
  7
ＭＳ ゴシック
100
AcDbText
  0
TEXT
  5
57A
330
1F
100
AcDbEntity
  8
2-5
  6
Continuous
 62
     7
370
     9
100
AcDbText
 10
-1799.943336280617
 20
-828.1358381281672
 30
0.0
 40
22.86
  1
メインバー表面　Ｓ＝１：１
 41
1.153846153846154
  7
ＭＳ ゴシック
100
AcDbText
  0
TEXT
  5
57B
330
1F
100
AcDbEntity
  8
2-5
  6
Continuous
 62
     7
370
     9
100
AcDbText
 10
-1502.646851410737
 20
-579.9621089790962
 30
0.0
 40
22.86
  1
ローレットアヤ目模様
 41
1.15
  7
ＭＳ ゴシック
100
AcDbText
  0
TEXT
  5
57C
330
1F
100
AcDbEntity
  8
2-4
  6
Continuous
 62
     2
370
     9
100
AcDbText
 10
-1588.755177678288
 20
-490.5204432801943
 30
0.0
 40
30.48
  1
6
 41
0.9999999999999998
  7
ＭＳ ゴシック
100
AcDbText
  0
TEXT
  5
57D
330
1F
100
AcDbEntity
  8
2-5
  6
Continuous
 62
     7
370
     9
100
AcDbText
 10
75.88059708878816
 20
-806.792668786951
 30
0.0
 40
22.86
  1
クロスバー：□７
 41
1.145833333333333
  7
ＭＳ ゴシック
100
AcDbText
  0
TEXT
  5
57E
330
1F
100
AcDbEntity
  8
D-5
  6
Continuous
 62
     7
370
     9
100
AcDbText
 10
854.4705289035912
 20
1165.735242424961
 30
0.0
 40
22.86
  1
クロスバー：□７
 50
0.0001031073583461
 41
1.145833333333333
  7
ＭＳ ゴシック
100
AcDbText
  0
TEXT
  5
57F
330
1F
100
AcDbEntity
  8
1-4
  6
Continuous
 62
     2
370
     9
100
AcDbText
 10
-1067.300740834829
 20
-479.6974254381333
 30
0.0
 40
30.48
  1
平面詳細図　Ｓ＝１：５
 41
1.113636363636364
  7
ＭＳ ゴシック
100
AcDbText
  0
TEXT
  5
580
330
1F
100
AcDbEntity
  8
D-4
  6
Continuous
 62
     2
370
     9
100
AcDbText
 10
844.4762028874582
 20
-50.63083443306589
 30
0.0
 40
30.48
  1
Ｂ部平面詳細図　Ｓ＝１：２
 41
1.115384615384615
  7
ＭＳ ゴシック
100
AcDbText
  0
TEXT
  5
581
330
1F
100
AcDbEntity
  8
2-4
  6
Continuous
 62
     2
370
     9
100
AcDbText
 10
677.3370856207773
 20
-1108.592705605997
 30
0.0
 40
30.48
  1
断面Ａ詳細図　Ｓ＝１：１
 41
1.114583333333333
  7
ＭＳ ゴシック
100
AcDbText
  0
TEXT
  5
582
330
1F
100
AcDbEntity
  8
1-4
  6
Continuous
 62
     2
370
     9
100
AcDbText
 10
-1475.544765575512
 20
-160.2293550728461
 30
0.0
 40
30.48
  1
151
 41
1.083333333333333
  7
ＭＳ ゴシック
100
AcDbText
  0
TEXT
  5
583
330
1F
100
AcDbEntity
  8
1-4
  6
Continuous
 62
     2
370
     9
100
AcDbText
 10
-956.7951140532621
 20
-160.2293550728461
 30
0.0
 40
30.48
  1
170×3=510
 41
1.1125
  7
ＭＳ ゴシック
100
AcDbText
  0
TEXT
  5
584
330
1F
100
AcDbEntity
  8
1-4
  6
Continuous
 62
     2
370
     9
100
AcDbText
 10
-878.0451759132178
 20
-223.3408613545185
 30
0.0
 40
30.48
  1
872
 41
1.083333333333333
  7
ＭＳ ゴシック
100
AcDbText
  0
TEXT
  5
585
330
1F
100
AcDbEntity
  8
1-4
  6
Continuous
 62
     2
370
     9
100
AcDbText
 10
-878.0451759132178
 20
-285.182011586782
 30
0.0
 40
30.48
  1
892
 41
1.083333333333333
  7
ＭＳ ゴシック
100
AcDbText
  0
TEXT
  5
586
330
1F
100
AcDbEntity
  8
1-4
  6
Continuous
 62
     2
370
     9
100
AcDbText
 10
-235.5451594172295
 20
-160.2293550728461
 30
0.0
 40
30.48
  1
151
 41
1.083333333333333
  7
ＭＳ ゴシック
100
AcDbText
  0
TEXT
  5
587
330
1F
100
AcDbEntity
  8
1-4
  6
Continuous
 62
     2
370
     9
100
AcDbText
 10
173.2144525971284
 20
556.2327781883447
 30
0.0
 40
30.48
  1
572
 50
90.0
 41
1.083333333333333
  7
ＭＳ ゴシック
100
AcDbText
  0
TEXT
  5
588
330
1F
100
AcDbEntity
  8
1-4
  6
Continuous
 62
     2
370
     9
100
AcDbText
 10
240.8996365603886
 20
556.2327781883447
 30
0.0
 40
30.48
  1
592
 50
90.0
 41
1.083333333333333
  7
ＭＳ ゴシック
100
AcDbText
  0
LWPOLYLINE
  5
589
330
1F
100
AcDbEntity
  8
2-4
  6
Continuous
 62
     7
370
     9
100
AcDbPolyline
 90
        4
 70
     1
 43
1.0
 10
271.4572456978464
 20
-483.1282827016469
 42
0.4142135623731
 10
270.9572456978464
 20
-482.6282827016469
 42
0.4142135623731
 10
270.4572456978464
 20
-483.1282827016469
 42
0.4142135623731
 10
270.9572456978464
 20
-483.6282827016469
 42
0.4142135623731
  0
LWPOLYLINE
  5
58A
330
1F
100
AcDbEntity
  8
2-4
  6
Continuous
 62
     7
370
     9
100
AcDbPolyline
 90
        4
 70
     1
 43
1.0
 10
271.4572456978464
 20
-683.128200221706
 42
0.4142135623731
 10
270.9572456978464
 20
-682.628200221706
 42
0.4142135623731
 10
270.4572456978464
 20
-683.128200221706
 42
0.4142135623731
 10
270.9572456978464
 20
-683.6282002217059
 42
0.4142135623731
  0
LWPOLYLINE
  5
58B
330
1F
100
AcDbEntity
  8
2-4
  6
Continuous
 62
     7
370
     9
100
AcDbPolyline
 90
        4
 70
     1
 43
1.0
 10
191.1964276288008
 20
-483.1282827016469
 42
0.4142135623731
 10
190.6964276288008
 20
-482.6282827016469
 42
0.4142135623731
 10
190.1964276288008
 20
-483.1282827016469
 42
0.4142135623731
 10
190.6964276288008
 20
-483.6282827016469
 42
0.4142135623731
  0
LWPOLYLINE
  5
58C
330
1F
100
AcDbEntity
  8
2-4
  6
Continuous
 62
     7
370
     9
100
AcDbPolyline
 90
        4
 70
     1
 43
1.0
 10
191.1964276288008
 20
-733.1281177417651
 42
0.4142135623731
 10
190.6964276288008
 20
-732.6281177417651
 42
0.4142135623731
 10
190.1964276288008
 20
-733.1281177417651
 42
0.4142135623731
 10
190.6964276288008
 20
-733.6281177417651
 42
0.4142135623731
  0
LWPOLYLINE
  5
58D
330
1F
100
AcDbEntity
  8
2-4
  6
Continuous
 62
     7
370
     9
100
AcDbPolyline
 90
        4
 70
     1
 43
1.0
 10
1698.923725849874
 20
-758.128200221706
 42
0.4142135623731
 10
1698.423725849873
 20
-757.628200221706
 42
0.4142135623731
 10
1697.923725849873
 20
-758.128200221706
 42
0.4142135623731
 10
1698.423725849873
 20
-758.6282002217059
 42
0.4142135623731
  0
LWPOLYLINE
  5
58E
330
1F
100
AcDbEntity
  8
2-4
  6
Continuous
 62
     7
370
     9
100
AcDbPolyline
 90
        4
 70
     1
 43
1.0
 10
1698.923725849874
 20
-658.1281177417651
 42
0.4142135623731
 10
1698.423725849873
 20
-657.6281177417651
 42
0.4142135623731
 10
1697.923725849873
 20
-658.1281177417651
 42
0.4142135623731
 10
1698.423725849873
 20
-658.6281177417651
 42
0.4142135623731
  0
LWPOLYLINE
  5
58F
330
1F
100
AcDbEntity
  8
2-4
  6
Continuous
 62
     7
370
     9
100
AcDbPolyline
 90
        4
 70
     1
 43
1.0
 10
1698.923725849874
 20
-483.1282827016469
 42
0.4142135623731
 10
1698.423725849873
 20
-482.6282827016469
 42
0.4142135623731
 10
1697.923725849873
 20
-483.1282827016469
 42
0.4142135623731
 10
1698.423725849873
 20
-483.6282827016469
 42
0.4142135623731
  0
LWPOLYLINE
  5
590
330
1F
100
AcDbEntity
  8
2-4
  6
Continuous
 62
     7
370
     9
100
AcDbPolyline
 90
        4
 70
     1
 43
1.0
 10
1211.672155431799
 20
-416.7312704550253
 42
0.4142135623731
 10
1211.172155431799
 20
-416.2312704550253
 42
0.4142135623731
 10
1210.672155431799
 20
-416.7312704550253
 42
0.4142135623731
 10
1211.172155431799
 20
-417.2312704550252
 42
0.4142135623731
  0
LWPOLYLINE
  5
591
330
1F
100
AcDbEntity
  8
2-4
  6
Continuous
 62
     7
370
     9
100
AcDbPolyline
 90
        4
 70
     1
 43
1.0
 10
1231.672221415752
 20
-416.7312704550253
 42
0.4142135623731
 10
1231.172221415752
 20
-416.2312704550253
 42
0.4142135623731
 10
1230.672221415752
 20
-416.7312704550253
 42
0.4142135623731
 10
1231.172221415752
 20
-417.2312704550252
 42
0.4142135623731
  0
LWPOLYLINE
  5
592
330
1F
100
AcDbEntity
  8
2-4
  6
Continuous
 62
     7
370
     9
100
AcDbPolyline
 90
        4
 70
     1
 43
1.0
 10
1311.67223791174
 20
-416.7312704550253
 42
0.4142135623731
 10
1311.17223791174
 20
-416.2312704550253
 42
0.4142135623731
 10
1310.67223791174
 20
-416.7312704550253
 42
0.4142135623731
 10
1311.17223791174
 20
-417.2312704550252
 42
0.4142135623731
  0
LWPOLYLINE
  5
593
330
1F
100
AcDbEntity
  8
2-4
  6
Continuous
 62
     7
370
     9
100
AcDbPolyline
 90
        4
 70
     1
 43
1.0
 10
1311.67223791174
 20
-344.032460805532
 42
0.4142135623731
 10
1311.17223791174
 20
-343.5324608055321
 42
0.4142135623731
 10
1310.67223791174
 20
-344.032460805532
 42
0.4142135623731
 10
1311.17223791174
 20
-344.532460805532
 42
0.4142135623731
  0
LWPOLYLINE
  5
594
330
1F
100
AcDbEntity
  8
2-4
  6
Continuous
 62
     7
370
     9
100
AcDbPolyline
 90
        4
 70
     1
 43
1.0
 10
1601.672204919764
 20
-344.032460805532
 42
0.4142135623731
 10
1601.172204919764
 20
-343.5324608055321
 42
0.4142135623731
 10
1600.672204919763
 20
-344.032460805532
 42
0.4142135623731
 10
1601.172204919764
 20
-344.532460805532
 42
0.4142135623731
  0
LWPOLYLINE
  5
595
330
1F
100
AcDbEntity
  8
2-4
  6
Continuous
 62
     7
370
     9
100
AcDbPolyline
 90
        4
 70
     1
 43
1.0
 10
659.6725117451438
 20
-796.2623884871199
 42
0.4142135623731
 10
659.1725117451438
 20
-795.76238848712
 42
0.4142135623731
 10
658.6725117451438
 20
-796.2623884871199
 42
0.4142135623731
 10
659.1725117451438
 20
-796.7623884871199
 42
0.4142135623731
  0
LWPOLYLINE
  5
596
330
1F
100
AcDbEntity
  8
2-4
  6
Continuous
 62
     7
370
     9
100
AcDbPolyline
 90
        4
 70
     1
 43
1.0
 10
679.6725777290964
 20
-796.2623884871199
 42
0.4142135623731
 10
679.1725777290964
 20
-795.76238848712
 42
0.4142135623731
 10
678.6725777290964
 20
-796.2623884871199
 42
0.4142135623731
 10
679.1725777290964
 20
-796.7623884871199
 42
0.4142135623731
  0
LWPOLYLINE
  5
597
330
1F
100
AcDbEntity
  8
D-4
  6
Continuous
 62
     7
370
     9
100
AcDbPolyline
 90
        4
 70
     1
 43
1.0
 10
663.5991342905406
 20
391.6219680373734
 42
0.4142135623731
 10
663.0991342905406
 20
392.1219680373734
 42
0.4142135623731
 10
662.5991342905406
 20
391.6219680373734
 42
0.4142135623731
 10
663.0991342905406
 20
391.1219680373734
 42
0.4142135623731
  0
LWPOLYLINE
  5
598
330
1F
100
AcDbEntity
  8
D-4
  6
Continuous
 62
     7
370
     9
100
AcDbPolyline
 90
        4
 70
     1
 43
1.0
 10
663.5991342905406
 20
431.6221000052789
 42
0.4142135623731
 10
663.0991342905406
 20
432.1221000052789
 42
0.4142135623731
 10
662.5991342905406
 20
431.6221000052789
 42
0.4142135623731
 10
663.0991342905406
 20
431.122100005279
 42
0.4142135623731
  0
LWPOLYLINE
  5
599
330
1F
100
AcDbEntity
  8
D-4
  6
Continuous
 62
     7
370
     9
100
AcDbPolyline
 90
        4
 70
     1
 43
1.0
 10
663.5991342905406
 20
441.6216381176099
 42
0.4142135623731
 10
663.0991342905406
 20
442.1216381176099
 42
0.4142135623731
 10
662.5991342905406
 20
441.6216381176099
 42
0.4142135623731
 10
663.0991342905406
 20
441.1216381176099
 42
0.4142135623731
  0
LWPOLYLINE
  5
59A
330
1F
100
AcDbEntity
  8
D-4
  6
Continuous
 62
     7
370
     9
100
AcDbPolyline
 90
        4
 70
     1
 43
1.0
 10
1431.928486592061
 20
113.7722860800255
 42
0.4142135623731
 10
1431.428486592061
 20
114.2722860800255
 42
0.4142135623731
 10
1430.928486592061
 20
113.7722860800255
 42
0.4142135623731
 10
1431.428486592061
 20
113.2722860800255
 42
0.4142135623731
  0
LWPOLYLINE
  5
59B
330
1F
100
AcDbEntity
  8
D-4
  6
Continuous
 62
     7
370
     9
100
AcDbPolyline
 90
        4
 70
     1
 43
1.0
 10
1663.538099134291
 20
391.6219680373734
 42
0.4142135623731
 10
1663.038099134291
 20
392.1219680373734
 42
0.4142135623731
 10
1662.53809913429
 20
391.6219680373734
 42
0.4142135623731
 10
1663.038099134291
 20
391.1219680373734
 42
0.4142135623731
  0
LWPOLYLINE
  5
59C
330
1F
100
AcDbEntity
  8
1-4
  6
Continuous
 62
     7
370
     9
100
AcDbPolyline
 90
        4
 70
     1
 43
1.0
 10
-699.7947833086993
 20
-104.8195173933698
 42
0.4142135623731
 10
-700.2947833086992
 20
-104.3195173933698
 42
0.4142135623731
 10
-700.7947833086992
 20
-104.8195173933698
 42
0.4142135623731
 10
-700.2947833086992
 20
-105.3195173933698
 42
0.4142135623731
  0
LWPOLYLINE
  5
59D
330
1F
100
AcDbEntity
  8
1-4
  6
Continuous
 62
     7
370
     9
100
AcDbPolyline
 90
        4
 70
     1
 43
1.0
 10
-359.7948987806164
 20
-104.8195173933698
 42
0.4142135623731
 10
-360.2948987806164
 20
-104.3195173933698
 42
0.4142135623731
 10
-360.7948987806163
 20
-104.8195173933698
 42
0.4142135623731
 10
-360.2948987806164
 20
-105.3195173933698
 42
0.4142135623731
  0
LWPOLYLINE
  5
59E
330
1F
100
AcDbEntity
  8
1-4
  6
Continuous
 62
     7
370
     9
100
AcDbPolyline
 90
        4
 70
     1
 43
1.0
 10
-1663.794845993454
 20
-170.8691241290117
 42
0.4142135623731
 10
-1664.294845993454
 20
-170.3691241290117
 42
0.4142135623731
 10
-1664.794845993455
 20
-170.8691241290117
 42
0.4142135623731
 10
-1664.294845993454
 20
-171.3691241290117
 42
0.4142135623731
  0
LWPOLYLINE
  5
59F
330
1F
100
AcDbEntity
  8
1-4
  6
Continuous
 62
     7
370
     9
100
AcDbPolyline
 90
        4
 70
     1
 43
1.0
 10
-1603.795142921242
 20
-170.8691241290117
 42
0.4142135623731
 10
-1604.295142921242
 20
-170.3691241290117
 42
0.4142135623731
 10
-1604.795142921242
 20
-170.8691241290117
 42
0.4142135623731
 10
-1604.295142921242
 20
-171.3691241290117
 42
0.4142135623731
  0
LWPOLYLINE
  5
5A0
330
1F
100
AcDbEntity
  8
1-4
  6
Continuous
 62
     7
370
     9
100
AcDbPolyline
 90
        4
 70
     1
 43
1.0
 10
-1307.794760214316
 20
-170.8691241290117
 42
0.4142135623731
 10
-1308.294760214316
 20
-170.3691241290117
 42
0.4142135623731
 10
-1308.794760214316
 20
-170.8691241290117
 42
0.4142135623731
 10
-1308.294760214316
 20
-171.3691241290117
 42
0.4142135623731
  0
LWPOLYLINE
  5
5A1
330
1F
100
AcDbEntity
  8
1-4
  6
Continuous
 62
     7
370
     9
100
AcDbPolyline
 90
        4
 70
     1
 43
1.0
 10
-359.7948987806164
 20
-170.8691241290117
 42
0.4142135623731
 10
-360.2948987806164
 20
-170.3691241290117
 42
0.4142135623731
 10
-360.7948987806163
 20
-170.8691241290117
 42
0.4142135623731
 10
-360.2948987806164
 20
-171.3691241290117
 42
0.4142135623731
  0
LWPOLYLINE
  5
5A2
330
1F
100
AcDbEntity
  8
1-4
  6
Continuous
 62
     7
370
     9
100
AcDbPolyline
 90
        4
 70
     1
 43
1.0
 10
-63.79525839315858
 20
-170.8691241290117
 42
0.4142135623731
 10
-64.29525839315858
 20
-170.3691241290117
 42
0.4142135623731
 10
-64.79525839315858
 20
-170.8691241290117
 42
0.4142135623731
 10
-64.29525839315858
 20
-171.3691241290117
 42
0.4142135623731
  0
LWPOLYLINE
  5
5A3
330
1F
100
AcDbEntity
  8
1-4
  6
Continuous
 62
     7
370
     9
100
AcDbPolyline
 90
        4
 70
     1
 43
1.0
 10
-3.795307881123165
 20
-170.8691241290117
 42
0.4142135623731
 10
-4.295307881123165
 20
-170.3691241290117
 42
0.4142135623731
 10
-4.795307881123165
 20
-170.8691241290117
 42
0.4142135623731
 10
-4.295307881123165
 20
-171.3691241290117
 42
0.4142135623731
  0
LWPOLYLINE
  5
5A4
330
1F
100
AcDbEntity
  8
1-4
  6
Continuous
 62
     7
370
     9
100
AcDbPolyline
 90
        4
 70
     1
 43
1.0
 10
-1683.794911977407
 20
-233.9811252903293
 42
0.4142135623731
 10
-1684.294911977407
 20
-233.4811252903293
 42
0.4142135623731
 10
-1684.794911977407
 20
-233.9811252903293
 42
0.4142135623731
 10
-1684.294911977407
 20
-234.4811252903293
 42
0.4142135623731
  0
LWPOLYLINE
  5
5A5
330
1F
100
AcDbEntity
  8
1-4
  6
Continuous
 62
     7
370
     9
100
AcDbPolyline
 90
        4
 70
     1
 43
1.0
 10
-1667.794958166174
 20
-233.9811252903293
 42
0.4142135623731
 10
-1668.294958166174
 20
-233.4811252903293
 42
0.4142135623731
 10
-1668.794958166174
 20
-233.9811252903293
 42
0.4142135623731
 10
-1668.294958166174
 20
-234.4811252903293
 42
0.4142135623731
  0
LWPOLYLINE
  5
5A6
330
1F
100
AcDbEntity
  8
1-4
  6
Continuous
 62
     7
370
     9
100
AcDbPolyline
 90
        4
 70
     1
 43
1.0
 10
-1663.794845993454
 20
-233.9811252903293
 42
0.4142135623731
 10
-1664.294845993454
 20
-233.4811252903293
 42
0.4142135623731
 10
-1664.794845993455
 20
-233.9811252903293
 42
0.4142135623731
 10
-1664.294845993454
 20
-234.4811252903293
 42
0.4142135623731
  0
LWPOLYLINE
  5
5A7
330
1F
100
AcDbEntity
  8
1-4
  6
Continuous
 62
     7
370
     9
100
AcDbPolyline
 90
        4
 70
     1
 43
1.0
 10
-3.795307881123165
 20
-233.9811252903293
 42
0.4142135623731
 10
-4.295307881123165
 20
-233.4811252903293
 42
0.4142135623731
 10
-4.795307881123165
 20
-233.9811252903293
 42
0.4142135623731
 10
-4.295307881123165
 20
-234.4811252903293
 42
0.4142135623731
  0
LWPOLYLINE
  5
5A8
330
1F
100
AcDbEntity
  8
1-4
  6
Continuous
 62
     7
370
     9
100
AcDbPolyline
 90
        4
 70
     1
 43
1.0
 10
0.2048042915963606
 20
-233.9811252903293
 42
0.4142135623731
 10
-0.2951957084036394
 20
-233.4811252903293
 42
0.4142135623731
 10
-0.7951957084036394
 20
-233.9811252903293
 42
0.4142135623731
 10
-0.2951957084036394
 20
-234.4811252903293
 42
0.4142135623731
  0
LWPOLYLINE
  5
5A9
330
1F
100
AcDbEntity
  8
1-4
  6
Continuous
 62
     7
370
     9
100
AcDbPolyline
 90
        4
 70
     1
 43
1.0
 10
16.20451066300677
 20
-233.9811252903293
 42
0.4142135623731
 10
15.70451066300677
 20
-233.4811252903293
 42
0.4142135623731
 10
15.20451066300677
 20
-233.9811252903293
 42
0.4142135623731
 10
15.70451066300677
 20
-234.4811252903293
 42
0.4142135623731
  0
LWPOLYLINE
  5
5AA
330
1F
100
AcDbEntity
  8
1-4
  6
Continuous
 62
     7
370
     9
100
AcDbPolyline
 90
        4
 70
     1
 43
1.0
 10
-1683.794911977407
 20
-295.8222755225928
 42
0.4142135623731
 10
-1684.294911977407
 20
-295.3222755225928
 42
0.4142135623731
 10
-1684.794911977407
 20
-295.8222755225928
 42
0.4142135623731
 10
-1684.294911977407
 20
-296.3222755225929
 42
0.4142135623731
  0
LWPOLYLINE
  5
5AB
330
1F
100
AcDbEntity
  8
1-4
  6
Continuous
 62
     7
370
     9
100
AcDbPolyline
 90
        4
 70
     1
 43
1.0
 10
16.20451066300677
 20
-295.8222755225928
 42
0.4142135623731
 10
15.70451066300677
 20
-295.3222755225928
 42
0.4142135623731
 10
15.20451066300677
 20
-295.8222755225928
 42
0.4142135623731
 10
15.70451066300677
 20
-296.3222755225929
 42
0.4142135623731
  0
LWPOLYLINE
  5
5AC
330
1F
100
AcDbEntity
  8
1-4
  6
Continuous
 62
     7
370
     9
100
AcDbPolyline
 90
        4
 70
     1
 43
1.0
 10
184.3544690931167
 20
-11.26746925147785
 42
0.4142135623731
 10
183.8544690931167
 20
-10.76746925147785
 42
0.4142135623731
 10
183.3544690931167
 20
-11.26746925147785
 42
0.4142135623731
 10
183.8544690931167
 20
-11.76746925147785
 42
0.4142135623731
  0
LWPOLYLINE
  5
5AD
330
1F
100
AcDbEntity
  8
1-4
  6
Continuous
 62
     7
370
     9
100
AcDbPolyline
 90
        4
 70
     1
 43
1.0
 10
184.3544690931167
 20
4.732484559755221
 42
0.4142135623731
 10
183.8544690931167
 20
5.232484559755221
 42
0.4142135623731
 10
183.3544690931167
 20
4.732484559755221
 42
0.4142135623731
 10
183.8544690931167
 20
4.232484559755221
 42
0.4142135623731
  0
LWPOLYLINE
  5
5AE
330
1F
100
AcDbEntity
  8
1-4
  6
Continuous
 62
     7
370
     9
100
AcDbPolyline
 90
        4
 70
     1
 43
1.0
 10
184.3544690931167
 20
8.732596732474747
 42
0.4142135623731
 10
183.8544690931167
 20
9.232596732474747
 42
0.4142135623731
 10
183.3544690931167
 20
8.732596732474747
 42
0.4142135623731
 10
183.8544690931167
 20
8.232596732474747
 42
0.4142135623731
  0
LWPOLYLINE
  5
5AF
330
1F
100
AcDbEntity
  8
1-4
  6
Continuous
 62
     7
370
     9
100
AcDbPolyline
 90
        4
 70
     1
 43
1.0
 10
184.3544690931167
 20
1168.732464764569
 42
0.4142135623731
 10
183.8544690931167
 20
1169.232464764569
 42
0.4142135623731
 10
183.3544690931167
 20
1168.732464764569
 42
0.4142135623731
 10
183.8544690931167
 20
1168.232464764569
 42
0.4142135623731
  0
LWPOLYLINE
  5
5B0
330
1F
100
AcDbEntity
  8
1-4
  6
Continuous
 62
     7
370
     9
100
AcDbPolyline
 90
        4
 70
     1
 43
1.0
 10
184.3544690931167
 20
1172.732082057644
 42
0.4142135623731
 10
183.8544690931167
 20
1173.232082057644
 42
0.4142135623731
 10
183.3544690931167
 20
1172.732082057644
 42
0.4142135623731
 10
183.8544690931167
 20
1172.232082057644
 42
0.4142135623731
  0
LWPOLYLINE
  5
5B1
330
1F
100
AcDbEntity
  8
1-4
  6
Continuous
 62
     7
370
     9
100
AcDbPolyline
 90
        4
 70
     1
 43
1.0
 10
184.3544690931167
 20
1188.732530748522
 42
0.4142135623731
 10
183.8544690931167
 20
1189.232530748522
 42
0.4142135623731
 10
183.3544690931167
 20
1188.732530748522
 42
0.4142135623731
 10
183.8544690931167
 20
1188.232530748522
 42
0.4142135623731
  0
LWPOLYLINE
  5
5B2
330
1F
100
AcDbEntity
  8
1-4
  6
Continuous
 62
     7
370
     9
100
AcDbPolyline
 90
        4
 70
     1
 43
1.0
 10
252.0396530563768
 20
-11.26746925147785
 42
0.4142135623731
 10
251.5396530563768
 20
-10.76746925147785
 42
0.4142135623731
 10
251.0396530563768
 20
-11.26746925147785
 42
0.4142135623731
 10
251.5396530563768
 20
-11.76746925147785
 42
0.4142135623731
  0
LWPOLYLINE
  5
5B3
330
1F
100
AcDbEntity
  8
1-4
  6
Continuous
 62
     7
370
     9
100
AcDbPolyline
 90
        4
 70
     1
 43
1.0
 10
252.0396530563768
 20
1188.732530748522
 42
0.4142135623731
 10
251.5396530563768
 20
1189.232530748522
 42
0.4142135623731
 10
251.0396530563768
 20
1188.732530748522
 42
0.4142135623731
 10
251.5396530563768
 20
1188.232530748522
 42
0.4142135623731
  0
LWPOLYLINE
  5
5B4
330
1F
100
AcDbEntity
  8
2-4
  6
Continuous
 62
     7
370
     9
100
AcDbPolyline
 90
        4
 70
     1
 43
1.0
 10
-1608.25524572424
 20
-501.1602123363598
 42
0.4142135623731
 10
-1608.75524572424
 20
-500.6602123363598
 42
0.4142135623731
 10
-1609.25524572424
 20
-501.1602123363598
 42
0.4142135623731
 10
-1608.75524572424
 20
-501.6602123363597
 42
0.4142135623731
  0
LWPOLYLINE
  5
5B5
330
1F
100
AcDbEntity
  8
2-4
  6
Continuous
 62
     7
370
     9
100
AcDbPolyline
 90
        4
 70
     1
 43
1.0
 10
-1548.255047772382
 20
-501.1602123363598
 42
0.4142135623731
 10
-1548.755047772382
 20
-500.6602123363598
 42
0.4142135623731
 10
-1549.255047772382
 20
-501.1602123363598
 42
0.4142135623731
 10
-1548.755047772382
 20
-501.6602123363597
 42
0.4142135623731
  0
LINE
  5
5B6
330
1F
100
AcDbEntity
  8
2-4
  6
Continuous
 62
     7
370
     9
100
AcDbLine
 10
1211.172155431799
 20
-473.1282497096706
 30
0.0
 11
1211.172155431799
 21
-413.7313100453969
 31
0.0
  0
LINE
  5
5B7
330
1F
100
AcDbEntity
  8
2-2
  6
Continuous
 62
     3
370
     9
100
AcDbLine
 10
1026.171792520059
 20
-503.1283486855996
 30
0.0
 11
1036.171825512035
 21
-503.1283486855996
 31
0.0
  0
LINE
  5
5B8
330
1F
100
AcDbEntity
  8
2-2
  6
Continuous
 62
     3
370
     9
100
AcDbLine
 10
1041.171842008023
 20
-508.1281177417651
 30
0.0
 11
1041.171842008023
 21
-673.1284146695523
 31
0.0
  0
LINE
  5
5B9
330
1F
100
AcDbEntity
  8
2-2
  6
Continuous
 62
     3
370
     9
100
AcDbLine
 10
1061.171907991976
 20
-673.1284146695523
 30
0.0
 11
1061.171907991976
 21
-508.1281177417651
 31
0.0
  0
LINE
  5
5BA
330
1F
100
AcDbEntity
  8
2-2
  6
Continuous
 62
     3
370
     9
100
AcDbLine
 10
1066.171924487964
 20
-503.1283486855996
 30
0.0
 11
1076.172204919763
 21
-503.1283486855996
 31
0.0
  0
LINE
  5
5BB
330
1F
100
AcDbEntity
  8
2-2
  6
Continuous
 62
     3
370
     9
100
AcDbLine
 10
1021.171776024071
 20
-483.1282827016469
 30
0.0
 11
1021.171776024071
 21
-498.1280847497888
 31
0.0
  0
LINE
  5
5BC
330
1F
100
AcDbEntity
  8
2-2
  6
Continuous
 62
     3
370
     9
100
AcDbLine
 10
1081.172221415752
 20
-483.1282827016469
 30
0.0
 11
1021.171776024071
 21
-483.1282827016469
 31
0.0
  0
LINE
  5
5BD
330
1F
100
AcDbEntity
  8
2-2
  6
Continuous
 62
     3
370
     9
100
AcDbLine
 10
1081.172221415752
 20
-498.1280847497888
 30
0.0
 11
1081.172221415752
 21
-483.1282827016469
 31
0.0
  0
LINE
  5
5BE
330
1F
100
AcDbEntity
  8
2-2
  6
Continuous
 62
     3
370
     9
100
AcDbLine
 10
1156.171726536106
 20
-503.1283486855996
 30
0.0
 11
1166.171759528082
 21
-503.1283486855996
 31
0.0
  0
LINE
  5
5BF
330
1F
100
AcDbEntity
  8
2-2
  6
Continuous
 62
     3
370
     9
100
AcDbLine
 10
1171.171776024071
 20
-508.1281177417651
 30
0.0
 11
1171.171776024071
 21
-673.1284146695523
 31
0.0
  0
LINE
  5
5C0
330
1F
100
AcDbEntity
  8
2-2
  6
Continuous
 62
     3
370
     9
100
AcDbLine
 10
1191.171842008023
 20
-673.1284146695523
 30
0.0
 11
1191.171842008023
 21
-508.1281177417651
 31
0.0
  0
LINE
  5
5C1
330
1F
100
AcDbEntity
  8
2-2
  6
Continuous
 62
     3
370
     9
100
AcDbLine
 10
1196.171858504011
 20
-503.1283486855996
 30
0.0
 11
1206.17213893581
 21
-503.1283486855996
 31
0.0
  0
LINE
  5
5C2
330
1F
100
AcDbEntity
  8
2-2
  6
Continuous
 62
     3
370
     9
100
AcDbLine
 10
1151.171710040118
 20
-483.1282827016469
 30
0.0
 11
1151.171710040118
 21
-498.1280847497888
 31
0.0
  0
LINE
  5
5C3
330
1F
100
AcDbEntity
  8
2-2
  6
Continuous
 62
     3
370
     9
100
AcDbLine
 10
1211.172155431799
 20
-483.1282827016469
 30
0.0
 11
1151.171710040118
 21
-483.1282827016469
 31
0.0
  0
LINE
  5
5C4
330
1F
100
AcDbEntity
  8
2-2
  6
Continuous
 62
     3
370
     9
100
AcDbLine
 10
1211.172155431799
 20
-498.1280847497888
 30
0.0
 11
1211.172155431799
 21
-483.1282827016469
 31
0.0
  0
LINE
  5
5C5
330
1F
100
AcDbEntity
  8
2-2
  6
Continuous
 62
     3
370
     9
100
AcDbLine
 10
896.1718585040114
 20
-503.1283486855996
 30
0.0
 11
906.171891495988
 21
-503.1283486855996
 31
0.0
  0
LINE
  5
5C6
330
1F
100
AcDbEntity
  8
2-2
  6
Continuous
 62
     3
370
     9
100
AcDbLine
 10
911.171907991976
 20
-508.1281177417651
 30
0.0
 11
911.171907991976
 21
-673.1284146695523
 31
0.0
  0
LINE
  5
5C7
330
1F
100
AcDbEntity
  8
2-2
  6
Continuous
 62
     3
370
     9
100
AcDbLine
 10
931.1719739759286
 20
-673.1284146695523
 30
0.0
 11
931.1719739759286
 21
-508.1281177417651
 31
0.0
  0
LINE
  5
5C8
330
1F
100
AcDbEntity
  8
2-2
  6
Continuous
 62
     3
370
     9
100
AcDbLine
 10
936.1719904719172
 20
-503.1283486855996
 30
0.0
 11
946.1722709037161
 21
-503.1283486855996
 31
0.0
  0
LINE
  5
5C9
330
1F
100
AcDbEntity
  8
2-2
  6
Continuous
 62
     3
370
     9
100
AcDbLine
 10
891.1718420080234
 20
-483.1282827016469
 30
0.0
 11
891.1718420080234
 21
-498.1280847497888
 31
0.0
  0
LINE
  5
5CA
330
1F
100
AcDbEntity
  8
2-2
  6
Continuous
 62
     3
370
     9
100
AcDbLine
 10
951.1722873997041
 20
-483.1282827016469
 30
0.0
 11
891.1718420080234
 21
-483.1282827016469
 31
0.0
  0
LINE
  5
5CB
330
1F
100
AcDbEntity
  8
2-2
  6
Continuous
 62
     3
370
     9
100
AcDbLine
 10
951.1722873997041
 20
-498.1280847497888
 30
0.0
 11
951.1722873997041
 21
-483.1282827016469
 31
0.0
  0
LINE
  5
5CC
330
1F
100
AcDbEntity
  8
2-2
  6
Continuous
 62
     3
370
     9
100
AcDbLine
 10
766.171924487964
 20
-503.1283486855996
 30
0.0
 11
776.1719574799406
 21
-503.1283486855996
 31
0.0
  0
LINE
  5
5CD
330
1F
100
AcDbEntity
  8
2-2
  6
Continuous
 62
     3
370
     9
100
AcDbLine
 10
781.1717265361062
 20
-508.1281177417651
 30
0.0
 11
781.1717265361062
 21
-673.1284146695523
 31
0.0
  0
LINE
  5
5CE
330
1F
100
AcDbEntity
  8
2-2
  6
Continuous
 62
     3
370
     9
100
AcDbLine
 10
801.1717925200588
 20
-673.1284146695523
 30
0.0
 11
801.1717925200588
 21
-508.1281177417651
 31
0.0
  0
LINE
  5
5CF
330
1F
100
AcDbEntity
  8
2-2
  6
Continuous
 62
     3
370
     9
100
AcDbLine
 10
806.1720564558698
 20
-503.1283486855996
 30
0.0
 11
816.1720894478458
 21
-503.1283486855996
 31
0.0
  0
LINE
  5
5D0
330
1F
100
AcDbEntity
  8
2-2
  6
Continuous
 62
     3
370
     9
100
AcDbLine
 10
761.1716605521536
 20
-483.1282827016469
 30
0.0
 11
761.1716605521536
 21
-498.1280847497888
 31
0.0
  0
LINE
  5
5D1
330
1F
100
AcDbEntity
  8
2-2
  6
Continuous
 62
     3
370
     9
100
AcDbLine
 10
821.1723533836567
 20
-483.1282827016469
 30
0.0
 11
761.1716605521536
 21
-483.1282827016469
 31
0.0
  0
LINE
  5
5D2
330
1F
100
AcDbEntity
  8
2-2
  6
Continuous
 62
     3
370
     9
100
AcDbLine
 10
821.1723533836567
 20
-498.1280847497888
 30
0.0
 11
821.1723533836567
 21
-483.1282827016469
 31
0.0
  0
LINE
  5
5D3
330
1F
100
AcDbEntity
  8
2-2
  6
Continuous
 62
     3
370
     9
100
AcDbLine
 10
636.1717430320942
 20
-503.1283486855996
 30
0.0
 11
646.1717760240708
 21
-503.1283486855996
 31
0.0
  0
LINE
  5
5D4
330
1F
100
AcDbEntity
  8
2-2
  6
Continuous
 62
     3
370
     9
100
AcDbLine
 10
651.1717925200588
 20
-508.1281177417651
 30
0.0
 11
651.1717925200588
 21
-673.1284146695523
 31
0.0
  0
LINE
  5
5D5
330
1F
100
AcDbEntity
  8
2-2
  6
Continuous
 62
     3
370
     9
100
AcDbLine
 10
671.1718585040114
 20
-673.1284146695523
 30
0.0
 11
671.1718585040114
 21
-508.1281177417651
 31
0.0
  0
LINE
  5
5D6
330
1F
100
AcDbEntity
  8
2-2
  6
Continuous
 62
     3
370
     9
100
AcDbLine
 10
676.1718749999994
 20
-503.1283486855996
 30
0.0
 11
686.1721554317984
 21
-503.1283486855996
 31
0.0
  0
LINE
  5
5D7
330
1F
100
AcDbEntity
  8
2-2
  6
Continuous
 62
     3
370
     9
100
AcDbLine
 10
631.1717265361062
 20
-483.1282827016469
 30
0.0
 11
631.1717265361062
 21
-498.1280847497888
 31
0.0
  0
LINE
  5
5D8
330
1F
100
AcDbEntity
  8
2-2
  6
Continuous
 62
     3
370
     9
100
AcDbLine
 10
691.172171927787
 20
-483.1282827016469
 30
0.0
 11
631.1717265361062
 21
-483.1282827016469
 31
0.0
  0
LINE
  5
5D9
330
1F
100
AcDbEntity
  8
2-2
  6
Continuous
 62
     3
370
     9
100
AcDbLine
 10
691.172171927787
 20
-498.1280847497888
 30
0.0
 11
691.172171927787
 21
-483.1282827016469
 31
0.0
  0
LINE
  5
5DA
330
1F
100
AcDbEntity
  8
2-2
  6
Continuous
 62
     3
370
     9
100
AcDbLine
 10
506.1718090160468
 20
-503.1283486855996
 30
0.0
 11
516.1718420080234
 21
-503.1283486855996
 31
0.0
  0
LINE
  5
5DB
330
1F
100
AcDbEntity
  8
2-2
  6
Continuous
 62
     3
370
     9
100
AcDbLine
 10
521.1718585040114
 20
-508.1281177417651
 30
0.0
 11
521.1718585040114
 21
-673.1284146695523
 31
0.0
  0
LINE
  5
5DC
330
1F
100
AcDbEntity
  8
2-2
  6
Continuous
 62
     3
370
     9
100
AcDbLine
 10
541.171924487964
 20
-673.1284146695523
 30
0.0
 11
541.171924487964
 21
-508.1281177417651
 31
0.0
  0
LINE
  5
5DD
330
1F
100
AcDbEntity
  8
2-2
  6
Continuous
 62
     3
370
     9
100
AcDbLine
 10
546.1719409839526
 20
-503.1283486855996
 30
0.0
 11
556.1722214157516
 21
-503.1283486855996
 31
0.0
  0
LINE
  5
5DE
330
1F
100
AcDbEntity
  8
2-2
  6
Continuous
 62
     3
370
     9
100
AcDbLine
 10
501.1717925200588
 20
-483.1282827016469
 30
0.0
 11
501.1717925200588
 21
-498.1280847497888
 31
0.0
  0
LINE
  5
5DF
330
1F
100
AcDbEntity
  8
2-2
  6
Continuous
 62
     3
370
     9
100
AcDbLine
 10
561.1722379117396
 20
-483.1282827016469
 30
0.0
 11
501.1717925200588
 21
-483.1282827016469
 31
0.0
  0
LINE
  5
5E0
330
1F
100
AcDbEntity
  8
2-2
  6
Continuous
 62
     3
370
     9
100
AcDbLine
 10
561.1722379117396
 20
-498.1280847497888
 30
0.0
 11
561.1722379117396
 21
-483.1282827016469
 31
0.0
  0
LINE
  5
5E1
330
1F
100
AcDbEntity
  8
2-2
  6
Continuous
 62
     3
370
     9
100
AcDbLine
 10
376.1718749999997
 20
-503.1283486855996
 30
0.0
 11
386.171907991976
 21
-503.1283486855996
 31
0.0
  0
LINE
  5
5E2
330
1F
100
AcDbEntity
  8
2-2
  6
Continuous
 62
     3
370
     9
100
AcDbLine
 10
391.1719244879643
 20
-508.1281177417651
 30
0.0
 11
391.1719244879643
 21
-673.1284146695523
 31
0.0
  0
LINE
  5
5E3
330
1F
100
AcDbEntity
  8
2-2
  6
Continuous
 62
     3
370
     9
100
AcDbLine
 10
411.1719904719169
 20
-673.1284146695523
 30
0.0
 11
411.1719904719169
 21
-508.1281177417651
 31
0.0
  0
LINE
  5
5E4
330
1F
100
AcDbEntity
  8
2-2
  6
Continuous
 62
     3
370
     9
100
AcDbLine
 10
416.1720069679052
 20
-503.1283486855996
 30
0.0
 11
426.1722873997041
 21
-503.1283486855996
 31
0.0
  0
LINE
  5
5E5
330
1F
100
AcDbEntity
  8
2-2
  6
Continuous
 62
     3
370
     9
100
AcDbLine
 10
371.1718585040114
 20
-483.1282827016469
 30
0.0
 11
371.1718585040114
 21
-498.1280847497888
 31
0.0
  0
LINE
  5
5E6
330
1F
100
AcDbEntity
  8
2-2
  6
Continuous
 62
     3
370
     9
100
AcDbLine
 10
431.1723038956922
 20
-483.1282827016469
 30
0.0
 11
371.1718585040114
 21
-483.1282827016469
 31
0.0
  0
LINE
  5
5E7
330
1F
100
AcDbEntity
  8
2-2
  6
Continuous
 62
     3
370
     9
100
AcDbLine
 10
431.1723038956922
 20
-498.1280847497888
 30
0.0
 11
431.1723038956922
 21
-483.1282827016469
 31
0.0
  0
LINE
  5
5E8
330
1F
100
AcDbEntity
  8
2-4
  6
Continuous
 62
     7
370
     9
100
AcDbLine
 10
631.1717265361062
 20
-416.7312704550253
 30
0.0
 11
951.1722873997041
 21
-416.7312704550253
 31
0.0
  0
LINE
  5
5E9
330
1F
100
AcDbEntity
  8
2-4
  6
Continuous
 62
     7
370
     9
100
AcDbLine
 10
631.1717265361062
 20
-468.1284806535051
 30
0.0
 11
631.1717265361062
 21
-413.7313100453969
 31
0.0
  0
LINE
  5
5EA
330
1F
100
AcDbEntity
  8
2-4
  6
Continuous
 62
     7
370
     9
100
AcDbLine
 10
691.172171927787
 20
-468.1284806535051
 30
0.0
 11
691.172171927787
 21
-413.7313100453969
 31
0.0
  0
LINE
  5
5EB
330
1F
100
AcDbEntity
  8
2-4
  6
Continuous
 62
     7
370
     9
100
AcDbLine
 10
761.1716605521536
 20
-468.1284806535051
 30
0.0
 11
761.1716605521536
 21
-413.7313100453969
 31
0.0
  0
LINE
  5
5EC
330
1F
100
AcDbEntity
  8
2-4
  6
Continuous
 62
     7
370
     9
100
AcDbLine
 10
821.1723533836567
 20
-468.1284806535051
 30
0.0
 11
821.1723533836567
 21
-413.7313100453969
 31
0.0
  0
LINE
  5
5ED
330
1F
100
AcDbEntity
  8
2-4
  6
Continuous
 62
     7
370
     9
100
AcDbLine
 10
891.1718420080234
 20
-468.1284806535051
 30
0.0
 11
891.1718420080234
 21
-413.7313100453969
 31
0.0
  0
LINE
  5
5EE
330
1F
100
AcDbEntity
  8
2-4
  6
Continuous
 62
     7
370
     9
100
AcDbLine
 10
951.1722873997041
 20
-468.1284806535051
 30
0.0
 11
951.1722873997041
 21
-413.7313100453969
 31
0.0
  0
LINE
  5
5EF
330
1F
100
AcDbEntity
  8
2-2
  6
Continuous
 62
     3
370
     9
100
AcDbLine
 10
1211.171907991976
 20
-642.6282398120776
 30
0.0
 11
1211.171907991976
 21
-543.628309095228
 31
0.0
  0
LINE
  5
5F0
330
1F
100
AcDbEntity
  8
2-2
  6
Continuous
 62
     3
370
     9
100
AcDbLine
 10
521.1718585040114
 20
-543.628309095228
 30
0.0
 11
411.1719904719169
 21
-543.628309095228
 31
0.0
  0
LINE
  5
5F1
330
1F
100
AcDbEntity
  8
2-2
  6
Continuous
 62
     3
370
     9
100
AcDbLine
 10
651.1717925200588
 20
-543.628309095228
 30
0.0
 11
541.171924487964
 21
-543.628309095228
 31
0.0
  0
LINE
  5
5F2
330
1F
100
AcDbEntity
  8
2-2
  6
Continuous
 62
     3
370
     9
100
AcDbLine
 10
781.1717265361062
 20
-543.628309095228
 30
0.0
 11
671.1718585040114
 21
-543.628309095228
 31
0.0
  0
LINE
  5
5F3
330
1F
100
AcDbEntity
  8
2-2
  6
Continuous
 62
     3
370
     9
100
AcDbLine
 10
911.171907991976
 20
-543.628309095228
 30
0.0
 11
801.1717925200588
 21
-543.628309095228
 31
0.0
  0
LINE
  5
5F4
330
1F
100
AcDbEntity
  8
2-2
  6
Continuous
 62
     3
370
     9
100
AcDbLine
 10
1041.171842008023
 20
-543.628309095228
 30
0.0
 11
931.1719739759286
 21
-543.628309095228
 31
0.0
  0
LINE
  5
5F5
330
1F
100
AcDbEntity
  8
2-2
  6
Continuous
 62
     3
370
     9
100
AcDbLine
 10
1211.171907991976
 20
-543.628309095228
 30
0.0
 11
1191.171842008023
 21
-543.628309095228
 31
0.0
  0
LINE
  5
5F6
330
1F
100
AcDbEntity
  8
2-2
  6
Continuous
 62
     3
370
     9
100
AcDbLine
 10
1171.171776024071
 20
-543.628309095228
 30
0.0
 11
1061.171907991976
 21
-543.628309095228
 31
0.0
  0
LINE
  5
5F7
330
1F
100
AcDbEntity
  8
2-2
  6
Continuous
 62
     3
370
     9
100
AcDbLine
 10
521.1718585040114
 20
-593.1281507337416
 30
0.0
 11
411.1719904719169
 21
-593.1281507337416
 31
0.0
  0
LINE
  5
5F8
330
1F
100
AcDbEntity
  8
2-2
  6
Continuous
 62
     3
370
     9
100
AcDbLine
 10
651.1717925200588
 20
-593.1281507337416
 30
0.0
 11
541.171924487964
 21
-593.1281507337416
 31
0.0
  0
LINE
  5
5F9
330
1F
100
AcDbEntity
  8
2-2
  6
Continuous
 62
     3
370
     9
100
AcDbLine
 10
781.1717265361062
 20
-593.1281507337416
 30
0.0
 11
671.1718585040114
 21
-593.1281507337416
 31
0.0
  0
LINE
  5
5FA
330
1F
100
AcDbEntity
  8
2-2
  6
Continuous
 62
     3
370
     9
100
AcDbLine
 10
911.171907991976
 20
-593.1281507337416
 30
0.0
 11
801.1717925200588
 21
-593.1281507337416
 31
0.0
  0
LINE
  5
5FB
330
1F
100
AcDbEntity
  8
2-2
  6
Continuous
 62
     3
370
     9
100
AcDbLine
 10
1041.171842008023
 20
-593.1281507337416
 30
0.0
 11
931.1719739759286
 21
-593.1281507337416
 31
0.0
  0
LINE
  5
5FC
330
1F
100
AcDbEntity
  8
2-2
  6
Continuous
 62
     3
370
     9
100
AcDbLine
 10
1211.171907991976
 20
-593.1281507337416
 30
0.0
 11
1191.171842008023
 21
-593.1281507337416
 31
0.0
  0
LINE
  5
5FD
330
1F
100
AcDbEntity
  8
2-2
  6
Continuous
 62
     3
370
     9
100
AcDbLine
 10
1171.171776024071
 20
-593.1281507337416
 30
0.0
 11
1061.171907991976
 21
-593.1281507337416
 31
0.0
  0
LINE
  5
5FE
330
1F
100
AcDbEntity
  8
2-2
  6
Continuous
 62
     3
370
     9
100
AcDbLine
 10
521.1718585040114
 20
-642.6282398120776
 30
0.0
 11
411.1719904719169
 21
-642.6282398120776
 31
0.0
  0
LINE
  5
5FF
330
1F
100
AcDbEntity
  8
2-2
  6
Continuous
 62
     3
370
     9
100
AcDbLine
 10
651.1717925200588
 20
-642.6282398120776
 30
0.0
 11
541.171924487964
 21
-642.6282398120776
 31
0.0
  0
LINE
  5
600
330
1F
100
AcDbEntity
  8
2-2
  6
Continuous
 62
     3
370
     9
100
AcDbLine
 10
781.1717265361062
 20
-642.6282398120776
 30
0.0
 11
671.1718585040114
 21
-642.6282398120776
 31
0.0
  0
LINE
  5
601
330
1F
100
AcDbEntity
  8
2-2
  6
Continuous
 62
     3
370
     9
100
AcDbLine
 10
911.171907991976
 20
-642.6282398120776
 30
0.0
 11
801.1717925200588
 21
-642.6282398120776
 31
0.0
  0
LINE
  5
602
330
1F
100
AcDbEntity
  8
2-2
  6
Continuous
 62
     3
370
     9
100
AcDbLine
 10
1041.171842008023
 20
-642.6282398120776
 30
0.0
 11
931.1719739759286
 21
-642.6282398120776
 31
0.0
  0
LINE
  5
603
330
1F
100
AcDbEntity
  8
2-2
  6
Continuous
 62
     3
370
     9
100
AcDbLine
 10
1211.171907991976
 20
-642.6282398120776
 30
0.0
 11
1191.171842008023
 21
-642.6282398120776
 31
0.0
  0
LINE
  5
604
330
1F
100
AcDbEntity
  8
2-2
  6
Continuous
 62
     3
370
     9
100
AcDbLine
 10
1171.171776024071
 20
-642.6282398120776
 30
0.0
 11
1061.171907991976
 21
-642.6282398120776
 31
0.0
  0
ARC
  5
605
330
1F
100
AcDbEntity
  8
2-2
  6
Continuous
 62
     3
370
     9
100
AcDbCircle
 10
1036.171825512035
 20
-508.1281177417651
 30
0.0
 40
4.99999958115655
100
AcDbArc
 50
0.0
 51
90.0
  0
ARC
  5
606
330
1F
100
AcDbEntity
  8
2-2
  6
Continuous
 62
     3
370
     9
100
AcDbCircle
 10
1066.171924487964
 20
-508.1281177417651
 30
0.0
 40
4.99999958115655
100
AcDbArc
 50
90.0
 51
180.0
  0
ARC
  5
607
330
1F
100
AcDbEntity
  8
2-2
  6
Continuous
 62
     3
370
     9
100
AcDbCircle
 10
1026.171792520059
 20
-498.1280847497888
 30
0.0
 40
4.99999958115655
100
AcDbArc
 50
180.0
 51
270.0
  0
ARC
  5
608
330
1F
100
AcDbEntity
  8
2-2
  6
Continuous
 62
     3
370
     9
100
AcDbCircle
 10
1076.172204919763
 20
-498.1280847497888
 30
0.0
 40
4.99999958115655
100
AcDbArc
 50
270.0
 51
0.0
  0
ARC
  5
609
330
1F
100
AcDbEntity
  8
2-2
  6
Continuous
 62
     3
370
     9
100
AcDbCircle
 10
1051.171875
 20
-673.1284146695523
 30
0.0
 40
9.9999991623131
100
AcDbArc
 50
180.0
 51
0.0
  0
ARC
  5
60A
330
1F
100
AcDbEntity
  8
2-2
  6
Continuous
 62
     3
370
     9
100
AcDbCircle
 10
1166.171759528082
 20
-508.1281177417651
 30
0.0
 40
4.99999958115655
100
AcDbArc
 50
0.0
 51
90.0
  0
ARC
  5
60B
330
1F
100
AcDbEntity
  8
2-2
  6
Continuous
 62
     3
370
     9
100
AcDbCircle
 10
1196.171858504011
 20
-508.1281177417651
 30
0.0
 40
4.99999958115655
100
AcDbArc
 50
90.0
 51
180.0
  0
ARC
  5
60C
330
1F
100
AcDbEntity
  8
2-2
  6
Continuous
 62
     3
370
     9
100
AcDbCircle
 10
1156.171726536106
 20
-498.1280847497888
 30
0.0
 40
4.99999958115655
100
AcDbArc
 50
180.0
 51
270.0
  0
ARC
  5
60D
330
1F
100
AcDbEntity
  8
2-2
  6
Continuous
 62
     3
370
     9
100
AcDbCircle
 10
1206.17213893581
 20
-498.1280847497888
 30
0.0
 40
4.99999958115655
100
AcDbArc
 50
270.0
 51
0.0
  0
ARC
  5
60E
330
1F
100
AcDbEntity
  8
2-2
  6
Continuous
 62
     3
370
     9
100
AcDbCircle
 10
1181.171809016047
 20
-673.1284146695523
 30
0.0
 40
9.9999991623131
100
AcDbArc
 50
180.0
 51
0.0
  0
ARC
  5
60F
330
1F
100
AcDbEntity
  8
2-2
  6
Continuous
 62
     3
370
     9
100
AcDbCircle
 10
906.171891495988
 20
-508.1281177417651
 30
0.0
 40
4.99999958115655
100
AcDbArc
 50
0.0
 51
90.0
  0
ARC
  5
610
330
1F
100
AcDbEntity
  8
2-2
  6
Continuous
 62
     3
370
     9
100
AcDbCircle
 10
936.1719904719172
 20
-508.1281177417651
 30
0.0
 40
4.99999958115655
100
AcDbArc
 50
90.0
 51
180.0
  0
ARC
  5
611
330
1F
100
AcDbEntity
  8
2-2
  6
Continuous
 62
     3
370
     9
100
AcDbCircle
 10
896.1718585040114
 20
-498.1280847497888
 30
0.0
 40
4.99999958115655
100
AcDbArc
 50
180.0
 51
270.0
  0
ARC
  5
612
330
1F
100
AcDbEntity
  8
2-2
  6
Continuous
 62
     3
370
     9
100
AcDbCircle
 10
946.1722709037161
 20
-498.1280847497888
 30
0.0
 40
4.99999958115655
100
AcDbArc
 50
270.0
 51
0.0
  0
ARC
  5
613
330
1F
100
AcDbEntity
  8
2-2
  6
Continuous
 62
     3
370
     9
100
AcDbCircle
 10
921.1719409839526
 20
-673.1284146695523
 30
0.0
 40
9.9999991623131
100
AcDbArc
 50
180.0
 51
0.0
  0
ARC
  5
614
330
1F
100
AcDbEntity
  8
2-2
  6
Continuous
 62
     3
370
     9
100
AcDbCircle
 10
776.1719574799406
 20
-508.1281177417651
 30
0.0
 40
4.99999958115655
100
AcDbArc
 50
0.0
 51
90.0
  0
ARC
  5
615
330
1F
100
AcDbEntity
  8
2-2
  6
Continuous
 62
     3
370
     9
100
AcDbCircle
 10
806.1720564558698
 20
-508.1281177417651
 30
0.0
 40
4.99999958115655
100
AcDbArc
 50
90.0
 51
180.0
  0
ARC
  5
616
330
1F
100
AcDbEntity
  8
2-2
  6
Continuous
 62
     3
370
     9
100
AcDbCircle
 10
766.171924487964
 20
-498.1280847497888
 30
0.0
 40
4.99999958115655
100
AcDbArc
 50
180.0
 51
270.0
  0
ARC
  5
617
330
1F
100
AcDbEntity
  8
2-2
  6
Continuous
 62
     3
370
     9
100
AcDbCircle
 10
816.1720894478458
 20
-498.1280847497888
 30
0.0
 40
4.99999958115655
100
AcDbArc
 50
270.0
 51
0.0
  0
ARC
  5
618
330
1F
100
AcDbEntity
  8
2-2
  6
Continuous
 62
     3
370
     9
100
AcDbCircle
 10
791.1717595280822
 20
-673.1284146695523
 30
0.0
 40
9.9999991623131
100
AcDbArc
 50
180.0
 51
0.0
  0
ARC
  5
619
330
1F
100
AcDbEntity
  8
2-2
  6
Continuous
 62
     3
370
     9
100
AcDbCircle
 10
646.1717760240708
 20
-508.1281177417651
 30
0.0
 40
4.99999958115655
100
AcDbArc
 50
0.0
 51
90.0
  0
ARC
  5
61A
330
1F
100
AcDbEntity
  8
2-2
  6
Continuous
 62
     3
370
     9
100
AcDbCircle
 10
676.1718749999994
 20
-508.1281177417651
 30
0.0
 40
4.99999958115655
100
AcDbArc
 50
90.0
 51
180.0
  0
ARC
  5
61B
330
1F
100
AcDbEntity
  8
2-2
  6
Continuous
 62
     3
370
     9
100
AcDbCircle
 10
636.1717430320942
 20
-498.1280847497888
 30
0.0
 40
4.99999958115655
100
AcDbArc
 50
180.0
 51
270.0
  0
ARC
  5
61C
330
1F
100
AcDbEntity
  8
2-2
  6
Continuous
 62
     3
370
     9
100
AcDbCircle
 10
686.1721554317984
 20
-498.1280847497888
 30
0.0
 40
4.99999958115655
100
AcDbArc
 50
270.0
 51
0.0
  0
ARC
  5
61D
330
1F
100
AcDbEntity
  8
2-2
  6
Continuous
 62
     3
370
     9
100
AcDbCircle
 10
661.1718255120354
 20
-673.1284146695523
 30
0.0
 40
9.9999991623131
100
AcDbArc
 50
180.0
 51
0.0
  0
ARC
  5
61E
330
1F
100
AcDbEntity
  8
2-2
  6
Continuous
 62
     3
370
     9
100
AcDbCircle
 10
516.1718420080234
 20
-508.1281177417651
 30
0.0
 40
4.99999958115655
100
AcDbArc
 50
0.0
 51
90.0
  0
ARC
  5
61F
330
1F
100
AcDbEntity
  8
2-2
  6
Continuous
 62
     3
370
     9
100
AcDbCircle
 10
546.1719409839526
 20
-508.1281177417651
 30
0.0
 40
4.99999958115655
100
AcDbArc
 50
90.0
 51
180.0
  0
ARC
  5
620
330
1F
100
AcDbEntity
  8
2-2
  6
Continuous
 62
     3
370
     9
100
AcDbCircle
 10
506.1718090160468
 20
-498.1280847497888
 30
0.0
 40
4.99999958115655
100
AcDbArc
 50
180.0
 51
270.0
  0
ARC
  5
621
330
1F
100
AcDbEntity
  8
2-2
  6
Continuous
 62
     3
370
     9
100
AcDbCircle
 10
556.1722214157516
 20
-498.1280847497888
 30
0.0
 40
4.99999958115655
100
AcDbArc
 50
270.0
 51
0.0
  0
ARC
  5
622
330
1F
100
AcDbEntity
  8
2-2
  6
Continuous
 62
     3
370
     9
100
AcDbCircle
 10
531.171891495988
 20
-673.1284146695523
 30
0.0
 40
9.9999991623131
100
AcDbArc
 50
180.0
 51
0.0
  0
ARC
  5
623
330
1F
100
AcDbEntity
  8
2-2
  6
Continuous
 62
     3
370
     9
100
AcDbCircle
 10
386.171907991976
 20
-508.1281177417651
 30
0.0
 40
4.99999958115655
100
AcDbArc
 50
0.0
 51
90.0
  0
ARC
  5
624
330
1F
100
AcDbEntity
  8
2-2
  6
Continuous
 62
     3
370
     9
100
AcDbCircle
 10
416.1720069679052
 20
-508.1281177417651
 30
0.0
 40
4.99999958115655
100
AcDbArc
 50
90.0
 51
180.0
  0
ARC
  5
625
330
1F
100
AcDbEntity
  8
2-2
  6
Continuous
 62
     3
370
     9
100
AcDbCircle
 10
376.1718749999997
 20
-498.1280847497888
 30
0.0
 40
4.99999958115655
100
AcDbArc
 50
180.0
 51
270.0
  0
ARC
  5
626
330
1F
100
AcDbEntity
  8
2-2
  6
Continuous
 62
     3
370
     9
100
AcDbCircle
 10
426.1722873997041
 20
-498.1280847497888
 30
0.0
 40
4.99999958115655
100
AcDbArc
 50
270.0
 51
0.0
  0
ARC
  5
627
330
1F
100
AcDbEntity
  8
2-2
  6
Continuous
 62
     3
370
     9
100
AcDbCircle
 10
401.1719574799406
 20
-673.1284146695523
 30
0.0
 40
9.9999991623131
100
AcDbArc
 50
180.0
 51
0.0
  0
TEXT
  5
628
330
1F
100
AcDbEntity
  8
2-4
  6
Continuous
 62
     2
370
     9
100
AcDbText
 10
651.1720729518578
 20
-406.0915013988598
 30
0.0
 40
30.48
  1
6
 41
0.9999999999999998
  7
ＭＳ ゴシック
100
AcDbText
  0
TEXT
  5
629
330
1F
100
AcDbEntity
  8
2-4
  6
Continuous
 62
     2
370
     9
100
AcDbText
 10
716.1720399598814
 20
-406.0915013988598
 30
0.0
 40
30.48
  1
7
 41
0.9999999999999998
  7
ＭＳ ゴシック
100
AcDbText
  0
TEXT
  5
62A
330
1F
100
AcDbEntity
  8
2-4
  6
Continuous
 62
     2
370
     9
100
AcDbText
 10
781.172006967905
 20
-406.0915013988598
 30
0.0
 40
30.48
  1
6
 41
0.9999999999999998
  7
ＭＳ ゴシック
100
AcDbText
  0
TEXT
  5
62B
330
1F
100
AcDbEntity
  8
2-4
  6
Continuous
 62
     2
370
     9
100
AcDbText
 10
846.1722214157512
 20
-406.0915013988598
 30
0.0
 40
30.48
  1
7
 41
0.9999999999999998
  7
ＭＳ ゴシック
100
AcDbText
  0
TEXT
  5
62C
330
1F
100
AcDbEntity
  8
2-4
  6
Continuous
 62
     2
370
     9
100
AcDbText
 10
911.1721884237752
 20
-406.0915013988598
 30
0.0
 40
30.48
  1
6
 41
0.9999999999999998
  7
ＭＳ ゴシック
100
AcDbText
  0
LWPOLYLINE
  5
62D
330
1F
100
AcDbEntity
  8
2-4
  6
Continuous
 62
     7
370
     9
100
AcDbPolyline
 90
        4
 70
     1
 43
1.0
 10
631.6717265361062
 20
-416.7312704550253
 42
0.4142135623731
 10
631.1717265361062
 20
-416.2312704550253
 42
0.4142135623731
 10
630.6717265361062
 20
-416.7312704550253
 42
0.4142135623731
 10
631.1717265361062
 20
-417.2312704550252
 42
0.4142135623731
  0
LWPOLYLINE
  5
62E
330
1F
100
AcDbEntity
  8
2-4
  6
Continuous
 62
     7
370
     9
100
AcDbPolyline
 90
        4
 70
     1
 43
1.0
 10
691.672171927787
 20
-416.7312704550253
 42
0.4142135623731
 10
691.172171927787
 20
-416.2312704550253
 42
0.4142135623731
 10
690.672171927787
 20
-416.7312704550253
 42
0.4142135623731
 10
691.172171927787
 20
-417.2312704550252
 42
0.4142135623731
  0
LWPOLYLINE
  5
62F
330
1F
100
AcDbEntity
  8
2-4
  6
Continuous
 62
     7
370
     9
100
AcDbPolyline
 90
        4
 70
     1
 43
1.0
 10
761.6716605521536
 20
-416.7312704550253
 42
0.4142135623731
 10
761.1716605521536
 20
-416.2312704550253
 42
0.4142135623731
 10
760.6716605521536
 20
-416.7312704550253
 42
0.4142135623731
 10
761.1716605521536
 20
-417.2312704550252
 42
0.4142135623731
  0
LWPOLYLINE
  5
630
330
1F
100
AcDbEntity
  8
2-4
  6
Continuous
 62
     7
370
     9
100
AcDbPolyline
 90
        4
 70
     1
 43
1.0
 10
821.6723533836567
 20
-416.7312704550253
 42
0.4142135623731
 10
821.1723533836567
 20
-416.2312704550253
 42
0.4142135623731
 10
820.6723533836567
 20
-416.7312704550253
 42
0.4142135623731
 10
821.1723533836567
 20
-417.2312704550252
 42
0.4142135623731
  0
LWPOLYLINE
  5
631
330
1F
100
AcDbEntity
  8
2-4
  6
Continuous
 62
     7
370
     9
100
AcDbPolyline
 90
        4
 70
     1
 43
1.0
 10
891.6718420080234
 20
-416.7312704550253
 42
0.4142135623731
 10
891.1718420080234
 20
-416.2312704550253
 42
0.4142135623731
 10
890.6718420080234
 20
-416.7312704550253
 42
0.4142135623731
 10
891.1718420080234
 20
-417.2312704550252
 42
0.4142135623731
  0
LWPOLYLINE
  5
632
330
1F
100
AcDbEntity
  8
2-4
  6
Continuous
 62
     7
370
     9
100
AcDbPolyline
 90
        4
 70
     1
 43
1.0
 10
951.6722873997041
 20
-416.7312704550253
 42
0.4142135623731
 10
951.1722873997041
 20
-416.2312704550253
 42
0.4142135623731
 10
950.6722873997041
 20
-416.7312704550253
 42
0.4142135623731
 10
951.1722873997041
 20
-417.2312704550252
 42
0.4142135623731
  0
LINE
  5
633
330
1F
100
AcDbEntity
  8
2-2
  6
Continuous
 62
     3
370
     9
100
AcDbLine
 10
391.1719244879643
 20
-642.6282398120776
 30
0.0
 11
343.6723863756336
 21
-642.6282398120776
 31
0.0
  0
LINE
  5
634
330
1F
100
AcDbEntity
  8
2-2
  6
Continuous
 62
     3
370
     9
100
AcDbLine
 10
391.1719244879643
 20
-543.628309095228
 30
0.0
 11
343.6723863756336
 21
-543.628309095228
 31
0.0
  0
LINE
  5
635
330
1F
100
AcDbEntity
  8
2-2
  6
Continuous
 62
     3
370
     9
100
AcDbLine
 10
391.1719244879643
 20
-593.1281507337416
 30
0.0
 11
343.6723863756336
 21
-593.1281507337416
 31
0.0
  0
LINE
  5
636
330
1F
100
AcDbEntity
  8
2-4
  6
Continuous
 62
     7
370
     9
100
AcDbLine
 10
373.6128387225896
 20
-683.128200221706
 30
0.0
 11
267.957285288218
 21
-683.128200221706
 31
0.0
  0
ENDSEC
  0
SECTION
  2
OBJECTS
  0
DICTIONARY
  5
C
330
0
100
AcDbDictionary
281
     1
  3
ACAD_GROUP
350
D
  3
ACAD_LAYOUT
350
1A
  3
ACAD_MLEADERSTYLE
350
638
  3
ACAD_MLINESTYLE
350
17
  3
ACAD_PLOTSETTINGS
350
19
  3
ACAD_PLOTSTYLENAME
350
E
  3
ACAD_TABLESTYLE
350
637
  3
ACAD_VISUALSTYLE
350
2A
  0
DICTIONARY
  5
D
102
{ACAD_REACTORS
330
C
102
}
330
C
100
AcDbDictionary
281
     1
  0
DICTIONARY
  5
1A
102
{ACAD_REACTORS
330
C
102
}
330
C
100
AcDbDictionary
281
     1
  3
Layout1
350
1E
  3
Layout2
350
26
  3
Model
350
22
  0
DICTIONARY
  5
638
102
{ACAD_REACTORS
330
C
102
}
330
C
100
AcDbDictionary
281
     1
  0
DICTIONARY
  5
17
102
{ACAD_REACTORS
330
C
102
}
330
C
100
AcDbDictionary
281
     1
  3
Standard
350
18
  0
DICTIONARY
  5
19
102
{ACAD_REACTORS
330
C
102
}
330
C
100
AcDbDictionary
281
     1
  0
ACDBDICTIONARYWDFLT
  5
E
102
{ACAD_REACTORS
330
C
102
}
330
C
100
AcDbDictionary
281
     1
  3
Normal
350
F
100
AcDbDictionaryWithDefault
340
F
  0
DICTIONARY
  5
637
102
{ACAD_REACTORS
330
C
102
}
330
C
100
AcDbDictionary
281
     1
  0
DICTIONARY
  5
2A
102
{ACAD_REACTORS
330
C
102
}
330
C
100
AcDbDictionary
281
     1
  3
2dWireframe
350
2F
  3
3D Hidden
350
31
  3
3dWireframe
350
30
  3
Basic
350
32
  3
Brighten
350
36
  3
ColorChange
350
3A
  3
Conceptual
350
34
  3
Dim
350
35
  3
Facepattern
350
39
  3
Flat
350
2B
  3
FlatWithEdges
350
2C
  3
Gouraud
350
2D
  3
GouraudWithEdges
350
2E
  3
Linepattern
350
38
  3
Realistic
350
33
  3
Thicken
350
37
  0
LAYOUT
  5
1E
102
{ACAD_REACTORS
330
1A
102
}
330
1A
100
AcDbPlotSettings
  1

  2
none_device
  4

  6

 40
0.0
 41
0.0
 42
0.0
 43
0.0
 44
0.0
 45
0.0
 46
0.0
 47
0.0
 48
0.0
 49
0.0
140
0.0
141
0.0
142
1.0
143
1.0
 70
   688
 72
     0
 73
     0
 74
     5
  7

 75
    16
 76
     0
 77
     5
 78
   300
147
1.0
148
0.0
149
0.0
100
AcDbLayout
  1
Layout1
 70
     1
 71
     1
 10
0.0
 20
0.0
 11
420.0
 21
297.0
 12
0.0
 22
0.0
 32
0.0
 14
1.000000000000000E+20
 24
1.000000000000000E+20
 34
1.000000000000000E+20
 15
-1.000000000000000E+20
 25
-1.000000000000000E+20
 35
-1.000000000000000E+20
146
0.0
 13
0.0
 23
0.0
 33
0.0
 16
1.0
 26
0.0
 36
0.0
 17
0.0
 27
1.0
 37
0.0
 76
     0
330
1B
  0
LAYOUT
  5
26
102
{ACAD_REACTORS
330
1A
102
}
330
1A
100
AcDbPlotSettings
  1

  2
none_device
  4

  6

 40
0.0
 41
0.0
 42
0.0
 43
0.0
 44
0.0
 45
0.0
 46
0.0
 47
0.0
 48
0.0
 49
0.0
140
0.0
141
0.0
142
1.0
143
1.0
 70
   688
 72
     0
 73
     0
 74
     5
  7

 75
    16
 76
     0
 77
     5
 78
   300
147
1.0
148
0.0
149
0.0
100
AcDbLayout
  1
Layout2
 70
     1
 71
     2
 10
0.0
 20
0.0
 11
0.0
 21
0.0
 12
0.0
 22
0.0
 32
0.0
 14
0.0
 24
0.0
 34
0.0
 15
0.0
 25
0.0
 35
0.0
146
0.0
 13
0.0
 23
0.0
 33
0.0
 16
1.0
 26
0.0
 36
0.0
 17
0.0
 27
1.0
 37
0.0
 76
     0
330
23
  0
LAYOUT
  5
22
102
{ACAD_REACTORS
330
1A
102
}
330
1A
100
AcDbPlotSettings
  1

  2
none_device
  4

  6

 40
0.0
 41
0.0
 42
0.0
 43
0.0
 44
0.0
 45
0.0
 46
0.0
 47
0.0
 48
0.0
 49
0.0
140
0.0
141
0.0
142
1.0
143
1.0
 70
  1712
 72
     0
 73
     0
 74
     0
  7

 75
     0
 76
     0
 77
     5
 78
   300
147
1.0
148
0.0
149
0.0
100
AcDbLayout
  1
Model
 70
     1
 71
     0
 10
-2100.0
 20
-1485.0
 11
2100.0
 21
1485.0
 12
0.0
 22
0.0
 32
0.0
 14
-2100.0
 24
-1485.0
 34
0.0
 15
2100.0
 25
1485.0
 35
0.0
146
0.0
 13
0.0
 23
0.0
 33
0.0
 16
1.0
 26
0.0
 36
0.0
 17
0.0
 27
1.0
 37
0.0
 76
     0
330
1F
331
29
  0
MLINESTYLE
  5
18
102
{ACAD_REACTORS
330
17
102
}
330
17
100
AcDbMlineStyle
  2
Standard
 70
     0
  3

 62
   256
 51
90.0
 52
90.0
 71
     2
 49
0.5
 62
   256
  6
BYLAYER
 49
-0.5
 62
   256
  6
BYLAYER
  0
ACDBPLACEHOLDER
  5
F
102
{ACAD_REACTORS
330
E
102
}
330
E
  0
VISUALSTYLE
  5
2F
102
{ACAD_REACTORS
330
2A
102
}
330
2A
100
AcDbVisualStyle
  2
2dWireframe
 70
     4
 71
     0
 72
     2
 73
     0
 90
        0
 40
-0.6
 41
-30.0
 62
     5
 63
     7
421
 16777215
 74
     1
 91
        4
 64
     7
 65
   257
 75
     1
175
     1
 42
1.0
 92
        0
 66
   257
 43
1.0
 76
     1
 77
     6
 78
     2
 67
     7
 79
     5
170
     0
171
     0
290
     0
174
     0
 93
        1
 44
0.0
173
     0
291
     0
 45
0.0
1001
ACAD
1000
AcDbSavedByObjectVersion
1070
     0
  0
VISUALSTYLE
  5
31
102
{ACAD_REACTORS
330
2A
102
}
330
2A
100
AcDbVisualStyle
  2
3D Hidden
 70
     6
 71
     1
 72
     2
 73
     2
 90
        0
 40
-0.6
 41
-30.0
 62
     5
 63
     7
421
 16777215
 74
     2
 91
        2
 64
     7
 65
   257
 75
     2
175
     1
 42
40.0
 92
        0
 66
   257
 43
1.0
 76
     1
 77
     6
 78
     2
 67
     7
 79
     3
170
     0
171
     0
290
     0
174
     0
 93
        1
 44
0.0
173
     0
291
     0
 45
0.0
1001
ACAD
1000
AcDbSavedByObjectVersion
1070
     0
  0
VISUALSTYLE
  5
30
102
{ACAD_REACTORS
330
2A
102
}
330
2A
100
AcDbVisualStyle
  2
3dWireframe
 70
     5
 71
     0
 72
     2
 73
     0
 90
        0
 40
-0.6
 41
-30.0
 62
     5
 63
     7
421
 16777215
 74
     1
 91
        4
 64
     7
 65
   257
 75
     1
175
     1
 42
1.0
 92
        0
 66
   257
 43
1.0
 76
     1
 77
     6
 78
     2
 67
     7
 79
     5
170
     0
171
     0
290
     0
174
     0
 93
        1
 44
0.0
173
     0
291
     0
 45
0.0
1001
ACAD
1000
AcDbSavedByObjectVersion
1070
     0
  0
VISUALSTYLE
  5
32
102
{ACAD_REACTORS
330
2A
102
}
330
2A
100
AcDbVisualStyle
  2
Basic
 70
     7
 71
     1
 72
     0
 73
     1
 90
        0
 40
-0.6
 41
-30.0
 62
     5
 63
     7
421
 16777215
 74
     0
 91
        4
 64
     7
 65
   257
 75
     1
175
     1
 42
1.0
 92
        8
 66
     7
 43
1.0
 76
     1
 77
     6
 78
     2
 67
     7
 79
     5
170
     0
171
     0
290
     0
174
     0
 93
        1
 44
0.0
173
     0
291
     1
 45
0.0
1001
ACAD
1000
AcDbSavedByObjectVersion
1070
     0
  0
VISUALSTYLE
  5
36
102
{ACAD_REACTORS
330
2A
102
}
330
2A
100
AcDbVisualStyle
  2
Brighten
 70
    12
 71
     2
 72
     2
 73
     0
 90
        0
 40
-0.6
 41
-30.0
 62
     5
 63
     7
421
 16777215
 74
     1
 91
        4
 64
     7
 65
   257
 75
     1
175
     1
 42
1.0
 92
        8
 66
     7
 43
1.0
 76
     1
 77
     6
 78
     2
 67
     7
 79
     5
170
     0
171
     0
290
     0
174
     0
 93
        1
 44
50.0
173
     0
291
     1
 45
0.0
1001
ACAD
1000
AcDbSavedByObjectVersion
1070
     0
  0
VISUALSTYLE
  5
3A
102
{ACAD_REACTORS
330
2A
102
}
330
2A
100
AcDbVisualStyle
  2
ColorChange
 70
    16
 71
     2
 72
     2
 73
     3
 90
        0
 40
-0.6
 41
-30.0
 62
     5
 63
     8
421
  8421504
 74
     1
 91
        4
 64
     7
 65
   257
 75
     1
175
     1
 42
1.0
 92
        8
 66
     8
424
  8421504
 43
1.0
 76
     1
 77
     6
 78
     2
 67
     7
 79
     5
170
     0
171
     0
290
     0
174
     0
 93
        1
 44
0.0
173
     0
291
     1
 45
0.0
1001
ACAD
1000
AcDbSavedByObjectVersion
1070
     0
  0
VISUALSTYLE
  5
34
102
{ACAD_REACTORS
330
2A
102
}
330
2A
100
AcDbVisualStyle
  2
Conceptual
 70
     9
 71
     3
 72
     2
 73
     0
 90
        0
 40
-0.6
 41
-30.0
 62
     5
 63
     7
421
 16777215
 74
     2
 91
        2
 64
     7
 65
   257
 75
     1
175
     1
 42
40.0
 92
        8
 66
     7
 43
1.0
 76
     1
 77
     6
 78
     2
 67
     7
 79
     3
170
     0
171
     0
290
     0
174
     0
 93
        1
 44
0.0
173
     0
291
     0
 45
0.0
1001
ACAD
1000
AcDbSavedByObjectVersion
1070
     0
  0
VISUALSTYLE
  5
35
102
{ACAD_REACTORS
330
2A
102
}
330
2A
100
AcDbVisualStyle
  2
Dim
 70
    11
 71
     2
 72
     2
 73
     0
 90
        0
 40
-0.6
 41
-30.0
 62
     5
 63
     7
421
 16777215
 74
     1
 91
        4
 64
     7
 65
   257
 75
     1
175
     1
 42
1.0
 92
        8
 66
     7
 43
1.0
 76
     1
 77
     6
 78
     2
 67
     7
 79
     5
170
     0
171
     0
290
     0
174
     0
 93
        1
 44
-50.0
173
     0
291
     1
 45
0.0
1001
ACAD
1000
AcDbSavedByObjectVersion
1070
     0
  0
VISUALSTYLE
  5
39
102
{ACAD_REACTORS
330
2A
102
}
330
2A
100
AcDbVisualStyle
  2
Facepattern
 70
    15
 71
     2
 72
     2
 73
     0
 90
        0
 40
-0.6
 41
-30.0
 62
     5
 63
     7
421
 16777215
 74
     1
 91
        4
 64
     7
 65
   257
 75
     1
175
     1
 42
1.0
 92
        8
 66
     7
 43
1.0
 76
     1
 77
     6
 78
     2
 67
     7
 79
     5
170
     0
171
     0
290
     0
174
     0
 93
        1
 44
0.0
173
     0
291
     1
 45
0.0
1001
ACAD
1000
AcDbSavedByObjectVersion
1070
     0
  0
VISUALSTYLE
  5
2B
102
{ACAD_REACTORS
330
2A
102
}
330
2A
100
AcDbVisualStyle
  2
Flat
 70
     0
 71
     2
 72
     1
 73
     1
 90
        2
 40
-0.6
 41
30.0
 62
     5
 63
     7
421
 16777215
 74
     0
 91
        4
 64
     7
 65
   257
 75
     1
175
     1
 42
1.0
 92
        8
 66
     7
 43
1.0
 76
     1
 77
     6
 78
     2
 67
     7
 79
     5
170
     0
171
     0
290
     0
174
     0
 93
       13
 44
0.0
173
     0
291
     1
 45
0.0
1001
ACAD
1000
AcDbSavedByObjectVersion
1070
     0
  0
VISUALSTYLE
  5
2C
102
{ACAD_REACTORS
330
2A
102
}
330
2A
100
AcDbVisualStyle
  2
FlatWithEdges
 70
     1
 71
     2
 72
     1
 73
     1
 90
        2
 40
-0.6
 41
30.0
 62
     5
 63
     7
421
 16777215
 74
     1
 91
        4
 64
     7
 65
   257
 75
     1
175
     1
 42
1.0
 92
        0
 66
   257
 43
1.0
 76
     1
 77
     6
 78
     2
 67
     7
 79
     5
170
     0
171
     0
290
     0
174
     0
 93
       13
 44
0.0
173
     0
291
     1
 45
0.0
1001
ACAD
1000
AcDbSavedByObjectVersion
1070
     0
  0
VISUALSTYLE
  5
2D
102
{ACAD_REACTORS
330
2A
102
}
330
2A
100
AcDbVisualStyle
  2
Gouraud
 70
     2
 71
     2
 72
     2
 73
     1
 90
        2
 40
-0.6
 41
30.0
 62
     5
 63
     7
421
 16777215
 74
     0
 91
        4
 64
     7
 65
   257
 75
     1
175
     1
 42
1.0
 92
        0
 66
     7
 43
1.0
 76
     1
 77
     6
 78
     2
 67
     7
 79
     5
170
     0
171
     0
290
     0
174
     0
 93
       13
 44
0.0
173
     0
291
     1
 45
0.0
1001
ACAD
1000
AcDbSavedByObjectVersion
1070
     0
  0
VISUALSTYLE
  5
2E
102
{ACAD_REACTORS
330
2A
102
}
330
2A
100
AcDbVisualStyle
  2
GouraudWithEdges
 70
     3
 71
     2
 72
     2
 73
     1
 90
        2
 40
-0.6
 41
30.0
 62
     5
 63
     7
421
 16777215
 74
     1
 91
        4
 64
     7
 65
   257
 75
     1
175
     1
 42
1.0
 92
        0
 66
   257
 43
1.0
 76
     1
 77
     6
 78
     2
 67
     7
 79
     5
170
     0
171
     0
290
     0
174
     0
 93
       13
 44
0.0
173
     0
291
     1
 45
0.0
1001
ACAD
1000
AcDbSavedByObjectVersion
1070
     0
  0
VISUALSTYLE
  5
38
102
{ACAD_REACTORS
330
2A
102
}
330
2A
100
AcDbVisualStyle
  2
Linepattern
 70
    14
 71
     2
 72
     2
 73
     0
 90
        0
 40
-0.6
 41
-30.0
 62
     5
 63
     7
421
 16777215
 74
     1
 91
        4
 64
     7
 65
   257
 75
     7
175
     7
 42
1.0
 92
        8
 66
     7
 43
1.0
 76
     1
 77
     6
 78
     2
 67
     7
 79
     5
170
     0
171
     0
290
     0
174
     0
 93
        1
 44
0.0
173
     0
291
     1
 45
0.0
1001
ACAD
1000
AcDbSavedByObjectVersion
1070
     0
  0
VISUALSTYLE
  5
33
102
{ACAD_REACTORS
330
2A
102
}
330
2A
100
AcDbVisualStyle
  2
Realistic
 70
     8
 71
     2
 72
     2
 73
     0
 90
        0
 40
-0.6
 41
-30.0
 62
     5
 63
     7
421
 16777215
 74
     1
 91
        0
 64
     7
 65
   257
 75
     1
175
     1
 42
1.0
 92
        8
 66
     8
424
  7895160
 43
1.0
 76
     1
 77
     6
 78
     2
 67
     7
 79
     5
170
     0
171
     0
290
     0
174
     0
 93
       13
 44
0.0
173
     0
291
     0
 45
0.0
1001
ACAD
1000
AcDbSavedByObjectVersion
1070
     0
  0
VISUALSTYLE
  5
37
102
{ACAD_REACTORS
330
2A
102
}
330
2A
100
AcDbVisualStyle
  2
Thicken
 70
    13
 71
     2
 72
     2
 73
     0
 90
        0
 40
-0.6
 41
-30.0
 62
     5
 63
     7
421
 16777215
 74
     1
 91
        4
 64
     7
 65
   257
 75
     1
175
     1
 42
1.0
 92
       12
 66
     7
 43
1.0
 76
     1
 77
     6
 78
     2
 67
     7
 79
     5
170
     0
171
     0
290
     0
174
     0
 93
        1
 44
0.0
173
     0
291
     1
 45
0.0
1001
ACAD
1000
AcDbSavedByObjectVersion
1070
     0
  0
ENDSEC
  0
EOF
