  0
SECTION
  2
HEADER
  9
$ACADVER
  1
AC1018
  9
$ACADMAINTVER
 70
     0
  9
$DWGCODEPAGE
  3
ANSI_932
  9
$INSBASE
 10
0.0
 20
0.0
 30
0.0
  9
$EXTMIN
 10
-1050.0
 20
-742.5
 30
0.0
  9
$EXTMAX
 10
1050.0
 20
742.5
 30
0.0
  9
$LIMMIN
 10
-1050.0
 20
-742.5
  9
$LIMMAX
 10
1050.0
 20
742.5
  9
$ORTHOMODE
 70
     0
  9
$REGENMODE
 70
     1
  9
$FILLMODE
 70
     1
  9
$QTEXTMODE
 70
     0
  9
$MIRRTEXT
 70
     1
  9
$LTSCALE
 40
5.0
  9
$ATTMODE
 70
     1
  9
$TEXTSIZE
 40
2.5
  9
$TRACEWID
 40
1.0
  9
$TEXTSTYLE
  7
Standard
  9
$CLAYER
  8
0
  9
$CELTYPE
  6
ByLayer
  9
$CECOLOR
 62
   256
  9
$CELTSCALE
 40
1.0
  9
$DISPSILH
 70
     0
  9
$DIMSCALE
 40
1.0
  9
$DIMASZ
 40
2.5
  9
$DIMEXO
 40
0.625
  9
$DIMDLI
 40
3.75
  9
$DIMRND
 40
0.0
  9
$DIMDLE
 40
0.0
  9
$DIMEXE
 40
1.25
  9
$DIMTP
 40
0.0
  9
$DIMTM
 40
0.0
  9
$DIMTXT
 40
2.5
  9
$DIMCEN
 40
2.5
  9
$DIMTSZ
 40
0.0
  9
$DIMTOL
 70
     0
  9
$DIMLIM
 70
     0
  9
$DIMTIH
 70
     0
  9
$DIMTOH
 70
     0
  9
$DIMSE1
 70
     0
  9
$DIMSE2
 70
     0
  9
$DIMTAD
 70
     1
  9
$DIMZIN
 70
     8
  9
$DIMBLK
  1

  9
$DIMASO
 70
     1
  9
$DIMSHO
 70
     1
  9
$DIMPOST
  1

  9
$DIMAPOST
  1

  9
$DIMALT
 70
     0
  9
$DIMALTD
 70
     3
  9
$DIMALTF
 40
0.03937007874016
  9
$DIMLFAC
 40
1.0
  9
$DIMTOFL
 70
     1
  9
$DIMTVP
 40
0.0
  9
$DIMTIX
 70
     0
  9
$DIMSOXD
 70
     0
  9
$DIMSAH
 70
     0
  9
$DIMBLK1
  1

  9
$DIMBLK2
  1

  9
$DIMSTYLE
  2
ISO-25
  9
$DIMCLRD
 70
     0
  9
$DIMCLRE
 70
     0
  9
$DIMCLRT
 70
     0
  9
$DIMTFAC
 40
1.0
  9
$DIMGAP
 40
0.625
  9
$DIMJUST
 70
     0
  9
$DIMSD1
 70
     0
  9
$DIMSD2
 70
     0
  9
$DIMTOLJ
 70
     0
  9
$DIMTZIN
 70
     8
  9
$DIMALTZ
 70
     0
  9
$DIMALTTZ
 70
     0
  9
$DIMUPT
 70
     0
  9
$DIMDEC
 70
     2
  9
$DIMTDEC
 70
     2
  9
$DIMALTU
 70
     2
  9
$DIMALTTD
 70
     3
  9
$DIMTXSTY
  7
Standard
  9
$DIMAUNIT
 70
     0
  9
$DIMADEC
 70
     0
  9
$DIMALTRND
 40
0.0
  9
$DIMAZIN
 70
     0
  9
$DIMDSEP
 70
    44
  9
$DIMATFIT
 70
     3
  9
$DIMFRAC
 70
     0
  9
$DIMLDRBLK
  1

  9
$DIMLUNIT
 70
     2
  9
$DIMLWD
 70
    -2
  9
$DIMLWE
 70
    -2
  9
$DIMTMOVE
 70
     0
  9
$LUNITS
 70
     2
  9
$LUPREC
 70
     4
  9
$SKETCHINC
 40
1.0
  9
$FILLETRAD
 40
10.0
  9
$AUNITS
 70
     0
  9
$AUPREC
 70
     0
  9
$MENU
  1
.
  9
$ELEVATION
 40
0.0
  9
$PELEVATION
 40
0.0
  9
$THICKNESS
 40
0.0
  9
$LIMCHECK
 70
     0
  9
$CHAMFERA
 40
0.0
  9
$CHAMFERB
 40
0.0
  9
$CHAMFERC
 40
0.0
  9
$CHAMFERD
 40
0.0
  9
$SKPOLY
 70
     0
  9
$TDCREATE
 40
2459489.474308333
  9
$TDUCREATE
 40
2459489.099308333
  9
$TDUPDATE
 40
2459489.474308438
  9
$TDUUPDATE
 40
2459489.099308438
  9
$TDINDWG
 40
0.0000000116
  9
$TDUSRTIMER
 40
0.0000000116
  9
$USRTIMER
 70
     1
  9
$ANGBASE
 50
0.0
  9
$ANGDIR
 70
     0
  9
$PDMODE
 70
     0
  9
$PDSIZE
 40
0.0
  9
$PLINEWID
 40
0.0
  9
$SPLFRAME
 70
     0
  9
$SPLINETYPE
 70
     6
  9
$SPLINESEGS
 70
     8
  9
$HANDSEED
  5
2EF
  9
$SURFTAB1
 70
     6
  9
$SURFTAB2
 70
     6
  9
$SURFTYPE
 70
     6
  9
$SURFU
 70
     6
  9
$SURFV
 70
     6
  9
$UCSBASE
  2

  9
$UCSNAME
  2

  9
$UCSORG
 10
0.0
 20
0.0
 30
0.0
  9
$UCSXDIR
 10
1.0
 20
0.0
 30
0.0
  9
$UCSYDIR
 10
0.0
 20
1.0
 30
0.0
  9
$UCSORTHOREF
  2

  9
$UCSORTHOVIEW
 70
     0
  9
$UCSORGTOP
 10
0.0
 20
0.0
 30
0.0
  9
$UCSORGBOTTOM
 10
0.0
 20
0.0
 30
0.0
  9
$UCSORGLEFT
 10
0.0
 20
0.0
 30
0.0
  9
$UCSORGRIGHT
 10
0.0
 20
0.0
 30
0.0
  9
$UCSORGFRONT
 10
0.0
 20
0.0
 30
0.0
  9
$UCSORGBACK
 10
0.0
 20
0.0
 30
0.0
  9
$PUCSBASE
  2

  9
$PUCSNAME
  2

  9
$PUCSORG
 10
0.0
 20
0.0
 30
0.0
  9
$PUCSXDIR
 10
1.0
 20
0.0
 30
0.0
  9
$PUCSYDIR
 10
0.0
 20
1.0
 30
0.0
  9
$PUCSORTHOREF
  2

  9
$PUCSORTHOVIEW
 70
     0
  9
$PUCSORGTOP
 10
0.0
 20
0.0
 30
0.0
  9
$PUCSORGBOTTOM
 10
0.0
 20
0.0
 30
0.0
  9
$PUCSORGLEFT
 10
0.0
 20
0.0
 30
0.0
  9
$PUCSORGRIGHT
 10
0.0
 20
0.0
 30
0.0
  9
$PUCSORGFRONT
 10
0.0
 20
0.0
 30
0.0
  9
$PUCSORGBACK
 10
0.0
 20
0.0
 30
0.0
  9
$USERI1
 70
     0
  9
$USERI2
 70
     0
  9
$USERI3
 70
     0
  9
$USERI4
 70
     0
  9
$USERI5
 70
     0
  9
$USERR1
 40
0.0
  9
$USERR2
 40
0.0
  9
$USERR3
 40
0.0
  9
$USERR4
 40
0.0
  9
$USERR5
 40
0.0
  9
$WORLDVIEW
 70
     1
  9
$SHADEDGE
 70
     3
  9
$SHADEDIF
 70
    70
  9
$TILEMODE
 70
     1
  9
$MAXACTVP
 70
    64
  9
$PINSBASE
 10
0.0
 20
0.0
 30
0.0
  9
$PLIMCHECK
 70
     0
  9
$PEXTMIN
 10
1.000000000000000E+20
 20
1.000000000000000E+20
 30
1.000000000000000E+20
  9
$PEXTMAX
 10
-1.000000000000000E+20
 20
-1.000000000000000E+20
 30
-1.000000000000000E+20
  9
$PLIMMIN
 10
0.0
 20
0.0
  9
$PLIMMAX
 10
420.0
 20
297.0
  9
$UNITMODE
 70
     0
  9
$VISRETAIN
 70
     1
  9
$PLINEGEN
 70
     0
  9
$PSLTSCALE
 70
     1
  9
$TREEDEPTH
 70
  3020
  9
$CMLSTYLE
  2
Standard
  9
$CMLJUST
 70
     0
  9
$CMLSCALE
 40
20.0
  9
$PROXYGRAPHICS
 70
     1
  9
$MEASUREMENT
 70
     1
  9
$CELWEIGHT
370
    -1
  9
$ENDCAPS
280
     0
  9
$JOINSTYLE
280
     0
  9
$LWDISPLAY
290
     0
  9
$INSUNITS
 70
     4
  9
$HYPERLINKBASE
  1

  9
$STYLESHEET
  1

  9
$XEDIT
290
     1
  9
$CEPSNTYPE
380
     0
  9
$PSTYLEMODE
290
     1
  9
$FINGERPRINTGUID
  2
{AA681850-9810-4E43-920E-CEB1A53E556B}
  9
$VERSIONGUID
  2
{FAEB1C32-E019-11D5-929B-00C0DF256EC4}
  9
$EXTNAMES
290
     1
  9
$PSVPSCALE
 40
0.0
  9
$OLESTARTUP
290
     0
  9
$SORTENTS
280
   127
  9
$INDEXCTL
280
     0
  9
$HIDETEXT
280
     1
  9
$XCLIPFRAME
290
     0
  9
$HALOGAP
280
     0
  9
$OBSCOLOR
 70
   257
  9
$OBSLTYPE
280
     0
  9
$INTERSECTIONDISPLAY
280
     0
  9
$INTERSECTIONCOLOR
 70
   257
  9
$DIMASSOC
280
     2
  9
$PROJECTNAME
  1

  0
ENDSEC
  0
SECTION
  2
CLASSES
  0
CLASS
  1
ACDBDICTIONARYWDFLT
  2
AcDbDictionaryWithDefault
  3
ObjectDBX Classes
 90
        0
 91
        4
280
     0
281
     0
  0
CLASS
  1
VISUALSTYLE
  2
AcDbVisualStyle
  3
ObjectDBX Classes
 90
     4095
 91
        4
280
     0
281
     0
  0
CLASS
  1
MATERIAL
  2
AcDbMaterial
  3
ObjectDBX Classes
 90
     1153
 91
        4
280
     0
281
     0
  0
CLASS
  1
SCALE
  2
AcDbScale
  3
ObjectDBX Classes
 90
     1153
 91
        4
280
     0
281
     0
  0
CLASS
  1
TABLESTYLE
  2
AcDbTableStyle
  3
ObjectDBX Classes
 90
     4095
 91
        4
280
     0
281
     0
  0
CLASS
  1
MLEADERSTYLE
  2
AcDbMLeaderStyle
  3
ACDB_MLEADERSTYLE_CLASS
 90
     4095
 91
        4
280
     0
281
     0
  0
CLASS
  1
SUN
  2
AcDbSun
  3
SCENEOE
 90
     1153
 91
        4
280
     0
281
     0
  0
CLASS
  1
DICTIONARYVAR
  2
AcDbDictionaryVar
  3
ObjectDBX Classes
 90
        0
 91
        4
280
     0
281
     0
  0
CLASS
  1
CELLSTYLEMAP
  2
AcDbCellStyleMap
  3
ObjectDBX Classes
 90
     1152
 91
        4
280
     0
281
     0
  0
ENDSEC
  0
SECTION
  2
TABLES
  0
TABLE
  2
VPORT
  5
8
102
{ACAD_XDICTIONARY
360
2A6
102
}
330
0
100
AcDbSymbolTable
 70
     1
  0
VPORT
  5
29
330
8
100
AcDbSymbolTableRecord
100
AcDbViewportTableRecord
  2
*Active
 70
     0
 10
0.0
 20
0.0
 11
1.0
 21
1.0
 12
0.0
 22
0.0
 13
0.0
 23
0.0
 14
10.0
 24
10.0
 15
10.0
 25
10.0
 16
0.0
 26
0.0
 36
1.0
 17
0.0
 27
0.0
 37
0.0
 40
1633.5
 41
1.414141414141414
 42
50.0
 43
0.0
 44
0.0
 50
0.0
 51
0.0
 71
     0
 72
 10000
 73
     1
 74
     3
 75
     0
 76
     0
 77
     0
 78
     0
281
     0
 65
     1
110
0.0
120
0.0
130
0.0
111
1.0
121
0.0
131
0.0
112
0.0
122
1.0
132
0.0
 79
     0
146
0.0
  0
ENDTAB
  0
TABLE
  2
LTYPE
  5
5
330
0
100
AcDbSymbolTable
 70
     4
  0
LTYPE
  5
14
330
5
100
AcDbSymbolTableRecord
100
AcDbLinetypeTableRecord
  2
ByBlock
 70
     0
  3

 72
    65
 73
     0
 40
0.0
  0
LTYPE
  5
15
330
5
100
AcDbSymbolTableRecord
100
AcDbLinetypeTableRecord
  2
ByLayer
 70
     0
  3

 72
    65
 73
     0
 40
0.0
  0
LTYPE
  5
16
330
5
100
AcDbSymbolTableRecord
100
AcDbLinetypeTableRecord
  2
Continuous
 70
     0
  3
Solid line
 72
    65
 73
     0
 40
0.0
  0
LTYPE
  5
6F
330
5
100
AcDbSymbolTableRecord
100
AcDbLinetypeTableRecord
  2
JWW_CENTER1
 70
     0
  3
-----  --  ----------  --  -----
 72
    65
 73
     4
 40
6.773333333333333
 49
4.233333333333333
 74
     0
 49
-0.8466666666666667
 74
     0
 49
0.8466666666666667
 74
     0
 49
-0.8466666666666667
 74
     0
  0
LTYPE
  5
70
330
5
100
AcDbSymbolTableRecord
100
AcDbLinetypeTableRecord
  2
JWW_DASHED3
 70
     0
  3
---  ------  ------  ------  ---
 72
    65
 73
     2
 40
3.386666666666667
 49
2.54
 74
     0
 49
-0.8466666666666667
 74
     0
  0
LTYPE
  5
71
330
5
100
AcDbSymbolTableRecord
100
AcDbLinetypeTableRecord
  2
JWW_CENTER2
 70
     0
  3
-------------  --  -------------
 72
    65
 73
     4
 40
13.54666666666667
 49
11.00666666666667
 74
     0
 49
-0.8466666666666667
 74
     0
 49
0.8466666666666667
 74
     0
 49
-0.8466666666666667
 74
     0
  0
ENDTAB
  0
TABLE
  2
LAYER
  5
2
330
0
100
AcDbSymbolTable
 70
     6
  0
LAYER
  5
10
330
2
100
AcDbSymbolTableRecord
100
AcDbLayerTableRecord
  2
0
 70
     0
 62
     7
  6
Continuous
370
    -3
390
F
  0
LAYER
  5
72
330
2
100
AcDbSymbolTableRecord
100
AcDbLayerTableRecord
  2
F-5ﾚｲﾔ
 70
     0
 62
     7
  6
Continuous
370
    -3
390
F
  0
LAYER
  5
73
330
2
100
AcDbSymbolTableRecord
100
AcDbLayerTableRecord
  2
B-4_寸法
 70
     0
 62
     7
  6
Continuous
370
    -3
390
F
  0
LAYER
  5
74
330
2
100
AcDbSymbolTableRecord
100
AcDbLayerTableRecord
  2
B-1_ピット
 70
     0
 62
     7
  6
Continuous
370
    -3
390
F
  0
LAYER
  5
75
330
2
100
AcDbSymbolTableRecord
100
AcDbLayerTableRecord
  2
B-2_蓋
 70
     0
 62
     7
  6
Continuous
370
    -3
390
F
  0
LAYER
  5
76
330
2
100
AcDbSymbolTableRecord
100
AcDbLayerTableRecord
  2
B-5_仕様文
 70
     0
 62
     7
  6
Continuous
370
    -3
390
F
  0
ENDTAB
  0
TABLE
  2
STYLE
  5
3
330
0
100
AcDbSymbolTable
 70
     2
  0
STYLE
  5
11
330
3
100
AcDbSymbolTableRecord
100
AcDbTextStyleTableRecord
  2
Standard
 70
     0
 40
0.0
 41
1.0
 50
0.0
 71
     0
 42
2.5
  3
txt
  4

  0
STYLE
  5
6E
330
3
100
AcDbSymbolTableRecord
100
AcDbTextStyleTableRecord
  2
ＭＳ ゴシック
 70
     0
 40
1.0
 41
1.0
 50
0.0
 71
     0
 42
2.5
  3

  4

1001
ACAD
1000
MS Gothic
1071
    32817
  0
ENDTAB
  0
TABLE
  2
VIEW
  5
6
330
0
100
AcDbSymbolTable
 70
     0
  0
ENDTAB
  0
TABLE
  2
UCS
  5
7
330
0
100
AcDbSymbolTable
 70
     0
  0
ENDTAB
  0
TABLE
  2
APPID
  5
9
330
0
100
AcDbSymbolTable
 70
     2
  0
APPID
  5
12
330
9
100
AcDbSymbolTableRecord
100
AcDbRegAppTableRecord
  2
ACAD
 70
     0
  0
APPID
  5
2E5
330
9
100
AcDbSymbolTableRecord
100
AcDbRegAppTableRecord
  2
ACAD_MLEADERVER
 70
     0
  0
ENDTAB
  0
TABLE
  2
DIMSTYLE
  5
A
330
0
100
AcDbSymbolTable
 70
     1
100
AcDbDimStyleTable
  0
DIMSTYLE
105
27
330
A
100
AcDbSymbolTableRecord
100
AcDbDimStyleTableRecord
  2
ISO-25
 70
     0
 41
2.5
 42
0.625
 43
3.75
 44
1.25
 73
     0
 74
     0
 77
     1
 78
     8
140
2.5
141
2.5
143
0.03937007874016
147
0.625
171
     3
172
     1
178
     0
271
     2
272
     2
274
     3
278
    44
283
     0
284
     8
340
11
  0
ENDTAB
  0
TABLE
  2
BLOCK_RECORD
  5
1
330
0
100
AcDbSymbolTable
 70
     1
  0
BLOCK_RECORD
  5
1F
330
1
100
AcDbSymbolTableRecord
100
AcDbBlockTableRecord
  2
*Model_Space
340
22
  0
BLOCK_RECORD
  5
1B
330
1
100
AcDbSymbolTableRecord
100
AcDbBlockTableRecord
  2
*Paper_Space
340
1E
  0
BLOCK_RECORD
  5
23
330
1
100
AcDbSymbolTableRecord
100
AcDbBlockTableRecord
  2
*Paper_Space0
340
26
  0
ENDTAB
  0
ENDSEC
  0
SECTION
  2
BLOCKS
  0
BLOCK
  5
20
330
1F
100
AcDbEntity
  8
0
100
AcDbBlockBegin
  2
*Model_Space
 70
     0
 10
0.0
 20
0.0
 30
0.0
  3
*Model_Space
  1

  0
ENDBLK
  5
21
330
1F
100
AcDbEntity
  8
0
100
AcDbBlockEnd
  0
BLOCK
  5
1C
330
1B
100
AcDbEntity
 67
     1
  8
0
100
AcDbBlockBegin
  2
*Paper_Space
 70
     0
 10
0.0
 20
0.0
 30
0.0
  3
*Paper_Space
  1

  0
ENDBLK
  5
1D
330
1B
100
AcDbEntity
 67
     1
  8
0
100
AcDbBlockEnd
  0
BLOCK
  5
24
330
23
100
AcDbEntity
  8
0
100
AcDbBlockBegin
  2
*Paper_Space0
 70
     0
 10
0.0
 20
0.0
 30
0.0
  3
*Paper_Space0
  1

  0
ENDBLK
  5
25
330
23
100
AcDbEntity
  8
0
100
AcDbBlockEnd
  0
ENDSEC
  0
SECTION
  2
ENTITIES
  0
LINE
  5
77
330
1F
100
AcDbEntity
  8
F-5ﾚｲﾔ
  6
Continuous
 62
     2
370
     9
100
AcDbLine
 10
171.2273955004893
 20
-307.0198483097329
 30
0.0
 11
171.2273955004893
 21
-282.019765829792
 31
0.0
  0
LINE
  5
78
330
1F
100
AcDbEntity
  8
F-5ﾚｲﾔ
  6
Continuous
 62
     2
370
     9
100
AcDbLine
 10
171.2273955004893
 20
-282.019765829792
 30
0.0
 11
283.7273955004893
 21
-282.019765829792
 31
0.0
  0
LINE
  5
79
330
1F
100
AcDbEntity
  8
F-5ﾚｲﾔ
  6
Continuous
 62
     2
370
     9
100
AcDbLine
 10
283.7273955004893
 20
-282.019765829792
 30
0.0
 11
283.7273955004893
 21
-307.0198483097329
 31
0.0
  0
LINE
  5
7A
330
1F
100
AcDbEntity
  8
F-5ﾚｲﾔ
  6
Continuous
 62
     2
370
     9
100
AcDbLine
 10
283.7273955004893
 20
-307.0198483097329
 30
0.0
 11
171.2273955004893
 21
-307.0198483097329
 31
0.0
  0
TEXT
  5
7B
330
1F
100
AcDbEntity
  8
F-5ﾚｲﾔ
  6
Continuous
 62
     2
370
   211
100
AcDbText
 10
188.4774152956752
 20
-303.6997105682316
 30
0.0
 40
15.24
  1
仕　様
 41
1.083333333333333
  7
ＭＳ ゴシック
100
AcDbText
  0
TEXT
  5
7C
330
1F
100
AcDbEntity
  8
F-5ﾚｲﾔ
  6
Continuous
 62
     2
370
     9
100
AcDbText
 10
252.1280929508695
 20
-471.5191702997897
 30
0.0
 40
15.24
  1
材質：ＳＳ４００
 41
1.109375
  7
ＭＳ ゴシック
100
AcDbText
  0
TEXT
  5
7D
330
1F
100
AcDbEntity
  8
F-5ﾚｲﾔ
  6
Continuous
 62
     2
370
     9
100
AcDbText
 10
222.2721276716252
 20
-443.8950626894522
 30
0.0
 40
15.24
  1
スチール製受枠　Ｌ－３８（四方受四方枠）
 41
1.11875
  7
ＭＳ ゴシック
100
AcDbText
  0
TEXT
  5
7E
330
1F
100
AcDbEntity
  8
F-5ﾚｲﾔ
  6
Continuous
 62
     2
370
     9
100
AcDbText
 10
252.1280929508695
 20
-413.4132887745971
 30
0.0
 40
15.24
  1
処理：溶融亜鉛めっき
 41
1.1125
  7
ＭＳ ゴシック
100
AcDbText
  0
TEXT
  5
7F
330
1F
100
AcDbEntity
  8
F-5ﾚｲﾔ
  6
Continuous
 62
     2
370
     9
100
AcDbText
 10
252.1288352703372
 20
-387.6942920339382
 30
0.0
 40
15.24
  1
材質：ＳＳ４００
 41
1.109375
  7
ＭＳ ゴシック
100
AcDbText
  0
TEXT
  5
80
330
1F
100
AcDbEntity
  8
F-5ﾚｲﾔ
  6
Continuous
 62
     2
370
     9
100
AcDbText
 10
222.2721276716252
 20
-359.595738771993
 30
0.0
 40
15.24
  1
集水桝用　ＱＳＣ　３３３８
 41
1.115384615384615
  7
ＭＳ ゴシック
100
AcDbText
  0
TEXT
  5
81
330
1F
100
AcDbEntity
  8
F-5ﾚｲﾔ
  6
Continuous
 62
     2
370
     9
100
AcDbText
 10
222.2721276716252
 20
-333.1601432909934
 30
0.0
 40
15.24
  1
スチール製グレーチング　枠付正方形型　細目プレーンタイプ
 41
1.120535714285714
  7
ＭＳ ゴシック
100
AcDbText
  0
TEXT
  5
82
330
1F
100
AcDbEntity
  8
F-5ﾚｲﾔ
  6
Continuous
 62
     2
370
     9
100
AcDbText
 10
-462.7501752698745
 20
-682.8316433452651
 30
0.0
 40
15.24
  1
スチール製グレーチング　枠付正方形型　細目プレーンタイプ　集水桝用　ＱＳＣ　３３３８
 41
0.7744047619047619
  7
ＭＳ ゴシック
100
AcDbText
  0
LWPOLYLINE
  5
83
330
1F
100
AcDbEntity
  8
B-4_寸法
  6
Continuous
 62
     7
370
     9
100
AcDbPolyline
 90
        4
 70
     1
 43
1.0
 10
-638.2072985128558
 20
527.8521597619862
 42
0.4142135623731
 10
-638.7072985128557
 20
528.3521597619861
 42
0.4142135623731
 10
-639.2072985128557
 20
527.8521597619862
 42
0.4142135623731
 10
-638.7072985128557
 20
527.3521597619862
 42
0.4142135623731
  0
LWPOLYLINE
  5
84
330
1F
100
AcDbEntity
  8
B-4_寸法
  6
Continuous
 62
     7
370
     9
100
AcDbPolyline
 90
        4
 70
     1
 43
1.0
 10
-428.20712530498
 20
527.8521597619862
 42
0.4142135623731
 10
-428.70712530498
 20
528.3521597619861
 42
0.4142135623731
 10
-429.20712530498
 20
527.8521597619862
 42
0.4142135623731
 10
-428.70712530498
 20
527.3521597619862
 42
0.4142135623731
  0
LWPOLYLINE
  5
85
330
1F
100
AcDbEntity
  8
B-4_寸法
  6
Continuous
 62
     7
370
     9
100
AcDbPolyline
 90
        4
 70
     1
 43
1.0
 10
-218.206952097104
 20
527.8521597619862
 42
0.4142135623731
 10
-218.706952097104
 20
528.3521597619861
 42
0.4142135623731
 10
-219.206952097104
 20
527.8521597619862
 42
0.4142135623731
 10
-218.706952097104
 20
527.3521597619862
 42
0.4142135623731
  0
LWPOLYLINE
  5
86
330
1F
100
AcDbEntity
  8
B-4_寸法
  6
Continuous
 62
     7
370
     9
100
AcDbPolyline
 90
        4
 70
     1
 43
1.0
 10
-597.8669491608182
 20
472.5079379767243
 42
0.4142135623731
 10
-598.3669491608181
 20
473.0079379767243
 42
0.4142135623731
 10
-598.8669491608181
 20
472.5079379767243
 42
0.4142135623731
 10
-598.3669491608181
 20
472.0079379767243
 42
0.4142135623731
  0
LWPOLYLINE
  5
87
330
1F
100
AcDbEntity
  8
B-4_寸法
  6
Continuous
 62
     7
370
     9
100
AcDbPolyline
 90
        4
 70
     1
 43
1.0
 10
-585.2870096021188
 20
472.5079379767243
 42
0.4142135623731
 10
-585.7870096021188
 20
473.0079379767243
 42
0.4142135623731
 10
-586.2870096021188
 20
472.5079379767243
 42
0.4142135623731
 10
-585.7870096021188
 20
472.0079379767243
 42
0.4142135623731
  0
LINE
  5
88
330
1F
100
AcDbEntity
  8
B-1_ピット
  6
Continuous
 62
     2
370
     9
100
AcDbLine
 10
-483.7072077849208
 20
19.1006173870916
 30
0.0
 11
-483.7072077849208
 21
25.20085031044474
 31
0.0
  0
LINE
  5
89
330
1F
100
AcDbEntity
  8
B-1_ピット
  6
Continuous
 62
     2
370
     9
100
AcDbLine
 10
-383.7071995369266
 20
9.101054530778327
 30
0.0
 11
-473.70712530498
 21
9.101054530778327
 31
0.0
  0
LINE
  5
8A
330
1F
100
AcDbEntity
  8
B-1_ピット
  6
Continuous
 62
     2
370
     9
100
AcDbLine
 10
-373.7071912889326
 20
19.1006173870916
 30
0.0
 11
-373.7071912889326
 21
25.20085031044474
 31
0.0
  0
LINE
  5
8B
330
1F
100
AcDbEntity
  8
B-1_ピット
  6
Continuous
 62
     2
370
     9
100
AcDbLine
 10
-382.7074436775516
 20
19.1006173870916
 30
0.0
 11
-382.7074436775516
 21
25.20085031044474
 31
0.0
  0
LINE
  5
8C
330
1F
100
AcDbEntity
  8
B-1_ピット
  6
Continuous
 62
     2
370
     9
100
AcDbLine
 10
-473.70712530498
 20
18.10071306382319
 30
0.0
 11
-383.7071995369266
 21
18.10071306382319
 31
0.0
  0
LINE
  5
8D
330
1F
100
AcDbEntity
  8
B-1_ピット
  6
Continuous
 62
     2
370
     9
100
AcDbLine
 10
-474.7074750199292
 20
19.1006173870916
 30
0.0
 11
-474.7074750199292
 21
25.20085031044474
 31
0.0
  0
LINE
  5
8E
330
1F
100
AcDbEntity
  8
B-1_ピット
  6
JWW_CENTER1
 62
     2
370
     9
100
AcDbLine
 10
-479.2074156343718
 20
33.30816661112035
 30
0.0
 11
-479.2074156343718
 21
17.7112922709599
 31
0.0
  0
LINE
  5
8F
330
1F
100
AcDbEntity
  8
B-1_ピット
  6
JWW_CENTER1
 62
     2
370
     9
100
AcDbLine
 10
-471.04449960555
 20
25.20085031044474
 30
0.0
 11
-487.4514671810356
 21
25.20085031044474
 31
0.0
  0
LINE
  5
90
330
1F
100
AcDbEntity
  8
B-1_ピット
  6
JWW_CENTER1
 62
     2
370
     9
100
AcDbLine
 10
-378.2071319033751
 20
33.30816661112035
 30
0.0
 11
-378.2071319033751
 21
17.7112922709599
 31
0.0
  0
LINE
  5
91
330
1F
100
AcDbEntity
  8
B-1_ピット
  6
JWW_CENTER1
 62
     2
370
     9
100
AcDbLine
 10
-370.0441416426066
 20
25.20085031044474
 30
0.0
 11
-386.451183450039
 21
25.20085031044474
 31
0.0
  0
LINE
  5
92
330
1F
100
AcDbEntity
  8
B-1_ピット
  6
Continuous
 62
     2
370
     9
100
AcDbLine
 10
-483.7072077849208
 20
460.3010881825944
 30
0.0
 11
-483.7072077849208
 21
454.2017460426027
 31
0.0
  0
LINE
  5
93
330
1F
100
AcDbEntity
  8
B-1_ピット
  6
Continuous
 62
     2
370
     9
100
AcDbLine
 10
-383.7071995369266
 20
470.3016160542159
 30
0.0
 11
-473.70712530498
 21
470.3016160542159
 31
0.0
  0
LINE
  5
94
330
1F
100
AcDbEntity
  8
B-1_ピット
  6
Continuous
 62
     2
370
     9
100
AcDbLine
 10
-373.7071912889326
 20
460.3010881825944
 30
0.0
 11
-373.7071912889326
 21
454.2017460426027
 31
0.0
  0
LINE
  5
95
330
1F
100
AcDbEntity
  8
B-1_ピット
  6
Continuous
 62
     2
370
     9
100
AcDbLine
 10
-382.7074436775516
 20
460.3010881825944
 30
0.0
 11
-382.7074436775516
 21
454.2017460426027
 31
0.0
  0
LINE
  5
96
330
1F
100
AcDbEntity
  8
B-1_ピット
  6
Continuous
 62
     2
370
     9
100
AcDbLine
 10
-473.70712530498
 20
461.3008440419694
 30
0.0
 11
-383.7071995369266
 21
461.3008440419694
 31
0.0
  0
LINE
  5
97
330
1F
100
AcDbEntity
  8
B-1_ピット
  6
Continuous
 62
     2
370
     9
100
AcDbLine
 10
-474.7074750199292
 20
460.3010881825944
 30
0.0
 11
-474.7074750199292
 21
454.2017460426027
 31
0.0
  0
LINE
  5
98
330
1F
100
AcDbEntity
  8
B-1_ピット
  6
JWW_CENTER1
 62
     2
370
     9
100
AcDbLine
 10
-479.2074156343718
 20
446.0939843502463
 30
0.0
 11
-479.2074156343718
 21
461.6914525459811
 31
0.0
  0
LINE
  5
99
330
1F
100
AcDbEntity
  8
B-1_ピット
  6
JWW_CENTER1
 62
     2
370
     9
100
AcDbLine
 10
-471.04449960555
 20
454.2017460426027
 30
0.0
 11
-487.4514671810356
 21
454.2017460426027
 31
0.0
  0
LINE
  5
9A
330
1F
100
AcDbEntity
  8
B-1_ピット
  6
JWW_CENTER1
 62
     2
370
     9
100
AcDbLine
 10
-378.2071319033751
 20
446.0939843502463
 30
0.0
 11
-378.2071319033751
 21
461.6914525459811
 31
0.0
  0
LINE
  5
9B
330
1F
100
AcDbEntity
  8
B-1_ピット
  6
JWW_CENTER1
 62
     2
370
     9
100
AcDbLine
 10
-370.0441416426066
 20
454.2017460426027
 30
0.0
 11
-386.451183450039
 21
454.2017460426027
 31
0.0
  0
LINE
  5
9C
330
1F
100
AcDbEntity
  8
B-1_ピット
  6
Continuous
 62
     2
370
     9
100
AcDbLine
 10
-218.706952097104
 20
449.7010631086923
 30
0.0
 11
-638.7072985128557
 21
449.7010631086923
 31
0.0
  0
LINE
  5
9D
330
1F
100
AcDbEntity
  8
B-1_ピット
  6
Continuous
 62
     2
370
     9
100
AcDbLine
 10
-224.707268820077
 20
443.7007463857194
 30
0.0
 11
-632.7074271815636
 21
443.7007463857194
 31
0.0
  0
LINE
  5
9E
330
1F
100
AcDbEntity
  8
B-1_ピット
  6
Continuous
 62
     2
370
     9
100
AcDbLine
 10
-218.706952097104
 20
29.70168170824881
 30
0.0
 11
-638.7072985128557
 21
29.70168170824881
 31
0.0
  0
LINE
  5
9F
330
1F
100
AcDbEntity
  8
B-1_ピット
  6
Continuous
 62
     2
370
     9
100
AcDbLine
 10
-224.707268820077
 20
35.70184996732817
 30
0.0
 11
-632.7074271815636
 21
35.70184996732817
 31
0.0
  0
LINE
  5
A0
330
1F
100
AcDbEntity
  8
B-1_ピット
  6
JWW_DASHED3
 62
     2
370
     9
100
AcDbLine
 10
-578.7072490248911
 20
389.7015332443552
 30
0.0
 11
-578.7072490248911
 21
89.70098887674536
 31
0.0
  0
LINE
  5
A1
330
1F
100
AcDbEntity
  8
B-4_寸法
  6
Continuous
 62
     7
370
     9
100
AcDbLine
 10
-638.7072985128557
 20
458.7010928014711
 30
0.0
 11
-638.7072985128557
 21
529.6521360077633
 31
0.0
  0
LINE
  5
A2
330
1F
100
AcDbEntity
  8
B-4_寸法
  6
Continuous
 62
     7
370
     9
100
AcDbLine
 10
-428.70712530498
 20
479.3016457469946
 30
0.0
 11
-428.70712530498
 21
529.6521360077633
 31
0.0
  0
LINE
  5
A3
330
1F
100
AcDbEntity
  8
B-4_寸法
  6
Continuous
 62
     7
370
     9
100
AcDbLine
 10
-218.706952097104
 20
458.7010928014711
 30
0.0
 11
-218.706952097104
 21
529.6521360077633
 31
0.0
  0
LINE
  5
A4
330
1F
100
AcDbEntity
  8
B-2_蓋
  6
Continuous
 62
     3
370
     9
100
AcDbLine
 10
-622.2065388726003
 20
42.70132869410176
 30
0.0
 11
-622.2065388726003
 21
87.20115383662707
 31
0.0
  0
LINE
  5
A5
330
1F
100
AcDbEntity
  8
B-2_蓋
  6
Continuous
 62
     3
370
     9
100
AcDbLine
 10
-235.2074519255457
 20
87.20115383662707
 30
0.0
 11
-235.2074519255457
 21
42.70132869410176
 31
0.0
  0
LINE
  5
A6
330
1F
100
AcDbEntity
  8
B-2_蓋
  6
Continuous
 62
     3
370
     9
100
AcDbLine
 10
-232.2071451001657
 20
439.7014260204321
 30
0.0
 11
-232.2071451001657
 21
39.70124456456208
 31
0.0
  0
LINE
  5
A7
330
1F
100
AcDbEntity
  8
B-2_蓋
  6
Continuous
 62
     3
370
     9
100
AcDbLine
 10
-247.6266050874968
 20
87.20115383662707
 30
0.0
 11
-247.6266050874968
 21
42.70132869410176
 31
0.0
  0
LINE
  5
A8
330
1F
100
AcDbEntity
  8
B-2_蓋
  6
Continuous
 62
     3
370
     9
100
AcDbLine
 10
-244.6261497982231
 20
87.20115383662707
 30
0.0
 11
-244.6261497982231
 21
42.70132869410176
 31
0.0
  0
LINE
  5
A9
330
1F
100
AcDbEntity
  8
B-2_蓋
  6
Continuous
 62
     3
370
     9
100
AcDbLine
 10
-260.2066931100896
 20
87.20115383662707
 30
0.0
 11
-260.2066931100896
 21
42.70132869410176
 31
0.0
  0
LINE
  5
AA
330
1F
100
AcDbEntity
  8
B-2_蓋
  6
Continuous
 62
     3
370
     9
100
AcDbLine
 10
-257.2060893569224
 20
87.20115383662707
 30
0.0
 11
-257.2060893569224
 21
42.70132869410176
 31
0.0
  0
LINE
  5
AB
330
1F
100
AcDbEntity
  8
B-2_蓋
  6
Continuous
 62
     3
370
     9
100
AcDbLine
 10
-272.786632668789
 20
87.20115383662707
 30
0.0
 11
-272.786632668789
 21
42.70132869410176
 31
0.0
  0
LINE
  5
AC
330
1F
100
AcDbEntity
  8
B-2_蓋
  6
Continuous
 62
     3
370
     9
100
AcDbLine
 10
-269.786622771196
 20
87.20115383662707
 30
0.0
 11
-269.786622771196
 21
42.70132869410176
 31
0.0
  0
LINE
  5
AD
330
1F
100
AcDbEntity
  8
B-2_蓋
  6
Continuous
 62
     3
370
     9
100
AcDbLine
 10
-285.3667206913819
 20
87.20115383662707
 30
0.0
 11
-285.3667206913819
 21
42.70132869410176
 31
0.0
  0
LINE
  5
AE
330
1F
100
AcDbEntity
  8
B-2_蓋
  6
Continuous
 62
     3
370
     9
100
AcDbLine
 10
-282.3664138660018
 20
87.20115383662707
 30
0.0
 11
-282.3664138660018
 21
42.70132869410176
 31
0.0
  0
LINE
  5
AF
330
1F
100
AcDbEntity
  8
B-2_蓋
  6
Continuous
 62
     3
370
     9
100
AcDbLine
 10
-297.9465117861876
 20
87.20115383662707
 30
0.0
 11
-297.9465117861876
 21
42.70132869410176
 31
0.0
  0
LINE
  5
B0
330
1F
100
AcDbEntity
  8
B-2_蓋
  6
Continuous
 62
     3
370
     9
100
AcDbLine
 10
-294.9465018885948
 20
87.20115383662707
 30
0.0
 11
-294.9465018885948
 21
42.70132869410176
 31
0.0
  0
LINE
  5
B1
330
1F
100
AcDbEntity
  8
B-2_蓋
  6
Continuous
 62
     3
370
     9
100
AcDbLine
 10
-310.5264513448869
 20
87.20115383662707
 30
0.0
 11
-310.5264513448869
 21
42.70132869410176
 31
0.0
  0
LINE
  5
B2
330
1F
100
AcDbEntity
  8
B-2_蓋
  6
Continuous
 62
     3
370
     9
100
AcDbLine
 10
-307.5264414472941
 20
87.20115383662707
 30
0.0
 11
-307.5264414472941
 21
42.70132869410176
 31
0.0
  0
LINE
  5
B3
330
1F
100
AcDbEntity
  8
B-2_蓋
  6
Continuous
 62
     3
370
     9
100
AcDbLine
 10
-323.1063909035863
 20
87.20115383662707
 30
0.0
 11
-323.1063909035863
 21
42.70132869410176
 31
0.0
  0
LINE
  5
B4
330
1F
100
AcDbEntity
  8
B-2_蓋
  6
Continuous
 62
     3
370
     9
100
AcDbLine
 10
-320.1063810059934
 20
87.20115383662707
 30
0.0
 11
-320.1063810059934
 21
42.70132869410176
 31
0.0
  0
LINE
  5
B5
330
1F
100
AcDbEntity
  8
B-2_蓋
  6
Continuous
 62
     3
370
     9
100
AcDbLine
 10
-335.6864789261792
 20
87.20115383662707
 30
0.0
 11
-335.6864789261792
 21
42.70132869410176
 31
0.0
  0
LINE
  5
B6
330
1F
100
AcDbEntity
  8
B-2_蓋
  6
Continuous
 62
     3
370
     9
100
AcDbLine
 10
-332.6863205646927
 20
87.20115383662707
 30
0.0
 11
-332.6863205646927
 21
42.70132869410176
 31
0.0
  0
LINE
  5
B7
330
1F
100
AcDbEntity
  8
B-2_蓋
  6
Continuous
 62
     3
370
     9
100
AcDbLine
 10
-348.2668638765593
 20
87.20115383662707
 30
0.0
 11
-348.2668638765593
 21
42.70132869410176
 31
0.0
  0
LINE
  5
B8
330
1F
100
AcDbEntity
  8
B-2_蓋
  6
Continuous
 62
     3
370
     9
100
AcDbLine
 10
-345.2668539789664
 20
87.20115383662707
 30
0.0
 11
-345.2668539789664
 21
42.70132869410176
 31
0.0
  0
LINE
  5
B9
330
1F
100
AcDbEntity
  8
B-2_蓋
  6
Continuous
 62
     3
370
     9
100
AcDbLine
 10
-360.8468034352587
 20
87.20115383662707
 30
0.0
 11
-360.8468034352587
 21
42.70132869410176
 31
0.0
  0
LINE
  5
BA
330
1F
100
AcDbEntity
  8
B-2_蓋
  6
Continuous
 62
     3
370
     9
100
AcDbLine
 10
-357.8467935376657
 20
87.20115383662707
 30
0.0
 11
-357.8467935376657
 21
42.70132869410176
 31
0.0
  0
LINE
  5
BB
330
1F
100
AcDbEntity
  8
B-2_蓋
  6
Continuous
 62
     3
370
     9
100
AcDbLine
 10
-373.4262976022771
 20
87.20115383662707
 30
0.0
 11
-373.4262976022771
 21
42.70132869410176
 31
0.0
  0
LINE
  5
BC
330
1F
100
AcDbEntity
  8
B-2_蓋
  6
Continuous
 62
     3
370
     9
100
AcDbLine
 10
-370.4267330963651
 20
87.20115383662707
 30
0.0
 11
-370.4267330963651
 21
42.70132869410176
 31
0.0
  0
LINE
  5
BD
330
1F
100
AcDbEntity
  8
B-2_蓋
  6
Continuous
 62
     3
370
     9
100
AcDbLine
 10
-386.0066825526573
 20
87.20115383662707
 30
0.0
 11
-386.0066825526573
 21
42.70132869410176
 31
0.0
  0
LINE
  5
BE
330
1F
100
AcDbEntity
  8
B-2_蓋
  6
Continuous
 62
     3
370
     9
100
AcDbLine
 10
-383.0066726550643
 20
87.20115383662707
 30
0.0
 11
-383.0066726550643
 21
42.70132869410176
 31
0.0
  0
LINE
  5
BF
330
1F
100
AcDbEntity
  8
B-2_蓋
  6
Continuous
 62
     3
370
     9
100
AcDbLine
 10
-398.5866221113566
 20
87.20115383662707
 30
0.0
 11
-398.5866221113566
 21
42.70132869410176
 31
0.0
  0
LINE
  5
C0
330
1F
100
AcDbEntity
  8
B-2_蓋
  6
Continuous
 62
     3
370
     9
100
AcDbLine
 10
-395.5866122137637
 20
87.20115383662707
 30
0.0
 11
-395.5866122137637
 21
42.70132869410176
 31
0.0
  0
LINE
  5
C1
330
1F
100
AcDbEntity
  8
B-2_蓋
  6
Continuous
 62
     3
370
     9
100
AcDbLine
 10
-411.1665616700559
 20
87.20115383662707
 30
0.0
 11
-411.1665616700559
 21
42.70132869410176
 31
0.0
  0
LINE
  5
C2
330
1F
100
AcDbEntity
  8
B-2_蓋
  6
Continuous
 62
     3
370
     9
100
AcDbLine
 10
-408.166551772463
 20
87.20115383662707
 30
0.0
 11
-408.166551772463
 21
42.70132869410176
 31
0.0
  0
LINE
  5
C3
330
1F
100
AcDbEntity
  8
B-2_蓋
  6
Continuous
 62
     3
370
     9
100
AcDbLine
 10
-423.7465012287552
 20
87.20115383662707
 30
0.0
 11
-423.7465012287552
 21
42.70132869410176
 31
0.0
  0
LINE
  5
C4
330
1F
100
AcDbEntity
  8
B-2_蓋
  6
Continuous
 62
     3
370
     9
100
AcDbLine
 10
-420.7464913311624
 20
87.20115383662707
 30
0.0
 11
-420.7464913311624
 21
42.70132869410176
 31
0.0
  0
LINE
  5
C5
330
1F
100
AcDbEntity
  8
B-2_蓋
  6
Continuous
 62
     3
370
     9
100
AcDbLine
 10
-436.3265892513481
 20
87.20115383662707
 30
0.0
 11
-436.3265892513481
 21
42.70132869410176
 31
0.0
  0
LINE
  5
C6
330
1F
100
AcDbEntity
  8
B-2_蓋
  6
Continuous
 62
     3
370
     9
100
AcDbLine
 10
-433.3264308898616
 20
87.20115383662707
 30
0.0
 11
-433.3264308898616
 21
42.70132869410176
 31
0.0
  0
LINE
  5
C7
330
1F
100
AcDbEntity
  8
B-2_蓋
  6
Continuous
 62
     3
370
     9
100
AcDbLine
 10
-448.9069742017282
 20
87.20115383662707
 30
0.0
 11
-448.9069742017282
 21
42.70132869410176
 31
0.0
  0
LINE
  5
C8
330
1F
100
AcDbEntity
  8
B-2_蓋
  6
Continuous
 62
     3
370
     9
100
AcDbLine
 10
-445.9063704485609
 20
87.20115383662707
 30
0.0
 11
-445.9063704485609
 21
42.70132869410176
 31
0.0
  0
LINE
  5
C9
330
1F
100
AcDbEntity
  8
B-2_蓋
  6
Continuous
 62
     3
370
     9
100
AcDbLine
 10
-461.4869137604275
 20
87.20115383662707
 30
0.0
 11
-461.4869137604275
 21
42.70132869410176
 31
0.0
  0
LINE
  5
CA
330
1F
100
AcDbEntity
  8
B-2_蓋
  6
Continuous
 62
     3
370
     9
100
AcDbLine
 10
-458.4863100072603
 20
87.20115383662707
 30
0.0
 11
-458.4863100072603
 21
42.70132869410176
 31
0.0
  0
LINE
  5
CB
330
1F
100
AcDbEntity
  8
B-2_蓋
  6
Continuous
 62
     3
370
     9
100
AcDbLine
 10
-474.0668533191269
 20
87.20115383662707
 30
0.0
 11
-474.0668533191269
 21
42.70132869410176
 31
0.0
  0
LINE
  5
CC
330
1F
100
AcDbEntity
  8
B-2_蓋
  6
Continuous
 62
     3
370
     9
100
AcDbLine
 10
-471.0662495659597
 20
87.20115383662707
 30
0.0
 11
-471.0662495659597
 21
42.70132869410176
 31
0.0
  0
LINE
  5
CD
330
1F
100
AcDbEntity
  8
B-2_蓋
  6
Continuous
 62
     3
370
     9
100
AcDbLine
 10
-486.6469413417198
 20
87.20115383662707
 30
0.0
 11
-486.6469413417198
 21
42.70132869410176
 31
0.0
  0
LINE
  5
CE
330
1F
100
AcDbEntity
  8
B-2_蓋
  6
Continuous
 62
     3
370
     9
100
AcDbLine
 10
-483.6467829802333
 20
87.20115383662707
 30
0.0
 11
-483.6467829802333
 21
42.70132869410176
 31
0.0
  0
LINE
  5
CF
330
1F
100
AcDbEntity
  8
B-2_蓋
  6
Continuous
 62
     3
370
     9
100
AcDbLine
 10
-499.2268809004191
 20
87.20115383662707
 30
0.0
 11
-499.2268809004191
 21
42.70132869410176
 31
0.0
  0
LINE
  5
D0
330
1F
100
AcDbEntity
  8
B-2_蓋
  6
Continuous
 62
     3
370
     9
100
AcDbLine
 10
-496.2267225389326
 20
87.20115383662707
 30
0.0
 11
-496.2267225389326
 21
42.70132869410176
 31
0.0
  0
LINE
  5
D1
330
1F
100
AcDbEntity
  8
B-2_蓋
  6
Continuous
 62
     3
370
     9
100
AcDbLine
 10
-511.8068204591185
 20
87.20115383662707
 30
0.0
 11
-511.8068204591185
 21
42.70132869410176
 31
0.0
  0
LINE
  5
D2
330
1F
100
AcDbEntity
  8
B-2_蓋
  6
Continuous
 62
     3
370
     9
100
AcDbLine
 10
-508.806662097632
 20
87.20115383662707
 30
0.0
 11
-508.806662097632
 21
42.70132869410176
 31
0.0
  0
LINE
  5
D3
330
1F
100
AcDbEntity
  8
B-2_蓋
  6
Continuous
 62
     3
370
     9
100
AcDbLine
 10
-524.3866115539241
 20
87.20115383662707
 30
0.0
 11
-524.3866115539241
 21
42.70132869410176
 31
0.0
  0
LINE
  5
D4
330
1F
100
AcDbEntity
  8
B-2_蓋
  6
Continuous
 62
     3
370
     9
100
AcDbLine
 10
-521.3866016563313
 20
87.20115383662707
 30
0.0
 11
-521.3866016563313
 21
42.70132869410176
 31
0.0
  0
LINE
  5
D5
330
1F
100
AcDbEntity
  8
B-2_蓋
  6
Continuous
 62
     3
370
     9
100
AcDbLine
 10
-536.9665511126234
 20
87.20115383662707
 30
0.0
 11
-536.9665511126234
 21
42.70132869410176
 31
0.0
  0
LINE
  5
D6
330
1F
100
AcDbEntity
  8
B-2_蓋
  6
Continuous
 62
     3
370
     9
100
AcDbLine
 10
-533.9665412150306
 20
87.20115383662707
 30
0.0
 11
-533.9665412150306
 21
42.70132869410176
 31
0.0
  0
LINE
  5
D7
330
1F
100
AcDbEntity
  8
B-2_蓋
  6
Continuous
 62
     3
370
     9
100
AcDbLine
 10
-549.5471216428706
 20
87.20115383662707
 30
0.0
 11
-549.5471216428706
 21
42.70132869410176
 31
0.0
  0
LINE
  5
D8
330
1F
100
AcDbEntity
  8
B-2_蓋
  6
Continuous
 62
     3
370
     9
100
AcDbLine
 10
-546.546963281384
 20
87.20115383662707
 30
0.0
 11
-546.546963281384
 21
42.70132869410176
 31
0.0
  0
LINE
  5
D9
330
1F
100
AcDbEntity
  8
B-2_蓋
  6
Continuous
 62
     3
370
     9
100
AcDbLine
 10
-562.126615809889
 20
87.20115383662707
 30
0.0
 11
-562.126615809889
 21
42.70132869410176
 31
0.0
  0
LINE
  5
DA
330
1F
100
AcDbEntity
  8
B-2_蓋
  6
Continuous
 62
     3
370
     9
100
AcDbLine
 10
-559.1270513039769
 20
87.20115383662707
 30
0.0
 11
-559.1270513039769
 21
42.70132869410176
 31
0.0
  0
LINE
  5
DB
330
1F
100
AcDbEntity
  8
B-2_蓋
  6
Continuous
 62
     3
370
     9
100
AcDbLine
 10
-574.7065553685884
 20
87.20115383662707
 30
0.0
 11
-574.7065553685884
 21
42.70132869410176
 31
0.0
  0
LINE
  5
DC
330
1F
100
AcDbEntity
  8
B-2_蓋
  6
Continuous
 62
     3
370
     9
100
AcDbLine
 10
-571.7069908626762
 20
87.20115383662707
 30
0.0
 11
-571.7069908626762
 21
42.70132869410176
 31
0.0
  0
LINE
  5
DD
330
1F
100
AcDbEntity
  8
B-2_蓋
  6
Continuous
 62
     3
370
     9
100
AcDbLine
 10
-587.2870887828622
 20
87.20115383662707
 30
0.0
 11
-587.2870887828622
 21
42.70132869410176
 31
0.0
  0
LINE
  5
DE
330
1F
100
AcDbEntity
  8
B-2_蓋
  6
Continuous
 62
     3
370
     9
100
AcDbLine
 10
-584.2869304213755
 20
87.20115383662707
 30
0.0
 11
-584.2869304213755
 21
42.70132869410176
 31
0.0
  0
LINE
  5
DF
330
1F
100
AcDbEntity
  8
B-2_蓋
  6
Continuous
 62
     3
370
     9
100
AcDbLine
 10
-599.8670283415615
 20
87.20115383662707
 30
0.0
 11
-599.8670283415615
 21
42.70132869410176
 31
0.0
  0
LINE
  5
E0
330
1F
100
AcDbEntity
  8
B-2_蓋
  6
Continuous
 62
     3
370
     9
100
AcDbLine
 10
-596.866869980075
 20
87.20115383662707
 30
0.0
 11
-596.866869980075
 21
42.70132869410176
 31
0.0
  0
LINE
  5
E1
330
1F
100
AcDbEntity
  8
B-2_蓋
  6
Continuous
 62
     3
370
     9
100
AcDbLine
 10
-612.4469679002607
 20
87.20115383662707
 30
0.0
 11
-612.4469679002607
 21
42.70132869410176
 31
0.0
  0
LINE
  5
E2
330
1F
100
AcDbEntity
  8
B-2_蓋
  6
Continuous
 62
     3
370
     9
100
AcDbLine
 10
-609.4468095387742
 20
87.20115383662707
 30
0.0
 11
-609.4468095387742
 21
42.70132869410176
 31
0.0
  0
LINE
  5
E3
330
1F
100
AcDbEntity
  8
B-2_蓋
  6
Continuous
 62
     3
370
     9
100
AcDbLine
 10
-622.2065388726003
 20
287.2006507089879
 30
0.0
 11
-622.2065388726003
 21
192.2008321648577
 31
0.0
  0
LINE
  5
E4
330
1F
100
AcDbEntity
  8
B-2_蓋
  6
Continuous
 62
     3
370
     9
100
AcDbLine
 10
-235.2074519255457
 20
192.2008321648577
 30
0.0
 11
-235.2074519255457
 21
287.2006507089879
 31
0.0
  0
LINE
  5
E5
330
1F
100
AcDbEntity
  8
B-2_蓋
  6
Continuous
 62
     3
370
     9
100
AcDbLine
 10
-247.6266050874968
 20
192.2008321648577
 30
0.0
 11
-247.6266050874968
 21
287.2006507089879
 31
0.0
  0
LINE
  5
E6
330
1F
100
AcDbEntity
  8
B-2_蓋
  6
Continuous
 62
     3
370
     9
100
AcDbLine
 10
-244.6261497982231
 20
192.2008321648577
 30
0.0
 11
-244.6261497982231
 21
287.2006507089879
 31
0.0
  0
LINE
  5
E7
330
1F
100
AcDbEntity
  8
B-2_蓋
  6
Continuous
 62
     3
370
     9
100
AcDbLine
 10
-260.2066931100896
 20
192.2008321648577
 30
0.0
 11
-260.2066931100896
 21
287.2006507089879
 31
0.0
  0
LINE
  5
E8
330
1F
100
AcDbEntity
  8
B-2_蓋
  6
Continuous
 62
     3
370
     9
100
AcDbLine
 10
-257.2060893569224
 20
192.2008321648577
 30
0.0
 11
-257.2060893569224
 21
287.2006507089879
 31
0.0
  0
LINE
  5
E9
330
1F
100
AcDbEntity
  8
B-2_蓋
  6
Continuous
 62
     3
370
     9
100
AcDbLine
 10
-272.786632668789
 20
192.2008321648577
 30
0.0
 11
-272.786632668789
 21
287.2006507089879
 31
0.0
  0
LINE
  5
EA
330
1F
100
AcDbEntity
  8
B-2_蓋
  6
Continuous
 62
     3
370
     9
100
AcDbLine
 10
-269.786622771196
 20
192.2008321648577
 30
0.0
 11
-269.786622771196
 21
287.2006507089879
 31
0.0
  0
LINE
  5
EB
330
1F
100
AcDbEntity
  8
B-2_蓋
  6
Continuous
 62
     3
370
     9
100
AcDbLine
 10
-285.3667206913819
 20
192.2008321648577
 30
0.0
 11
-285.3667206913819
 21
287.2006507089879
 31
0.0
  0
LINE
  5
EC
330
1F
100
AcDbEntity
  8
B-2_蓋
  6
Continuous
 62
     3
370
     9
100
AcDbLine
 10
-282.3664138660018
 20
192.2008321648577
 30
0.0
 11
-282.3664138660018
 21
287.2006507089879
 31
0.0
  0
LINE
  5
ED
330
1F
100
AcDbEntity
  8
B-2_蓋
  6
Continuous
 62
     3
370
     9
100
AcDbLine
 10
-297.9465117861876
 20
192.2008321648577
 30
0.0
 11
-297.9465117861876
 21
287.2006507089879
 31
0.0
  0
LINE
  5
EE
330
1F
100
AcDbEntity
  8
B-2_蓋
  6
Continuous
 62
     3
370
     9
100
AcDbLine
 10
-294.9465018885948
 20
192.2008321648577
 30
0.0
 11
-294.9465018885948
 21
287.2006507089879
 31
0.0
  0
LINE
  5
EF
330
1F
100
AcDbEntity
  8
B-2_蓋
  6
Continuous
 62
     3
370
     9
100
AcDbLine
 10
-310.5264513448869
 20
192.2008321648577
 30
0.0
 11
-310.5264513448869
 21
287.2006507089879
 31
0.0
  0
LINE
  5
F0
330
1F
100
AcDbEntity
  8
B-2_蓋
  6
Continuous
 62
     3
370
     9
100
AcDbLine
 10
-307.5264414472941
 20
192.2008321648577
 30
0.0
 11
-307.5264414472941
 21
287.2006507089879
 31
0.0
  0
LINE
  5
F1
330
1F
100
AcDbEntity
  8
B-2_蓋
  6
Continuous
 62
     3
370
     9
100
AcDbLine
 10
-323.1063909035863
 20
192.2008321648577
 30
0.0
 11
-323.1063909035863
 21
287.2006507089879
 31
0.0
  0
LINE
  5
F2
330
1F
100
AcDbEntity
  8
B-2_蓋
  6
Continuous
 62
     3
370
     9
100
AcDbLine
 10
-320.1063810059934
 20
192.2008321648577
 30
0.0
 11
-320.1063810059934
 21
287.2006507089879
 31
0.0
  0
LINE
  5
F3
330
1F
100
AcDbEntity
  8
B-2_蓋
  6
Continuous
 62
     3
370
     9
100
AcDbLine
 10
-335.6864789261792
 20
192.2008321648577
 30
0.0
 11
-335.6864789261792
 21
287.2006507089879
 31
0.0
  0
LINE
  5
F4
330
1F
100
AcDbEntity
  8
B-2_蓋
  6
Continuous
 62
     3
370
     9
100
AcDbLine
 10
-332.6863205646927
 20
192.2008321648577
 30
0.0
 11
-332.6863205646927
 21
287.2006507089879
 31
0.0
  0
LINE
  5
F5
330
1F
100
AcDbEntity
  8
B-2_蓋
  6
Continuous
 62
     3
370
     9
100
AcDbLine
 10
-348.2668638765593
 20
192.2008321648577
 30
0.0
 11
-348.2668638765593
 21
287.2006507089879
 31
0.0
  0
LINE
  5
F6
330
1F
100
AcDbEntity
  8
B-2_蓋
  6
Continuous
 62
     3
370
     9
100
AcDbLine
 10
-345.2668539789664
 20
192.2008321648577
 30
0.0
 11
-345.2668539789664
 21
287.2006507089879
 31
0.0
  0
LINE
  5
F7
330
1F
100
AcDbEntity
  8
B-2_蓋
  6
Continuous
 62
     3
370
     9
100
AcDbLine
 10
-360.8468034352587
 20
192.2008321648577
 30
0.0
 11
-360.8468034352587
 21
287.2006507089879
 31
0.0
  0
LINE
  5
F8
330
1F
100
AcDbEntity
  8
B-2_蓋
  6
Continuous
 62
     3
370
     9
100
AcDbLine
 10
-357.8467935376657
 20
192.2008321648577
 30
0.0
 11
-357.8467935376657
 21
287.2006507089879
 31
0.0
  0
LINE
  5
F9
330
1F
100
AcDbEntity
  8
B-2_蓋
  6
Continuous
 62
     3
370
     9
100
AcDbLine
 10
-373.4262976022771
 20
192.2008321648577
 30
0.0
 11
-373.4262976022771
 21
287.2006507089879
 31
0.0
  0
LINE
  5
FA
330
1F
100
AcDbEntity
  8
B-2_蓋
  6
Continuous
 62
     3
370
     9
100
AcDbLine
 10
-370.4267330963651
 20
192.2008321648577
 30
0.0
 11
-370.4267330963651
 21
287.2006507089879
 31
0.0
  0
LINE
  5
FB
330
1F
100
AcDbEntity
  8
B-2_蓋
  6
Continuous
 62
     3
370
     9
100
AcDbLine
 10
-386.0066825526573
 20
192.2008321648577
 30
0.0
 11
-386.0066825526573
 21
287.2006507089879
 31
0.0
  0
LINE
  5
FC
330
1F
100
AcDbEntity
  8
B-2_蓋
  6
Continuous
 62
     3
370
     9
100
AcDbLine
 10
-383.0066726550643
 20
192.2008321648577
 30
0.0
 11
-383.0066726550643
 21
287.2006507089879
 31
0.0
  0
LINE
  5
FD
330
1F
100
AcDbEntity
  8
B-2_蓋
  6
Continuous
 62
     3
370
     9
100
AcDbLine
 10
-398.5866221113566
 20
192.2008321648577
 30
0.0
 11
-398.5866221113566
 21
287.2006507089879
 31
0.0
  0
LINE
  5
FE
330
1F
100
AcDbEntity
  8
B-2_蓋
  6
Continuous
 62
     3
370
     9
100
AcDbLine
 10
-395.5866122137637
 20
192.2008321648577
 30
0.0
 11
-395.5866122137637
 21
287.2006507089879
 31
0.0
  0
LINE
  5
FF
330
1F
100
AcDbEntity
  8
B-2_蓋
  6
Continuous
 62
     3
370
     9
100
AcDbLine
 10
-411.1665616700559
 20
192.2008321648577
 30
0.0
 11
-411.1665616700559
 21
287.2006507089879
 31
0.0
  0
LINE
  5
100
330
1F
100
AcDbEntity
  8
B-2_蓋
  6
Continuous
 62
     3
370
     9
100
AcDbLine
 10
-408.166551772463
 20
192.2008321648577
 30
0.0
 11
-408.166551772463
 21
287.2006507089879
 31
0.0
  0
LINE
  5
101
330
1F
100
AcDbEntity
  8
B-2_蓋
  6
Continuous
 62
     3
370
     9
100
AcDbLine
 10
-423.7465012287552
 20
192.2008321648577
 30
0.0
 11
-423.7465012287552
 21
287.2006507089879
 31
0.0
  0
LINE
  5
102
330
1F
100
AcDbEntity
  8
B-2_蓋
  6
Continuous
 62
     3
370
     9
100
AcDbLine
 10
-420.7464913311624
 20
192.2008321648577
 30
0.0
 11
-420.7464913311624
 21
287.2006507089879
 31
0.0
  0
LINE
  5
103
330
1F
100
AcDbEntity
  8
B-2_蓋
  6
Continuous
 62
     3
370
     9
100
AcDbLine
 10
-436.3265892513481
 20
192.2008321648577
 30
0.0
 11
-436.3265892513481
 21
287.2006507089879
 31
0.0
  0
LINE
  5
104
330
1F
100
AcDbEntity
  8
B-2_蓋
  6
Continuous
 62
     3
370
     9
100
AcDbLine
 10
-433.3264308898616
 20
192.2008321648577
 30
0.0
 11
-433.3264308898616
 21
287.2006507089879
 31
0.0
  0
LINE
  5
105
330
1F
100
AcDbEntity
  8
B-2_蓋
  6
Continuous
 62
     3
370
     9
100
AcDbLine
 10
-448.9069742017282
 20
192.2008321648577
 30
0.0
 11
-448.9069742017282
 21
287.2006507089879
 31
0.0
  0
LINE
  5
106
330
1F
100
AcDbEntity
  8
B-2_蓋
  6
Continuous
 62
     3
370
     9
100
AcDbLine
 10
-445.9063704485609
 20
192.2008321648577
 30
0.0
 11
-445.9063704485609
 21
287.2006507089879
 31
0.0
  0
LINE
  5
107
330
1F
100
AcDbEntity
  8
B-2_蓋
  6
Continuous
 62
     3
370
     9
100
AcDbLine
 10
-461.4869137604275
 20
192.2008321648577
 30
0.0
 11
-461.4869137604275
 21
287.2006507089879
 31
0.0
  0
LINE
  5
108
330
1F
100
AcDbEntity
  8
B-2_蓋
  6
Continuous
 62
     3
370
     9
100
AcDbLine
 10
-458.4863100072603
 20
192.2008321648577
 30
0.0
 11
-458.4863100072603
 21
287.2006507089879
 31
0.0
  0
LINE
  5
109
330
1F
100
AcDbEntity
  8
B-2_蓋
  6
Continuous
 62
     3
370
     9
100
AcDbLine
 10
-474.0668533191269
 20
192.2008321648577
 30
0.0
 11
-474.0668533191269
 21
287.2006507089879
 31
0.0
  0
LINE
  5
10A
330
1F
100
AcDbEntity
  8
B-2_蓋
  6
Continuous
 62
     3
370
     9
100
AcDbLine
 10
-471.0662495659597
 20
192.2008321648577
 30
0.0
 11
-471.0662495659597
 21
287.2006507089879
 31
0.0
  0
LINE
  5
10B
330
1F
100
AcDbEntity
  8
B-2_蓋
  6
Continuous
 62
     3
370
     9
100
AcDbLine
 10
-486.6469413417198
 20
192.2008321648577
 30
0.0
 11
-486.6469413417198
 21
287.2006507089879
 31
0.0
  0
LINE
  5
10C
330
1F
100
AcDbEntity
  8
B-2_蓋
  6
Continuous
 62
     3
370
     9
100
AcDbLine
 10
-483.6467829802333
 20
192.2008321648577
 30
0.0
 11
-483.6467829802333
 21
287.2006507089879
 31
0.0
  0
LINE
  5
10D
330
1F
100
AcDbEntity
  8
B-2_蓋
  6
Continuous
 62
     3
370
     9
100
AcDbLine
 10
-499.2268809004191
 20
192.2008321648577
 30
0.0
 11
-499.2268809004191
 21
287.2006507089879
 31
0.0
  0
LINE
  5
10E
330
1F
100
AcDbEntity
  8
B-2_蓋
  6
Continuous
 62
     3
370
     9
100
AcDbLine
 10
-496.2267225389326
 20
192.2008321648577
 30
0.0
 11
-496.2267225389326
 21
287.2006507089879
 31
0.0
  0
LINE
  5
10F
330
1F
100
AcDbEntity
  8
B-2_蓋
  6
Continuous
 62
     3
370
     9
100
AcDbLine
 10
-511.8068204591185
 20
192.2008321648577
 30
0.0
 11
-511.8068204591185
 21
287.2006507089879
 31
0.0
  0
LINE
  5
110
330
1F
100
AcDbEntity
  8
B-2_蓋
  6
Continuous
 62
     3
370
     9
100
AcDbLine
 10
-508.806662097632
 20
192.2008321648577
 30
0.0
 11
-508.806662097632
 21
287.2006507089879
 31
0.0
  0
LINE
  5
111
330
1F
100
AcDbEntity
  8
B-2_蓋
  6
Continuous
 62
     3
370
     9
100
AcDbLine
 10
-524.3866115539241
 20
192.2008321648577
 30
0.0
 11
-524.3866115539241
 21
287.2006507089879
 31
0.0
  0
LINE
  5
112
330
1F
100
AcDbEntity
  8
B-2_蓋
  6
Continuous
 62
     3
370
     9
100
AcDbLine
 10
-521.3866016563313
 20
192.2008321648577
 30
0.0
 11
-521.3866016563313
 21
287.2006507089879
 31
0.0
  0
LINE
  5
113
330
1F
100
AcDbEntity
  8
B-2_蓋
  6
Continuous
 62
     3
370
     9
100
AcDbLine
 10
-536.9665511126234
 20
192.2008321648577
 30
0.0
 11
-536.9665511126234
 21
287.2006507089879
 31
0.0
  0
LINE
  5
114
330
1F
100
AcDbEntity
  8
B-2_蓋
  6
Continuous
 62
     3
370
     9
100
AcDbLine
 10
-533.9665412150306
 20
192.2008321648577
 30
0.0
 11
-533.9665412150306
 21
287.2006507089879
 31
0.0
  0
LINE
  5
115
330
1F
100
AcDbEntity
  8
B-2_蓋
  6
Continuous
 62
     3
370
     9
100
AcDbLine
 10
-549.5471216428706
 20
192.2008321648577
 30
0.0
 11
-549.5471216428706
 21
287.2006507089879
 31
0.0
  0
LINE
  5
116
330
1F
100
AcDbEntity
  8
B-2_蓋
  6
Continuous
 62
     3
370
     9
100
AcDbLine
 10
-546.546963281384
 20
192.2008321648577
 30
0.0
 11
-546.546963281384
 21
287.2006507089879
 31
0.0
  0
LINE
  5
117
330
1F
100
AcDbEntity
  8
B-2_蓋
  6
Continuous
 62
     3
370
     9
100
AcDbLine
 10
-562.126615809889
 20
192.2008321648577
 30
0.0
 11
-562.126615809889
 21
287.2006507089879
 31
0.0
  0
LINE
  5
118
330
1F
100
AcDbEntity
  8
B-2_蓋
  6
Continuous
 62
     3
370
     9
100
AcDbLine
 10
-559.1270513039769
 20
192.2008321648577
 30
0.0
 11
-559.1270513039769
 21
287.2006507089879
 31
0.0
  0
LINE
  5
119
330
1F
100
AcDbEntity
  8
B-2_蓋
  6
Continuous
 62
     3
370
     9
100
AcDbLine
 10
-574.7065553685884
 20
192.2008321648577
 30
0.0
 11
-574.7065553685884
 21
287.2006507089879
 31
0.0
  0
LINE
  5
11A
330
1F
100
AcDbEntity
  8
B-2_蓋
  6
Continuous
 62
     3
370
     9
100
AcDbLine
 10
-571.7069908626762
 20
192.2008321648577
 30
0.0
 11
-571.7069908626762
 21
287.2006507089879
 31
0.0
  0
LINE
  5
11B
330
1F
100
AcDbEntity
  8
B-2_蓋
  6
Continuous
 62
     3
370
     9
100
AcDbLine
 10
-587.2870887828622
 20
192.2008321648577
 30
0.0
 11
-587.2870887828622
 21
287.2006507089879
 31
0.0
  0
LINE
  5
11C
330
1F
100
AcDbEntity
  8
B-2_蓋
  6
Continuous
 62
     3
370
     9
100
AcDbLine
 10
-584.2869304213755
 20
192.2008321648577
 30
0.0
 11
-584.2869304213755
 21
287.2006507089879
 31
0.0
  0
LINE
  5
11D
330
1F
100
AcDbEntity
  8
B-2_蓋
  6
Continuous
 62
     3
370
     9
100
AcDbLine
 10
-599.8670283415615
 20
192.2008321648577
 30
0.0
 11
-599.8670283415615
 21
287.2006507089879
 31
0.0
  0
LINE
  5
11E
330
1F
100
AcDbEntity
  8
B-2_蓋
  6
Continuous
 62
     3
370
     9
100
AcDbLine
 10
-596.866869980075
 20
192.2008321648577
 30
0.0
 11
-596.866869980075
 21
287.2006507089879
 31
0.0
  0
LINE
  5
11F
330
1F
100
AcDbEntity
  8
B-2_蓋
  6
Continuous
 62
     3
370
     9
100
AcDbLine
 10
-612.4469679002607
 20
192.2008321648577
 30
0.0
 11
-612.4469679002607
 21
287.2006507089879
 31
0.0
  0
LINE
  5
120
330
1F
100
AcDbEntity
  8
B-2_蓋
  6
Continuous
 62
     3
370
     9
100
AcDbLine
 10
-609.4468095387742
 20
192.2008321648577
 30
0.0
 11
-609.4468095387742
 21
287.2006507089879
 31
0.0
  0
LINE
  5
121
330
1F
100
AcDbEntity
  8
B-2_蓋
  6
Continuous
 62
     3
370
     9
100
AcDbLine
 10
-622.2065388726003
 20
436.7006738033713
 30
0.0
 11
-622.2065388726003
 21
392.2008486608461
 31
0.0
  0
LINE
  5
122
330
1F
100
AcDbEntity
  8
B-2_蓋
  6
Continuous
 62
     3
370
     9
100
AcDbLine
 10
-622.2065388726003
 20
387.2008816528222
 30
0.0
 11
-622.2065388726003
 21
292.2012115725858
 31
0.0
  0
LINE
  5
123
330
1F
100
AcDbEntity
  8
B-2_蓋
  6
Continuous
 62
     3
370
     9
100
AcDbLine
 10
-235.2074519255457
 20
292.2012115725858
 30
0.0
 11
-235.2074519255457
 21
387.2008816528222
 31
0.0
  0
LINE
  5
124
330
1F
100
AcDbEntity
  8
B-2_蓋
  6
Continuous
 62
     3
370
     9
100
AcDbLine
 10
-235.2074519255457
 20
392.2008486608461
 30
0.0
 11
-235.2074519255457
 21
436.7006738033713
 31
0.0
  0
LINE
  5
125
330
1F
100
AcDbEntity
  8
B-2_蓋
  6
Continuous
 62
     3
370
     9
100
AcDbLine
 10
-247.6266050874968
 20
292.2012115725858
 30
0.0
 11
-247.6266050874968
 21
387.2008816528222
 31
0.0
  0
LINE
  5
126
330
1F
100
AcDbEntity
  8
B-2_蓋
  6
Continuous
 62
     3
370
     9
100
AcDbLine
 10
-244.6261497982231
 20
292.2012115725858
 30
0.0
 11
-244.6261497982231
 21
387.2008816528222
 31
0.0
  0
LINE
  5
127
330
1F
100
AcDbEntity
  8
B-2_蓋
  6
Continuous
 62
     3
370
     9
100
AcDbLine
 10
-247.6266050874968
 20
392.2008486608461
 30
0.0
 11
-247.6266050874968
 21
436.7006738033713
 31
0.0
  0
LINE
  5
128
330
1F
100
AcDbEntity
  8
B-2_蓋
  6
Continuous
 62
     3
370
     9
100
AcDbLine
 10
-244.6261497982231
 20
392.2008486608461
 30
0.0
 11
-244.6261497982231
 21
436.7006738033713
 31
0.0
  0
LINE
  5
129
330
1F
100
AcDbEntity
  8
B-2_蓋
  6
Continuous
 62
     3
370
     9
100
AcDbLine
 10
-260.2066931100896
 20
292.2012115725858
 30
0.0
 11
-260.2066931100896
 21
387.2008816528222
 31
0.0
  0
LINE
  5
12A
330
1F
100
AcDbEntity
  8
B-2_蓋
  6
Continuous
 62
     3
370
     9
100
AcDbLine
 10
-257.2060893569224
 20
292.2012115725858
 30
0.0
 11
-257.2060893569224
 21
387.2008816528222
 31
0.0
  0
LINE
  5
12B
330
1F
100
AcDbEntity
  8
B-2_蓋
  6
Continuous
 62
     3
370
     9
100
AcDbLine
 10
-260.2066931100896
 20
392.2008486608461
 30
0.0
 11
-260.2066931100896
 21
436.7006738033713
 31
0.0
  0
LINE
  5
12C
330
1F
100
AcDbEntity
  8
B-2_蓋
  6
Continuous
 62
     3
370
     9
100
AcDbLine
 10
-257.2060893569224
 20
392.2008486608461
 30
0.0
 11
-257.2060893569224
 21
436.7006738033713
 31
0.0
  0
LINE
  5
12D
330
1F
100
AcDbEntity
  8
B-2_蓋
  6
Continuous
 62
     3
370
     9
100
AcDbLine
 10
-272.786632668789
 20
292.2012115725858
 30
0.0
 11
-272.786632668789
 21
387.2008816528222
 31
0.0
  0
LINE
  5
12E
330
1F
100
AcDbEntity
  8
B-2_蓋
  6
Continuous
 62
     3
370
     9
100
AcDbLine
 10
-269.786622771196
 20
292.2012115725858
 30
0.0
 11
-269.786622771196
 21
387.2008816528222
 31
0.0
  0
LINE
  5
12F
330
1F
100
AcDbEntity
  8
B-2_蓋
  6
Continuous
 62
     3
370
     9
100
AcDbLine
 10
-272.786632668789
 20
392.2008486608461
 30
0.0
 11
-272.786632668789
 21
436.7006738033713
 31
0.0
  0
LINE
  5
130
330
1F
100
AcDbEntity
  8
B-2_蓋
  6
Continuous
 62
     3
370
     9
100
AcDbLine
 10
-269.786622771196
 20
392.2008486608461
 30
0.0
 11
-269.786622771196
 21
436.7006738033713
 31
0.0
  0
LINE
  5
131
330
1F
100
AcDbEntity
  8
B-2_蓋
  6
Continuous
 62
     3
370
     9
100
AcDbLine
 10
-285.3667206913819
 20
292.2012115725858
 30
0.0
 11
-285.3667206913819
 21
387.2008816528222
 31
0.0
  0
LINE
  5
132
330
1F
100
AcDbEntity
  8
B-2_蓋
  6
Continuous
 62
     3
370
     9
100
AcDbLine
 10
-282.3664138660018
 20
292.2012115725858
 30
0.0
 11
-282.3664138660018
 21
387.2008816528222
 31
0.0
  0
LINE
  5
133
330
1F
100
AcDbEntity
  8
B-2_蓋
  6
Continuous
 62
     3
370
     9
100
AcDbLine
 10
-285.3667206913819
 20
392.2008486608461
 30
0.0
 11
-285.3667206913819
 21
436.7006738033713
 31
0.0
  0
LINE
  5
134
330
1F
100
AcDbEntity
  8
B-2_蓋
  6
Continuous
 62
     3
370
     9
100
AcDbLine
 10
-282.3664138660018
 20
392.2008486608461
 30
0.0
 11
-282.3664138660018
 21
436.7006738033713
 31
0.0
  0
LINE
  5
135
330
1F
100
AcDbEntity
  8
B-2_蓋
  6
Continuous
 62
     3
370
     9
100
AcDbLine
 10
-297.9465117861876
 20
292.2012115725858
 30
0.0
 11
-297.9465117861876
 21
387.2008816528222
 31
0.0
  0
LINE
  5
136
330
1F
100
AcDbEntity
  8
B-2_蓋
  6
Continuous
 62
     3
370
     9
100
AcDbLine
 10
-294.9465018885948
 20
292.2012115725858
 30
0.0
 11
-294.9465018885948
 21
387.2008816528222
 31
0.0
  0
LINE
  5
137
330
1F
100
AcDbEntity
  8
B-2_蓋
  6
Continuous
 62
     3
370
     9
100
AcDbLine
 10
-297.9465117861876
 20
392.2008486608461
 30
0.0
 11
-297.9465117861876
 21
436.7006738033713
 31
0.0
  0
LINE
  5
138
330
1F
100
AcDbEntity
  8
B-2_蓋
  6
Continuous
 62
     3
370
     9
100
AcDbLine
 10
-294.9465018885948
 20
392.2008486608461
 30
0.0
 11
-294.9465018885948
 21
436.7006738033713
 31
0.0
  0
LINE
  5
139
330
1F
100
AcDbEntity
  8
B-2_蓋
  6
Continuous
 62
     3
370
     9
100
AcDbLine
 10
-310.5264513448869
 20
292.2012115725858
 30
0.0
 11
-310.5264513448869
 21
387.2008816528222
 31
0.0
  0
LINE
  5
13A
330
1F
100
AcDbEntity
  8
B-2_蓋
  6
Continuous
 62
     3
370
     9
100
AcDbLine
 10
-307.5264414472941
 20
292.2012115725858
 30
0.0
 11
-307.5264414472941
 21
387.2008816528222
 31
0.0
  0
LINE
  5
13B
330
1F
100
AcDbEntity
  8
B-2_蓋
  6
Continuous
 62
     3
370
     9
100
AcDbLine
 10
-310.5264513448869
 20
392.2008486608461
 30
0.0
 11
-310.5264513448869
 21
436.7006738033713
 31
0.0
  0
LINE
  5
13C
330
1F
100
AcDbEntity
  8
B-2_蓋
  6
Continuous
 62
     3
370
     9
100
AcDbLine
 10
-307.5264414472941
 20
392.2008486608461
 30
0.0
 11
-307.5264414472941
 21
436.7006738033713
 31
0.0
  0
LINE
  5
13D
330
1F
100
AcDbEntity
  8
B-2_蓋
  6
Continuous
 62
     3
370
     9
100
AcDbLine
 10
-323.1063909035863
 20
292.2012115725858
 30
0.0
 11
-323.1063909035863
 21
387.2008816528222
 31
0.0
  0
LINE
  5
13E
330
1F
100
AcDbEntity
  8
B-2_蓋
  6
Continuous
 62
     3
370
     9
100
AcDbLine
 10
-320.1063810059934
 20
292.2012115725858
 30
0.0
 11
-320.1063810059934
 21
387.2008816528222
 31
0.0
  0
LINE
  5
13F
330
1F
100
AcDbEntity
  8
B-2_蓋
  6
Continuous
 62
     3
370
     9
100
AcDbLine
 10
-323.1063909035863
 20
392.2008486608461
 30
0.0
 11
-323.1063909035863
 21
436.7006738033713
 31
0.0
  0
LINE
  5
140
330
1F
100
AcDbEntity
  8
B-2_蓋
  6
Continuous
 62
     3
370
     9
100
AcDbLine
 10
-320.1063810059934
 20
392.2008486608461
 30
0.0
 11
-320.1063810059934
 21
436.7006738033713
 31
0.0
  0
LINE
  5
141
330
1F
100
AcDbEntity
  8
B-2_蓋
  6
Continuous
 62
     3
370
     9
100
AcDbLine
 10
-335.6864789261792
 20
292.2012115725858
 30
0.0
 11
-335.6864789261792
 21
387.2008816528222
 31
0.0
  0
LINE
  5
142
330
1F
100
AcDbEntity
  8
B-2_蓋
  6
Continuous
 62
     3
370
     9
100
AcDbLine
 10
-332.6863205646927
 20
292.2012115725858
 30
0.0
 11
-332.6863205646927
 21
387.2008816528222
 31
0.0
  0
LINE
  5
143
330
1F
100
AcDbEntity
  8
B-2_蓋
  6
Continuous
 62
     3
370
     9
100
AcDbLine
 10
-335.6864789261792
 20
392.2008486608461
 30
0.0
 11
-335.6864789261792
 21
436.7006738033713
 31
0.0
  0
LINE
  5
144
330
1F
100
AcDbEntity
  8
B-2_蓋
  6
Continuous
 62
     3
370
     9
100
AcDbLine
 10
-332.6863205646927
 20
392.2008486608461
 30
0.0
 11
-332.6863205646927
 21
436.7006738033713
 31
0.0
  0
LINE
  5
145
330
1F
100
AcDbEntity
  8
B-2_蓋
  6
Continuous
 62
     3
370
     9
100
AcDbLine
 10
-348.2668638765593
 20
292.2012115725858
 30
0.0
 11
-348.2668638765593
 21
387.2008816528222
 31
0.0
  0
LINE
  5
146
330
1F
100
AcDbEntity
  8
B-2_蓋
  6
Continuous
 62
     3
370
     9
100
AcDbLine
 10
-345.2668539789664
 20
292.2012115725858
 30
0.0
 11
-345.2668539789664
 21
387.2008816528222
 31
0.0
  0
LINE
  5
147
330
1F
100
AcDbEntity
  8
B-2_蓋
  6
Continuous
 62
     3
370
     9
100
AcDbLine
 10
-348.2668638765593
 20
392.2008486608461
 30
0.0
 11
-348.2668638765593
 21
436.7006738033713
 31
0.0
  0
LINE
  5
148
330
1F
100
AcDbEntity
  8
B-2_蓋
  6
Continuous
 62
     3
370
     9
100
AcDbLine
 10
-345.2668539789664
 20
392.2008486608461
 30
0.0
 11
-345.2668539789664
 21
436.7006738033713
 31
0.0
  0
LINE
  5
149
330
1F
100
AcDbEntity
  8
B-2_蓋
  6
Continuous
 62
     3
370
     9
100
AcDbLine
 10
-360.8468034352587
 20
292.2012115725858
 30
0.0
 11
-360.8468034352587
 21
387.2008816528222
 31
0.0
  0
LINE
  5
14A
330
1F
100
AcDbEntity
  8
B-2_蓋
  6
Continuous
 62
     3
370
     9
100
AcDbLine
 10
-357.8467935376657
 20
292.2012115725858
 30
0.0
 11
-357.8467935376657
 21
387.2008816528222
 31
0.0
  0
LINE
  5
14B
330
1F
100
AcDbEntity
  8
B-2_蓋
  6
Continuous
 62
     3
370
     9
100
AcDbLine
 10
-360.8468034352587
 20
392.2008486608461
 30
0.0
 11
-360.8468034352587
 21
436.7006738033713
 31
0.0
  0
LINE
  5
14C
330
1F
100
AcDbEntity
  8
B-2_蓋
  6
Continuous
 62
     3
370
     9
100
AcDbLine
 10
-357.8467935376657
 20
392.2008486608461
 30
0.0
 11
-357.8467935376657
 21
436.7006738033713
 31
0.0
  0
LINE
  5
14D
330
1F
100
AcDbEntity
  8
B-2_蓋
  6
Continuous
 62
     3
370
     9
100
AcDbLine
 10
-373.4262976022771
 20
292.2012115725858
 30
0.0
 11
-373.4262976022771
 21
387.2008816528222
 31
0.0
  0
LINE
  5
14E
330
1F
100
AcDbEntity
  8
B-2_蓋
  6
Continuous
 62
     3
370
     9
100
AcDbLine
 10
-370.4267330963651
 20
292.2012115725858
 30
0.0
 11
-370.4267330963651
 21
387.2008816528222
 31
0.0
  0
LINE
  5
14F
330
1F
100
AcDbEntity
  8
B-2_蓋
  6
Continuous
 62
     3
370
     9
100
AcDbLine
 10
-373.4262976022771
 20
392.2008486608461
 30
0.0
 11
-373.4262976022771
 21
436.7006738033713
 31
0.0
  0
LINE
  5
150
330
1F
100
AcDbEntity
  8
B-2_蓋
  6
Continuous
 62
     3
370
     9
100
AcDbLine
 10
-370.4267330963651
 20
392.2008486608461
 30
0.0
 11
-370.4267330963651
 21
436.7006738033713
 31
0.0
  0
LINE
  5
151
330
1F
100
AcDbEntity
  8
B-2_蓋
  6
Continuous
 62
     3
370
     9
100
AcDbLine
 10
-386.0066825526573
 20
292.2012115725858
 30
0.0
 11
-386.0066825526573
 21
387.2008816528222
 31
0.0
  0
LINE
  5
152
330
1F
100
AcDbEntity
  8
B-2_蓋
  6
Continuous
 62
     3
370
     9
100
AcDbLine
 10
-383.0066726550643
 20
292.2012115725858
 30
0.0
 11
-383.0066726550643
 21
387.2008816528222
 31
0.0
  0
LINE
  5
153
330
1F
100
AcDbEntity
  8
B-2_蓋
  6
Continuous
 62
     3
370
     9
100
AcDbLine
 10
-386.0066825526573
 20
392.2008486608461
 30
0.0
 11
-386.0066825526573
 21
436.7006738033713
 31
0.0
  0
LINE
  5
154
330
1F
100
AcDbEntity
  8
B-2_蓋
  6
Continuous
 62
     3
370
     9
100
AcDbLine
 10
-383.0066726550643
 20
392.2008486608461
 30
0.0
 11
-383.0066726550643
 21
436.7006738033713
 31
0.0
  0
LINE
  5
155
330
1F
100
AcDbEntity
  8
B-2_蓋
  6
Continuous
 62
     3
370
     9
100
AcDbLine
 10
-398.5866221113566
 20
292.2012115725858
 30
0.0
 11
-398.5866221113566
 21
387.2008816528222
 31
0.0
  0
LINE
  5
156
330
1F
100
AcDbEntity
  8
B-2_蓋
  6
Continuous
 62
     3
370
     9
100
AcDbLine
 10
-395.5866122137637
 20
292.2012115725858
 30
0.0
 11
-395.5866122137637
 21
387.2008816528222
 31
0.0
  0
LINE
  5
157
330
1F
100
AcDbEntity
  8
B-2_蓋
  6
Continuous
 62
     3
370
     9
100
AcDbLine
 10
-398.5866221113566
 20
392.2008486608461
 30
0.0
 11
-398.5866221113566
 21
436.7006738033713
 31
0.0
  0
LINE
  5
158
330
1F
100
AcDbEntity
  8
B-2_蓋
  6
Continuous
 62
     3
370
     9
100
AcDbLine
 10
-395.5866122137637
 20
392.2008486608461
 30
0.0
 11
-395.5866122137637
 21
436.7006738033713
 31
0.0
  0
LINE
  5
159
330
1F
100
AcDbEntity
  8
B-2_蓋
  6
Continuous
 62
     3
370
     9
100
AcDbLine
 10
-411.1665616700559
 20
292.2012115725858
 30
0.0
 11
-411.1665616700559
 21
387.2008816528222
 31
0.0
  0
LINE
  5
15A
330
1F
100
AcDbEntity
  8
B-2_蓋
  6
Continuous
 62
     3
370
     9
100
AcDbLine
 10
-408.166551772463
 20
292.2012115725858
 30
0.0
 11
-408.166551772463
 21
387.2008816528222
 31
0.0
  0
LINE
  5
15B
330
1F
100
AcDbEntity
  8
B-2_蓋
  6
Continuous
 62
     3
370
     9
100
AcDbLine
 10
-411.1665616700559
 20
392.2008486608461
 30
0.0
 11
-411.1665616700559
 21
436.7006738033713
 31
0.0
  0
LINE
  5
15C
330
1F
100
AcDbEntity
  8
B-2_蓋
  6
Continuous
 62
     3
370
     9
100
AcDbLine
 10
-408.166551772463
 20
392.2008486608461
 30
0.0
 11
-408.166551772463
 21
436.7006738033713
 31
0.0
  0
LINE
  5
15D
330
1F
100
AcDbEntity
  8
B-2_蓋
  6
Continuous
 62
     3
370
     9
100
AcDbLine
 10
-423.7465012287552
 20
292.2012115725858
 30
0.0
 11
-423.7465012287552
 21
387.2008816528222
 31
0.0
  0
LINE
  5
15E
330
1F
100
AcDbEntity
  8
B-2_蓋
  6
Continuous
 62
     3
370
     9
100
AcDbLine
 10
-420.7464913311624
 20
292.2012115725858
 30
0.0
 11
-420.7464913311624
 21
387.2008816528222
 31
0.0
  0
LINE
  5
15F
330
1F
100
AcDbEntity
  8
B-2_蓋
  6
Continuous
 62
     3
370
     9
100
AcDbLine
 10
-423.7465012287552
 20
392.2008486608461
 30
0.0
 11
-423.7465012287552
 21
436.7006738033713
 31
0.0
  0
LINE
  5
160
330
1F
100
AcDbEntity
  8
B-2_蓋
  6
Continuous
 62
     3
370
     9
100
AcDbLine
 10
-420.7464913311624
 20
392.2008486608461
 30
0.0
 11
-420.7464913311624
 21
436.7006738033713
 31
0.0
  0
LINE
  5
161
330
1F
100
AcDbEntity
  8
B-2_蓋
  6
Continuous
 62
     3
370
     9
100
AcDbLine
 10
-436.3265892513481
 20
292.2012115725858
 30
0.0
 11
-436.3265892513481
 21
387.2008816528222
 31
0.0
  0
LINE
  5
162
330
1F
100
AcDbEntity
  8
B-2_蓋
  6
Continuous
 62
     3
370
     9
100
AcDbLine
 10
-433.3264308898616
 20
292.2012115725858
 30
0.0
 11
-433.3264308898616
 21
387.2008816528222
 31
0.0
  0
LINE
  5
163
330
1F
100
AcDbEntity
  8
B-2_蓋
  6
Continuous
 62
     3
370
     9
100
AcDbLine
 10
-436.3265892513481
 20
392.2008486608461
 30
0.0
 11
-436.3265892513481
 21
436.7006738033713
 31
0.0
  0
LINE
  5
164
330
1F
100
AcDbEntity
  8
B-2_蓋
  6
Continuous
 62
     3
370
     9
100
AcDbLine
 10
-433.3264308898616
 20
392.2008486608461
 30
0.0
 11
-433.3264308898616
 21
436.7006738033713
 31
0.0
  0
LINE
  5
165
330
1F
100
AcDbEntity
  8
B-2_蓋
  6
Continuous
 62
     3
370
     9
100
AcDbLine
 10
-448.9069742017282
 20
292.2012115725858
 30
0.0
 11
-448.9069742017282
 21
387.2008816528222
 31
0.0
  0
LINE
  5
166
330
1F
100
AcDbEntity
  8
B-2_蓋
  6
Continuous
 62
     3
370
     9
100
AcDbLine
 10
-445.9063704485609
 20
292.2012115725858
 30
0.0
 11
-445.9063704485609
 21
387.2008816528222
 31
0.0
  0
LINE
  5
167
330
1F
100
AcDbEntity
  8
B-2_蓋
  6
Continuous
 62
     3
370
     9
100
AcDbLine
 10
-448.9069742017282
 20
392.2008486608461
 30
0.0
 11
-448.9069742017282
 21
436.7006738033713
 31
0.0
  0
LINE
  5
168
330
1F
100
AcDbEntity
  8
B-2_蓋
  6
Continuous
 62
     3
370
     9
100
AcDbLine
 10
-445.9063704485609
 20
392.2008486608461
 30
0.0
 11
-445.9063704485609
 21
436.7006738033713
 31
0.0
  0
LINE
  5
169
330
1F
100
AcDbEntity
  8
B-2_蓋
  6
Continuous
 62
     3
370
     9
100
AcDbLine
 10
-461.4869137604275
 20
292.2012115725858
 30
0.0
 11
-461.4869137604275
 21
387.2008816528222
 31
0.0
  0
LINE
  5
16A
330
1F
100
AcDbEntity
  8
B-2_蓋
  6
Continuous
 62
     3
370
     9
100
AcDbLine
 10
-458.4863100072603
 20
292.2012115725858
 30
0.0
 11
-458.4863100072603
 21
387.2008816528222
 31
0.0
  0
LINE
  5
16B
330
1F
100
AcDbEntity
  8
B-2_蓋
  6
Continuous
 62
     3
370
     9
100
AcDbLine
 10
-461.4869137604275
 20
392.2008486608461
 30
0.0
 11
-461.4869137604275
 21
436.7006738033713
 31
0.0
  0
LINE
  5
16C
330
1F
100
AcDbEntity
  8
B-2_蓋
  6
Continuous
 62
     3
370
     9
100
AcDbLine
 10
-458.4863100072603
 20
392.2008486608461
 30
0.0
 11
-458.4863100072603
 21
436.7006738033713
 31
0.0
  0
LINE
  5
16D
330
1F
100
AcDbEntity
  8
B-2_蓋
  6
Continuous
 62
     3
370
     9
100
AcDbLine
 10
-474.0668533191269
 20
292.2012115725858
 30
0.0
 11
-474.0668533191269
 21
387.2008816528222
 31
0.0
  0
LINE
  5
16E
330
1F
100
AcDbEntity
  8
B-2_蓋
  6
Continuous
 62
     3
370
     9
100
AcDbLine
 10
-471.0662495659597
 20
292.2012115725858
 30
0.0
 11
-471.0662495659597
 21
387.2008816528222
 31
0.0
  0
LINE
  5
16F
330
1F
100
AcDbEntity
  8
B-2_蓋
  6
Continuous
 62
     3
370
     9
100
AcDbLine
 10
-474.0668533191269
 20
392.2008486608461
 30
0.0
 11
-474.0668533191269
 21
436.7006738033713
 31
0.0
  0
LINE
  5
170
330
1F
100
AcDbEntity
  8
B-2_蓋
  6
Continuous
 62
     3
370
     9
100
AcDbLine
 10
-471.0662495659597
 20
392.2008486608461
 30
0.0
 11
-471.0662495659597
 21
436.7006738033713
 31
0.0
  0
LINE
  5
171
330
1F
100
AcDbEntity
  8
B-2_蓋
  6
Continuous
 62
     3
370
     9
100
AcDbLine
 10
-486.6469413417198
 20
292.2012115725858
 30
0.0
 11
-486.6469413417198
 21
387.2008816528222
 31
0.0
  0
LINE
  5
172
330
1F
100
AcDbEntity
  8
B-2_蓋
  6
Continuous
 62
     3
370
     9
100
AcDbLine
 10
-483.6467829802333
 20
292.2012115725858
 30
0.0
 11
-483.6467829802333
 21
387.2008816528222
 31
0.0
  0
LINE
  5
173
330
1F
100
AcDbEntity
  8
B-2_蓋
  6
Continuous
 62
     3
370
     9
100
AcDbLine
 10
-486.6469413417198
 20
392.2008486608461
 30
0.0
 11
-486.6469413417198
 21
436.7006738033713
 31
0.0
  0
LINE
  5
174
330
1F
100
AcDbEntity
  8
B-2_蓋
  6
Continuous
 62
     3
370
     9
100
AcDbLine
 10
-483.6467829802333
 20
392.2008486608461
 30
0.0
 11
-483.6467829802333
 21
436.7006738033713
 31
0.0
  0
LINE
  5
175
330
1F
100
AcDbEntity
  8
B-2_蓋
  6
Continuous
 62
     3
370
     9
100
AcDbLine
 10
-499.2268809004191
 20
292.2012115725858
 30
0.0
 11
-499.2268809004191
 21
387.2008816528222
 31
0.0
  0
LINE
  5
176
330
1F
100
AcDbEntity
  8
B-2_蓋
  6
Continuous
 62
     3
370
     9
100
AcDbLine
 10
-496.2267225389326
 20
292.2012115725858
 30
0.0
 11
-496.2267225389326
 21
387.2008816528222
 31
0.0
  0
LINE
  5
177
330
1F
100
AcDbEntity
  8
B-2_蓋
  6
Continuous
 62
     3
370
     9
100
AcDbLine
 10
-499.2268809004191
 20
392.2008486608461
 30
0.0
 11
-499.2268809004191
 21
436.7006738033713
 31
0.0
  0
LINE
  5
178
330
1F
100
AcDbEntity
  8
B-2_蓋
  6
Continuous
 62
     3
370
     9
100
AcDbLine
 10
-496.2267225389326
 20
392.2008486608461
 30
0.0
 11
-496.2267225389326
 21
436.7006738033713
 31
0.0
  0
LINE
  5
179
330
1F
100
AcDbEntity
  8
B-2_蓋
  6
Continuous
 62
     3
370
     9
100
AcDbLine
 10
-511.8068204591185
 20
292.2012115725858
 30
0.0
 11
-511.8068204591185
 21
387.2008816528222
 31
0.0
  0
LINE
  5
17A
330
1F
100
AcDbEntity
  8
B-2_蓋
  6
Continuous
 62
     3
370
     9
100
AcDbLine
 10
-508.806662097632
 20
292.2012115725858
 30
0.0
 11
-508.806662097632
 21
387.2008816528222
 31
0.0
  0
LINE
  5
17B
330
1F
100
AcDbEntity
  8
B-2_蓋
  6
Continuous
 62
     3
370
     9
100
AcDbLine
 10
-511.8068204591185
 20
392.2008486608461
 30
0.0
 11
-511.8068204591185
 21
436.7006738033713
 31
0.0
  0
LINE
  5
17C
330
1F
100
AcDbEntity
  8
B-2_蓋
  6
Continuous
 62
     3
370
     9
100
AcDbLine
 10
-508.806662097632
 20
392.2008486608461
 30
0.0
 11
-508.806662097632
 21
436.7006738033713
 31
0.0
  0
LINE
  5
17D
330
1F
100
AcDbEntity
  8
B-2_蓋
  6
Continuous
 62
     3
370
     9
100
AcDbLine
 10
-524.3866115539241
 20
292.2012115725858
 30
0.0
 11
-524.3866115539241
 21
387.2008816528222
 31
0.0
  0
LINE
  5
17E
330
1F
100
AcDbEntity
  8
B-2_蓋
  6
Continuous
 62
     3
370
     9
100
AcDbLine
 10
-521.3866016563313
 20
292.2012115725858
 30
0.0
 11
-521.3866016563313
 21
387.2008816528222
 31
0.0
  0
LINE
  5
17F
330
1F
100
AcDbEntity
  8
B-2_蓋
  6
Continuous
 62
     3
370
     9
100
AcDbLine
 10
-524.3866115539241
 20
392.2008486608461
 30
0.0
 11
-524.3866115539241
 21
436.7006738033713
 31
0.0
  0
LINE
  5
180
330
1F
100
AcDbEntity
  8
B-2_蓋
  6
Continuous
 62
     3
370
     9
100
AcDbLine
 10
-521.3866016563313
 20
392.2008486608461
 30
0.0
 11
-521.3866016563313
 21
436.7006738033713
 31
0.0
  0
LINE
  5
181
330
1F
100
AcDbEntity
  8
B-2_蓋
  6
Continuous
 62
     3
370
     9
100
AcDbLine
 10
-536.9665511126234
 20
292.2012115725858
 30
0.0
 11
-536.9665511126234
 21
387.2008816528222
 31
0.0
  0
LINE
  5
182
330
1F
100
AcDbEntity
  8
B-2_蓋
  6
Continuous
 62
     3
370
     9
100
AcDbLine
 10
-533.9665412150306
 20
292.2012115725858
 30
0.0
 11
-533.9665412150306
 21
387.2008816528222
 31
0.0
  0
LINE
  5
183
330
1F
100
AcDbEntity
  8
B-2_蓋
  6
Continuous
 62
     3
370
     9
100
AcDbLine
 10
-536.9665511126234
 20
392.2008486608461
 30
0.0
 11
-536.9665511126234
 21
436.7006738033713
 31
0.0
  0
LINE
  5
184
330
1F
100
AcDbEntity
  8
B-2_蓋
  6
Continuous
 62
     3
370
     9
100
AcDbLine
 10
-533.9665412150306
 20
392.2008486608461
 30
0.0
 11
-533.9665412150306
 21
436.7006738033713
 31
0.0
  0
LINE
  5
185
330
1F
100
AcDbEntity
  8
B-2_蓋
  6
Continuous
 62
     3
370
     9
100
AcDbLine
 10
-549.5471216428706
 20
292.2012115725858
 30
0.0
 11
-549.5471216428706
 21
387.2008816528222
 31
0.0
  0
LINE
  5
186
330
1F
100
AcDbEntity
  8
B-2_蓋
  6
Continuous
 62
     3
370
     9
100
AcDbLine
 10
-546.546963281384
 20
292.2012115725858
 30
0.0
 11
-546.546963281384
 21
387.2008816528222
 31
0.0
  0
LINE
  5
187
330
1F
100
AcDbEntity
  8
B-2_蓋
  6
Continuous
 62
     3
370
     9
100
AcDbLine
 10
-549.5471216428706
 20
392.2008486608461
 30
0.0
 11
-549.5471216428706
 21
436.7006738033713
 31
0.0
  0
LINE
  5
188
330
1F
100
AcDbEntity
  8
B-2_蓋
  6
Continuous
 62
     3
370
     9
100
AcDbLine
 10
-546.546963281384
 20
392.2008486608461
 30
0.0
 11
-546.546963281384
 21
436.7006738033713
 31
0.0
  0
LINE
  5
189
330
1F
100
AcDbEntity
  8
B-2_蓋
  6
Continuous
 62
     3
370
     9
100
AcDbLine
 10
-562.126615809889
 20
292.2012115725858
 30
0.0
 11
-562.126615809889
 21
387.2008816528222
 31
0.0
  0
LINE
  5
18A
330
1F
100
AcDbEntity
  8
B-2_蓋
  6
Continuous
 62
     3
370
     9
100
AcDbLine
 10
-559.1270513039769
 20
292.2012115725858
 30
0.0
 11
-559.1270513039769
 21
387.2008816528222
 31
0.0
  0
LINE
  5
18B
330
1F
100
AcDbEntity
  8
B-2_蓋
  6
Continuous
 62
     3
370
     9
100
AcDbLine
 10
-562.126615809889
 20
392.2008486608461
 30
0.0
 11
-562.126615809889
 21
436.7006738033713
 31
0.0
  0
LINE
  5
18C
330
1F
100
AcDbEntity
  8
B-2_蓋
  6
Continuous
 62
     3
370
     9
100
AcDbLine
 10
-559.1270513039769
 20
392.2008486608461
 30
0.0
 11
-559.1270513039769
 21
436.7006738033713
 31
0.0
  0
LINE
  5
18D
330
1F
100
AcDbEntity
  8
B-2_蓋
  6
Continuous
 62
     3
370
     9
100
AcDbLine
 10
-574.7065553685884
 20
292.2012115725858
 30
0.0
 11
-574.7065553685884
 21
387.2008816528222
 31
0.0
  0
LINE
  5
18E
330
1F
100
AcDbEntity
  8
B-2_蓋
  6
Continuous
 62
     3
370
     9
100
AcDbLine
 10
-571.7069908626762
 20
292.2012115725858
 30
0.0
 11
-571.7069908626762
 21
387.2008816528222
 31
0.0
  0
LINE
  5
18F
330
1F
100
AcDbEntity
  8
B-2_蓋
  6
Continuous
 62
     3
370
     9
100
AcDbLine
 10
-574.7065553685884
 20
392.2008486608461
 30
0.0
 11
-574.7065553685884
 21
436.7006738033713
 31
0.0
  0
LINE
  5
190
330
1F
100
AcDbEntity
  8
B-2_蓋
  6
Continuous
 62
     3
370
     9
100
AcDbLine
 10
-571.7069908626762
 20
392.2008486608461
 30
0.0
 11
-571.7069908626762
 21
436.7006738033713
 31
0.0
  0
LINE
  5
191
330
1F
100
AcDbEntity
  8
B-2_蓋
  6
Continuous
 62
     3
370
     9
100
AcDbLine
 10
-587.2870887828622
 20
292.2012115725858
 30
0.0
 11
-587.2870887828622
 21
387.2008816528222
 31
0.0
  0
LINE
  5
192
330
1F
100
AcDbEntity
  8
B-2_蓋
  6
Continuous
 62
     3
370
     9
100
AcDbLine
 10
-584.2869304213755
 20
292.2012115725858
 30
0.0
 11
-584.2869304213755
 21
387.2008816528222
 31
0.0
  0
LINE
  5
193
330
1F
100
AcDbEntity
  8
B-2_蓋
  6
Continuous
 62
     3
370
     9
100
AcDbLine
 10
-587.2870887828622
 20
392.2008486608461
 30
0.0
 11
-587.2870887828622
 21
436.7006738033713
 31
0.0
  0
LINE
  5
194
330
1F
100
AcDbEntity
  8
B-2_蓋
  6
Continuous
 62
     3
370
     9
100
AcDbLine
 10
-584.2869304213755
 20
392.2008486608461
 30
0.0
 11
-584.2869304213755
 21
436.7006738033713
 31
0.0
  0
LINE
  5
195
330
1F
100
AcDbEntity
  8
B-2_蓋
  6
Continuous
 62
     3
370
     9
100
AcDbLine
 10
-599.8670283415615
 20
292.2012115725858
 30
0.0
 11
-599.8670283415615
 21
387.2008816528222
 31
0.0
  0
LINE
  5
196
330
1F
100
AcDbEntity
  8
B-2_蓋
  6
Continuous
 62
     3
370
     9
100
AcDbLine
 10
-596.866869980075
 20
292.2012115725858
 30
0.0
 11
-596.866869980075
 21
387.2008816528222
 31
0.0
  0
LINE
  5
197
330
1F
100
AcDbEntity
  8
B-2_蓋
  6
Continuous
 62
     3
370
     9
100
AcDbLine
 10
-599.8670283415615
 20
392.2008486608461
 30
0.0
 11
-599.8670283415615
 21
436.7006738033713
 31
0.0
  0
LINE
  5
198
330
1F
100
AcDbEntity
  8
B-2_蓋
  6
Continuous
 62
     3
370
     9
100
AcDbLine
 10
-596.866869980075
 20
392.2008486608461
 30
0.0
 11
-596.866869980075
 21
436.7006738033713
 31
0.0
  0
LINE
  5
199
330
1F
100
AcDbEntity
  8
B-2_蓋
  6
Continuous
 62
     3
370
     9
100
AcDbLine
 10
-612.4469679002607
 20
292.2012115725858
 30
0.0
 11
-612.4469679002607
 21
387.2008816528222
 31
0.0
  0
LINE
  5
19A
330
1F
100
AcDbEntity
  8
B-2_蓋
  6
Continuous
 62
     3
370
     9
100
AcDbLine
 10
-609.4468095387742
 20
292.2012115725858
 30
0.0
 11
-609.4468095387742
 21
387.2008816528222
 31
0.0
  0
LINE
  5
19B
330
1F
100
AcDbEntity
  8
B-2_蓋
  6
Continuous
 62
     3
370
     9
100
AcDbLine
 10
-612.4469679002607
 20
392.2008486608461
 30
0.0
 11
-612.4469679002607
 21
436.7006738033713
 31
0.0
  0
LINE
  5
19C
330
1F
100
AcDbEntity
  8
B-2_蓋
  6
Continuous
 62
     3
370
     9
100
AcDbLine
 10
-609.4468095387742
 20
392.2008486608461
 30
0.0
 11
-609.4468095387742
 21
436.7006738033713
 31
0.0
  0
LINE
  5
19D
330
1F
100
AcDbEntity
  8
B-1_ピット
  6
Continuous
 62
     2
370
     9
100
AcDbLine
 10
-638.7072985128557
 20
449.7010631086923
 30
0.0
 11
-638.7072985128557
 21
29.70168170824881
 31
0.0
  0
LINE
  5
19E
330
1F
100
AcDbEntity
  8
B-1_ピット
  6
Continuous
 62
     2
370
     9
100
AcDbLine
 10
-632.7074271815636
 20
443.7007463857194
 30
0.0
 11
-632.7074271815636
 21
35.70184996732817
 31
0.0
  0
LINE
  5
19F
330
1F
100
AcDbEntity
  8
B-2_蓋
  6
Continuous
 62
     3
370
     9
100
AcDbLine
 10
-625.2071426257675
 20
39.70124456456208
 30
0.0
 11
-625.2071426257675
 21
439.7014260204321
 31
0.0
  0
LINE
  5
1A0
330
1F
100
AcDbEntity
  8
B-2_蓋
  6
Continuous
 62
     3
370
     9
100
AcDbLine
 10
-622.2065388726003
 20
92.20097238075724
 30
0.0
 11
-622.2065388726003
 21
187.2010136207277
 31
0.0
  0
LINE
  5
1A1
330
1F
100
AcDbEntity
  8
B-2_蓋
  6
Continuous
 62
     3
370
     9
100
AcDbLine
 10
-574.7065553685884
 20
187.2010136207277
 30
0.0
 11
-574.7065553685884
 21
92.20097238075724
 31
0.0
  0
LINE
  5
1A2
330
1F
100
AcDbEntity
  8
B-2_蓋
  6
Continuous
 62
     3
370
     9
100
AcDbLine
 10
-571.7069908626762
 20
187.2010136207277
 30
0.0
 11
-571.7069908626762
 21
92.20097238075724
 31
0.0
  0
LINE
  5
1A3
330
1F
100
AcDbEntity
  8
B-2_蓋
  6
Continuous
 62
     3
370
     9
100
AcDbLine
 10
-587.2870887828622
 20
187.2010136207277
 30
0.0
 11
-587.2870887828622
 21
92.20097238075724
 31
0.0
  0
LINE
  5
1A4
330
1F
100
AcDbEntity
  8
B-2_蓋
  6
Continuous
 62
     3
370
     9
100
AcDbLine
 10
-584.2869304213755
 20
187.2010136207277
 30
0.0
 11
-584.2869304213755
 21
92.20097238075724
 31
0.0
  0
LINE
  5
1A5
330
1F
100
AcDbEntity
  8
B-2_蓋
  6
Continuous
 62
     3
370
     9
100
AcDbLine
 10
-599.8670283415615
 20
187.2010136207277
 30
0.0
 11
-599.8670283415615
 21
92.20097238075724
 31
0.0
  0
LINE
  5
1A6
330
1F
100
AcDbEntity
  8
B-2_蓋
  6
Continuous
 62
     3
370
     9
100
AcDbLine
 10
-596.866869980075
 20
187.2010136207277
 30
0.0
 11
-596.866869980075
 21
92.20097238075724
 31
0.0
  0
LINE
  5
1A7
330
1F
100
AcDbEntity
  8
B-2_蓋
  6
Continuous
 62
     3
370
     9
100
AcDbLine
 10
-612.4469679002607
 20
187.2010136207277
 30
0.0
 11
-612.4469679002607
 21
92.20097238075724
 31
0.0
  0
LINE
  5
1A8
330
1F
100
AcDbEntity
  8
B-2_蓋
  6
Continuous
 62
     3
370
     9
100
AcDbLine
 10
-609.4468095387742
 20
187.2010136207277
 30
0.0
 11
-609.4468095387742
 21
92.20097238075724
 31
0.0
  0
LINE
  5
1A9
330
1F
100
AcDbEntity
  8
B-2_蓋
  6
Continuous
 62
     3
370
     9
100
AcDbLine
 10
-423.7465012287552
 20
187.2010136207277
 30
0.0
 11
-423.7465012287552
 21
92.20097238075724
 31
0.0
  0
LINE
  5
1AA
330
1F
100
AcDbEntity
  8
B-2_蓋
  6
Continuous
 62
     3
370
     9
100
AcDbLine
 10
-436.3265892513481
 20
187.2010136207277
 30
0.0
 11
-436.3265892513481
 21
92.20097238075724
 31
0.0
  0
LINE
  5
1AB
330
1F
100
AcDbEntity
  8
B-2_蓋
  6
Continuous
 62
     3
370
     9
100
AcDbLine
 10
-433.3264308898616
 20
187.2010136207277
 30
0.0
 11
-433.3264308898616
 21
92.20097238075724
 31
0.0
  0
LINE
  5
1AC
330
1F
100
AcDbEntity
  8
B-2_蓋
  6
Continuous
 62
     3
370
     9
100
AcDbLine
 10
-448.9069742017282
 20
187.2010136207277
 30
0.0
 11
-448.9069742017282
 21
92.20097238075724
 31
0.0
  0
LINE
  5
1AD
330
1F
100
AcDbEntity
  8
B-2_蓋
  6
Continuous
 62
     3
370
     9
100
AcDbLine
 10
-445.9063704485609
 20
187.2010136207277
 30
0.0
 11
-445.9063704485609
 21
92.20097238075724
 31
0.0
  0
LINE
  5
1AE
330
1F
100
AcDbEntity
  8
B-2_蓋
  6
Continuous
 62
     3
370
     9
100
AcDbLine
 10
-461.4869137604275
 20
187.2010136207277
 30
0.0
 11
-461.4869137604275
 21
92.20097238075724
 31
0.0
  0
LINE
  5
1AF
330
1F
100
AcDbEntity
  8
B-2_蓋
  6
Continuous
 62
     3
370
     9
100
AcDbLine
 10
-458.4863100072603
 20
187.2010136207277
 30
0.0
 11
-458.4863100072603
 21
92.20097238075724
 31
0.0
  0
LINE
  5
1B0
330
1F
100
AcDbEntity
  8
B-2_蓋
  6
Continuous
 62
     3
370
     9
100
AcDbLine
 10
-474.0668533191269
 20
187.2010136207277
 30
0.0
 11
-474.0668533191269
 21
92.20097238075724
 31
0.0
  0
LINE
  5
1B1
330
1F
100
AcDbEntity
  8
B-2_蓋
  6
Continuous
 62
     3
370
     9
100
AcDbLine
 10
-471.0662495659597
 20
187.2010136207277
 30
0.0
 11
-471.0662495659597
 21
92.20097238075724
 31
0.0
  0
LINE
  5
1B2
330
1F
100
AcDbEntity
  8
B-2_蓋
  6
Continuous
 62
     3
370
     9
100
AcDbLine
 10
-486.6469413417198
 20
187.2010136207277
 30
0.0
 11
-486.6469413417198
 21
92.20097238075724
 31
0.0
  0
LINE
  5
1B3
330
1F
100
AcDbEntity
  8
B-2_蓋
  6
Continuous
 62
     3
370
     9
100
AcDbLine
 10
-483.6467829802333
 20
187.2010136207277
 30
0.0
 11
-483.6467829802333
 21
92.20097238075724
 31
0.0
  0
LINE
  5
1B4
330
1F
100
AcDbEntity
  8
B-2_蓋
  6
Continuous
 62
     3
370
     9
100
AcDbLine
 10
-499.2268809004191
 20
187.2010136207277
 30
0.0
 11
-499.2268809004191
 21
92.20097238075724
 31
0.0
  0
LINE
  5
1B5
330
1F
100
AcDbEntity
  8
B-2_蓋
  6
Continuous
 62
     3
370
     9
100
AcDbLine
 10
-496.2267225389326
 20
187.2010136207277
 30
0.0
 11
-496.2267225389326
 21
92.20097238075724
 31
0.0
  0
LINE
  5
1B6
330
1F
100
AcDbEntity
  8
B-2_蓋
  6
Continuous
 62
     3
370
     9
100
AcDbLine
 10
-511.8068204591185
 20
187.2010136207277
 30
0.0
 11
-511.8068204591185
 21
92.20097238075724
 31
0.0
  0
LINE
  5
1B7
330
1F
100
AcDbEntity
  8
B-2_蓋
  6
Continuous
 62
     3
370
     9
100
AcDbLine
 10
-508.806662097632
 20
187.2010136207277
 30
0.0
 11
-508.806662097632
 21
92.20097238075724
 31
0.0
  0
LINE
  5
1B8
330
1F
100
AcDbEntity
  8
B-2_蓋
  6
Continuous
 62
     3
370
     9
100
AcDbLine
 10
-524.3866115539241
 20
187.2010136207277
 30
0.0
 11
-524.3866115539241
 21
92.20097238075724
 31
0.0
  0
LINE
  5
1B9
330
1F
100
AcDbEntity
  8
B-2_蓋
  6
Continuous
 62
     3
370
     9
100
AcDbLine
 10
-521.3866016563313
 20
187.2010136207277
 30
0.0
 11
-521.3866016563313
 21
92.20097238075724
 31
0.0
  0
LINE
  5
1BA
330
1F
100
AcDbEntity
  8
B-2_蓋
  6
Continuous
 62
     3
370
     9
100
AcDbLine
 10
-536.9665511126234
 20
187.2010136207277
 30
0.0
 11
-536.9665511126234
 21
92.20097238075724
 31
0.0
  0
LINE
  5
1BB
330
1F
100
AcDbEntity
  8
B-2_蓋
  6
Continuous
 62
     3
370
     9
100
AcDbLine
 10
-533.9665412150306
 20
187.2010136207277
 30
0.0
 11
-533.9665412150306
 21
92.20097238075724
 31
0.0
  0
LINE
  5
1BC
330
1F
100
AcDbEntity
  8
B-2_蓋
  6
Continuous
 62
     3
370
     9
100
AcDbLine
 10
-549.5471216428706
 20
187.2010136207277
 30
0.0
 11
-549.5471216428706
 21
92.20097238075724
 31
0.0
  0
LINE
  5
1BD
330
1F
100
AcDbEntity
  8
B-2_蓋
  6
Continuous
 62
     3
370
     9
100
AcDbLine
 10
-546.546963281384
 20
187.2010136207277
 30
0.0
 11
-546.546963281384
 21
92.20097238075724
 31
0.0
  0
LINE
  5
1BE
330
1F
100
AcDbEntity
  8
B-2_蓋
  6
Continuous
 62
     3
370
     9
100
AcDbLine
 10
-562.126615809889
 20
187.2010136207277
 30
0.0
 11
-562.126615809889
 21
92.20097238075724
 31
0.0
  0
LINE
  5
1BF
330
1F
100
AcDbEntity
  8
B-2_蓋
  6
Continuous
 62
     3
370
     9
100
AcDbLine
 10
-559.1270513039769
 20
187.2010136207277
 30
0.0
 11
-559.1270513039769
 21
92.20097238075724
 31
0.0
  0
LINE
  5
1C0
330
1F
100
AcDbEntity
  8
B-2_蓋
  6
Continuous
 62
     3
370
     9
100
AcDbLine
 10
-348.2668638765593
 20
187.2010136207277
 30
0.0
 11
-348.2668638765593
 21
92.20097238075724
 31
0.0
  0
LINE
  5
1C1
330
1F
100
AcDbEntity
  8
B-2_蓋
  6
Continuous
 62
     3
370
     9
100
AcDbLine
 10
-360.8468034352587
 20
187.2010136207277
 30
0.0
 11
-360.8468034352587
 21
92.20097238075724
 31
0.0
  0
LINE
  5
1C2
330
1F
100
AcDbEntity
  8
B-2_蓋
  6
Continuous
 62
     3
370
     9
100
AcDbLine
 10
-357.8467935376657
 20
187.2010136207277
 30
0.0
 11
-357.8467935376657
 21
92.20097238075724
 31
0.0
  0
LINE
  5
1C3
330
1F
100
AcDbEntity
  8
B-2_蓋
  6
Continuous
 62
     3
370
     9
100
AcDbLine
 10
-373.4262976022771
 20
187.2010136207277
 30
0.0
 11
-373.4262976022771
 21
92.20097238075724
 31
0.0
  0
LINE
  5
1C4
330
1F
100
AcDbEntity
  8
B-2_蓋
  6
Continuous
 62
     3
370
     9
100
AcDbLine
 10
-370.4267330963651
 20
187.2010136207277
 30
0.0
 11
-370.4267330963651
 21
92.20097238075724
 31
0.0
  0
LINE
  5
1C5
330
1F
100
AcDbEntity
  8
B-2_蓋
  6
Continuous
 62
     3
370
     9
100
AcDbLine
 10
-386.0066825526573
 20
187.2010136207277
 30
0.0
 11
-386.0066825526573
 21
92.20097238075724
 31
0.0
  0
LINE
  5
1C6
330
1F
100
AcDbEntity
  8
B-2_蓋
  6
Continuous
 62
     3
370
     9
100
AcDbLine
 10
-383.0066726550643
 20
187.2010136207277
 30
0.0
 11
-383.0066726550643
 21
92.20097238075724
 31
0.0
  0
LINE
  5
1C7
330
1F
100
AcDbEntity
  8
B-2_蓋
  6
Continuous
 62
     3
370
     9
100
AcDbLine
 10
-398.5866221113566
 20
187.2010136207277
 30
0.0
 11
-398.5866221113566
 21
92.20097238075724
 31
0.0
  0
LINE
  5
1C8
330
1F
100
AcDbEntity
  8
B-2_蓋
  6
Continuous
 62
     3
370
     9
100
AcDbLine
 10
-395.5866122137637
 20
187.2010136207277
 30
0.0
 11
-395.5866122137637
 21
92.20097238075724
 31
0.0
  0
LINE
  5
1C9
330
1F
100
AcDbEntity
  8
B-2_蓋
  6
Continuous
 62
     3
370
     9
100
AcDbLine
 10
-411.1665616700559
 20
187.2010136207277
 30
0.0
 11
-411.1665616700559
 21
92.20097238075724
 31
0.0
  0
LINE
  5
1CA
330
1F
100
AcDbEntity
  8
B-2_蓋
  6
Continuous
 62
     3
370
     9
100
AcDbLine
 10
-408.166551772463
 20
187.2010136207277
 30
0.0
 11
-408.166551772463
 21
92.20097238075724
 31
0.0
  0
LINE
  5
1CB
330
1F
100
AcDbEntity
  8
B-2_蓋
  6
Continuous
 62
     3
370
     9
100
AcDbLine
 10
-420.7464913311624
 20
187.2010136207277
 30
0.0
 11
-420.7464913311624
 21
92.20097238075724
 31
0.0
  0
LINE
  5
1CC
330
1F
100
AcDbEntity
  8
B-2_蓋
  6
Continuous
 62
     3
370
     9
100
AcDbLine
 10
-297.9465117861876
 20
187.2010136207277
 30
0.0
 11
-297.9465117861876
 21
92.20097238075724
 31
0.0
  0
LINE
  5
1CD
330
1F
100
AcDbEntity
  8
B-2_蓋
  6
Continuous
 62
     3
370
     9
100
AcDbLine
 10
-294.9465018885948
 20
187.2010136207277
 30
0.0
 11
-294.9465018885948
 21
92.20097238075724
 31
0.0
  0
LINE
  5
1CE
330
1F
100
AcDbEntity
  8
B-2_蓋
  6
Continuous
 62
     3
370
     9
100
AcDbLine
 10
-310.5264513448869
 20
187.2010136207277
 30
0.0
 11
-310.5264513448869
 21
92.20097238075724
 31
0.0
  0
LINE
  5
1CF
330
1F
100
AcDbEntity
  8
B-2_蓋
  6
Continuous
 62
     3
370
     9
100
AcDbLine
 10
-307.5264414472941
 20
187.2010136207277
 30
0.0
 11
-307.5264414472941
 21
92.20097238075724
 31
0.0
  0
LINE
  5
1D0
330
1F
100
AcDbEntity
  8
B-2_蓋
  6
Continuous
 62
     3
370
     9
100
AcDbLine
 10
-323.1063909035863
 20
187.2010136207277
 30
0.0
 11
-323.1063909035863
 21
92.20097238075724
 31
0.0
  0
LINE
  5
1D1
330
1F
100
AcDbEntity
  8
B-2_蓋
  6
Continuous
 62
     3
370
     9
100
AcDbLine
 10
-320.1063810059934
 20
187.2010136207277
 30
0.0
 11
-320.1063810059934
 21
92.20097238075724
 31
0.0
  0
LINE
  5
1D2
330
1F
100
AcDbEntity
  8
B-2_蓋
  6
Continuous
 62
     3
370
     9
100
AcDbLine
 10
-335.6864789261792
 20
187.2010136207277
 30
0.0
 11
-335.6864789261792
 21
92.20097238075724
 31
0.0
  0
LINE
  5
1D3
330
1F
100
AcDbEntity
  8
B-2_蓋
  6
Continuous
 62
     3
370
     9
100
AcDbLine
 10
-332.6863205646927
 20
187.2010136207277
 30
0.0
 11
-332.6863205646927
 21
92.20097238075724
 31
0.0
  0
LINE
  5
1D4
330
1F
100
AcDbEntity
  8
B-2_蓋
  6
Continuous
 62
     3
370
     9
100
AcDbLine
 10
-345.2668539789664
 20
187.2010136207277
 30
0.0
 11
-345.2668539789664
 21
92.20097238075724
 31
0.0
  0
LINE
  5
1D5
330
1F
100
AcDbEntity
  8
B-1_ピット
  6
Continuous
 62
     2
370
     9
100
AcDbLine
 10
-218.706952097104
 20
449.7010631086923
 30
0.0
 11
-218.706952097104
 21
29.70168170824881
 31
0.0
  0
LINE
  5
1D6
330
1F
100
AcDbEntity
  8
B-1_ピット
  6
Continuous
 62
     2
370
     9
100
AcDbLine
 10
-224.707268820077
 20
443.7007463857194
 30
0.0
 11
-224.707268820077
 21
35.70184996732817
 31
0.0
  0
LINE
  5
1D7
330
1F
100
AcDbEntity
  8
B-2_蓋
  6
Continuous
 62
     3
370
     9
100
AcDbLine
 10
-235.2074519255457
 20
187.2010136207277
 30
0.0
 11
-235.2074519255457
 21
92.20097238075724
 31
0.0
  0
LINE
  5
1D8
330
1F
100
AcDbEntity
  8
B-2_蓋
  6
Continuous
 62
     3
370
     9
100
AcDbLine
 10
-247.6266050874968
 20
187.2010136207277
 30
0.0
 11
-247.6266050874968
 21
92.20097238075724
 31
0.0
  0
LINE
  5
1D9
330
1F
100
AcDbEntity
  8
B-2_蓋
  6
Continuous
 62
     3
370
     9
100
AcDbLine
 10
-244.6261497982231
 20
187.2010136207277
 30
0.0
 11
-244.6261497982231
 21
92.20097238075724
 31
0.0
  0
LINE
  5
1DA
330
1F
100
AcDbEntity
  8
B-2_蓋
  6
Continuous
 62
     3
370
     9
100
AcDbLine
 10
-260.2066931100896
 20
187.2010136207277
 30
0.0
 11
-260.2066931100896
 21
92.20097238075724
 31
0.0
  0
LINE
  5
1DB
330
1F
100
AcDbEntity
  8
B-2_蓋
  6
Continuous
 62
     3
370
     9
100
AcDbLine
 10
-257.2060893569224
 20
187.2010136207277
 30
0.0
 11
-257.2060893569224
 21
92.20097238075724
 31
0.0
  0
LINE
  5
1DC
330
1F
100
AcDbEntity
  8
B-2_蓋
  6
Continuous
 62
     3
370
     9
100
AcDbLine
 10
-272.786632668789
 20
187.2010136207277
 30
0.0
 11
-272.786632668789
 21
92.20097238075724
 31
0.0
  0
LINE
  5
1DD
330
1F
100
AcDbEntity
  8
B-2_蓋
  6
Continuous
 62
     3
370
     9
100
AcDbLine
 10
-269.786622771196
 20
187.2010136207277
 30
0.0
 11
-269.786622771196
 21
92.20097238075724
 31
0.0
  0
LINE
  5
1DE
330
1F
100
AcDbEntity
  8
B-2_蓋
  6
Continuous
 62
     3
370
     9
100
AcDbLine
 10
-285.3667206913819
 20
187.2010136207277
 30
0.0
 11
-285.3667206913819
 21
92.20097238075724
 31
0.0
  0
LINE
  5
1DF
330
1F
100
AcDbEntity
  8
B-2_蓋
  6
Continuous
 62
     3
370
     9
100
AcDbLine
 10
-282.3664138660018
 20
187.2010136207277
 30
0.0
 11
-282.3664138660018
 21
92.20097238075724
 31
0.0
  0
LINE
  5
1E0
330
1F
100
AcDbEntity
  8
B-2_蓋
  6
Continuous
 62
     3
370
     9
100
AcDbLine
 10
-232.2071451001657
 20
39.70124456456208
 30
0.0
 11
-625.2071426257675
 21
39.70124456456208
 31
0.0
  0
LINE
  5
1E1
330
1F
100
AcDbEntity
  8
B-2_蓋
  6
Continuous
 62
     3
370
     9
100
AcDbLine
 10
-625.2071426257675
 20
439.7014260204321
 30
0.0
 11
-232.2071451001657
 21
439.7014260204321
 31
0.0
  0
LINE
  5
1E2
330
1F
100
AcDbEntity
  8
B-2_蓋
  6
Continuous
 62
     3
370
     9
100
AcDbLine
 10
-232.3682284247012
 20
42.70132869410176
 30
0.0
 11
-625.2071426257675
 21
42.70132869410176
 31
0.0
  0
LINE
  5
1E3
330
1F
100
AcDbEntity
  8
B-1_ピット
  6
JWW_DASHED3
 62
     2
370
     9
100
AcDbLine
 10
-278.7067788892282
 20
89.70098887674536
 30
0.0
 11
-578.7072490248911
 21
89.70098887674536
 31
0.0
  0
LINE
  5
1E4
330
1F
100
AcDbEntity
  8
B-2_蓋
  6
Continuous
 62
     3
370
     9
100
AcDbLine
 10
-625.2071426257675
 20
436.7018615145199
 30
0.0
 11
-232.2071451001657
 21
436.7018615145199
 31
0.0
  0
LINE
  5
1E5
330
1F
100
AcDbEntity
  8
B-2_蓋
  6
Continuous
 62
     3
370
     9
100
AcDbLine
 10
-625.2071426257675
 20
292.2003207892242
 30
0.0
 11
-232.2071451001657
 21
292.2003207892242
 31
0.0
  0
LINE
  5
1E6
330
1F
100
AcDbEntity
  8
B-2_蓋
  6
Continuous
 62
     3
370
     9
100
AcDbLine
 10
-625.2071426257675
 20
287.2006507089879
 30
0.0
 11
-232.2071451001657
 21
287.2006507089879
 31
0.0
  0
LINE
  5
1E7
330
1F
100
AcDbEntity
  8
B-2_蓋
  6
Continuous
 62
     3
370
     9
100
AcDbLine
 10
-625.2071426257675
 20
192.2008321648577
 30
0.0
 11
-232.2071451001657
 21
192.2008321648577
 31
0.0
  0
LINE
  5
1E8
330
1F
100
AcDbEntity
  8
B-2_蓋
  6
Continuous
 62
     3
370
     9
100
AcDbLine
 10
-625.2071426257675
 20
187.2010136207277
 30
0.0
 11
-232.2071451001657
 21
187.2010136207277
 31
0.0
  0
LINE
  5
1E9
330
1F
100
AcDbEntity
  8
B-2_蓋
  6
Continuous
 62
     3
370
     9
100
AcDbLine
 10
-625.2071426257675
 20
87.20115383662707
 30
0.0
 11
-232.2071451001657
 21
87.20115383662707
 31
0.0
  0
LINE
  5
1EA
330
1F
100
AcDbEntity
  8
B-2_蓋
  6
Continuous
 62
     3
370
     9
100
AcDbLine
 10
-625.2071426257675
 20
92.20097238075724
 30
0.0
 11
-232.2071451001657
 21
92.20097238075724
 31
0.0
  0
LINE
  5
1EB
330
1F
100
AcDbEntity
  8
B-2_蓋
  6
Continuous
 62
     3
370
     9
100
AcDbLine
 10
-625.2071426257675
 20
392.2008486608461
 30
0.0
 11
-232.2071451001657
 21
392.2008486608461
 31
0.0
  0
LINE
  5
1EC
330
1F
100
AcDbEntity
  8
B-2_蓋
  6
Continuous
 62
     3
370
     9
100
AcDbLine
 10
-625.2071426257675
 20
387.2008816528222
 30
0.0
 11
-232.2071451001657
 21
387.2008816528222
 31
0.0
  0
LINE
  5
1ED
330
1F
100
AcDbEntity
  8
B-1_ピット
  6
JWW_DASHED3
 62
     2
370
     9
100
AcDbLine
 10
-278.7067788892282
 20
389.7015332443552
 30
0.0
 11
-578.7072490248911
 21
389.7015332443552
 31
0.0
  0
LINE
  5
1EE
330
1F
100
AcDbEntity
  8
B-1_ピット
  6
JWW_DASHED3
 62
     2
370
     9
100
AcDbLine
 10
-278.7067788892282
 20
389.7015332443552
 30
0.0
 11
-278.7067788892282
 21
89.70098887674536
 31
0.0
  0
LINE
  5
1EF
330
1F
100
AcDbEntity
  8
B-4_寸法
  6
Continuous
 62
     7
370
     9
100
AcDbLine
 10
-598.3669491608181
 20
472.5079379767243
 30
0.0
 11
-585.7870096021188
 21
472.5079379767243
 31
0.0
  0
LINE
  5
1F0
330
1F
100
AcDbEntity
  8
B-4_寸法
  6
Continuous
 62
     7
370
     9
100
AcDbLine
 10
-598.3669491608181
 20
441.1869557396045
 30
0.0
 11
-598.3669491608181
 21
474.3079142225014
 31
0.0
  0
LINE
  5
1F1
330
1F
100
AcDbEntity
  8
B-4_寸法
  6
Continuous
 62
     7
370
     9
100
AcDbLine
 10
-585.7870096021188
 20
441.1869557396045
 30
0.0
 11
-585.7870096021188
 21
474.3079142225014
 31
0.0
  0
CIRCLE
  5
1F2
330
1F
100
AcDbEntity
  8
B-1_ピット
  6
Continuous
 62
     2
370
     9
100
AcDbCircle
 10
-479.2074156343718
 20
25.20085031044474
 30
0.0
 40
4.500000637930793
  0
CIRCLE
  5
1F3
330
1F
100
AcDbEntity
  8
B-1_ピット
  6
Continuous
 62
     2
370
     9
100
AcDbCircle
 10
-378.2075772950559
 20
25.20085031044474
 30
0.0
 40
4.500000637930793
  0
ARC
  5
1F4
330
1F
100
AcDbEntity
  8
B-1_ピット
  6
Continuous
 62
     2
370
     9
100
AcDbCircle
 10
-473.70712530498
 20
19.1006173870916
 30
0.0
 40
10.00000012887491
100
AcDbArc
 50
180.0
 51
270.0
  0
ARC
  5
1F5
330
1F
100
AcDbEntity
  8
B-1_ピット
  6
Continuous
 62
     2
370
     9
100
AcDbCircle
 10
-383.7071995369266
 20
19.1006173870916
 30
0.0
 40
10.00000012887491
100
AcDbArc
 50
270.0
 51
0.0
  0
ARC
  5
1F6
330
1F
100
AcDbEntity
  8
B-1_ピット
  6
Continuous
 62
     2
370
     9
100
AcDbCircle
 10
-383.7071995369266
 20
19.1006173870916
 30
0.0
 40
1.000000012887491
100
AcDbArc
 50
270.0
 51
0.0
  0
ARC
  5
1F7
330
1F
100
AcDbEntity
  8
B-1_ピット
  6
Continuous
 62
     2
370
     9
100
AcDbCircle
 10
-473.70712530498
 20
19.1006173870916
 30
0.0
 40
1.000000012887491
100
AcDbArc
 50
180.0
 51
270.0
  0
CIRCLE
  5
1F8
330
1F
100
AcDbEntity
  8
B-1_ピット
  6
Continuous
 62
     2
370
     9
100
AcDbCircle
 10
-479.2074156343718
 20
454.2017460426027
 30
0.0
 40
4.500000637930793
  0
CIRCLE
  5
1F9
330
1F
100
AcDbEntity
  8
B-1_ピット
  6
Continuous
 62
     2
370
     9
100
AcDbCircle
 10
-378.2075772950559
 20
454.2017460426027
 30
0.0
 40
4.500000637930793
  0
ARC
  5
1FA
330
1F
100
AcDbEntity
  8
B-1_ピット
  6
Continuous
 62
     2
370
     9
100
AcDbCircle
 10
-473.70712530498
 20
460.3010881825944
 30
0.0
 40
10.00000012887491
100
AcDbArc
 50
90.0
 51
180.0
  0
ARC
  5
1FB
330
1F
100
AcDbEntity
  8
B-1_ピット
  6
Continuous
 62
     2
370
     9
100
AcDbCircle
 10
-383.7071995369266
 20
460.3010881825944
 30
0.0
 40
10.00000012887491
100
AcDbArc
 50
0.0
 51
90.0
  0
ARC
  5
1FC
330
1F
100
AcDbEntity
  8
B-1_ピット
  6
Continuous
 62
     2
370
     9
100
AcDbCircle
 10
-383.7071995369266
 20
460.3010881825944
 30
0.0
 40
1.000000012887491
100
AcDbArc
 50
0.0
 51
90.0
  0
ARC
  5
1FD
330
1F
100
AcDbEntity
  8
B-1_ピット
  6
Continuous
 62
     2
370
     9
100
AcDbCircle
 10
-473.70712530498
 20
460.3010881825944
 30
0.0
 40
1.000000012887491
100
AcDbArc
 50
90.0
 51
180.0
  0
TEXT
  5
1FE
330
1F
100
AcDbEntity
  8
B-4_寸法
  6
Continuous
 62
     2
370
   211
100
AcDbText
 10
-613.9519917534597
 20
480.9278904682783
 30
0.0
 40
15.24
  1
12.5
 41
1.09375
  7
ＭＳ ゴシック
100
AcDbText
  0
LWPOLYLINE
  5
1FF
330
1F
100
AcDbEntity
  8
B-4_寸法
  6
Continuous
 62
     7
370
     9
100
AcDbPolyline
 90
        4
 70
     1
 43
1.0
 10
-578.2072490248912
 20
-42.33358417294542
 42
0.4142135623731
 10
-578.7072490248911
 20
-41.83358417294542
 42
0.4142135623731
 10
-579.2072490248911
 20
-42.33358417294542
 42
0.4142135623731
 10
-578.7072490248911
 20
-42.83358417294542
 42
0.4142135623731
  0
LWPOLYLINE
  5
200
330
1F
100
AcDbEntity
  8
B-4_寸法
  6
Continuous
 62
     7
370
     9
100
AcDbPolyline
 90
        4
 70
     1
 43
1.0
 10
-278.2067788892282
 20
-42.33358417294542
 42
0.4142135623731
 10
-278.7067788892282
 20
-41.83358417294542
 42
0.4142135623731
 10
-279.2067788892282
 20
-42.33358417294542
 42
0.4142135623731
 10
-278.7067788892282
 20
-42.83358417294542
 42
0.4142135623731
  0
LINE
  5
201
330
1F
100
AcDbEntity
  8
B-4_寸法
  6
Continuous
 62
     7
370
     9
100
AcDbLine
 10
-578.7072490248911
 20
80.7009591839666
 30
0.0
 11
-578.7072490248911
 21
-44.13356041872244
 31
0.0
  0
LINE
  5
202
330
1F
100
AcDbEntity
  8
B-4_寸法
  6
Continuous
 62
     7
370
     9
100
AcDbLine
 10
-278.7067788892282
 20
80.7009591839666
 30
0.0
 11
-278.7067788892282
 21
-44.13356041872244
 31
0.0
  0
LWPOLYLINE
  5
203
330
1F
100
AcDbEntity
  8
B-4_寸法
  6
Continuous
 62
     7
370
     9
100
AcDbPolyline
 90
        4
 70
     1
 43
1.0
 10
-638.2072985128558
 20
-78.73545186992723
 42
0.4142135623731
 10
-638.7072985128557
 20
-78.23545186992723
 42
0.4142135623731
 10
-639.2072985128557
 20
-78.73545186992723
 42
0.4142135623731
 10
-638.7072985128557
 20
-79.23545186992723
 42
0.4142135623731
  0
LWPOLYLINE
  5
204
330
1F
100
AcDbEntity
  8
B-4_寸法
  6
Continuous
 62
     7
370
     9
100
AcDbPolyline
 90
        4
 70
     1
 43
1.0
 10
-632.2074271815636
 20
-78.73545186992723
 42
0.4142135623731
 10
-632.7074271815636
 20
-78.23545186992723
 42
0.4142135623731
 10
-633.2074271815635
 20
-78.73545186992723
 42
0.4142135623731
 10
-632.7074271815636
 20
-79.23545186992723
 42
0.4142135623731
  0
LWPOLYLINE
  5
205
330
1F
100
AcDbEntity
  8
B-4_寸法
  6
Continuous
 62
     7
370
     9
100
AcDbPolyline
 90
        4
 70
     1
 43
1.0
 10
-624.7071426257675
 20
-78.73545186992723
 42
0.4142135623731
 10
-625.2071426257675
 20
-78.23545186992723
 42
0.4142135623731
 10
-625.7071426257675
 20
-78.73545186992723
 42
0.4142135623731
 10
-625.2071426257675
 20
-79.23545186992723
 42
0.4142135623731
  0
LWPOLYLINE
  5
206
330
1F
100
AcDbEntity
  8
B-4_寸法
  6
Continuous
 62
     7
370
     9
100
AcDbPolyline
 90
        4
 70
     1
 43
1.0
 10
-231.7068481723785
 20
-78.73545186992723
 42
0.4142135623731
 10
-232.2068481723785
 20
-78.23545186992723
 42
0.4142135623731
 10
-232.7068481723785
 20
-78.73545186992723
 42
0.4142135623731
 10
-232.2068481723785
 20
-79.23545186992723
 42
0.4142135623731
  0
LWPOLYLINE
  5
207
330
1F
100
AcDbEntity
  8
B-4_寸法
  6
Continuous
 62
     7
370
     9
100
AcDbPolyline
 90
        4
 70
     1
 43
1.0
 10
-224.207268820077
 20
-78.73545186992723
 42
0.4142135623731
 10
-224.707268820077
 20
-78.23545186992723
 42
0.4142135623731
 10
-225.207268820077
 20
-78.73545186992723
 42
0.4142135623731
 10
-224.707268820077
 20
-79.23545186992723
 42
0.4142135623731
  0
LWPOLYLINE
  5
208
330
1F
100
AcDbEntity
  8
B-4_寸法
  6
Continuous
 62
     7
370
     9
100
AcDbPolyline
 90
        4
 70
     1
 43
1.0
 10
-218.206952097104
 20
-78.73545186992723
 42
0.4142135623731
 10
-218.706952097104
 20
-78.23545186992723
 42
0.4142135623731
 10
-219.206952097104
 20
-78.73545186992723
 42
0.4142135623731
 10
-218.706952097104
 20
-79.23545186992723
 42
0.4142135623731
  0
LINE
  5
209
330
1F
100
AcDbEntity
  8
B-4_寸法
  6
Continuous
 62
     7
370
     9
100
AcDbLine
 10
-638.7072985128557
 20
-116.8331909367198
 30
0.0
 11
-638.7072985128557
 21
20.70172624741694
 31
0.0
  0
LINE
  5
20A
330
1F
100
AcDbEntity
  8
B-4_寸法
  6
Continuous
 62
     7
370
     9
100
AcDbLine
 10
-632.7074271815636
 20
26.70182027454942
 30
0.0
 11
-632.7074271815636
 21
-80.53542811570436
 31
0.0
  0
LINE
  5
20B
330
1F
100
AcDbEntity
  8
B-4_寸法
  6
Continuous
 62
     7
370
     9
100
AcDbLine
 10
-632.7074271815636
 20
-78.73545186992723
 30
0.0
 11
-625.2071426257675
 21
-78.73545186992723
 31
0.0
  0
LINE
  5
20C
330
1F
100
AcDbEntity
  8
B-4_寸法
  6
Continuous
 62
     7
370
     9
100
AcDbLine
 10
-625.2071426257675
 20
30.7016602634641
 30
0.0
 11
-625.2071426257675
 21
-80.53542811570436
 31
0.0
  0
LINE
  5
20D
330
1F
100
AcDbEntity
  8
B-4_寸法
  6
Continuous
 62
     7
370
     9
100
AcDbLine
 10
-232.2068481723785
 20
30.7016602634641
 30
0.0
 11
-232.2068481723785
 21
-80.53542811570436
 31
0.0
  0
LINE
  5
20E
330
1F
100
AcDbEntity
  8
B-4_寸法
  6
Continuous
 62
     7
370
     9
100
AcDbLine
 10
-232.2068481723785
 20
-78.73545186992723
 30
0.0
 11
-224.707268820077
 21
-78.73545186992723
 31
0.0
  0
LINE
  5
20F
330
1F
100
AcDbEntity
  8
B-4_寸法
  6
Continuous
 62
     7
370
     9
100
AcDbLine
 10
-224.707268820077
 20
26.70182027454942
 30
0.0
 11
-224.707268820077
 21
-80.53542811570436
 31
0.0
  0
LINE
  5
210
330
1F
100
AcDbEntity
  8
B-4_寸法
  6
Continuous
 62
     7
370
     9
100
AcDbLine
 10
-218.706952097104
 20
-116.8331909367198
 30
0.0
 11
-218.706952097104
 21
20.70172624741694
 31
0.0
  0
LINE
  5
211
330
1F
100
AcDbEntity
  8
B-4_寸法
  6
Continuous
 62
     7
370
     9
100
AcDbLine
 10
-224.707268820077
 20
-78.73545186992723
 30
0.0
 11
-192.060132853544
 21
-78.73545186992723
 31
0.0
  0
LINE
  5
212
330
1F
100
AcDbEntity
  8
B-4_寸法
  6
Continuous
 62
     7
370
     9
100
AcDbLine
 10
-668.948354388067
 20
-78.73545186992723
 30
0.0
 11
-632.7074271815636
 21
-78.73545186992723
 31
0.0
  0
TEXT
  5
213
330
1F
100
AcDbEntity
  8
B-4_寸法
  6
Continuous
 62
     2
370
   211
100
AcDbText
 10
-663.1291790802518
 20
-70.31542514642655
 30
0.0
 40
15.24
  1
6
 41
1.000000206199871
  7
ＭＳ ゴシック
100
AcDbText
  0
TEXT
  5
214
330
1F
100
AcDbEntity
  8
B-4_寸法
  6
Continuous
 62
     2
370
   211
100
AcDbText
 10
-201.8792906343718
 20
-70.31542514642655
 30
0.0
 40
15.24
  1
6
 41
0.9999999999999998
  7
ＭＳ ゴシック
100
AcDbText
  0
TEXT
  5
215
330
1F
100
AcDbEntity
  8
B-4_寸法
  6
Continuous
 62
     2
370
     9
100
AcDbText
 10
-275.4691756243423
 20
-70.31542514642655
 30
0.0
 40
15.24
  1
7.5
 41
1.083333333333333
  7
ＭＳ ゴシック
100
AcDbText
  0
TEXT
  5
216
330
1F
100
AcDbEntity
  8
B-4_寸法
  6
Continuous
 62
     2
370
     9
100
AcDbText
 10
-612.1690294698869
 20
-70.31542514642655
 30
0.0
 40
15.24
  1
7.5
 41
1.083333333333333
  7
ＭＳ ゴシック
100
AcDbText
  0
LWPOLYLINE
  5
217
330
1F
100
AcDbEntity
  8
B-4_寸法
  6
Continuous
 62
     7
370
     9
100
AcDbPolyline
 90
        4
 70
     1
 43
1.0
 10
-638.2072985128558
 20
-115.033140458996
 42
0.4142135623731
 10
-638.7072985128557
 20
-114.533140458996
 42
0.4142135623731
 10
-639.2072985128557
 20
-115.033140458996
 42
0.4142135623731
 10
-638.7072985128557
 20
-115.533140458996
 42
0.4142135623731
  0
LWPOLYLINE
  5
218
330
1F
100
AcDbEntity
  8
B-4_寸法
  6
Continuous
 62
     7
370
     9
100
AcDbPolyline
 90
        4
 70
     1
 43
1.0
 10
-218.206952097104
 20
-115.033140458996
 42
0.4142135623731
 10
-218.706952097104
 20
-114.533140458996
 42
0.4142135623731
 10
-219.206952097104
 20
-115.033140458996
 42
0.4142135623731
 10
-218.706952097104
 20
-115.533140458996
 42
0.4142135623731
  0
LWPOLYLINE
  5
219
330
1F
100
AcDbEntity
  8
B-4_寸法
  6
Continuous
 62
     7
370
     9
100
AcDbPolyline
 90
        4
 70
     1
 43
1.0
 10
177.312754766268
 20
29.70160747630192
 42
0.4142135623731
 10
176.812754766268
 20
30.20160747630192
 42
0.4142135623731
 10
176.312754766268
 20
29.70160747630192
 42
0.4142135623731
 10
176.812754766268
 20
29.20160747630192
 42
0.4142135623731
  0
LWPOLYLINE
  5
21A
330
1F
100
AcDbEntity
  8
B-4_寸法
  6
Continuous
 62
     7
370
     9
100
AcDbPolyline
 90
        4
 70
     1
 43
1.0
 10
177.312754766268
 20
35.70177573538128
 42
0.4142135623731
 10
176.812754766268
 20
36.20177573538128
 42
0.4142135623731
 10
176.312754766268
 20
35.70177573538128
 42
0.4142135623731
 10
176.812754766268
 20
35.20177573538128
 42
0.4142135623731
  0
LWPOLYLINE
  5
21B
330
1F
100
AcDbEntity
  8
B-4_寸法
  6
Continuous
 62
     7
370
     9
100
AcDbPolyline
 90
        4
 70
     1
 43
1.0
 10
177.312754766268
 20
39.70168995624284
 42
0.4142135623731
 10
176.812754766268
 20
40.20168995624284
 42
0.4142135623731
 10
176.312754766268
 20
39.70168995624284
 42
0.4142135623731
 10
176.812754766268
 20
39.20168995624284
 42
0.4142135623731
  0
LWPOLYLINE
  5
21C
330
1F
100
AcDbEntity
  8
B-4_寸法
  6
Continuous
 62
     7
370
     9
100
AcDbPolyline
 90
        4
 70
     1
 43
1.0
 10
177.312754766268
 20
439.7011290926449
 42
0.4142135623731
 10
176.812754766268
 20
440.2011290926449
 42
0.4142135623731
 10
176.312754766268
 20
439.7011290926449
 42
0.4142135623731
 10
176.812754766268
 20
439.201129092645
 42
0.4142135623731
  0
LWPOLYLINE
  5
21D
330
1F
100
AcDbEntity
  8
B-4_寸法
  6
Continuous
 62
     7
370
     9
100
AcDbPolyline
 90
        4
 70
     1
 43
1.0
 10
177.312754766268
 20
443.7011917774001
 42
0.4142135623731
 10
176.812754766268
 20
444.2011917774
 42
0.4142135623731
 10
176.312754766268
 20
443.7011917774001
 42
0.4142135623731
 10
176.812754766268
 20
443.2011917774001
 42
0.4142135623731
  0
LWPOLYLINE
  5
21E
330
1F
100
AcDbEntity
  8
B-4_寸法
  6
Continuous
 62
     7
370
     9
100
AcDbPolyline
 90
        4
 70
     1
 43
1.0
 10
177.312754766268
 20
449.7386244737681
 42
0.4142135623731
 10
176.812754766268
 20
450.2386244737681
 42
0.4142135623731
 10
176.312754766268
 20
449.7386244737681
 42
0.4142135623731
 10
176.812754766268
 20
449.2386244737682
 42
0.4142135623731
  0
LWPOLYLINE
  5
21F
330
1F
100
AcDbEntity
  8
B-4_寸法
  6
Continuous
 62
     7
370
     9
100
AcDbPolyline
 90
        4
 70
     1
 43
1.0
 10
337.8532953068081
 20
29.70168170824881
 42
0.4142135623731
 10
337.3532953068081
 20
30.20168170824881
 42
0.4142135623731
 10
336.8532953068081
 20
29.70168170824881
 42
0.4142135623731
 10
337.3532953068081
 20
29.20168170824881
 42
0.4142135623731
  0
LWPOLYLINE
  5
220
330
1F
100
AcDbEntity
  8
B-4_寸法
  6
Continuous
 62
     7
370
     9
100
AcDbPolyline
 90
        4
 70
     1
 43
1.0
 10
337.8532953068081
 20
89.70173119621333
 42
0.4142135623731
 10
337.3532953068081
 20
90.20173119621333
 42
0.4142135623731
 10
336.8532953068081
 20
89.70173119621333
 42
0.4142135623731
 10
337.3532953068081
 20
89.20173119621332
 42
0.4142135623731
  0
LWPOLYLINE
  5
221
330
1F
100
AcDbEntity
  8
B-4_寸法
  6
Continuous
 62
     7
370
     9
100
AcDbPolyline
 90
        4
 70
     1
 43
1.0
 10
337.8532953068081
 20
389.701236316568
 42
0.4142135623731
 10
337.3532953068081
 20
390.201236316568
 42
0.4142135623731
 10
336.8532953068081
 20
389.701236316568
 42
0.4142135623731
 10
337.3532953068081
 20
389.201236316568
 42
0.4142135623731
  0
LWPOLYLINE
  5
222
330
1F
100
AcDbEntity
  8
B-4_寸法
  6
Continuous
 62
     7
370
     9
100
AcDbPolyline
 90
        4
 70
     1
 43
1.0
 10
337.8532953068081
 20
449.7010631086923
 42
0.4142135623731
 10
337.3532953068081
 20
450.2010631086922
 42
0.4142135623731
 10
336.8532953068081
 20
449.7010631086923
 42
0.4142135623731
 10
337.3532953068081
 20
449.2010631086923
 42
0.4142135623731
  0
LINE
  5
223
330
1F
100
AcDbEntity
  8
B-2_蓋
  6
Continuous
 62
     3
370
     9
100
AcDbLine
 10
265.1475837358624
 20
439.7011290926449
 30
0.0
 11
265.1475837358624
 21
436.7012676589455
 31
0.0
  0
LINE
  5
224
330
1F
100
AcDbEntity
  8
B-1_ピット
  6
Continuous
 62
     2
370
     9
100
AcDbLine
 10
233.1476761133964
 20
446.2011752814118
 30
0.0
 11
233.1476761133964
 21
449.7010631086923
 31
0.0
  0
LINE
  5
225
330
1F
100
AcDbEntity
  8
B-1_ピット
  6
Continuous
 62
     2
370
     9
100
AcDbLine
 10
273.6477354989536
 20
389.701236316568
 30
0.0
 11
277.1474748623405
 21
389.701236316568
 31
0.0
  0
LINE
  5
226
330
1F
100
AcDbEntity
  8
B-1_ピット
  6
Continuous
 62
     2
370
     9
100
AcDbLine
 10
271.1477519949418
 20
439.7011290926449
 30
0.0
 11
271.1477519949418
 21
392.2009228927927
 31
0.0
  0
LINE
  5
227
330
1F
100
AcDbEntity
  8
B-1_ピット
  6
Continuous
 62
     2
370
     9
100
AcDbLine
 10
277.1474748623405
 20
449.7010631086923
 30
0.0
 11
233.1476761133964
 21
449.7010631086923
 31
0.0
  0
LINE
  5
228
330
1F
100
AcDbEntity
  8
B-1_ピット
  6
Continuous
 62
     2
370
     9
100
AcDbLine
 10
277.1474748623405
 20
449.7010631086923
 30
0.0
 11
277.1474748623405
 21
389.701236316568
 31
0.0
  0
LINE
  5
229
330
1F
100
AcDbEntity
  8
B-1_ピット
  6
Continuous
 62
     2
370
     9
100
AcDbLine
 10
257.1477552941395
 20
449.7010631086923
 30
0.0
 11
257.1477552941395
 21
458.7012412653647
 31
0.0
  0
LINE
  5
22A
330
1F
100
AcDbEntity
  8
B-1_ピット
  6
Continuous
 62
     2
370
     9
100
AcDbLine
 10
270.9629144474332
 20
458.7012412653647
 30
0.0
 11
257.1477552941395
 21
458.7012412653647
 31
0.0
  0
LINE
  5
22B
330
1F
100
AcDbEntity
  8
B-1_ピット
  6
Continuous
 62
     2
370
     9
100
AcDbLine
 10
275.6215629641143
 20
450.3145159169694
 30
0.0
 11
333.8122829810061
 21
465.9067878764287
 31
0.0
  0
LINE
  5
22C
330
1F
100
AcDbEntity
  8
B-1_ピット
  6
Continuous
 62
     2
370
     9
100
AcDbLine
 10
273.292164473827
 20
459.0081161333967
 30
0.0
 11
331.4828844907188
 21
474.5999427011754
 31
0.0
  0
LINE
  5
22D
330
1F
100
AcDbEntity
  8
B-1_ピット
  6
JWW_CENTER2
 62
     2
370
     9
100
AcDbLine
 10
270.9626175196464
 20
454.201300650922
 30
0.0
 11
253.3426257016564
 21
454.201300650922
 31
0.0
  0
LINE
  5
22E
330
1F
100
AcDbEntity
  8
B-1_ピット
  6
JWW_CENTER2
 62
     2
370
     9
100
AcDbLine
 10
274.456715255077
 20
454.6612417932362
 30
0.0
 11
339.6234567035567
 21
472.1223772450944
 31
0.0
  0
LINE
  5
22F
330
1F
100
AcDbEntity
  8
B-2_蓋
  6
Continuous
 62
     3
370
     9
100
AcDbLine
 10
265.1475837358624
 20
39.70168995624284
 30
0.0
 11
265.1475837358624
 21
42.70169985383582
 31
0.0
  0
LINE
  5
230
330
1F
100
AcDbEntity
  8
B-1_ピット
  6
Continuous
 62
     2
370
     9
100
AcDbLine
 10
233.1476761133964
 20
33.20171799942269
 30
0.0
 11
233.1476761133964
 21
29.70168170824881
 31
0.0
  0
LINE
  5
231
330
1F
100
AcDbEntity
  8
B-1_ピット
  6
Continuous
 62
     2
370
     9
100
AcDbLine
 10
273.6477354989536
 20
89.70173119621333
 30
0.0
 11
277.1474748623405
 21
89.70173119621333
 31
0.0
  0
LINE
  5
232
330
1F
100
AcDbEntity
  8
B-1_ピット
  6
Continuous
 62
     2
370
     9
100
AcDbLine
 10
271.1477519949418
 20
39.70168995624284
 30
0.0
 11
271.1477519949418
 21
87.20174769220144
 31
0.0
  0
LINE
  5
233
330
1F
100
AcDbEntity
  8
B-1_ピット
  6
Continuous
 62
     2
370
     9
100
AcDbLine
 10
277.1474748623405
 20
29.70168170824881
 30
0.0
 11
233.1476761133964
 21
29.70168170824881
 31
0.0
  0
LINE
  5
234
330
1F
100
AcDbEntity
  8
B-1_ピット
  6
Continuous
 62
     2
370
     9
100
AcDbLine
 10
277.1474748623405
 20
29.70168170824881
 30
0.0
 11
277.1474748623405
 21
89.70173119621333
 31
0.0
  0
LINE
  5
235
330
1F
100
AcDbEntity
  8
B-1_ピット
  6
Continuous
 62
     2
370
     9
100
AcDbLine
 10
257.1477552941395
 20
29.70168170824881
 30
0.0
 11
257.1477552941395
 21
20.70165201547006
 31
0.0
  0
LINE
  5
236
330
1F
100
AcDbEntity
  8
B-1_ピット
  6
Continuous
 62
     2
370
     9
100
AcDbLine
 10
270.9629144474332
 20
20.70165201547006
 30
0.0
 11
257.1477552941395
 21
20.70165201547006
 31
0.0
  0
LINE
  5
237
330
1F
100
AcDbEntity
  8
B-1_ピット
  6
Continuous
 62
     2
370
     9
100
AcDbLine
 10
275.6215629641143
 20
29.08837736386538
 30
0.0
 11
333.8122829810061
 21
13.49617963635271
 31
0.0
  0
LINE
  5
238
330
1F
100
AcDbEntity
  8
B-1_ピット
  6
Continuous
 62
     2
370
     9
100
AcDbLine
 10
273.292164473827
 20
20.39499984327833
 30
0.0
 11
331.4828844907188
 21
4.802876347712406
 31
0.0
  0
LINE
  5
239
330
1F
100
AcDbEntity
  8
B-1_ピット
  6
JWW_CENTER2
 62
     2
370
     9
100
AcDbLine
 10
270.9626175196464
 20
25.20166686185945
 30
0.0
 11
253.3426257016564
 21
25.20166686185945
 31
0.0
  0
LINE
  5
23A
330
1F
100
AcDbEntity
  8
B-1_ピット
  6
JWW_CENTER2
 62
     2
370
     9
100
AcDbLine
 10
274.456715255077
 20
24.74165148759852
 30
0.0
 11
339.6234567035567
 21
7.280441803793494
 31
0.0
  0
LINE
  5
23B
330
1F
100
AcDbEntity
  8
B-2_蓋
  6
Continuous
 62
     3
370
     9
100
AcDbLine
 10
271.1477519949418
 20
436.7012676589455
 30
0.0
 11
271.1477519949418
 21
42.70169985383582
 31
0.0
  0
LINE
  5
23C
330
1F
100
AcDbEntity
  8
B-2_蓋
  6
Continuous
 62
     3
370
     9
100
AcDbLine
 10
233.1476761133964
 20
436.7012676589455
 30
0.0
 11
271.1477519949418
 21
436.7012676589455
 31
0.0
  0
LINE
  5
23D
330
1F
100
AcDbEntity
  8
B-2_蓋
  6
Continuous
 62
     3
370
     9
100
AcDbLine
 10
233.1476761133964
 20
439.7011290926449
 30
0.0
 11
265.1475837358624
 21
439.7011290926449
 31
0.0
  0
LINE
  5
23E
330
1F
100
AcDbEntity
  8
B-1_ピット
  6
Continuous
 62
     2
370
     9
100
AcDbLine
 10
267.1478377740805
 20
443.7013402412936
 30
0.0
 11
235.6475111535144
 21
443.7013402412936
 31
0.0
  0
LINE
  5
23F
330
1F
100
AcDbEntity
  8
B-2_蓋
  6
Continuous
 62
     3
370
     9
100
AcDbLine
 10
233.1476761133964
 20
42.70169985383582
 30
0.0
 11
271.1477519949418
 21
42.70169985383582
 31
0.0
  0
LINE
  5
240
330
1F
100
AcDbEntity
  8
B-2_蓋
  6
Continuous
 62
     3
370
     9
100
AcDbLine
 10
233.1476761133964
 20
39.70168995624284
 30
0.0
 11
265.1475837358624
 21
39.70168995624284
 31
0.0
  0
LINE
  5
241
330
1F
100
AcDbEntity
  8
B-1_ピット
  6
Continuous
 62
     2
370
     9
100
AcDbLine
 10
267.1478377740805
 20
35.70177573538128
 30
0.0
 11
235.6475111535144
 21
35.70177573538128
 31
0.0
  0
LINE
  5
242
330
1F
100
AcDbEntity
  8
B-4_寸法
  6
Continuous
 62
     7
370
     9
100
AcDbLine
 10
185.8127844590468
 20
29.70160747630192
 30
0.0
 11
178.6127310120449
 21
29.70160747630192
 31
0.0
  0
LINE
  5
243
330
1F
100
AcDbEntity
  8
B-4_寸法
  6
Continuous
 62
     7
370
     9
100
AcDbLine
 10
226.6474814607357
 20
35.70177573538128
 30
0.0
 11
175.0127785204907
 21
35.70177573538128
 31
0.0
  0
LINE
  5
244
330
1F
100
AcDbEntity
  8
B-4_寸法
  6
Continuous
 62
     7
370
     9
100
AcDbLine
 10
224.1476464206176
 20
39.70168995624284
 30
0.0
 11
175.0127785204907
 21
39.70168995624284
 31
0.0
  0
LINE
  5
245
330
1F
100
AcDbEntity
  8
B-4_寸法
  6
Continuous
 62
     7
370
     9
100
AcDbLine
 10
224.1476464206176
 20
439.7011290926449
 30
0.0
 11
175.0127785204907
 21
439.7011290926449
 31
0.0
  0
LINE
  5
246
330
1F
100
AcDbEntity
  8
B-4_寸法
  6
Continuous
 62
     7
370
     9
100
AcDbLine
 10
176.812754766268
 20
439.7011290926449
 30
0.0
 11
176.812754766268
 21
443.7011917774001
 31
0.0
  0
LINE
  5
247
330
1F
100
AcDbEntity
  8
B-4_寸法
  6
Continuous
 62
     7
370
     9
100
AcDbLine
 10
226.6474814607357
 20
443.7011917774001
 30
0.0
 11
175.0127785204907
 21
443.7011917774001
 31
0.0
  0
LINE
  5
248
330
1F
100
AcDbEntity
  8
B-4_寸法
  6
Continuous
 62
     7
370
     9
100
AcDbLine
 10
224.1476464206176
 20
449.7386244737681
 30
0.0
 11
130.5492891808399
 21
449.7386244737681
 31
0.0
  0
LINE
  5
249
330
1F
100
AcDbEntity
  8
B-4_寸法
  6
Continuous
 62
     7
370
     9
100
AcDbLine
 10
286.1475045551193
 20
29.70168170824881
 30
0.0
 11
339.1532715525855
 21
29.70168170824881
 31
0.0
  0
LINE
  5
24A
330
1F
100
AcDbEntity
  8
B-4_寸法
  6
Continuous
 62
     7
370
     9
100
AcDbLine
 10
286.1475045551193
 20
89.70173119621333
 30
0.0
 11
339.1532715525855
 21
89.70173119621333
 31
0.0
  0
LINE
  5
24B
330
1F
100
AcDbEntity
  8
B-4_寸法
  6
Continuous
 62
     7
370
     9
100
AcDbLine
 10
286.1475045551193
 20
389.701236316568
 30
0.0
 11
339.1532715525855
 21
389.701236316568
 31
0.0
  0
LINE
  5
24C
330
1F
100
AcDbEntity
  8
B-4_寸法
  6
Continuous
 62
     7
370
     9
100
AcDbLine
 10
286.1475045551193
 20
449.7010631086923
 30
0.0
 11
339.1532715525855
 21
449.7010631086923
 31
0.0
  0
LINE
  5
24D
330
1F
100
AcDbEntity
  8
B-4_寸法
  6
Continuous
 62
     7
370
     9
100
AcDbLine
 10
176.812754766268
 20
10.64515325596833
 30
0.0
 11
176.812754766268
 21
39.70168995624284
 31
0.0
  0
LINE
  5
24E
330
1F
100
AcDbEntity
  8
B-4_寸法
  6
Continuous
 62
     7
370
     9
100
AcDbLine
 10
176.812754766268
 20
443.7011917774001
 30
0.0
 11
176.812754766268
 21
463.2941202771889
 31
0.0
  0
LINE
  5
24F
330
1F
100
AcDbEntity
  8
B-2_蓋
  6
Continuous
 62
     3
370
     9
100
AcDbLine
 10
233.1476761133964
 20
439.7011290926449
 30
0.0
 11
233.1476761133964
 21
39.70168995624284
 31
0.0
  0
LINE
  5
250
330
1F
100
AcDbEntity
  8
B-2_蓋
  6
JWW_CENTER1
 62
     3
370
     9
100
AcDbLine
 10
219.9979321311325
 20
239.7014837563907
 30
0.0
 11
285.0043325745449
 21
239.7014837563907
 31
0.0
  0
ARC
  5
251
330
1F
100
AcDbEntity
  8
B-1_ピット
  6
Continuous
 62
     2
370
     9
100
AcDbCircle
 10
235.6475111535144
 20
446.2011752814118
 30
0.0
 40
2.50000032218727
100
AcDbArc
 50
180.0
 51
270.0
  0
ARC
  5
252
330
1F
100
AcDbEntity
  8
B-1_ピット
  6
Continuous
 62
     2
370
     9
100
AcDbCircle
 10
273.6477354989536
 20
392.2009228927927
 30
0.0
 40
2.50000032218727
100
AcDbArc
 50
180.0
 51
270.0
  0
ARC
  5
253
330
1F
100
AcDbEntity
  8
B-1_ピット
  6
Continuous
 62
     2
370
     9
100
AcDbCircle
 10
267.1478377740805
 20
439.7011290926449
 30
0.0
 40
4.000000051549963
100
AcDbArc
 50
0.0
 51
90.0
  0
ARC
  5
254
330
1F
100
AcDbEntity
  8
B-1_ピット
  6
Continuous
 62
     2
370
     9
100
AcDbCircle
 10
270.9626175196464
 20
467.7011224942496
 30
0.0
 40
18.00000023197483
100
AcDbArc
 50
270.0
 51
285.0
  0
ARC
  5
255
330
1F
100
AcDbEntity
  8
B-1_ピット
  6
Continuous
 62
     2
370
     9
100
AcDbCircle
 10
332.6478806636494
 20
470.2535137526955
 30
0.0
 40
4.500000057993709
100
AcDbArc
 50
285.0001373291016
 51
104.9999084472656
  0
ARC
  5
256
330
1F
100
AcDbEntity
  8
B-1_ピット
  6
JWW_CENTER2
 62
     2
370
     9
100
AcDbCircle
 10
270.9626175196464
 20
467.7011224942496
 30
0.0
 40
13.50000162382384
100
AcDbArc
 50
270.0
 51
284.9999542236328
  0
ARC
  5
257
330
1F
100
AcDbEntity
  8
B-1_ピット
  6
Continuous
 62
     2
370
     9
100
AcDbCircle
 10
270.9629144474332
 20
467.7011224942496
 30
0.0
 40
9.000000115987417
100
AcDbArc
 50
270.0
 51
285.0000152587891
  0
ARC
  5
258
330
1F
100
AcDbEntity
  8
B-1_ピット
  6
Continuous
 62
     2
370
     9
100
AcDbCircle
 10
235.6475111535144
 20
33.20171799942269
 30
0.0
 40
2.50000032218727
100
AcDbArc
 50
90.0
 51
180.0
  0
ARC
  5
259
330
1F
100
AcDbEntity
  8
B-1_ピット
  6
Continuous
 62
     2
370
     9
100
AcDbCircle
 10
273.6477354989536
 20
87.20174769220144
 30
0.0
 40
2.50000032218727
100
AcDbArc
 50
90.0
 51
180.0
  0
ARC
  5
25A
330
1F
100
AcDbEntity
  8
B-1_ピット
  6
Continuous
 62
     2
370
     9
100
AcDbCircle
 10
267.1478377740805
 20
39.70168995624284
 30
0.0
 40
4.000000051549963
100
AcDbArc
 50
270.0
 51
0.0
  0
ARC
  5
25B
330
1F
100
AcDbEntity
  8
B-1_ピット
  6
Continuous
 62
     2
370
     9
100
AcDbCircle
 10
270.9626175196464
 20
11.7016965546382
 30
0.0
 40
18.00000023197483
100
AcDbArc
 50
75.0
 51
89.99999999999999
  0
ARC
  5
25C
330
1F
100
AcDbEntity
  8
B-1_ピット
  6
Continuous
 62
     2
370
     9
100
AcDbCircle
 10
332.6478806636494
 20
9.14952799203256
 30
0.0
 40
4.500000057993709
100
AcDbArc
 50
255.0000915527344
 51
74.99986267089845
  0
ARC
  5
25D
330
1F
100
AcDbEntity
  8
B-1_ピット
  6
JWW_CENTER2
 62
     2
370
     9
100
AcDbCircle
 10
270.9626175196464
 20
11.7017707865849
 30
0.0
 40
13.50000162382384
100
AcDbArc
 50
75.00004577636717
 51
90.0
  0
ARC
  5
25E
330
1F
100
AcDbEntity
  8
B-1_ピット
  6
Continuous
 62
     2
370
     9
100
AcDbCircle
 10
270.9629144474332
 20
11.7016965546382
 30
0.0
 40
9.000000115987417
100
AcDbArc
 50
74.99998474121094
 51
90.00000000000001
  0
CIRCLE
  5
25F
330
1F
100
AcDbEntity
  8
B-2_蓋
  6
Continuous
 62
     3
370
     9
100
AcDbCircle
 10
235.6475111535144
 20
389.7014590124086
 30
0.0
 40
2.500000032218727
  0
CIRCLE
  5
260
330
1F
100
AcDbEntity
  8
B-2_蓋
  6
Continuous
 62
     3
370
     9
100
AcDbCircle
 10
235.6475111535144
 20
289.7015249963612
 30
0.0
 40
2.500000032218727
  0
CIRCLE
  5
261
330
1F
100
AcDbEntity
  8
B-2_蓋
  6
Continuous
 62
     3
370
     9
100
AcDbCircle
 10
235.6475111535144
 20
189.7014425164202
 30
0.0
 40
2.500000032218727
  0
CIRCLE
  5
262
330
1F
100
AcDbEntity
  8
B-2_蓋
  6
Continuous
 62
     3
370
     9
100
AcDbCircle
 10
235.6475111535144
 20
89.70143426842613
 30
0.0
 40
2.500000032218727
  0
TEXT
  5
263
330
1F
100
AcDbEntity
  8
B-4_寸法
  6
Continuous
 62
     2
370
   211
100
AcDbText
 10
168.3928022747139
 20
14.34088640366696
 30
0.0
 40
15.24
  1
6
 50
90.0
 41
0.9999999999999998
  7
ＭＳ ゴシック
100
AcDbText
  0
TEXT
  5
264
330
1F
100
AcDbEntity
  8
B-4_寸法
  6
Continuous
 62
     2
370
     9
100
AcDbText
 10
168.3928022747139
 20
41.90157514416519
 30
0.0
 40
15.24
  1
4
 50
90.0
 41
0.9999999999999998
  7
ＭＳ ゴシック
100
AcDbText
  0
TEXT
  5
265
330
1F
100
AcDbEntity
  8
B-4_寸法
  6
Continuous
 62
     2
370
     9
100
AcDbText
 10
168.3928022747139
 20
427.7924904735571
 30
0.0
 40
15.24
  1
4
 50
90.0
 41
0.9999999999999998
  7
ＭＳ ゴシック
100
AcDbText
  0
TEXT
  5
266
330
1F
100
AcDbEntity
  8
B-4_寸法
  6
Continuous
 62
     2
370
   211
100
AcDbText
 10
168.3928022747139
 20
454.1084579302716
 30
0.0
 40
15.24
  1
6
 50
90.0
 41
0.9999999999999998
  7
ＭＳ ゴシック
100
AcDbText
  0
LWPOLYLINE
  5
267
330
1F
100
AcDbEntity
  8
B-4_寸法
  6
Continuous
 62
     7
370
     9
100
AcDbPolyline
 90
        4
 70
     1
 43
1.0
 10
233.6479730411832
 20
-42.33358417294542
 42
0.4142135623731
 10
233.1479730411832
 20
-41.83358417294542
 42
0.4142135623731
 10
232.6479730411832
 20
-42.33358417294542
 42
0.4142135623731
 10
233.1479730411832
 20
-42.83358417294542
 42
0.4142135623731
  0
LWPOLYLINE
  5
268
330
1F
100
AcDbEntity
  8
B-4_寸法
  6
Continuous
 62
     7
370
     9
100
AcDbPolyline
 90
        4
 70
     1
 43
1.0
 10
271.6477519949418
 20
-42.33358417294542
 42
0.4142135623731
 10
271.1477519949418
 20
-41.83358417294542
 42
0.4142135623731
 10
270.6477519949418
 20
-42.33358417294542
 42
0.4142135623731
 10
271.1477519949418
 20
-42.83358417294542
 42
0.4142135623731
  0
LINE
  5
269
330
1F
100
AcDbEntity
  8
B-4_寸法
  6
Continuous
 62
     7
370
     9
100
AcDbLine
 10
233.1479730411832
 20
-51.33361386572417
 30
0.0
 11
233.1479730411832
 21
-44.13356041872244
 31
0.0
  0
LINE
  5
26A
330
1F
100
AcDbEntity
  8
B-4_寸法
  6
Continuous
 62
     7
370
     9
100
AcDbLine
 10
271.1477519949418
 20
33.70167016105707
 30
0.0
 11
271.1477519949418
 21
-44.13356041872244
 31
0.0
  0
LWPOLYLINE
  5
26B
330
1F
100
AcDbEntity
  8
B-4_寸法
  6
Continuous
 62
     7
370
     9
100
AcDbPolyline
 90
        4
 70
     1
 43
1.0
 10
233.6476761133964
 20
-78.73545186992723
 42
0.4142135623731
 10
233.1476761133964
 20
-78.23545186992723
 42
0.4142135623731
 10
232.6476761133964
 20
-78.73545186992723
 42
0.4142135623731
 10
233.1476761133964
 20
-79.23545186992723
 42
0.4142135623731
  0
LWPOLYLINE
  5
26C
330
1F
100
AcDbEntity
  8
B-4_寸法
  6
Continuous
 62
     7
370
     9
100
AcDbPolyline
 90
        4
 70
     1
 43
1.0
 10
277.6474748623405
 20
-78.73545186992723
 42
0.4142135623731
 10
277.1474748623405
 20
-78.23545186992723
 42
0.4142135623731
 10
276.6474748623405
 20
-78.73545186992723
 42
0.4142135623731
 10
277.1474748623405
 20
-79.23545186992723
 42
0.4142135623731
  0
LINE
  5
26D
330
1F
100
AcDbEntity
  8
B-4_寸法
  6
Continuous
 62
     7
370
     9
100
AcDbLine
 10
233.1476761133964
 20
20.70165201547006
 30
0.0
 11
233.1476761133964
 21
-80.53542811570436
 31
0.0
  0
LINE
  5
26E
330
1F
100
AcDbEntity
  8
B-4_寸法
  6
Continuous
 62
     7
370
     9
100
AcDbLine
 10
277.1474748623405
 20
20.70165201547006
 30
0.0
 11
277.1474748623405
 21
-80.53542811570436
 31
0.0
  0
LWPOLYLINE
  5
26F
330
1F
100
AcDbEntity
  8
B-4_寸法
  6
Continuous
 62
     7
370
     9
100
AcDbPolyline
 90
        4
 70
     1
 43
1.0
 10
132.849265426617
 20
29.70168170824881
 42
0.4142135623731
 10
132.349265426617
 20
30.20168170824881
 42
0.4142135623731
 10
131.849265426617
 20
29.70168170824881
 42
0.4142135623731
 10
132.349265426617
 20
29.20168170824881
 42
0.4142135623731
  0
LWPOLYLINE
  5
270
330
1F
100
AcDbEntity
  8
B-4_寸法
  6
Continuous
 62
     7
370
     9
100
AcDbPolyline
 90
        4
 70
     1
 43
1.0
 10
132.849265426617
 20
449.7386244737681
 42
0.4142135623731
 10
132.349265426617
 20
450.2386244737681
 42
0.4142135623731
 10
131.849265426617
 20
449.7386244737681
 42
0.4142135623731
 10
132.349265426617
 20
449.2386244737682
 42
0.4142135623731
  0
LINE
  5
271
330
1F
100
AcDbEntity
  8
B-4_寸法
  6
Continuous
 62
     7
370
     9
100
AcDbLine
 10
224.1476464206176
 20
29.70168170824881
 30
0.0
 11
130.5492891808399
 21
29.70168170824881
 31
0.0
  0
TEXT
  5
272
330
1F
100
AcDbEntity
  8
F-5ﾚｲﾔ
  6
Continuous
 62
     2
370
     9
100
AcDbText
 10
252.1283403906921
 20
-499.1432779101271
 30
0.0
 40
15.24
  1
処理：樹脂系塗装
 41
1.109375
  7
ＭＳ ゴシック
100
AcDbText
  0
LINE
  5
273
330
1F
100
AcDbEntity
  8
B-5_仕様文
  6
Continuous
 62
     7
370
     9
100
AcDbLine
 10
56.74436239929154
 20
530.4327591602125
 30
0.0
 11
181.7252270530078
 21
530.4327591602125
 31
0.0
  0
LINE
  5
274
330
1F
100
AcDbEntity
  8
B-5_仕様文
  6
Continuous
 62
     7
370
     9
100
AcDbLine
 10
181.7252270530078
 20
530.4327591602125
 30
0.0
 11
233.1476761133964
 21
449.7010631086923
 31
0.0
  0
LINE
  5
275
330
1F
100
AcDbEntity
  8
B-5_仕様文
  6
Continuous
 62
     7
370
     9
100
AcDbLine
 10
233.1476761133964
 20
449.7010631086923
 30
0.0
 11
225.1136762321674
 21
459.2772316844946
 31
0.0
  0
LINE
  5
276
330
1F
100
AcDbEntity
  8
B-5_仕様文
  6
Continuous
 62
     7
370
     9
100
AcDbLine
 10
233.1476761133964
 20
449.7010631086923
 30
0.0
 11
227.8658256594265
 21
461.0303428278647
 31
0.0
  0
TEXT
  5
277
330
1F
100
AcDbEntity
  8
B-5_仕様文
  6
Continuous
 62
     7
370
     9
100
AcDbText
 10
58.71525883126884
 20
536.0781259147445
 30
0.0
 40
11.43
  1
受枠：Ｌ－３８
 41
1.142857142857143
  7
ＭＳ ゴシック
100
AcDbText
  0
TEXT
  5
278
330
1F
100
AcDbEntity
  8
B-5_仕様文
  6
Continuous
 62
     7
370
     9
100
AcDbText
 10
50.84750603030194
 20
513.5808223394002
 30
0.0
 40
11.43
  1
（四方受四方枠）
 41
1.145833333333333
  7
ＭＳ ゴシック
100
AcDbText
  0
LINE
  5
279
330
1F
100
AcDbEntity
  8
B-5_仕様文
  6
Continuous
 62
     7
370
     9
100
AcDbLine
 10
343.9631305448785
 20
537.7128099018721
 30
0.0
 11
446.4630975529022
 21
537.7128099018721
 31
0.0
  0
LINE
  5
27A
330
1F
100
AcDbEntity
  8
B-5_仕様文
  6
Continuous
 62
     7
370
     9
100
AcDbLine
 10
343.9631305448785
 20
537.7128099018721
 30
0.0
 11
331.4828844907188
 21
474.5999427011754
 31
0.0
  0
LINE
  5
27B
330
1F
100
AcDbEntity
  8
B-5_仕様文
  6
Continuous
 62
     7
370
     9
100
AcDbLine
 10
331.4828844907188
 20
474.5999427011754
 30
0.0
 11
332.2864453147264
 21
487.0741264796803
 31
0.0
  0
LINE
  5
27C
330
1F
100
AcDbEntity
  8
B-5_仕様文
  6
Continuous
 62
     7
370
     9
100
AcDbLine
 10
331.4828844907188
 20
474.5999427011754
 30
0.0
 11
335.4875743001571
 21
486.4410516934684
 31
0.0
  0
TEXT
  5
27D
330
1F
100
AcDbEntity
  8
B-5_仕様文
  6
Continuous
 62
     7
370
     9
100
AcDbText
 10
344.4397389840466
 20
542.4866314854138
 30
0.0
 40
11.43
  1
アンカーφ９
 41
1.138888888888889
  7
ＭＳ ゴシック
100
AcDbText
  0
LINE
  5
27E
330
1F
100
AcDbEntity
  8
B-5_仕様文
  6
Continuous
 62
     7
370
     9
100
AcDbLine
 10
-319.522472512539
 20
439.7013023005208
 30
0.0
 11
-318.1628525471145
 21
450.0288218977548
 31
0.0
  0
LINE
  5
27F
330
1F
100
AcDbEntity
  8
B-5_仕様文
  6
Continuous
 62
     7
370
     9
100
AcDbLine
 10
-319.522472512539
 20
439.7013023005208
 30
0.0
 11
-315.5362169698869
 21
449.3251030421804
 31
0.0
  0
LINE
  5
280
330
1F
100
AcDbEntity
  8
B-5_仕様文
  6
Continuous
 62
     7
370
     9
100
AcDbLine
 10
-272.2930768265697
 20
615.9635753157236
 30
0.0
 11
-56.43121505635232
 21
615.9635753157236
 31
0.0
  0
LINE
  5
281
330
1F
100
AcDbEntity
  8
B-5_仕様文
  6
Continuous
 62
     7
370
     9
100
AcDbLine
 10
-246.204506566857
 20
549.2969773823409
 30
0.0
 11
-6.655601735511958
 21
549.2969773823409
 31
0.0
  0
LINE
  5
282
330
1F
100
AcDbEntity
  8
B-5_仕様文
  6
Continuous
 62
     7
370
     9
100
AcDbLine
 10
-319.5224106525833
 20
439.7014260204321
 30
0.0
 11
-272.2930768265697
 21
615.9635753157236
 31
0.0
  0
LINE
  5
283
330
1F
100
AcDbEntity
  8
B-5_仕様文
  6
Continuous
 62
     7
370
     9
100
AcDbLine
 10
-282.3664138660018
 20
414.3391535001091
 30
0.0
 11
-246.204506566857
 21
549.2969773823409
 31
0.0
  0
LINE
  5
284
330
1F
100
AcDbEntity
  8
B-5_仕様文
  6
Continuous
 62
     7
370
     9
100
AcDbLine
 10
-282.3664138660018
 20
414.3391535001091
 30
0.0
 11
-280.7348575355014
 21
426.7322388767454
 31
0.0
  0
LINE
  5
285
330
1F
100
AcDbEntity
  8
B-5_仕様文
  6
Continuous
 62
     7
370
     9
100
AcDbLine
 10
-282.3664138660018
 20
414.3391535001091
 30
0.0
 11
-277.5828453548638
 21
425.8876030421804
 31
0.0
  0
LINE
  5
286
330
1F
100
AcDbEntity
  8
B-5_仕様文
  6
Continuous
 62
     7
370
     9
100
AcDbLine
 10
-313.3599873155932
 20
392.2008486608461
 30
0.0
 11
-311.6225886009605
 21
404.5795206678139
 31
0.0
  0
LINE
  5
287
330
1F
100
AcDbEntity
  8
B-5_仕様文
  6
Continuous
 62
     7
370
     9
100
AcDbLine
 10
-313.3599873155932
 20
392.2008486608461
 30
0.0
 11
-308.4779996150019
 21
403.7080376124929
 31
0.0
  0
LINE
  5
288
330
1F
100
AcDbEntity
  8
B-5_仕様文
  6
Continuous
 62
     7
370
     9
100
AcDbLine
 10
-260.5872242219674
 20
582.6303382089878
 30
0.0
 11
-68.87521117649595
 21
582.6303382089878
 31
0.0
  0
LINE
  5
289
330
1F
100
AcDbEntity
  8
B-5_仕様文
  6
Continuous
 62
     7
370
     9
100
AcDbLine
 10
-313.3599873155932
 20
392.2008486608461
 30
0.0
 11
-260.5872242219674
 21
582.6303382089878
 31
0.0
  0
TEXT
  5
28A
330
1F
100
AcDbEntity
  8
B-5_仕様文
  6
Continuous
 62
     7
370
     9
100
AcDbText
 10
-259.1292668694512
 20
587.0365055389798
 30
0.0
 40
11.43
  1
クロスバー φ５ ＠100
 41
1.158730158730159
  7
ＭＳ ゴシック
100
AcDbText
  0
TEXT
  5
28B
330
1F
100
AcDbEntity
  8
B-5_仕様文
  6
Continuous
 62
     7
370
     9
100
AcDbText
 10
-246.5457260822708
 20
557.4415909803139
 30
0.0
 40
11.43
  1
メインバー ＦＢ3×38 ＠12.5
 41
1.160493827160494
  7
ＭＳ ゴシック
100
AcDbText
  0
TEXT
  5
28C
330
1F
100
AcDbEntity
  8
B-5_仕様文
  6
Continuous
 62
     7
370
     9
100
AcDbText
 10
-271.1666401055297
 20
620.2453760640472
 30
0.0
 40
11.43
  1
エンドプレート ＦＢ3×32
 41
1.159722222222222
  7
ＭＳ ゴシック
100
AcDbText
  0
LINE
  5
28D
330
1F
100
AcDbEntity
  8
B-4_寸法
  6
Continuous
 62
     7
370
     9
100
AcDbLine
 10
-638.7072985128557
 20
527.8521597619862
 30
0.0
 11
-428.70712530498
 21
527.8521597619862
 31
0.0
  0
TEXT
  5
28E
330
1F
100
AcDbEntity
  8
B-4_寸法
  6
Continuous
 62
     2
370
   211
100
AcDbText
 10
-549.9572119089179
 20
533.6721201716146
 30
0.0
 40
15.24
  1
210
 41
1.083333333333333
  7
ＭＳ ゴシック
100
AcDbText
  0
LINE
  5
28F
330
1F
100
AcDbEntity
  8
B-4_寸法
  6
Continuous
 62
     7
370
     9
100
AcDbLine
 10
-428.70712530498
 20
527.8521597619862
 30
0.0
 11
-218.706952097104
 21
527.8521597619862
 31
0.0
  0
TEXT
  5
290
330
1F
100
AcDbEntity
  8
B-4_寸法
  6
Continuous
 62
     2
370
   211
100
AcDbText
 10
-339.9570387010419
 20
533.6721201716146
 30
0.0
 40
15.24
  1
210
 41
1.083333333333333
  7
ＭＳ ゴシック
100
AcDbText
  0
LINE
  5
291
330
1F
100
AcDbEntity
  8
B-4_寸法
  6
Continuous
 62
     7
370
     9
100
AcDbLine
 10
-578.7072490248911
 20
-42.33358417294542
 30
0.0
 11
-278.7067788892282
 21
-42.33358417294542
 31
0.0
  0
TEXT
  5
292
330
1F
100
AcDbEntity
  8
B-4_寸法
  6
Continuous
 62
     2
370
   211
100
AcDbText
 10
-444.9570139570596
 20
-36.5135619033613
 30
0.0
 40
15.24
  1
300
 41
1.083333333333333
  7
ＭＳ ゴシック
100
AcDbText
  0
LINE
  5
293
330
1F
100
AcDbEntity
  8
B-4_寸法
  6
Continuous
 62
     7
370
     9
100
AcDbLine
 10
-625.2071426257675
 20
-78.73545186992723
 30
0.0
 11
-232.2068481723785
 21
-78.73545186992723
 31
0.0
  0
TEXT
  5
294
330
1F
100
AcDbEntity
  8
B-4_寸法
  6
Continuous
 62
     2
370
   211
100
AcDbText
 10
-444.956995399073
 20
-72.9154296003434
 30
0.0
 40
15.24
  1
393
 41
1.083333333333333
  7
ＭＳ ゴシック
100
AcDbText
  0
LINE
  5
295
330
1F
100
AcDbEntity
  8
B-4_寸法
  6
Continuous
 62
     7
370
     9
100
AcDbLine
 10
-638.7072985128557
 20
-115.033140458996
 30
0.0
 11
-218.706952097104
 21
-115.033140458996
 31
0.0
  0
TEXT
  5
296
330
1F
100
AcDbEntity
  8
B-4_寸法
  6
Continuous
 62
     2
370
   211
100
AcDbText
 10
-444.9571253049799
 20
-109.2131181894119
 30
0.0
 40
15.24
  1
420
 41
1.083333333333333
  7
ＭＳ ゴシック
100
AcDbText
  0
LINE
  5
297
330
1F
100
AcDbEntity
  8
B-4_寸法
  6
Continuous
 62
     7
370
     9
100
AcDbLine
 10
337.3532953068081
 20
29.70168170824881
 30
0.0
 11
337.3532953068081
 21
89.70173119621333
 31
0.0
  0
TEXT
  5
298
330
1F
100
AcDbEntity
  8
B-4_寸法
  6
Continuous
 62
     2
370
   211
100
AcDbText
 10
331.5333348971801
 20
49.07670645223106
 30
0.0
 40
15.24
  1
60
 50
90.0
 41
1.0625
  7
ＭＳ ゴシック
100
AcDbText
  0
LINE
  5
299
330
1F
100
AcDbEntity
  8
B-4_寸法
  6
Continuous
 62
     7
370
     9
100
AcDbLine
 10
337.3532953068081
 20
89.70173119621333
 30
0.0
 11
337.3532953068081
 21
389.701236316568
 31
0.0
  0
TEXT
  5
29A
330
1F
100
AcDbEntity
  8
B-4_寸法
  6
Continuous
 62
     2
370
   211
100
AcDbText
 10
331.5333348971801
 20
223.4514837563907
 30
0.0
 40
15.24
  1
300
 50
90.0
 41
1.083333333333333
  7
ＭＳ ゴシック
100
AcDbText
  0
LINE
  5
29B
330
1F
100
AcDbEntity
  8
B-4_寸法
  6
Continuous
 62
     7
370
     9
100
AcDbLine
 10
337.3532953068081
 20
389.701236316568
 30
0.0
 11
337.3532953068081
 21
449.7010631086923
 31
0.0
  0
TEXT
  5
29C
330
1F
100
AcDbEntity
  8
B-4_寸法
  6
Continuous
 62
     2
370
   211
100
AcDbText
 10
331.5333348971801
 20
409.0761497126301
 30
0.0
 40
15.24
  1
60
 50
90.0
 41
1.0625
  7
ＭＳ ゴシック
100
AcDbText
  0
LINE
  5
29D
330
1F
100
AcDbEntity
  8
B-4_寸法
  6
Continuous
 62
     7
370
     9
100
AcDbLine
 10
176.812754766268
 20
39.70168995624284
 30
0.0
 11
176.812754766268
 21
439.7011290926449
 31
0.0
  0
TEXT
  5
29E
330
1F
100
AcDbEntity
  8
B-4_寸法
  6
Continuous
 62
     2
370
   211
100
AcDbText
 10
170.9927943566399
 20
223.4514095244439
 30
0.0
 40
15.24
  1
400
 50
90.0
 41
1.083333333333333
  7
ＭＳ ゴシック
100
AcDbText
  0
LINE
  5
29F
330
1F
100
AcDbEntity
  8
B-4_寸法
  6
Continuous
 62
     7
370
     9
100
AcDbLine
 10
233.1479730411832
 20
-42.33358417294542
 30
0.0
 11
271.1477519949418
 21
-42.33358417294542
 31
0.0
  0
TEXT
  5
2A0
330
1F
100
AcDbEntity
  8
B-4_寸法
  6
Continuous
 62
     2
370
   211
100
AcDbText
 10
241.5228625180625
 20
-36.5135619033613
 30
0.0
 40
15.24
  1
38
 41
1.0625
  7
ＭＳ ゴシック
100
AcDbText
  0
LINE
  5
2A1
330
1F
100
AcDbEntity
  8
B-4_寸法
  6
Continuous
 62
     7
370
     9
100
AcDbLine
 10
233.1476761133964
 20
-78.73545186992723
 30
0.0
 11
277.1474748623405
 21
-78.73545186992723
 31
0.0
  0
TEXT
  5
2A2
330
1F
100
AcDbEntity
  8
B-4_寸法
  6
Continuous
 62
     2
370
   211
100
AcDbText
 10
244.5225754878684
 20
-72.9154296003434
 30
0.0
 40
15.24
  1
44
 41
1.0625
  7
ＭＳ ゴシック
100
AcDbText
  0
LINE
  5
2A3
330
1F
100
AcDbEntity
  8
B-4_寸法
  6
Continuous
 62
     7
370
     9
100
AcDbLine
 10
132.349265426617
 20
29.70168170824881
 30
0.0
 11
132.349265426617
 21
449.7386244737681
 31
0.0
  0
TEXT
  5
2A4
330
1F
100
AcDbEntity
  8
B-4_寸法
  6
Continuous
 62
     2
370
   211
100
AcDbText
 10
126.5293050169889
 20
223.4701530910085
 30
0.0
 40
15.24
  1
420
 50
90.0
 41
1.083333333333333
  7
ＭＳ ゴシック
100
AcDbText
  0
TEXT
  5
2A5
330
1F
100
AcDbEntity
  8
F-5ﾚｲﾔ
  6
Continuous
 62
     3
370
     9
100
AcDbText
 10
308.7273955004893
 20
-303.4948483097329
 30
0.0
 40
19.05
  1
※適用荷重：Ｔ－２５，Ｔ－２０
 41
1.093333333333333
  7
ＭＳ ゴシック
100
AcDbText
  0
ENDSEC
  0
SECTION
  2
OBJECTS
  0
DICTIONARY
  5
C
330
0
100
AcDbDictionary
281
     1
  3
ACAD_DETAILVIEWSTYLE
350
2EB
  3
ACAD_GROUP
350
D
  3
ACAD_LAYOUT
350
1A
  3
ACAD_MATERIAL
350
43
  3
ACAD_MLEADERSTYLE
350
6B
  3
ACAD_MLINESTYLE
350
17
  3
ACAD_PLOTSETTINGS
350
19
  3
ACAD_PLOTSTYLENAME
350
E
  3
ACAD_SCALELIST
350
47
  3
ACAD_SECTIONVIEWSTYLE
350
2EC
  3
ACAD_TABLESTYLE
350
69
  3
ACAD_VISUALSTYLE
350
2A
  3
ACDB_RECOMPOSE_DATA
350
2E8
  3
AcDbVariableDictionary
350
2A8
  0
DICTIONARY
  5
2A6
330
8
100
AcDbDictionary
280
     1
281
     1
  3
ACAD_XREC_ROUNDTRIP
360
2A7
  0
DICTIONARY
  5
2EB
102
{ACAD_REACTORS
330
C
102
}
330
C
100
AcDbDictionary
281
     1
  0
DICTIONARY
  5
D
102
{ACAD_REACTORS
330
C
102
}
330
C
100
AcDbDictionary
281
     1
  0
DICTIONARY
  5
1A
102
{ACAD_REACTORS
330
C
102
}
330
C
100
AcDbDictionary
281
     1
  3
Layout1
350
1E
  3
Layout2
350
26
  3
Model
350
22
  0
DICTIONARY
  5
43
102
{ACAD_REACTORS
330
C
102
}
330
C
100
AcDbDictionary
281
     1
  3
ByBlock
350
45
  3
ByLayer
350
44
  3
Global
350
46
  0
DICTIONARY
  5
6B
102
{ACAD_REACTORS
330
C
102
}
330
C
100
AcDbDictionary
281
     1
  3
Standard
350
6C
  0
DICTIONARY
  5
17
102
{ACAD_REACTORS
330
C
102
}
330
C
100
AcDbDictionary
281
     1
  3
Standard
350
18
  0
DICTIONARY
  5
19
102
{ACAD_REACTORS
330
C
102
}
330
C
100
AcDbDictionary
281
     1
  0
ACDBDICTIONARYWDFLT
  5
E
102
{ACAD_REACTORS
330
C
102
}
330
C
100
AcDbDictionary
281
     1
  3
Normal
350
F
100
AcDbDictionaryWithDefault
340
F
  0
DICTIONARY
  5
47
102
{ACAD_REACTORS
330
C
102
}
330
C
100
AcDbDictionary
281
     1
  3
A0
350
48
  3
A1
350
49
  3
A2
350
4A
  3
A3
350
4B
  3
A4
350
4C
  3
A5
350
4D
  3
A6
350
4E
  3
A7
350
4F
  3
A8
350
50
  3
A9
350
51
  3
B0
350
52
  3
B1
350
53
  3
B2
350
54
  3
B3
350
55
  3
B4
350
56
  3
B5
350
57
  3
B6
350
58
  3
B7
350
59
  3
B8
350
5A
  3
B9
350
5B
  3
C0
350
5C
  3
C1
350
5D
  3
C2
350
5E
  3
C3
350
5F
  3
C4
350
60
  3
C5
350
61
  3
C6
350
62
  3
C7
350
63
  3
C8
350
64
  3
C9
350
65
  3
D0
350
66
  3
D1
350
67
  3
D2
350
68
  0
DICTIONARY
  5
2EC
102
{ACAD_REACTORS
330
C
102
}
330
C
100
AcDbDictionary
281
     1
  0
DICTIONARY
  5
69
102
{ACAD_REACTORS
330
C
102
}
330
C
100
AcDbDictionary
281
     1
  3
Standard
350
6A
  0
DICTIONARY
  5
2A
102
{ACAD_REACTORS
330
C
102
}
330
C
100
AcDbDictionary
281
     1
  3
2dWireframe
350
2F
  3
Basic
350
32
  3
Brighten
350
36
  3
ColorChange
350
3A
  3
Conceptual
350
34
  3
Dim
350
35
  3
EdgeColorOff
350
3D
  3
Facepattern
350
39
  3
Flat
350
2B
  3
FlatWithEdges
350
2C
  3
Gouraud
350
2D
  3
GouraudWithEdges
350
2E
  3
Hidden
350
31
  3
JitterOff
350
3B
  3
Linepattern
350
38
  3
OverhangOff
350
3C
  3
Realistic
350
33
  3
Shaded
350
42
  3
Shaded with edges
350
41
  3
Shades of Gray
350
3E
  3
Sketchy
350
3F
  3
Thicken
350
37
  3
Wireframe
350
30
  3
X-Ray
350
40
  0
XRECORD
  5
2E8
102
{ACAD_REACTORS
330
C
102
}
330
C
100
AcDbXrecord
280
     1
 90
        1
330
6A
  0
DICTIONARY
  5
2A8
102
{ACAD_REACTORS
330
C
102
}
330
C
100
AcDbDictionary
281
     1
  3
CANNOSCALE
350
2A9
  3
CENTEREXE
350
2ED
  3
CENTERLTYPEFILE
350
2EE
  3
CMLEADERSTYLE
350
2EA
  3
CTABLESTYLE
350
2E9
  3
MSLTSCALE
350
2AA
  3
XCLIPFRAME
350
2AB
  0
XRECORD
  5
2A7
102
{ACAD_REACTORS
330
2A6
102
}
330
2A6
100
AcDbXrecord
280
     1
102
VTR_0.000_0.000_1.000_1.000_VISUALSTYLE
340
2F
102
VTR_0.000_0.000_1.000_1.000_GRIDDISPLAY
 70
     3
102
VTR_0.000_0.000_1.000_1.000_GRIDMAJOR
 70
     5
102
VTR_0.000_0.000_1.000_1.000_DEFAULTLIGHTING
280
     1
102
VTR_0.000_0.000_1.000_1.000_DEFAULTLIGHTINGTYPE
 70
     1
102
VTR_0.000_0.000_1.000_1.000_BRIGHTNESS
141
0.0
102
VTR_0.000_0.000_1.000_1.000_CONTRAST
142
0.0
  0
LAYOUT
  5
1E
102
{ACAD_REACTORS
330
1A
102
}
330
1A
100
AcDbPlotSettings
  1

  2
none_device
  4

  6

 40
0.0
 41
0.0
 42
0.0
 43
0.0
 44
0.0
 45
0.0
 46
0.0
 47
0.0
 48
0.0
 49
0.0
140
0.0
141
0.0
142
1.0
143
1.0
 70
   688
 72
     1
 73
     0
 74
     5
  7

 75
    16
 76
     0
 77
     5
 78
   300
147
1.0
148
0.0
149
0.0
100
AcDbLayout
  1
Layout1
 70
     1
 71
     1
 10
0.0
 20
0.0
 11
420.0
 21
297.0
 12
0.0
 22
0.0
 32
0.0
 14
1.000000000000000E+20
 24
1.000000000000000E+20
 34
1.000000000000000E+20
 15
-1.000000000000000E+20
 25
-1.000000000000000E+20
 35
-1.000000000000000E+20
146
0.0
 13
0.0
 23
0.0
 33
0.0
 16
1.0
 26
0.0
 36
0.0
 17
0.0
 27
1.0
 37
0.0
 76
     0
330
1B
  0
LAYOUT
  5
26
102
{ACAD_REACTORS
330
1A
102
}
330
1A
100
AcDbPlotSettings
  1

  2
none_device
  4

  6

 40
0.0
 41
0.0
 42
0.0
 43
0.0
 44
0.0
 45
0.0
 46
0.0
 47
0.0
 48
0.0
 49
0.0
140
0.0
141
0.0
142
1.0
143
1.0
 70
   688
 72
     1
 73
     0
 74
     5
  7

 75
    16
 76
     0
 77
     5
 78
   300
147
1.0
148
0.0
149
0.0
100
AcDbLayout
  1
Layout2
 70
     1
 71
     2
 10
0.0
 20
0.0
 11
0.0
 21
0.0
 12
0.0
 22
0.0
 32
0.0
 14
0.0
 24
0.0
 34
0.0
 15
0.0
 25
0.0
 35
0.0
146
0.0
 13
0.0
 23
0.0
 33
0.0
 16
1.0
 26
0.0
 36
0.0
 17
0.0
 27
1.0
 37
0.0
 76
     0
330
23
  0
LAYOUT
  5
22
102
{ACAD_REACTORS
330
1A
102
}
330
1A
100
AcDbPlotSettings
  1

  2
none_device
  4
Letter_(8.50_x_11.00_Inches)
  6

 40
6.35
 41
6.35
 42
6.35000508
 43
6.35000508
 44
215.9
 45
279.4
 46
0.0
 47
0.0
 48
0.0
 49
0.0
140
0.0
141
0.0
142
1.0
143
1.0
 70
  1712
 72
     1
 73
     0
 74
     0
  7

 75
     0
 76
     0
 77
     5
 78
   300
147
1.0
148
0.0
149
0.0
100
AcDbLayout
  1
Model
 70
     1
 71
     0
 10
-1050.0
 20
-742.5
 11
1050.0
 21
742.5
 12
0.0
 22
0.0
 32
0.0
 14
-1050.0
 24
-742.5
 34
0.0
 15
1050.0
 25
742.5
 35
0.0
146
0.0
 13
0.0
 23
0.0
 33
0.0
 16
1.0
 26
0.0
 36
0.0
 17
0.0
 27
1.0
 37
0.0
 76
     0
330
1F
331
29
  0
MATERIAL
  5
45
102
{ACAD_REACTORS
330
43
102
}
102
{ACAD_XDICTIONARY
360
2DE
102
}
330
43
100
AcDbMaterial
  1
ByBlock
  0
MATERIAL
  5
44
102
{ACAD_REACTORS
330
43
102
}
102
{ACAD_XDICTIONARY
360
2DC
102
}
330
43
100
AcDbMaterial
  1
ByLayer
  0
MATERIAL
  5
46
102
{ACAD_REACTORS
330
43
102
}
102
{ACAD_XDICTIONARY
360
2E0
102
}
330
43
100
AcDbMaterial
  1
Global
  0
MLEADERSTYLE
  5
6C
102
{ACAD_REACTORS
330
6B
102
}
102
{ACAD_XDICTIONARY
360
2E6
102
}
330
6B
100
AcDbMLeaderStyle
170
     2
171
     1
172
     0
 90
        2
 40
0.0
 41
0.0
173
     1
 91
-1056964608
340
14
 92
       -2
290
     1
 42
2.0
291
     1
 43
8.0
  3
Standard
341
0
 44
4.0
300

342
11
174
     1
178
     6
175
     1
176
     0
 93
-1056964608
 45
4.0
292
     0
297
     0
 46
4.0
343
0
 94
-1056964608
 47
1.0
 49
1.0
140
1.0
293
     1
141
0.0
294
     1
177
     0
142
1.0
295
     0
296
     0
143
3.75
1001
ACAD_MLEADERVER
1070
     2
  0
MLINESTYLE
  5
18
102
{ACAD_REACTORS
330
17
102
}
330
17
100
AcDbMlineStyle
  2
Standard
 70
     0
  3

 62
   256
 51
90.0
 52
90.0
 71
     2
 49
0.5
 62
   256
  6
BYLAYER
 49
-0.5
 62
   256
  6
BYLAYER
  0
ACDBPLACEHOLDER
  5
F
102
{ACAD_REACTORS
330
E
102
}
330
E
  0
SCALE
  5
48
102
{ACAD_REACTORS
330
47
102
}
330
47
100
AcDbScale
 70
     0
300
1:1
140
1.0
141
1.0
290
     1
  0
SCALE
  5
49
102
{ACAD_REACTORS
330
47
102
}
330
47
100
AcDbScale
 70
     0
300
1:2
140
1.0
141
2.0
290
     0
  0
SCALE
  5
4A
102
{ACAD_REACTORS
330
47
102
}
330
47
100
AcDbScale
 70
     0
300
1:4
140
1.0
141
4.0
290
     0
  0
SCALE
  5
4B
102
{ACAD_REACTORS
330
47
102
}
330
47
100
AcDbScale
 70
     0
300
1:5
140
1.0
141
5.0
290
     0
  0
SCALE
  5
4C
102
{ACAD_REACTORS
330
47
102
}
330
47
100
AcDbScale
 70
     0
300
1:8
140
1.0
141
8.0
290
     0
  0
SCALE
  5
4D
102
{ACAD_REACTORS
330
47
102
}
330
47
100
AcDbScale
 70
     0
300
1:10
140
1.0
141
10.0
290
     0
  0
SCALE
  5
4E
102
{ACAD_REACTORS
330
47
102
}
330
47
100
AcDbScale
 70
     0
300
1:16
140
1.0
141
16.0
290
     0
  0
SCALE
  5
4F
102
{ACAD_REACTORS
330
47
102
}
330
47
100
AcDbScale
 70
     0
300
1:20
140
1.0
141
20.0
290
     0
  0
SCALE
  5
50
102
{ACAD_REACTORS
330
47
102
}
330
47
100
AcDbScale
 70
     0
300
1:30
140
1.0
141
30.0
290
     0
  0
SCALE
  5
51
102
{ACAD_REACTORS
330
47
102
}
330
47
100
AcDbScale
 70
     0
300
1:40
140
1.0
141
40.0
290
     0
  0
SCALE
  5
52
102
{ACAD_REACTORS
330
47
102
}
330
47
100
AcDbScale
 70
     0
300
1:50
140
1.0
141
50.0
290
     0
  0
SCALE
  5
53
102
{ACAD_REACTORS
330
47
102
}
330
47
100
AcDbScale
 70
     0
300
1:100
140
1.0
141
100.0
290
     0
  0
SCALE
  5
54
102
{ACAD_REACTORS
330
47
102
}
330
47
100
AcDbScale
 70
     0
300
2:1
140
2.0
141
1.0
290
     0
  0
SCALE
  5
55
102
{ACAD_REACTORS
330
47
102
}
330
47
100
AcDbScale
 70
     0
300
4:1
140
4.0
141
1.0
290
     0
  0
SCALE
  5
56
102
{ACAD_REACTORS
330
47
102
}
330
47
100
AcDbScale
 70
     0
300
8:1
140
8.0
141
1.0
290
     0
  0
SCALE
  5
57
102
{ACAD_REACTORS
330
47
102
}
330
47
100
AcDbScale
 70
     0
300
10:1
140
10.0
141
1.0
290
     0
  0
SCALE
  5
58
102
{ACAD_REACTORS
330
47
102
}
330
47
100
AcDbScale
 70
     0
300
100:1
140
100.0
141
1.0
290
     0
  0
SCALE
  5
59
102
{ACAD_REACTORS
330
47
102
}
330
47
100
AcDbScale
 70
     0
300
1/128" = 1'-0"
140
0.0078125
141
12.0
290
     0
  0
SCALE
  5
5A
102
{ACAD_REACTORS
330
47
102
}
330
47
100
AcDbScale
 70
     0
300
1/64" = 1'-0"
140
0.015625
141
12.0
290
     0
  0
SCALE
  5
5B
102
{ACAD_REACTORS
330
47
102
}
330
47
100
AcDbScale
 70
     0
300
1/32" = 1'-0"
140
0.03125
141
12.0
290
     0
  0
SCALE
  5
5C
102
{ACAD_REACTORS
330
47
102
}
330
47
100
AcDbScale
 70
     0
300
1/16" = 1'-0"
140
0.0625
141
12.0
290
     0
  0
SCALE
  5
5D
102
{ACAD_REACTORS
330
47
102
}
330
47
100
AcDbScale
 70
     0
300
3/32" = 1'-0"
140
0.09375
141
12.0
290
     0
  0
SCALE
  5
5E
102
{ACAD_REACTORS
330
47
102
}
330
47
100
AcDbScale
 70
     0
300
1/8" = 1'-0"
140
0.125
141
12.0
290
     0
  0
SCALE
  5
5F
102
{ACAD_REACTORS
330
47
102
}
330
47
100
AcDbScale
 70
     0
300
3/16" = 1'-0"
140
0.1875
141
12.0
290
     0
  0
SCALE
  5
60
102
{ACAD_REACTORS
330
47
102
}
330
47
100
AcDbScale
 70
     0
300
1/4" = 1'-0"
140
0.25
141
12.0
290
     0
  0
SCALE
  5
61
102
{ACAD_REACTORS
330
47
102
}
330
47
100
AcDbScale
 70
     0
300
3/8" = 1'-0"
140
0.375
141
12.0
290
     0
  0
SCALE
  5
62
102
{ACAD_REACTORS
330
47
102
}
330
47
100
AcDbScale
 70
     0
300
1/2" = 1'-0"
140
0.5
141
12.0
290
     0
  0
SCALE
  5
63
102
{ACAD_REACTORS
330
47
102
}
330
47
100
AcDbScale
 70
     0
300
3/4" = 1'-0"
140
0.75
141
12.0
290
     0
  0
SCALE
  5
64
102
{ACAD_REACTORS
330
47
102
}
330
47
100
AcDbScale
 70
     0
300
1" = 1'-0"
140
1.0
141
12.0
290
     0
  0
SCALE
  5
65
102
{ACAD_REACTORS
330
47
102
}
330
47
100
AcDbScale
 70
     0
300
1-1/2" = 1'-0"
140
1.5
141
12.0
290
     0
  0
SCALE
  5
66
102
{ACAD_REACTORS
330
47
102
}
330
47
100
AcDbScale
 70
     0
300
3" = 1'-0"
140
3.0
141
12.0
290
     0
  0
SCALE
  5
67
102
{ACAD_REACTORS
330
47
102
}
330
47
100
AcDbScale
 70
     0
300
6" = 1'-0"
140
6.0
141
12.0
290
     0
  0
SCALE
  5
68
102
{ACAD_REACTORS
330
47
102
}
330
47
100
AcDbScale
 70
     0
300
1'-0" = 1'-0"
140
12.0
141
12.0
290
     0
  0
TABLESTYLE
  5
6A
102
{ACAD_REACTORS
330
69
102
}
102
{ACAD_XDICTIONARY
360
2E2
102
}
330
69
100
AcDbTableStyle
  3
Standard
 70
     0
 71
     0
 40
0.06
 41
0.06
280
     0
281
     0
  7
Standard
140
4.5
170
     2
 62
     0
 63
   257
283
     0
274
    -2
284
     1
 64
     0
275
    -2
285
     1
 65
     0
276
    -2
286
     1
 66
     0
277
    -2
287
     1
 67
     0
278
    -2
288
     1
 68
     0
279
    -2
289
     1
 69
     0
  7
Standard
140
6.0
170
     5
 62
     0
 63
   257
283
     0
274
    -2
284
     1
 64
     0
275
    -2
285
     1
 65
     0
276
    -2
286
     1
 66
     0
277
    -2
287
     1
 67
     0
278
    -2
288
     1
 68
     0
279
    -2
289
     1
 69
     0
  7
Standard
140
4.5
170
     5
 62
     0
 63
   257
283
     0
274
    -2
284
     1
 64
     0
275
    -2
285
     1
 65
     0
276
    -2
286
     1
 66
     0
277
    -2
287
     1
 67
     0
278
    -2
288
     1
 68
     0
279
    -2
289
     1
 69
     0
  0
VISUALSTYLE
  5
2F
102
{ACAD_REACTORS
330
2A
102
}
102
{ACAD_XDICTIONARY
360
2B4
102
}
330
2A
100
AcDbVisualStyle
  2
2dWireframe
 70
     4
 71
     0
 72
     2
 73
     0
 90
        0
 40
0.6
 41
30.0
 62
     5
 63
     7
421
 16777215
 74
     1
 91
        4
 64
     7
 65
   257
 75
     1
175
     1
 42
1.0
 92
        0
 66
   257
 43
1.0
 76
     1
 77
     6
 78
     2
 67
     7
 79
     5
170
     0
171
     0
290
     0
174
     0
 93
        1
 44
0.0
173
     0
291
     0
 45
0.0
1001
ACAD
1000
AcDbSavedByObjectVersion
1070
     0
  0
VISUALSTYLE
  5
32
102
{ACAD_REACTORS
330
2A
102
}
102
{ACAD_XDICTIONARY
360
2BA
102
}
330
2A
100
AcDbVisualStyle
  2
Basic
 70
     7
 71
     1
 72
     0
 73
     1
 90
        0
 40
0.6
 41
30.0
 62
     5
 63
     7
421
 16777215
 74
     0
 91
        4
 64
     7
 65
   257
 75
     1
175
     1
 42
1.0
 92
        8
 66
     7
 43
1.0
 76
     1
 77
     6
 78
     2
 67
     7
 79
     5
170
     0
171
     0
290
     0
174
     0
 93
        1
 44
0.0
173
     0
291
     1
 45
0.0
1001
ACAD
1000
AcDbSavedByObjectVersion
1070
     0
  0
VISUALSTYLE
  5
36
102
{ACAD_REACTORS
330
2A
102
}
102
{ACAD_XDICTIONARY
360
2C2
102
}
330
2A
100
AcDbVisualStyle
  2
Brighten
 70
    12
 71
     2
 72
     2
 73
     0
 90
        0
 40
0.6
 41
30.0
 62
     5
 63
     7
421
 16777215
 74
     1
 91
        4
 64
     7
 65
   257
 75
     1
175
     1
 42
1.0
 92
        8
 66
     7
 43
1.0
 76
     1
 77
     6
 78
     2
 67
     7
 79
     5
170
     0
171
     0
290
     0
174
     0
 93
        1
 44
50.0
173
     0
291
     1
 45
0.0
1001
ACAD
1000
AcDbSavedByObjectVersion
1070
     0
  0
VISUALSTYLE
  5
3A
102
{ACAD_REACTORS
330
2A
102
}
102
{ACAD_XDICTIONARY
360
2CA
102
}
330
2A
100
AcDbVisualStyle
  2
ColorChange
 70
    16
 71
     2
 72
     2
 73
     3
 90
        0
 40
0.6
 41
30.0
 62
     5
 63
     8
421
  8421504
 74
     1
 91
        4
 64
     7
 65
   257
 75
     1
175
     1
 42
1.0
 92
        8
 66
     8
424
  8421504
 43
1.0
 76
     1
 77
     6
 78
     2
 67
     7
 79
     5
170
     0
171
     0
290
     0
174
     0
 93
        1
 44
0.0
173
     0
291
     1
 45
0.0
1001
ACAD
1000
AcDbSavedByObjectVersion
1070
     0
  0
VISUALSTYLE
  5
34
102
{ACAD_REACTORS
330
2A
102
}
102
{ACAD_XDICTIONARY
360
2BE
102
}
330
2A
100
AcDbVisualStyle
  2
Conceptual
 70
     9
 71
     3
 72
     2
 73
     0
 90
        0
 40
0.6
 41
30.0
 62
     5
 63
     7
421
 16777215
 74
     2
 91
        2
 64
     7
 65
   257
 75
     1
175
     1
 42
179.0
 92
        8
 66
     7
 43
1.0
 76
     1
 77
     6
 78
     2
 67
     7
 79
     3
170
     0
171
     0
290
     0
174
     0
 93
        1
 44
0.0
173
     0
291
     0
 45
0.0
1001
ACAD
1000
AcDbSavedByObjectVersion
1070
     0
  0
VISUALSTYLE
  5
35
102
{ACAD_REACTORS
330
2A
102
}
102
{ACAD_XDICTIONARY
360
2C0
102
}
330
2A
100
AcDbVisualStyle
  2
Dim
 70
    11
 71
     2
 72
     2
 73
     0
 90
        0
 40
0.6
 41
30.0
 62
     5
 63
     7
421
 16777215
 74
     1
 91
        4
 64
     7
 65
   257
 75
     1
175
     1
 42
1.0
 92
        8
 66
     7
 43
1.0
 76
     1
 77
     6
 78
     2
 67
     7
 79
     5
170
     0
171
     0
290
     0
174
     0
 93
        1
 44
-50.0
173
     0
291
     1
 45
0.0
1001
ACAD
1000
AcDbSavedByObjectVersion
1070
     0
  0
VISUALSTYLE
  5
3D
102
{ACAD_REACTORS
330
2A
102
}
102
{ACAD_XDICTIONARY
360
2D0
102
}
330
2A
100
AcDbVisualStyle
  2
EdgeColorOff
 70
    22
 71
     2
 72
     2
 73
     0
 90
        0
 40
0.6
 41
30.0
 62
     5
 63
     7
421
 16777215
 74
     1
 91
        4
 64
     7
 65
   257
 75
     1
175
     1
 42
1.0
 92
        8
 66
     7
 43
1.0
 76
     1
 77
     6
 78
     2
 67
     7
 79
     5
170
     0
171
     0
290
     0
174
     0
 93
        1
 44
0.0
173
     0
291
     1
 45
0.0
1001
ACAD
1000
AcDbSavedByObjectVersion
1070
     0
  0
VISUALSTYLE
  5
39
102
{ACAD_REACTORS
330
2A
102
}
102
{ACAD_XDICTIONARY
360
2C8
102
}
330
2A
100
AcDbVisualStyle
  2
Facepattern
 70
    15
 71
     2
 72
     2
 73
     0
 90
        0
 40
0.6
 41
30.0
 62
     5
 63
     7
421
 16777215
 74
     1
 91
        4
 64
     7
 65
   257
 75
     1
175
     1
 42
1.0
 92
        8
 66
     7
 43
1.0
 76
     1
 77
     6
 78
     2
 67
     7
 79
     5
170
     0
171
     0
290
     0
174
     0
 93
        1
 44
0.0
173
     0
291
     1
 45
0.0
1001
ACAD
1000
AcDbSavedByObjectVersion
1070
     0
  0
VISUALSTYLE
  5
2B
102
{ACAD_REACTORS
330
2A
102
}
102
{ACAD_XDICTIONARY
360
2AC
102
}
330
2A
100
AcDbVisualStyle
  2
Flat
 70
     0
 71
     2
 72
     1
 73
     1
 90
        2
 40
0.6
 41
30.0
 62
     5
 63
     7
421
 16777215
 74
     0
 91
        0
 64
     7
 65
   257
 75
     1
175
     1
 42
1.0
 92
        8
 66
     7
 43
1.0
 76
     1
 77
     6
 78
     2
 67
     7
 79
     5
170
     0
171
     0
290
     0
174
     0
 93
       13
 44
0.0
173
     0
291
     1
 45
0.0
1001
ACAD
1000
AcDbSavedByObjectVersion
1070
     0
  0
VISUALSTYLE
  5
2C
102
{ACAD_REACTORS
330
2A
102
}
102
{ACAD_XDICTIONARY
360
2AE
102
}
330
2A
100
AcDbVisualStyle
  2
FlatWithEdges
 70
     1
 71
     2
 72
     1
 73
     1
 90
        2
 40
0.6
 41
30.0
 62
     5
 63
     7
421
 16777215
 74
     1
 91
        0
 64
     7
 65
   257
 75
     1
175
     1
 42
1.0
 92
        0
 66
   257
 43
1.0
 76
     1
 77
     6
 78
     2
 67
     7
 79
     5
170
     0
171
     0
290
     0
174
     0
 93
       13
 44
0.0
173
     0
291
     1
 45
0.0
1001
ACAD
1000
AcDbSavedByObjectVersion
1070
     0
  0
VISUALSTYLE
  5
2D
102
{ACAD_REACTORS
330
2A
102
}
102
{ACAD_XDICTIONARY
360
2B0
102
}
330
2A
100
AcDbVisualStyle
  2
Gouraud
 70
     2
 71
     2
 72
     2
 73
     1
 90
        2
 40
0.6
 41
30.0
 62
     5
 63
     7
421
 16777215
 74
     0
 91
        0
 64
     7
 65
   257
 75
     1
175
     1
 42
1.0
 92
        0
 66
     7
 43
1.0
 76
     1
 77
     6
 78
     2
 67
     7
 79
     5
170
     0
171
     0
290
     0
174
     0
 93
       13
 44
0.0
173
     0
291
     1
 45
0.0
1001
ACAD
1000
AcDbSavedByObjectVersion
1070
     0
  0
VISUALSTYLE
  5
2E
102
{ACAD_REACTORS
330
2A
102
}
102
{ACAD_XDICTIONARY
360
2B2
102
}
330
2A
100
AcDbVisualStyle
  2
GouraudWithEdges
 70
     3
 71
     2
 72
     2
 73
     1
 90
        2
 40
0.6
 41
30.0
 62
     5
 63
     7
421
 16777215
 74
     1
 91
        0
 64
     7
 65
   257
 75
     1
175
     1
 42
1.0
 92
        0
 66
   257
 43
1.0
 76
     1
 77
     6
 78
     2
 67
     7
 79
     5
170
     0
171
     0
290
     0
174
     0
 93
       13
 44
0.0
173
     0
291
     1
 45
0.0
1001
ACAD
1000
AcDbSavedByObjectVersion
1070
     0
  0
VISUALSTYLE
  5
31
102
{ACAD_REACTORS
330
2A
102
}
102
{ACAD_XDICTIONARY
360
2B8
102
}
330
2A
100
AcDbVisualStyle
  2
Hidden
 70
     6
 71
     1
 72
     2
 73
     2
 90
        0
 40
0.6
 41
30.0
 62
     5
 63
     7
421
 16777215
 74
     2
 91
        2
 64
     7
 65
   257
 75
     2
175
     1
 42
40.0
 92
        0
 66
   257
 43
1.0
 76
     1
 77
     6
 78
     2
 67
     7
 79
     3
170
     0
171
     0
290
     0
174
     0
 93
        1
 44
0.0
173
     0
291
     0
 45
0.0
1001
ACAD
1000
AcDbSavedByObjectVersion
1070
     0
  0
VISUALSTYLE
  5
3B
102
{ACAD_REACTORS
330
2A
102
}
102
{ACAD_XDICTIONARY
360
2CC
102
}
330
2A
100
AcDbVisualStyle
  2
JitterOff
 70
    20
 71
     2
 72
     2
 73
     0
 90
        0
 40
0.6
 41
30.0
 62
     5
 63
     7
421
 16777215
 74
     1
 91
        4
 64
     7
 65
   257
 75
     1
175
     1
 42
1.0
 92
       10
 66
     7
 43
1.0
 76
     1
 77
     6
 78
     2
 67
     7
 79
     5
170
     0
171
     0
290
     0
174
     0
 93
        1
 44
0.0
173
     0
291
     1
 45
0.0
1001
ACAD
1000
AcDbSavedByObjectVersion
1070
     0
  0
VISUALSTYLE
  5
38
102
{ACAD_REACTORS
330
2A
102
}
102
{ACAD_XDICTIONARY
360
2C6
102
}
330
2A
100
AcDbVisualStyle
  2
Linepattern
 70
    14
 71
     2
 72
     2
 73
     0
 90
        0
 40
0.6
 41
30.0
 62
     5
 63
     7
421
 16777215
 74
     1
 91
        4
 64
     7
 65
   257
 75
     7
175
     7
 42
1.0
 92
        8
 66
     7
 43
1.0
 76
     1
 77
     6
 78
     2
 67
     7
 79
     5
170
     0
171
     0
290
     0
174
     0
 93
        1
 44
0.0
173
     0
291
     1
 45
0.0
1001
ACAD
1000
AcDbSavedByObjectVersion
1070
     0
  0
VISUALSTYLE
  5
3C
102
{ACAD_REACTORS
330
2A
102
}
102
{ACAD_XDICTIONARY
360
2CE
102
}
330
2A
100
AcDbVisualStyle
  2
OverhangOff
 70
    21
 71
     2
 72
     2
 73
     0
 90
        0
 40
0.6
 41
30.0
 62
     5
 63
     7
421
 16777215
 74
     1
 91
        4
 64
     7
 65
   257
 75
     1
175
     1
 42
1.0
 92
        9
 66
     7
 43
1.0
 76
     1
 77
     6
 78
     2
 67
     7
 79
     5
170
     0
171
     0
290
     0
174
     0
 93
        1
 44
0.0
173
     0
291
     1
 45
0.0
1001
ACAD
1000
AcDbSavedByObjectVersion
1070
     0
  0
VISUALSTYLE
  5
33
102
{ACAD_REACTORS
330
2A
102
}
102
{ACAD_XDICTIONARY
360
2BC
102
}
330
2A
100
AcDbVisualStyle
  2
Realistic
 70
     8
 71
     2
 72
     3
 73
     0
 90
        2
 40
0.6
 41
30.0
 62
     5
 63
     7
421
 16777215
 74
     0
 91
        0
 64
     7
 65
   257
 75
     1
175
     1
 42
1.0
 92
        8
 66
   257
 43
1.0
 76
     1
 77
     6
 78
     2
 67
     7
 79
     3
170
     0
171
     0
290
     0
174
     0
 93
       13
 44
0.0
173
     0
291
     0
 45
0.0
1001
ACAD
1000
AcDbSavedByObjectVersion
1070
     0
  0
VISUALSTYLE
  5
42
102
{ACAD_REACTORS
330
2A
102
}
102
{ACAD_XDICTIONARY
360
2DA
102
}
330
2A
100
AcDbVisualStyle
  2
Shaded
 70
    27
 71
     2
 72
     2
 73
     1
 90
        2
 40
0.6
 41
30.0
 62
     5
 63
     7
421
 16777215
 74
     0
 91
        4
 64
     7
 65
   257
 75
     1
175
     1
 42
1.0
 92
        8
 66
   257
 43
1.0
 76
     1
 77
     6
 78
     2
 67
     8
425
  7895160
 79
     3
170
     0
171
     0
290
     0
174
     0
 93
        5
 44
0.0
173
     0
291
     0
 45
0.0
1001
ACAD
1000
AcDbSavedByObjectVersion
1070
     0
  0
VISUALSTYLE
  5
41
102
{ACAD_REACTORS
330
2A
102
}
102
{ACAD_XDICTIONARY
360
2D8
102
}
330
2A
100
AcDbVisualStyle
  2
Shaded with edges
 70
    26
 71
     2
 72
     2
 73
     1
 90
        2
 40
0.6
 41
30.0
 62
     5
 63
     7
421
 16777215
 74
     1
 91
       10
 64
     7
 65
   257
 75
     2
175
     1
 42
1.0
 92
        8
 66
   257
 43
1.0
 76
     1
 77
     6
 78
     2
 67
     7
 79
     3
170
     0
171
     0
290
     0
174
     0
 93
        5
 44
0.0
173
     0
291
     0
 45
0.0
1001
ACAD
1000
AcDbSavedByObjectVersion
1070
     0
  0
VISUALSTYLE
  5
3E
102
{ACAD_REACTORS
330
2A
102
}
102
{ACAD_XDICTIONARY
360
2D2
102
}
330
2A
100
AcDbVisualStyle
  2
Shades of Gray
 70
    23
 71
     2
 72
     2
 73
     3
 90
        0
 40
0.6
 41
30.0
 62
     5
 63
     7
421
 16777215
 74
     2
 91
        2
 64
     7
 65
     7
 75
     1
175
     1
 42
40.0
 92
        8
 66
     7
 43
1.0
 76
     1
 77
     6
 78
     2
 67
     7
 79
     3
170
     0
171
     0
290
     0
174
     0
 93
        1
 44
0.0
173
     0
291
     0
 45
0.0
1001
ACAD
1000
AcDbSavedByObjectVersion
1070
     0
  0
VISUALSTYLE
  5
3F
102
{ACAD_REACTORS
330
2A
102
}
102
{ACAD_XDICTIONARY
360
2D4
102
}
330
2A
100
AcDbVisualStyle
  2
Sketchy
 70
    24
 71
     1
 72
     2
 73
     2
 90
        0
 40
0.6
 41
30.0
 62
     5
 63
     7
421
 16777215
 74
     2
 91
        2
 64
     7
 65
     7
 75
     1
175
     1
 42
40.0
 92
       11
 66
     7
 43
1.0
 76
     1
 77
     6
 78
     2
 67
     7
 79
     6
170
     0
171
     0
290
     0
174
     0
 93
        1
 44
0.0
173
     0
291
     0
 45
0.0
1001
ACAD
1000
AcDbSavedByObjectVersion
1070
     0
  0
VISUALSTYLE
  5
37
102
{ACAD_REACTORS
330
2A
102
}
102
{ACAD_XDICTIONARY
360
2C4
102
}
330
2A
100
AcDbVisualStyle
  2
Thicken
 70
    13
 71
     2
 72
     2
 73
     0
 90
        0
 40
0.6
 41
30.0
 62
     5
 63
     7
421
 16777215
 74
     1
 91
        4
 64
     7
 65
   257
 75
     1
175
     1
 42
1.0
 92
       12
 66
     7
 43
1.0
 76
     1
 77
     6
 78
     2
 67
     7
 79
     5
170
     0
171
     0
290
     0
174
     0
 93
        1
 44
0.0
173
     0
291
     1
 45
0.0
1001
ACAD
1000
AcDbSavedByObjectVersion
1070
     0
  0
VISUALSTYLE
  5
30
102
{ACAD_REACTORS
330
2A
102
}
102
{ACAD_XDICTIONARY
360
2B6
102
}
330
2A
100
AcDbVisualStyle
  2
Wireframe
 70
     5
 71
     0
 72
     2
 73
     0
 90
        0
 40
0.6
 41
30.0
 62
     5
 63
     7
421
 16777215
 74
     1
 91
        4
 64
     7
 65
   257
 75
     1
175
     1
 42
1.0
 92
        0
 66
   257
 43
1.0
 76
     1
 77
     6
 78
     2
 67
     7
 79
     3
170
     0
171
     0
290
     0
174
     0
 93
        1
 44
0.0
173
     0
291
     0
 45
0.0
1001
ACAD
1000
AcDbSavedByObjectVersion
1070
     0
  0
VISUALSTYLE
  5
40
102
{ACAD_REACTORS
330
2A
102
}
102
{ACAD_XDICTIONARY
360
2D6
102
}
330
2A
100
AcDbVisualStyle
  2
X-Ray
 70
    25
 71
     2
 72
     2
 73
     1
 90
        1
 40
0.5
 41
30.0
 62
     5
 63
     7
421
 16777215
 74
     1
 91
        0
 64
     7
 65
   257
 75
     1
175
     1
 42
1.0
 92
        8
 66
     7
 43
1.0
 76
     1
 77
     6
 78
     2
 67
     7
 79
     3
170
     0
171
     0
290
     0
174
     0
 93
       13
 44
0.0
173
     0
291
     0
 45
0.0
1001
ACAD
1000
AcDbSavedByObjectVersion
1070
     0
  0
DICTIONARYVAR
  5
2A9
102
{ACAD_REACTORS
330
2A8
102
}
330
2A8
100
DictionaryVariables
280
     0
  1
1:1
  0
DICTIONARYVAR
  5
2ED
102
{ACAD_REACTORS
330
2A8
102
}
330
2A8
100
DictionaryVariables
280
     0
  1
3.500000
  0
DICTIONARYVAR
  5
2EE
102
{ACAD_REACTORS
330
2A8
102
}
330
2A8
100
DictionaryVariables
280
     0
  1
acadiso.lin
  0
DICTIONARYVAR
  5
2EA
102
{ACAD_REACTORS
330
2A8
102
}
330
2A8
100
DictionaryVariables
280
     0
  1
Standard
  0
DICTIONARYVAR
  5
2E9
102
{ACAD_REACTORS
330
2A8
102
}
330
2A8
100
DictionaryVariables
280
     0
  1
Standard
  0
DICTIONARYVAR
  5
2AA
102
{ACAD_REACTORS
330
2A8
102
}
330
2A8
100
DictionaryVariables
280
     0
  1
1
  0
DICTIONARYVAR
  5
2AB
102
{ACAD_REACTORS
330
2A8
102
}
330
2A8
100
DictionaryVariables
280
     0
  1
2
  0
DICTIONARY
  5
2DE
330
45
100
AcDbDictionary
280
     1
281
     1
  3
ACAD_XREC_ROUNDTRIP
360
2DF
  0
DICTIONARY
  5
2DC
330
44
100
AcDbDictionary
280
     1
281
     1
  3
ACAD_XREC_ROUNDTRIP
360
2DD
  0
DICTIONARY
  5
2E0
330
46
100
AcDbDictionary
280
     1
281
     1
  3
ACAD_XREC_ROUNDTRIP
360
2E1
  0
DICTIONARY
  5
2E6
330
6C
100
AcDbDictionary
280
     1
281
     1
  3
ACAD_XREC_ROUNDTRIP
360
2E7
  0
DICTIONARY
  5
2E2
330
6A
100
AcDbDictionary
280
     1
281
     1
  3
ACAD_ROUNDTRIP_2008_TABLESTYLE_CELLSTYLEMAP
360
2E4
  3
ACAD_XREC_ROUNDTRIP
360
2E3
  0
DICTIONARY
  5
2B4
330
2F
100
AcDbDictionary
280
     1
281
     1
  3
ACAD_XREC_ROUNDTRIP
360
2B5
  0
DICTIONARY
  5
2BA
330
32
100
AcDbDictionary
280
     1
281
     1
  3
ACAD_XREC_ROUNDTRIP
360
2BB
  0
DICTIONARY
  5
2C2
330
36
100
AcDbDictionary
280
     1
281
     1
  3
ACAD_XREC_ROUNDTRIP
360
2C3
  0
DICTIONARY
  5
2CA
330
3A
100
AcDbDictionary
280
     1
281
     1
  3
ACAD_XREC_ROUNDTRIP
360
2CB
  0
DICTIONARY
  5
2BE
330
34
100
AcDbDictionary
280
     1
281
     1
  3
ACAD_XREC_ROUNDTRIP
360
2BF
  0
DICTIONARY
  5
2C0
330
35
100
AcDbDictionary
280
     1
281
     1
  3
ACAD_XREC_ROUNDTRIP
360
2C1
  0
DICTIONARY
  5
2D0
330
3D
100
AcDbDictionary
280
     1
281
     1
  3
ACAD_XREC_ROUNDTRIP
360
2D1
  0
DICTIONARY
  5
2C8
330
39
100
AcDbDictionary
280
     1
281
     1
  3
ACAD_XREC_ROUNDTRIP
360
2C9
  0
DICTIONARY
  5
2AC
330
2B
100
AcDbDictionary
280
     1
281
     1
  3
ACAD_XREC_ROUNDTRIP
360
2AD
  0
DICTIONARY
  5
2AE
330
2C
100
AcDbDictionary
280
     1
281
     1
  3
ACAD_XREC_ROUNDTRIP
360
2AF
  0
DICTIONARY
  5
2B0
330
2D
100
AcDbDictionary
280
     1
281
     1
  3
ACAD_XREC_ROUNDTRIP
360
2B1
  0
DICTIONARY
  5
2B2
330
2E
100
AcDbDictionary
280
     1
281
     1
  3
ACAD_XREC_ROUNDTRIP
360
2B3
  0
DICTIONARY
  5
2B8
330
31
100
AcDbDictionary
280
     1
281
     1
  3
ACAD_XREC_ROUNDTRIP
360
2B9
  0
DICTIONARY
  5
2CC
330
3B
100
AcDbDictionary
280
     1
281
     1
  3
ACAD_XREC_ROUNDTRIP
360
2CD
  0
DICTIONARY
  5
2C6
330
38
100
AcDbDictionary
280
     1
281
     1
  3
ACAD_XREC_ROUNDTRIP
360
2C7
  0
DICTIONARY
  5
2CE
330
3C
100
AcDbDictionary
280
     1
281
     1
  3
ACAD_XREC_ROUNDTRIP
360
2CF
  0
DICTIONARY
  5
2BC
330
33
100
AcDbDictionary
280
     1
281
     1
  3
ACAD_XREC_ROUNDTRIP
360
2BD
  0
DICTIONARY
  5
2DA
330
42
100
AcDbDictionary
280
     1
281
     1
  3
ACAD_XREC_ROUNDTRIP
360
2DB
  0
DICTIONARY
  5
2D8
330
41
100
AcDbDictionary
280
     1
281
     1
  3
ACAD_XREC_ROUNDTRIP
360
2D9
  0
DICTIONARY
  5
2D2
330
3E
100
AcDbDictionary
280
     1
281
     1
  3
ACAD_XREC_ROUNDTRIP
360
2D3
  0
DICTIONARY
  5
2D4
330
3F
100
AcDbDictionary
280
     1
281
     1
  3
ACAD_XREC_ROUNDTRIP
360
2D5
  0
DICTIONARY
  5
2C4
330
37
100
AcDbDictionary
280
     1
281
     1
  3
ACAD_XREC_ROUNDTRIP
360
2C5
  0
DICTIONARY
  5
2B6
330
30
100
AcDbDictionary
280
     1
281
     1
  3
ACAD_XREC_ROUNDTRIP
360
2B7
  0
DICTIONARY
  5
2D6
330
40
100
AcDbDictionary
280
     1
281
     1
  3
ACAD_XREC_ROUNDTRIP
360
2D7
  0
XRECORD
  5
2DF
102
{ACAD_REACTORS
330
2DE
102
}
330
2DE
100
AcDbXrecord
280
     1
102
MATERIAL
148
0.0
149
0.0
149
0.0
 93
        0
 94
      127
282
     0
 72
     1
 77
     1
171
     1
175
     1
179
     1
273
     0
  0
XRECORD
  5
2DD
102
{ACAD_REACTORS
330
2DC
102
}
330
2DC
100
AcDbXrecord
280
     1
102
MATERIAL
148
0.0
149
0.0
149
0.0
 93
        0
 94
      127
282
     0
 72
     1
 77
     1
171
     1
175
     1
179
     1
273
     0
  0
XRECORD
  5
2E1
102
{ACAD_REACTORS
330
2E0
102
}
330
2E0
100
AcDbXrecord
280
     1
102
MATERIAL
148
0.0
149
0.0
149
0.0
 93
        0
 94
      127
282
     0
 72
     1
 77
     1
171
     1
175
     1
179
     1
273
     0
  0
XRECORD
  5
2E7
102
{ACAD_REACTORS
330
2E6
102
}
330
2E6
100
AcDbXrecord
280
     1
102
ACAD_ROUNDTRIP_2010_MLEADER_STYLE
  0
CELLSTYLEMAP
  5
2E4
102
{ACAD_REACTORS
330
2E2
102
}
330
2E2
100
AcDbCellStyleMap
 90
        3
300
CELLSTYLE
  1
TABLEFORMAT_BEGIN
 90
        5
170
     1
 91
        0
 92
    32768
 62
   257
 93
        1
300
CONTENTFORMAT
  1
CONTENTFORMAT_BEGIN
 90
        0
 91
        0
 92
        4
 93
        0
300

 40
0.0
140
1.0
 94
        5
 62
     0
340
11
144
6.0
309
CONTENTFORMAT_END
171
     1
301
MARGIN
  1
CELLMARGIN_BEGIN
 40
1.5
 40
1.5
 40
1.5
 40
1.5
 40
1.5
 40
1.5
309
CELLMARGIN_END
 94
        6
 95
        1
302
GRIDFORMAT
  1
GRIDFORMAT_BEGIN
 90
        0
 91
        1
 62
     0
 92
       -2
340
14
 93
        0
 40
0.045
309
GRIDFORMAT_END
 95
        2
302
GRIDFORMAT
  1
GRIDFORMAT_BEGIN
 90
        0
 91
        1
 62
     0
 92
       -2
340
14
 93
        0
 40
0.045
309
GRIDFORMAT_END
 95
        4
302
GRIDFORMAT
  1
GRIDFORMAT_BEGIN
 90
        0
 91
        1
 62
     0
 92
       -2
340
14
 93
        0
 40
0.045
309
GRIDFORMAT_END
 95
        8
302
GRIDFORMAT
  1
GRIDFORMAT_BEGIN
 90
        0
 91
        1
 62
     0
 92
       -2
340
14
 93
        0
 40
0.045
309
GRIDFORMAT_END
 95
       16
302
GRIDFORMAT
  1
GRIDFORMAT_BEGIN
 90
        0
 91
        1
 62
     0
 92
       -2
340
14
 93
        0
 40
0.045
309
GRIDFORMAT_END
 95
       32
302
GRIDFORMAT
  1
GRIDFORMAT_BEGIN
 90
        0
 91
        1
 62
     0
 92
       -2
340
14
 93
        0
 40
0.045
309
GRIDFORMAT_END
309
TABLEFORMAT_END
  1
CELLSTYLE_BEGIN
 90
        1
 91
        1
300
_TITLE
309
CELLSTYLE_END
300
CELLSTYLE
  1
TABLEFORMAT_BEGIN
 90
        5
170
     1
 91
        0
 92
        0
 62
   257
 93
        1
300
CONTENTFORMAT
  1
CONTENTFORMAT_BEGIN
 90
        0
 91
        0
 92
        4
 93
        0
300

 40
0.0
140
1.0
 94
        5
 62
     0
340
11
144
4.5
309
CONTENTFORMAT_END
171
     1
301
MARGIN
  1
CELLMARGIN_BEGIN
 40
1.5
 40
1.5
 40
1.5
 40
1.5
 40
1.5
 40
1.5
309
CELLMARGIN_END
 94
        6
 95
        1
302
GRIDFORMAT
  1
GRIDFORMAT_BEGIN
 90
        0
 91
        1
 62
     0
 92
       -2
340
14
 93
        0
 40
0.045
309
GRIDFORMAT_END
 95
        2
302
GRIDFORMAT
  1
GRIDFORMAT_BEGIN
 90
        0
 91
        1
 62
     0
 92
       -2
340
14
 93
        0
 40
0.045
309
GRIDFORMAT_END
 95
        4
302
GRIDFORMAT
  1
GRIDFORMAT_BEGIN
 90
        0
 91
        1
 62
     0
 92
       -2
340
14
 93
        0
 40
0.045
309
GRIDFORMAT_END
 95
        8
302
GRIDFORMAT
  1
GRIDFORMAT_BEGIN
 90
        0
 91
        1
 62
     0
 92
       -2
340
14
 93
        0
 40
0.045
309
GRIDFORMAT_END
 95
       16
302
GRIDFORMAT
  1
GRIDFORMAT_BEGIN
 90
        0
 91
        1
 62
     0
 92
       -2
340
14
 93
        0
 40
0.045
309
GRIDFORMAT_END
 95
       32
302
GRIDFORMAT
  1
GRIDFORMAT_BEGIN
 90
        0
 91
        1
 62
     0
 92
       -2
340
14
 93
        0
 40
0.045
309
GRIDFORMAT_END
309
TABLEFORMAT_END
  1
CELLSTYLE_BEGIN
 90
        2
 91
        1
300
_HEADER
309
CELLSTYLE_END
300
CELLSTYLE
  1
TABLEFORMAT_BEGIN
 90
        5
170
     1
 91
        0
 92
        0
 62
   257
 93
        1
300
CONTENTFORMAT
  1
CONTENTFORMAT_BEGIN
 90
        0
 91
        0
 92
        4
 93
        0
300

 40
0.0
140
1.0
 94
        2
 62
     0
340
11
144
4.5
309
CONTENTFORMAT_END
171
     1
301
MARGIN
  1
CELLMARGIN_BEGIN
 40
1.5
 40
1.5
 40
1.5
 40
1.5
 40
1.5
 40
1.5
309
CELLMARGIN_END
 94
        6
 95
        1
302
GRIDFORMAT
  1
GRIDFORMAT_BEGIN
 90
        0
 91
        1
 62
     0
 92
       -2
340
14
 93
        0
 40
0.045
309
GRIDFORMAT_END
 95
        2
302
GRIDFORMAT
  1
GRIDFORMAT_BEGIN
 90
        0
 91
        1
 62
     0
 92
       -2
340
14
 93
        0
 40
0.045
309
GRIDFORMAT_END
 95
        4
302
GRIDFORMAT
  1
GRIDFORMAT_BEGIN
 90
        0
 91
        1
 62
     0
 92
       -2
340
14
 93
        0
 40
0.045
309
GRIDFORMAT_END
 95
        8
302
GRIDFORMAT
  1
GRIDFORMAT_BEGIN
 90
        0
 91
        1
 62
     0
 92
       -2
340
14
 93
        0
 40
0.045
309
GRIDFORMAT_END
 95
       16
302
GRIDFORMAT
  1
GRIDFORMAT_BEGIN
 90
        0
 91
        1
 62
     0
 92
       -2
340
14
 93
        0
 40
0.045
309
GRIDFORMAT_END
 95
       32
302
GRIDFORMAT
  1
GRIDFORMAT_BEGIN
 90
        0
 91
        1
 62
     0
 92
       -2
340
14
 93
        0
 40
0.045
309
GRIDFORMAT_END
309
TABLEFORMAT_END
  1
CELLSTYLE_BEGIN
 90
        3
 91
        2
300
_DATA
309
CELLSTYLE_END
  0
XRECORD
  5
2E3
102
{ACAD_REACTORS
330
2E2
102
}
330
2E2
100
AcDbXrecord
280
     1
102
ACAD_ROUNDTRIP_PRE2007_TABLESTYLE
 90
        4
 91
        0
  1

 92
        4
 93
        0
  2

 94
        4
 95
        0
  3

  0
XRECORD
  5
2B5
102
{ACAD_REACTORS
330
2B4
102
}
330
2B4
100
AcDbXrecord
280
     1
102
RTVSPropertyOp0
 70
     1
102
RTVSPropertyOp1
 70
     1
102
RTVSPropertyOp2
 70
     1
102
RTVSPropertyOp3
 70
     1
102
RTVSPropertyOp4
 70
     1
102
RTVSPropertyOp5
 70
     1
102
RTVSPropertyOp6
 70
     1
102
RTVSPropertyOp7
 70
     1
102
RTVSPropertyOp8
 70
     1
102
RTVSPropertyOp9
 70
     1
102
RTVSPropertyOp10
 70
     1
102
RTVSPropertyOp11
 70
     1
102
RTVSPropertyOp12
 70
     1
102
RTVSPropertyOp13
 70
     1
102
RTVSPropertyOp14
 70
     1
102
RTVSPropertyOp15
 70
     1
102
RTVSPropertyOp16
 70
     1
102
RTVSPropertyOp17
 70
     1
102
RTVSPropertyOp18
 70
     1
102
RTVSPropertyOp19
 70
     1
102
RTVSPropertyOp20
 70
     1
102
RTVSPropertyOp21
 70
     1
102
RTVSPropertyOp22
 70
     1
102
RTVSPropertyOp23
 70
     1
102
RTVSPropertyOp24
 70
     1
102
RTVSPropertyOp25
 70
     1
102
RTVSPropertyOp26
 70
     1
102
RTVSPropertyOp27
 70
     1
102
RTVSPropertyOp28
 70
     1
102
RTVSPropertyOp29
 70
     1
102
RTVSPropertyOp30
 70
     1
102
RTVSPropertyOp31
 70
     1
102
RTVSPropertyOp32
 70
     1
102
RTVSPropertyOp33
 70
     1
102
RTVSPropertyOp34
 70
     1
102
RTVSPropertyOp35
 70
     1
102
RTVSPropertyOp36
 70
     1
102
RTVSPropertyOp37
 70
     1
102
RTVSPropertyOp38
 70
     1
102
RTVSPropertyOp39
 70
     1
102
RTVSPropertyOp40
 70
     1
102
RTVSPropertyOp41
 70
     1
102
RTVSPropertyOp42
 70
     1
102
RTVSPropertyOp43
 70
     1
102
RTVSPropertyOp44
 70
     1
102
RTVSPropertyOp45
 70
     1
102
RTVSPropertyOp46
 70
     1
102
RTVSPropertyOp47
 70
     1
102
RTVSPropertyOp48
 70
     1
102
RTVSPropertyOp49
 70
     1
102
RTVSPropertyOp50
 70
     1
102
RTVSPropertyOp51
 70
     0
102
RTVSPropertyOp52
 70
     0
102
RTVSPropertyOp53
 70
     1
102
RTVSPropertyOp54
 70
     1
102
RTVSPropertyOp55
 70
     1
102
RTVSPropertyOp56
 70
     1
102
RTVSPropertyOp57
 70
     1
102
RTVSPost2010Prop28
280
     1
102
RTVSPost2010PropOp28
 70
     1
102
RTVSPost2010Prop29
280
     1
102
RTVSPost2010PropOp29
 70
     1
102
RTVSPost2010Prop30
280
     0
102
RTVSPost2010PropOp30
 70
     1
102
RTVSPost2010Prop31
280
     0
102
RTVSPost2010PropOp31
 70
     1
102
RTVSPost2010Prop32
280
     0
102
RTVSPost2010PropOp32
 70
     1
102
RTVSPost2010Prop33
280
     0
102
RTVSPost2010PropOp33
 70
     1
102
RTVSPost2010Prop34
280
     0
102
RTVSPost2010PropOp34
 70
     1
102
RTVSPost2010Prop35
280
     0
102
RTVSPost2010PropOp35
 70
     1
102
RTVSPost2010Prop36
280
     0
102
RTVSPost2010PropOp36
 70
     1
102
RTVSPost2010Prop37
 90
       50
102
RTVSPost2010PropOp37
 70
     1
102
RTVSPost2010Prop38
140
0.0
102
RTVSPost2010PropOp38
 70
     1
102
RTVSPost2010Prop39
140
1.0
102
RTVSPost2010PropOp39
 70
     1
102
RTVSPost2010Prop40
 90
        0
102
RTVSPost2010PropOp40
 70
     1
102
RTVSPost2010Prop41ColorIndex
 90
       18
102
RTVSPost2010Prop41ColorRGB
 90
        0
102
RTVSPost2010PropOp41
 70
     1
102
RTVSPost2010Prop42
 90
       50
102
RTVSPost2010PropOp42
 70
     1
102
RTVSPost2010Prop43
 90
        3
102
RTVSPost2010PropOp43
 70
     1
102
RTVSPost2010Prop44ColorIndex
 90
        5
102
RTVSPost2010Prop44ColorRGB
 90
      255
102
RTVSPost2010PropOp44
 70
     1
102
RTVSPost2010Prop45
280
     0
102
RTVSPost2010PropOp45
 70
     1
102
RTVSPost2010Prop46
 90
       50
102
RTVSPost2010PropOp46
 70
     1
102
RTVSPost2010Prop47
 90
       50
102
RTVSPost2010PropOp47
 70
     1
102
RTVSPost2010Prop48
 90
       50
102
RTVSPost2010PropOp48
 70
     1
102
RTVSPost2010Prop49
280
     0
102
RTVSPost2010PropOp49
 70
     1
102
RTVSPost2010Prop50
 90
       50
102
RTVSPost2010PropOp50
 70
     1
102
RTVSPost2010Prop51ColorIndex
 90
      256
102
RTVSPost2010Prop51ColorRGB
 90
-16777216
102
RTVSPost2010PropOp51
 70
     0
102
RTVSPost2010Prop52
140
1.0
102
RTVSPost2010PropOp52
 70
     0
102
RTVSPost2010Prop53
 90
        2
102
RTVSPost2010PropOp53
 70
     1
102
RTVSPost2010Prop54
  1
strokes_ogs.tif
102
RTVSPost2010PropOp54
 70
     1
102
RTVSPost2010Prop55
280
     0
102
RTVSPost2010PropOp55
 70
     1
102
RTVSPost2010Prop56
140
1.0
102
RTVSPost2010PropOp56
 70
     1
102
RTVSPost2010Prop57
140
1.0
102
RTVSPost2010PropOp57
 70
     1
  0
XRECORD
  5
2BB
102
{ACAD_REACTORS
330
2BA
102
}
330
2BA
100
AcDbXrecord
280
     1
102
RTVSPropertyOp0
 70
     1
102
RTVSPropertyOp1
 70
     1
102
RTVSPropertyOp2
 70
     1
102
RTVSPropertyOp3
 70
     1
102
RTVSPropertyOp4
 70
     1
102
RTVSPropertyOp5
 70
     1
102
RTVSPropertyOp6
 70
     1
102
RTVSPropertyOp7
 70
     1
102
RTVSPropertyOp8
 70
     1
102
RTVSPropertyOp9
 70
     1
102
RTVSPropertyOp10
 70
     1
102
RTVSPropertyOp11
 70
     1
102
RTVSPropertyOp12
 70
     1
102
RTVSPropertyOp13
 70
     1
102
RTVSPropertyOp14
 70
     1
102
RTVSPropertyOp15
 70
     1
102
RTVSPropertyOp16
 70
     1
102
RTVSPropertyOp17
 70
     1
102
RTVSPropertyOp18
 70
     1
102
RTVSPropertyOp19
 70
     1
102
RTVSPropertyOp20
 70
     1
102
RTVSPropertyOp21
 70
     1
102
RTVSPropertyOp22
 70
     1
102
RTVSPropertyOp23
 70
     1
102
RTVSPropertyOp24
 70
     1
102
RTVSPropertyOp25
 70
     1
102
RTVSPropertyOp26
 70
     1
102
RTVSPropertyOp27
 70
     1
102
RTVSPropertyOp28
 70
     1
102
RTVSPropertyOp29
 70
     1
102
RTVSPropertyOp30
 70
     1
102
RTVSPropertyOp31
 70
     1
102
RTVSPropertyOp32
 70
     1
102
RTVSPropertyOp33
 70
     1
102
RTVSPropertyOp34
 70
     1
102
RTVSPropertyOp35
 70
     1
102
RTVSPropertyOp36
 70
     1
102
RTVSPropertyOp37
 70
     1
102
RTVSPropertyOp38
 70
     1
102
RTVSPropertyOp39
 70
     1
102
RTVSPropertyOp40
 70
     1
102
RTVSPropertyOp41
 70
     1
102
RTVSPropertyOp42
 70
     1
102
RTVSPropertyOp43
 70
     1
102
RTVSPropertyOp44
 70
     1
102
RTVSPropertyOp45
 70
     1
102
RTVSPropertyOp46
 70
     1
102
RTVSPropertyOp47
 70
     1
102
RTVSPropertyOp48
 70
     1
102
RTVSPropertyOp49
 70
     1
102
RTVSPropertyOp50
 70
     1
102
RTVSPropertyOp51
 70
     0
102
RTVSPropertyOp52
 70
     0
102
RTVSPropertyOp53
 70
     1
102
RTVSPropertyOp54
 70
     1
102
RTVSPropertyOp55
 70
     1
102
RTVSPropertyOp56
 70
     1
102
RTVSPropertyOp57
 70
     1
102
RTVSPost2010Prop28
280
     0
102
RTVSPost2010PropOp28
 70
     1
102
RTVSPost2010Prop29
280
     1
102
RTVSPost2010PropOp29
 70
     1
102
RTVSPost2010Prop30
280
     1
102
RTVSPost2010PropOp30
 70
     1
102
RTVSPost2010Prop31
280
     0
102
RTVSPost2010PropOp31
 70
     1
102
RTVSPost2010Prop32
280
     0
102
RTVSPost2010PropOp32
 70
     1
102
RTVSPost2010Prop33
280
     0
102
RTVSPost2010PropOp33
 70
     1
102
RTVSPost2010Prop34
280
     0
102
RTVSPost2010PropOp34
 70
     1
102
RTVSPost2010Prop35
280
     0
102
RTVSPost2010PropOp35
 70
     1
102
RTVSPost2010Prop36
280
     0
102
RTVSPost2010PropOp36
 70
     1
102
RTVSPost2010Prop37
 90
       50
102
RTVSPost2010PropOp37
 70
     1
102
RTVSPost2010Prop38
140
0.0
102
RTVSPost2010PropOp38
 70
     1
102
RTVSPost2010Prop39
140
1.0
102
RTVSPost2010PropOp39
 70
     1
102
RTVSPost2010Prop40
 90
        0
102
RTVSPost2010PropOp40
 70
     1
102
RTVSPost2010Prop41ColorIndex
 90
       18
102
RTVSPost2010Prop41ColorRGB
 90
        0
102
RTVSPost2010PropOp41
 70
     1
102
RTVSPost2010Prop42
 90
       50
102
RTVSPost2010PropOp42
 70
     1
102
RTVSPost2010Prop43
 90
        3
102
RTVSPost2010PropOp43
 70
     1
102
RTVSPost2010Prop44ColorIndex
 90
        5
102
RTVSPost2010Prop44ColorRGB
 90
      255
102
RTVSPost2010PropOp44
 70
     1
102
RTVSPost2010Prop45
280
     0
102
RTVSPost2010PropOp45
 70
     1
102
RTVSPost2010Prop46
 90
       50
102
RTVSPost2010PropOp46
 70
     1
102
RTVSPost2010Prop47
 90
       50
102
RTVSPost2010PropOp47
 70
     1
102
RTVSPost2010Prop48
 90
       50
102
RTVSPost2010PropOp48
 70
     1
102
RTVSPost2010Prop49
280
     0
102
RTVSPost2010PropOp49
 70
     1
102
RTVSPost2010Prop50
 90
       50
102
RTVSPost2010PropOp50
 70
     1
102
RTVSPost2010Prop51ColorIndex
 90
      256
102
RTVSPost2010Prop51ColorRGB
 90
-16777216
102
RTVSPost2010PropOp51
 70
     0
102
RTVSPost2010Prop52
140
1.0
102
RTVSPost2010PropOp52
 70
     0
102
RTVSPost2010Prop53
 90
        2
102
RTVSPost2010PropOp53
 70
     1
102
RTVSPost2010Prop54
  1
strokes_ogs.tif
102
RTVSPost2010PropOp54
 70
     1
102
RTVSPost2010Prop55
280
     0
102
RTVSPost2010PropOp55
 70
     1
102
RTVSPost2010Prop56
140
1.0
102
RTVSPost2010PropOp56
 70
     1
102
RTVSPost2010Prop57
140
1.0
102
RTVSPost2010PropOp57
 70
     1
  0
XRECORD
  5
2C3
102
{ACAD_REACTORS
330
2C2
102
}
330
2C2
100
AcDbXrecord
280
     1
102
RTVSPropertyOp0
 70
     1
102
RTVSPropertyOp1
 70
     1
102
RTVSPropertyOp2
 70
     1
102
RTVSPropertyOp3
 70
     1
102
RTVSPropertyOp4
 70
     1
102
RTVSPropertyOp5
 70
     1
102
RTVSPropertyOp6
 70
     1
102
RTVSPropertyOp7
 70
     1
102
RTVSPropertyOp8
 70
     1
102
RTVSPropertyOp9
 70
     1
102
RTVSPropertyOp10
 70
     1
102
RTVSPropertyOp11
 70
     1
102
RTVSPropertyOp12
 70
     1
102
RTVSPropertyOp13
 70
     1
102
RTVSPropertyOp14
 70
     1
102
RTVSPropertyOp15
 70
     1
102
RTVSPropertyOp16
 70
     1
102
RTVSPropertyOp17
 70
     1
102
RTVSPropertyOp18
 70
     1
102
RTVSPropertyOp19
 70
     1
102
RTVSPropertyOp20
 70
     1
102
RTVSPropertyOp21
 70
     1
102
RTVSPropertyOp22
 70
     1
102
RTVSPropertyOp23
 70
     1
102
RTVSPropertyOp24
 70
     1
102
RTVSPropertyOp25
 70
     1
102
RTVSPropertyOp26
 70
     1
102
RTVSPropertyOp27
 70
     1
102
RTVSPropertyOp28
 70
     1
102
RTVSPropertyOp29
 70
     1
102
RTVSPropertyOp30
 70
     1
102
RTVSPropertyOp31
 70
     1
102
RTVSPropertyOp32
 70
     1
102
RTVSPropertyOp33
 70
     1
102
RTVSPropertyOp34
 70
     1
102
RTVSPropertyOp35
 70
     1
102
RTVSPropertyOp36
 70
     1
102
RTVSPropertyOp37
 70
     1
102
RTVSPropertyOp38
 70
     1
102
RTVSPropertyOp39
 70
     1
102
RTVSPropertyOp40
 70
     1
102
RTVSPropertyOp41
 70
     1
102
RTVSPropertyOp42
 70
     1
102
RTVSPropertyOp43
 70
     1
102
RTVSPropertyOp44
 70
     1
102
RTVSPropertyOp45
 70
     1
102
RTVSPropertyOp46
 70
     1
102
RTVSPropertyOp47
 70
     1
102
RTVSPropertyOp48
 70
     1
102
RTVSPropertyOp49
 70
     1
102
RTVSPropertyOp50
 70
     1
102
RTVSPropertyOp51
 70
     0
102
RTVSPropertyOp52
 70
     0
102
RTVSPropertyOp53
 70
     1
102
RTVSPropertyOp54
 70
     1
102
RTVSPropertyOp55
 70
     1
102
RTVSPropertyOp56
 70
     1
102
RTVSPropertyOp57
 70
     1
102
RTVSPost2010Prop28
280
     0
102
RTVSPost2010PropOp28
 70
     1
102
RTVSPost2010Prop29
280
     1
102
RTVSPost2010PropOp29
 70
     1
102
RTVSPost2010Prop30
280
     1
102
RTVSPost2010PropOp30
 70
     1
102
RTVSPost2010Prop31
280
     0
102
RTVSPost2010PropOp31
 70
     1
102
RTVSPost2010Prop32
280
     0
102
RTVSPost2010PropOp32
 70
     1
102
RTVSPost2010Prop33
280
     0
102
RTVSPost2010PropOp33
 70
     1
102
RTVSPost2010Prop34
280
     0
102
RTVSPost2010PropOp34
 70
     1
102
RTVSPost2010Prop35
280
     0
102
RTVSPost2010PropOp35
 70
     1
102
RTVSPost2010Prop36
280
     0
102
RTVSPost2010PropOp36
 70
     1
102
RTVSPost2010Prop37
 90
       50
102
RTVSPost2010PropOp37
 70
     1
102
RTVSPost2010Prop38
140
0.0
102
RTVSPost2010PropOp38
 70
     1
102
RTVSPost2010Prop39
140
1.0
102
RTVSPost2010PropOp39
 70
     1
102
RTVSPost2010Prop40
 90
        0
102
RTVSPost2010PropOp40
 70
     1
102
RTVSPost2010Prop41ColorIndex
 90
       18
102
RTVSPost2010Prop41ColorRGB
 90
        0
102
RTVSPost2010PropOp41
 70
     1
102
RTVSPost2010Prop42
 90
       50
102
RTVSPost2010PropOp42
 70
     1
102
RTVSPost2010Prop43
 90
        3
102
RTVSPost2010PropOp43
 70
     1
102
RTVSPost2010Prop44ColorIndex
 90
        5
102
RTVSPost2010Prop44ColorRGB
 90
      255
102
RTVSPost2010PropOp44
 70
     1
102
RTVSPost2010Prop45
280
     0
102
RTVSPost2010PropOp45
 70
     1
102
RTVSPost2010Prop46
 90
       50
102
RTVSPost2010PropOp46
 70
     1
102
RTVSPost2010Prop47
 90
       50
102
RTVSPost2010PropOp47
 70
     1
102
RTVSPost2010Prop48
 90
       50
102
RTVSPost2010PropOp48
 70
     1
102
RTVSPost2010Prop49
280
     0
102
RTVSPost2010PropOp49
 70
     1
102
RTVSPost2010Prop50
 90
       50
102
RTVSPost2010PropOp50
 70
     1
102
RTVSPost2010Prop51ColorIndex
 90
      256
102
RTVSPost2010Prop51ColorRGB
 90
-16777216
102
RTVSPost2010PropOp51
 70
     0
102
RTVSPost2010Prop52
140
1.0
102
RTVSPost2010PropOp52
 70
     0
102
RTVSPost2010Prop53
 90
        2
102
RTVSPost2010PropOp53
 70
     1
102
RTVSPost2010Prop54
  1
strokes_ogs.tif
102
RTVSPost2010PropOp54
 70
     1
102
RTVSPost2010Prop55
280
     0
102
RTVSPost2010PropOp55
 70
     1
102
RTVSPost2010Prop56
140
1.0
102
RTVSPost2010PropOp56
 70
     1
102
RTVSPost2010Prop57
140
1.0
102
RTVSPost2010PropOp57
 70
     1
  0
XRECORD
  5
2CB
102
{ACAD_REACTORS
330
2CA
102
}
330
2CA
100
AcDbXrecord
280
     1
102
RTVSPropertyOp0
 70
     1
102
RTVSPropertyOp1
 70
     1
102
RTVSPropertyOp2
 70
     1
102
RTVSPropertyOp3
 70
     1
102
RTVSPropertyOp4
 70
     1
102
RTVSPropertyOp5
 70
     1
102
RTVSPropertyOp6
 70
     1
102
RTVSPropertyOp7
 70
     1
102
RTVSPropertyOp8
 70
     1
102
RTVSPropertyOp9
 70
     1
102
RTVSPropertyOp10
 70
     1
102
RTVSPropertyOp11
 70
     1
102
RTVSPropertyOp12
 70
     1
102
RTVSPropertyOp13
 70
     1
102
RTVSPropertyOp14
 70
     1
102
RTVSPropertyOp15
 70
     1
102
RTVSPropertyOp16
 70
     1
102
RTVSPropertyOp17
 70
     1
102
RTVSPropertyOp18
 70
     1
102
RTVSPropertyOp19
 70
     1
102
RTVSPropertyOp20
 70
     1
102
RTVSPropertyOp21
 70
     1
102
RTVSPropertyOp22
 70
     1
102
RTVSPropertyOp23
 70
     1
102
RTVSPropertyOp24
 70
     1
102
RTVSPropertyOp25
 70
     1
102
RTVSPropertyOp26
 70
     1
102
RTVSPropertyOp27
 70
     1
102
RTVSPropertyOp28
 70
     1
102
RTVSPropertyOp29
 70
     1
102
RTVSPropertyOp30
 70
     1
102
RTVSPropertyOp31
 70
     1
102
RTVSPropertyOp32
 70
     1
102
RTVSPropertyOp33
 70
     1
102
RTVSPropertyOp34
 70
     1
102
RTVSPropertyOp35
 70
     1
102
RTVSPropertyOp36
 70
     1
102
RTVSPropertyOp37
 70
     1
102
RTVSPropertyOp38
 70
     1
102
RTVSPropertyOp39
 70
     1
102
RTVSPropertyOp40
 70
     1
102
RTVSPropertyOp41
 70
     1
102
RTVSPropertyOp42
 70
     1
102
RTVSPropertyOp43
 70
     1
102
RTVSPropertyOp44
 70
     1
102
RTVSPropertyOp45
 70
     1
102
RTVSPropertyOp46
 70
     1
102
RTVSPropertyOp47
 70
     1
102
RTVSPropertyOp48
 70
     1
102
RTVSPropertyOp49
 70
     1
102
RTVSPropertyOp50
 70
     1
102
RTVSPropertyOp51
 70
     0
102
RTVSPropertyOp52
 70
     0
102
RTVSPropertyOp53
 70
     1
102
RTVSPropertyOp54
 70
     1
102
RTVSPropertyOp55
 70
     1
102
RTVSPropertyOp56
 70
     1
102
RTVSPropertyOp57
 70
     1
102
RTVSPost2010Prop28
280
     0
102
RTVSPost2010PropOp28
 70
     1
102
RTVSPost2010Prop29
280
     1
102
RTVSPost2010PropOp29
 70
     1
102
RTVSPost2010Prop30
280
     1
102
RTVSPost2010PropOp30
 70
     1
102
RTVSPost2010Prop31
280
     0
102
RTVSPost2010PropOp31
 70
     1
102
RTVSPost2010Prop32
280
     0
102
RTVSPost2010PropOp32
 70
     1
102
RTVSPost2010Prop33
280
     0
102
RTVSPost2010PropOp33
 70
     1
102
RTVSPost2010Prop34
280
     0
102
RTVSPost2010PropOp34
 70
     1
102
RTVSPost2010Prop35
280
     0
102
RTVSPost2010PropOp35
 70
     1
102
RTVSPost2010Prop36
280
     0
102
RTVSPost2010PropOp36
 70
     1
102
RTVSPost2010Prop37
 90
       50
102
RTVSPost2010PropOp37
 70
     1
102
RTVSPost2010Prop38
140
0.0
102
RTVSPost2010PropOp38
 70
     1
102
RTVSPost2010Prop39
140
1.0
102
RTVSPost2010PropOp39
 70
     1
102
RTVSPost2010Prop40
 90
        0
102
RTVSPost2010PropOp40
 70
     1
102
RTVSPost2010Prop41ColorIndex
 90
       18
102
RTVSPost2010Prop41ColorRGB
 90
        0
102
RTVSPost2010PropOp41
 70
     1
102
RTVSPost2010Prop42
 90
       50
102
RTVSPost2010PropOp42
 70
     1
102
RTVSPost2010Prop43
 90
        3
102
RTVSPost2010PropOp43
 70
     1
102
RTVSPost2010Prop44ColorIndex
 90
        5
102
RTVSPost2010Prop44ColorRGB
 90
      255
102
RTVSPost2010PropOp44
 70
     1
102
RTVSPost2010Prop45
280
     0
102
RTVSPost2010PropOp45
 70
     1
102
RTVSPost2010Prop46
 90
       50
102
RTVSPost2010PropOp46
 70
     1
102
RTVSPost2010Prop47
 90
       50
102
RTVSPost2010PropOp47
 70
     1
102
RTVSPost2010Prop48
 90
       50
102
RTVSPost2010PropOp48
 70
     1
102
RTVSPost2010Prop49
280
     0
102
RTVSPost2010PropOp49
 70
     1
102
RTVSPost2010Prop50
 90
       50
102
RTVSPost2010PropOp50
 70
     1
102
RTVSPost2010Prop51ColorIndex
 90
      256
102
RTVSPost2010Prop51ColorRGB
 90
-16777216
102
RTVSPost2010PropOp51
 70
     0
102
RTVSPost2010Prop52
140
1.0
102
RTVSPost2010PropOp52
 70
     0
102
RTVSPost2010Prop53
 90
        2
102
RTVSPost2010PropOp53
 70
     1
102
RTVSPost2010Prop54
  1
strokes_ogs.tif
102
RTVSPost2010PropOp54
 70
     1
102
RTVSPost2010Prop55
280
     0
102
RTVSPost2010PropOp55
 70
     1
102
RTVSPost2010Prop56
140
1.0
102
RTVSPost2010PropOp56
 70
     1
102
RTVSPost2010Prop57
140
1.0
102
RTVSPost2010PropOp57
 70
     1
  0
XRECORD
  5
2BF
102
{ACAD_REACTORS
330
2BE
102
}
330
2BE
100
AcDbXrecord
280
     1
102
RTVSPropertyOp0
 70
     1
102
RTVSPropertyOp1
 70
     1
102
RTVSPropertyOp2
 70
     1
102
RTVSPropertyOp3
 70
     1
102
RTVSPropertyOp4
 70
     1
102
RTVSPropertyOp5
 70
     1
102
RTVSPropertyOp6
 70
     1
102
RTVSPropertyOp7
 70
     1
102
RTVSPropertyOp8
 70
     1
102
RTVSPropertyOp9
 70
     1
102
RTVSPropertyOp10
 70
     1
102
RTVSPropertyOp11
 70
     1
102
RTVSPropertyOp12
 70
     1
102
RTVSPropertyOp13
 70
     1
102
RTVSPropertyOp14
 70
     1
102
RTVSPropertyOp15
 70
     1
102
RTVSPropertyOp16
 70
     1
102
RTVSPropertyOp17
 70
     1
102
RTVSPropertyOp18
 70
     1
102
RTVSPropertyOp19
 70
     1
102
RTVSPropertyOp20
 70
     1
102
RTVSPropertyOp21
 70
     1
102
RTVSPropertyOp22
 70
     1
102
RTVSPropertyOp23
 70
     1
102
RTVSPropertyOp24
 70
     1
102
RTVSPropertyOp25
 70
     1
102
RTVSPropertyOp26
 70
     1
102
RTVSPropertyOp27
 70
     1
102
RTVSPropertyOp28
 70
     1
102
RTVSPropertyOp29
 70
     1
102
RTVSPropertyOp30
 70
     1
102
RTVSPropertyOp31
 70
     1
102
RTVSPropertyOp32
 70
     1
102
RTVSPropertyOp33
 70
     1
102
RTVSPropertyOp34
 70
     1
102
RTVSPropertyOp35
 70
     1
102
RTVSPropertyOp36
 70
     1
102
RTVSPropertyOp37
 70
     1
102
RTVSPropertyOp38
 70
     1
102
RTVSPropertyOp39
 70
     1
102
RTVSPropertyOp40
 70
     1
102
RTVSPropertyOp41
 70
     1
102
RTVSPropertyOp42
 70
     1
102
RTVSPropertyOp43
 70
     1
102
RTVSPropertyOp44
 70
     1
102
RTVSPropertyOp45
 70
     1
102
RTVSPropertyOp46
 70
     1
102
RTVSPropertyOp47
 70
     1
102
RTVSPropertyOp48
 70
     1
102
RTVSPropertyOp49
 70
     1
102
RTVSPropertyOp50
 70
     1
102
RTVSPropertyOp51
 70
     0
102
RTVSPropertyOp52
 70
     0
102
RTVSPropertyOp53
 70
     1
102
RTVSPropertyOp54
 70
     1
102
RTVSPropertyOp55
 70
     1
102
RTVSPropertyOp56
 70
     1
102
RTVSPropertyOp57
 70
     1
102
RTVSPost2010Prop28
280
     0
102
RTVSPost2010PropOp28
 70
     1
102
RTVSPost2010Prop29
280
     1
102
RTVSPost2010PropOp29
 70
     1
102
RTVSPost2010Prop30
280
     1
102
RTVSPost2010PropOp30
 70
     1
102
RTVSPost2010Prop31
280
     0
102
RTVSPost2010PropOp31
 70
     1
102
RTVSPost2010Prop32
280
     0
102
RTVSPost2010PropOp32
 70
     1
102
RTVSPost2010Prop33
280
     0
102
RTVSPost2010PropOp33
 70
     1
102
RTVSPost2010Prop34
280
     0
102
RTVSPost2010PropOp34
 70
     1
102
RTVSPost2010Prop35
280
     0
102
RTVSPost2010PropOp35
 70
     1
102
RTVSPost2010Prop36
280
     0
102
RTVSPost2010PropOp36
 70
     1
102
RTVSPost2010Prop37
 90
       50
102
RTVSPost2010PropOp37
 70
     1
102
RTVSPost2010Prop38
140
0.0
102
RTVSPost2010PropOp38
 70
     1
102
RTVSPost2010Prop39
140
1.0
102
RTVSPost2010PropOp39
 70
     1
102
RTVSPost2010Prop40
 90
        0
102
RTVSPost2010PropOp40
 70
     1
102
RTVSPost2010Prop41ColorIndex
 90
       18
102
RTVSPost2010Prop41ColorRGB
 90
        0
102
RTVSPost2010PropOp41
 70
     1
102
RTVSPost2010Prop42
 90
       50
102
RTVSPost2010PropOp42
 70
     1
102
RTVSPost2010Prop43
 90
        3
102
RTVSPost2010PropOp43
 70
     1
102
RTVSPost2010Prop44ColorIndex
 90
        5
102
RTVSPost2010Prop44ColorRGB
 90
      255
102
RTVSPost2010PropOp44
 70
     1
102
RTVSPost2010Prop45
280
     0
102
RTVSPost2010PropOp45
 70
     1
102
RTVSPost2010Prop46
 90
       50
102
RTVSPost2010PropOp46
 70
     1
102
RTVSPost2010Prop47
 90
       50
102
RTVSPost2010PropOp47
 70
     1
102
RTVSPost2010Prop48
 90
       50
102
RTVSPost2010PropOp48
 70
     1
102
RTVSPost2010Prop49
280
     0
102
RTVSPost2010PropOp49
 70
     1
102
RTVSPost2010Prop50
 90
       50
102
RTVSPost2010PropOp50
 70
     1
102
RTVSPost2010Prop51ColorIndex
 90
      256
102
RTVSPost2010Prop51ColorRGB
 90
-16777216
102
RTVSPost2010PropOp51
 70
     0
102
RTVSPost2010Prop52
140
1.0
102
RTVSPost2010PropOp52
 70
     0
102
RTVSPost2010Prop53
 90
        2
102
RTVSPost2010PropOp53
 70
     1
102
RTVSPost2010Prop54
  1
strokes_ogs.tif
102
RTVSPost2010PropOp54
 70
     1
102
RTVSPost2010Prop55
280
     0
102
RTVSPost2010PropOp55
 70
     1
102
RTVSPost2010Prop56
140
1.0
102
RTVSPost2010PropOp56
 70
     1
102
RTVSPost2010Prop57
140
1.0
102
RTVSPost2010PropOp57
 70
     1
  0
XRECORD
  5
2C1
102
{ACAD_REACTORS
330
2C0
102
}
330
2C0
100
AcDbXrecord
280
     1
102
RTVSPropertyOp0
 70
     1
102
RTVSPropertyOp1
 70
     1
102
RTVSPropertyOp2
 70
     1
102
RTVSPropertyOp3
 70
     1
102
RTVSPropertyOp4
 70
     1
102
RTVSPropertyOp5
 70
     1
102
RTVSPropertyOp6
 70
     1
102
RTVSPropertyOp7
 70
     1
102
RTVSPropertyOp8
 70
     1
102
RTVSPropertyOp9
 70
     1
102
RTVSPropertyOp10
 70
     1
102
RTVSPropertyOp11
 70
     1
102
RTVSPropertyOp12
 70
     1
102
RTVSPropertyOp13
 70
     1
102
RTVSPropertyOp14
 70
     1
102
RTVSPropertyOp15
 70
     1
102
RTVSPropertyOp16
 70
     1
102
RTVSPropertyOp17
 70
     1
102
RTVSPropertyOp18
 70
     1
102
RTVSPropertyOp19
 70
     1
102
RTVSPropertyOp20
 70
     1
102
RTVSPropertyOp21
 70
     1
102
RTVSPropertyOp22
 70
     1
102
RTVSPropertyOp23
 70
     1
102
RTVSPropertyOp24
 70
     1
102
RTVSPropertyOp25
 70
     1
102
RTVSPropertyOp26
 70
     1
102
RTVSPropertyOp27
 70
     1
102
RTVSPropertyOp28
 70
     1
102
RTVSPropertyOp29
 70
     1
102
RTVSPropertyOp30
 70
     1
102
RTVSPropertyOp31
 70
     1
102
RTVSPropertyOp32
 70
     1
102
RTVSPropertyOp33
 70
     1
102
RTVSPropertyOp34
 70
     1
102
RTVSPropertyOp35
 70
     1
102
RTVSPropertyOp36
 70
     1
102
RTVSPropertyOp37
 70
     1
102
RTVSPropertyOp38
 70
     1
102
RTVSPropertyOp39
 70
     1
102
RTVSPropertyOp40
 70
     1
102
RTVSPropertyOp41
 70
     1
102
RTVSPropertyOp42
 70
     1
102
RTVSPropertyOp43
 70
     1
102
RTVSPropertyOp44
 70
     1
102
RTVSPropertyOp45
 70
     1
102
RTVSPropertyOp46
 70
     1
102
RTVSPropertyOp47
 70
     1
102
RTVSPropertyOp48
 70
     1
102
RTVSPropertyOp49
 70
     1
102
RTVSPropertyOp50
 70
     1
102
RTVSPropertyOp51
 70
     0
102
RTVSPropertyOp52
 70
     0
102
RTVSPropertyOp53
 70
     1
102
RTVSPropertyOp54
 70
     1
102
RTVSPropertyOp55
 70
     1
102
RTVSPropertyOp56
 70
     1
102
RTVSPropertyOp57
 70
     1
102
RTVSPost2010Prop28
280
     0
102
RTVSPost2010PropOp28
 70
     1
102
RTVSPost2010Prop29
280
     1
102
RTVSPost2010PropOp29
 70
     1
102
RTVSPost2010Prop30
280
     1
102
RTVSPost2010PropOp30
 70
     1
102
RTVSPost2010Prop31
280
     0
102
RTVSPost2010PropOp31
 70
     1
102
RTVSPost2010Prop32
280
     0
102
RTVSPost2010PropOp32
 70
     1
102
RTVSPost2010Prop33
280
     0
102
RTVSPost2010PropOp33
 70
     1
102
RTVSPost2010Prop34
280
     0
102
RTVSPost2010PropOp34
 70
     1
102
RTVSPost2010Prop35
280
     0
102
RTVSPost2010PropOp35
 70
     1
102
RTVSPost2010Prop36
280
     0
102
RTVSPost2010PropOp36
 70
     1
102
RTVSPost2010Prop37
 90
       50
102
RTVSPost2010PropOp37
 70
     1
102
RTVSPost2010Prop38
140
0.0
102
RTVSPost2010PropOp38
 70
     1
102
RTVSPost2010Prop39
140
1.0
102
RTVSPost2010PropOp39
 70
     1
102
RTVSPost2010Prop40
 90
        0
102
RTVSPost2010PropOp40
 70
     1
102
RTVSPost2010Prop41ColorIndex
 90
       18
102
RTVSPost2010Prop41ColorRGB
 90
        0
102
RTVSPost2010PropOp41
 70
     1
102
RTVSPost2010Prop42
 90
       50
102
RTVSPost2010PropOp42
 70
     1
102
RTVSPost2010Prop43
 90
        3
102
RTVSPost2010PropOp43
 70
     1
102
RTVSPost2010Prop44ColorIndex
 90
        5
102
RTVSPost2010Prop44ColorRGB
 90
      255
102
RTVSPost2010PropOp44
 70
     1
102
RTVSPost2010Prop45
280
     0
102
RTVSPost2010PropOp45
 70
     1
102
RTVSPost2010Prop46
 90
       50
102
RTVSPost2010PropOp46
 70
     1
102
RTVSPost2010Prop47
 90
       50
102
RTVSPost2010PropOp47
 70
     1
102
RTVSPost2010Prop48
 90
       50
102
RTVSPost2010PropOp48
 70
     1
102
RTVSPost2010Prop49
280
     0
102
RTVSPost2010PropOp49
 70
     1
102
RTVSPost2010Prop50
 90
       50
102
RTVSPost2010PropOp50
 70
     1
102
RTVSPost2010Prop51ColorIndex
 90
      256
102
RTVSPost2010Prop51ColorRGB
 90
-16777216
102
RTVSPost2010PropOp51
 70
     0
102
RTVSPost2010Prop52
140
1.0
102
RTVSPost2010PropOp52
 70
     0
102
RTVSPost2010Prop53
 90
        2
102
RTVSPost2010PropOp53
 70
     1
102
RTVSPost2010Prop54
  1
strokes_ogs.tif
102
RTVSPost2010PropOp54
 70
     1
102
RTVSPost2010Prop55
280
     0
102
RTVSPost2010PropOp55
 70
     1
102
RTVSPost2010Prop56
140
1.0
102
RTVSPost2010PropOp56
 70
     1
102
RTVSPost2010Prop57
140
1.0
102
RTVSPost2010PropOp57
 70
     1
  0
XRECORD
  5
2D1
102
{ACAD_REACTORS
330
2D0
102
}
330
2D0
100
AcDbXrecord
280
     1
102
RTVSPropertyOp0
 70
     0
102
RTVSPropertyOp1
 70
     0
102
RTVSPropertyOp2
 70
     0
102
RTVSPropertyOp3
 70
     0
102
RTVSPropertyOp4
 70
     0
102
RTVSPropertyOp5
 70
     0
102
RTVSPropertyOp6
 70
     0
102
RTVSPropertyOp7
 70
     0
102
RTVSPropertyOp8
 70
     0
102
RTVSPropertyOp9
 70
     0
102
RTVSPropertyOp10
 70
     0
102
RTVSPropertyOp11
 70
     0
102
RTVSPropertyOp12
 70
     0
102
RTVSPropertyOp13
 70
     0
102
RTVSPropertyOp14
 70
     2
102
RTVSPropertyOp15
 70
     0
102
RTVSPropertyOp16
 70
     0
102
RTVSPropertyOp17
 70
     0
102
RTVSPropertyOp18
 70
     0
102
RTVSPropertyOp19
 70
     0
102
RTVSPropertyOp20
 70
     0
102
RTVSPropertyOp21
 70
     0
102
RTVSPropertyOp22
 70
     0
102
RTVSPropertyOp23
 70
     0
102
RTVSPropertyOp24
 70
     0
102
RTVSPropertyOp25
 70
     0
102
RTVSPropertyOp26
 70
     0
102
RTVSPropertyOp27
 70
     0
102
RTVSPropertyOp28
 70
     0
102
RTVSPropertyOp29
 70
     0
102
RTVSPropertyOp30
 70
     0
102
RTVSPropertyOp31
 70
     0
102
RTVSPropertyOp32
 70
     0
102
RTVSPropertyOp33
 70
     0
102
RTVSPropertyOp34
 70
     0
102
RTVSPropertyOp35
 70
     0
102
RTVSPropertyOp36
 70
     0
102
RTVSPropertyOp37
 70
     0
102
RTVSPropertyOp38
 70
     0
102
RTVSPropertyOp39
 70
     0
102
RTVSPropertyOp40
 70
     0
102
RTVSPropertyOp41
 70
     0
102
RTVSPropertyOp42
 70
     0
102
RTVSPropertyOp43
 70
     0
102
RTVSPropertyOp44
 70
     0
102
RTVSPropertyOp45
 70
     0
102
RTVSPropertyOp46
 70
     0
102
RTVSPropertyOp47
 70
     0
102
RTVSPropertyOp48
 70
     0
102
RTVSPropertyOp49
 70
     0
102
RTVSPropertyOp50
 70
     0
102
RTVSPropertyOp51
 70
     0
102
RTVSPropertyOp52
 70
     0
102
RTVSPropertyOp53
 70
     0
102
RTVSPropertyOp54
 70
     0
102
RTVSPropertyOp55
 70
     0
102
RTVSPropertyOp56
 70
     0
102
RTVSPropertyOp57
 70
     0
102
RTVSPost2010Prop28
280
     0
102
RTVSPost2010PropOp28
 70
     0
102
RTVSPost2010Prop29
280
     1
102
RTVSPost2010PropOp29
 70
     0
102
RTVSPost2010Prop30
280
     1
102
RTVSPost2010PropOp30
 70
     0
102
RTVSPost2010Prop31
280
     0
102
RTVSPost2010PropOp31
 70
     0
102
RTVSPost2010Prop32
280
     0
102
RTVSPost2010PropOp32
 70
     0
102
RTVSPost2010Prop33
280
     0
102
RTVSPost2010PropOp33
 70
     0
102
RTVSPost2010Prop34
280
     0
102
RTVSPost2010PropOp34
 70
     0
102
RTVSPost2010Prop35
280
     0
102
RTVSPost2010PropOp35
 70
     0
102
RTVSPost2010Prop36
280
     0
102
RTVSPost2010PropOp36
 70
     0
102
RTVSPost2010Prop37
 90
       50
102
RTVSPost2010PropOp37
 70
     0
102
RTVSPost2010Prop38
140
0.0
102
RTVSPost2010PropOp38
 70
     0
102
RTVSPost2010Prop39
140
1.0
102
RTVSPost2010PropOp39
 70
     0
102
RTVSPost2010Prop40
 90
        0
102
RTVSPost2010PropOp40
 70
     0
102
RTVSPost2010Prop41ColorIndex
 90
       18
102
RTVSPost2010Prop41ColorRGB
 90
        0
102
RTVSPost2010PropOp41
 70
     0
102
RTVSPost2010Prop42
 90
       50
102
RTVSPost2010PropOp42
 70
     0
102
RTVSPost2010Prop43
 90
        3
102
RTVSPost2010PropOp43
 70
     0
102
RTVSPost2010Prop44ColorIndex
 90
        5
102
RTVSPost2010Prop44ColorRGB
 90
      255
102
RTVSPost2010PropOp44
 70
     0
102
RTVSPost2010Prop45
280
     0
102
RTVSPost2010PropOp45
 70
     0
102
RTVSPost2010Prop46
 90
       50
102
RTVSPost2010PropOp46
 70
     0
102
RTVSPost2010Prop47
 90
       50
102
RTVSPost2010PropOp47
 70
     0
102
RTVSPost2010Prop48
 90
       50
102
RTVSPost2010PropOp48
 70
     0
102
RTVSPost2010Prop49
280
     0
102
RTVSPost2010PropOp49
 70
     0
102
RTVSPost2010Prop50
 90
       50
102
RTVSPost2010PropOp50
 70
     0
102
RTVSPost2010Prop51ColorIndex
 90
      256
102
RTVSPost2010Prop51ColorRGB
 90
-16777216
102
RTVSPost2010PropOp51
 70
     0
102
RTVSPost2010Prop52
140
1.0
102
RTVSPost2010PropOp52
 70
     0
102
RTVSPost2010Prop53
 90
        2
102
RTVSPost2010PropOp53
 70
     0
102
RTVSPost2010Prop54
  1
strokes_ogs.tif
102
RTVSPost2010PropOp54
 70
     0
102
RTVSPost2010Prop55
280
     0
102
RTVSPost2010PropOp55
 70
     0
102
RTVSPost2010Prop56
140
1.0
102
RTVSPost2010PropOp56
 70
     0
102
RTVSPost2010Prop57
140
1.0
102
RTVSPost2010PropOp57
 70
     0
  0
XRECORD
  5
2C9
102
{ACAD_REACTORS
330
2C8
102
}
330
2C8
100
AcDbXrecord
280
     1
102
RTVSPropertyOp0
 70
     1
102
RTVSPropertyOp1
 70
     1
102
RTVSPropertyOp2
 70
     1
102
RTVSPropertyOp3
 70
     1
102
RTVSPropertyOp4
 70
     1
102
RTVSPropertyOp5
 70
     1
102
RTVSPropertyOp6
 70
     1
102
RTVSPropertyOp7
 70
     1
102
RTVSPropertyOp8
 70
     1
102
RTVSPropertyOp9
 70
     1
102
RTVSPropertyOp10
 70
     1
102
RTVSPropertyOp11
 70
     1
102
RTVSPropertyOp12
 70
     1
102
RTVSPropertyOp13
 70
     1
102
RTVSPropertyOp14
 70
     1
102
RTVSPropertyOp15
 70
     1
102
RTVSPropertyOp16
 70
     1
102
RTVSPropertyOp17
 70
     1
102
RTVSPropertyOp18
 70
     1
102
RTVSPropertyOp19
 70
     1
102
RTVSPropertyOp20
 70
     1
102
RTVSPropertyOp21
 70
     1
102
RTVSPropertyOp22
 70
     1
102
RTVSPropertyOp23
 70
     1
102
RTVSPropertyOp24
 70
     1
102
RTVSPropertyOp25
 70
     1
102
RTVSPropertyOp26
 70
     1
102
RTVSPropertyOp27
 70
     1
102
RTVSPropertyOp28
 70
     1
102
RTVSPropertyOp29
 70
     1
102
RTVSPropertyOp30
 70
     1
102
RTVSPropertyOp31
 70
     1
102
RTVSPropertyOp32
 70
     1
102
RTVSPropertyOp33
 70
     1
102
RTVSPropertyOp34
 70
     1
102
RTVSPropertyOp35
 70
     1
102
RTVSPropertyOp36
 70
     1
102
RTVSPropertyOp37
 70
     1
102
RTVSPropertyOp38
 70
     1
102
RTVSPropertyOp39
 70
     1
102
RTVSPropertyOp40
 70
     1
102
RTVSPropertyOp41
 70
     1
102
RTVSPropertyOp42
 70
     1
102
RTVSPropertyOp43
 70
     1
102
RTVSPropertyOp44
 70
     1
102
RTVSPropertyOp45
 70
     1
102
RTVSPropertyOp46
 70
     1
102
RTVSPropertyOp47
 70
     1
102
RTVSPropertyOp48
 70
     1
102
RTVSPropertyOp49
 70
     1
102
RTVSPropertyOp50
 70
     1
102
RTVSPropertyOp51
 70
     0
102
RTVSPropertyOp52
 70
     0
102
RTVSPropertyOp53
 70
     1
102
RTVSPropertyOp54
 70
     1
102
RTVSPropertyOp55
 70
     1
102
RTVSPropertyOp56
 70
     1
102
RTVSPropertyOp57
 70
     1
102
RTVSPost2010Prop28
280
     0
102
RTVSPost2010PropOp28
 70
     1
102
RTVSPost2010Prop29
280
     1
102
RTVSPost2010PropOp29
 70
     1
102
RTVSPost2010Prop30
280
     1
102
RTVSPost2010PropOp30
 70
     1
102
RTVSPost2010Prop31
280
     0
102
RTVSPost2010PropOp31
 70
     1
102
RTVSPost2010Prop32
280
     0
102
RTVSPost2010PropOp32
 70
     1
102
RTVSPost2010Prop33
280
     0
102
RTVSPost2010PropOp33
 70
     1
102
RTVSPost2010Prop34
280
     0
102
RTVSPost2010PropOp34
 70
     1
102
RTVSPost2010Prop35
280
     0
102
RTVSPost2010PropOp35
 70
     1
102
RTVSPost2010Prop36
280
     0
102
RTVSPost2010PropOp36
 70
     1
102
RTVSPost2010Prop37
 90
       50
102
RTVSPost2010PropOp37
 70
     1
102
RTVSPost2010Prop38
140
0.0
102
RTVSPost2010PropOp38
 70
     1
102
RTVSPost2010Prop39
140
1.0
102
RTVSPost2010PropOp39
 70
     1
102
RTVSPost2010Prop40
 90
        0
102
RTVSPost2010PropOp40
 70
     1
102
RTVSPost2010Prop41ColorIndex
 90
       18
102
RTVSPost2010Prop41ColorRGB
 90
        0
102
RTVSPost2010PropOp41
 70
     1
102
RTVSPost2010Prop42
 90
       50
102
RTVSPost2010PropOp42
 70
     1
102
RTVSPost2010Prop43
 90
        3
102
RTVSPost2010PropOp43
 70
     1
102
RTVSPost2010Prop44ColorIndex
 90
        5
102
RTVSPost2010Prop44ColorRGB
 90
      255
102
RTVSPost2010PropOp44
 70
     1
102
RTVSPost2010Prop45
280
     0
102
RTVSPost2010PropOp45
 70
     1
102
RTVSPost2010Prop46
 90
       50
102
RTVSPost2010PropOp46
 70
     1
102
RTVSPost2010Prop47
 90
       50
102
RTVSPost2010PropOp47
 70
     1
102
RTVSPost2010Prop48
 90
       50
102
RTVSPost2010PropOp48
 70
     1
102
RTVSPost2010Prop49
280
     0
102
RTVSPost2010PropOp49
 70
     1
102
RTVSPost2010Prop50
 90
       50
102
RTVSPost2010PropOp50
 70
     1
102
RTVSPost2010Prop51ColorIndex
 90
      256
102
RTVSPost2010Prop51ColorRGB
 90
-16777216
102
RTVSPost2010PropOp51
 70
     0
102
RTVSPost2010Prop52
140
1.0
102
RTVSPost2010PropOp52
 70
     0
102
RTVSPost2010Prop53
 90
        2
102
RTVSPost2010PropOp53
 70
     1
102
RTVSPost2010Prop54
  1
strokes_ogs.tif
102
RTVSPost2010PropOp54
 70
     1
102
RTVSPost2010Prop55
280
     0
102
RTVSPost2010PropOp55
 70
     1
102
RTVSPost2010Prop56
140
1.0
102
RTVSPost2010PropOp56
 70
     1
102
RTVSPost2010Prop57
140
1.0
102
RTVSPost2010PropOp57
 70
     1
  0
XRECORD
  5
2AD
102
{ACAD_REACTORS
330
2AC
102
}
330
2AC
100
AcDbXrecord
280
     1
102
RTVSPropertyOp0
 70
     1
102
RTVSPropertyOp1
 70
     1
102
RTVSPropertyOp2
 70
     1
102
RTVSPropertyOp3
 70
     1
102
RTVSPropertyOp4
 70
     1
102
RTVSPropertyOp5
 70
     1
102
RTVSPropertyOp6
 70
     1
102
RTVSPropertyOp7
 70
     1
102
RTVSPropertyOp8
 70
     1
102
RTVSPropertyOp9
 70
     1
102
RTVSPropertyOp10
 70
     1
102
RTVSPropertyOp11
 70
     1
102
RTVSPropertyOp12
 70
     1
102
RTVSPropertyOp13
 70
     1
102
RTVSPropertyOp14
 70
     1
102
RTVSPropertyOp15
 70
     1
102
RTVSPropertyOp16
 70
     1
102
RTVSPropertyOp17
 70
     1
102
RTVSPropertyOp18
 70
     1
102
RTVSPropertyOp19
 70
     1
102
RTVSPropertyOp20
 70
     1
102
RTVSPropertyOp21
 70
     1
102
RTVSPropertyOp22
 70
     1
102
RTVSPropertyOp23
 70
     1
102
RTVSPropertyOp24
 70
     1
102
RTVSPropertyOp25
 70
     1
102
RTVSPropertyOp26
 70
     1
102
RTVSPropertyOp27
 70
     1
102
RTVSPropertyOp28
 70
     1
102
RTVSPropertyOp29
 70
     1
102
RTVSPropertyOp30
 70
     1
102
RTVSPropertyOp31
 70
     1
102
RTVSPropertyOp32
 70
     1
102
RTVSPropertyOp33
 70
     1
102
RTVSPropertyOp34
 70
     1
102
RTVSPropertyOp35
 70
     1
102
RTVSPropertyOp36
 70
     1
102
RTVSPropertyOp37
 70
     1
102
RTVSPropertyOp38
 70
     1
102
RTVSPropertyOp39
 70
     1
102
RTVSPropertyOp40
 70
     1
102
RTVSPropertyOp41
 70
     1
102
RTVSPropertyOp42
 70
     1
102
RTVSPropertyOp43
 70
     1
102
RTVSPropertyOp44
 70
     1
102
RTVSPropertyOp45
 70
     1
102
RTVSPropertyOp46
 70
     1
102
RTVSPropertyOp47
 70
     1
102
RTVSPropertyOp48
 70
     1
102
RTVSPropertyOp49
 70
     1
102
RTVSPropertyOp50
 70
     1
102
RTVSPropertyOp51
 70
     0
102
RTVSPropertyOp52
 70
     0
102
RTVSPropertyOp53
 70
     1
102
RTVSPropertyOp54
 70
     1
102
RTVSPropertyOp55
 70
     1
102
RTVSPropertyOp56
 70
     1
102
RTVSPropertyOp57
 70
     1
102
RTVSPost2010Prop28
280
     0
102
RTVSPost2010PropOp28
 70
     1
102
RTVSPost2010Prop29
280
     1
102
RTVSPost2010PropOp29
 70
     1
102
RTVSPost2010Prop30
280
     1
102
RTVSPost2010PropOp30
 70
     1
102
RTVSPost2010Prop31
280
     0
102
RTVSPost2010PropOp31
 70
     1
102
RTVSPost2010Prop32
280
     0
102
RTVSPost2010PropOp32
 70
     1
102
RTVSPost2010Prop33
280
     0
102
RTVSPost2010PropOp33
 70
     1
102
RTVSPost2010Prop34
280
     0
102
RTVSPost2010PropOp34
 70
     1
102
RTVSPost2010Prop35
280
     0
102
RTVSPost2010PropOp35
 70
     1
102
RTVSPost2010Prop36
280
     0
102
RTVSPost2010PropOp36
 70
     1
102
RTVSPost2010Prop37
 90
       50
102
RTVSPost2010PropOp37
 70
     1
102
RTVSPost2010Prop38
140
0.0
102
RTVSPost2010PropOp38
 70
     1
102
RTVSPost2010Prop39
140
1.0
102
RTVSPost2010PropOp39
 70
     1
102
RTVSPost2010Prop40
 90
        0
102
RTVSPost2010PropOp40
 70
     1
102
RTVSPost2010Prop41ColorIndex
 90
       18
102
RTVSPost2010Prop41ColorRGB
 90
        0
102
RTVSPost2010PropOp41
 70
     1
102
RTVSPost2010Prop42
 90
       50
102
RTVSPost2010PropOp42
 70
     1
102
RTVSPost2010Prop43
 90
        3
102
RTVSPost2010PropOp43
 70
     1
102
RTVSPost2010Prop44ColorIndex
 90
        5
102
RTVSPost2010Prop44ColorRGB
 90
      255
102
RTVSPost2010PropOp44
 70
     1
102
RTVSPost2010Prop45
280
     0
102
RTVSPost2010PropOp45
 70
     1
102
RTVSPost2010Prop46
 90
       50
102
RTVSPost2010PropOp46
 70
     1
102
RTVSPost2010Prop47
 90
       50
102
RTVSPost2010PropOp47
 70
     1
102
RTVSPost2010Prop48
 90
       50
102
RTVSPost2010PropOp48
 70
     1
102
RTVSPost2010Prop49
280
     0
102
RTVSPost2010PropOp49
 70
     1
102
RTVSPost2010Prop50
 90
       50
102
RTVSPost2010PropOp50
 70
     1
102
RTVSPost2010Prop51ColorIndex
 90
      256
102
RTVSPost2010Prop51ColorRGB
 90
-16777216
102
RTVSPost2010PropOp51
 70
     0
102
RTVSPost2010Prop52
140
1.0
102
RTVSPost2010PropOp52
 70
     0
102
RTVSPost2010Prop53
 90
        2
102
RTVSPost2010PropOp53
 70
     1
102
RTVSPost2010Prop54
  1
strokes_ogs.tif
102
RTVSPost2010PropOp54
 70
     1
102
RTVSPost2010Prop55
280
     0
102
RTVSPost2010PropOp55
 70
     1
102
RTVSPost2010Prop56
140
1.0
102
RTVSPost2010PropOp56
 70
     1
102
RTVSPost2010Prop57
140
1.0
102
RTVSPost2010PropOp57
 70
     1
  0
XRECORD
  5
2AF
102
{ACAD_REACTORS
330
2AE
102
}
330
2AE
100
AcDbXrecord
280
     1
102
RTVSPropertyOp0
 70
     1
102
RTVSPropertyOp1
 70
     1
102
RTVSPropertyOp2
 70
     1
102
RTVSPropertyOp3
 70
     1
102
RTVSPropertyOp4
 70
     1
102
RTVSPropertyOp5
 70
     1
102
RTVSPropertyOp6
 70
     1
102
RTVSPropertyOp7
 70
     1
102
RTVSPropertyOp8
 70
     1
102
RTVSPropertyOp9
 70
     1
102
RTVSPropertyOp10
 70
     1
102
RTVSPropertyOp11
 70
     1
102
RTVSPropertyOp12
 70
     1
102
RTVSPropertyOp13
 70
     1
102
RTVSPropertyOp14
 70
     1
102
RTVSPropertyOp15
 70
     1
102
RTVSPropertyOp16
 70
     1
102
RTVSPropertyOp17
 70
     1
102
RTVSPropertyOp18
 70
     1
102
RTVSPropertyOp19
 70
     1
102
RTVSPropertyOp20
 70
     1
102
RTVSPropertyOp21
 70
     1
102
RTVSPropertyOp22
 70
     1
102
RTVSPropertyOp23
 70
     1
102
RTVSPropertyOp24
 70
     1
102
RTVSPropertyOp25
 70
     1
102
RTVSPropertyOp26
 70
     1
102
RTVSPropertyOp27
 70
     1
102
RTVSPropertyOp28
 70
     1
102
RTVSPropertyOp29
 70
     1
102
RTVSPropertyOp30
 70
     1
102
RTVSPropertyOp31
 70
     1
102
RTVSPropertyOp32
 70
     1
102
RTVSPropertyOp33
 70
     1
102
RTVSPropertyOp34
 70
     1
102
RTVSPropertyOp35
 70
     1
102
RTVSPropertyOp36
 70
     1
102
RTVSPropertyOp37
 70
     1
102
RTVSPropertyOp38
 70
     1
102
RTVSPropertyOp39
 70
     1
102
RTVSPropertyOp40
 70
     1
102
RTVSPropertyOp41
 70
     1
102
RTVSPropertyOp42
 70
     1
102
RTVSPropertyOp43
 70
     1
102
RTVSPropertyOp44
 70
     1
102
RTVSPropertyOp45
 70
     1
102
RTVSPropertyOp46
 70
     1
102
RTVSPropertyOp47
 70
     1
102
RTVSPropertyOp48
 70
     1
102
RTVSPropertyOp49
 70
     1
102
RTVSPropertyOp50
 70
     1
102
RTVSPropertyOp51
 70
     0
102
RTVSPropertyOp52
 70
     0
102
RTVSPropertyOp53
 70
     1
102
RTVSPropertyOp54
 70
     1
102
RTVSPropertyOp55
 70
     1
102
RTVSPropertyOp56
 70
     1
102
RTVSPropertyOp57
 70
     1
102
RTVSPost2010Prop28
280
     0
102
RTVSPost2010PropOp28
 70
     1
102
RTVSPost2010Prop29
280
     1
102
RTVSPost2010PropOp29
 70
     1
102
RTVSPost2010Prop30
280
     1
102
RTVSPost2010PropOp30
 70
     1
102
RTVSPost2010Prop31
280
     0
102
RTVSPost2010PropOp31
 70
     1
102
RTVSPost2010Prop32
280
     0
102
RTVSPost2010PropOp32
 70
     1
102
RTVSPost2010Prop33
280
     0
102
RTVSPost2010PropOp33
 70
     1
102
RTVSPost2010Prop34
280
     0
102
RTVSPost2010PropOp34
 70
     1
102
RTVSPost2010Prop35
280
     0
102
RTVSPost2010PropOp35
 70
     1
102
RTVSPost2010Prop36
280
     0
102
RTVSPost2010PropOp36
 70
     1
102
RTVSPost2010Prop37
 90
       50
102
RTVSPost2010PropOp37
 70
     1
102
RTVSPost2010Prop38
140
0.0
102
RTVSPost2010PropOp38
 70
     1
102
RTVSPost2010Prop39
140
1.0
102
RTVSPost2010PropOp39
 70
     1
102
RTVSPost2010Prop40
 90
        0
102
RTVSPost2010PropOp40
 70
     1
102
RTVSPost2010Prop41ColorIndex
 90
       18
102
RTVSPost2010Prop41ColorRGB
 90
        0
102
RTVSPost2010PropOp41
 70
     1
102
RTVSPost2010Prop42
 90
       50
102
RTVSPost2010PropOp42
 70
     1
102
RTVSPost2010Prop43
 90
        3
102
RTVSPost2010PropOp43
 70
     1
102
RTVSPost2010Prop44ColorIndex
 90
        5
102
RTVSPost2010Prop44ColorRGB
 90
      255
102
RTVSPost2010PropOp44
 70
     1
102
RTVSPost2010Prop45
280
     0
102
RTVSPost2010PropOp45
 70
     1
102
RTVSPost2010Prop46
 90
       50
102
RTVSPost2010PropOp46
 70
     1
102
RTVSPost2010Prop47
 90
       50
102
RTVSPost2010PropOp47
 70
     1
102
RTVSPost2010Prop48
 90
       50
102
RTVSPost2010PropOp48
 70
     1
102
RTVSPost2010Prop49
280
     0
102
RTVSPost2010PropOp49
 70
     1
102
RTVSPost2010Prop50
 90
       50
102
RTVSPost2010PropOp50
 70
     1
102
RTVSPost2010Prop51ColorIndex
 90
      256
102
RTVSPost2010Prop51ColorRGB
 90
-16777216
102
RTVSPost2010PropOp51
 70
     0
102
RTVSPost2010Prop52
140
1.0
102
RTVSPost2010PropOp52
 70
     0
102
RTVSPost2010Prop53
 90
        2
102
RTVSPost2010PropOp53
 70
     1
102
RTVSPost2010Prop54
  1
strokes_ogs.tif
102
RTVSPost2010PropOp54
 70
     1
102
RTVSPost2010Prop55
280
     0
102
RTVSPost2010PropOp55
 70
     1
102
RTVSPost2010Prop56
140
1.0
102
RTVSPost2010PropOp56
 70
     1
102
RTVSPost2010Prop57
140
1.0
102
RTVSPost2010PropOp57
 70
     1
  0
XRECORD
  5
2B1
102
{ACAD_REACTORS
330
2B0
102
}
330
2B0
100
AcDbXrecord
280
     1
102
RTVSPropertyOp0
 70
     1
102
RTVSPropertyOp1
 70
     1
102
RTVSPropertyOp2
 70
     1
102
RTVSPropertyOp3
 70
     1
102
RTVSPropertyOp4
 70
     1
102
RTVSPropertyOp5
 70
     1
102
RTVSPropertyOp6
 70
     1
102
RTVSPropertyOp7
 70
     1
102
RTVSPropertyOp8
 70
     1
102
RTVSPropertyOp9
 70
     1
102
RTVSPropertyOp10
 70
     1
102
RTVSPropertyOp11
 70
     1
102
RTVSPropertyOp12
 70
     1
102
RTVSPropertyOp13
 70
     1
102
RTVSPropertyOp14
 70
     1
102
RTVSPropertyOp15
 70
     1
102
RTVSPropertyOp16
 70
     1
102
RTVSPropertyOp17
 70
     1
102
RTVSPropertyOp18
 70
     1
102
RTVSPropertyOp19
 70
     1
102
RTVSPropertyOp20
 70
     1
102
RTVSPropertyOp21
 70
     1
102
RTVSPropertyOp22
 70
     1
102
RTVSPropertyOp23
 70
     1
102
RTVSPropertyOp24
 70
     1
102
RTVSPropertyOp25
 70
     1
102
RTVSPropertyOp26
 70
     1
102
RTVSPropertyOp27
 70
     1
102
RTVSPropertyOp28
 70
     1
102
RTVSPropertyOp29
 70
     1
102
RTVSPropertyOp30
 70
     1
102
RTVSPropertyOp31
 70
     1
102
RTVSPropertyOp32
 70
     1
102
RTVSPropertyOp33
 70
     1
102
RTVSPropertyOp34
 70
     1
102
RTVSPropertyOp35
 70
     1
102
RTVSPropertyOp36
 70
     1
102
RTVSPropertyOp37
 70
     1
102
RTVSPropertyOp38
 70
     1
102
RTVSPropertyOp39
 70
     1
102
RTVSPropertyOp40
 70
     1
102
RTVSPropertyOp41
 70
     1
102
RTVSPropertyOp42
 70
     1
102
RTVSPropertyOp43
 70
     1
102
RTVSPropertyOp44
 70
     1
102
RTVSPropertyOp45
 70
     1
102
RTVSPropertyOp46
 70
     1
102
RTVSPropertyOp47
 70
     1
102
RTVSPropertyOp48
 70
     1
102
RTVSPropertyOp49
 70
     1
102
RTVSPropertyOp50
 70
     1
102
RTVSPropertyOp51
 70
     0
102
RTVSPropertyOp52
 70
     0
102
RTVSPropertyOp53
 70
     1
102
RTVSPropertyOp54
 70
     1
102
RTVSPropertyOp55
 70
     1
102
RTVSPropertyOp56
 70
     1
102
RTVSPropertyOp57
 70
     1
102
RTVSPost2010Prop28
280
     0
102
RTVSPost2010PropOp28
 70
     1
102
RTVSPost2010Prop29
280
     1
102
RTVSPost2010PropOp29
 70
     1
102
RTVSPost2010Prop30
280
     1
102
RTVSPost2010PropOp30
 70
     1
102
RTVSPost2010Prop31
280
     0
102
RTVSPost2010PropOp31
 70
     1
102
RTVSPost2010Prop32
280
     0
102
RTVSPost2010PropOp32
 70
     1
102
RTVSPost2010Prop33
280
     0
102
RTVSPost2010PropOp33
 70
     1
102
RTVSPost2010Prop34
280
     0
102
RTVSPost2010PropOp34
 70
     1
102
RTVSPost2010Prop35
280
     0
102
RTVSPost2010PropOp35
 70
     1
102
RTVSPost2010Prop36
280
     0
102
RTVSPost2010PropOp36
 70
     1
102
RTVSPost2010Prop37
 90
       50
102
RTVSPost2010PropOp37
 70
     1
102
RTVSPost2010Prop38
140
0.0
102
RTVSPost2010PropOp38
 70
     1
102
RTVSPost2010Prop39
140
1.0
102
RTVSPost2010PropOp39
 70
     1
102
RTVSPost2010Prop40
 90
        0
102
RTVSPost2010PropOp40
 70
     1
102
RTVSPost2010Prop41ColorIndex
 90
       18
102
RTVSPost2010Prop41ColorRGB
 90
        0
102
RTVSPost2010PropOp41
 70
     1
102
RTVSPost2010Prop42
 90
       50
102
RTVSPost2010PropOp42
 70
     1
102
RTVSPost2010Prop43
 90
        3
102
RTVSPost2010PropOp43
 70
     1
102
RTVSPost2010Prop44ColorIndex
 90
        5
102
RTVSPost2010Prop44ColorRGB
 90
      255
102
RTVSPost2010PropOp44
 70
     1
102
RTVSPost2010Prop45
280
     0
102
RTVSPost2010PropOp45
 70
     1
102
RTVSPost2010Prop46
 90
       50
102
RTVSPost2010PropOp46
 70
     1
102
RTVSPost2010Prop47
 90
       50
102
RTVSPost2010PropOp47
 70
     1
102
RTVSPost2010Prop48
 90
       50
102
RTVSPost2010PropOp48
 70
     1
102
RTVSPost2010Prop49
280
     0
102
RTVSPost2010PropOp49
 70
     1
102
RTVSPost2010Prop50
 90
       50
102
RTVSPost2010PropOp50
 70
     1
102
RTVSPost2010Prop51ColorIndex
 90
      256
102
RTVSPost2010Prop51ColorRGB
 90
-16777216
102
RTVSPost2010PropOp51
 70
     0
102
RTVSPost2010Prop52
140
1.0
102
RTVSPost2010PropOp52
 70
     0
102
RTVSPost2010Prop53
 90
        2
102
RTVSPost2010PropOp53
 70
     1
102
RTVSPost2010Prop54
  1
strokes_ogs.tif
102
RTVSPost2010PropOp54
 70
     1
102
RTVSPost2010Prop55
280
     0
102
RTVSPost2010PropOp55
 70
     1
102
RTVSPost2010Prop56
140
1.0
102
RTVSPost2010PropOp56
 70
     1
102
RTVSPost2010Prop57
140
1.0
102
RTVSPost2010PropOp57
 70
     1
  0
XRECORD
  5
2B3
102
{ACAD_REACTORS
330
2B2
102
}
330
2B2
100
AcDbXrecord
280
     1
102
RTVSPropertyOp0
 70
     1
102
RTVSPropertyOp1
 70
     1
102
RTVSPropertyOp2
 70
     1
102
RTVSPropertyOp3
 70
     1
102
RTVSPropertyOp4
 70
     1
102
RTVSPropertyOp5
 70
     1
102
RTVSPropertyOp6
 70
     1
102
RTVSPropertyOp7
 70
     1
102
RTVSPropertyOp8
 70
     1
102
RTVSPropertyOp9
 70
     1
102
RTVSPropertyOp10
 70
     1
102
RTVSPropertyOp11
 70
     1
102
RTVSPropertyOp12
 70
     1
102
RTVSPropertyOp13
 70
     1
102
RTVSPropertyOp14
 70
     1
102
RTVSPropertyOp15
 70
     1
102
RTVSPropertyOp16
 70
     1
102
RTVSPropertyOp17
 70
     1
102
RTVSPropertyOp18
 70
     1
102
RTVSPropertyOp19
 70
     1
102
RTVSPropertyOp20
 70
     1
102
RTVSPropertyOp21
 70
     1
102
RTVSPropertyOp22
 70
     1
102
RTVSPropertyOp23
 70
     1
102
RTVSPropertyOp24
 70
     1
102
RTVSPropertyOp25
 70
     1
102
RTVSPropertyOp26
 70
     1
102
RTVSPropertyOp27
 70
     1
102
RTVSPropertyOp28
 70
     1
102
RTVSPropertyOp29
 70
     1
102
RTVSPropertyOp30
 70
     1
102
RTVSPropertyOp31
 70
     1
102
RTVSPropertyOp32
 70
     1
102
RTVSPropertyOp33
 70
     1
102
RTVSPropertyOp34
 70
     1
102
RTVSPropertyOp35
 70
     1
102
RTVSPropertyOp36
 70
     1
102
RTVSPropertyOp37
 70
     1
102
RTVSPropertyOp38
 70
     1
102
RTVSPropertyOp39
 70
     1
102
RTVSPropertyOp40
 70
     1
102
RTVSPropertyOp41
 70
     1
102
RTVSPropertyOp42
 70
     1
102
RTVSPropertyOp43
 70
     1
102
RTVSPropertyOp44
 70
     1
102
RTVSPropertyOp45
 70
     1
102
RTVSPropertyOp46
 70
     1
102
RTVSPropertyOp47
 70
     1
102
RTVSPropertyOp48
 70
     1
102
RTVSPropertyOp49
 70
     1
102
RTVSPropertyOp50
 70
     1
102
RTVSPropertyOp51
 70
     0
102
RTVSPropertyOp52
 70
     0
102
RTVSPropertyOp53
 70
     1
102
RTVSPropertyOp54
 70
     1
102
RTVSPropertyOp55
 70
     1
102
RTVSPropertyOp56
 70
     1
102
RTVSPropertyOp57
 70
     1
102
RTVSPost2010Prop28
280
     0
102
RTVSPost2010PropOp28
 70
     1
102
RTVSPost2010Prop29
280
     1
102
RTVSPost2010PropOp29
 70
     1
102
RTVSPost2010Prop30
280
     1
102
RTVSPost2010PropOp30
 70
     1
102
RTVSPost2010Prop31
280
     0
102
RTVSPost2010PropOp31
 70
     1
102
RTVSPost2010Prop32
280
     0
102
RTVSPost2010PropOp32
 70
     1
102
RTVSPost2010Prop33
280
     0
102
RTVSPost2010PropOp33
 70
     1
102
RTVSPost2010Prop34
280
     0
102
RTVSPost2010PropOp34
 70
     1
102
RTVSPost2010Prop35
280
     0
102
RTVSPost2010PropOp35
 70
     1
102
RTVSPost2010Prop36
280
     0
102
RTVSPost2010PropOp36
 70
     1
102
RTVSPost2010Prop37
 90
       50
102
RTVSPost2010PropOp37
 70
     1
102
RTVSPost2010Prop38
140
0.0
102
RTVSPost2010PropOp38
 70
     1
102
RTVSPost2010Prop39
140
1.0
102
RTVSPost2010PropOp39
 70
     1
102
RTVSPost2010Prop40
 90
        0
102
RTVSPost2010PropOp40
 70
     1
102
RTVSPost2010Prop41ColorIndex
 90
       18
102
RTVSPost2010Prop41ColorRGB
 90
        0
102
RTVSPost2010PropOp41
 70
     1
102
RTVSPost2010Prop42
 90
       50
102
RTVSPost2010PropOp42
 70
     1
102
RTVSPost2010Prop43
 90
        3
102
RTVSPost2010PropOp43
 70
     1
102
RTVSPost2010Prop44ColorIndex
 90
        5
102
RTVSPost2010Prop44ColorRGB
 90
      255
102
RTVSPost2010PropOp44
 70
     1
102
RTVSPost2010Prop45
280
     0
102
RTVSPost2010PropOp45
 70
     1
102
RTVSPost2010Prop46
 90
       50
102
RTVSPost2010PropOp46
 70
     1
102
RTVSPost2010Prop47
 90
       50
102
RTVSPost2010PropOp47
 70
     1
102
RTVSPost2010Prop48
 90
       50
102
RTVSPost2010PropOp48
 70
     1
102
RTVSPost2010Prop49
280
     0
102
RTVSPost2010PropOp49
 70
     1
102
RTVSPost2010Prop50
 90
       50
102
RTVSPost2010PropOp50
 70
     1
102
RTVSPost2010Prop51ColorIndex
 90
      256
102
RTVSPost2010Prop51ColorRGB
 90
-16777216
102
RTVSPost2010PropOp51
 70
     0
102
RTVSPost2010Prop52
140
1.0
102
RTVSPost2010PropOp52
 70
     0
102
RTVSPost2010Prop53
 90
        2
102
RTVSPost2010PropOp53
 70
     1
102
RTVSPost2010Prop54
  1
strokes_ogs.tif
102
RTVSPost2010PropOp54
 70
     1
102
RTVSPost2010Prop55
280
     0
102
RTVSPost2010PropOp55
 70
     1
102
RTVSPost2010Prop56
140
1.0
102
RTVSPost2010PropOp56
 70
     1
102
RTVSPost2010Prop57
140
1.0
102
RTVSPost2010PropOp57
 70
     1
  0
XRECORD
  5
2B9
102
{ACAD_REACTORS
330
2B8
102
}
330
2B8
100
AcDbXrecord
280
     1
102
RTVSPropertyOp0
 70
     1
102
RTVSPropertyOp1
 70
     1
102
RTVSPropertyOp2
 70
     1
102
RTVSPropertyOp3
 70
     1
102
RTVSPropertyOp4
 70
     1
102
RTVSPropertyOp5
 70
     1
102
RTVSPropertyOp6
 70
     1
102
RTVSPropertyOp7
 70
     1
102
RTVSPropertyOp8
 70
     1
102
RTVSPropertyOp9
 70
     1
102
RTVSPropertyOp10
 70
     1
102
RTVSPropertyOp11
 70
     1
102
RTVSPropertyOp12
 70
     1
102
RTVSPropertyOp13
 70
     1
102
RTVSPropertyOp14
 70
     1
102
RTVSPropertyOp15
 70
     1
102
RTVSPropertyOp16
 70
     1
102
RTVSPropertyOp17
 70
     1
102
RTVSPropertyOp18
 70
     1
102
RTVSPropertyOp19
 70
     1
102
RTVSPropertyOp20
 70
     1
102
RTVSPropertyOp21
 70
     1
102
RTVSPropertyOp22
 70
     1
102
RTVSPropertyOp23
 70
     1
102
RTVSPropertyOp24
 70
     1
102
RTVSPropertyOp25
 70
     1
102
RTVSPropertyOp26
 70
     1
102
RTVSPropertyOp27
 70
     1
102
RTVSPropertyOp28
 70
     1
102
RTVSPropertyOp29
 70
     1
102
RTVSPropertyOp30
 70
     1
102
RTVSPropertyOp31
 70
     1
102
RTVSPropertyOp32
 70
     1
102
RTVSPropertyOp33
 70
     1
102
RTVSPropertyOp34
 70
     1
102
RTVSPropertyOp35
 70
     1
102
RTVSPropertyOp36
 70
     1
102
RTVSPropertyOp37
 70
     1
102
RTVSPropertyOp38
 70
     1
102
RTVSPropertyOp39
 70
     1
102
RTVSPropertyOp40
 70
     1
102
RTVSPropertyOp41
 70
     1
102
RTVSPropertyOp42
 70
     1
102
RTVSPropertyOp43
 70
     1
102
RTVSPropertyOp44
 70
     1
102
RTVSPropertyOp45
 70
     1
102
RTVSPropertyOp46
 70
     1
102
RTVSPropertyOp47
 70
     1
102
RTVSPropertyOp48
 70
     1
102
RTVSPropertyOp49
 70
     1
102
RTVSPropertyOp50
 70
     1
102
RTVSPropertyOp51
 70
     0
102
RTVSPropertyOp52
 70
     0
102
RTVSPropertyOp53
 70
     1
102
RTVSPropertyOp54
 70
     1
102
RTVSPropertyOp55
 70
     1
102
RTVSPropertyOp56
 70
     1
102
RTVSPropertyOp57
 70
     1
102
RTVSPost2010Prop28
280
     0
102
RTVSPost2010PropOp28
 70
     1
102
RTVSPost2010Prop29
280
     1
102
RTVSPost2010PropOp29
 70
     1
102
RTVSPost2010Prop30
280
     1
102
RTVSPost2010PropOp30
 70
     1
102
RTVSPost2010Prop31
280
     0
102
RTVSPost2010PropOp31
 70
     1
102
RTVSPost2010Prop32
280
     0
102
RTVSPost2010PropOp32
 70
     1
102
RTVSPost2010Prop33
280
     0
102
RTVSPost2010PropOp33
 70
     1
102
RTVSPost2010Prop34
280
     0
102
RTVSPost2010PropOp34
 70
     1
102
RTVSPost2010Prop35
280
     0
102
RTVSPost2010PropOp35
 70
     1
102
RTVSPost2010Prop36
280
     0
102
RTVSPost2010PropOp36
 70
     1
102
RTVSPost2010Prop37
 90
       50
102
RTVSPost2010PropOp37
 70
     1
102
RTVSPost2010Prop38
140
0.0
102
RTVSPost2010PropOp38
 70
     1
102
RTVSPost2010Prop39
140
1.0
102
RTVSPost2010PropOp39
 70
     1
102
RTVSPost2010Prop40
 90
        0
102
RTVSPost2010PropOp40
 70
     1
102
RTVSPost2010Prop41ColorIndex
 90
       18
102
RTVSPost2010Prop41ColorRGB
 90
        0
102
RTVSPost2010PropOp41
 70
     1
102
RTVSPost2010Prop42
 90
       50
102
RTVSPost2010PropOp42
 70
     1
102
RTVSPost2010Prop43
 90
        3
102
RTVSPost2010PropOp43
 70
     1
102
RTVSPost2010Prop44ColorIndex
 90
        5
102
RTVSPost2010Prop44ColorRGB
 90
      255
102
RTVSPost2010PropOp44
 70
     1
102
RTVSPost2010Prop45
280
     0
102
RTVSPost2010PropOp45
 70
     1
102
RTVSPost2010Prop46
 90
       50
102
RTVSPost2010PropOp46
 70
     1
102
RTVSPost2010Prop47
 90
       50
102
RTVSPost2010PropOp47
 70
     1
102
RTVSPost2010Prop48
 90
       50
102
RTVSPost2010PropOp48
 70
     1
102
RTVSPost2010Prop49
280
     0
102
RTVSPost2010PropOp49
 70
     1
102
RTVSPost2010Prop50
 90
       50
102
RTVSPost2010PropOp50
 70
     1
102
RTVSPost2010Prop51ColorIndex
 90
      256
102
RTVSPost2010Prop51ColorRGB
 90
-16777216
102
RTVSPost2010PropOp51
 70
     0
102
RTVSPost2010Prop52
140
1.0
102
RTVSPost2010PropOp52
 70
     0
102
RTVSPost2010Prop53
 90
        2
102
RTVSPost2010PropOp53
 70
     1
102
RTVSPost2010Prop54
  1
strokes_ogs.tif
102
RTVSPost2010PropOp54
 70
     1
102
RTVSPost2010Prop55
280
     0
102
RTVSPost2010PropOp55
 70
     1
102
RTVSPost2010Prop56
140
1.0
102
RTVSPost2010PropOp56
 70
     1
102
RTVSPost2010Prop57
140
1.0
102
RTVSPost2010PropOp57
 70
     1
  0
XRECORD
  5
2CD
102
{ACAD_REACTORS
330
2CC
102
}
330
2CC
100
AcDbXrecord
280
     1
102
RTVSPropertyOp0
 70
     0
102
RTVSPropertyOp1
 70
     0
102
RTVSPropertyOp2
 70
     0
102
RTVSPropertyOp3
 70
     0
102
RTVSPropertyOp4
 70
     0
102
RTVSPropertyOp5
 70
     0
102
RTVSPropertyOp6
 70
     0
102
RTVSPropertyOp7
 70
     0
102
RTVSPropertyOp8
 70
     0
102
RTVSPropertyOp9
 70
     0
102
RTVSPropertyOp10
 70
     0
102
RTVSPropertyOp11
 70
     0
102
RTVSPropertyOp12
 70
     0
102
RTVSPropertyOp13
 70
     0
102
RTVSPropertyOp14
 70
     2
102
RTVSPropertyOp15
 70
     0
102
RTVSPropertyOp16
 70
     0
102
RTVSPropertyOp17
 70
     0
102
RTVSPropertyOp18
 70
     0
102
RTVSPropertyOp19
 70
     0
102
RTVSPropertyOp20
 70
     0
102
RTVSPropertyOp21
 70
     0
102
RTVSPropertyOp22
 70
     0
102
RTVSPropertyOp23
 70
     0
102
RTVSPropertyOp24
 70
     0
102
RTVSPropertyOp25
 70
     0
102
RTVSPropertyOp26
 70
     0
102
RTVSPropertyOp27
 70
     0
102
RTVSPropertyOp28
 70
     0
102
RTVSPropertyOp29
 70
     0
102
RTVSPropertyOp30
 70
     0
102
RTVSPropertyOp31
 70
     0
102
RTVSPropertyOp32
 70
     0
102
RTVSPropertyOp33
 70
     0
102
RTVSPropertyOp34
 70
     0
102
RTVSPropertyOp35
 70
     0
102
RTVSPropertyOp36
 70
     0
102
RTVSPropertyOp37
 70
     0
102
RTVSPropertyOp38
 70
     0
102
RTVSPropertyOp39
 70
     0
102
RTVSPropertyOp40
 70
     0
102
RTVSPropertyOp41
 70
     0
102
RTVSPropertyOp42
 70
     0
102
RTVSPropertyOp43
 70
     0
102
RTVSPropertyOp44
 70
     0
102
RTVSPropertyOp45
 70
     0
102
RTVSPropertyOp46
 70
     0
102
RTVSPropertyOp47
 70
     0
102
RTVSPropertyOp48
 70
     0
102
RTVSPropertyOp49
 70
     0
102
RTVSPropertyOp50
 70
     0
102
RTVSPropertyOp51
 70
     0
102
RTVSPropertyOp52
 70
     0
102
RTVSPropertyOp53
 70
     0
102
RTVSPropertyOp54
 70
     0
102
RTVSPropertyOp55
 70
     0
102
RTVSPropertyOp56
 70
     0
102
RTVSPropertyOp57
 70
     0
102
RTVSPost2010Prop28
280
     0
102
RTVSPost2010PropOp28
 70
     0
102
RTVSPost2010Prop29
280
     1
102
RTVSPost2010PropOp29
 70
     0
102
RTVSPost2010Prop30
280
     1
102
RTVSPost2010PropOp30
 70
     0
102
RTVSPost2010Prop31
280
     0
102
RTVSPost2010PropOp31
 70
     0
102
RTVSPost2010Prop32
280
     0
102
RTVSPost2010PropOp32
 70
     0
102
RTVSPost2010Prop33
280
     0
102
RTVSPost2010PropOp33
 70
     0
102
RTVSPost2010Prop34
280
     0
102
RTVSPost2010PropOp34
 70
     0
102
RTVSPost2010Prop35
280
     0
102
RTVSPost2010PropOp35
 70
     0
102
RTVSPost2010Prop36
280
     0
102
RTVSPost2010PropOp36
 70
     0
102
RTVSPost2010Prop37
 90
       50
102
RTVSPost2010PropOp37
 70
     0
102
RTVSPost2010Prop38
140
0.0
102
RTVSPost2010PropOp38
 70
     0
102
RTVSPost2010Prop39
140
1.0
102
RTVSPost2010PropOp39
 70
     0
102
RTVSPost2010Prop40
 90
        0
102
RTVSPost2010PropOp40
 70
     0
102
RTVSPost2010Prop41ColorIndex
 90
       18
102
RTVSPost2010Prop41ColorRGB
 90
        0
102
RTVSPost2010PropOp41
 70
     0
102
RTVSPost2010Prop42
 90
       50
102
RTVSPost2010PropOp42
 70
     0
102
RTVSPost2010Prop43
 90
        3
102
RTVSPost2010PropOp43
 70
     0
102
RTVSPost2010Prop44ColorIndex
 90
        5
102
RTVSPost2010Prop44ColorRGB
 90
      255
102
RTVSPost2010PropOp44
 70
     0
102
RTVSPost2010Prop45
280
     0
102
RTVSPost2010PropOp45
 70
     0
102
RTVSPost2010Prop46
 90
       50
102
RTVSPost2010PropOp46
 70
     0
102
RTVSPost2010Prop47
 90
       50
102
RTVSPost2010PropOp47
 70
     0
102
RTVSPost2010Prop48
 90
       50
102
RTVSPost2010PropOp48
 70
     0
102
RTVSPost2010Prop49
280
     0
102
RTVSPost2010PropOp49
 70
     0
102
RTVSPost2010Prop50
 90
       50
102
RTVSPost2010PropOp50
 70
     0
102
RTVSPost2010Prop51ColorIndex
 90
      256
102
RTVSPost2010Prop51ColorRGB
 90
-16777216
102
RTVSPost2010PropOp51
 70
     0
102
RTVSPost2010Prop52
140
1.0
102
RTVSPost2010PropOp52
 70
     0
102
RTVSPost2010Prop53
 90
        2
102
RTVSPost2010PropOp53
 70
     0
102
RTVSPost2010Prop54
  1
strokes_ogs.tif
102
RTVSPost2010PropOp54
 70
     0
102
RTVSPost2010Prop55
280
     0
102
RTVSPost2010PropOp55
 70
     0
102
RTVSPost2010Prop56
140
1.0
102
RTVSPost2010PropOp56
 70
     0
102
RTVSPost2010Prop57
140
1.0
102
RTVSPost2010PropOp57
 70
     0
  0
XRECORD
  5
2C7
102
{ACAD_REACTORS
330
2C6
102
}
330
2C6
100
AcDbXrecord
280
     1
102
RTVSPropertyOp0
 70
     1
102
RTVSPropertyOp1
 70
     1
102
RTVSPropertyOp2
 70
     1
102
RTVSPropertyOp3
 70
     1
102
RTVSPropertyOp4
 70
     1
102
RTVSPropertyOp5
 70
     1
102
RTVSPropertyOp6
 70
     1
102
RTVSPropertyOp7
 70
     1
102
RTVSPropertyOp8
 70
     1
102
RTVSPropertyOp9
 70
     1
102
RTVSPropertyOp10
 70
     1
102
RTVSPropertyOp11
 70
     1
102
RTVSPropertyOp12
 70
     1
102
RTVSPropertyOp13
 70
     1
102
RTVSPropertyOp14
 70
     1
102
RTVSPropertyOp15
 70
     1
102
RTVSPropertyOp16
 70
     1
102
RTVSPropertyOp17
 70
     1
102
RTVSPropertyOp18
 70
     1
102
RTVSPropertyOp19
 70
     1
102
RTVSPropertyOp20
 70
     1
102
RTVSPropertyOp21
 70
     1
102
RTVSPropertyOp22
 70
     1
102
RTVSPropertyOp23
 70
     1
102
RTVSPropertyOp24
 70
     1
102
RTVSPropertyOp25
 70
     1
102
RTVSPropertyOp26
 70
     1
102
RTVSPropertyOp27
 70
     1
102
RTVSPropertyOp28
 70
     1
102
RTVSPropertyOp29
 70
     1
102
RTVSPropertyOp30
 70
     1
102
RTVSPropertyOp31
 70
     1
102
RTVSPropertyOp32
 70
     1
102
RTVSPropertyOp33
 70
     1
102
RTVSPropertyOp34
 70
     1
102
RTVSPropertyOp35
 70
     1
102
RTVSPropertyOp36
 70
     1
102
RTVSPropertyOp37
 70
     1
102
RTVSPropertyOp38
 70
     1
102
RTVSPropertyOp39
 70
     1
102
RTVSPropertyOp40
 70
     1
102
RTVSPropertyOp41
 70
     1
102
RTVSPropertyOp42
 70
     1
102
RTVSPropertyOp43
 70
     1
102
RTVSPropertyOp44
 70
     1
102
RTVSPropertyOp45
 70
     1
102
RTVSPropertyOp46
 70
     1
102
RTVSPropertyOp47
 70
     1
102
RTVSPropertyOp48
 70
     1
102
RTVSPropertyOp49
 70
     1
102
RTVSPropertyOp50
 70
     1
102
RTVSPropertyOp51
 70
     0
102
RTVSPropertyOp52
 70
     0
102
RTVSPropertyOp53
 70
     1
102
RTVSPropertyOp54
 70
     1
102
RTVSPropertyOp55
 70
     1
102
RTVSPropertyOp56
 70
     1
102
RTVSPropertyOp57
 70
     1
102
RTVSPost2010Prop28
280
     0
102
RTVSPost2010PropOp28
 70
     1
102
RTVSPost2010Prop29
280
     1
102
RTVSPost2010PropOp29
 70
     1
102
RTVSPost2010Prop30
280
     1
102
RTVSPost2010PropOp30
 70
     1
102
RTVSPost2010Prop31
280
     0
102
RTVSPost2010PropOp31
 70
     1
102
RTVSPost2010Prop32
280
     0
102
RTVSPost2010PropOp32
 70
     1
102
RTVSPost2010Prop33
280
     0
102
RTVSPost2010PropOp33
 70
     1
102
RTVSPost2010Prop34
280
     0
102
RTVSPost2010PropOp34
 70
     1
102
RTVSPost2010Prop35
280
     0
102
RTVSPost2010PropOp35
 70
     1
102
RTVSPost2010Prop36
280
     0
102
RTVSPost2010PropOp36
 70
     1
102
RTVSPost2010Prop37
 90
       50
102
RTVSPost2010PropOp37
 70
     1
102
RTVSPost2010Prop38
140
0.0
102
RTVSPost2010PropOp38
 70
     1
102
RTVSPost2010Prop39
140
1.0
102
RTVSPost2010PropOp39
 70
     1
102
RTVSPost2010Prop40
 90
        0
102
RTVSPost2010PropOp40
 70
     1
102
RTVSPost2010Prop41ColorIndex
 90
       18
102
RTVSPost2010Prop41ColorRGB
 90
        0
102
RTVSPost2010PropOp41
 70
     1
102
RTVSPost2010Prop42
 90
       50
102
RTVSPost2010PropOp42
 70
     1
102
RTVSPost2010Prop43
 90
        3
102
RTVSPost2010PropOp43
 70
     1
102
RTVSPost2010Prop44ColorIndex
 90
        5
102
RTVSPost2010Prop44ColorRGB
 90
      255
102
RTVSPost2010PropOp44
 70
     1
102
RTVSPost2010Prop45
280
     0
102
RTVSPost2010PropOp45
 70
     1
102
RTVSPost2010Prop46
 90
       50
102
RTVSPost2010PropOp46
 70
     1
102
RTVSPost2010Prop47
 90
       50
102
RTVSPost2010PropOp47
 70
     1
102
RTVSPost2010Prop48
 90
       50
102
RTVSPost2010PropOp48
 70
     1
102
RTVSPost2010Prop49
280
     0
102
RTVSPost2010PropOp49
 70
     1
102
RTVSPost2010Prop50
 90
       50
102
RTVSPost2010PropOp50
 70
     1
102
RTVSPost2010Prop51ColorIndex
 90
      256
102
RTVSPost2010Prop51ColorRGB
 90
-16777216
102
RTVSPost2010PropOp51
 70
     0
102
RTVSPost2010Prop52
140
1.0
102
RTVSPost2010PropOp52
 70
     0
102
RTVSPost2010Prop53
 90
        2
102
RTVSPost2010PropOp53
 70
     1
102
RTVSPost2010Prop54
  1
strokes_ogs.tif
102
RTVSPost2010PropOp54
 70
     1
102
RTVSPost2010Prop55
280
     0
102
RTVSPost2010PropOp55
 70
     1
102
RTVSPost2010Prop56
140
1.0
102
RTVSPost2010PropOp56
 70
     1
102
RTVSPost2010Prop57
140
1.0
102
RTVSPost2010PropOp57
 70
     1
  0
XRECORD
  5
2CF
102
{ACAD_REACTORS
330
2CE
102
}
330
2CE
100
AcDbXrecord
280
     1
102
RTVSPropertyOp0
 70
     0
102
RTVSPropertyOp1
 70
     0
102
RTVSPropertyOp2
 70
     0
102
RTVSPropertyOp3
 70
     0
102
RTVSPropertyOp4
 70
     0
102
RTVSPropertyOp5
 70
     0
102
RTVSPropertyOp6
 70
     0
102
RTVSPropertyOp7
 70
     0
102
RTVSPropertyOp8
 70
     0
102
RTVSPropertyOp9
 70
     0
102
RTVSPropertyOp10
 70
     0
102
RTVSPropertyOp11
 70
     0
102
RTVSPropertyOp12
 70
     0
102
RTVSPropertyOp13
 70
     0
102
RTVSPropertyOp14
 70
     2
102
RTVSPropertyOp15
 70
     0
102
RTVSPropertyOp16
 70
     0
102
RTVSPropertyOp17
 70
     0
102
RTVSPropertyOp18
 70
     0
102
RTVSPropertyOp19
 70
     0
102
RTVSPropertyOp20
 70
     0
102
RTVSPropertyOp21
 70
     0
102
RTVSPropertyOp22
 70
     0
102
RTVSPropertyOp23
 70
     0
102
RTVSPropertyOp24
 70
     0
102
RTVSPropertyOp25
 70
     0
102
RTVSPropertyOp26
 70
     0
102
RTVSPropertyOp27
 70
     0
102
RTVSPropertyOp28
 70
     0
102
RTVSPropertyOp29
 70
     0
102
RTVSPropertyOp30
 70
     0
102
RTVSPropertyOp31
 70
     0
102
RTVSPropertyOp32
 70
     0
102
RTVSPropertyOp33
 70
     0
102
RTVSPropertyOp34
 70
     0
102
RTVSPropertyOp35
 70
     0
102
RTVSPropertyOp36
 70
     0
102
RTVSPropertyOp37
 70
     0
102
RTVSPropertyOp38
 70
     0
102
RTVSPropertyOp39
 70
     0
102
RTVSPropertyOp40
 70
     0
102
RTVSPropertyOp41
 70
     0
102
RTVSPropertyOp42
 70
     0
102
RTVSPropertyOp43
 70
     0
102
RTVSPropertyOp44
 70
     0
102
RTVSPropertyOp45
 70
     0
102
RTVSPropertyOp46
 70
     0
102
RTVSPropertyOp47
 70
     0
102
RTVSPropertyOp48
 70
     0
102
RTVSPropertyOp49
 70
     0
102
RTVSPropertyOp50
 70
     0
102
RTVSPropertyOp51
 70
     0
102
RTVSPropertyOp52
 70
     0
102
RTVSPropertyOp53
 70
     0
102
RTVSPropertyOp54
 70
     0
102
RTVSPropertyOp55
 70
     0
102
RTVSPropertyOp56
 70
     0
102
RTVSPropertyOp57
 70
     0
102
RTVSPost2010Prop28
280
     0
102
RTVSPost2010PropOp28
 70
     0
102
RTVSPost2010Prop29
280
     1
102
RTVSPost2010PropOp29
 70
     0
102
RTVSPost2010Prop30
280
     1
102
RTVSPost2010PropOp30
 70
     0
102
RTVSPost2010Prop31
280
     0
102
RTVSPost2010PropOp31
 70
     0
102
RTVSPost2010Prop32
280
     0
102
RTVSPost2010PropOp32
 70
     0
102
RTVSPost2010Prop33
280
     0
102
RTVSPost2010PropOp33
 70
     0
102
RTVSPost2010Prop34
280
     0
102
RTVSPost2010PropOp34
 70
     0
102
RTVSPost2010Prop35
280
     0
102
RTVSPost2010PropOp35
 70
     0
102
RTVSPost2010Prop36
280
     0
102
RTVSPost2010PropOp36
 70
     0
102
RTVSPost2010Prop37
 90
       50
102
RTVSPost2010PropOp37
 70
     0
102
RTVSPost2010Prop38
140
0.0
102
RTVSPost2010PropOp38
 70
     0
102
RTVSPost2010Prop39
140
1.0
102
RTVSPost2010PropOp39
 70
     0
102
RTVSPost2010Prop40
 90
        0
102
RTVSPost2010PropOp40
 70
     0
102
RTVSPost2010Prop41ColorIndex
 90
       18
102
RTVSPost2010Prop41ColorRGB
 90
        0
102
RTVSPost2010PropOp41
 70
     0
102
RTVSPost2010Prop42
 90
       50
102
RTVSPost2010PropOp42
 70
     0
102
RTVSPost2010Prop43
 90
        3
102
RTVSPost2010PropOp43
 70
     0
102
RTVSPost2010Prop44ColorIndex
 90
        5
102
RTVSPost2010Prop44ColorRGB
 90
      255
102
RTVSPost2010PropOp44
 70
     0
102
RTVSPost2010Prop45
280
     0
102
RTVSPost2010PropOp45
 70
     0
102
RTVSPost2010Prop46
 90
       50
102
RTVSPost2010PropOp46
 70
     0
102
RTVSPost2010Prop47
 90
       50
102
RTVSPost2010PropOp47
 70
     0
102
RTVSPost2010Prop48
 90
       50
102
RTVSPost2010PropOp48
 70
     0
102
RTVSPost2010Prop49
280
     0
102
RTVSPost2010PropOp49
 70
     0
102
RTVSPost2010Prop50
 90
       50
102
RTVSPost2010PropOp50
 70
     0
102
RTVSPost2010Prop51ColorIndex
 90
      256
102
RTVSPost2010Prop51ColorRGB
 90
-16777216
102
RTVSPost2010PropOp51
 70
     0
102
RTVSPost2010Prop52
140
1.0
102
RTVSPost2010PropOp52
 70
     0
102
RTVSPost2010Prop53
 90
        2
102
RTVSPost2010PropOp53
 70
     0
102
RTVSPost2010Prop54
  1
strokes_ogs.tif
102
RTVSPost2010PropOp54
 70
     0
102
RTVSPost2010Prop55
280
     0
102
RTVSPost2010PropOp55
 70
     0
102
RTVSPost2010Prop56
140
1.0
102
RTVSPost2010PropOp56
 70
     0
102
RTVSPost2010Prop57
140
1.0
102
RTVSPost2010PropOp57
 70
     0
  0
XRECORD
  5
2BD
102
{ACAD_REACTORS
330
2BC
102
}
330
2BC
100
AcDbXrecord
280
     1
102
RTVSPropertyOp0
 70
     1
102
RTVSPropertyOp1
 70
     1
102
RTVSPropertyOp2
 70
     1
102
RTVSPropertyOp3
 70
     1
102
RTVSPropertyOp4
 70
     1
102
RTVSPropertyOp5
 70
     1
102
RTVSPropertyOp6
 70
     1
102
RTVSPropertyOp7
 70
     1
102
RTVSPropertyOp8
 70
     1
102
RTVSPropertyOp9
 70
     1
102
RTVSPropertyOp10
 70
     1
102
RTVSPropertyOp11
 70
     1
102
RTVSPropertyOp12
 70
     1
102
RTVSPropertyOp13
 70
     1
102
RTVSPropertyOp14
 70
     1
102
RTVSPropertyOp15
 70
     1
102
RTVSPropertyOp16
 70
     1
102
RTVSPropertyOp17
 70
     1
102
RTVSPropertyOp18
 70
     1
102
RTVSPropertyOp19
 70
     1
102
RTVSPropertyOp20
 70
     1
102
RTVSPropertyOp21
 70
     1
102
RTVSPropertyOp22
 70
     1
102
RTVSPropertyOp23
 70
     1
102
RTVSPropertyOp24
 70
     1
102
RTVSPropertyOp25
 70
     1
102
RTVSPropertyOp26
 70
     1
102
RTVSPropertyOp27
 70
     1
102
RTVSPropertyOp28
 70
     1
102
RTVSPropertyOp29
 70
     1
102
RTVSPropertyOp30
 70
     1
102
RTVSPropertyOp31
 70
     1
102
RTVSPropertyOp32
 70
     1
102
RTVSPropertyOp33
 70
     1
102
RTVSPropertyOp34
 70
     1
102
RTVSPropertyOp35
 70
     1
102
RTVSPropertyOp36
 70
     1
102
RTVSPropertyOp37
 70
     1
102
RTVSPropertyOp38
 70
     1
102
RTVSPropertyOp39
 70
     1
102
RTVSPropertyOp40
 70
     1
102
RTVSPropertyOp41
 70
     1
102
RTVSPropertyOp42
 70
     1
102
RTVSPropertyOp43
 70
     1
102
RTVSPropertyOp44
 70
     1
102
RTVSPropertyOp45
 70
     1
102
RTVSPropertyOp46
 70
     1
102
RTVSPropertyOp47
 70
     1
102
RTVSPropertyOp48
 70
     1
102
RTVSPropertyOp49
 70
     1
102
RTVSPropertyOp50
 70
     1
102
RTVSPropertyOp51
 70
     0
102
RTVSPropertyOp52
 70
     0
102
RTVSPropertyOp53
 70
     1
102
RTVSPropertyOp54
 70
     1
102
RTVSPropertyOp55
 70
     1
102
RTVSPropertyOp56
 70
     1
102
RTVSPropertyOp57
 70
     1
102
RTVSPost2010Prop28
280
     0
102
RTVSPost2010PropOp28
 70
     1
102
RTVSPost2010Prop29
280
     1
102
RTVSPost2010PropOp29
 70
     1
102
RTVSPost2010Prop30
280
     1
102
RTVSPost2010PropOp30
 70
     1
102
RTVSPost2010Prop31
280
     0
102
RTVSPost2010PropOp31
 70
     1
102
RTVSPost2010Prop32
280
     0
102
RTVSPost2010PropOp32
 70
     1
102
RTVSPost2010Prop33
280
     0
102
RTVSPost2010PropOp33
 70
     1
102
RTVSPost2010Prop34
280
     0
102
RTVSPost2010PropOp34
 70
     1
102
RTVSPost2010Prop35
280
     0
102
RTVSPost2010PropOp35
 70
     1
102
RTVSPost2010Prop36
280
     0
102
RTVSPost2010PropOp36
 70
     1
102
RTVSPost2010Prop37
 90
       50
102
RTVSPost2010PropOp37
 70
     1
102
RTVSPost2010Prop38
140
0.0
102
RTVSPost2010PropOp38
 70
     1
102
RTVSPost2010Prop39
140
1.0
102
RTVSPost2010PropOp39
 70
     1
102
RTVSPost2010Prop40
 90
        0
102
RTVSPost2010PropOp40
 70
     1
102
RTVSPost2010Prop41ColorIndex
 90
       18
102
RTVSPost2010Prop41ColorRGB
 90
        0
102
RTVSPost2010PropOp41
 70
     1
102
RTVSPost2010Prop42
 90
       50
102
RTVSPost2010PropOp42
 70
     1
102
RTVSPost2010Prop43
 90
        3
102
RTVSPost2010PropOp43
 70
     1
102
RTVSPost2010Prop44ColorIndex
 90
        5
102
RTVSPost2010Prop44ColorRGB
 90
      255
102
RTVSPost2010PropOp44
 70
     1
102
RTVSPost2010Prop45
280
     0
102
RTVSPost2010PropOp45
 70
     1
102
RTVSPost2010Prop46
 90
       50
102
RTVSPost2010PropOp46
 70
     1
102
RTVSPost2010Prop47
 90
       50
102
RTVSPost2010PropOp47
 70
     1
102
RTVSPost2010Prop48
 90
       50
102
RTVSPost2010PropOp48
 70
     1
102
RTVSPost2010Prop49
280
     0
102
RTVSPost2010PropOp49
 70
     1
102
RTVSPost2010Prop50
 90
       50
102
RTVSPost2010PropOp50
 70
     1
102
RTVSPost2010Prop51ColorIndex
 90
      256
102
RTVSPost2010Prop51ColorRGB
 90
-16777216
102
RTVSPost2010PropOp51
 70
     0
102
RTVSPost2010Prop52
140
1.0
102
RTVSPost2010PropOp52
 70
     0
102
RTVSPost2010Prop53
 90
        2
102
RTVSPost2010PropOp53
 70
     1
102
RTVSPost2010Prop54
  1
strokes_ogs.tif
102
RTVSPost2010PropOp54
 70
     1
102
RTVSPost2010Prop55
280
     0
102
RTVSPost2010PropOp55
 70
     1
102
RTVSPost2010Prop56
140
1.0
102
RTVSPost2010PropOp56
 70
     1
102
RTVSPost2010Prop57
140
1.0
102
RTVSPost2010PropOp57
 70
     1
  0
XRECORD
  5
2DB
102
{ACAD_REACTORS
330
2DA
102
}
330
2DA
100
AcDbXrecord
280
     1
102
RTVSPropertyOp0
 70
     1
102
RTVSPropertyOp1
 70
     1
102
RTVSPropertyOp2
 70
     1
102
RTVSPropertyOp3
 70
     1
102
RTVSPropertyOp4
 70
     1
102
RTVSPropertyOp5
 70
     1
102
RTVSPropertyOp6
 70
     1
102
RTVSPropertyOp7
 70
     1
102
RTVSPropertyOp8
 70
     1
102
RTVSPropertyOp9
 70
     1
102
RTVSPropertyOp10
 70
     1
102
RTVSPropertyOp11
 70
     1
102
RTVSPropertyOp12
 70
     1
102
RTVSPropertyOp13
 70
     1
102
RTVSPropertyOp14
 70
     1
102
RTVSPropertyOp15
 70
     1
102
RTVSPropertyOp16
 70
     1
102
RTVSPropertyOp17
 70
     1
102
RTVSPropertyOp18
 70
     1
102
RTVSPropertyOp19
 70
     1
102
RTVSPropertyOp20
 70
     1
102
RTVSPropertyOp21
 70
     1
102
RTVSPropertyOp22
 70
     1
102
RTVSPropertyOp23
 70
     1
102
RTVSPropertyOp24
 70
     1
102
RTVSPropertyOp25
 70
     1
102
RTVSPropertyOp26
 70
     1
102
RTVSPropertyOp27
 70
     1
102
RTVSPropertyOp28
 70
     1
102
RTVSPropertyOp29
 70
     1
102
RTVSPropertyOp30
 70
     1
102
RTVSPropertyOp31
 70
     1
102
RTVSPropertyOp32
 70
     1
102
RTVSPropertyOp33
 70
     1
102
RTVSPropertyOp34
 70
     1
102
RTVSPropertyOp35
 70
     1
102
RTVSPropertyOp36
 70
     1
102
RTVSPropertyOp37
 70
     1
102
RTVSPropertyOp38
 70
     1
102
RTVSPropertyOp39
 70
     1
102
RTVSPropertyOp40
 70
     1
102
RTVSPropertyOp41
 70
     1
102
RTVSPropertyOp42
 70
     1
102
RTVSPropertyOp43
 70
     1
102
RTVSPropertyOp44
 70
     1
102
RTVSPropertyOp45
 70
     1
102
RTVSPropertyOp46
 70
     1
102
RTVSPropertyOp47
 70
     1
102
RTVSPropertyOp48
 70
     1
102
RTVSPropertyOp49
 70
     1
102
RTVSPropertyOp50
 70
     1
102
RTVSPropertyOp51
 70
     0
102
RTVSPropertyOp52
 70
     0
102
RTVSPropertyOp53
 70
     1
102
RTVSPropertyOp54
 70
     1
102
RTVSPropertyOp55
 70
     1
102
RTVSPropertyOp56
 70
     1
102
RTVSPropertyOp57
 70
     1
102
RTVSPost2010Prop28
280
     0
102
RTVSPost2010PropOp28
 70
     1
102
RTVSPost2010Prop29
280
     1
102
RTVSPost2010PropOp29
 70
     1
102
RTVSPost2010Prop30
280
     1
102
RTVSPost2010PropOp30
 70
     1
102
RTVSPost2010Prop31
280
     0
102
RTVSPost2010PropOp31
 70
     1
102
RTVSPost2010Prop32
280
     0
102
RTVSPost2010PropOp32
 70
     1
102
RTVSPost2010Prop33
280
     0
102
RTVSPost2010PropOp33
 70
     1
102
RTVSPost2010Prop34
280
     0
102
RTVSPost2010PropOp34
 70
     1
102
RTVSPost2010Prop35
280
     0
102
RTVSPost2010PropOp35
 70
     1
102
RTVSPost2010Prop36
280
     0
102
RTVSPost2010PropOp36
 70
     1
102
RTVSPost2010Prop37
 90
       50
102
RTVSPost2010PropOp37
 70
     1
102
RTVSPost2010Prop38
140
0.0
102
RTVSPost2010PropOp38
 70
     1
102
RTVSPost2010Prop39
140
1.0
102
RTVSPost2010PropOp39
 70
     1
102
RTVSPost2010Prop40
 90
        0
102
RTVSPost2010PropOp40
 70
     1
102
RTVSPost2010Prop41ColorIndex
 90
       18
102
RTVSPost2010Prop41ColorRGB
 90
        0
102
RTVSPost2010PropOp41
 70
     1
102
RTVSPost2010Prop42
 90
       50
102
RTVSPost2010PropOp42
 70
     1
102
RTVSPost2010Prop43
 90
        3
102
RTVSPost2010PropOp43
 70
     1
102
RTVSPost2010Prop44ColorIndex
 90
        5
102
RTVSPost2010Prop44ColorRGB
 90
      255
102
RTVSPost2010PropOp44
 70
     1
102
RTVSPost2010Prop45
280
     0
102
RTVSPost2010PropOp45
 70
     1
102
RTVSPost2010Prop46
 90
       50
102
RTVSPost2010PropOp46
 70
     1
102
RTVSPost2010Prop47
 90
       50
102
RTVSPost2010PropOp47
 70
     1
102
RTVSPost2010Prop48
 90
       50
102
RTVSPost2010PropOp48
 70
     1
102
RTVSPost2010Prop49
280
     0
102
RTVSPost2010PropOp49
 70
     1
102
RTVSPost2010Prop50
 90
       50
102
RTVSPost2010PropOp50
 70
     1
102
RTVSPost2010Prop51ColorIndex
 90
      256
102
RTVSPost2010Prop51ColorRGB
 90
-16777216
102
RTVSPost2010PropOp51
 70
     0
102
RTVSPost2010Prop52
140
1.0
102
RTVSPost2010PropOp52
 70
     0
102
RTVSPost2010Prop53
 90
        2
102
RTVSPost2010PropOp53
 70
     1
102
RTVSPost2010Prop54
  1
strokes_ogs.tif
102
RTVSPost2010PropOp54
 70
     1
102
RTVSPost2010Prop55
280
     0
102
RTVSPost2010PropOp55
 70
     1
102
RTVSPost2010Prop56
140
1.0
102
RTVSPost2010PropOp56
 70
     1
102
RTVSPost2010Prop57
140
1.0
102
RTVSPost2010PropOp57
 70
     1
  0
XRECORD
  5
2D9
102
{ACAD_REACTORS
330
2D8
102
}
330
2D8
100
AcDbXrecord
280
     1
102
RTVSPropertyOp0
 70
     1
102
RTVSPropertyOp1
 70
     1
102
RTVSPropertyOp2
 70
     1
102
RTVSPropertyOp3
 70
     1
102
RTVSPropertyOp4
 70
     1
102
RTVSPropertyOp5
 70
     1
102
RTVSPropertyOp6
 70
     1
102
RTVSPropertyOp7
 70
     1
102
RTVSPropertyOp8
 70
     1
102
RTVSPropertyOp9
 70
     1
102
RTVSPropertyOp10
 70
     1
102
RTVSPropertyOp11
 70
     1
102
RTVSPropertyOp12
 70
     1
102
RTVSPropertyOp13
 70
     1
102
RTVSPropertyOp14
 70
     1
102
RTVSPropertyOp15
 70
     1
102
RTVSPropertyOp16
 70
     1
102
RTVSPropertyOp17
 70
     1
102
RTVSPropertyOp18
 70
     1
102
RTVSPropertyOp19
 70
     1
102
RTVSPropertyOp20
 70
     1
102
RTVSPropertyOp21
 70
     1
102
RTVSPropertyOp22
 70
     1
102
RTVSPropertyOp23
 70
     1
102
RTVSPropertyOp24
 70
     1
102
RTVSPropertyOp25
 70
     1
102
RTVSPropertyOp26
 70
     1
102
RTVSPropertyOp27
 70
     1
102
RTVSPropertyOp28
 70
     1
102
RTVSPropertyOp29
 70
     1
102
RTVSPropertyOp30
 70
     1
102
RTVSPropertyOp31
 70
     1
102
RTVSPropertyOp32
 70
     1
102
RTVSPropertyOp33
 70
     1
102
RTVSPropertyOp34
 70
     1
102
RTVSPropertyOp35
 70
     1
102
RTVSPropertyOp36
 70
     1
102
RTVSPropertyOp37
 70
     1
102
RTVSPropertyOp38
 70
     1
102
RTVSPropertyOp39
 70
     1
102
RTVSPropertyOp40
 70
     1
102
RTVSPropertyOp41
 70
     1
102
RTVSPropertyOp42
 70
     1
102
RTVSPropertyOp43
 70
     1
102
RTVSPropertyOp44
 70
     1
102
RTVSPropertyOp45
 70
     1
102
RTVSPropertyOp46
 70
     1
102
RTVSPropertyOp47
 70
     1
102
RTVSPropertyOp48
 70
     1
102
RTVSPropertyOp49
 70
     1
102
RTVSPropertyOp50
 70
     1
102
RTVSPropertyOp51
 70
     0
102
RTVSPropertyOp52
 70
     0
102
RTVSPropertyOp53
 70
     1
102
RTVSPropertyOp54
 70
     1
102
RTVSPropertyOp55
 70
     1
102
RTVSPropertyOp56
 70
     1
102
RTVSPropertyOp57
 70
     1
102
RTVSPost2010Prop28
280
     0
102
RTVSPost2010PropOp28
 70
     1
102
RTVSPost2010Prop29
280
     1
102
RTVSPost2010PropOp29
 70
     1
102
RTVSPost2010Prop30
280
     1
102
RTVSPost2010PropOp30
 70
     1
102
RTVSPost2010Prop31
280
     0
102
RTVSPost2010PropOp31
 70
     1
102
RTVSPost2010Prop32
280
     0
102
RTVSPost2010PropOp32
 70
     1
102
RTVSPost2010Prop33
280
     0
102
RTVSPost2010PropOp33
 70
     1
102
RTVSPost2010Prop34
280
     0
102
RTVSPost2010PropOp34
 70
     1
102
RTVSPost2010Prop35
280
     0
102
RTVSPost2010PropOp35
 70
     1
102
RTVSPost2010Prop36
280
     0
102
RTVSPost2010PropOp36
 70
     1
102
RTVSPost2010Prop37
 90
       50
102
RTVSPost2010PropOp37
 70
     1
102
RTVSPost2010Prop38
140
0.0
102
RTVSPost2010PropOp38
 70
     1
102
RTVSPost2010Prop39
140
1.0
102
RTVSPost2010PropOp39
 70
     1
102
RTVSPost2010Prop40
 90
        0
102
RTVSPost2010PropOp40
 70
     1
102
RTVSPost2010Prop41ColorIndex
 90
       18
102
RTVSPost2010Prop41ColorRGB
 90
        0
102
RTVSPost2010PropOp41
 70
     1
102
RTVSPost2010Prop42
 90
       50
102
RTVSPost2010PropOp42
 70
     1
102
RTVSPost2010Prop43
 90
        3
102
RTVSPost2010PropOp43
 70
     1
102
RTVSPost2010Prop44ColorIndex
 90
        5
102
RTVSPost2010Prop44ColorRGB
 90
      255
102
RTVSPost2010PropOp44
 70
     1
102
RTVSPost2010Prop45
280
     0
102
RTVSPost2010PropOp45
 70
     1
102
RTVSPost2010Prop46
 90
       50
102
RTVSPost2010PropOp46
 70
     1
102
RTVSPost2010Prop47
 90
       50
102
RTVSPost2010PropOp47
 70
     1
102
RTVSPost2010Prop48
 90
       50
102
RTVSPost2010PropOp48
 70
     1
102
RTVSPost2010Prop49
280
     0
102
RTVSPost2010PropOp49
 70
     1
102
RTVSPost2010Prop50
 90
       50
102
RTVSPost2010PropOp50
 70
     1
102
RTVSPost2010Prop51ColorIndex
 90
      256
102
RTVSPost2010Prop51ColorRGB
 90
-16777216
102
RTVSPost2010PropOp51
 70
     0
102
RTVSPost2010Prop52
140
1.0
102
RTVSPost2010PropOp52
 70
     0
102
RTVSPost2010Prop53
 90
        2
102
RTVSPost2010PropOp53
 70
     1
102
RTVSPost2010Prop54
  1
strokes_ogs.tif
102
RTVSPost2010PropOp54
 70
     1
102
RTVSPost2010Prop55
280
     0
102
RTVSPost2010PropOp55
 70
     1
102
RTVSPost2010Prop56
140
1.0
102
RTVSPost2010PropOp56
 70
     1
102
RTVSPost2010Prop57
140
1.0
102
RTVSPost2010PropOp57
 70
     1
  0
XRECORD
  5
2D3
102
{ACAD_REACTORS
330
2D2
102
}
330
2D2
100
AcDbXrecord
280
     1
102
RTVSPropertyOp0
 70
     1
102
RTVSPropertyOp1
 70
     1
102
RTVSPropertyOp2
 70
     1
102
RTVSPropertyOp3
 70
     1
102
RTVSPropertyOp4
 70
     1
102
RTVSPropertyOp5
 70
     1
102
RTVSPropertyOp6
 70
     1
102
RTVSPropertyOp7
 70
     1
102
RTVSPropertyOp8
 70
     1
102
RTVSPropertyOp9
 70
     1
102
RTVSPropertyOp10
 70
     1
102
RTVSPropertyOp11
 70
     1
102
RTVSPropertyOp12
 70
     1
102
RTVSPropertyOp13
 70
     1
102
RTVSPropertyOp14
 70
     1
102
RTVSPropertyOp15
 70
     1
102
RTVSPropertyOp16
 70
     1
102
RTVSPropertyOp17
 70
     1
102
RTVSPropertyOp18
 70
     1
102
RTVSPropertyOp19
 70
     1
102
RTVSPropertyOp20
 70
     1
102
RTVSPropertyOp21
 70
     1
102
RTVSPropertyOp22
 70
     1
102
RTVSPropertyOp23
 70
     1
102
RTVSPropertyOp24
 70
     1
102
RTVSPropertyOp25
 70
     1
102
RTVSPropertyOp26
 70
     1
102
RTVSPropertyOp27
 70
     1
102
RTVSPropertyOp28
 70
     1
102
RTVSPropertyOp29
 70
     1
102
RTVSPropertyOp30
 70
     1
102
RTVSPropertyOp31
 70
     1
102
RTVSPropertyOp32
 70
     1
102
RTVSPropertyOp33
 70
     1
102
RTVSPropertyOp34
 70
     1
102
RTVSPropertyOp35
 70
     1
102
RTVSPropertyOp36
 70
     1
102
RTVSPropertyOp37
 70
     1
102
RTVSPropertyOp38
 70
     1
102
RTVSPropertyOp39
 70
     1
102
RTVSPropertyOp40
 70
     1
102
RTVSPropertyOp41
 70
     1
102
RTVSPropertyOp42
 70
     1
102
RTVSPropertyOp43
 70
     1
102
RTVSPropertyOp44
 70
     1
102
RTVSPropertyOp45
 70
     1
102
RTVSPropertyOp46
 70
     1
102
RTVSPropertyOp47
 70
     1
102
RTVSPropertyOp48
 70
     1
102
RTVSPropertyOp49
 70
     1
102
RTVSPropertyOp50
 70
     1
102
RTVSPropertyOp51
 70
     0
102
RTVSPropertyOp52
 70
     0
102
RTVSPropertyOp53
 70
     1
102
RTVSPropertyOp54
 70
     1
102
RTVSPropertyOp55
 70
     1
102
RTVSPropertyOp56
 70
     1
102
RTVSPropertyOp57
 70
     1
102
RTVSPost2010Prop28
280
     0
102
RTVSPost2010PropOp28
 70
     1
102
RTVSPost2010Prop29
280
     1
102
RTVSPost2010PropOp29
 70
     1
102
RTVSPost2010Prop30
280
     1
102
RTVSPost2010PropOp30
 70
     1
102
RTVSPost2010Prop31
280
     0
102
RTVSPost2010PropOp31
 70
     1
102
RTVSPost2010Prop32
280
     0
102
RTVSPost2010PropOp32
 70
     1
102
RTVSPost2010Prop33
280
     0
102
RTVSPost2010PropOp33
 70
     1
102
RTVSPost2010Prop34
280
     0
102
RTVSPost2010PropOp34
 70
     1
102
RTVSPost2010Prop35
280
     0
102
RTVSPost2010PropOp35
 70
     1
102
RTVSPost2010Prop36
280
     0
102
RTVSPost2010PropOp36
 70
     1
102
RTVSPost2010Prop37
 90
       50
102
RTVSPost2010PropOp37
 70
     1
102
RTVSPost2010Prop38
140
0.0
102
RTVSPost2010PropOp38
 70
     1
102
RTVSPost2010Prop39
140
1.0
102
RTVSPost2010PropOp39
 70
     1
102
RTVSPost2010Prop40
 90
        0
102
RTVSPost2010PropOp40
 70
     1
102
RTVSPost2010Prop41ColorIndex
 90
       18
102
RTVSPost2010Prop41ColorRGB
 90
        0
102
RTVSPost2010PropOp41
 70
     1
102
RTVSPost2010Prop42
 90
       50
102
RTVSPost2010PropOp42
 70
     1
102
RTVSPost2010Prop43
 90
        3
102
RTVSPost2010PropOp43
 70
     1
102
RTVSPost2010Prop44ColorIndex
 90
        5
102
RTVSPost2010Prop44ColorRGB
 90
      255
102
RTVSPost2010PropOp44
 70
     1
102
RTVSPost2010Prop45
280
     0
102
RTVSPost2010PropOp45
 70
     1
102
RTVSPost2010Prop46
 90
       50
102
RTVSPost2010PropOp46
 70
     1
102
RTVSPost2010Prop47
 90
       50
102
RTVSPost2010PropOp47
 70
     1
102
RTVSPost2010Prop48
 90
       50
102
RTVSPost2010PropOp48
 70
     1
102
RTVSPost2010Prop49
280
     0
102
RTVSPost2010PropOp49
 70
     1
102
RTVSPost2010Prop50
 90
       50
102
RTVSPost2010PropOp50
 70
     1
102
RTVSPost2010Prop51ColorIndex
 90
      256
102
RTVSPost2010Prop51ColorRGB
 90
-16777216
102
RTVSPost2010PropOp51
 70
     0
102
RTVSPost2010Prop52
140
1.0
102
RTVSPost2010PropOp52
 70
     0
102
RTVSPost2010Prop53
 90
        2
102
RTVSPost2010PropOp53
 70
     1
102
RTVSPost2010Prop54
  1
strokes_ogs.tif
102
RTVSPost2010PropOp54
 70
     1
102
RTVSPost2010Prop55
280
     0
102
RTVSPost2010PropOp55
 70
     1
102
RTVSPost2010Prop56
140
1.0
102
RTVSPost2010PropOp56
 70
     1
102
RTVSPost2010Prop57
140
1.0
102
RTVSPost2010PropOp57
 70
     1
  0
XRECORD
  5
2D5
102
{ACAD_REACTORS
330
2D4
102
}
330
2D4
100
AcDbXrecord
280
     1
102
RTVSPropertyOp0
 70
     1
102
RTVSPropertyOp1
 70
     1
102
RTVSPropertyOp2
 70
     1
102
RTVSPropertyOp3
 70
     1
102
RTVSPropertyOp4
 70
     1
102
RTVSPropertyOp5
 70
     1
102
RTVSPropertyOp6
 70
     1
102
RTVSPropertyOp7
 70
     1
102
RTVSPropertyOp8
 70
     1
102
RTVSPropertyOp9
 70
     1
102
RTVSPropertyOp10
 70
     1
102
RTVSPropertyOp11
 70
     1
102
RTVSPropertyOp12
 70
     1
102
RTVSPropertyOp13
 70
     1
102
RTVSPropertyOp14
 70
     1
102
RTVSPropertyOp15
 70
     1
102
RTVSPropertyOp16
 70
     1
102
RTVSPropertyOp17
 70
     1
102
RTVSPropertyOp18
 70
     1
102
RTVSPropertyOp19
 70
     1
102
RTVSPropertyOp20
 70
     1
102
RTVSPropertyOp21
 70
     1
102
RTVSPropertyOp22
 70
     1
102
RTVSPropertyOp23
 70
     1
102
RTVSPropertyOp24
 70
     1
102
RTVSPropertyOp25
 70
     1
102
RTVSPropertyOp26
 70
     1
102
RTVSPropertyOp27
 70
     1
102
RTVSPropertyOp28
 70
     1
102
RTVSPropertyOp29
 70
     1
102
RTVSPropertyOp30
 70
     1
102
RTVSPropertyOp31
 70
     1
102
RTVSPropertyOp32
 70
     1
102
RTVSPropertyOp33
 70
     1
102
RTVSPropertyOp34
 70
     1
102
RTVSPropertyOp35
 70
     1
102
RTVSPropertyOp36
 70
     1
102
RTVSPropertyOp37
 70
     1
102
RTVSPropertyOp38
 70
     1
102
RTVSPropertyOp39
 70
     1
102
RTVSPropertyOp40
 70
     1
102
RTVSPropertyOp41
 70
     1
102
RTVSPropertyOp42
 70
     1
102
RTVSPropertyOp43
 70
     1
102
RTVSPropertyOp44
 70
     1
102
RTVSPropertyOp45
 70
     1
102
RTVSPropertyOp46
 70
     1
102
RTVSPropertyOp47
 70
     1
102
RTVSPropertyOp48
 70
     1
102
RTVSPropertyOp49
 70
     1
102
RTVSPropertyOp50
 70
     1
102
RTVSPropertyOp51
 70
     0
102
RTVSPropertyOp52
 70
     0
102
RTVSPropertyOp53
 70
     1
102
RTVSPropertyOp54
 70
     1
102
RTVSPropertyOp55
 70
     1
102
RTVSPropertyOp56
 70
     1
102
RTVSPropertyOp57
 70
     1
102
RTVSPost2010Prop28
280
     0
102
RTVSPost2010PropOp28
 70
     1
102
RTVSPost2010Prop29
280
     1
102
RTVSPost2010PropOp29
 70
     1
102
RTVSPost2010Prop30
280
     1
102
RTVSPost2010PropOp30
 70
     1
102
RTVSPost2010Prop31
280
     0
102
RTVSPost2010PropOp31
 70
     1
102
RTVSPost2010Prop32
280
     0
102
RTVSPost2010PropOp32
 70
     1
102
RTVSPost2010Prop33
280
     0
102
RTVSPost2010PropOp33
 70
     1
102
RTVSPost2010Prop34
280
     0
102
RTVSPost2010PropOp34
 70
     1
102
RTVSPost2010Prop35
280
     0
102
RTVSPost2010PropOp35
 70
     1
102
RTVSPost2010Prop36
280
     0
102
RTVSPost2010PropOp36
 70
     1
102
RTVSPost2010Prop37
 90
       50
102
RTVSPost2010PropOp37
 70
     1
102
RTVSPost2010Prop38
140
0.0
102
RTVSPost2010PropOp38
 70
     1
102
RTVSPost2010Prop39
140
1.0
102
RTVSPost2010PropOp39
 70
     1
102
RTVSPost2010Prop40
 90
        0
102
RTVSPost2010PropOp40
 70
     1
102
RTVSPost2010Prop41ColorIndex
 90
       18
102
RTVSPost2010Prop41ColorRGB
 90
        0
102
RTVSPost2010PropOp41
 70
     1
102
RTVSPost2010Prop42
 90
       50
102
RTVSPost2010PropOp42
 70
     1
102
RTVSPost2010Prop43
 90
        3
102
RTVSPost2010PropOp43
 70
     1
102
RTVSPost2010Prop44ColorIndex
 90
        5
102
RTVSPost2010Prop44ColorRGB
 90
      255
102
RTVSPost2010PropOp44
 70
     1
102
RTVSPost2010Prop45
280
     0
102
RTVSPost2010PropOp45
 70
     1
102
RTVSPost2010Prop46
 90
       50
102
RTVSPost2010PropOp46
 70
     1
102
RTVSPost2010Prop47
 90
       50
102
RTVSPost2010PropOp47
 70
     1
102
RTVSPost2010Prop48
 90
       50
102
RTVSPost2010PropOp48
 70
     1
102
RTVSPost2010Prop49
280
     0
102
RTVSPost2010PropOp49
 70
     1
102
RTVSPost2010Prop50
 90
       50
102
RTVSPost2010PropOp50
 70
     1
102
RTVSPost2010Prop51ColorIndex
 90
      256
102
RTVSPost2010Prop51ColorRGB
 90
-16777216
102
RTVSPost2010PropOp51
 70
     0
102
RTVSPost2010Prop52
140
1.0
102
RTVSPost2010PropOp52
 70
     0
102
RTVSPost2010Prop53
 90
        2
102
RTVSPost2010PropOp53
 70
     1
102
RTVSPost2010Prop54
  1
strokes_ogs.tif
102
RTVSPost2010PropOp54
 70
     1
102
RTVSPost2010Prop55
280
     0
102
RTVSPost2010PropOp55
 70
     1
102
RTVSPost2010Prop56
140
1.0
102
RTVSPost2010PropOp56
 70
     1
102
RTVSPost2010Prop57
140
1.0
102
RTVSPost2010PropOp57
 70
     1
  0
XRECORD
  5
2C5
102
{ACAD_REACTORS
330
2C4
102
}
330
2C4
100
AcDbXrecord
280
     1
102
RTVSPropertyOp0
 70
     1
102
RTVSPropertyOp1
 70
     1
102
RTVSPropertyOp2
 70
     1
102
RTVSPropertyOp3
 70
     1
102
RTVSPropertyOp4
 70
     1
102
RTVSPropertyOp5
 70
     1
102
RTVSPropertyOp6
 70
     1
102
RTVSPropertyOp7
 70
     1
102
RTVSPropertyOp8
 70
     1
102
RTVSPropertyOp9
 70
     1
102
RTVSPropertyOp10
 70
     1
102
RTVSPropertyOp11
 70
     1
102
RTVSPropertyOp12
 70
     1
102
RTVSPropertyOp13
 70
     1
102
RTVSPropertyOp14
 70
     1
102
RTVSPropertyOp15
 70
     1
102
RTVSPropertyOp16
 70
     1
102
RTVSPropertyOp17
 70
     1
102
RTVSPropertyOp18
 70
     1
102
RTVSPropertyOp19
 70
     1
102
RTVSPropertyOp20
 70
     1
102
RTVSPropertyOp21
 70
     1
102
RTVSPropertyOp22
 70
     1
102
RTVSPropertyOp23
 70
     1
102
RTVSPropertyOp24
 70
     1
102
RTVSPropertyOp25
 70
     1
102
RTVSPropertyOp26
 70
     1
102
RTVSPropertyOp27
 70
     1
102
RTVSPropertyOp28
 70
     1
102
RTVSPropertyOp29
 70
     1
102
RTVSPropertyOp30
 70
     1
102
RTVSPropertyOp31
 70
     1
102
RTVSPropertyOp32
 70
     1
102
RTVSPropertyOp33
 70
     1
102
RTVSPropertyOp34
 70
     1
102
RTVSPropertyOp35
 70
     1
102
RTVSPropertyOp36
 70
     1
102
RTVSPropertyOp37
 70
     1
102
RTVSPropertyOp38
 70
     1
102
RTVSPropertyOp39
 70
     1
102
RTVSPropertyOp40
 70
     1
102
RTVSPropertyOp41
 70
     1
102
RTVSPropertyOp42
 70
     1
102
RTVSPropertyOp43
 70
     1
102
RTVSPropertyOp44
 70
     1
102
RTVSPropertyOp45
 70
     1
102
RTVSPropertyOp46
 70
     1
102
RTVSPropertyOp47
 70
     1
102
RTVSPropertyOp48
 70
     1
102
RTVSPropertyOp49
 70
     1
102
RTVSPropertyOp50
 70
     1
102
RTVSPropertyOp51
 70
     0
102
RTVSPropertyOp52
 70
     0
102
RTVSPropertyOp53
 70
     1
102
RTVSPropertyOp54
 70
     1
102
RTVSPropertyOp55
 70
     1
102
RTVSPropertyOp56
 70
     1
102
RTVSPropertyOp57
 70
     1
102
RTVSPost2010Prop28
280
     0
102
RTVSPost2010PropOp28
 70
     1
102
RTVSPost2010Prop29
280
     1
102
RTVSPost2010PropOp29
 70
     1
102
RTVSPost2010Prop30
280
     1
102
RTVSPost2010PropOp30
 70
     1
102
RTVSPost2010Prop31
280
     0
102
RTVSPost2010PropOp31
 70
     1
102
RTVSPost2010Prop32
280
     0
102
RTVSPost2010PropOp32
 70
     1
102
RTVSPost2010Prop33
280
     0
102
RTVSPost2010PropOp33
 70
     1
102
RTVSPost2010Prop34
280
     0
102
RTVSPost2010PropOp34
 70
     1
102
RTVSPost2010Prop35
280
     0
102
RTVSPost2010PropOp35
 70
     1
102
RTVSPost2010Prop36
280
     0
102
RTVSPost2010PropOp36
 70
     1
102
RTVSPost2010Prop37
 90
       50
102
RTVSPost2010PropOp37
 70
     1
102
RTVSPost2010Prop38
140
0.0
102
RTVSPost2010PropOp38
 70
     1
102
RTVSPost2010Prop39
140
1.0
102
RTVSPost2010PropOp39
 70
     1
102
RTVSPost2010Prop40
 90
        0
102
RTVSPost2010PropOp40
 70
     1
102
RTVSPost2010Prop41ColorIndex
 90
       18
102
RTVSPost2010Prop41ColorRGB
 90
        0
102
RTVSPost2010PropOp41
 70
     1
102
RTVSPost2010Prop42
 90
       50
102
RTVSPost2010PropOp42
 70
     1
102
RTVSPost2010Prop43
 90
        3
102
RTVSPost2010PropOp43
 70
     1
102
RTVSPost2010Prop44ColorIndex
 90
        5
102
RTVSPost2010Prop44ColorRGB
 90
      255
102
RTVSPost2010PropOp44
 70
     1
102
RTVSPost2010Prop45
280
     0
102
RTVSPost2010PropOp45
 70
     1
102
RTVSPost2010Prop46
 90
       50
102
RTVSPost2010PropOp46
 70
     1
102
RTVSPost2010Prop47
 90
       50
102
RTVSPost2010PropOp47
 70
     1
102
RTVSPost2010Prop48
 90
       50
102
RTVSPost2010PropOp48
 70
     1
102
RTVSPost2010Prop49
280
     0
102
RTVSPost2010PropOp49
 70
     1
102
RTVSPost2010Prop50
 90
       50
102
RTVSPost2010PropOp50
 70
     1
102
RTVSPost2010Prop51ColorIndex
 90
      256
102
RTVSPost2010Prop51ColorRGB
 90
-16777216
102
RTVSPost2010PropOp51
 70
     0
102
RTVSPost2010Prop52
140
1.0
102
RTVSPost2010PropOp52
 70
     0
102
RTVSPost2010Prop53
 90
        2
102
RTVSPost2010PropOp53
 70
     1
102
RTVSPost2010Prop54
  1
strokes_ogs.tif
102
RTVSPost2010PropOp54
 70
     1
102
RTVSPost2010Prop55
280
     0
102
RTVSPost2010PropOp55
 70
     1
102
RTVSPost2010Prop56
140
1.0
102
RTVSPost2010PropOp56
 70
     1
102
RTVSPost2010Prop57
140
1.0
102
RTVSPost2010PropOp57
 70
     1
  0
XRECORD
  5
2B7
102
{ACAD_REACTORS
330
2B6
102
}
330
2B6
100
AcDbXrecord
280
     1
102
RTVSPropertyOp0
 70
     1
102
RTVSPropertyOp1
 70
     1
102
RTVSPropertyOp2
 70
     1
102
RTVSPropertyOp3
 70
     1
102
RTVSPropertyOp4
 70
     1
102
RTVSPropertyOp5
 70
     1
102
RTVSPropertyOp6
 70
     1
102
RTVSPropertyOp7
 70
     1
102
RTVSPropertyOp8
 70
     1
102
RTVSPropertyOp9
 70
     1
102
RTVSPropertyOp10
 70
     1
102
RTVSPropertyOp11
 70
     1
102
RTVSPropertyOp12
 70
     1
102
RTVSPropertyOp13
 70
     1
102
RTVSPropertyOp14
 70
     1
102
RTVSPropertyOp15
 70
     1
102
RTVSPropertyOp16
 70
     1
102
RTVSPropertyOp17
 70
     1
102
RTVSPropertyOp18
 70
     1
102
RTVSPropertyOp19
 70
     1
102
RTVSPropertyOp20
 70
     1
102
RTVSPropertyOp21
 70
     1
102
RTVSPropertyOp22
 70
     1
102
RTVSPropertyOp23
 70
     1
102
RTVSPropertyOp24
 70
     1
102
RTVSPropertyOp25
 70
     1
102
RTVSPropertyOp26
 70
     1
102
RTVSPropertyOp27
 70
     1
102
RTVSPropertyOp28
 70
     1
102
RTVSPropertyOp29
 70
     1
102
RTVSPropertyOp30
 70
     1
102
RTVSPropertyOp31
 70
     1
102
RTVSPropertyOp32
 70
     1
102
RTVSPropertyOp33
 70
     1
102
RTVSPropertyOp34
 70
     1
102
RTVSPropertyOp35
 70
     1
102
RTVSPropertyOp36
 70
     1
102
RTVSPropertyOp37
 70
     1
102
RTVSPropertyOp38
 70
     1
102
RTVSPropertyOp39
 70
     1
102
RTVSPropertyOp40
 70
     1
102
RTVSPropertyOp41
 70
     1
102
RTVSPropertyOp42
 70
     1
102
RTVSPropertyOp43
 70
     1
102
RTVSPropertyOp44
 70
     1
102
RTVSPropertyOp45
 70
     1
102
RTVSPropertyOp46
 70
     1
102
RTVSPropertyOp47
 70
     1
102
RTVSPropertyOp48
 70
     1
102
RTVSPropertyOp49
 70
     1
102
RTVSPropertyOp50
 70
     1
102
RTVSPropertyOp51
 70
     0
102
RTVSPropertyOp52
 70
     0
102
RTVSPropertyOp53
 70
     1
102
RTVSPropertyOp54
 70
     1
102
RTVSPropertyOp55
 70
     1
102
RTVSPropertyOp56
 70
     1
102
RTVSPropertyOp57
 70
     1
102
RTVSPost2010Prop28
280
     0
102
RTVSPost2010PropOp28
 70
     1
102
RTVSPost2010Prop29
280
     1
102
RTVSPost2010PropOp29
 70
     1
102
RTVSPost2010Prop30
280
     1
102
RTVSPost2010PropOp30
 70
     1
102
RTVSPost2010Prop31
280
     0
102
RTVSPost2010PropOp31
 70
     1
102
RTVSPost2010Prop32
280
     0
102
RTVSPost2010PropOp32
 70
     1
102
RTVSPost2010Prop33
280
     0
102
RTVSPost2010PropOp33
 70
     1
102
RTVSPost2010Prop34
280
     0
102
RTVSPost2010PropOp34
 70
     1
102
RTVSPost2010Prop35
280
     0
102
RTVSPost2010PropOp35
 70
     1
102
RTVSPost2010Prop36
280
     0
102
RTVSPost2010PropOp36
 70
     1
102
RTVSPost2010Prop37
 90
       50
102
RTVSPost2010PropOp37
 70
     1
102
RTVSPost2010Prop38
140
0.0
102
RTVSPost2010PropOp38
 70
     1
102
RTVSPost2010Prop39
140
1.0
102
RTVSPost2010PropOp39
 70
     1
102
RTVSPost2010Prop40
 90
        0
102
RTVSPost2010PropOp40
 70
     1
102
RTVSPost2010Prop41ColorIndex
 90
       18
102
RTVSPost2010Prop41ColorRGB
 90
        0
102
RTVSPost2010PropOp41
 70
     1
102
RTVSPost2010Prop42
 90
       50
102
RTVSPost2010PropOp42
 70
     1
102
RTVSPost2010Prop43
 90
        3
102
RTVSPost2010PropOp43
 70
     1
102
RTVSPost2010Prop44ColorIndex
 90
        5
102
RTVSPost2010Prop44ColorRGB
 90
      255
102
RTVSPost2010PropOp44
 70
     1
102
RTVSPost2010Prop45
280
     0
102
RTVSPost2010PropOp45
 70
     1
102
RTVSPost2010Prop46
 90
       50
102
RTVSPost2010PropOp46
 70
     1
102
RTVSPost2010Prop47
 90
       50
102
RTVSPost2010PropOp47
 70
     1
102
RTVSPost2010Prop48
 90
       50
102
RTVSPost2010PropOp48
 70
     1
102
RTVSPost2010Prop49
280
     0
102
RTVSPost2010PropOp49
 70
     1
102
RTVSPost2010Prop50
 90
       50
102
RTVSPost2010PropOp50
 70
     1
102
RTVSPost2010Prop51ColorIndex
 90
      256
102
RTVSPost2010Prop51ColorRGB
 90
-16777216
102
RTVSPost2010PropOp51
 70
     0
102
RTVSPost2010Prop52
140
1.0
102
RTVSPost2010PropOp52
 70
     0
102
RTVSPost2010Prop53
 90
        2
102
RTVSPost2010PropOp53
 70
     1
102
RTVSPost2010Prop54
  1
strokes_ogs.tif
102
RTVSPost2010PropOp54
 70
     1
102
RTVSPost2010Prop55
280
     0
102
RTVSPost2010PropOp55
 70
     1
102
RTVSPost2010Prop56
140
1.0
102
RTVSPost2010PropOp56
 70
     1
102
RTVSPost2010Prop57
140
1.0
102
RTVSPost2010PropOp57
 70
     1
  0
XRECORD
  5
2D7
102
{ACAD_REACTORS
330
2D6
102
}
330
2D6
100
AcDbXrecord
280
     1
102
RTVSPropertyOp0
 70
     1
102
RTVSPropertyOp1
 70
     1
102
RTVSPropertyOp2
 70
     1
102
RTVSPropertyOp3
 70
     1
102
RTVSPropertyOp4
 70
     1
102
RTVSPropertyOp5
 70
     1
102
RTVSPropertyOp6
 70
     1
102
RTVSPropertyOp7
 70
     1
102
RTVSPropertyOp8
 70
     1
102
RTVSPropertyOp9
 70
     1
102
RTVSPropertyOp10
 70
     1
102
RTVSPropertyOp11
 70
     1
102
RTVSPropertyOp12
 70
     1
102
RTVSPropertyOp13
 70
     1
102
RTVSPropertyOp14
 70
     1
102
RTVSPropertyOp15
 70
     1
102
RTVSPropertyOp16
 70
     1
102
RTVSPropertyOp17
 70
     1
102
RTVSPropertyOp18
 70
     1
102
RTVSPropertyOp19
 70
     1
102
RTVSPropertyOp20
 70
     1
102
RTVSPropertyOp21
 70
     1
102
RTVSPropertyOp22
 70
     1
102
RTVSPropertyOp23
 70
     1
102
RTVSPropertyOp24
 70
     1
102
RTVSPropertyOp25
 70
     1
102
RTVSPropertyOp26
 70
     1
102
RTVSPropertyOp27
 70
     1
102
RTVSPropertyOp28
 70
     1
102
RTVSPropertyOp29
 70
     1
102
RTVSPropertyOp30
 70
     1
102
RTVSPropertyOp31
 70
     1
102
RTVSPropertyOp32
 70
     1
102
RTVSPropertyOp33
 70
     1
102
RTVSPropertyOp34
 70
     1
102
RTVSPropertyOp35
 70
     1
102
RTVSPropertyOp36
 70
     1
102
RTVSPropertyOp37
 70
     1
102
RTVSPropertyOp38
 70
     1
102
RTVSPropertyOp39
 70
     1
102
RTVSPropertyOp40
 70
     1
102
RTVSPropertyOp41
 70
     1
102
RTVSPropertyOp42
 70
     1
102
RTVSPropertyOp43
 70
     1
102
RTVSPropertyOp44
 70
     1
102
RTVSPropertyOp45
 70
     1
102
RTVSPropertyOp46
 70
     1
102
RTVSPropertyOp47
 70
     1
102
RTVSPropertyOp48
 70
     1
102
RTVSPropertyOp49
 70
     1
102
RTVSPropertyOp50
 70
     1
102
RTVSPropertyOp51
 70
     0
102
RTVSPropertyOp52
 70
     0
102
RTVSPropertyOp53
 70
     1
102
RTVSPropertyOp54
 70
     1
102
RTVSPropertyOp55
 70
     1
102
RTVSPropertyOp56
 70
     1
102
RTVSPropertyOp57
 70
     1
102
RTVSPost2010Prop28
280
     0
102
RTVSPost2010PropOp28
 70
     1
102
RTVSPost2010Prop29
280
     1
102
RTVSPost2010PropOp29
 70
     1
102
RTVSPost2010Prop30
280
     1
102
RTVSPost2010PropOp30
 70
     1
102
RTVSPost2010Prop31
280
     0
102
RTVSPost2010PropOp31
 70
     1
102
RTVSPost2010Prop32
280
     0
102
RTVSPost2010PropOp32
 70
     1
102
RTVSPost2010Prop33
280
     0
102
RTVSPost2010PropOp33
 70
     1
102
RTVSPost2010Prop34
280
     0
102
RTVSPost2010PropOp34
 70
     1
102
RTVSPost2010Prop35
280
     0
102
RTVSPost2010PropOp35
 70
     1
102
RTVSPost2010Prop36
280
     0
102
RTVSPost2010PropOp36
 70
     1
102
RTVSPost2010Prop37
 90
       50
102
RTVSPost2010PropOp37
 70
     1
102
RTVSPost2010Prop38
140
0.0
102
RTVSPost2010PropOp38
 70
     1
102
RTVSPost2010Prop39
140
1.0
102
RTVSPost2010PropOp39
 70
     1
102
RTVSPost2010Prop40
 90
        0
102
RTVSPost2010PropOp40
 70
     1
102
RTVSPost2010Prop41ColorIndex
 90
       18
102
RTVSPost2010Prop41ColorRGB
 90
        0
102
RTVSPost2010PropOp41
 70
     1
102
RTVSPost2010Prop42
 90
       50
102
RTVSPost2010PropOp42
 70
     1
102
RTVSPost2010Prop43
 90
        3
102
RTVSPost2010PropOp43
 70
     1
102
RTVSPost2010Prop44ColorIndex
 90
        5
102
RTVSPost2010Prop44ColorRGB
 90
      255
102
RTVSPost2010PropOp44
 70
     1
102
RTVSPost2010Prop45
280
     0
102
RTVSPost2010PropOp45
 70
     1
102
RTVSPost2010Prop46
 90
       50
102
RTVSPost2010PropOp46
 70
     1
102
RTVSPost2010Prop47
 90
       50
102
RTVSPost2010PropOp47
 70
     1
102
RTVSPost2010Prop48
 90
       50
102
RTVSPost2010PropOp48
 70
     1
102
RTVSPost2010Prop49
280
     0
102
RTVSPost2010PropOp49
 70
     1
102
RTVSPost2010Prop50
 90
       50
102
RTVSPost2010PropOp50
 70
     1
102
RTVSPost2010Prop51ColorIndex
 90
      256
102
RTVSPost2010Prop51ColorRGB
 90
-16777216
102
RTVSPost2010PropOp51
 70
     0
102
RTVSPost2010Prop52
140
1.0
102
RTVSPost2010PropOp52
 70
     0
102
RTVSPost2010Prop53
 90
        2
102
RTVSPost2010PropOp53
 70
     1
102
RTVSPost2010Prop54
  1
strokes_ogs.tif
102
RTVSPost2010PropOp54
 70
     1
102
RTVSPost2010Prop55
280
     0
102
RTVSPost2010PropOp55
 70
     1
102
RTVSPost2010Prop56
140
1.0
102
RTVSPost2010PropOp56
 70
     1
102
RTVSPost2010Prop57
140
1.0
102
RTVSPost2010PropOp57
 70
     1
  0
ENDSEC
  0
EOF
