  0
SECTION
  2
HEADER
  9
$ACADVER
  1
AC1018
  9
$ACADMAINTVER
 70
     0
  9
$DWGCODEPAGE
  3
ANSI_932
  9
$INSBASE
 10
0.0
 20
0.0
 30
0.0
  9
$EXTMIN
 10
-1050.0
 20
-742.5
 30
0.0
  9
$EXTMAX
 10
1050.0
 20
742.5
 30
0.0
  9
$LIMMIN
 10
-1050.0
 20
-742.5
  9
$LIMMAX
 10
1050.0
 20
742.5
  9
$ORTHOMODE
 70
     0
  9
$REGENMODE
 70
     1
  9
$FILLMODE
 70
     1
  9
$QTEXTMODE
 70
     0
  9
$MIRRTEXT
 70
     1
  9
$LTSCALE
 40
5.0
  9
$ATTMODE
 70
     1
  9
$TEXTSIZE
 40
2.5
  9
$TRACEWID
 40
1.0
  9
$TEXTSTYLE
  7
Standard
  9
$CLAYER
  8
0
  9
$CELTYPE
  6
ByLayer
  9
$CECOLOR
 62
   256
  9
$CELTSCALE
 40
1.0
  9
$DISPSILH
 70
     0
  9
$DIMSCALE
 40
1.0
  9
$DIMASZ
 40
2.5
  9
$DIMEXO
 40
0.625
  9
$DIMDLI
 40
3.75
  9
$DIMRND
 40
0.0
  9
$DIMDLE
 40
0.0
  9
$DIMEXE
 40
1.25
  9
$DIMTP
 40
0.0
  9
$DIMTM
 40
0.0
  9
$DIMTXT
 40
2.5
  9
$DIMCEN
 40
2.5
  9
$DIMTSZ
 40
0.0
  9
$DIMTOL
 70
     0
  9
$DIMLIM
 70
     0
  9
$DIMTIH
 70
     0
  9
$DIMTOH
 70
     0
  9
$DIMSE1
 70
     0
  9
$DIMSE2
 70
     0
  9
$DIMTAD
 70
     1
  9
$DIMZIN
 70
     8
  9
$DIMBLK
  1

  9
$DIMASO
 70
     1
  9
$DIMSHO
 70
     1
  9
$DIMPOST
  1

  9
$DIMAPOST
  1

  9
$DIMALT
 70
     0
  9
$DIMALTD
 70
     3
  9
$DIMALTF
 40
0.03937007874016
  9
$DIMLFAC
 40
1.0
  9
$DIMTOFL
 70
     1
  9
$DIMTVP
 40
0.0
  9
$DIMTIX
 70
     0
  9
$DIMSOXD
 70
     0
  9
$DIMSAH
 70
     0
  9
$DIMBLK1
  1

  9
$DIMBLK2
  1

  9
$DIMSTYLE
  2
ISO-25
  9
$DIMCLRD
 70
     0
  9
$DIMCLRE
 70
     0
  9
$DIMCLRT
 70
     0
  9
$DIMTFAC
 40
1.0
  9
$DIMGAP
 40
0.625
  9
$DIMJUST
 70
     0
  9
$DIMSD1
 70
     0
  9
$DIMSD2
 70
     0
  9
$DIMTOLJ
 70
     0
  9
$DIMTZIN
 70
     8
  9
$DIMALTZ
 70
     0
  9
$DIMALTTZ
 70
     0
  9
$DIMUPT
 70
     0
  9
$DIMDEC
 70
     2
  9
$DIMTDEC
 70
     2
  9
$DIMALTU
 70
     2
  9
$DIMALTTD
 70
     3
  9
$DIMTXSTY
  7
Standard
  9
$DIMAUNIT
 70
     0
  9
$DIMADEC
 70
     0
  9
$DIMALTRND
 40
0.0
  9
$DIMAZIN
 70
     0
  9
$DIMDSEP
 70
    44
  9
$DIMATFIT
 70
     3
  9
$DIMFRAC
 70
     0
  9
$DIMLDRBLK
  1

  9
$DIMLUNIT
 70
     2
  9
$DIMLWD
 70
    -2
  9
$DIMLWE
 70
    -2
  9
$DIMTMOVE
 70
     0
  9
$LUNITS
 70
     2
  9
$LUPREC
 70
     4
  9
$SKETCHINC
 40
1.0
  9
$FILLETRAD
 40
10.0
  9
$AUNITS
 70
     0
  9
$AUPREC
 70
     0
  9
$MENU
  1
.
  9
$ELEVATION
 40
0.0
  9
$PELEVATION
 40
0.0
  9
$THICKNESS
 40
0.0
  9
$LIMCHECK
 70
     0
  9
$CHAMFERA
 40
0.0
  9
$CHAMFERB
 40
0.0
  9
$CHAMFERC
 40
0.0
  9
$CHAMFERD
 40
0.0
  9
$SKPOLY
 70
     0
  9
$TDCREATE
 40
2459489.474069942
  9
$TDUCREATE
 40
2459489.099069942
  9
$TDUPDATE
 40
2459489.474070058
  9
$TDUUPDATE
 40
2459489.099070058
  9
$TDINDWG
 40
0.0000000116
  9
$TDUSRTIMER
 40
0.0000000116
  9
$USRTIMER
 70
     1
  9
$ANGBASE
 50
0.0
  9
$ANGDIR
 70
     0
  9
$PDMODE
 70
     0
  9
$PDSIZE
 40
0.0
  9
$PLINEWID
 40
0.0
  9
$SPLFRAME
 70
     0
  9
$SPLINETYPE
 70
     6
  9
$SPLINESEGS
 70
     8
  9
$HANDSEED
  5
350
  9
$SURFTAB1
 70
     6
  9
$SURFTAB2
 70
     6
  9
$SURFTYPE
 70
     6
  9
$SURFU
 70
     6
  9
$SURFV
 70
     6
  9
$UCSBASE
  2

  9
$UCSNAME
  2

  9
$UCSORG
 10
0.0
 20
0.0
 30
0.0
  9
$UCSXDIR
 10
1.0
 20
0.0
 30
0.0
  9
$UCSYDIR
 10
0.0
 20
1.0
 30
0.0
  9
$UCSORTHOREF
  2

  9
$UCSORTHOVIEW
 70
     0
  9
$UCSORGTOP
 10
0.0
 20
0.0
 30
0.0
  9
$UCSORGBOTTOM
 10
0.0
 20
0.0
 30
0.0
  9
$UCSORGLEFT
 10
0.0
 20
0.0
 30
0.0
  9
$UCSORGRIGHT
 10
0.0
 20
0.0
 30
0.0
  9
$UCSORGFRONT
 10
0.0
 20
0.0
 30
0.0
  9
$UCSORGBACK
 10
0.0
 20
0.0
 30
0.0
  9
$PUCSBASE
  2

  9
$PUCSNAME
  2

  9
$PUCSORG
 10
0.0
 20
0.0
 30
0.0
  9
$PUCSXDIR
 10
1.0
 20
0.0
 30
0.0
  9
$PUCSYDIR
 10
0.0
 20
1.0
 30
0.0
  9
$PUCSORTHOREF
  2

  9
$PUCSORTHOVIEW
 70
     0
  9
$PUCSORGTOP
 10
0.0
 20
0.0
 30
0.0
  9
$PUCSORGBOTTOM
 10
0.0
 20
0.0
 30
0.0
  9
$PUCSORGLEFT
 10
0.0
 20
0.0
 30
0.0
  9
$PUCSORGRIGHT
 10
0.0
 20
0.0
 30
0.0
  9
$PUCSORGFRONT
 10
0.0
 20
0.0
 30
0.0
  9
$PUCSORGBACK
 10
0.0
 20
0.0
 30
0.0
  9
$USERI1
 70
     0
  9
$USERI2
 70
     0
  9
$USERI3
 70
     0
  9
$USERI4
 70
     0
  9
$USERI5
 70
     0
  9
$USERR1
 40
0.0
  9
$USERR2
 40
0.0
  9
$USERR3
 40
0.0
  9
$USERR4
 40
0.0
  9
$USERR5
 40
0.0
  9
$WORLDVIEW
 70
     1
  9
$SHADEDGE
 70
     3
  9
$SHADEDIF
 70
    70
  9
$TILEMODE
 70
     1
  9
$MAXACTVP
 70
    64
  9
$PINSBASE
 10
0.0
 20
0.0
 30
0.0
  9
$PLIMCHECK
 70
     0
  9
$PEXTMIN
 10
1.000000000000000E+20
 20
1.000000000000000E+20
 30
1.000000000000000E+20
  9
$PEXTMAX
 10
-1.000000000000000E+20
 20
-1.000000000000000E+20
 30
-1.000000000000000E+20
  9
$PLIMMIN
 10
0.0
 20
0.0
  9
$PLIMMAX
 10
420.0
 20
297.0
  9
$UNITMODE
 70
     0
  9
$VISRETAIN
 70
     1
  9
$PLINEGEN
 70
     0
  9
$PSLTSCALE
 70
     1
  9
$TREEDEPTH
 70
  3020
  9
$CMLSTYLE
  2
Standard
  9
$CMLJUST
 70
     0
  9
$CMLSCALE
 40
20.0
  9
$PROXYGRAPHICS
 70
     1
  9
$MEASUREMENT
 70
     1
  9
$CELWEIGHT
370
    -1
  9
$ENDCAPS
280
     0
  9
$JOINSTYLE
280
     0
  9
$LWDISPLAY
290
     0
  9
$INSUNITS
 70
     4
  9
$HYPERLINKBASE
  1

  9
$STYLESHEET
  1

  9
$XEDIT
290
     1
  9
$CEPSNTYPE
380
     0
  9
$PSTYLEMODE
290
     1
  9
$FINGERPRINTGUID
  2
{2F607255-A244-44E8-B67B-64EF9FD3B326}
  9
$VERSIONGUID
  2
{FAEB1C32-E019-11D5-929B-00C0DF256EC4}
  9
$EXTNAMES
290
     1
  9
$PSVPSCALE
 40
0.0
  9
$OLESTARTUP
290
     0
  9
$SORTENTS
280
   127
  9
$INDEXCTL
280
     0
  9
$HIDETEXT
280
     1
  9
$XCLIPFRAME
290
     0
  9
$HALOGAP
280
     0
  9
$OBSCOLOR
 70
   257
  9
$OBSLTYPE
280
     0
  9
$INTERSECTIONDISPLAY
280
     0
  9
$INTERSECTIONCOLOR
 70
   257
  9
$DIMASSOC
280
     2
  9
$PROJECTNAME
  1

  0
ENDSEC
  0
SECTION
  2
CLASSES
  0
CLASS
  1
ACDBDICTIONARYWDFLT
  2
AcDbDictionaryWithDefault
  3
ObjectDBX Classes
 90
        0
 91
        4
280
     0
281
     0
  0
CLASS
  1
VISUALSTYLE
  2
AcDbVisualStyle
  3
ObjectDBX Classes
 90
     4095
 91
        4
280
     0
281
     0
  0
CLASS
  1
MATERIAL
  2
AcDbMaterial
  3
ObjectDBX Classes
 90
     1153
 91
        4
280
     0
281
     0
  0
CLASS
  1
SCALE
  2
AcDbScale
  3
ObjectDBX Classes
 90
     1153
 91
        4
280
     0
281
     0
  0
CLASS
  1
TABLESTYLE
  2
AcDbTableStyle
  3
ObjectDBX Classes
 90
     4095
 91
        4
280
     0
281
     0
  0
CLASS
  1
MLEADERSTYLE
  2
AcDbMLeaderStyle
  3
ACDB_MLEADERSTYLE_CLASS
 90
     4095
 91
        4
280
     0
281
     0
  0
CLASS
  1
SUN
  2
AcDbSun
  3
SCENEOE
 90
     1153
 91
        4
280
     0
281
     0
  0
CLASS
  1
DICTIONARYVAR
  2
AcDbDictionaryVar
  3
ObjectDBX Classes
 90
        0
 91
        4
280
     0
281
     0
  0
CLASS
  1
CELLSTYLEMAP
  2
AcDbCellStyleMap
  3
ObjectDBX Classes
 90
     1152
 91
        4
280
     0
281
     0
  0
ENDSEC
  0
SECTION
  2
TABLES
  0
TABLE
  2
VPORT
  5
8
102
{ACAD_XDICTIONARY
360
307
102
}
330
0
100
AcDbSymbolTable
 70
     1
  0
VPORT
  5
29
330
8
100
AcDbSymbolTableRecord
100
AcDbViewportTableRecord
  2
*Active
 70
     0
 10
0.0
 20
0.0
 11
1.0
 21
1.0
 12
0.0
 22
0.0
 13
0.0
 23
0.0
 14
10.0
 24
10.0
 15
10.0
 25
10.0
 16
0.0
 26
0.0
 36
1.0
 17
0.0
 27
0.0
 37
0.0
 40
1633.5
 41
1.414141414141414
 42
50.0
 43
0.0
 44
0.0
 50
0.0
 51
0.0
 71
     0
 72
 10000
 73
     1
 74
     3
 75
     0
 76
     0
 77
     0
 78
     0
281
     0
 65
     1
110
0.0
120
0.0
130
0.0
111
1.0
121
0.0
131
0.0
112
0.0
122
1.0
132
0.0
 79
     0
146
0.0
  0
ENDTAB
  0
TABLE
  2
LTYPE
  5
5
330
0
100
AcDbSymbolTable
 70
     4
  0
LTYPE
  5
14
330
5
100
AcDbSymbolTableRecord
100
AcDbLinetypeTableRecord
  2
ByBlock
 70
     0
  3

 72
    65
 73
     0
 40
0.0
  0
LTYPE
  5
15
330
5
100
AcDbSymbolTableRecord
100
AcDbLinetypeTableRecord
  2
ByLayer
 70
     0
  3

 72
    65
 73
     0
 40
0.0
  0
LTYPE
  5
16
330
5
100
AcDbSymbolTableRecord
100
AcDbLinetypeTableRecord
  2
Continuous
 70
     0
  3
Solid line
 72
    65
 73
     0
 40
0.0
  0
LTYPE
  5
6F
330
5
100
AcDbSymbolTableRecord
100
AcDbLinetypeTableRecord
  2
JWW_CENTER1
 70
     0
  3
-----  --  ----------  --  -----
 72
    65
 73
     4
 40
6.773333333333333
 49
4.233333333333333
 74
     0
 49
-0.8466666666666667
 74
     0
 49
0.8466666666666667
 74
     0
 49
-0.8466666666666667
 74
     0
  0
LTYPE
  5
70
330
5
100
AcDbSymbolTableRecord
100
AcDbLinetypeTableRecord
  2
JWW_DASHED3
 70
     0
  3
---  ------  ------  ------  ---
 72
    65
 73
     2
 40
3.386666666666667
 49
2.54
 74
     0
 49
-0.8466666666666667
 74
     0
  0
LTYPE
  5
71
330
5
100
AcDbSymbolTableRecord
100
AcDbLinetypeTableRecord
  2
JWW_CENTER2
 70
     0
  3
-------------  --  -------------
 72
    65
 73
     4
 40
13.54666666666667
 49
11.00666666666667
 74
     0
 49
-0.8466666666666667
 74
     0
 49
0.8466666666666667
 74
     0
 49
-0.8466666666666667
 74
     0
  0
ENDTAB
  0
TABLE
  2
LAYER
  5
2
330
0
100
AcDbSymbolTable
 70
     7
  0
LAYER
  5
10
330
2
100
AcDbSymbolTableRecord
100
AcDbLayerTableRecord
  2
0
 70
     0
 62
     7
  6
Continuous
370
    -3
390
F
  0
LAYER
  5
72
330
2
100
AcDbSymbolTableRecord
100
AcDbLayerTableRecord
  2
F-5ﾚｲﾔ
 70
     0
 62
     7
  6
Continuous
370
    -3
390
F
  0
LAYER
  5
73
330
2
100
AcDbSymbolTableRecord
100
AcDbLayerTableRecord
  2
E-1
 70
     0
 62
     7
  6
Continuous
370
    -3
390
F
  0
LAYER
  5
74
330
2
100
AcDbSymbolTableRecord
100
AcDbLayerTableRecord
  2
E-4
 70
     0
 62
     7
  6
Continuous
370
    -3
390
F
  0
LAYER
  5
75
330
2
100
AcDbSymbolTableRecord
100
AcDbLayerTableRecord
  2
E-2
 70
     0
 62
     7
  6
Continuous
370
    -3
390
F
  0
LAYER
  5
76
330
2
100
AcDbSymbolTableRecord
100
AcDbLayerTableRecord
  2
E-5
 70
     0
 62
     7
  6
Continuous
370
    -3
390
F
  0
LAYER
  5
77
330
2
100
AcDbSymbolTableRecord
100
AcDbLayerTableRecord
  2
F-4ﾚｲﾔ
 70
     0
 62
     7
  6
Continuous
370
    -3
390
F
  0
ENDTAB
  0
TABLE
  2
STYLE
  5
3
330
0
100
AcDbSymbolTable
 70
     2
  0
STYLE
  5
11
330
3
100
AcDbSymbolTableRecord
100
AcDbTextStyleTableRecord
  2
Standard
 70
     0
 40
0.0
 41
1.0
 50
0.0
 71
     0
 42
2.5
  3
txt
  4

  0
STYLE
  5
6E
330
3
100
AcDbSymbolTableRecord
100
AcDbTextStyleTableRecord
  2
ＭＳ ゴシック
 70
     0
 40
1.0
 41
1.0
 50
0.0
 71
     0
 42
2.5
  3

  4

1001
ACAD
1000
MS Gothic
1071
    32817
  0
ENDTAB
  0
TABLE
  2
VIEW
  5
6
330
0
100
AcDbSymbolTable
 70
     0
  0
ENDTAB
  0
TABLE
  2
UCS
  5
7
330
0
100
AcDbSymbolTable
 70
     0
  0
ENDTAB
  0
TABLE
  2
APPID
  5
9
330
0
100
AcDbSymbolTable
 70
     2
  0
APPID
  5
12
330
9
100
AcDbSymbolTableRecord
100
AcDbRegAppTableRecord
  2
ACAD
 70
     0
  0
APPID
  5
346
330
9
100
AcDbSymbolTableRecord
100
AcDbRegAppTableRecord
  2
ACAD_MLEADERVER
 70
     0
  0
ENDTAB
  0
TABLE
  2
DIMSTYLE
  5
A
330
0
100
AcDbSymbolTable
 70
     1
100
AcDbDimStyleTable
  0
DIMSTYLE
105
27
330
A
100
AcDbSymbolTableRecord
100
AcDbDimStyleTableRecord
  2
ISO-25
 70
     0
 41
2.5
 42
0.625
 43
3.75
 44
1.25
 73
     0
 74
     0
 77
     1
 78
     8
140
2.5
141
2.5
143
0.03937007874016
147
0.625
171
     3
172
     1
178
     0
271
     2
272
     2
274
     3
278
    44
283
     0
284
     8
340
11
  0
ENDTAB
  0
TABLE
  2
BLOCK_RECORD
  5
1
330
0
100
AcDbSymbolTable
 70
     1
  0
BLOCK_RECORD
  5
1F
330
1
100
AcDbSymbolTableRecord
100
AcDbBlockTableRecord
  2
*Model_Space
340
22
  0
BLOCK_RECORD
  5
1B
330
1
100
AcDbSymbolTableRecord
100
AcDbBlockTableRecord
  2
*Paper_Space
340
1E
  0
BLOCK_RECORD
  5
23
330
1
100
AcDbSymbolTableRecord
100
AcDbBlockTableRecord
  2
*Paper_Space0
340
26
  0
ENDTAB
  0
ENDSEC
  0
SECTION
  2
BLOCKS
  0
BLOCK
  5
20
330
1F
100
AcDbEntity
  8
0
100
AcDbBlockBegin
  2
*Model_Space
 70
     0
 10
0.0
 20
0.0
 30
0.0
  3
*Model_Space
  1

  0
ENDBLK
  5
21
330
1F
100
AcDbEntity
  8
0
100
AcDbBlockEnd
  0
BLOCK
  5
1C
330
1B
100
AcDbEntity
 67
     1
  8
0
100
AcDbBlockBegin
  2
*Paper_Space
 70
     0
 10
0.0
 20
0.0
 30
0.0
  3
*Paper_Space
  1

  0
ENDBLK
  5
1D
330
1B
100
AcDbEntity
 67
     1
  8
0
100
AcDbBlockEnd
  0
BLOCK
  5
24
330
23
100
AcDbEntity
  8
0
100
AcDbBlockBegin
  2
*Paper_Space0
 70
     0
 10
0.0
 20
0.0
 30
0.0
  3
*Paper_Space0
  1

  0
ENDBLK
  5
25
330
23
100
AcDbEntity
  8
0
100
AcDbBlockEnd
  0
ENDSEC
  0
SECTION
  2
ENTITIES
  0
TEXT
  5
78
330
1F
100
AcDbEntity
  8
F-5ﾚｲﾔ
  6
Continuous
 62
     2
370
     9
100
AcDbText
 10
-470.5001752698743
 20
-682.8316433452651
 30
0.0
 40
15.24
  1
スチール製グレーチング　枠付正方形型　細目プレーンタイプ　集水桝用　ＱＳＣ　４４４４Ⅰ
 41
0.7744186046511626
  7
ＭＳ ゴシック
100
AcDbText
  0
LINE
  5
79
330
1F
100
AcDbEntity
  8
E-1
  6
Continuous
 62
     2
370
     9
100
AcDbLine
 10
-526.8759902051288
 20
479.4160848930164
 30
0.0
 11
-526.8759902051288
 21
473.3164458252377
 31
0.0
  0
LINE
  5
7A
330
1F
100
AcDbEntity
  8
E-1
  6
Continuous
 62
     2
370
     9
100
AcDbLine
 10
-426.8760314450992
 20
489.4161178849927
 30
0.0
 11
-516.8759572131524
 21
489.4161178849927
 31
0.0
  0
LINE
  5
7B
330
1F
100
AcDbEntity
  8
E-1
  6
Continuous
 62
     2
370
     9
100
AcDbLine
 10
-416.875998453123
 20
479.4160848930164
 30
0.0
 11
-416.875998453123
 21
473.3164458252377
 31
0.0
  0
LINE
  5
7C
330
1F
100
AcDbEntity
  8
E-1
  6
Continuous
 62
     2
370
     9
100
AcDbLine
 10
-425.8761271218306
 20
479.4160848930164
 30
0.0
 11
-425.8761271218306
 21
473.3164458252377
 31
0.0
  0
LINE
  5
7D
330
1F
100
AcDbEntity
  8
E-1
  6
Continuous
 62
     2
370
     9
100
AcDbLine
 10
-516.8759572131524
 20
480.4159892162851
 30
0.0
 11
-426.8760314450992
 21
480.4159892162851
 31
0.0
  0
LINE
  5
7E
330
1F
100
AcDbEntity
  8
E-1
  6
Continuous
 62
     2
370
     9
100
AcDbLine
 10
-517.876232696155
 20
479.4160848930164
 30
0.0
 11
-517.876232696155
 21
473.3164458252377
 31
0.0
  0
LINE
  5
7F
330
1F
100
AcDbEntity
  8
E-1
  6
JWW_CENTER1
 62
     2
370
     9
100
AcDbLine
 10
-522.3761733105976
 20
465.2090800365976
 30
0.0
 11
-522.3761733105976
 21
480.8064492564033
 31
0.0
  0
LINE
  5
80
330
1F
100
AcDbEntity
  8
E-1
  6
JWW_CENTER1
 62
     2
370
     9
100
AcDbLine
 10
-514.2132572817758
 20
473.3164458252377
 30
0.0
 11
-530.6202496012437
 21
473.3164458252377
 31
0.0
  0
LINE
  5
81
330
1F
100
AcDbEntity
  8
E-1
  6
JWW_CENTER1
 62
     2
370
     9
100
AcDbLine
 10
-421.3758153476542
 20
465.2090800365976
 30
0.0
 11
-421.3758153476542
 21
480.8064492564033
 31
0.0
  0
LINE
  5
82
330
1F
100
AcDbEntity
  8
E-1
  6
JWW_CENTER1
 62
     2
370
     9
100
AcDbLine
 10
-413.2132704785663
 20
473.3164458252377
 30
0.0
 11
-429.620139078123
 21
473.3164458252377
 31
0.0
  0
CIRCLE
  5
83
330
1F
100
AcDbEntity
  8
E-1
  6
Continuous
 62
     2
370
     9
100
AcDbCircle
 10
-522.3761733105976
 20
473.3164458252377
 30
0.0
 40
4.500000057993709
  0
CIRCLE
  5
84
330
1F
100
AcDbEntity
  8
E-1
  6
Continuous
 62
     2
370
     9
100
AcDbCircle
 10
-421.3763102272993
 20
473.3164458252377
 30
0.0
 40
4.500000057993709
  0
ARC
  5
85
330
1F
100
AcDbEntity
  8
E-1
  6
Continuous
 62
     2
370
     9
100
AcDbCircle
 10
-516.8759572131524
 20
479.4160848930164
 30
0.0
 40
9.9999991623131
100
AcDbArc
 50
90.0
 51
180.0
  0
ARC
  5
86
330
1F
100
AcDbEntity
  8
E-1
  6
Continuous
 62
     2
370
     9
100
AcDbCircle
 10
-426.8760314450992
 20
479.4160848930164
 30
0.0
 40
9.9999991623131
100
AcDbArc
 50
0.0
 51
90.0
  0
ARC
  5
87
330
1F
100
AcDbEntity
  8
E-1
  6
Continuous
 62
     2
370
     9
100
AcDbCircle
 10
-426.8760314450992
 20
479.4160848930164
 30
0.0
 40
0.9999999524773778
100
AcDbArc
 50
0.0
 51
90.0
  0
ARC
  5
88
330
1F
100
AcDbEntity
  8
E-1
  6
Continuous
 62
     2
370
     9
100
AcDbCircle
 10
-516.8759572131524
 20
479.4160848930164
 30
0.0
 40
0.9999999524773778
100
AcDbArc
 50
90.0
 51
180.0
  0
LINE
  5
89
330
1F
100
AcDbEntity
  8
E-1
  6
Continuous
 62
     2
370
     9
100
AcDbLine
 10
-526.8759902051288
 20
-61.7847653102142
 30
0.0
 11
-526.8759902051288
 21
-55.68463136279025
 31
0.0
  0
LINE
  5
8A
330
1F
100
AcDbEntity
  8
E-1
  6
Continuous
 62
     2
370
     9
100
AcDbLine
 10
-426.8760314450992
 20
-71.78430342254546
 30
0.0
 11
-516.8759572131524
 21
-71.78430342254546
 31
0.0
  0
LINE
  5
8B
330
1F
100
AcDbEntity
  8
E-1
  6
Continuous
 62
     2
370
     9
100
AcDbLine
 10
-416.875998453123
 20
-61.7847653102142
 30
0.0
 11
-416.875998453123
 21
-55.68463136279025
 31
0.0
  0
LINE
  5
8C
330
1F
100
AcDbEntity
  8
E-1
  6
Continuous
 62
     2
370
     9
100
AcDbLine
 10
-425.8761271218306
 20
-61.7847653102142
 30
0.0
 11
-425.8761271218306
 21
-55.68463136279025
 31
0.0
  0
LINE
  5
8D
330
1F
100
AcDbEntity
  8
E-1
  6
Continuous
 62
     2
370
     9
100
AcDbLine
 10
-516.8759572131524
 20
-62.78466963348297
 30
0.0
 11
-426.8760314450992
 21
-62.78466963348297
 31
0.0
  0
LINE
  5
8E
330
1F
100
AcDbEntity
  8
E-1
  6
Continuous
 62
     2
370
     9
100
AcDbLine
 10
-517.876232696155
 20
-61.7847653102142
 30
0.0
 11
-517.876232696155
 21
-55.68463136279025
 31
0.0
  0
LINE
  5
8F
330
1F
100
AcDbEntity
  8
E-1
  6
JWW_CENTER1
 62
     2
370
     9
100
AcDbLine
 10
-522.3761733105976
 20
-47.57726557415001
 30
0.0
 11
-522.3761733105976
 21
-63.17413991431071
 31
0.0
  0
LINE
  5
90
330
1F
100
AcDbEntity
  8
E-1
  6
JWW_CENTER1
 62
     2
370
     9
100
AcDbLine
 10
-514.2132572817758
 20
-55.68463136279025
 30
0.0
 11
-530.6202496012437
 21
-55.68463136279025
 31
0.0
  0
LINE
  5
91
330
1F
100
AcDbEntity
  8
E-1
  6
JWW_CENTER1
 62
     2
370
     9
100
AcDbLine
 10
-421.3758153476542
 20
-47.57726557415001
 30
0.0
 11
-421.3758153476542
 21
-63.17413991431071
 31
0.0
  0
LINE
  5
92
330
1F
100
AcDbEntity
  8
E-1
  6
JWW_CENTER1
 62
     2
370
     9
100
AcDbLine
 10
-413.2132704785663
 20
-55.68463136279025
 30
0.0
 11
-429.620139078123
 21
-55.68463136279025
 31
0.0
  0
CIRCLE
  5
93
330
1F
100
AcDbEntity
  8
E-1
  6
Continuous
 62
     2
370
     9
100
AcDbCircle
 10
-522.3761733105976
 20
-55.68463136279025
 30
0.0
 40
4.500000057993709
  0
CIRCLE
  5
94
330
1F
100
AcDbEntity
  8
E-1
  6
Continuous
 62
     2
370
     9
100
AcDbCircle
 10
-421.3763102272993
 20
-55.68463136279025
 30
0.0
 40
4.500000057993709
  0
ARC
  5
95
330
1F
100
AcDbEntity
  8
E-1
  6
Continuous
 62
     2
370
     9
100
AcDbCircle
 10
-516.8759572131524
 20
-61.7847653102142
 30
0.0
 40
9.9999991623131
100
AcDbArc
 50
180.0
 51
270.0
  0
ARC
  5
96
330
1F
100
AcDbEntity
  8
E-1
  6
Continuous
 62
     2
370
     9
100
AcDbCircle
 10
-426.8760314450992
 20
-61.7847653102142
 30
0.0
 40
9.9999991623131
100
AcDbArc
 50
270.0
 51
0.0
  0
ARC
  5
97
330
1F
100
AcDbEntity
  8
E-1
  6
Continuous
 62
     2
370
     9
100
AcDbCircle
 10
-426.8760314450992
 20
-61.7847653102142
 30
0.0
 40
0.9999999524773778
100
AcDbArc
 50
270.0
 51
0.0
  0
ARC
  5
98
330
1F
100
AcDbEntity
  8
E-1
  6
Continuous
 62
     2
370
     9
100
AcDbCircle
 10
-516.8759572131524
 20
-61.7847653102142
 30
0.0
 40
0.9999999524773778
100
AcDbArc
 50
180.0
 51
270.0
  0
LINE
  5
99
330
1F
100
AcDbEntity
  8
E-1
  6
Continuous
 62
     2
370
     9
100
AcDbLine
 10
-731.8759737091408
 20
-51.18370098905732
 30
0.0
 11
-731.8759737091408
 21
468.8160103311498
 31
0.0
  0
LINE
  5
9A
330
1F
100
AcDbEntity
  8
E-1
  6
Continuous
 62
     2
370
     9
100
AcDbLine
 10
-725.8759291699726
 20
-45.18365644988922
 30
0.0
 11
-725.8759291699726
 21
462.8158420720705
 31
0.0
  0
LINE
  5
9B
330
1F
100
AcDbEntity
  8
E-1
  6
JWW_DASHED3
 62
     2
370
     9
100
AcDbLine
 10
-671.8758994771939
 20
8.8155072035104
 30
0.0
 11
-671.8758994771939
 21
408.8168021385823
 31
0.0
  0
LINE
  5
9C
330
1F
100
AcDbEntity
  8
E-1
  6
Continuous
 62
     2
370
     9
100
AcDbLine
 10
-211.8760149491111
 20
468.8160103311498
 30
0.0
 11
-211.8760149491111
 21
-51.18370098905732
 31
0.0
  0
LINE
  5
9D
330
1F
100
AcDbEntity
  8
E-1
  6
Continuous
 62
     2
370
     9
100
AcDbLine
 10
-217.8759357683678
 20
462.8158420720705
 30
0.0
 11
-217.8759357683678
 21
-45.18365644988922
 31
0.0
  0
LINE
  5
9E
330
1F
100
AcDbEntity
  8
E-1
  6
JWW_DASHED3
 62
     2
370
     9
100
AcDbLine
 10
-271.8760273211022
 20
408.8168021385823
 30
0.0
 11
-271.8760273211022
 21
8.8155072035104
 31
0.0
  0
LINE
  5
9F
330
1F
100
AcDbEntity
  8
E-1
  6
Continuous
 62
     2
370
     9
100
AcDbLine
 10
-211.8760149491111
 20
468.8160103311498
 30
0.0
 11
-731.8759737091408
 21
468.8160103311498
 31
0.0
  0
LINE
  5
A0
330
1F
100
AcDbEntity
  8
E-1
  6
Continuous
 62
     2
370
     9
100
AcDbLine
 10
-217.8759357683678
 20
462.8158420720705
 30
0.0
 11
-725.8759291699726
 21
462.8158420720705
 31
0.0
  0
LINE
  5
A1
330
1F
100
AcDbEntity
  8
E-1
  6
JWW_DASHED3
 62
     2
370
     9
100
AcDbLine
 10
-271.8760273211022
 20
408.8168021385823
 30
0.0
 11
-671.8758994771939
 21
408.8168021385823
 31
0.0
  0
LINE
  5
A2
330
1F
100
AcDbEntity
  8
E-1
  6
Continuous
 62
     2
370
     9
100
AcDbLine
 10
-217.8759357683678
 20
-45.18365644988922
 30
0.0
 11
-725.8759291699726
 21
-45.18365644988922
 31
0.0
  0
LINE
  5
A3
330
1F
100
AcDbEntity
  8
E-1
  6
Continuous
 62
     2
370
     9
100
AcDbLine
 10
-211.8760149491111
 20
-51.18370098905732
 30
0.0
 11
-731.8759737091408
 21
-51.18370098905732
 31
0.0
  0
LINE
  5
A4
330
1F
100
AcDbEntity
  8
E-1
  6
JWW_DASHED3
 62
     2
370
     9
100
AcDbLine
 10
-271.8760273211022
 20
8.8155072035104
 30
0.0
 11
-671.8758994771939
 21
8.8155072035104
 31
0.0
  0
LWPOLYLINE
  5
A5
330
1F
100
AcDbEntity
  8
E-4
  6
Continuous
 62
     7
370
     9
100
AcDbPolyline
 90
        4
 70
     1
 43
1.0
 10
-471.3759943291258
 20
528.8160103311498
 42
0.4142135623731
 10
-471.8759943291258
 20
529.3160103311498
 42
0.4142135623731
 10
-472.3759943291258
 20
528.8160103311498
 42
0.4142135623731
 10
-471.8759943291258
 20
528.3160103311498
 42
0.4142135623731
  0
LINE
  5
A6
330
1F
100
AcDbEntity
  8
E-4
  6
Continuous
 62
     7
370
     9
100
AcDbLine
 10
-471.8759943291258
 20
530.3160103311498
 30
0.0
 11
-471.8759943291258
 21
499.4161178849927
 31
0.0
  0
LINE
  5
A7
330
1F
100
AcDbEntity
  8
E-4
  6
Continuous
 62
     7
370
     9
100
AcDbLine
 10
-731.8759737091408
 20
-151.1837009890573
 30
0.0
 11
-725.8759291699726
 21
-151.1837009890573
 31
0.0
  0
LWPOLYLINE
  5
A8
330
1F
100
AcDbEntity
  8
E-4
  6
Continuous
 62
     7
370
     9
100
AcDbPolyline
 90
        4
 70
     1
 43
1.0
 10
-731.3759737091408
 20
-151.1837009890573
 42
0.4142135623731
 10
-731.8759737091408
 20
-150.6837009890573
 42
0.4142135623731
 10
-732.3759737091407
 20
-151.1837009890573
 42
0.4142135623731
 10
-731.8759737091408
 20
-151.6837009890573
 42
0.4142135623731
  0
LWPOLYLINE
  5
A9
330
1F
100
AcDbEntity
  8
E-4
  6
Continuous
 62
     7
370
     9
100
AcDbPolyline
 90
        4
 70
     1
 43
1.0
 10
-725.3759291699726
 20
-151.1837009890573
 42
0.4142135623731
 10
-725.8759291699726
 20
-150.6837009890573
 42
0.4142135623731
 10
-726.3759291699726
 20
-151.1837009890573
 42
0.4142135623731
 10
-725.8759291699726
 20
-151.6837009890573
 42
0.4142135623731
  0
LINE
  5
AA
330
1F
100
AcDbEntity
  8
E-4
  6
Continuous
 62
     7
370
     9
100
AcDbLine
 10
-725.8759291699726
 20
-152.6837009890571
 30
0.0
 11
-725.8759291699726
 21
-55.18365644988922
 31
0.0
  0
LINE
  5
AB
330
1F
100
AcDbEntity
  8
E-4
  6
Continuous
 62
     7
370
     9
100
AcDbLine
 10
-725.8759291699726
 20
-151.1837009890573
 30
0.0
 11
-721.8759291699724
 21
-151.1837009890573
 31
0.0
  0
LWPOLYLINE
  5
AC
330
1F
100
AcDbEntity
  8
E-4
  6
Continuous
 62
     7
370
     9
100
AcDbPolyline
 90
        4
 70
     1
 43
1.0
 10
-721.3759291699726
 20
-151.1837009890573
 42
0.4142135623731
 10
-721.8759291699724
 20
-150.6837009890573
 42
0.4142135623731
 10
-722.3759291699724
 20
-151.1837009890573
 42
0.4142135623731
 10
-721.8759291699724
 20
-151.6837009890573
 42
0.4142135623731
  0
LINE
  5
AD
330
1F
100
AcDbEntity
  8
E-4
  6
Continuous
 62
     7
370
     9
100
AcDbLine
 10
-721.8759291699724
 20
-152.6837009890571
 30
0.0
 11
-721.8759291699724
 21
-51.18417442391792
 31
0.0
  0
LWPOLYLINE
  5
AE
330
1F
100
AcDbEntity
  8
E-4
  6
Continuous
 62
     7
370
     9
100
AcDbPolyline
 90
        4
 70
     1
 43
1.0
 10
-731.3759737091408
 20
-191.1837009890573
 42
0.4142135623731
 10
-731.8759737091408
 20
-190.6837009890573
 42
0.4142135623731
 10
-732.3759737091407
 20
-191.1837009890573
 42
0.4142135623731
 10
-731.8759737091408
 20
-191.6837009890573
 42
0.4142135623731
  0
LINE
  5
AF
330
1F
100
AcDbEntity
  8
E-4
  6
Continuous
 62
     7
370
     9
100
AcDbLine
 10
-731.8759737091408
 20
-192.6837009890571
 30
0.0
 11
-731.8759737091408
 21
-61.18370098905732
 31
0.0
  0
TEXT
  5
B0
330
1F
100
AcDbEntity
  8
E-4
  6
Continuous
 62
     2
370
   211
100
AcDbText
 10
-713.8759291699727
 20
-145.3637009890573
 30
0.0
 40
15.24
  1
4
 41
0.9999999999999998
  7
ＭＳ ゴシック
100
AcDbText
  0
TEXT
  5
B1
330
1F
100
AcDbEntity
  8
E-4
  6
Continuous
 62
     2
370
   211
100
AcDbText
 10
-748.8759514395564
 20
-145.3637009890573
 30
0.0
 40
15.24
  1
6
 41
0.9999999999999429
  7
ＭＳ ゴシック
100
AcDbText
  0
LINE
  5
B2
330
1F
100
AcDbEntity
  8
E-4
  6
Continuous
 62
     7
370
     9
100
AcDbLine
 10
-731.8759737091408
 20
-151.1837009890573
 30
0.0
 11
-748.8759514395565
 21
-151.1837009890573
 31
0.0
  0
LINE
  5
B3
330
1F
100
AcDbEntity
  8
E-4
  6
Continuous
 62
     7
370
     9
100
AcDbLine
 10
-671.8758994771939
 20
-112.6837009890571
 30
0.0
 11
-671.8758994771939
 21
-1.1844927964896
 31
0.0
  0
LWPOLYLINE
  5
B4
330
1F
100
AcDbEntity
  8
E-4
  6
Continuous
 62
     7
370
     9
100
AcDbPolyline
 90
        4
 70
     1
 43
1.0
 10
-671.3758994771939
 20
-111.1837009890573
 42
0.4142135623731
 10
-671.8758994771939
 20
-110.6837009890573
 42
0.4142135623731
 10
-672.3758994771938
 20
-111.1837009890573
 42
0.4142135623731
 10
-671.8758994771939
 20
-111.6837009890573
 42
0.4142135623731
  0
LINE
  5
B5
330
1F
100
AcDbEntity
  8
E-4
  6
Continuous
 62
     7
370
     9
100
AcDbLine
 10
-271.8760273211022
 20
-112.6837009890571
 30
0.0
 11
-271.8760273211022
 21
-1.1844927964896
 31
0.0
  0
LWPOLYLINE
  5
B6
330
1F
100
AcDbEntity
  8
E-4
  6
Continuous
 62
     7
370
     9
100
AcDbPolyline
 90
        4
 70
     1
 43
1.0
 10
-221.3759357683678
 20
-151.1837009890573
 42
0.4142135623731
 10
-221.8759357683678
 20
-150.6837009890573
 42
0.4142135623731
 10
-222.3759357683678
 20
-151.1837009890573
 42
0.4142135623731
 10
-221.8759357683678
 20
-151.6837009890573
 42
0.4142135623731
  0
LINE
  5
B7
330
1F
100
AcDbEntity
  8
E-4
  6
Continuous
 62
     7
370
     9
100
AcDbLine
 10
-221.8759357683678
 20
-152.6837009890571
 30
0.0
 11
-221.8759357683678
 21
-51.18417442391792
 31
0.0
  0
LINE
  5
B8
330
1F
100
AcDbEntity
  8
E-4
  6
Continuous
 62
     7
370
     9
100
AcDbLine
 10
-221.8759357683678
 20
-151.1837009890573
 30
0.0
 11
-217.8759357683678
 21
-151.1837009890573
 31
0.0
  0
LWPOLYLINE
  5
B9
330
1F
100
AcDbEntity
  8
E-4
  6
Continuous
 62
     7
370
     9
100
AcDbPolyline
 90
        4
 70
     1
 43
1.0
 10
-217.3759357683678
 20
-151.1837009890573
 42
0.4142135623731
 10
-217.8759357683678
 20
-150.6837009890573
 42
0.4142135623731
 10
-218.3759357683678
 20
-151.1837009890573
 42
0.4142135623731
 10
-217.8759357683678
 20
-151.6837009890573
 42
0.4142135623731
  0
LINE
  5
BA
330
1F
100
AcDbEntity
  8
E-4
  6
Continuous
 62
     7
370
     9
100
AcDbLine
 10
-217.8759357683678
 20
-152.6837009890571
 30
0.0
 11
-217.8759357683678
 21
-55.18365644988922
 31
0.0
  0
LINE
  5
BB
330
1F
100
AcDbEntity
  8
E-4
  6
Continuous
 62
     7
370
     9
100
AcDbLine
 10
-217.8759357683678
 20
-151.1837009890573
 30
0.0
 11
-211.8760149491111
 21
-151.1837009890573
 31
0.0
  0
LWPOLYLINE
  5
BC
330
1F
100
AcDbEntity
  8
E-4
  6
Continuous
 62
     7
370
     9
100
AcDbPolyline
 90
        4
 70
     1
 43
1.0
 10
-211.3760149491111
 20
-151.1837009890573
 42
0.4142135623731
 10
-211.8760149491111
 20
-150.6837009890573
 42
0.4142135623731
 10
-212.3760149491111
 20
-151.1837009890573
 42
0.4142135623731
 10
-211.8760149491111
 20
-151.6837009890573
 42
0.4142135623731
  0
LWPOLYLINE
  5
BD
330
1F
100
AcDbEntity
  8
E-4
  6
Continuous
 62
     7
370
     9
100
AcDbPolyline
 90
        4
 70
     1
 43
1.0
 10
-211.3760149491111
 20
-191.1837009890573
 42
0.4142135623731
 10
-211.8760149491111
 20
-190.6837009890573
 42
0.4142135623731
 10
-212.3760149491111
 20
-191.1837009890573
 42
0.4142135623731
 10
-211.8760149491111
 20
-191.6837009890573
 42
0.4142135623731
  0
LINE
  5
BE
330
1F
100
AcDbEntity
  8
E-4
  6
Continuous
 62
     7
370
     9
100
AcDbLine
 10
-211.8760149491111
 20
-192.6837009890571
 30
0.0
 11
-211.8760149491111
 21
-61.18370098905732
 31
0.0
  0
TEXT
  5
BF
330
1F
100
AcDbEntity
  8
E-4
  6
Continuous
 62
     2
370
   211
100
AcDbText
 10
-204.8759753587395
 20
-145.3637009890573
 30
0.0
 40
15.24
  1
6
 41
0.9999999999999998
  7
ＭＳ ゴシック
100
AcDbText
  0
TEXT
  5
C0
330
1F
100
AcDbEntity
  8
E-4
  6
Continuous
 62
     2
370
   211
100
AcDbText
 10
-239.8759357683679
 20
-145.3637009890573
 30
0.0
 40
15.24
  1
4
 41
0.9999999999999998
  7
ＭＳ ゴシック
100
AcDbText
  0
LINE
  5
C1
330
1F
100
AcDbEntity
  8
E-4
  6
Continuous
 62
     7
370
     9
100
AcDbLine
 10
-211.8760149491111
 20
-151.1837009890573
 30
0.0
 11
-194.8759753587395
 21
-151.1837009890573
 31
0.0
  0
LWPOLYLINE
  5
C2
330
1F
100
AcDbEntity
  8
E-4
  6
Continuous
 62
     7
370
     9
100
AcDbPolyline
 90
        4
 70
     1
 43
1.0
 10
-271.3760273211022
 20
-111.1837009890573
 42
0.4142135623731
 10
-271.8760273211022
 20
-110.6837009890573
 42
0.4142135623731
 10
-272.3760273211022
 20
-111.1837009890573
 42
0.4142135623731
 10
-271.8760273211022
 20
-111.6837009890573
 42
0.4142135623731
  0
LINE
  5
C3
330
1F
100
AcDbEntity
  8
E-4
  6
Continuous
 62
     7
370
     9
100
AcDbLine
 10
-671.8758994771939
 20
-111.1837009890573
 30
0.0
 11
-271.8760273211022
 21
-111.1837009890573
 31
0.0
  0
TEXT
  5
C4
330
1F
100
AcDbEntity
  8
E-4
  6
Continuous
 62
     2
370
   211
100
AcDbText
 10
-488.1259633991481
 20
-105.3637009890573
 30
0.0
 40
15.24
  1
400
 41
1.083333333333333
  7
ＭＳ ゴシック
100
AcDbText
  0
LINE
  5
C5
330
1F
100
AcDbEntity
  8
E-4
  6
Continuous
 62
     7
370
     9
100
AcDbLine
 10
-721.8759291699724
 20
-151.1837009890573
 30
0.0
 11
-221.8759357683678
 21
-151.1837009890573
 31
0.0
  0
TEXT
  5
C6
330
1F
100
AcDbEntity
  8
E-4
  6
Continuous
 62
     2
370
   211
100
AcDbText
 10
-488.1259324691702
 20
-145.3637009890573
 30
0.0
 40
15.24
  1
500
 41
1.083333333333333
  7
ＭＳ ゴシック
100
AcDbText
  0
LINE
  5
C7
330
1F
100
AcDbEntity
  8
E-4
  6
Continuous
 62
     7
370
     9
100
AcDbLine
 10
-731.8759737091408
 20
-191.1837009890573
 30
0.0
 11
-211.8760149491111
 21
-191.1837009890573
 31
0.0
  0
TEXT
  5
C8
330
1F
100
AcDbEntity
  8
E-4
  6
Continuous
 62
     2
370
   211
100
AcDbText
 10
-488.1259943291259
 20
-185.3637009890573
 30
0.0
 40
15.24
  1
520
 41
1.083333333333333
  7
ＭＳ ゴシック
100
AcDbText
  0
LINE
  5
C9
330
1F
100
AcDbEntity
  8
E-2
  6
Continuous
 62
     3
370
     9
100
AcDbLine
 10
-716.8759052427969
 20
311.8160985846863
 30
0.0
 11
-716.8759052427969
 21
405.8157158777608
 31
0.0
  0
LINE
  5
CA
330
1F
100
AcDbEntity
  8
E-2
  6
Continuous
 62
     3
370
     9
100
AcDbLine
 10
-716.8759052427969
 20
211.8160161047456
 30
0.0
 11
-716.8759052427969
 21
305.815930325607
 31
0.0
  0
LINE
  5
CB
330
1F
100
AcDbEntity
  8
E-2
  6
Continuous
 62
     3
370
     9
100
AcDbLine
 10
-716.8759052427969
 20
111.8160078567514
 30
0.0
 11
-716.8759052427969
 21
205.815922077613
 31
0.0
  0
LINE
  5
CC
330
1F
100
AcDbEntity
  8
E-2
  6
Continuous
 62
     3
370
     9
100
AcDbLine
 10
-716.8759052427969
 20
11.81599960875726
 30
0.0
 11
-716.8759052427969
 21
105.8159138296188
 31
0.0
  0
LINE
  5
CD
330
1F
100
AcDbEntity
  8
E-2
  6
Continuous
 62
     3
370
     9
100
AcDbLine
 10
-716.8759052427969
 20
-35.18385522654672
 30
0.0
 11
-716.8759052427969
 21
5.815831349677971
 31
0.0
  0
LINE
  5
CE
330
1F
100
AcDbEntity
  8
E-2
  6
Continuous
 62
     3
370
     9
100
AcDbLine
 10
-716.8759052427969
 20
411.8157356729466
 30
0.0
 11
-716.8759052427969
 21
454.3156498938082
 31
0.0
  0
LINE
  5
CF
330
1F
100
AcDbEntity
  8
E-2
  6
Continuous
 62
     3
370
     9
100
AcDbLine
 10
-721.8760207147141
 20
458.816184363825
 30
0.0
 11
-721.8760207147141
 21
-41.18387502173253
 31
0.0
  0
LINE
  5
D0
330
1F
100
AcDbEntity
  8
E-2
  6
Continuous
 62
     3
370
     9
100
AcDbLine
 10
-221.8759671027526
 20
405.8157158777608
 30
0.0
 11
-721.8760207147141
 21
405.8157158777608
 31
0.0
  0
LINE
  5
D1
330
1F
100
AcDbEntity
  8
E-2
  6
Continuous
 62
     3
370
     9
100
AcDbLine
 10
-221.8759671027526
 20
411.8157356729466
 30
0.0
 11
-721.8760207147141
 21
411.8157356729466
 31
0.0
  0
LINE
  5
D2
330
1F
100
AcDbEntity
  8
E-2
  6
Continuous
 62
     3
370
     9
100
AcDbLine
 10
-221.8759671027526
 20
11.81599960875726
 30
0.0
 11
-721.8760207147141
 21
11.81599960875726
 31
0.0
  0
LINE
  5
D3
330
1F
100
AcDbEntity
  8
E-2
  6
Continuous
 62
     3
370
     9
100
AcDbLine
 10
-221.8759671027526
 20
5.815831349677971
 30
0.0
 11
-721.8760207147141
 21
5.815831349677971
 31
0.0
  0
LINE
  5
D4
330
1F
100
AcDbEntity
  8
E-2
  6
Continuous
 62
     3
370
     9
100
AcDbLine
 10
-221.8759671027526
 20
211.8160903366923
 30
0.0
 11
-721.8760207147141
 21
211.8160903366923
 31
0.0
  0
LINE
  5
D5
330
1F
100
AcDbEntity
  8
E-2
  6
Continuous
 62
     3
370
     9
100
AcDbLine
 10
-221.8759671027526
 20
205.815922077613
 30
0.0
 11
-721.8760207147141
 21
205.815922077613
 31
0.0
  0
LINE
  5
D6
330
1F
100
AcDbEntity
  8
E-2
  6
Continuous
 62
     3
370
     9
100
AcDbLine
 10
-221.8759671027526
 20
305.8157818617133
 30
0.0
 11
-721.8760207147141
 21
305.8157818617133
 31
0.0
  0
LINE
  5
D7
330
1F
100
AcDbEntity
  8
E-2
  6
Continuous
 62
     3
370
     9
100
AcDbLine
 10
-221.8759671027526
 20
311.8158016568992
 30
0.0
 11
-721.8760207147141
 21
311.8158016568992
 31
0.0
  0
LINE
  5
D8
330
1F
100
AcDbEntity
  8
E-2
  6
Continuous
 62
     3
370
     9
100
AcDbLine
 10
-221.8759671027526
 20
111.8160820886983
 30
0.0
 11
-721.8760207147141
 21
111.8160820886983
 31
0.0
  0
LINE
  5
D9
330
1F
100
AcDbEntity
  8
E-2
  6
Continuous
 62
     3
370
     9
100
AcDbLine
 10
-221.8759671027526
 20
105.8159138296188
 30
0.0
 11
-721.8760207147141
 21
105.8159138296188
 31
0.0
  0
LINE
  5
DA
330
1F
100
AcDbEntity
  8
E-2
  6
Continuous
 62
     3
370
     9
100
AcDbLine
 10
-221.8759671027526
 20
-35.18385522654672
 30
0.0
 11
-721.8760207147141
 21
-35.18385522654672
 31
0.0
  0
LINE
  5
DB
330
1F
100
AcDbEntity
  8
E-2
  6
Continuous
 62
     3
370
     9
100
AcDbLine
 10
-221.8759671027526
 20
-41.18387502173253
 30
0.0
 11
-721.8760207147141
 21
-41.18387502173253
 31
0.0
  0
LINE
  5
DC
330
1F
100
AcDbEntity
  8
E-2
  6
Continuous
 62
     3
370
     9
100
AcDbLine
 10
-721.8760207147141
 20
458.816184363825
 30
0.0
 11
-221.8759671027526
 21
458.816184363825
 31
0.0
  0
LINE
  5
DD
330
1F
100
AcDbEntity
  8
E-2
  6
Continuous
 62
     3
370
     9
100
AcDbLine
 10
-721.8760207147141
 20
454.3156498938082
 30
0.0
 11
-221.8759671027526
 21
454.3156498938082
 31
0.0
  0
LINE
  5
DE
330
1F
100
AcDbEntity
  8
E-2
  6
Continuous
 62
     3
370
     9
100
AcDbLine
 10
-221.8759671027526
 20
458.816184363825
 30
0.0
 11
-221.8759671027526
 21
-41.18387502173253
 31
0.0
  0
LINE
  5
DF
330
1F
100
AcDbEntity
  8
E-2
  6
Continuous
 62
     3
370
     9
100
AcDbLine
 10
-706.8760207147137
 20
311.8160985846863
 30
0.0
 11
-706.8760207147137
 21
405.8157158777608
 31
0.0
  0
LINE
  5
E0
330
1F
100
AcDbEntity
  8
E-2
  6
Continuous
 62
     3
370
     9
100
AcDbLine
 10
-706.8760207147137
 20
211.8160161047456
 30
0.0
 11
-706.8760207147137
 21
305.815930325607
 31
0.0
  0
LINE
  5
E1
330
1F
100
AcDbEntity
  8
E-2
  6
Continuous
 62
     3
370
     9
100
AcDbLine
 10
-706.8760207147137
 20
111.8160078567514
 30
0.0
 11
-706.8760207147137
 21
205.815922077613
 31
0.0
  0
LINE
  5
E2
330
1F
100
AcDbEntity
  8
E-2
  6
Continuous
 62
     3
370
     9
100
AcDbLine
 10
-706.8760207147137
 20
11.81599960875726
 30
0.0
 11
-706.8760207147137
 21
105.8159138296188
 31
0.0
  0
LINE
  5
E3
330
1F
100
AcDbEntity
  8
E-2
  6
Continuous
 62
     3
370
     9
100
AcDbLine
 10
-706.8760207147137
 20
-35.18385522654672
 30
0.0
 11
-706.8760207147137
 21
5.815831349677971
 31
0.0
  0
LINE
  5
E4
330
1F
100
AcDbEntity
  8
E-2
  6
Continuous
 62
     3
370
     9
100
AcDbLine
 10
-706.8760207147137
 20
411.8157356729466
 30
0.0
 11
-706.8760207147137
 21
454.3156498938082
 31
0.0
  0
LINE
  5
E5
330
1F
100
AcDbEntity
  8
E-2
  6
Continuous
 62
     3
370
     9
100
AcDbLine
 10
-701.8759052427965
 20
311.8160985846863
 30
0.0
 11
-701.8759052427965
 21
405.8157158777608
 31
0.0
  0
LINE
  5
E6
330
1F
100
AcDbEntity
  8
E-2
  6
Continuous
 62
     3
370
     9
100
AcDbLine
 10
-701.8759052427965
 20
211.8160161047456
 30
0.0
 11
-701.8759052427965
 21
305.815930325607
 31
0.0
  0
LINE
  5
E7
330
1F
100
AcDbEntity
  8
E-2
  6
Continuous
 62
     3
370
     9
100
AcDbLine
 10
-701.8759052427965
 20
111.8160078567514
 30
0.0
 11
-701.8759052427965
 21
205.815922077613
 31
0.0
  0
LINE
  5
E8
330
1F
100
AcDbEntity
  8
E-2
  6
Continuous
 62
     3
370
     9
100
AcDbLine
 10
-701.8759052427965
 20
11.81599960875726
 30
0.0
 11
-701.8759052427965
 21
105.8159138296188
 31
0.0
  0
LINE
  5
E9
330
1F
100
AcDbEntity
  8
E-2
  6
Continuous
 62
     3
370
     9
100
AcDbLine
 10
-701.8759052427965
 20
-35.18385522654672
 30
0.0
 11
-701.8759052427965
 21
5.815831349677971
 31
0.0
  0
LINE
  5
EA
330
1F
100
AcDbEntity
  8
E-2
  6
Continuous
 62
     3
370
     9
100
AcDbLine
 10
-701.8759052427965
 20
411.8157356729466
 30
0.0
 11
-701.8759052427965
 21
454.3156498938082
 31
0.0
  0
LINE
  5
EB
330
1F
100
AcDbEntity
  8
E-2
  6
Continuous
 62
     3
370
     9
100
AcDbLine
 10
-691.8760207147137
 20
311.8160985846863
 30
0.0
 11
-691.8760207147137
 21
405.8157158777608
 31
0.0
  0
LINE
  5
EC
330
1F
100
AcDbEntity
  8
E-2
  6
Continuous
 62
     3
370
     9
100
AcDbLine
 10
-691.8760207147137
 20
211.8160161047456
 30
0.0
 11
-691.8760207147137
 21
305.815930325607
 31
0.0
  0
LINE
  5
ED
330
1F
100
AcDbEntity
  8
E-2
  6
Continuous
 62
     3
370
     9
100
AcDbLine
 10
-691.8760207147137
 20
111.8160078567514
 30
0.0
 11
-691.8760207147137
 21
205.815922077613
 31
0.0
  0
LINE
  5
EE
330
1F
100
AcDbEntity
  8
E-2
  6
Continuous
 62
     3
370
     9
100
AcDbLine
 10
-691.8760207147137
 20
11.81599960875726
 30
0.0
 11
-691.8760207147137
 21
105.8159138296188
 31
0.0
  0
LINE
  5
EF
330
1F
100
AcDbEntity
  8
E-2
  6
Continuous
 62
     3
370
     9
100
AcDbLine
 10
-691.8760207147137
 20
-35.18385522654672
 30
0.0
 11
-691.8760207147137
 21
5.815831349677971
 31
0.0
  0
LINE
  5
F0
330
1F
100
AcDbEntity
  8
E-2
  6
Continuous
 62
     3
370
     9
100
AcDbLine
 10
-691.8760207147137
 20
411.8157356729466
 30
0.0
 11
-691.8760207147137
 21
454.3156498938082
 31
0.0
  0
LINE
  5
F1
330
1F
100
AcDbEntity
  8
E-2
  6
Continuous
 62
     3
370
     9
100
AcDbLine
 10
-686.8759052427965
 20
311.8160985846863
 30
0.0
 11
-686.8759052427965
 21
405.8157158777608
 31
0.0
  0
LINE
  5
F2
330
1F
100
AcDbEntity
  8
E-2
  6
Continuous
 62
     3
370
     9
100
AcDbLine
 10
-686.8759052427965
 20
211.8160161047456
 30
0.0
 11
-686.8759052427965
 21
305.815930325607
 31
0.0
  0
LINE
  5
F3
330
1F
100
AcDbEntity
  8
E-2
  6
Continuous
 62
     3
370
     9
100
AcDbLine
 10
-686.8759052427965
 20
111.8160078567514
 30
0.0
 11
-686.8759052427965
 21
205.815922077613
 31
0.0
  0
LINE
  5
F4
330
1F
100
AcDbEntity
  8
E-2
  6
Continuous
 62
     3
370
     9
100
AcDbLine
 10
-686.8759052427965
 20
11.81599960875726
 30
0.0
 11
-686.8759052427965
 21
105.8159138296188
 31
0.0
  0
LINE
  5
F5
330
1F
100
AcDbEntity
  8
E-2
  6
Continuous
 62
     3
370
     9
100
AcDbLine
 10
-686.8759052427965
 20
-35.18385522654672
 30
0.0
 11
-686.8759052427965
 21
5.815831349677971
 31
0.0
  0
LINE
  5
F6
330
1F
100
AcDbEntity
  8
E-2
  6
Continuous
 62
     3
370
     9
100
AcDbLine
 10
-686.8759052427965
 20
411.8157356729466
 30
0.0
 11
-686.8759052427965
 21
454.3156498938082
 31
0.0
  0
LINE
  5
F7
330
1F
100
AcDbEntity
  8
E-2
  6
Continuous
 62
     3
370
     9
100
AcDbLine
 10
-676.8760207147137
 20
311.8160985846863
 30
0.0
 11
-676.8760207147137
 21
405.8157158777608
 31
0.0
  0
LINE
  5
F8
330
1F
100
AcDbEntity
  8
E-2
  6
Continuous
 62
     3
370
     9
100
AcDbLine
 10
-676.8760207147137
 20
211.8160161047456
 30
0.0
 11
-676.8760207147137
 21
305.815930325607
 31
0.0
  0
LINE
  5
F9
330
1F
100
AcDbEntity
  8
E-2
  6
Continuous
 62
     3
370
     9
100
AcDbLine
 10
-676.8760207147137
 20
111.8160078567514
 30
0.0
 11
-676.8760207147137
 21
205.815922077613
 31
0.0
  0
LINE
  5
FA
330
1F
100
AcDbEntity
  8
E-2
  6
Continuous
 62
     3
370
     9
100
AcDbLine
 10
-676.8760207147137
 20
11.81599960875726
 30
0.0
 11
-676.8760207147137
 21
105.8159138296188
 31
0.0
  0
LINE
  5
FB
330
1F
100
AcDbEntity
  8
E-2
  6
Continuous
 62
     3
370
     9
100
AcDbLine
 10
-676.8760207147137
 20
-35.18385522654672
 30
0.0
 11
-676.8760207147137
 21
5.815831349677971
 31
0.0
  0
LINE
  5
FC
330
1F
100
AcDbEntity
  8
E-2
  6
Continuous
 62
     3
370
     9
100
AcDbLine
 10
-676.8760207147137
 20
411.8157356729466
 30
0.0
 11
-676.8760207147137
 21
454.3156498938082
 31
0.0
  0
LINE
  5
FD
330
1F
100
AcDbEntity
  8
E-2
  6
Continuous
 62
     3
370
     9
100
AcDbLine
 10
-671.8759052427965
 20
311.8160985846863
 30
0.0
 11
-671.8759052427965
 21
405.8157158777608
 31
0.0
  0
LINE
  5
FE
330
1F
100
AcDbEntity
  8
E-2
  6
Continuous
 62
     3
370
     9
100
AcDbLine
 10
-671.8759052427965
 20
211.8160161047456
 30
0.0
 11
-671.8759052427965
 21
305.815930325607
 31
0.0
  0
LINE
  5
FF
330
1F
100
AcDbEntity
  8
E-2
  6
Continuous
 62
     3
370
     9
100
AcDbLine
 10
-671.8759052427965
 20
111.8160078567514
 30
0.0
 11
-671.8759052427965
 21
205.815922077613
 31
0.0
  0
LINE
  5
100
330
1F
100
AcDbEntity
  8
E-2
  6
Continuous
 62
     3
370
     9
100
AcDbLine
 10
-671.8759052427965
 20
11.81599960875726
 30
0.0
 11
-671.8759052427965
 21
105.8159138296188
 31
0.0
  0
LINE
  5
101
330
1F
100
AcDbEntity
  8
E-2
  6
Continuous
 62
     3
370
     9
100
AcDbLine
 10
-671.8759052427965
 20
-35.18385522654672
 30
0.0
 11
-671.8759052427965
 21
5.815831349677971
 31
0.0
  0
LINE
  5
102
330
1F
100
AcDbEntity
  8
E-2
  6
Continuous
 62
     3
370
     9
100
AcDbLine
 10
-671.8759052427965
 20
411.8157356729466
 30
0.0
 11
-671.8759052427965
 21
454.3156498938082
 31
0.0
  0
LINE
  5
103
330
1F
100
AcDbEntity
  8
E-2
  6
Continuous
 62
     3
370
     9
100
AcDbLine
 10
-661.8760207147137
 20
311.8160985846863
 30
0.0
 11
-661.8760207147137
 21
405.8157158777608
 31
0.0
  0
LINE
  5
104
330
1F
100
AcDbEntity
  8
E-2
  6
Continuous
 62
     3
370
     9
100
AcDbLine
 10
-661.8760207147137
 20
211.8160161047456
 30
0.0
 11
-661.8760207147137
 21
305.815930325607
 31
0.0
  0
LINE
  5
105
330
1F
100
AcDbEntity
  8
E-2
  6
Continuous
 62
     3
370
     9
100
AcDbLine
 10
-661.8760207147137
 20
111.8160078567514
 30
0.0
 11
-661.8760207147137
 21
205.815922077613
 31
0.0
  0
LINE
  5
106
330
1F
100
AcDbEntity
  8
E-2
  6
Continuous
 62
     3
370
     9
100
AcDbLine
 10
-661.8760207147137
 20
11.81599960875726
 30
0.0
 11
-661.8760207147137
 21
105.8159138296188
 31
0.0
  0
LINE
  5
107
330
1F
100
AcDbEntity
  8
E-2
  6
Continuous
 62
     3
370
     9
100
AcDbLine
 10
-661.8760207147137
 20
-35.18385522654672
 30
0.0
 11
-661.8760207147137
 21
5.815831349677971
 31
0.0
  0
LINE
  5
108
330
1F
100
AcDbEntity
  8
E-2
  6
Continuous
 62
     3
370
     9
100
AcDbLine
 10
-661.8760207147137
 20
411.8157356729466
 30
0.0
 11
-661.8760207147137
 21
454.3156498938082
 31
0.0
  0
LINE
  5
109
330
1F
100
AcDbEntity
  8
E-2
  6
Continuous
 62
     3
370
     9
100
AcDbLine
 10
-656.8759052427965
 20
311.8160985846863
 30
0.0
 11
-656.8759052427965
 21
405.8157158777608
 31
0.0
  0
LINE
  5
10A
330
1F
100
AcDbEntity
  8
E-2
  6
Continuous
 62
     3
370
     9
100
AcDbLine
 10
-656.8759052427965
 20
211.8160161047456
 30
0.0
 11
-656.8759052427965
 21
305.815930325607
 31
0.0
  0
LINE
  5
10B
330
1F
100
AcDbEntity
  8
E-2
  6
Continuous
 62
     3
370
     9
100
AcDbLine
 10
-656.8759052427965
 20
111.8160078567514
 30
0.0
 11
-656.8759052427965
 21
205.815922077613
 31
0.0
  0
LINE
  5
10C
330
1F
100
AcDbEntity
  8
E-2
  6
Continuous
 62
     3
370
     9
100
AcDbLine
 10
-656.8759052427965
 20
11.81599960875726
 30
0.0
 11
-656.8759052427965
 21
105.8159138296188
 31
0.0
  0
LINE
  5
10D
330
1F
100
AcDbEntity
  8
E-2
  6
Continuous
 62
     3
370
     9
100
AcDbLine
 10
-656.8759052427965
 20
-35.18385522654672
 30
0.0
 11
-656.8759052427965
 21
5.815831349677971
 31
0.0
  0
LINE
  5
10E
330
1F
100
AcDbEntity
  8
E-2
  6
Continuous
 62
     3
370
     9
100
AcDbLine
 10
-656.8759052427965
 20
411.8157356729466
 30
0.0
 11
-656.8759052427965
 21
454.3156498938082
 31
0.0
  0
LINE
  5
10F
330
1F
100
AcDbEntity
  8
E-2
  6
Continuous
 62
     3
370
     9
100
AcDbLine
 10
-646.8760207147137
 20
311.8160985846863
 30
0.0
 11
-646.8760207147137
 21
405.8157158777608
 31
0.0
  0
LINE
  5
110
330
1F
100
AcDbEntity
  8
E-2
  6
Continuous
 62
     3
370
     9
100
AcDbLine
 10
-646.8760207147137
 20
211.8160161047456
 30
0.0
 11
-646.8760207147137
 21
305.815930325607
 31
0.0
  0
LINE
  5
111
330
1F
100
AcDbEntity
  8
E-2
  6
Continuous
 62
     3
370
     9
100
AcDbLine
 10
-646.8760207147137
 20
111.8160078567514
 30
0.0
 11
-646.8760207147137
 21
205.815922077613
 31
0.0
  0
LINE
  5
112
330
1F
100
AcDbEntity
  8
E-2
  6
Continuous
 62
     3
370
     9
100
AcDbLine
 10
-646.8760207147137
 20
11.81599960875726
 30
0.0
 11
-646.8760207147137
 21
105.8159138296188
 31
0.0
  0
LINE
  5
113
330
1F
100
AcDbEntity
  8
E-2
  6
Continuous
 62
     3
370
     9
100
AcDbLine
 10
-646.8760207147137
 20
-35.18385522654672
 30
0.0
 11
-646.8760207147137
 21
5.815831349677971
 31
0.0
  0
LINE
  5
114
330
1F
100
AcDbEntity
  8
E-2
  6
Continuous
 62
     3
370
     9
100
AcDbLine
 10
-646.8760207147137
 20
411.8157356729466
 30
0.0
 11
-646.8760207147137
 21
454.3156498938082
 31
0.0
  0
LINE
  5
115
330
1F
100
AcDbEntity
  8
E-2
  6
Continuous
 62
     3
370
     9
100
AcDbLine
 10
-641.8759052427965
 20
311.8160985846863
 30
0.0
 11
-641.8759052427965
 21
405.8157158777608
 31
0.0
  0
LINE
  5
116
330
1F
100
AcDbEntity
  8
E-2
  6
Continuous
 62
     3
370
     9
100
AcDbLine
 10
-641.8759052427965
 20
211.8160161047456
 30
0.0
 11
-641.8759052427965
 21
305.815930325607
 31
0.0
  0
LINE
  5
117
330
1F
100
AcDbEntity
  8
E-2
  6
Continuous
 62
     3
370
     9
100
AcDbLine
 10
-641.8759052427965
 20
111.8160078567514
 30
0.0
 11
-641.8759052427965
 21
205.815922077613
 31
0.0
  0
LINE
  5
118
330
1F
100
AcDbEntity
  8
E-2
  6
Continuous
 62
     3
370
     9
100
AcDbLine
 10
-641.8759052427965
 20
11.81599960875726
 30
0.0
 11
-641.8759052427965
 21
105.8159138296188
 31
0.0
  0
LINE
  5
119
330
1F
100
AcDbEntity
  8
E-2
  6
Continuous
 62
     3
370
     9
100
AcDbLine
 10
-641.8759052427965
 20
-35.18385522654672
 30
0.0
 11
-641.8759052427965
 21
5.815831349677971
 31
0.0
  0
LINE
  5
11A
330
1F
100
AcDbEntity
  8
E-2
  6
Continuous
 62
     3
370
     9
100
AcDbLine
 10
-641.8759052427965
 20
411.8157356729466
 30
0.0
 11
-641.8759052427965
 21
454.3156498938082
 31
0.0
  0
LINE
  5
11B
330
1F
100
AcDbEntity
  8
E-2
  6
Continuous
 62
     3
370
     9
100
AcDbLine
 10
-631.8760207147137
 20
311.8160985846863
 30
0.0
 11
-631.8760207147137
 21
405.8157158777608
 31
0.0
  0
LINE
  5
11C
330
1F
100
AcDbEntity
  8
E-2
  6
Continuous
 62
     3
370
     9
100
AcDbLine
 10
-631.8760207147137
 20
211.8160161047456
 30
0.0
 11
-631.8760207147137
 21
305.815930325607
 31
0.0
  0
LINE
  5
11D
330
1F
100
AcDbEntity
  8
E-2
  6
Continuous
 62
     3
370
     9
100
AcDbLine
 10
-631.8760207147137
 20
111.8160078567514
 30
0.0
 11
-631.8760207147137
 21
205.815922077613
 31
0.0
  0
LINE
  5
11E
330
1F
100
AcDbEntity
  8
E-2
  6
Continuous
 62
     3
370
     9
100
AcDbLine
 10
-631.8760207147137
 20
11.81599960875726
 30
0.0
 11
-631.8760207147137
 21
105.8159138296188
 31
0.0
  0
LINE
  5
11F
330
1F
100
AcDbEntity
  8
E-2
  6
Continuous
 62
     3
370
     9
100
AcDbLine
 10
-631.8760207147137
 20
-35.18385522654672
 30
0.0
 11
-631.8760207147137
 21
5.815831349677971
 31
0.0
  0
LINE
  5
120
330
1F
100
AcDbEntity
  8
E-2
  6
Continuous
 62
     3
370
     9
100
AcDbLine
 10
-631.8760207147137
 20
411.8157356729466
 30
0.0
 11
-631.8760207147137
 21
454.3156498938082
 31
0.0
  0
LINE
  5
121
330
1F
100
AcDbEntity
  8
E-2
  6
Continuous
 62
     3
370
     9
100
AcDbLine
 10
-626.8759052427965
 20
311.8160985846863
 30
0.0
 11
-626.8759052427965
 21
405.8157158777608
 31
0.0
  0
LINE
  5
122
330
1F
100
AcDbEntity
  8
E-2
  6
Continuous
 62
     3
370
     9
100
AcDbLine
 10
-626.8759052427965
 20
211.8160161047456
 30
0.0
 11
-626.8759052427965
 21
305.815930325607
 31
0.0
  0
LINE
  5
123
330
1F
100
AcDbEntity
  8
E-2
  6
Continuous
 62
     3
370
     9
100
AcDbLine
 10
-626.8759052427965
 20
111.8160078567514
 30
0.0
 11
-626.8759052427965
 21
205.815922077613
 31
0.0
  0
LINE
  5
124
330
1F
100
AcDbEntity
  8
E-2
  6
Continuous
 62
     3
370
     9
100
AcDbLine
 10
-626.8759052427965
 20
11.81599960875726
 30
0.0
 11
-626.8759052427965
 21
105.8159138296188
 31
0.0
  0
LINE
  5
125
330
1F
100
AcDbEntity
  8
E-2
  6
Continuous
 62
     3
370
     9
100
AcDbLine
 10
-626.8759052427965
 20
-35.18385522654672
 30
0.0
 11
-626.8759052427965
 21
5.815831349677971
 31
0.0
  0
LINE
  5
126
330
1F
100
AcDbEntity
  8
E-2
  6
Continuous
 62
     3
370
     9
100
AcDbLine
 10
-626.8759052427965
 20
411.8157356729466
 30
0.0
 11
-626.8759052427965
 21
454.3156498938082
 31
0.0
  0
LINE
  5
127
330
1F
100
AcDbEntity
  8
E-2
  6
Continuous
 62
     3
370
     9
100
AcDbLine
 10
-616.8760207147137
 20
311.8160985846863
 30
0.0
 11
-616.8760207147137
 21
405.8157158777608
 31
0.0
  0
LINE
  5
128
330
1F
100
AcDbEntity
  8
E-2
  6
Continuous
 62
     3
370
     9
100
AcDbLine
 10
-616.8760207147137
 20
211.8160161047456
 30
0.0
 11
-616.8760207147137
 21
305.815930325607
 31
0.0
  0
LINE
  5
129
330
1F
100
AcDbEntity
  8
E-2
  6
Continuous
 62
     3
370
     9
100
AcDbLine
 10
-616.8760207147137
 20
111.8160078567514
 30
0.0
 11
-616.8760207147137
 21
205.815922077613
 31
0.0
  0
LINE
  5
12A
330
1F
100
AcDbEntity
  8
E-2
  6
Continuous
 62
     3
370
     9
100
AcDbLine
 10
-616.8760207147137
 20
11.81599960875726
 30
0.0
 11
-616.8760207147137
 21
105.8159138296188
 31
0.0
  0
LINE
  5
12B
330
1F
100
AcDbEntity
  8
E-2
  6
Continuous
 62
     3
370
     9
100
AcDbLine
 10
-616.8760207147137
 20
-35.18385522654672
 30
0.0
 11
-616.8760207147137
 21
5.815831349677971
 31
0.0
  0
LINE
  5
12C
330
1F
100
AcDbEntity
  8
E-2
  6
Continuous
 62
     3
370
     9
100
AcDbLine
 10
-616.8760207147137
 20
411.8157356729466
 30
0.0
 11
-616.8760207147137
 21
454.3156498938082
 31
0.0
  0
LINE
  5
12D
330
1F
100
AcDbEntity
  8
E-2
  6
Continuous
 62
     3
370
     9
100
AcDbLine
 10
-611.8759052427965
 20
311.8160985846863
 30
0.0
 11
-611.8759052427965
 21
405.8157158777608
 31
0.0
  0
LINE
  5
12E
330
1F
100
AcDbEntity
  8
E-2
  6
Continuous
 62
     3
370
     9
100
AcDbLine
 10
-611.8759052427965
 20
211.8160161047456
 30
0.0
 11
-611.8759052427965
 21
305.815930325607
 31
0.0
  0
LINE
  5
12F
330
1F
100
AcDbEntity
  8
E-2
  6
Continuous
 62
     3
370
     9
100
AcDbLine
 10
-611.8759052427965
 20
111.8160078567514
 30
0.0
 11
-611.8759052427965
 21
205.815922077613
 31
0.0
  0
LINE
  5
130
330
1F
100
AcDbEntity
  8
E-2
  6
Continuous
 62
     3
370
     9
100
AcDbLine
 10
-611.8759052427965
 20
11.81599960875726
 30
0.0
 11
-611.8759052427965
 21
105.8159138296188
 31
0.0
  0
LINE
  5
131
330
1F
100
AcDbEntity
  8
E-2
  6
Continuous
 62
     3
370
     9
100
AcDbLine
 10
-611.8759052427965
 20
-35.18385522654672
 30
0.0
 11
-611.8759052427965
 21
5.815831349677971
 31
0.0
  0
LINE
  5
132
330
1F
100
AcDbEntity
  8
E-2
  6
Continuous
 62
     3
370
     9
100
AcDbLine
 10
-611.8759052427965
 20
411.8157356729466
 30
0.0
 11
-611.8759052427965
 21
454.3156498938082
 31
0.0
  0
LINE
  5
133
330
1F
100
AcDbEntity
  8
E-2
  6
Continuous
 62
     3
370
     9
100
AcDbLine
 10
-601.8760207147137
 20
311.8160985846863
 30
0.0
 11
-601.8760207147137
 21
405.8157158777608
 31
0.0
  0
LINE
  5
134
330
1F
100
AcDbEntity
  8
E-2
  6
Continuous
 62
     3
370
     9
100
AcDbLine
 10
-601.8760207147137
 20
211.8160161047456
 30
0.0
 11
-601.8760207147137
 21
305.815930325607
 31
0.0
  0
LINE
  5
135
330
1F
100
AcDbEntity
  8
E-2
  6
Continuous
 62
     3
370
     9
100
AcDbLine
 10
-601.8760207147137
 20
111.8160078567514
 30
0.0
 11
-601.8760207147137
 21
205.815922077613
 31
0.0
  0
LINE
  5
136
330
1F
100
AcDbEntity
  8
E-2
  6
Continuous
 62
     3
370
     9
100
AcDbLine
 10
-601.8760207147137
 20
11.81599960875726
 30
0.0
 11
-601.8760207147137
 21
105.8159138296188
 31
0.0
  0
LINE
  5
137
330
1F
100
AcDbEntity
  8
E-2
  6
Continuous
 62
     3
370
     9
100
AcDbLine
 10
-601.8760207147137
 20
-35.18385522654672
 30
0.0
 11
-601.8760207147137
 21
5.815831349677971
 31
0.0
  0
LINE
  5
138
330
1F
100
AcDbEntity
  8
E-2
  6
Continuous
 62
     3
370
     9
100
AcDbLine
 10
-601.8760207147137
 20
411.8157356729466
 30
0.0
 11
-601.8760207147137
 21
454.3156498938082
 31
0.0
  0
LINE
  5
139
330
1F
100
AcDbEntity
  8
E-2
  6
Continuous
 62
     3
370
     9
100
AcDbLine
 10
-596.8759052427965
 20
311.8160985846863
 30
0.0
 11
-596.8759052427965
 21
405.8157158777608
 31
0.0
  0
LINE
  5
13A
330
1F
100
AcDbEntity
  8
E-2
  6
Continuous
 62
     3
370
     9
100
AcDbLine
 10
-596.8759052427965
 20
211.8160161047456
 30
0.0
 11
-596.8759052427965
 21
305.815930325607
 31
0.0
  0
LINE
  5
13B
330
1F
100
AcDbEntity
  8
E-2
  6
Continuous
 62
     3
370
     9
100
AcDbLine
 10
-596.8759052427965
 20
111.8160078567514
 30
0.0
 11
-596.8759052427965
 21
205.815922077613
 31
0.0
  0
LINE
  5
13C
330
1F
100
AcDbEntity
  8
E-2
  6
Continuous
 62
     3
370
     9
100
AcDbLine
 10
-596.8759052427965
 20
11.81599960875726
 30
0.0
 11
-596.8759052427965
 21
105.8159138296188
 31
0.0
  0
LINE
  5
13D
330
1F
100
AcDbEntity
  8
E-2
  6
Continuous
 62
     3
370
     9
100
AcDbLine
 10
-596.8759052427965
 20
-35.18385522654672
 30
0.0
 11
-596.8759052427965
 21
5.815831349677971
 31
0.0
  0
LINE
  5
13E
330
1F
100
AcDbEntity
  8
E-2
  6
Continuous
 62
     3
370
     9
100
AcDbLine
 10
-596.8759052427965
 20
411.8157356729466
 30
0.0
 11
-596.8759052427965
 21
454.3156498938082
 31
0.0
  0
LINE
  5
13F
330
1F
100
AcDbEntity
  8
E-2
  6
Continuous
 62
     3
370
     9
100
AcDbLine
 10
-586.8760207147137
 20
311.8160985846863
 30
0.0
 11
-586.8760207147137
 21
405.8157158777608
 31
0.0
  0
LINE
  5
140
330
1F
100
AcDbEntity
  8
E-2
  6
Continuous
 62
     3
370
     9
100
AcDbLine
 10
-586.8760207147137
 20
211.8160161047456
 30
0.0
 11
-586.8760207147137
 21
305.815930325607
 31
0.0
  0
LINE
  5
141
330
1F
100
AcDbEntity
  8
E-2
  6
Continuous
 62
     3
370
     9
100
AcDbLine
 10
-586.8760207147137
 20
111.8160078567514
 30
0.0
 11
-586.8760207147137
 21
205.815922077613
 31
0.0
  0
LINE
  5
142
330
1F
100
AcDbEntity
  8
E-2
  6
Continuous
 62
     3
370
     9
100
AcDbLine
 10
-586.8760207147137
 20
11.81599960875726
 30
0.0
 11
-586.8760207147137
 21
105.8159138296188
 31
0.0
  0
LINE
  5
143
330
1F
100
AcDbEntity
  8
E-2
  6
Continuous
 62
     3
370
     9
100
AcDbLine
 10
-586.8760207147137
 20
-35.18385522654672
 30
0.0
 11
-586.8760207147137
 21
5.815831349677971
 31
0.0
  0
LINE
  5
144
330
1F
100
AcDbEntity
  8
E-2
  6
Continuous
 62
     3
370
     9
100
AcDbLine
 10
-586.8760207147137
 20
411.8157356729466
 30
0.0
 11
-586.8760207147137
 21
454.3156498938082
 31
0.0
  0
LINE
  5
145
330
1F
100
AcDbEntity
  8
E-2
  6
Continuous
 62
     3
370
     9
100
AcDbLine
 10
-581.8759052427965
 20
311.8160985846863
 30
0.0
 11
-581.8759052427965
 21
405.8157158777608
 31
0.0
  0
LINE
  5
146
330
1F
100
AcDbEntity
  8
E-2
  6
Continuous
 62
     3
370
     9
100
AcDbLine
 10
-581.8759052427965
 20
211.8160161047456
 30
0.0
 11
-581.8759052427965
 21
305.815930325607
 31
0.0
  0
LINE
  5
147
330
1F
100
AcDbEntity
  8
E-2
  6
Continuous
 62
     3
370
     9
100
AcDbLine
 10
-581.8759052427965
 20
111.8160078567514
 30
0.0
 11
-581.8759052427965
 21
205.815922077613
 31
0.0
  0
LINE
  5
148
330
1F
100
AcDbEntity
  8
E-2
  6
Continuous
 62
     3
370
     9
100
AcDbLine
 10
-581.8759052427965
 20
11.81599960875726
 30
0.0
 11
-581.8759052427965
 21
105.8159138296188
 31
0.0
  0
LINE
  5
149
330
1F
100
AcDbEntity
  8
E-2
  6
Continuous
 62
     3
370
     9
100
AcDbLine
 10
-581.8759052427965
 20
-35.18385522654672
 30
0.0
 11
-581.8759052427965
 21
5.815831349677971
 31
0.0
  0
LINE
  5
14A
330
1F
100
AcDbEntity
  8
E-2
  6
Continuous
 62
     3
370
     9
100
AcDbLine
 10
-581.8759052427965
 20
411.8157356729466
 30
0.0
 11
-581.8759052427965
 21
454.3156498938082
 31
0.0
  0
LINE
  5
14B
330
1F
100
AcDbEntity
  8
E-2
  6
Continuous
 62
     3
370
     9
100
AcDbLine
 10
-571.8760207147137
 20
311.8160985846863
 30
0.0
 11
-571.8760207147137
 21
405.8157158777608
 31
0.0
  0
LINE
  5
14C
330
1F
100
AcDbEntity
  8
E-2
  6
Continuous
 62
     3
370
     9
100
AcDbLine
 10
-571.8760207147137
 20
211.8160161047456
 30
0.0
 11
-571.8760207147137
 21
305.815930325607
 31
0.0
  0
LINE
  5
14D
330
1F
100
AcDbEntity
  8
E-2
  6
Continuous
 62
     3
370
     9
100
AcDbLine
 10
-571.8760207147137
 20
111.8160078567514
 30
0.0
 11
-571.8760207147137
 21
205.815922077613
 31
0.0
  0
LINE
  5
14E
330
1F
100
AcDbEntity
  8
E-2
  6
Continuous
 62
     3
370
     9
100
AcDbLine
 10
-571.8760207147137
 20
11.81599960875726
 30
0.0
 11
-571.8760207147137
 21
105.8159138296188
 31
0.0
  0
LINE
  5
14F
330
1F
100
AcDbEntity
  8
E-2
  6
Continuous
 62
     3
370
     9
100
AcDbLine
 10
-571.8760207147137
 20
-35.18385522654672
 30
0.0
 11
-571.8760207147137
 21
5.815831349677971
 31
0.0
  0
LINE
  5
150
330
1F
100
AcDbEntity
  8
E-2
  6
Continuous
 62
     3
370
     9
100
AcDbLine
 10
-571.8760207147137
 20
411.8157356729466
 30
0.0
 11
-571.8760207147137
 21
454.3156498938082
 31
0.0
  0
LINE
  5
151
330
1F
100
AcDbEntity
  8
E-2
  6
Continuous
 62
     3
370
     9
100
AcDbLine
 10
-566.8759052427965
 20
311.8160985846863
 30
0.0
 11
-566.8759052427965
 21
405.8157158777608
 31
0.0
  0
LINE
  5
152
330
1F
100
AcDbEntity
  8
E-2
  6
Continuous
 62
     3
370
     9
100
AcDbLine
 10
-566.8759052427965
 20
211.8160161047456
 30
0.0
 11
-566.8759052427965
 21
305.815930325607
 31
0.0
  0
LINE
  5
153
330
1F
100
AcDbEntity
  8
E-2
  6
Continuous
 62
     3
370
     9
100
AcDbLine
 10
-566.8759052427965
 20
111.8160078567514
 30
0.0
 11
-566.8759052427965
 21
205.815922077613
 31
0.0
  0
LINE
  5
154
330
1F
100
AcDbEntity
  8
E-2
  6
Continuous
 62
     3
370
     9
100
AcDbLine
 10
-566.8759052427965
 20
11.81599960875726
 30
0.0
 11
-566.8759052427965
 21
105.8159138296188
 31
0.0
  0
LINE
  5
155
330
1F
100
AcDbEntity
  8
E-2
  6
Continuous
 62
     3
370
     9
100
AcDbLine
 10
-566.8759052427965
 20
-35.18385522654672
 30
0.0
 11
-566.8759052427965
 21
5.815831349677971
 31
0.0
  0
LINE
  5
156
330
1F
100
AcDbEntity
  8
E-2
  6
Continuous
 62
     3
370
     9
100
AcDbLine
 10
-566.8759052427965
 20
411.8157356729466
 30
0.0
 11
-566.8759052427965
 21
454.3156498938082
 31
0.0
  0
LINE
  5
157
330
1F
100
AcDbEntity
  8
E-2
  6
Continuous
 62
     3
370
     9
100
AcDbLine
 10
-556.8760207147137
 20
311.8160985846863
 30
0.0
 11
-556.8760207147137
 21
405.8157158777608
 31
0.0
  0
LINE
  5
158
330
1F
100
AcDbEntity
  8
E-2
  6
Continuous
 62
     3
370
     9
100
AcDbLine
 10
-556.8760207147137
 20
211.8160161047456
 30
0.0
 11
-556.8760207147137
 21
305.815930325607
 31
0.0
  0
LINE
  5
159
330
1F
100
AcDbEntity
  8
E-2
  6
Continuous
 62
     3
370
     9
100
AcDbLine
 10
-556.8760207147137
 20
111.8160078567514
 30
0.0
 11
-556.8760207147137
 21
205.815922077613
 31
0.0
  0
LINE
  5
15A
330
1F
100
AcDbEntity
  8
E-2
  6
Continuous
 62
     3
370
     9
100
AcDbLine
 10
-556.8760207147137
 20
11.81599960875726
 30
0.0
 11
-556.8760207147137
 21
105.8159138296188
 31
0.0
  0
LINE
  5
15B
330
1F
100
AcDbEntity
  8
E-2
  6
Continuous
 62
     3
370
     9
100
AcDbLine
 10
-556.8760207147137
 20
-35.18385522654672
 30
0.0
 11
-556.8760207147137
 21
5.815831349677971
 31
0.0
  0
LINE
  5
15C
330
1F
100
AcDbEntity
  8
E-2
  6
Continuous
 62
     3
370
     9
100
AcDbLine
 10
-556.8760207147137
 20
411.8157356729466
 30
0.0
 11
-556.8760207147137
 21
454.3156498938082
 31
0.0
  0
LINE
  5
15D
330
1F
100
AcDbEntity
  8
E-2
  6
Continuous
 62
     3
370
     9
100
AcDbLine
 10
-551.8759052427965
 20
311.8160985846863
 30
0.0
 11
-551.8759052427965
 21
405.8157158777608
 31
0.0
  0
LINE
  5
15E
330
1F
100
AcDbEntity
  8
E-2
  6
Continuous
 62
     3
370
     9
100
AcDbLine
 10
-551.8759052427965
 20
211.8160161047456
 30
0.0
 11
-551.8759052427965
 21
305.815930325607
 31
0.0
  0
LINE
  5
15F
330
1F
100
AcDbEntity
  8
E-2
  6
Continuous
 62
     3
370
     9
100
AcDbLine
 10
-551.8759052427965
 20
111.8160078567514
 30
0.0
 11
-551.8759052427965
 21
205.815922077613
 31
0.0
  0
LINE
  5
160
330
1F
100
AcDbEntity
  8
E-2
  6
Continuous
 62
     3
370
     9
100
AcDbLine
 10
-551.8759052427965
 20
11.81599960875726
 30
0.0
 11
-551.8759052427965
 21
105.8159138296188
 31
0.0
  0
LINE
  5
161
330
1F
100
AcDbEntity
  8
E-2
  6
Continuous
 62
     3
370
     9
100
AcDbLine
 10
-551.8759052427965
 20
-35.18385522654672
 30
0.0
 11
-551.8759052427965
 21
5.815831349677971
 31
0.0
  0
LINE
  5
162
330
1F
100
AcDbEntity
  8
E-2
  6
Continuous
 62
     3
370
     9
100
AcDbLine
 10
-551.8759052427965
 20
411.8157356729466
 30
0.0
 11
-551.8759052427965
 21
454.3156498938082
 31
0.0
  0
LINE
  5
163
330
1F
100
AcDbEntity
  8
E-2
  6
Continuous
 62
     3
370
     9
100
AcDbLine
 10
-541.8760207147137
 20
311.8160985846863
 30
0.0
 11
-541.8760207147137
 21
405.8157158777608
 31
0.0
  0
LINE
  5
164
330
1F
100
AcDbEntity
  8
E-2
  6
Continuous
 62
     3
370
     9
100
AcDbLine
 10
-541.8760207147137
 20
211.8160161047456
 30
0.0
 11
-541.8760207147137
 21
305.815930325607
 31
0.0
  0
LINE
  5
165
330
1F
100
AcDbEntity
  8
E-2
  6
Continuous
 62
     3
370
     9
100
AcDbLine
 10
-541.8760207147137
 20
111.8160078567514
 30
0.0
 11
-541.8760207147137
 21
205.815922077613
 31
0.0
  0
LINE
  5
166
330
1F
100
AcDbEntity
  8
E-2
  6
Continuous
 62
     3
370
     9
100
AcDbLine
 10
-541.8760207147137
 20
11.81599960875726
 30
0.0
 11
-541.8760207147137
 21
105.8159138296188
 31
0.0
  0
LINE
  5
167
330
1F
100
AcDbEntity
  8
E-2
  6
Continuous
 62
     3
370
     9
100
AcDbLine
 10
-541.8760207147137
 20
-35.18385522654672
 30
0.0
 11
-541.8760207147137
 21
5.815831349677971
 31
0.0
  0
LINE
  5
168
330
1F
100
AcDbEntity
  8
E-2
  6
Continuous
 62
     3
370
     9
100
AcDbLine
 10
-541.8760207147137
 20
411.8157356729466
 30
0.0
 11
-541.8760207147137
 21
454.3156498938082
 31
0.0
  0
LINE
  5
169
330
1F
100
AcDbEntity
  8
E-2
  6
Continuous
 62
     3
370
     9
100
AcDbLine
 10
-536.8759052427965
 20
311.8160985846863
 30
0.0
 11
-536.8759052427965
 21
405.8157158777608
 31
0.0
  0
LINE
  5
16A
330
1F
100
AcDbEntity
  8
E-2
  6
Continuous
 62
     3
370
     9
100
AcDbLine
 10
-536.8759052427965
 20
211.8160161047456
 30
0.0
 11
-536.8759052427965
 21
305.815930325607
 31
0.0
  0
LINE
  5
16B
330
1F
100
AcDbEntity
  8
E-2
  6
Continuous
 62
     3
370
     9
100
AcDbLine
 10
-536.8759052427965
 20
111.8160078567514
 30
0.0
 11
-536.8759052427965
 21
205.815922077613
 31
0.0
  0
LINE
  5
16C
330
1F
100
AcDbEntity
  8
E-2
  6
Continuous
 62
     3
370
     9
100
AcDbLine
 10
-536.8759052427965
 20
11.81599960875726
 30
0.0
 11
-536.8759052427965
 21
105.8159138296188
 31
0.0
  0
LINE
  5
16D
330
1F
100
AcDbEntity
  8
E-2
  6
Continuous
 62
     3
370
     9
100
AcDbLine
 10
-536.8759052427965
 20
-35.18385522654672
 30
0.0
 11
-536.8759052427965
 21
5.815831349677971
 31
0.0
  0
LINE
  5
16E
330
1F
100
AcDbEntity
  8
E-2
  6
Continuous
 62
     3
370
     9
100
AcDbLine
 10
-536.8759052427965
 20
411.8157356729466
 30
0.0
 11
-536.8759052427965
 21
454.3156498938082
 31
0.0
  0
LINE
  5
16F
330
1F
100
AcDbEntity
  8
E-2
  6
Continuous
 62
     3
370
     9
100
AcDbLine
 10
-526.8760207147137
 20
311.8160985846863
 30
0.0
 11
-526.8760207147137
 21
405.8157158777608
 31
0.0
  0
LINE
  5
170
330
1F
100
AcDbEntity
  8
E-2
  6
Continuous
 62
     3
370
     9
100
AcDbLine
 10
-526.8760207147137
 20
211.8160161047456
 30
0.0
 11
-526.8760207147137
 21
305.815930325607
 31
0.0
  0
LINE
  5
171
330
1F
100
AcDbEntity
  8
E-2
  6
Continuous
 62
     3
370
     9
100
AcDbLine
 10
-526.8760207147137
 20
111.8160078567514
 30
0.0
 11
-526.8760207147137
 21
205.815922077613
 31
0.0
  0
LINE
  5
172
330
1F
100
AcDbEntity
  8
E-2
  6
Continuous
 62
     3
370
     9
100
AcDbLine
 10
-526.8760207147137
 20
11.81599960875726
 30
0.0
 11
-526.8760207147137
 21
105.8159138296188
 31
0.0
  0
LINE
  5
173
330
1F
100
AcDbEntity
  8
E-2
  6
Continuous
 62
     3
370
     9
100
AcDbLine
 10
-526.8760207147137
 20
-35.18385522654672
 30
0.0
 11
-526.8760207147137
 21
5.815831349677971
 31
0.0
  0
LINE
  5
174
330
1F
100
AcDbEntity
  8
E-2
  6
Continuous
 62
     3
370
     9
100
AcDbLine
 10
-526.8760207147137
 20
411.8157356729466
 30
0.0
 11
-526.8760207147137
 21
454.3156498938082
 31
0.0
  0
LINE
  5
175
330
1F
100
AcDbEntity
  8
E-2
  6
Continuous
 62
     3
370
     9
100
AcDbLine
 10
-521.8759052427965
 20
311.8160985846863
 30
0.0
 11
-521.8759052427965
 21
405.8157158777608
 31
0.0
  0
LINE
  5
176
330
1F
100
AcDbEntity
  8
E-2
  6
Continuous
 62
     3
370
     9
100
AcDbLine
 10
-521.8759052427965
 20
211.8160161047456
 30
0.0
 11
-521.8759052427965
 21
305.815930325607
 31
0.0
  0
LINE
  5
177
330
1F
100
AcDbEntity
  8
E-2
  6
Continuous
 62
     3
370
     9
100
AcDbLine
 10
-521.8759052427965
 20
111.8160078567514
 30
0.0
 11
-521.8759052427965
 21
205.815922077613
 31
0.0
  0
LINE
  5
178
330
1F
100
AcDbEntity
  8
E-2
  6
Continuous
 62
     3
370
     9
100
AcDbLine
 10
-521.8759052427965
 20
11.81599960875726
 30
0.0
 11
-521.8759052427965
 21
105.8159138296188
 31
0.0
  0
LINE
  5
179
330
1F
100
AcDbEntity
  8
E-2
  6
Continuous
 62
     3
370
     9
100
AcDbLine
 10
-521.8759052427965
 20
-35.18385522654672
 30
0.0
 11
-521.8759052427965
 21
5.815831349677971
 31
0.0
  0
LINE
  5
17A
330
1F
100
AcDbEntity
  8
E-2
  6
Continuous
 62
     3
370
     9
100
AcDbLine
 10
-521.8759052427965
 20
411.8157356729466
 30
0.0
 11
-521.8759052427965
 21
454.3156498938082
 31
0.0
  0
LINE
  5
17B
330
1F
100
AcDbEntity
  8
E-2
  6
Continuous
 62
     3
370
     9
100
AcDbLine
 10
-511.8760207147137
 20
311.8160985846863
 30
0.0
 11
-511.8760207147137
 21
405.8157158777608
 31
0.0
  0
LINE
  5
17C
330
1F
100
AcDbEntity
  8
E-2
  6
Continuous
 62
     3
370
     9
100
AcDbLine
 10
-511.8760207147137
 20
211.8160161047456
 30
0.0
 11
-511.8760207147137
 21
305.815930325607
 31
0.0
  0
LINE
  5
17D
330
1F
100
AcDbEntity
  8
E-2
  6
Continuous
 62
     3
370
     9
100
AcDbLine
 10
-511.8760207147137
 20
111.8160078567514
 30
0.0
 11
-511.8760207147137
 21
205.815922077613
 31
0.0
  0
LINE
  5
17E
330
1F
100
AcDbEntity
  8
E-2
  6
Continuous
 62
     3
370
     9
100
AcDbLine
 10
-511.8760207147137
 20
11.81599960875726
 30
0.0
 11
-511.8760207147137
 21
105.8159138296188
 31
0.0
  0
LINE
  5
17F
330
1F
100
AcDbEntity
  8
E-2
  6
Continuous
 62
     3
370
     9
100
AcDbLine
 10
-511.8760207147137
 20
-35.18385522654672
 30
0.0
 11
-511.8760207147137
 21
5.815831349677971
 31
0.0
  0
LINE
  5
180
330
1F
100
AcDbEntity
  8
E-2
  6
Continuous
 62
     3
370
     9
100
AcDbLine
 10
-511.8760207147137
 20
411.8157356729466
 30
0.0
 11
-511.8760207147137
 21
454.3156498938082
 31
0.0
  0
LINE
  5
181
330
1F
100
AcDbEntity
  8
E-2
  6
Continuous
 62
     3
370
     9
100
AcDbLine
 10
-506.8759052427965
 20
311.8160985846863
 30
0.0
 11
-506.8759052427965
 21
405.8157158777608
 31
0.0
  0
LINE
  5
182
330
1F
100
AcDbEntity
  8
E-2
  6
Continuous
 62
     3
370
     9
100
AcDbLine
 10
-506.8759052427965
 20
211.8160161047456
 30
0.0
 11
-506.8759052427965
 21
305.815930325607
 31
0.0
  0
LINE
  5
183
330
1F
100
AcDbEntity
  8
E-2
  6
Continuous
 62
     3
370
     9
100
AcDbLine
 10
-506.8759052427965
 20
111.8160078567514
 30
0.0
 11
-506.8759052427965
 21
205.815922077613
 31
0.0
  0
LINE
  5
184
330
1F
100
AcDbEntity
  8
E-2
  6
Continuous
 62
     3
370
     9
100
AcDbLine
 10
-506.8759052427965
 20
11.81599960875726
 30
0.0
 11
-506.8759052427965
 21
105.8159138296188
 31
0.0
  0
LINE
  5
185
330
1F
100
AcDbEntity
  8
E-2
  6
Continuous
 62
     3
370
     9
100
AcDbLine
 10
-506.8759052427965
 20
-35.18385522654672
 30
0.0
 11
-506.8759052427965
 21
5.815831349677971
 31
0.0
  0
LINE
  5
186
330
1F
100
AcDbEntity
  8
E-2
  6
Continuous
 62
     3
370
     9
100
AcDbLine
 10
-506.8759052427965
 20
411.8157356729466
 30
0.0
 11
-506.8759052427965
 21
454.3156498938082
 31
0.0
  0
LINE
  5
187
330
1F
100
AcDbEntity
  8
E-2
  6
Continuous
 62
     3
370
     9
100
AcDbLine
 10
-496.8760207147137
 20
311.8160985846863
 30
0.0
 11
-496.8760207147137
 21
405.8157158777608
 31
0.0
  0
LINE
  5
188
330
1F
100
AcDbEntity
  8
E-2
  6
Continuous
 62
     3
370
     9
100
AcDbLine
 10
-496.8760207147137
 20
211.8160161047456
 30
0.0
 11
-496.8760207147137
 21
305.815930325607
 31
0.0
  0
LINE
  5
189
330
1F
100
AcDbEntity
  8
E-2
  6
Continuous
 62
     3
370
     9
100
AcDbLine
 10
-496.8760207147137
 20
111.8160078567514
 30
0.0
 11
-496.8760207147137
 21
205.815922077613
 31
0.0
  0
LINE
  5
18A
330
1F
100
AcDbEntity
  8
E-2
  6
Continuous
 62
     3
370
     9
100
AcDbLine
 10
-496.8760207147137
 20
11.81599960875726
 30
0.0
 11
-496.8760207147137
 21
105.8159138296188
 31
0.0
  0
LINE
  5
18B
330
1F
100
AcDbEntity
  8
E-2
  6
Continuous
 62
     3
370
     9
100
AcDbLine
 10
-496.8760207147137
 20
-35.18385522654672
 30
0.0
 11
-496.8760207147137
 21
5.815831349677971
 31
0.0
  0
LINE
  5
18C
330
1F
100
AcDbEntity
  8
E-2
  6
Continuous
 62
     3
370
     9
100
AcDbLine
 10
-496.8760207147137
 20
411.8157356729466
 30
0.0
 11
-496.8760207147137
 21
454.3156498938082
 31
0.0
  0
LINE
  5
18D
330
1F
100
AcDbEntity
  8
E-2
  6
Continuous
 62
     3
370
     9
100
AcDbLine
 10
-491.8759052427965
 20
311.8160985846863
 30
0.0
 11
-491.8759052427965
 21
405.8157158777608
 31
0.0
  0
LINE
  5
18E
330
1F
100
AcDbEntity
  8
E-2
  6
Continuous
 62
     3
370
     9
100
AcDbLine
 10
-491.8759052427965
 20
211.8160161047456
 30
0.0
 11
-491.8759052427965
 21
305.815930325607
 31
0.0
  0
LINE
  5
18F
330
1F
100
AcDbEntity
  8
E-2
  6
Continuous
 62
     3
370
     9
100
AcDbLine
 10
-491.8759052427965
 20
111.8160078567514
 30
0.0
 11
-491.8759052427965
 21
205.815922077613
 31
0.0
  0
LINE
  5
190
330
1F
100
AcDbEntity
  8
E-2
  6
Continuous
 62
     3
370
     9
100
AcDbLine
 10
-491.8759052427965
 20
11.81599960875726
 30
0.0
 11
-491.8759052427965
 21
105.8159138296188
 31
0.0
  0
LINE
  5
191
330
1F
100
AcDbEntity
  8
E-2
  6
Continuous
 62
     3
370
     9
100
AcDbLine
 10
-491.8759052427965
 20
-35.18385522654672
 30
0.0
 11
-491.8759052427965
 21
5.815831349677971
 31
0.0
  0
LINE
  5
192
330
1F
100
AcDbEntity
  8
E-2
  6
Continuous
 62
     3
370
     9
100
AcDbLine
 10
-491.8759052427965
 20
411.8157356729466
 30
0.0
 11
-491.8759052427965
 21
454.3156498938082
 31
0.0
  0
LINE
  5
193
330
1F
100
AcDbEntity
  8
E-2
  6
Continuous
 62
     3
370
     9
100
AcDbLine
 10
-481.8760207147137
 20
311.8160985846863
 30
0.0
 11
-481.8760207147137
 21
405.8157158777608
 31
0.0
  0
LINE
  5
194
330
1F
100
AcDbEntity
  8
E-2
  6
Continuous
 62
     3
370
     9
100
AcDbLine
 10
-481.8760207147137
 20
211.8160161047456
 30
0.0
 11
-481.8760207147137
 21
305.815930325607
 31
0.0
  0
LINE
  5
195
330
1F
100
AcDbEntity
  8
E-2
  6
Continuous
 62
     3
370
     9
100
AcDbLine
 10
-481.8760207147137
 20
111.8160078567514
 30
0.0
 11
-481.8760207147137
 21
205.815922077613
 31
0.0
  0
LINE
  5
196
330
1F
100
AcDbEntity
  8
E-2
  6
Continuous
 62
     3
370
     9
100
AcDbLine
 10
-481.8760207147137
 20
11.81599960875726
 30
0.0
 11
-481.8760207147137
 21
105.8159138296188
 31
0.0
  0
LINE
  5
197
330
1F
100
AcDbEntity
  8
E-2
  6
Continuous
 62
     3
370
     9
100
AcDbLine
 10
-481.8760207147137
 20
-35.18385522654672
 30
0.0
 11
-481.8760207147137
 21
5.815831349677971
 31
0.0
  0
LINE
  5
198
330
1F
100
AcDbEntity
  8
E-2
  6
Continuous
 62
     3
370
     9
100
AcDbLine
 10
-481.8760207147137
 20
411.8157356729466
 30
0.0
 11
-481.8760207147137
 21
454.3156498938082
 31
0.0
  0
LINE
  5
199
330
1F
100
AcDbEntity
  8
E-2
  6
Continuous
 62
     3
370
     9
100
AcDbLine
 10
-476.8759052427965
 20
311.8160985846863
 30
0.0
 11
-476.8759052427965
 21
405.8157158777608
 31
0.0
  0
LINE
  5
19A
330
1F
100
AcDbEntity
  8
E-2
  6
Continuous
 62
     3
370
     9
100
AcDbLine
 10
-476.8759052427965
 20
211.8160161047456
 30
0.0
 11
-476.8759052427965
 21
305.815930325607
 31
0.0
  0
LINE
  5
19B
330
1F
100
AcDbEntity
  8
E-2
  6
Continuous
 62
     3
370
     9
100
AcDbLine
 10
-476.8759052427965
 20
111.8160078567514
 30
0.0
 11
-476.8759052427965
 21
205.815922077613
 31
0.0
  0
LINE
  5
19C
330
1F
100
AcDbEntity
  8
E-2
  6
Continuous
 62
     3
370
     9
100
AcDbLine
 10
-476.8759052427965
 20
11.81599960875726
 30
0.0
 11
-476.8759052427965
 21
105.8159138296188
 31
0.0
  0
LINE
  5
19D
330
1F
100
AcDbEntity
  8
E-2
  6
Continuous
 62
     3
370
     9
100
AcDbLine
 10
-476.8759052427965
 20
-35.18385522654672
 30
0.0
 11
-476.8759052427965
 21
5.815831349677971
 31
0.0
  0
LINE
  5
19E
330
1F
100
AcDbEntity
  8
E-2
  6
Continuous
 62
     3
370
     9
100
AcDbLine
 10
-476.8759052427965
 20
411.8157356729466
 30
0.0
 11
-476.8759052427965
 21
454.3156498938082
 31
0.0
  0
LINE
  5
19F
330
1F
100
AcDbEntity
  8
E-2
  6
Continuous
 62
     3
370
     9
100
AcDbLine
 10
-466.8760207147137
 20
311.8160985846863
 30
0.0
 11
-466.8760207147137
 21
405.8157158777608
 31
0.0
  0
LINE
  5
1A0
330
1F
100
AcDbEntity
  8
E-2
  6
Continuous
 62
     3
370
     9
100
AcDbLine
 10
-466.8760207147137
 20
211.8160161047456
 30
0.0
 11
-466.8760207147137
 21
305.815930325607
 31
0.0
  0
LINE
  5
1A1
330
1F
100
AcDbEntity
  8
E-2
  6
Continuous
 62
     3
370
     9
100
AcDbLine
 10
-466.8760207147137
 20
111.8160078567514
 30
0.0
 11
-466.8760207147137
 21
205.815922077613
 31
0.0
  0
LINE
  5
1A2
330
1F
100
AcDbEntity
  8
E-2
  6
Continuous
 62
     3
370
     9
100
AcDbLine
 10
-466.8760207147137
 20
11.81599960875726
 30
0.0
 11
-466.8760207147137
 21
105.8159138296188
 31
0.0
  0
LINE
  5
1A3
330
1F
100
AcDbEntity
  8
E-2
  6
Continuous
 62
     3
370
     9
100
AcDbLine
 10
-466.8760207147137
 20
-35.18385522654672
 30
0.0
 11
-466.8760207147137
 21
5.815831349677971
 31
0.0
  0
LINE
  5
1A4
330
1F
100
AcDbEntity
  8
E-2
  6
Continuous
 62
     3
370
     9
100
AcDbLine
 10
-466.8760207147137
 20
411.8157356729466
 30
0.0
 11
-466.8760207147137
 21
454.3156498938082
 31
0.0
  0
LINE
  5
1A5
330
1F
100
AcDbEntity
  8
E-2
  6
Continuous
 62
     3
370
     9
100
AcDbLine
 10
-461.8759052427965
 20
311.8160985846863
 30
0.0
 11
-461.8759052427965
 21
405.8157158777608
 31
0.0
  0
LINE
  5
1A6
330
1F
100
AcDbEntity
  8
E-2
  6
Continuous
 62
     3
370
     9
100
AcDbLine
 10
-461.8759052427965
 20
211.8160161047456
 30
0.0
 11
-461.8759052427965
 21
305.815930325607
 31
0.0
  0
LINE
  5
1A7
330
1F
100
AcDbEntity
  8
E-2
  6
Continuous
 62
     3
370
     9
100
AcDbLine
 10
-461.8759052427965
 20
111.8160078567514
 30
0.0
 11
-461.8759052427965
 21
205.815922077613
 31
0.0
  0
LINE
  5
1A8
330
1F
100
AcDbEntity
  8
E-2
  6
Continuous
 62
     3
370
     9
100
AcDbLine
 10
-461.8759052427965
 20
11.81599960875726
 30
0.0
 11
-461.8759052427965
 21
105.8159138296188
 31
0.0
  0
LINE
  5
1A9
330
1F
100
AcDbEntity
  8
E-2
  6
Continuous
 62
     3
370
     9
100
AcDbLine
 10
-461.8759052427965
 20
-35.18385522654672
 30
0.0
 11
-461.8759052427965
 21
5.815831349677971
 31
0.0
  0
LINE
  5
1AA
330
1F
100
AcDbEntity
  8
E-2
  6
Continuous
 62
     3
370
     9
100
AcDbLine
 10
-461.8759052427965
 20
411.8157356729466
 30
0.0
 11
-461.8759052427965
 21
454.3156498938082
 31
0.0
  0
LINE
  5
1AB
330
1F
100
AcDbEntity
  8
E-2
  6
Continuous
 62
     3
370
     9
100
AcDbLine
 10
-451.8760207147137
 20
311.8160985846863
 30
0.0
 11
-451.8760207147137
 21
405.8157158777608
 31
0.0
  0
LINE
  5
1AC
330
1F
100
AcDbEntity
  8
E-2
  6
Continuous
 62
     3
370
     9
100
AcDbLine
 10
-451.8760207147137
 20
211.8160161047456
 30
0.0
 11
-451.8760207147137
 21
305.815930325607
 31
0.0
  0
LINE
  5
1AD
330
1F
100
AcDbEntity
  8
E-2
  6
Continuous
 62
     3
370
     9
100
AcDbLine
 10
-451.8760207147137
 20
111.8160078567514
 30
0.0
 11
-451.8760207147137
 21
205.815922077613
 31
0.0
  0
LINE
  5
1AE
330
1F
100
AcDbEntity
  8
E-2
  6
Continuous
 62
     3
370
     9
100
AcDbLine
 10
-451.8760207147137
 20
11.81599960875726
 30
0.0
 11
-451.8760207147137
 21
105.8159138296188
 31
0.0
  0
LINE
  5
1AF
330
1F
100
AcDbEntity
  8
E-2
  6
Continuous
 62
     3
370
     9
100
AcDbLine
 10
-451.8760207147137
 20
-35.18385522654672
 30
0.0
 11
-451.8760207147137
 21
5.815831349677971
 31
0.0
  0
LINE
  5
1B0
330
1F
100
AcDbEntity
  8
E-2
  6
Continuous
 62
     3
370
     9
100
AcDbLine
 10
-451.8760207147137
 20
411.8157356729466
 30
0.0
 11
-451.8760207147137
 21
454.3156498938082
 31
0.0
  0
LINE
  5
1B1
330
1F
100
AcDbEntity
  8
E-2
  6
Continuous
 62
     3
370
     9
100
AcDbLine
 10
-446.8759052427965
 20
311.8160985846863
 30
0.0
 11
-446.8759052427965
 21
405.8157158777608
 31
0.0
  0
LINE
  5
1B2
330
1F
100
AcDbEntity
  8
E-2
  6
Continuous
 62
     3
370
     9
100
AcDbLine
 10
-446.8759052427965
 20
211.8160161047456
 30
0.0
 11
-446.8759052427965
 21
305.815930325607
 31
0.0
  0
LINE
  5
1B3
330
1F
100
AcDbEntity
  8
E-2
  6
Continuous
 62
     3
370
     9
100
AcDbLine
 10
-446.8759052427965
 20
111.8160078567514
 30
0.0
 11
-446.8759052427965
 21
205.815922077613
 31
0.0
  0
LINE
  5
1B4
330
1F
100
AcDbEntity
  8
E-2
  6
Continuous
 62
     3
370
     9
100
AcDbLine
 10
-446.8759052427965
 20
11.81599960875726
 30
0.0
 11
-446.8759052427965
 21
105.8159138296188
 31
0.0
  0
LINE
  5
1B5
330
1F
100
AcDbEntity
  8
E-2
  6
Continuous
 62
     3
370
     9
100
AcDbLine
 10
-446.8759052427965
 20
-35.18385522654672
 30
0.0
 11
-446.8759052427965
 21
5.815831349677971
 31
0.0
  0
LINE
  5
1B6
330
1F
100
AcDbEntity
  8
E-2
  6
Continuous
 62
     3
370
     9
100
AcDbLine
 10
-446.8759052427965
 20
411.8157356729466
 30
0.0
 11
-446.8759052427965
 21
454.3156498938082
 31
0.0
  0
LINE
  5
1B7
330
1F
100
AcDbEntity
  8
E-2
  6
Continuous
 62
     3
370
     9
100
AcDbLine
 10
-436.8760207147137
 20
311.8160985846863
 30
0.0
 11
-436.8760207147137
 21
405.8157158777608
 31
0.0
  0
LINE
  5
1B8
330
1F
100
AcDbEntity
  8
E-2
  6
Continuous
 62
     3
370
     9
100
AcDbLine
 10
-436.8760207147137
 20
211.8160161047456
 30
0.0
 11
-436.8760207147137
 21
305.815930325607
 31
0.0
  0
LINE
  5
1B9
330
1F
100
AcDbEntity
  8
E-2
  6
Continuous
 62
     3
370
     9
100
AcDbLine
 10
-436.8760207147137
 20
111.8160078567514
 30
0.0
 11
-436.8760207147137
 21
205.815922077613
 31
0.0
  0
LINE
  5
1BA
330
1F
100
AcDbEntity
  8
E-2
  6
Continuous
 62
     3
370
     9
100
AcDbLine
 10
-436.8760207147137
 20
11.81599960875726
 30
0.0
 11
-436.8760207147137
 21
105.8159138296188
 31
0.0
  0
LINE
  5
1BB
330
1F
100
AcDbEntity
  8
E-2
  6
Continuous
 62
     3
370
     9
100
AcDbLine
 10
-436.8760207147137
 20
-35.18385522654672
 30
0.0
 11
-436.8760207147137
 21
5.815831349677971
 31
0.0
  0
LINE
  5
1BC
330
1F
100
AcDbEntity
  8
E-2
  6
Continuous
 62
     3
370
     9
100
AcDbLine
 10
-436.8760207147137
 20
411.8157356729466
 30
0.0
 11
-436.8760207147137
 21
454.3156498938082
 31
0.0
  0
LINE
  5
1BD
330
1F
100
AcDbEntity
  8
E-2
  6
Continuous
 62
     3
370
     9
100
AcDbLine
 10
-431.8759052427965
 20
311.8160985846863
 30
0.0
 11
-431.8759052427965
 21
405.8157158777608
 31
0.0
  0
LINE
  5
1BE
330
1F
100
AcDbEntity
  8
E-2
  6
Continuous
 62
     3
370
     9
100
AcDbLine
 10
-431.8759052427965
 20
211.8160161047456
 30
0.0
 11
-431.8759052427965
 21
305.815930325607
 31
0.0
  0
LINE
  5
1BF
330
1F
100
AcDbEntity
  8
E-2
  6
Continuous
 62
     3
370
     9
100
AcDbLine
 10
-431.8759052427965
 20
111.8160078567514
 30
0.0
 11
-431.8759052427965
 21
205.815922077613
 31
0.0
  0
LINE
  5
1C0
330
1F
100
AcDbEntity
  8
E-2
  6
Continuous
 62
     3
370
     9
100
AcDbLine
 10
-431.8759052427965
 20
11.81599960875726
 30
0.0
 11
-431.8759052427965
 21
105.8159138296188
 31
0.0
  0
LINE
  5
1C1
330
1F
100
AcDbEntity
  8
E-2
  6
Continuous
 62
     3
370
     9
100
AcDbLine
 10
-431.8759052427965
 20
-35.18385522654672
 30
0.0
 11
-431.8759052427965
 21
5.815831349677971
 31
0.0
  0
LINE
  5
1C2
330
1F
100
AcDbEntity
  8
E-2
  6
Continuous
 62
     3
370
     9
100
AcDbLine
 10
-431.8759052427965
 20
411.8157356729466
 30
0.0
 11
-431.8759052427965
 21
454.3156498938082
 31
0.0
  0
LINE
  5
1C3
330
1F
100
AcDbEntity
  8
E-2
  6
Continuous
 62
     3
370
     9
100
AcDbLine
 10
-421.8760207147137
 20
311.8160985846863
 30
0.0
 11
-421.8760207147137
 21
405.8157158777608
 31
0.0
  0
LINE
  5
1C4
330
1F
100
AcDbEntity
  8
E-2
  6
Continuous
 62
     3
370
     9
100
AcDbLine
 10
-421.8760207147137
 20
211.8160161047456
 30
0.0
 11
-421.8760207147137
 21
305.815930325607
 31
0.0
  0
LINE
  5
1C5
330
1F
100
AcDbEntity
  8
E-2
  6
Continuous
 62
     3
370
     9
100
AcDbLine
 10
-421.8760207147137
 20
111.8160078567514
 30
0.0
 11
-421.8760207147137
 21
205.815922077613
 31
0.0
  0
LINE
  5
1C6
330
1F
100
AcDbEntity
  8
E-2
  6
Continuous
 62
     3
370
     9
100
AcDbLine
 10
-421.8760207147137
 20
11.81599960875726
 30
0.0
 11
-421.8760207147137
 21
105.8159138296188
 31
0.0
  0
LINE
  5
1C7
330
1F
100
AcDbEntity
  8
E-2
  6
Continuous
 62
     3
370
     9
100
AcDbLine
 10
-421.8760207147137
 20
-35.18385522654672
 30
0.0
 11
-421.8760207147137
 21
5.815831349677971
 31
0.0
  0
LINE
  5
1C8
330
1F
100
AcDbEntity
  8
E-2
  6
Continuous
 62
     3
370
     9
100
AcDbLine
 10
-421.8760207147137
 20
411.8157356729466
 30
0.0
 11
-421.8760207147137
 21
454.3156498938082
 31
0.0
  0
LINE
  5
1C9
330
1F
100
AcDbEntity
  8
E-2
  6
Continuous
 62
     3
370
     9
100
AcDbLine
 10
-416.8759052427965
 20
311.8160985846863
 30
0.0
 11
-416.8759052427965
 21
405.8157158777608
 31
0.0
  0
LINE
  5
1CA
330
1F
100
AcDbEntity
  8
E-2
  6
Continuous
 62
     3
370
     9
100
AcDbLine
 10
-416.8759052427965
 20
211.8160161047456
 30
0.0
 11
-416.8759052427965
 21
305.815930325607
 31
0.0
  0
LINE
  5
1CB
330
1F
100
AcDbEntity
  8
E-2
  6
Continuous
 62
     3
370
     9
100
AcDbLine
 10
-416.8759052427965
 20
111.8160078567514
 30
0.0
 11
-416.8759052427965
 21
205.815922077613
 31
0.0
  0
LINE
  5
1CC
330
1F
100
AcDbEntity
  8
E-2
  6
Continuous
 62
     3
370
     9
100
AcDbLine
 10
-416.8759052427965
 20
11.81599960875726
 30
0.0
 11
-416.8759052427965
 21
105.8159138296188
 31
0.0
  0
LINE
  5
1CD
330
1F
100
AcDbEntity
  8
E-2
  6
Continuous
 62
     3
370
     9
100
AcDbLine
 10
-416.8759052427965
 20
-35.18385522654672
 30
0.0
 11
-416.8759052427965
 21
5.815831349677971
 31
0.0
  0
LINE
  5
1CE
330
1F
100
AcDbEntity
  8
E-2
  6
Continuous
 62
     3
370
     9
100
AcDbLine
 10
-416.8759052427965
 20
411.8157356729466
 30
0.0
 11
-416.8759052427965
 21
454.3156498938082
 31
0.0
  0
LINE
  5
1CF
330
1F
100
AcDbEntity
  8
E-2
  6
Continuous
 62
     3
370
     9
100
AcDbLine
 10
-406.8760207147137
 20
311.8160985846863
 30
0.0
 11
-406.8760207147137
 21
405.8157158777608
 31
0.0
  0
LINE
  5
1D0
330
1F
100
AcDbEntity
  8
E-2
  6
Continuous
 62
     3
370
     9
100
AcDbLine
 10
-406.8760207147137
 20
211.8160161047456
 30
0.0
 11
-406.8760207147137
 21
305.815930325607
 31
0.0
  0
LINE
  5
1D1
330
1F
100
AcDbEntity
  8
E-2
  6
Continuous
 62
     3
370
     9
100
AcDbLine
 10
-406.8760207147137
 20
111.8160078567514
 30
0.0
 11
-406.8760207147137
 21
205.815922077613
 31
0.0
  0
LINE
  5
1D2
330
1F
100
AcDbEntity
  8
E-2
  6
Continuous
 62
     3
370
     9
100
AcDbLine
 10
-406.8760207147137
 20
11.81599960875726
 30
0.0
 11
-406.8760207147137
 21
105.8159138296188
 31
0.0
  0
LINE
  5
1D3
330
1F
100
AcDbEntity
  8
E-2
  6
Continuous
 62
     3
370
     9
100
AcDbLine
 10
-406.8760207147137
 20
-35.18385522654672
 30
0.0
 11
-406.8760207147137
 21
5.815831349677971
 31
0.0
  0
LINE
  5
1D4
330
1F
100
AcDbEntity
  8
E-2
  6
Continuous
 62
     3
370
     9
100
AcDbLine
 10
-406.8760207147137
 20
411.8157356729466
 30
0.0
 11
-406.8760207147137
 21
454.3156498938082
 31
0.0
  0
LINE
  5
1D5
330
1F
100
AcDbEntity
  8
E-2
  6
Continuous
 62
     3
370
     9
100
AcDbLine
 10
-401.8759052427965
 20
311.8160985846863
 30
0.0
 11
-401.8759052427965
 21
405.8157158777608
 31
0.0
  0
LINE
  5
1D6
330
1F
100
AcDbEntity
  8
E-2
  6
Continuous
 62
     3
370
     9
100
AcDbLine
 10
-401.8759052427965
 20
211.8160161047456
 30
0.0
 11
-401.8759052427965
 21
305.815930325607
 31
0.0
  0
LINE
  5
1D7
330
1F
100
AcDbEntity
  8
E-2
  6
Continuous
 62
     3
370
     9
100
AcDbLine
 10
-401.8759052427965
 20
111.8160078567514
 30
0.0
 11
-401.8759052427965
 21
205.815922077613
 31
0.0
  0
LINE
  5
1D8
330
1F
100
AcDbEntity
  8
E-2
  6
Continuous
 62
     3
370
     9
100
AcDbLine
 10
-401.8759052427965
 20
11.81599960875726
 30
0.0
 11
-401.8759052427965
 21
105.8159138296188
 31
0.0
  0
LINE
  5
1D9
330
1F
100
AcDbEntity
  8
E-2
  6
Continuous
 62
     3
370
     9
100
AcDbLine
 10
-401.8759052427965
 20
-35.18385522654672
 30
0.0
 11
-401.8759052427965
 21
5.815831349677971
 31
0.0
  0
LINE
  5
1DA
330
1F
100
AcDbEntity
  8
E-2
  6
Continuous
 62
     3
370
     9
100
AcDbLine
 10
-401.8759052427965
 20
411.8157356729466
 30
0.0
 11
-401.8759052427965
 21
454.3156498938082
 31
0.0
  0
LINE
  5
1DB
330
1F
100
AcDbEntity
  8
E-2
  6
Continuous
 62
     3
370
     9
100
AcDbLine
 10
-391.8760207147137
 20
311.8160985846863
 30
0.0
 11
-391.8760207147137
 21
405.8157158777608
 31
0.0
  0
LINE
  5
1DC
330
1F
100
AcDbEntity
  8
E-2
  6
Continuous
 62
     3
370
     9
100
AcDbLine
 10
-391.8760207147137
 20
211.8160161047456
 30
0.0
 11
-391.8760207147137
 21
305.815930325607
 31
0.0
  0
LINE
  5
1DD
330
1F
100
AcDbEntity
  8
E-2
  6
Continuous
 62
     3
370
     9
100
AcDbLine
 10
-391.8760207147137
 20
111.8160078567514
 30
0.0
 11
-391.8760207147137
 21
205.815922077613
 31
0.0
  0
LINE
  5
1DE
330
1F
100
AcDbEntity
  8
E-2
  6
Continuous
 62
     3
370
     9
100
AcDbLine
 10
-391.8760207147137
 20
11.81599960875726
 30
0.0
 11
-391.8760207147137
 21
105.8159138296188
 31
0.0
  0
LINE
  5
1DF
330
1F
100
AcDbEntity
  8
E-2
  6
Continuous
 62
     3
370
     9
100
AcDbLine
 10
-391.8760207147137
 20
-35.18385522654672
 30
0.0
 11
-391.8760207147137
 21
5.815831349677971
 31
0.0
  0
LINE
  5
1E0
330
1F
100
AcDbEntity
  8
E-2
  6
Continuous
 62
     3
370
     9
100
AcDbLine
 10
-391.8760207147137
 20
411.8157356729466
 30
0.0
 11
-391.8760207147137
 21
454.3156498938082
 31
0.0
  0
LINE
  5
1E1
330
1F
100
AcDbEntity
  8
E-2
  6
Continuous
 62
     3
370
     9
100
AcDbLine
 10
-386.8759052427965
 20
311.8160985846863
 30
0.0
 11
-386.8759052427965
 21
405.8157158777608
 31
0.0
  0
LINE
  5
1E2
330
1F
100
AcDbEntity
  8
E-2
  6
Continuous
 62
     3
370
     9
100
AcDbLine
 10
-386.8759052427965
 20
211.8160161047456
 30
0.0
 11
-386.8759052427965
 21
305.815930325607
 31
0.0
  0
LINE
  5
1E3
330
1F
100
AcDbEntity
  8
E-2
  6
Continuous
 62
     3
370
     9
100
AcDbLine
 10
-386.8759052427965
 20
111.8160078567514
 30
0.0
 11
-386.8759052427965
 21
205.815922077613
 31
0.0
  0
LINE
  5
1E4
330
1F
100
AcDbEntity
  8
E-2
  6
Continuous
 62
     3
370
     9
100
AcDbLine
 10
-386.8759052427965
 20
11.81599960875726
 30
0.0
 11
-386.8759052427965
 21
105.8159138296188
 31
0.0
  0
LINE
  5
1E5
330
1F
100
AcDbEntity
  8
E-2
  6
Continuous
 62
     3
370
     9
100
AcDbLine
 10
-386.8759052427965
 20
-35.18385522654672
 30
0.0
 11
-386.8759052427965
 21
5.815831349677971
 31
0.0
  0
LINE
  5
1E6
330
1F
100
AcDbEntity
  8
E-2
  6
Continuous
 62
     3
370
     9
100
AcDbLine
 10
-386.8759052427965
 20
411.8157356729466
 30
0.0
 11
-386.8759052427965
 21
454.3156498938082
 31
0.0
  0
LINE
  5
1E7
330
1F
100
AcDbEntity
  8
E-2
  6
Continuous
 62
     3
370
     9
100
AcDbLine
 10
-376.8760207147137
 20
311.8160985846863
 30
0.0
 11
-376.8760207147137
 21
405.8157158777608
 31
0.0
  0
LINE
  5
1E8
330
1F
100
AcDbEntity
  8
E-2
  6
Continuous
 62
     3
370
     9
100
AcDbLine
 10
-376.8760207147137
 20
211.8160161047456
 30
0.0
 11
-376.8760207147137
 21
305.815930325607
 31
0.0
  0
LINE
  5
1E9
330
1F
100
AcDbEntity
  8
E-2
  6
Continuous
 62
     3
370
     9
100
AcDbLine
 10
-376.8760207147137
 20
111.8160078567514
 30
0.0
 11
-376.8760207147137
 21
205.815922077613
 31
0.0
  0
LINE
  5
1EA
330
1F
100
AcDbEntity
  8
E-2
  6
Continuous
 62
     3
370
     9
100
AcDbLine
 10
-376.8760207147137
 20
11.81599960875726
 30
0.0
 11
-376.8760207147137
 21
105.8159138296188
 31
0.0
  0
LINE
  5
1EB
330
1F
100
AcDbEntity
  8
E-2
  6
Continuous
 62
     3
370
     9
100
AcDbLine
 10
-376.8760207147137
 20
-35.18385522654672
 30
0.0
 11
-376.8760207147137
 21
5.815831349677971
 31
0.0
  0
LINE
  5
1EC
330
1F
100
AcDbEntity
  8
E-2
  6
Continuous
 62
     3
370
     9
100
AcDbLine
 10
-376.8760207147137
 20
411.8157356729466
 30
0.0
 11
-376.8760207147137
 21
454.3156498938082
 31
0.0
  0
LINE
  5
1ED
330
1F
100
AcDbEntity
  8
E-2
  6
Continuous
 62
     3
370
     9
100
AcDbLine
 10
-371.8759052427965
 20
311.8160985846863
 30
0.0
 11
-371.8759052427965
 21
405.8157158777608
 31
0.0
  0
LINE
  5
1EE
330
1F
100
AcDbEntity
  8
E-2
  6
Continuous
 62
     3
370
     9
100
AcDbLine
 10
-371.8759052427965
 20
211.8160161047456
 30
0.0
 11
-371.8759052427965
 21
305.815930325607
 31
0.0
  0
LINE
  5
1EF
330
1F
100
AcDbEntity
  8
E-2
  6
Continuous
 62
     3
370
     9
100
AcDbLine
 10
-371.8759052427965
 20
111.8160078567514
 30
0.0
 11
-371.8759052427965
 21
205.815922077613
 31
0.0
  0
LINE
  5
1F0
330
1F
100
AcDbEntity
  8
E-2
  6
Continuous
 62
     3
370
     9
100
AcDbLine
 10
-371.8759052427965
 20
11.81599960875726
 30
0.0
 11
-371.8759052427965
 21
105.8159138296188
 31
0.0
  0
LINE
  5
1F1
330
1F
100
AcDbEntity
  8
E-2
  6
Continuous
 62
     3
370
     9
100
AcDbLine
 10
-371.8759052427965
 20
-35.18385522654672
 30
0.0
 11
-371.8759052427965
 21
5.815831349677971
 31
0.0
  0
LINE
  5
1F2
330
1F
100
AcDbEntity
  8
E-2
  6
Continuous
 62
     3
370
     9
100
AcDbLine
 10
-371.8759052427965
 20
411.8157356729466
 30
0.0
 11
-371.8759052427965
 21
454.3156498938082
 31
0.0
  0
LINE
  5
1F3
330
1F
100
AcDbEntity
  8
E-2
  6
Continuous
 62
     3
370
     9
100
AcDbLine
 10
-361.8760207147137
 20
311.8160985846863
 30
0.0
 11
-361.8760207147137
 21
405.8157158777608
 31
0.0
  0
LINE
  5
1F4
330
1F
100
AcDbEntity
  8
E-2
  6
Continuous
 62
     3
370
     9
100
AcDbLine
 10
-361.8760207147137
 20
211.8160161047456
 30
0.0
 11
-361.8760207147137
 21
305.815930325607
 31
0.0
  0
LINE
  5
1F5
330
1F
100
AcDbEntity
  8
E-2
  6
Continuous
 62
     3
370
     9
100
AcDbLine
 10
-361.8760207147137
 20
111.8160078567514
 30
0.0
 11
-361.8760207147137
 21
205.815922077613
 31
0.0
  0
LINE
  5
1F6
330
1F
100
AcDbEntity
  8
E-2
  6
Continuous
 62
     3
370
     9
100
AcDbLine
 10
-361.8760207147137
 20
11.81599960875726
 30
0.0
 11
-361.8760207147137
 21
105.8159138296188
 31
0.0
  0
LINE
  5
1F7
330
1F
100
AcDbEntity
  8
E-2
  6
Continuous
 62
     3
370
     9
100
AcDbLine
 10
-361.8760207147137
 20
-35.18385522654672
 30
0.0
 11
-361.8760207147137
 21
5.815831349677971
 31
0.0
  0
LINE
  5
1F8
330
1F
100
AcDbEntity
  8
E-2
  6
Continuous
 62
     3
370
     9
100
AcDbLine
 10
-361.8760207147137
 20
411.8157356729466
 30
0.0
 11
-361.8760207147137
 21
454.3156498938082
 31
0.0
  0
LINE
  5
1F9
330
1F
100
AcDbEntity
  8
E-2
  6
Continuous
 62
     3
370
     9
100
AcDbLine
 10
-356.8759052427965
 20
311.8160985846863
 30
0.0
 11
-356.8759052427965
 21
405.8157158777608
 31
0.0
  0
LINE
  5
1FA
330
1F
100
AcDbEntity
  8
E-2
  6
Continuous
 62
     3
370
     9
100
AcDbLine
 10
-356.8759052427965
 20
211.8160161047456
 30
0.0
 11
-356.8759052427965
 21
305.815930325607
 31
0.0
  0
LINE
  5
1FB
330
1F
100
AcDbEntity
  8
E-2
  6
Continuous
 62
     3
370
     9
100
AcDbLine
 10
-356.8759052427965
 20
111.8160078567514
 30
0.0
 11
-356.8759052427965
 21
205.815922077613
 31
0.0
  0
LINE
  5
1FC
330
1F
100
AcDbEntity
  8
E-2
  6
Continuous
 62
     3
370
     9
100
AcDbLine
 10
-356.8759052427965
 20
11.81599960875726
 30
0.0
 11
-356.8759052427965
 21
105.8159138296188
 31
0.0
  0
LINE
  5
1FD
330
1F
100
AcDbEntity
  8
E-2
  6
Continuous
 62
     3
370
     9
100
AcDbLine
 10
-356.8759052427965
 20
-35.18385522654672
 30
0.0
 11
-356.8759052427965
 21
5.815831349677971
 31
0.0
  0
LINE
  5
1FE
330
1F
100
AcDbEntity
  8
E-2
  6
Continuous
 62
     3
370
     9
100
AcDbLine
 10
-356.8759052427965
 20
411.8157356729466
 30
0.0
 11
-356.8759052427965
 21
454.3156498938082
 31
0.0
  0
LINE
  5
1FF
330
1F
100
AcDbEntity
  8
E-2
  6
Continuous
 62
     3
370
     9
100
AcDbLine
 10
-346.8760207147137
 20
311.8160985846863
 30
0.0
 11
-346.8760207147137
 21
405.8157158777608
 31
0.0
  0
LINE
  5
200
330
1F
100
AcDbEntity
  8
E-2
  6
Continuous
 62
     3
370
     9
100
AcDbLine
 10
-346.8760207147137
 20
211.8160161047456
 30
0.0
 11
-346.8760207147137
 21
305.815930325607
 31
0.0
  0
LINE
  5
201
330
1F
100
AcDbEntity
  8
E-2
  6
Continuous
 62
     3
370
     9
100
AcDbLine
 10
-346.8760207147137
 20
111.8160078567514
 30
0.0
 11
-346.8760207147137
 21
205.815922077613
 31
0.0
  0
LINE
  5
202
330
1F
100
AcDbEntity
  8
E-2
  6
Continuous
 62
     3
370
     9
100
AcDbLine
 10
-346.8760207147137
 20
11.81599960875726
 30
0.0
 11
-346.8760207147137
 21
105.8159138296188
 31
0.0
  0
LINE
  5
203
330
1F
100
AcDbEntity
  8
E-2
  6
Continuous
 62
     3
370
     9
100
AcDbLine
 10
-346.8760207147137
 20
-35.18385522654672
 30
0.0
 11
-346.8760207147137
 21
5.815831349677971
 31
0.0
  0
LINE
  5
204
330
1F
100
AcDbEntity
  8
E-2
  6
Continuous
 62
     3
370
     9
100
AcDbLine
 10
-346.8760207147137
 20
411.8157356729466
 30
0.0
 11
-346.8760207147137
 21
454.3156498938082
 31
0.0
  0
LINE
  5
205
330
1F
100
AcDbEntity
  8
E-2
  6
Continuous
 62
     3
370
     9
100
AcDbLine
 10
-341.8759052427965
 20
311.8160985846863
 30
0.0
 11
-341.8759052427965
 21
405.8157158777608
 31
0.0
  0
LINE
  5
206
330
1F
100
AcDbEntity
  8
E-2
  6
Continuous
 62
     3
370
     9
100
AcDbLine
 10
-341.8759052427965
 20
211.8160161047456
 30
0.0
 11
-341.8759052427965
 21
305.815930325607
 31
0.0
  0
LINE
  5
207
330
1F
100
AcDbEntity
  8
E-2
  6
Continuous
 62
     3
370
     9
100
AcDbLine
 10
-341.8759052427965
 20
111.8160078567514
 30
0.0
 11
-341.8759052427965
 21
205.815922077613
 31
0.0
  0
LINE
  5
208
330
1F
100
AcDbEntity
  8
E-2
  6
Continuous
 62
     3
370
     9
100
AcDbLine
 10
-341.8759052427965
 20
11.81599960875726
 30
0.0
 11
-341.8759052427965
 21
105.8159138296188
 31
0.0
  0
LINE
  5
209
330
1F
100
AcDbEntity
  8
E-2
  6
Continuous
 62
     3
370
     9
100
AcDbLine
 10
-341.8759052427965
 20
-35.18385522654672
 30
0.0
 11
-341.8759052427965
 21
5.815831349677971
 31
0.0
  0
LINE
  5
20A
330
1F
100
AcDbEntity
  8
E-2
  6
Continuous
 62
     3
370
     9
100
AcDbLine
 10
-341.8759052427965
 20
411.8157356729466
 30
0.0
 11
-341.8759052427965
 21
454.3156498938082
 31
0.0
  0
LINE
  5
20B
330
1F
100
AcDbEntity
  8
E-2
  6
Continuous
 62
     3
370
     9
100
AcDbLine
 10
-331.8760207147137
 20
311.8160985846863
 30
0.0
 11
-331.8760207147137
 21
405.8157158777608
 31
0.0
  0
LINE
  5
20C
330
1F
100
AcDbEntity
  8
E-2
  6
Continuous
 62
     3
370
     9
100
AcDbLine
 10
-331.8760207147137
 20
211.8160161047456
 30
0.0
 11
-331.8760207147137
 21
305.815930325607
 31
0.0
  0
LINE
  5
20D
330
1F
100
AcDbEntity
  8
E-2
  6
Continuous
 62
     3
370
     9
100
AcDbLine
 10
-331.8760207147137
 20
111.8160078567514
 30
0.0
 11
-331.8760207147137
 21
205.815922077613
 31
0.0
  0
LINE
  5
20E
330
1F
100
AcDbEntity
  8
E-2
  6
Continuous
 62
     3
370
     9
100
AcDbLine
 10
-331.8760207147137
 20
11.81599960875726
 30
0.0
 11
-331.8760207147137
 21
105.8159138296188
 31
0.0
  0
LINE
  5
20F
330
1F
100
AcDbEntity
  8
E-2
  6
Continuous
 62
     3
370
     9
100
AcDbLine
 10
-331.8760207147137
 20
-35.18385522654672
 30
0.0
 11
-331.8760207147137
 21
5.815831349677971
 31
0.0
  0
LINE
  5
210
330
1F
100
AcDbEntity
  8
E-2
  6
Continuous
 62
     3
370
     9
100
AcDbLine
 10
-331.8760207147137
 20
411.8157356729466
 30
0.0
 11
-331.8760207147137
 21
454.3156498938082
 31
0.0
  0
LINE
  5
211
330
1F
100
AcDbEntity
  8
E-2
  6
Continuous
 62
     3
370
     9
100
AcDbLine
 10
-326.8759052427965
 20
311.8160985846863
 30
0.0
 11
-326.8759052427965
 21
405.8157158777608
 31
0.0
  0
LINE
  5
212
330
1F
100
AcDbEntity
  8
E-2
  6
Continuous
 62
     3
370
     9
100
AcDbLine
 10
-326.8759052427965
 20
211.8160161047456
 30
0.0
 11
-326.8759052427965
 21
305.815930325607
 31
0.0
  0
LINE
  5
213
330
1F
100
AcDbEntity
  8
E-2
  6
Continuous
 62
     3
370
     9
100
AcDbLine
 10
-326.8759052427965
 20
111.8160078567514
 30
0.0
 11
-326.8759052427965
 21
205.815922077613
 31
0.0
  0
LINE
  5
214
330
1F
100
AcDbEntity
  8
E-2
  6
Continuous
 62
     3
370
     9
100
AcDbLine
 10
-326.8759052427965
 20
11.81599960875726
 30
0.0
 11
-326.8759052427965
 21
105.8159138296188
 31
0.0
  0
LINE
  5
215
330
1F
100
AcDbEntity
  8
E-2
  6
Continuous
 62
     3
370
     9
100
AcDbLine
 10
-326.8759052427965
 20
-35.18385522654672
 30
0.0
 11
-326.8759052427965
 21
5.815831349677971
 31
0.0
  0
LINE
  5
216
330
1F
100
AcDbEntity
  8
E-2
  6
Continuous
 62
     3
370
     9
100
AcDbLine
 10
-326.8759052427965
 20
411.8157356729466
 30
0.0
 11
-326.8759052427965
 21
454.3156498938082
 31
0.0
  0
LINE
  5
217
330
1F
100
AcDbEntity
  8
E-2
  6
Continuous
 62
     3
370
     9
100
AcDbLine
 10
-316.8760207147137
 20
311.8160985846863
 30
0.0
 11
-316.8760207147137
 21
405.8157158777608
 31
0.0
  0
LINE
  5
218
330
1F
100
AcDbEntity
  8
E-2
  6
Continuous
 62
     3
370
     9
100
AcDbLine
 10
-316.8760207147137
 20
211.8160161047456
 30
0.0
 11
-316.8760207147137
 21
305.815930325607
 31
0.0
  0
LINE
  5
219
330
1F
100
AcDbEntity
  8
E-2
  6
Continuous
 62
     3
370
     9
100
AcDbLine
 10
-316.8760207147137
 20
111.8160078567514
 30
0.0
 11
-316.8760207147137
 21
205.815922077613
 31
0.0
  0
LINE
  5
21A
330
1F
100
AcDbEntity
  8
E-2
  6
Continuous
 62
     3
370
     9
100
AcDbLine
 10
-316.8760207147137
 20
11.81599960875726
 30
0.0
 11
-316.8760207147137
 21
105.8159138296188
 31
0.0
  0
LINE
  5
21B
330
1F
100
AcDbEntity
  8
E-2
  6
Continuous
 62
     3
370
     9
100
AcDbLine
 10
-316.8760207147137
 20
-35.18385522654672
 30
0.0
 11
-316.8760207147137
 21
5.815831349677971
 31
0.0
  0
LINE
  5
21C
330
1F
100
AcDbEntity
  8
E-2
  6
Continuous
 62
     3
370
     9
100
AcDbLine
 10
-316.8760207147137
 20
411.8157356729466
 30
0.0
 11
-316.8760207147137
 21
454.3156498938082
 31
0.0
  0
LINE
  5
21D
330
1F
100
AcDbEntity
  8
E-2
  6
Continuous
 62
     3
370
     9
100
AcDbLine
 10
-311.8759052427965
 20
311.8160985846863
 30
0.0
 11
-311.8759052427965
 21
405.8157158777608
 31
0.0
  0
LINE
  5
21E
330
1F
100
AcDbEntity
  8
E-2
  6
Continuous
 62
     3
370
     9
100
AcDbLine
 10
-311.8759052427965
 20
211.8160161047456
 30
0.0
 11
-311.8759052427965
 21
305.815930325607
 31
0.0
  0
LINE
  5
21F
330
1F
100
AcDbEntity
  8
E-2
  6
Continuous
 62
     3
370
     9
100
AcDbLine
 10
-311.8759052427965
 20
111.8160078567514
 30
0.0
 11
-311.8759052427965
 21
205.815922077613
 31
0.0
  0
LINE
  5
220
330
1F
100
AcDbEntity
  8
E-2
  6
Continuous
 62
     3
370
     9
100
AcDbLine
 10
-311.8759052427965
 20
11.81599960875726
 30
0.0
 11
-311.8759052427965
 21
105.8159138296188
 31
0.0
  0
LINE
  5
221
330
1F
100
AcDbEntity
  8
E-2
  6
Continuous
 62
     3
370
     9
100
AcDbLine
 10
-311.8759052427965
 20
-35.18385522654672
 30
0.0
 11
-311.8759052427965
 21
5.815831349677971
 31
0.0
  0
LINE
  5
222
330
1F
100
AcDbEntity
  8
E-2
  6
Continuous
 62
     3
370
     9
100
AcDbLine
 10
-311.8759052427965
 20
411.8157356729466
 30
0.0
 11
-311.8759052427965
 21
454.3156498938082
 31
0.0
  0
LINE
  5
223
330
1F
100
AcDbEntity
  8
E-2
  6
Continuous
 62
     3
370
     9
100
AcDbLine
 10
-301.8760207147137
 20
311.8160985846863
 30
0.0
 11
-301.8760207147137
 21
405.8157158777608
 31
0.0
  0
LINE
  5
224
330
1F
100
AcDbEntity
  8
E-2
  6
Continuous
 62
     3
370
     9
100
AcDbLine
 10
-301.8760207147137
 20
211.8160161047456
 30
0.0
 11
-301.8760207147137
 21
305.815930325607
 31
0.0
  0
LINE
  5
225
330
1F
100
AcDbEntity
  8
E-2
  6
Continuous
 62
     3
370
     9
100
AcDbLine
 10
-301.8760207147137
 20
111.8160078567514
 30
0.0
 11
-301.8760207147137
 21
205.815922077613
 31
0.0
  0
LINE
  5
226
330
1F
100
AcDbEntity
  8
E-2
  6
Continuous
 62
     3
370
     9
100
AcDbLine
 10
-301.8760207147137
 20
11.81599960875726
 30
0.0
 11
-301.8760207147137
 21
105.8159138296188
 31
0.0
  0
LINE
  5
227
330
1F
100
AcDbEntity
  8
E-2
  6
Continuous
 62
     3
370
     9
100
AcDbLine
 10
-301.8760207147137
 20
-35.18385522654672
 30
0.0
 11
-301.8760207147137
 21
5.815831349677971
 31
0.0
  0
LINE
  5
228
330
1F
100
AcDbEntity
  8
E-2
  6
Continuous
 62
     3
370
     9
100
AcDbLine
 10
-301.8760207147137
 20
411.8157356729466
 30
0.0
 11
-301.8760207147137
 21
454.3156498938082
 31
0.0
  0
LINE
  5
229
330
1F
100
AcDbEntity
  8
E-2
  6
Continuous
 62
     3
370
     9
100
AcDbLine
 10
-296.8759052427965
 20
311.8160985846863
 30
0.0
 11
-296.8759052427965
 21
405.8157158777608
 31
0.0
  0
LINE
  5
22A
330
1F
100
AcDbEntity
  8
E-2
  6
Continuous
 62
     3
370
     9
100
AcDbLine
 10
-296.8759052427965
 20
211.8160161047456
 30
0.0
 11
-296.8759052427965
 21
305.815930325607
 31
0.0
  0
LINE
  5
22B
330
1F
100
AcDbEntity
  8
E-2
  6
Continuous
 62
     3
370
     9
100
AcDbLine
 10
-296.8759052427965
 20
111.8160078567514
 30
0.0
 11
-296.8759052427965
 21
205.815922077613
 31
0.0
  0
LINE
  5
22C
330
1F
100
AcDbEntity
  8
E-2
  6
Continuous
 62
     3
370
     9
100
AcDbLine
 10
-296.8759052427965
 20
11.81599960875726
 30
0.0
 11
-296.8759052427965
 21
105.8159138296188
 31
0.0
  0
LINE
  5
22D
330
1F
100
AcDbEntity
  8
E-2
  6
Continuous
 62
     3
370
     9
100
AcDbLine
 10
-296.8759052427965
 20
-35.18385522654672
 30
0.0
 11
-296.8759052427965
 21
5.815831349677971
 31
0.0
  0
LINE
  5
22E
330
1F
100
AcDbEntity
  8
E-2
  6
Continuous
 62
     3
370
     9
100
AcDbLine
 10
-296.8759052427965
 20
411.8157356729466
 30
0.0
 11
-296.8759052427965
 21
454.3156498938082
 31
0.0
  0
LINE
  5
22F
330
1F
100
AcDbEntity
  8
E-2
  6
Continuous
 62
     3
370
     9
100
AcDbLine
 10
-286.8760207147137
 20
311.8160985846863
 30
0.0
 11
-286.8760207147137
 21
405.8157158777608
 31
0.0
  0
LINE
  5
230
330
1F
100
AcDbEntity
  8
E-2
  6
Continuous
 62
     3
370
     9
100
AcDbLine
 10
-286.8760207147137
 20
211.8160161047456
 30
0.0
 11
-286.8760207147137
 21
305.815930325607
 31
0.0
  0
LINE
  5
231
330
1F
100
AcDbEntity
  8
E-2
  6
Continuous
 62
     3
370
     9
100
AcDbLine
 10
-286.8760207147137
 20
111.8160078567514
 30
0.0
 11
-286.8760207147137
 21
205.815922077613
 31
0.0
  0
LINE
  5
232
330
1F
100
AcDbEntity
  8
E-2
  6
Continuous
 62
     3
370
     9
100
AcDbLine
 10
-286.8760207147137
 20
11.81599960875726
 30
0.0
 11
-286.8760207147137
 21
105.8159138296188
 31
0.0
  0
LINE
  5
233
330
1F
100
AcDbEntity
  8
E-2
  6
Continuous
 62
     3
370
     9
100
AcDbLine
 10
-286.8760207147137
 20
-35.18385522654672
 30
0.0
 11
-286.8760207147137
 21
5.815831349677971
 31
0.0
  0
LINE
  5
234
330
1F
100
AcDbEntity
  8
E-2
  6
Continuous
 62
     3
370
     9
100
AcDbLine
 10
-286.8760207147137
 20
411.8157356729466
 30
0.0
 11
-286.8760207147137
 21
454.3156498938082
 31
0.0
  0
LINE
  5
235
330
1F
100
AcDbEntity
  8
E-2
  6
Continuous
 62
     3
370
     9
100
AcDbLine
 10
-281.8759052427965
 20
311.8160985846863
 30
0.0
 11
-281.8759052427965
 21
405.8157158777608
 31
0.0
  0
LINE
  5
236
330
1F
100
AcDbEntity
  8
E-2
  6
Continuous
 62
     3
370
     9
100
AcDbLine
 10
-281.8759052427965
 20
211.8160161047456
 30
0.0
 11
-281.8759052427965
 21
305.815930325607
 31
0.0
  0
LINE
  5
237
330
1F
100
AcDbEntity
  8
E-2
  6
Continuous
 62
     3
370
     9
100
AcDbLine
 10
-281.8759052427965
 20
111.8160078567514
 30
0.0
 11
-281.8759052427965
 21
205.815922077613
 31
0.0
  0
LINE
  5
238
330
1F
100
AcDbEntity
  8
E-2
  6
Continuous
 62
     3
370
     9
100
AcDbLine
 10
-281.8759052427965
 20
11.81599960875726
 30
0.0
 11
-281.8759052427965
 21
105.8159138296188
 31
0.0
  0
LINE
  5
239
330
1F
100
AcDbEntity
  8
E-2
  6
Continuous
 62
     3
370
     9
100
AcDbLine
 10
-281.8759052427965
 20
-35.18385522654672
 30
0.0
 11
-281.8759052427965
 21
5.815831349677971
 31
0.0
  0
LINE
  5
23A
330
1F
100
AcDbEntity
  8
E-2
  6
Continuous
 62
     3
370
     9
100
AcDbLine
 10
-281.8759052427965
 20
411.8157356729466
 30
0.0
 11
-281.8759052427965
 21
454.3156498938082
 31
0.0
  0
LINE
  5
23B
330
1F
100
AcDbEntity
  8
E-2
  6
Continuous
 62
     3
370
     9
100
AcDbLine
 10
-271.8760207147137
 20
311.8160985846863
 30
0.0
 11
-271.8760207147137
 21
405.8157158777608
 31
0.0
  0
LINE
  5
23C
330
1F
100
AcDbEntity
  8
E-2
  6
Continuous
 62
     3
370
     9
100
AcDbLine
 10
-271.8760207147137
 20
211.8160161047456
 30
0.0
 11
-271.8760207147137
 21
305.815930325607
 31
0.0
  0
LINE
  5
23D
330
1F
100
AcDbEntity
  8
E-2
  6
Continuous
 62
     3
370
     9
100
AcDbLine
 10
-271.8760207147137
 20
111.8160078567514
 30
0.0
 11
-271.8760207147137
 21
205.815922077613
 31
0.0
  0
LINE
  5
23E
330
1F
100
AcDbEntity
  8
E-2
  6
Continuous
 62
     3
370
     9
100
AcDbLine
 10
-271.8760207147137
 20
11.81599960875726
 30
0.0
 11
-271.8760207147137
 21
105.8159138296188
 31
0.0
  0
LINE
  5
23F
330
1F
100
AcDbEntity
  8
E-2
  6
Continuous
 62
     3
370
     9
100
AcDbLine
 10
-271.8760207147137
 20
-35.18385522654672
 30
0.0
 11
-271.8760207147137
 21
5.815831349677971
 31
0.0
  0
LINE
  5
240
330
1F
100
AcDbEntity
  8
E-2
  6
Continuous
 62
     3
370
     9
100
AcDbLine
 10
-271.8760207147137
 20
411.8157356729466
 30
0.0
 11
-271.8760207147137
 21
454.3156498938082
 31
0.0
  0
LINE
  5
241
330
1F
100
AcDbEntity
  8
E-2
  6
Continuous
 62
     3
370
     9
100
AcDbLine
 10
-266.8759052427965
 20
311.8160985846863
 30
0.0
 11
-266.8759052427965
 21
405.8157158777608
 31
0.0
  0
LINE
  5
242
330
1F
100
AcDbEntity
  8
E-2
  6
Continuous
 62
     3
370
     9
100
AcDbLine
 10
-266.8759052427965
 20
211.8160161047456
 30
0.0
 11
-266.8759052427965
 21
305.815930325607
 31
0.0
  0
LINE
  5
243
330
1F
100
AcDbEntity
  8
E-2
  6
Continuous
 62
     3
370
     9
100
AcDbLine
 10
-266.8759052427965
 20
111.8160078567514
 30
0.0
 11
-266.8759052427965
 21
205.815922077613
 31
0.0
  0
LINE
  5
244
330
1F
100
AcDbEntity
  8
E-2
  6
Continuous
 62
     3
370
     9
100
AcDbLine
 10
-266.8759052427965
 20
11.81599960875726
 30
0.0
 11
-266.8759052427965
 21
105.8159138296188
 31
0.0
  0
LINE
  5
245
330
1F
100
AcDbEntity
  8
E-2
  6
Continuous
 62
     3
370
     9
100
AcDbLine
 10
-266.8759052427965
 20
-35.18385522654672
 30
0.0
 11
-266.8759052427965
 21
5.815831349677971
 31
0.0
  0
LINE
  5
246
330
1F
100
AcDbEntity
  8
E-2
  6
Continuous
 62
     3
370
     9
100
AcDbLine
 10
-266.8759052427965
 20
411.8157356729466
 30
0.0
 11
-266.8759052427965
 21
454.3156498938082
 31
0.0
  0
LINE
  5
247
330
1F
100
AcDbEntity
  8
E-2
  6
Continuous
 62
     3
370
     9
100
AcDbLine
 10
-256.8760207147137
 20
311.8160985846863
 30
0.0
 11
-256.8760207147137
 21
405.8157158777608
 31
0.0
  0
LINE
  5
248
330
1F
100
AcDbEntity
  8
E-2
  6
Continuous
 62
     3
370
     9
100
AcDbLine
 10
-256.8760207147137
 20
211.8160161047456
 30
0.0
 11
-256.8760207147137
 21
305.815930325607
 31
0.0
  0
LINE
  5
249
330
1F
100
AcDbEntity
  8
E-2
  6
Continuous
 62
     3
370
     9
100
AcDbLine
 10
-256.8760207147137
 20
111.8160078567514
 30
0.0
 11
-256.8760207147137
 21
205.815922077613
 31
0.0
  0
LINE
  5
24A
330
1F
100
AcDbEntity
  8
E-2
  6
Continuous
 62
     3
370
     9
100
AcDbLine
 10
-256.8760207147137
 20
11.81599960875726
 30
0.0
 11
-256.8760207147137
 21
105.8159138296188
 31
0.0
  0
LINE
  5
24B
330
1F
100
AcDbEntity
  8
E-2
  6
Continuous
 62
     3
370
     9
100
AcDbLine
 10
-256.8760207147137
 20
-35.18385522654672
 30
0.0
 11
-256.8760207147137
 21
5.815831349677971
 31
0.0
  0
LINE
  5
24C
330
1F
100
AcDbEntity
  8
E-2
  6
Continuous
 62
     3
370
     9
100
AcDbLine
 10
-256.8760207147137
 20
411.8157356729466
 30
0.0
 11
-256.8760207147137
 21
454.3156498938082
 31
0.0
  0
LINE
  5
24D
330
1F
100
AcDbEntity
  8
E-2
  6
Continuous
 62
     3
370
     9
100
AcDbLine
 10
-251.8759052427966
 20
311.8160985846863
 30
0.0
 11
-251.8759052427966
 21
405.8157158777608
 31
0.0
  0
LINE
  5
24E
330
1F
100
AcDbEntity
  8
E-2
  6
Continuous
 62
     3
370
     9
100
AcDbLine
 10
-251.8759052427966
 20
211.8160161047456
 30
0.0
 11
-251.8759052427966
 21
305.815930325607
 31
0.0
  0
LINE
  5
24F
330
1F
100
AcDbEntity
  8
E-2
  6
Continuous
 62
     3
370
     9
100
AcDbLine
 10
-251.8759052427966
 20
111.8160078567514
 30
0.0
 11
-251.8759052427966
 21
205.815922077613
 31
0.0
  0
LINE
  5
250
330
1F
100
AcDbEntity
  8
E-2
  6
Continuous
 62
     3
370
     9
100
AcDbLine
 10
-251.8759052427966
 20
11.81599960875726
 30
0.0
 11
-251.8759052427966
 21
105.8159138296188
 31
0.0
  0
LINE
  5
251
330
1F
100
AcDbEntity
  8
E-2
  6
Continuous
 62
     3
370
     9
100
AcDbLine
 10
-251.8759052427966
 20
-35.18385522654672
 30
0.0
 11
-251.8759052427966
 21
5.815831349677971
 31
0.0
  0
LINE
  5
252
330
1F
100
AcDbEntity
  8
E-2
  6
Continuous
 62
     3
370
     9
100
AcDbLine
 10
-251.8759052427966
 20
411.8157356729466
 30
0.0
 11
-251.8759052427966
 21
454.3156498938082
 31
0.0
  0
LINE
  5
253
330
1F
100
AcDbEntity
  8
E-2
  6
Continuous
 62
     3
370
     9
100
AcDbLine
 10
-241.8760207147137
 20
311.8160985846863
 30
0.0
 11
-241.8760207147137
 21
405.8157158777608
 31
0.0
  0
LINE
  5
254
330
1F
100
AcDbEntity
  8
E-2
  6
Continuous
 62
     3
370
     9
100
AcDbLine
 10
-241.8760207147137
 20
211.8160161047456
 30
0.0
 11
-241.8760207147137
 21
305.815930325607
 31
0.0
  0
LINE
  5
255
330
1F
100
AcDbEntity
  8
E-2
  6
Continuous
 62
     3
370
     9
100
AcDbLine
 10
-241.8760207147137
 20
111.8160078567514
 30
0.0
 11
-241.8760207147137
 21
205.815922077613
 31
0.0
  0
LINE
  5
256
330
1F
100
AcDbEntity
  8
E-2
  6
Continuous
 62
     3
370
     9
100
AcDbLine
 10
-241.8760207147137
 20
11.81599960875726
 30
0.0
 11
-241.8760207147137
 21
105.8159138296188
 31
0.0
  0
LINE
  5
257
330
1F
100
AcDbEntity
  8
E-2
  6
Continuous
 62
     3
370
     9
100
AcDbLine
 10
-241.8760207147137
 20
-35.18385522654672
 30
0.0
 11
-241.8760207147137
 21
5.815831349677971
 31
0.0
  0
LINE
  5
258
330
1F
100
AcDbEntity
  8
E-2
  6
Continuous
 62
     3
370
     9
100
AcDbLine
 10
-241.8760207147137
 20
411.8157356729466
 30
0.0
 11
-241.8760207147137
 21
454.3156498938082
 31
0.0
  0
LINE
  5
259
330
1F
100
AcDbEntity
  8
E-2
  6
Continuous
 62
     3
370
     9
100
AcDbLine
 10
-236.8759052427966
 20
311.8160985846863
 30
0.0
 11
-236.8759052427966
 21
405.8157158777608
 31
0.0
  0
LINE
  5
25A
330
1F
100
AcDbEntity
  8
E-2
  6
Continuous
 62
     3
370
     9
100
AcDbLine
 10
-236.8759052427966
 20
211.8160161047456
 30
0.0
 11
-236.8759052427966
 21
305.815930325607
 31
0.0
  0
LINE
  5
25B
330
1F
100
AcDbEntity
  8
E-2
  6
Continuous
 62
     3
370
     9
100
AcDbLine
 10
-236.8759052427966
 20
111.8160078567514
 30
0.0
 11
-236.8759052427966
 21
205.815922077613
 31
0.0
  0
LINE
  5
25C
330
1F
100
AcDbEntity
  8
E-2
  6
Continuous
 62
     3
370
     9
100
AcDbLine
 10
-236.8759052427966
 20
11.81599960875726
 30
0.0
 11
-236.8759052427966
 21
105.8159138296188
 31
0.0
  0
LINE
  5
25D
330
1F
100
AcDbEntity
  8
E-2
  6
Continuous
 62
     3
370
     9
100
AcDbLine
 10
-236.8759052427966
 20
-35.18385522654672
 30
0.0
 11
-236.8759052427966
 21
5.815831349677971
 31
0.0
  0
LINE
  5
25E
330
1F
100
AcDbEntity
  8
E-2
  6
Continuous
 62
     3
370
     9
100
AcDbLine
 10
-236.8759052427966
 20
411.8157356729466
 30
0.0
 11
-236.8759052427966
 21
454.3156498938082
 31
0.0
  0
LINE
  5
25F
330
1F
100
AcDbEntity
  8
E-2
  6
Continuous
 62
     3
370
     9
100
AcDbLine
 10
-226.8759671027526
 20
311.8160985846863
 30
0.0
 11
-226.8759671027526
 21
405.8157158777608
 31
0.0
  0
LINE
  5
260
330
1F
100
AcDbEntity
  8
E-2
  6
Continuous
 62
     3
370
     9
100
AcDbLine
 10
-226.8759671027526
 20
211.8160161047456
 30
0.0
 11
-226.8759671027526
 21
305.815930325607
 31
0.0
  0
LINE
  5
261
330
1F
100
AcDbEntity
  8
E-2
  6
Continuous
 62
     3
370
     9
100
AcDbLine
 10
-226.8759671027526
 20
111.8160078567514
 30
0.0
 11
-226.8759671027526
 21
205.815922077613
 31
0.0
  0
LINE
  5
262
330
1F
100
AcDbEntity
  8
E-2
  6
Continuous
 62
     3
370
     9
100
AcDbLine
 10
-226.8759671027526
 20
11.81599960875726
 30
0.0
 11
-226.8759671027526
 21
105.8159138296188
 31
0.0
  0
LINE
  5
263
330
1F
100
AcDbEntity
  8
E-2
  6
Continuous
 62
     3
370
     9
100
AcDbLine
 10
-226.8759671027526
 20
-35.18385522654672
 30
0.0
 11
-226.8759671027526
 21
5.815831349677971
 31
0.0
  0
LINE
  5
264
330
1F
100
AcDbEntity
  8
E-2
  6
Continuous
 62
     3
370
     9
100
AcDbLine
 10
-226.8759671027526
 20
411.8157356729466
 30
0.0
 11
-226.8759671027526
 21
454.3156498938082
 31
0.0
  0
LINE
  5
265
330
1F
100
AcDbEntity
  8
E-5
  6
Continuous
 62
     7
370
     9
100
AcDbLine
 10
-266.8758433828411
 20
431.6988584186294
 30
0.0
 11
-228.6450820597398
 21
574.3777201733161
 31
0.0
  0
LINE
  5
266
330
1F
100
AcDbEntity
  8
E-5
  6
Continuous
 62
     7
370
     9
100
AcDbLine
 10
-266.8759052427965
 20
431.6988584186294
 30
0.0
 11
-262.8895878401891
 21
441.3225354403778
 31
0.0
  0
LINE
  5
267
330
1F
100
AcDbEntity
  8
E-5
  6
Continuous
 62
     7
370
     9
100
AcDbLine
 10
-266.8759052427965
 20
431.6988584186294
 30
0.0
 11
-265.5162852773724
 21
442.0263780158635
 31
0.0
  0
LINE
  5
268
330
1F
100
AcDbEntity
  8
E-5
  6
Continuous
 62
     7
370
     9
100
AcDbLine
 10
-228.6450820597398
 20
574.3777201733161
 30
0.0
 11
-13.7337046943437
 21
574.3777201733161
 31
0.0
  0
LINE
  5
269
330
1F
100
AcDbEntity
  8
E-5
  6
Continuous
 62
     7
370
     9
100
AcDbLine
 10
-279.4595096159583
 20
641.04444182661
 30
0.0
 11
-45.83326251925229
 21
641.04444182661
 31
0.0
  0
LINE
  5
26A
330
1F
100
AcDbEntity
  8
E-5
  6
Continuous
 62
     7
370
     9
100
AcDbLine
 10
-328.2875513550658
 20
458.8158420720703
 30
0.0
 11
-279.4595096159583
 21
641.04444182661
 31
0.0
  0
LINE
  5
26B
330
1F
100
AcDbEntity
  8
E-5
  6
Continuous
 62
     7
370
     9
100
AcDbLine
 10
-328.2875513550658
 20
458.8158420720703
 30
0.0
 11
-326.9278695296856
 21
469.1433616693044
 31
0.0
  0
LINE
  5
26C
330
1F
100
AcDbEntity
  8
E-5
  6
Continuous
 62
     7
370
     9
100
AcDbLine
 10
-328.2875513550658
 20
458.8158420720703
 30
0.0
 11
-324.3012958124137
 21
468.4395190938187
 31
0.0
  0
LINE
  5
26D
330
1F
100
AcDbEntity
  8
E-5
  6
Continuous
 62
     7
370
     9
100
AcDbLine
 10
-306.8759629787552
 20
411.8157356729466
 30
0.0
 11
-253.8278066777132
 21
609.7942906133852
 31
0.0
  0
LINE
  5
26E
330
1F
100
AcDbEntity
  8
E-5
  6
Continuous
 62
     7
370
     9
100
AcDbLine
 10
-306.8759629787552
 20
411.8157356729466
 30
0.0
 11
-305.5164048732864
 21
422.1432552701808
 31
0.0
  0
LINE
  5
26F
330
1F
100
AcDbEntity
  8
E-5
  6
Continuous
 62
     7
370
     9
100
AcDbLine
 10
-306.8759629787552
 20
411.8157356729466
 30
0.0
 11
-302.8897074361029
 21
421.4395364146064
 31
0.0
  0
LINE
  5
270
330
1F
100
AcDbEntity
  8
E-5
  6
Continuous
 62
     7
370
     9
100
AcDbLine
 10
-253.8278066777132
 20
609.7942906133852
 30
0.0
 11
-50.4925240684436
 21
609.7942906133852
 31
0.0
  0
TEXT
  5
271
330
1F
100
AcDbEntity
  8
E-5
  6
Continuous
 62
     7
370
     9
100
AcDbText
 10
-243.8772109058087
 20
616.0759297867223
 30
0.0
 40
11.43
  1
クロスバー φ６ ＠100
 50
0.0000776836115367
 41
1.158730158730158
  7
ＭＳ ゴシック
100
AcDbText
  0
LINE
  5
272
330
1F
100
AcDbEntity
  8
E-4
  6
Continuous
 62
     7
370
     9
100
AcDbLine
 10
-629.3458232618593
 20
488.8160103311498
 30
0.0
 11
-614.406102695651
 21
488.8160103311498
 31
0.0
  0
LWPOLYLINE
  5
273
330
1F
100
AcDbEntity
  8
E-4
  6
Continuous
 62
     7
370
     9
100
AcDbPolyline
 90
        4
 70
     1
 43
1.0
 10
-628.8458232618593
 20
488.8160103311498
 42
0.4142135623731
 10
-629.3458232618593
 20
489.3160103311498
 42
0.4142135623731
 10
-629.8458232618593
 20
488.8160103311498
 42
0.4142135623731
 10
-629.3458232618593
 20
488.3160103311498
 42
0.4142135623731
  0
LWPOLYLINE
  5
274
330
1F
100
AcDbEntity
  8
E-4
  6
Continuous
 62
     7
370
     9
100
AcDbPolyline
 90
        4
 70
     1
 43
1.0
 10
-613.906102695651
 20
488.8160103311498
 42
0.4142135623731
 10
-614.406102695651
 20
489.3160103311498
 42
0.4142135623731
 10
-614.9061026956509
 20
488.8160103311498
 42
0.4142135623731
 10
-614.406102695651
 20
488.3160103311498
 42
0.4142135623731
  0
TEXT
  5
275
330
1F
100
AcDbEntity
  8
E-4
  6
Continuous
 62
     2
370
   211
100
AcDbText
 10
-632.5009629787551
 20
494.6360103311499
 30
0.0
 40
15.24
  1
15
 41
1.0625
  7
ＭＳ ゴシック
100
AcDbText
  0
LINE
  5
276
330
1F
100
AcDbEntity
  8
E-4
  6
Continuous
 62
     7
370
     9
100
AcDbLine
 10
-629.3458232618593
 20
490.3160103311498
 30
0.0
 11
-629.3458232618593
 21
438.8160103311498
 31
0.0
  0
LINE
  5
277
330
1F
100
AcDbEntity
  8
E-4
  6
Continuous
 62
     7
370
     9
100
AcDbLine
 10
-614.406102695651
 20
490.3160103311498
 30
0.0
 11
-614.406102695651
 21
438.8160103311498
 31
0.0
  0
LWPOLYLINE
  5
278
330
1F
100
AcDbEntity
  8
E-4
  6
Continuous
 62
     7
370
     9
100
AcDbPolyline
 90
        4
 70
     1
 43
1.0
 10
-731.3759737091408
 20
528.8160103311498
 42
0.4142135623731
 10
-731.8759737091408
 20
529.3160103311498
 42
0.4142135623731
 10
-732.3759737091407
 20
528.8160103311498
 42
0.4142135623731
 10
-731.8759737091408
 20
528.3160103311498
 42
0.4142135623731
  0
LINE
  5
279
330
1F
100
AcDbEntity
  8
E-4
  6
Continuous
 62
     7
370
     9
100
AcDbLine
 10
-731.8759737091408
 20
530.3160103311498
 30
0.0
 11
-731.8759737091408
 21
478.8160103311498
 31
0.0
  0
LWPOLYLINE
  5
27A
330
1F
100
AcDbEntity
  8
E-4
  6
Continuous
 62
     7
370
     9
100
AcDbPolyline
 90
        4
 70
     1
 43
1.0
 10
-211.3760149491111
 20
528.8160103311498
 42
0.4142135623731
 10
-211.8760149491111
 20
529.3160103311498
 42
0.4142135623731
 10
-212.3760149491111
 20
528.8160103311498
 42
0.4142135623731
 10
-211.8760149491111
 20
528.3160103311498
 42
0.4142135623731
  0
LINE
  5
27B
330
1F
100
AcDbEntity
  8
E-4
  6
Continuous
 62
     7
370
     9
100
AcDbLine
 10
-211.8760149491111
 20
530.3160103311498
 30
0.0
 11
-211.8760149491111
 21
478.8160103311498
 31
0.0
  0
LINE
  5
27C
330
1F
100
AcDbEntity
  8
E-4
  6
Continuous
 62
     7
370
     9
100
AcDbLine
 10
-471.8759943291258
 20
528.8160103311498
 30
0.0
 11
-211.8760149491111
 21
528.8160103311498
 31
0.0
  0
LINE
  5
27D
330
1F
100
AcDbEntity
  8
E-4
  6
Continuous
 62
     7
370
     9
100
AcDbLine
 10
-731.8759737091408
 20
528.8160103311498
 30
0.0
 11
-471.8759943291258
 21
528.8160103311498
 31
0.0
  0
TEXT
  5
27E
330
1F
100
AcDbEntity
  8
E-4
  6
Continuous
 62
     2
370
   211
100
AcDbText
 10
-618.1259840191332
 20
534.6360103311499
 30
0.0
 40
15.24
  1
260
 41
1.083333333333333
  7
ＭＳ ゴシック
100
AcDbText
  0
TEXT
  5
27F
330
1F
100
AcDbEntity
  8
E-4
  6
Continuous
 62
     2
370
   211
100
AcDbText
 10
-358.1260046391184
 20
534.6360103311499
 30
0.0
 40
15.24
  1
260
 41
1.083333333333333
  7
ＭＳ ゴシック
100
AcDbText
  0
TEXT
  5
280
330
1F
100
AcDbEntity
  8
E-5
  6
Continuous
 62
     7
370
     9
100
AcDbText
 10
-222.4837012244371
 20
580.6593593466691
 30
0.0
 40
11.43
  1
メインバー Ⅰ－４４ ＠15
 50
359.9999060071311
 41
1.159722222222222
  7
ＭＳ ゴシック
100
AcDbText
  0
TEXT
  5
281
330
1F
100
AcDbEntity
  8
E-5
  6
Continuous
 62
     7
370
     9
100
AcDbText
 10
-277.8706345928637
 20
647.3260809999631
 30
0.0
 40
11.43
  1
エンドプレート ＦＢ4.5×38
 41
1.16025641025641
  7
ＭＳ ゴシック
100
AcDbText
  0
LINE
  5
282
330
1F
100
AcDbEntity
  8
E-5
  6
Continuous
 62
     7
370
     9
100
AcDbLine
 10
423.4805568192479
 20
468.8162577709726
 30
0.0
 11
417.1391690447547
 21
477.0802529673408
 31
0.0
  0
LINE
  5
283
330
1F
100
AcDbEntity
  8
E-5
  6
Continuous
 62
     7
370
     9
100
AcDbLine
 10
423.4805568192479
 20
468.8162577709726
 30
0.0
 11
419.4943012765958
 21
478.4399347927209
 31
0.0
  0
LINE
  5
284
330
1F
100
AcDbEntity
  8
E-5
  6
Continuous
 62
     7
370
     9
100
AcDbLine
 10
264.7869544385086
 20
524.378102880242
 30
0.0
 11
391.4019116809073
 21
524.378102880242
 31
0.0
  0
LINE
  5
285
330
1F
100
AcDbEntity
  8
E-5
  6
Continuous
 62
     7
370
     9
100
AcDbLine
 10
423.4805568192479
 20
468.8162577709726
 30
0.0
 11
391.4019116809073
 21
524.378102880242
 31
0.0
  0
TEXT
  5
286
330
1F
100
AcDbEntity
  8
E-5
  6
Continuous
 62
     7
370
     9
100
AcDbText
 10
257.7086702522229
 20
504.6211546380545
 30
0.0
 40
11.43
  1
（四方受四方枠）
 41
1.145833333333333
  7
ＭＳ ゴシック
100
AcDbText
  0
LWPOLYLINE
  5
287
330
1F
100
AcDbEntity
  8
E-4
  6
Continuous
 62
     7
370
     9
100
AcDbPolyline
 90
        4
 70
     1
 43
1.0
 10
423.9805568192479
 20
-151.1837009890573
 42
0.4142135623731
 10
423.4805568192479
 20
-150.6837009890573
 42
0.4142135623731
 10
422.9805568192479
 20
-151.1837009890573
 42
0.4142135623731
 10
423.4805568192479
 20
-151.6837009890573
 42
0.4142135623731
  0
LINE
  5
288
330
1F
100
AcDbEntity
  8
E-4
  6
Continuous
 62
     7
370
     9
100
AcDbLine
 10
423.4805568192479
 20
-152.6837009890571
 30
0.0
 11
423.4805568192479
 21
-61.18370098905732
 31
0.0
  0
LWPOLYLINE
  5
289
330
1F
100
AcDbEntity
  8
E-4
  6
Continuous
 62
     7
370
     9
100
AcDbPolyline
 90
        4
 70
     1
 43
1.0
 10
423.9805568192479
 20
-111.1837009890573
 42
0.4142135623731
 10
423.4805568192479
 20
-110.6837009890573
 42
0.4142135623731
 10
422.9805568192479
 20
-111.1837009890573
 42
0.4142135623731
 10
423.4805568192479
 20
-111.6837009890573
 42
0.4142135623731
  0
LINE
  5
28A
330
1F
100
AcDbEntity
  8
E-4
  6
Continuous
 62
     7
370
     9
100
AcDbLine
 10
363.4805568192479
 20
468.8162577709726
 30
0.0
 11
363.4805568192479
 21
462.8163369517158
 31
0.0
  0
LWPOLYLINE
  5
28B
330
1F
100
AcDbEntity
  8
E-4
  6
Continuous
 62
     7
370
     9
100
AcDbPolyline
 90
        4
 70
     1
 43
1.0
 10
363.9805568192479
 20
468.8162577709726
 42
0.4142135623731
 10
363.4805568192479
 20
469.3162577709725
 42
0.4142135623731
 10
362.9805568192479
 20
468.8162577709726
 42
0.4142135623731
 10
363.4805568192479
 20
468.3162577709726
 42
0.4142135623731
  0
LWPOLYLINE
  5
28C
330
1F
100
AcDbEntity
  8
E-4
  6
Continuous
 62
     7
370
     9
100
AcDbPolyline
 90
        4
 70
     1
 43
1.0
 10
363.9805568192479
 20
462.8163369517158
 42
0.4142135623731
 10
363.4805568192479
 20
463.3163369517158
 42
0.4142135623731
 10
362.9805568192479
 20
462.8163369517158
 42
0.4142135623731
 10
363.4805568192479
 20
462.3163369517158
 42
0.4142135623731
  0
LINE
  5
28D
330
1F
100
AcDbEntity
  8
E-4
  6
Continuous
 62
     7
370
     9
100
AcDbLine
 10
361.9805568192479
 20
462.8163369517158
 30
0.0
 11
415.9805650672419
 21
462.8163369517158
 31
0.0
  0
LINE
  5
28E
330
1F
100
AcDbEntity
  8
E-4
  6
Continuous
 62
     7
370
     9
100
AcDbLine
 10
363.4805568192479
 20
462.8163369517158
 30
0.0
 11
363.4805568192479
 21
458.8158420720703
 31
0.0
  0
LWPOLYLINE
  5
28F
330
1F
100
AcDbEntity
  8
E-4
  6
Continuous
 62
     7
370
     9
100
AcDbPolyline
 90
        4
 70
     1
 43
1.0
 10
363.9805568192479
 20
458.8158420720703
 42
0.4142135623731
 10
363.4805568192479
 20
459.3158420720703
 42
0.4142135623731
 10
362.9805568192479
 20
458.8158420720703
 42
0.4142135623731
 10
363.4805568192479
 20
458.3158420720703
 42
0.4142135623731
  0
LINE
  5
290
330
1F
100
AcDbEntity
  8
E-4
  6
Continuous
 62
     7
370
     9
100
AcDbLine
 10
361.9805568192479
 20
458.8158420720703
 30
0.0
 11
413.4805568192479
 21
458.8158420720703
 31
0.0
  0
LWPOLYLINE
  5
291
330
1F
100
AcDbEntity
  8
E-4
  6
Continuous
 62
     7
370
     9
100
AcDbPolyline
 90
        4
 70
     1
 43
1.0
 10
323.9805568192479
 20
468.8162577709726
 42
0.4142135623731
 10
323.4805568192479
 20
469.3162577709725
 42
0.4142135623731
 10
322.9805568192479
 20
468.8162577709726
 42
0.4142135623731
 10
323.4805568192479
 20
468.3162577709726
 42
0.4142135623731
  0
LINE
  5
292
330
1F
100
AcDbEntity
  8
E-4
  6
Continuous
 62
     7
370
     9
100
AcDbLine
 10
321.980556819248
 20
468.8162577709726
 30
0.0
 11
413.4805568192479
 21
468.8162577709726
 31
0.0
  0
TEXT
  5
293
330
1F
100
AcDbEntity
  8
E-4
  6
Continuous
 62
     2
370
   211
100
AcDbText
 10
357.6605568192479
 20
475.816297361344
 30
0.0
 40
15.24
  1
6
 50
90.0
 41
0.9999999999999998
  7
ＭＳ ゴシック
100
AcDbText
  0
TEXT
  5
294
330
1F
100
AcDbEntity
  8
E-4
  6
Continuous
 62
     2
370
   211
100
AcDbText
 10
357.6605568192479
 20
450.8160895118931
 30
0.0
 40
15.24
  1
4
 50
90.0
 41
0.9999999999999998
  7
ＭＳ ゴシック
100
AcDbText
  0
LINE
  5
295
330
1F
100
AcDbEntity
  8
E-4
  6
Continuous
 62
     7
370
     9
100
AcDbLine
 10
363.4805568192479
 20
468.8162577709726
 30
0.0
 11
363.4805568192479
 21
485.816297361344
 31
0.0
  0
LWPOLYLINE
  5
296
330
1F
100
AcDbEntity
  8
E-4
  6
Continuous
 62
     7
370
     9
100
AcDbPolyline
 90
        4
 70
     1
 43
1.0
 10
363.9805568192479
 20
-41.18417442391792
 42
0.4142135623731
 10
363.4805568192479
 20
-40.68417442391792
 42
0.4142135623731
 10
362.9805568192479
 20
-41.18417442391792
 42
0.4142135623731
 10
363.4805568192479
 20
-41.68417442391792
 42
0.4142135623731
  0
LINE
  5
297
330
1F
100
AcDbEntity
  8
E-4
  6
Continuous
 62
     7
370
     9
100
AcDbLine
 10
361.9805568192479
 20
-41.18417442391792
 30
0.0
 11
413.4805568192479
 21
-41.18417442391792
 31
0.0
  0
LINE
  5
298
330
1F
100
AcDbEntity
  8
E-4
  6
Continuous
 62
     7
370
     9
100
AcDbLine
 10
363.4805568192479
 20
-41.18417442391792
 30
0.0
 11
363.4805568192479
 21
-45.18378814393532
 31
0.0
  0
LWPOLYLINE
  5
299
330
1F
100
AcDbEntity
  8
E-4
  6
Continuous
 62
     7
370
     9
100
AcDbPolyline
 90
        4
 70
     1
 43
1.0
 10
363.9805568192479
 20
-45.18378814393532
 42
0.4142135623731
 10
363.4805568192479
 20
-44.68378814393532
 42
0.4142135623731
 10
362.9805568192479
 20
-45.18378814393532
 42
0.4142135623731
 10
363.4805568192479
 20
-45.68378814393532
 42
0.4142135623731
  0
LINE
  5
29A
330
1F
100
AcDbEntity
  8
E-4
  6
Continuous
 62
     7
370
     9
100
AcDbLine
 10
361.9805568192479
 20
-45.18378814393532
 30
0.0
 11
415.9805650672419
 21
-45.18378814393532
 31
0.0
  0
LINE
  5
29B
330
1F
100
AcDbEntity
  8
E-4
  6
Continuous
 62
     7
370
     9
100
AcDbLine
 10
363.4805568192479
 20
-45.18378814393532
 30
0.0
 11
363.4805568192479
 21
-51.18371078355015
 31
0.0
  0
LWPOLYLINE
  5
29C
330
1F
100
AcDbEntity
  8
E-4
  6
Continuous
 62
     7
370
     9
100
AcDbPolyline
 90
        4
 70
     1
 43
1.0
 10
363.9805568192479
 20
-51.18371078355015
 42
0.4142135623731
 10
363.4805568192479
 20
-50.68371078355015
 42
0.4142135623731
 10
362.9805568192479
 20
-51.18371078355015
 42
0.4142135623731
 10
363.4805568192479
 20
-51.68371078355015
 42
0.4142135623731
  0
LWPOLYLINE
  5
29D
330
1F
100
AcDbEntity
  8
E-4
  6
Continuous
 62
     7
370
     9
100
AcDbPolyline
 90
        4
 70
     1
 43
1.0
 10
323.9805568192479
 20
-51.18370098905732
 42
0.4142135623731
 10
323.4805568192479
 20
-50.68370098905732
 42
0.4142135623731
 10
322.9805568192479
 20
-51.18370098905732
 42
0.4142135623731
 10
323.4805568192479
 20
-51.68370098905732
 42
0.4142135623731
  0
LINE
  5
29E
330
1F
100
AcDbEntity
  8
E-4
  6
Continuous
 62
     7
370
     9
100
AcDbLine
 10
321.9805568192479
 20
-51.18370098905732
 30
0.0
 11
413.4805568192479
 21
-51.18370098905732
 31
0.0
  0
TEXT
  5
29F
330
1F
100
AcDbEntity
  8
E-4
  6
Continuous
 62
     2
370
   211
100
AcDbText
 10
357.6605568192479
 20
-68.18374946374266
 30
0.0
 40
15.24
  1
6
 50
90.0
 41
0.9999999999999998
  7
ＭＳ ゴシック
100
AcDbText
  0
LINE
  5
2A0
330
1F
100
AcDbEntity
  8
E-4
  6
Continuous
 62
     7
370
     9
100
AcDbLine
 10
363.4805568192479
 20
-51.18371078355015
 30
0.0
 11
363.4805568192479
 21
-68.18374946374266
 31
0.0
  0
TEXT
  5
2A1
330
1F
100
AcDbEntity
  8
E-4
  6
Continuous
 62
     2
370
   211
100
AcDbText
 10
357.6605568192479
 20
-43.18398128392662
 30
0.0
 40
15.24
  1
4
 50
90.0
 41
0.9999999999999998
  7
ＭＳ ゴシック
100
AcDbText
  0
LINE
  5
2A2
330
1F
100
AcDbEntity
  8
E-4
  6
Continuous
 62
     7
370
     9
100
AcDbLine
 10
323.4805568192479
 20
468.8162577709726
 30
0.0
 11
323.4805568192479
 21
-51.18370098905732
 31
0.0
  0
TEXT
  5
2A3
330
1F
100
AcDbEntity
  8
E-4
  6
Continuous
 62
     2
370
   211
100
AcDbText
 10
317.6605568192479
 20
192.5662783909576
 30
0.0
 40
15.24
  1
520
 50
90.0
 41
1.083333333333333
  7
ＭＳ ゴシック
100
AcDbText
  0
LINE
  5
2A4
330
1F
100
AcDbEntity
  8
E-4
  6
Continuous
 62
     7
370
     9
100
AcDbLine
 10
363.4805568192479
 20
458.8158420720703
 30
0.0
 11
363.4805568192479
 21
-41.18417442391792
 31
0.0
  0
TEXT
  5
2A5
330
1F
100
AcDbEntity
  8
E-4
  6
Continuous
 62
     2
370
   211
100
AcDbText
 10
357.6605568192479
 20
192.5658338240762
 30
0.0
 40
15.24
  1
500
 50
90.0
 41
1.083333333333333
  7
ＭＳ ゴシック
100
AcDbText
  0
LINE
  5
2A6
330
1F
100
AcDbEntity
  8
E-1
  6
Continuous
 62
     2
370
     9
100
AcDbLine
 10
423.4805568192479
 20
465.3162214797985
 30
0.0
 11
423.4805568192479
 21
468.8162577709726
 31
0.0
  0
LINE
  5
2A7
330
1F
100
AcDbEntity
  8
E-1
  6
Continuous
 62
     2
370
     9
100
AcDbLine
 10
469.9804875360977
 20
408.8162082830081
 30
0.0
 11
473.4805238272713
 21
408.8162082830081
 31
0.0
  0
LINE
  5
2A8
330
1F
100
AcDbEntity
  8
E-1
  6
Continuous
 62
     2
370
     9
100
AcDbLine
 10
463.4804413473307
 20
462.8160895118933
 30
0.0
 11
425.9805403232599
 21
462.8160895118933
 31
0.0
  0
LINE
  5
2A9
330
1F
100
AcDbEntity
  8
E-1
  6
Continuous
 62
     2
370
     9
100
AcDbLine
 10
473.4805238272713
 20
468.8162577709726
 30
0.0
 11
423.4805568192479
 21
468.8162577709726
 31
0.0
  0
LINE
  5
2AA
330
1F
100
AcDbEntity
  8
E-1
  6
Continuous
 62
     2
370
     9
100
AcDbLine
 10
448.4805403232599
 20
468.8162577709726
 30
0.0
 11
448.4805403232599
 21
477.8162874637512
 31
0.0
  0
LINE
  5
2AB
330
1F
100
AcDbEntity
  8
E-1
  6
Continuous
 62
     2
370
     9
100
AcDbLine
 10
462.2955510126602
 20
477.8162874637512
 30
0.0
 11
448.4805403232599
 21
477.8162874637512
 31
0.0
  0
LINE
  5
2AC
330
1F
100
AcDbEntity
  8
E-1
  6
Continuous
 62
     2
370
     9
100
AcDbLine
 10
466.9543479932344
 20
469.4294136514624
 30
0.0
 11
525.145068010126
 21
485.0216856109217
 31
0.0
  0
LINE
  5
2AD
330
1F
100
AcDbEntity
  8
E-1
  6
Continuous
 62
     2
370
     9
100
AcDbLine
 10
464.6249495029474
 20
478.1227169401026
 30
0.0
 11
522.815669519839
 21
493.7148404356685
 31
0.0
  0
LINE
  5
2AE
330
1F
100
AcDbEntity
  8
E-1
  6
JWW_CENTER2
 62
     2
370
     9
100
AcDbLine
 10
462.2955510126602
 20
473.3161983854151
 30
0.0
 11
444.6755591946703
 21
473.3161983854151
 31
0.0
  0
LINE
  5
2AF
330
1F
100
AcDbEntity
  8
E-1
  6
JWW_CENTER2
 62
     2
370
     9
100
AcDbLine
 10
465.7895002841974
 20
473.7759910638357
 30
0.0
 11
530.9562417326771
 21
491.237423443481
 31
0.0
  0
LINE
  5
2B0
330
1F
100
AcDbEntity
  8
E-1
  6
Continuous
 62
     2
370
     9
100
AcDbLine
 10
467.4805040320857
 20
458.816026827138
 30
0.0
 11
467.4805040320857
 21
411.3160433231262
 31
0.0
  0
ARC
  5
2B1
330
1F
100
AcDbEntity
  8
E-1
  6
Continuous
 62
     2
370
     9
100
AcDbCircle
 10
425.9805403232599
 20
465.3162214797985
 30
0.0
 40
2.500000032218727
100
AcDbArc
 50
180.0
 51
270.0
  0
ARC
  5
2B2
330
1F
100
AcDbEntity
  8
E-1
  6
Continuous
 62
     2
370
     9
100
AcDbCircle
 10
469.9804875360977
 20
411.3160433231262
 30
0.0
 40
2.500000032218727
100
AcDbArc
 50
180.0
 51
270.0
  0
ARC
  5
2B3
330
1F
100
AcDbEntity
  8
E-1
  6
Continuous
 62
     2
370
     9
100
AcDbCircle
 10
463.4804413473307
 20
458.816026827138
 30
0.0
 40
4.000000051549963
100
AcDbArc
 50
0.0
 51
90.0
  0
ARC
  5
2B4
330
1F
100
AcDbEntity
  8
E-1
  6
Continuous
 62
     2
370
     9
100
AcDbCircle
 10
462.2955510126602
 20
486.8161686926363
 30
0.0
 40
18.00000023197483
100
AcDbArc
 50
270.0
 51
285.0
  0
ARC
  5
2B5
330
1F
100
AcDbEntity
  8
E-1
  6
Continuous
 62
     2
370
     9
100
AcDbCircle
 10
523.980517228876
 20
489.3682630232952
 30
0.0
 40
4.500000057993709
100
AcDbArc
 50
285.0001373291016
 51
104.9999084472656
  0
ARC
  5
2B6
330
1F
100
AcDbEntity
  8
E-1
  6
JWW_CENTER2
 62
     2
370
     9
100
AcDbCircle
 10
462.2955510126602
 20
486.8160202287427
 30
0.0
 40
13.50000162382384
100
AcDbArc
 50
270.0
 51
284.9999542236328
  0
ARC
  5
2B7
330
1F
100
AcDbEntity
  8
E-1
  6
Continuous
 62
     2
370
     9
100
AcDbCircle
 10
462.2955510126602
 20
486.8161686926363
 30
0.0
 40
9.000000115987417
100
AcDbArc
 50
270.0
 51
285.0000152587891
  0
LINE
  5
2B8
330
1F
100
AcDbEntity
  8
E-1
  6
Continuous
 62
     2
370
     9
100
AcDbLine
 10
473.4805238272713
 20
468.8162577709726
 30
0.0
 11
473.4805238272713
 21
408.8162082830081
 31
0.0
  0
LINE
  5
2B9
330
1F
100
AcDbEntity
  8
E-2
  6
Continuous
 62
     3
370
     9
100
AcDbLine
 10
423.4805402910411
 20
454.3159014576278
 30
0.0
 11
467.4804875038789
 21
454.3159014576278
 31
0.0
  0
LINE
  5
2BA
330
1F
100
AcDbEntity
  8
E-2
  6
Continuous
 62
     3
370
     9
100
AcDbLine
 10
423.4805402910411
 20
458.8158420720703
 30
0.0
 11
461.4804677086932
 21
458.8158420720703
 31
0.0
  0
LINE
  5
2BB
330
1F
100
AcDbEntity
  8
E-2
  6
Continuous
 62
     3
370
     9
100
AcDbLine
 10
461.4804677086932
 20
458.8158420720703
 30
0.0
 11
461.4804677086932
 21
454.3159014576278
 31
0.0
  0
CIRCLE
  5
2BC
330
1F
100
AcDbEntity
  8
E-2
  6
Continuous
 62
     3
370
     9
100
AcDbCircle
 10
426.4805501886338
 20
408.8158406974047
 30
0.0
 40
3.000000038662472
  0
CIRCLE
  5
2BD
330
1F
100
AcDbEntity
  8
E-2
  6
Continuous
 62
     3
370
     9
100
AcDbCircle
 10
426.4805501886338
 20
308.8158324494105
 30
0.0
 40
3.000000038662472
  0
CIRCLE
  5
2BE
330
1F
100
AcDbEntity
  8
E-2
  6
Continuous
 62
     3
370
     9
100
AcDbCircle
 10
426.4805501886338
 20
208.8158242014164
 30
0.0
 40
3.000000038662472
  0
CIRCLE
  5
2BF
330
1F
100
AcDbEntity
  8
E-2
  6
Continuous
 62
     3
370
     9
100
AcDbCircle
 10
426.4805501886338
 20
108.8158901853691
 30
0.0
 40
3.000000038662472
  0
CIRCLE
  5
2C0
330
1F
100
AcDbEntity
  8
E-2
  6
Continuous
 62
     3
370
     9
100
AcDbCircle
 10
426.4805501886338
 20
8.815807705428291
 30
0.0
 40
3.000000038662472
  0
LINE
  5
2C1
330
1F
100
AcDbEntity
  8
E-2
  6
Continuous
 62
     3
370
     9
100
AcDbLine
 10
432.4804215199263
 20
454.3159014576278
 30
0.0
 11
432.4804215199263
 21
-36.68423380947534
 31
0.0
  0
LINE
  5
2C2
330
1F
100
AcDbEntity
  8
E-2
  6
Continuous
 62
     3
370
     9
100
AcDbLine
 10
431.4805171966578
 20
454.3159014576278
 30
0.0
 11
431.4805171966578
 21
-36.68423380947534
 31
0.0
  0
LINE
  5
2C3
330
1F
100
AcDbEntity
  8
E-2
  6
Continuous
 62
     3
370
     9
100
AcDbLine
 10
423.4805402910411
 20
-36.68423380947534
 30
0.0
 11
467.4804875038789
 21
-36.68423380947534
 31
0.0
  0
LINE
  5
2C4
330
1F
100
AcDbEntity
  8
E-2
  6
Continuous
 62
     3
370
     9
100
AcDbLine
 10
461.4804677086932
 20
-36.68423380947534
 30
0.0
 11
461.4804677086932
 21
-41.18417442391799
 31
0.0
  0
LINE
  5
2C5
330
1F
100
AcDbEntity
  8
E-2
  6
Continuous
 62
     3
370
     9
100
AcDbLine
 10
423.4805402910411
 20
-41.18417442391799
 30
0.0
 11
461.4804677086932
 21
-41.18417442391799
 31
0.0
  0
LINE
  5
2C6
330
1F
100
AcDbEntity
  8
E-2
  6
Continuous
 62
     3
370
     9
100
AcDbLine
 10
467.4804875038789
 20
454.3159014576278
 30
0.0
 11
467.4804875038789
 21
-36.68423380947534
 31
0.0
  0
LINE
  5
2C7
330
1F
100
AcDbEntity
  8
E-2
  6
Continuous
 62
     3
370
     9
100
AcDbLine
 10
423.4805402910411
 20
458.8158420720703
 30
0.0
 11
423.4805402910411
 21
-41.18417442391799
 31
0.0
  0
LINE
  5
2C8
330
1F
100
AcDbEntity
  8
E-2
  6
Continuous
 62
     3
370
     9
100
AcDbLine
 10
459.4805105982625
 20
454.3159014576278
 30
0.0
 11
459.4805105982625
 21
-36.68423380947534
 31
0.0
  0
LINE
  5
2C9
330
1F
100
AcDbEntity
  8
E-2
  6
Continuous
 62
     3
370
     9
100
AcDbLine
 10
458.4804578111002
 20
454.3159014576278
 30
0.0
 11
458.4804578111002
 21
-36.68423380947534
 31
0.0
  0
LINE
  5
2CA
330
1F
100
AcDbEntity
  8
E-1
  6
Continuous
 62
     2
370
     9
100
AcDbLine
 10
423.4805568192479
 20
-47.68455383164596
 30
0.0
 11
423.4805568192479
 21
-51.18459012281999
 31
0.0
  0
LINE
  5
2CB
330
1F
100
AcDbEntity
  8
E-1
  6
Continuous
 62
     2
370
     9
100
AcDbLine
 10
469.9804875360977
 20
8.815459365144385
 30
0.0
 11
473.4805238272713
 21
8.815459365144385
 31
0.0
  0
LINE
  5
2CC
330
1F
100
AcDbEntity
  8
E-1
  6
Continuous
 62
     2
370
     9
100
AcDbLine
 10
463.4804413473307
 20
-45.18442186374077
 30
0.0
 11
425.9805403232599
 21
-45.18442186374077
 31
0.0
  0
LINE
  5
2CD
330
1F
100
AcDbEntity
  8
E-1
  6
Continuous
 62
     2
370
     9
100
AcDbLine
 10
473.4805238272713
 20
-51.18459012281999
 30
0.0
 11
423.4805568192479
 21
-51.18459012281999
 31
0.0
  0
LINE
  5
2CE
330
1F
100
AcDbEntity
  8
E-1
  6
Continuous
 62
     2
370
     9
100
AcDbLine
 10
448.4805403232599
 20
-51.18459012281999
 30
0.0
 11
448.4805403232599
 21
-60.18461981559863
 31
0.0
  0
LINE
  5
2CF
330
1F
100
AcDbEntity
  8
E-1
  6
Continuous
 62
     2
370
     9
100
AcDbLine
 10
462.2955510126602
 20
-60.18461981559863
 30
0.0
 11
448.4805403232599
 21
-60.18461981559863
 31
0.0
  0
LINE
  5
2D0
330
1F
100
AcDbEntity
  8
E-1
  6
Continuous
 62
     2
370
     9
100
AcDbLine
 10
466.9543479932344
 20
-51.79774600330983
 30
0.0
 11
525.145068010126
 21
-67.3900179627692
 31
0.0
  0
LINE
  5
2D1
330
1F
100
AcDbEntity
  8
E-1
  6
Continuous
 62
     2
370
     9
100
AcDbLine
 10
464.6249495029474
 20
-60.49104929195007
 30
0.0
 11
522.815669519839
 21
-76.08317278751596
 31
0.0
  0
LINE
  5
2D2
330
1F
100
AcDbEntity
  8
E-1
  6
JWW_CENTER2
 62
     2
370
     9
100
AcDbLine
 10
462.2955510126602
 20
-55.68453073726257
 30
0.0
 11
444.6755591946703
 21
-55.68453073726257
 31
0.0
  0
LINE
  5
2D3
330
1F
100
AcDbEntity
  8
E-1
  6
JWW_CENTER2
 62
     2
370
     9
100
AcDbLine
 10
465.7895002841974
 20
-56.14432341568314
 30
0.0
 11
530.9562417326771
 21
-73.60575579532846
 31
0.0
  0
LINE
  5
2D4
330
1F
100
AcDbEntity
  8
E-1
  6
Continuous
 62
     2
370
     9
100
AcDbLine
 10
467.4805040320857
 20
-41.18435917898555
 30
0.0
 11
467.4805040320857
 21
6.31562432502637
 31
0.0
  0
ARC
  5
2D5
330
1F
100
AcDbEntity
  8
E-1
  6
Continuous
 62
     2
370
     9
100
AcDbCircle
 10
425.9805403232599
 20
-47.68455383164596
 30
0.0
 40
2.500000032218727
100
AcDbArc
 50
90.0
 51
180.0
  0
ARC
  5
2D6
330
1F
100
AcDbEntity
  8
E-1
  6
Continuous
 62
     2
370
     9
100
AcDbCircle
 10
469.9804875360977
 20
6.31562432502637
 30
0.0
 40
2.500000032218727
100
AcDbArc
 50
90.0
 51
180.0
  0
ARC
  5
2D7
330
1F
100
AcDbEntity
  8
E-1
  6
Continuous
 62
     2
370
     9
100
AcDbCircle
 10
463.4804413473307
 20
-41.18435917898555
 30
0.0
 40
4.000000051549963
100
AcDbArc
 50
270.0
 51
0.0
  0
ARC
  5
2D8
330
1F
100
AcDbEntity
  8
E-1
  6
Continuous
 62
     2
370
     9
100
AcDbCircle
 10
462.2955510126602
 20
-69.1845010444838
 30
0.0
 40
18.00000023197483
100
AcDbArc
 50
75.0
 51
90.0
  0
ARC
  5
2D9
330
1F
100
AcDbEntity
  8
E-1
  6
Continuous
 62
     2
370
     9
100
AcDbCircle
 10
523.980517228876
 20
-71.73659537514266
 30
0.0
 40
4.500000057993709
100
AcDbArc
 50
255.0000915527344
 51
74.99986267089845
  0
ARC
  5
2DA
330
1F
100
AcDbEntity
  8
E-1
  6
JWW_CENTER2
 62
     2
370
     9
100
AcDbCircle
 10
462.2955510126602
 20
-69.18435258059017
 30
0.0
 40
13.50000162382384
100
AcDbArc
 50
75.00004577636717
 51
90.0
  0
ARC
  5
2DB
330
1F
100
AcDbEntity
  8
E-1
  6
Continuous
 62
     2
370
     9
100
AcDbCircle
 10
462.2955510126602
 20
-69.1845010444838
 30
0.0
 40
9.000000115987417
100
AcDbArc
 50
74.99998474121094
 51
90.0
  0
LINE
  5
2DC
330
1F
100
AcDbEntity
  8
E-1
  6
Continuous
 62
     2
370
     9
100
AcDbLine
 10
473.4805238272713
 20
-51.18459012281999
 30
0.0
 11
473.4805238272713
 21
8.815459365144385
 31
0.0
  0
LWPOLYLINE
  5
2DD
330
1F
100
AcDbEntity
  8
E-4
  6
Continuous
 62
     7
370
     9
100
AcDbPolyline
 90
        4
 70
     1
 43
1.0
 10
533.9805238272713
 20
8.816125803066903
 42
0.4142135623731
 10
533.4805238272713
 20
9.316125803066903
 42
0.4142135623731
 10
532.9805238272713
 20
8.816125803066903
 42
0.4142135623731
 10
533.4805238272713
 20
8.316125803066903
 42
0.4142135623731
  0
LINE
  5
2DE
330
1F
100
AcDbEntity
  8
E-4
  6
Continuous
 62
     7
370
     9
100
AcDbLine
 10
534.9805238272713
 20
8.816125803066903
 30
0.0
 11
483.4805238272713
 21
8.816125803066903
 31
0.0
  0
LINE
  5
2DF
330
1F
100
AcDbEntity
  8
E-4
  6
Continuous
 62
     7
370
     9
100
AcDbLine
 10
533.4805238272713
 20
8.816125803066903
 30
0.0
 11
533.4805238272713
 21
-51.18370098905732
 31
0.0
  0
LWPOLYLINE
  5
2E0
330
1F
100
AcDbEntity
  8
E-4
  6
Continuous
 62
     7
370
     9
100
AcDbPolyline
 90
        4
 70
     1
 43
1.0
 10
533.9805238272713
 20
-51.18370098905732
 42
0.4142135623731
 10
533.4805238272713
 20
-50.68370098905732
 42
0.4142135623731
 10
532.9805238272713
 20
-51.18370098905732
 42
0.4142135623731
 10
533.4805238272713
 20
-51.68370098905732
 42
0.4142135623731
  0
LINE
  5
2E1
330
1F
100
AcDbEntity
  8
E-4
  6
Continuous
 62
     7
370
     9
100
AcDbLine
 10
534.9805238272713
 20
-51.18370098905732
 30
0.0
 11
483.4805238272713
 21
-51.18370098905732
 31
0.0
  0
TEXT
  5
2E2
330
1F
100
AcDbEntity
  8
E-4
  6
Continuous
 62
     2
370
   211
100
AcDbText
 10
527.6605238272713
 20
-31.80878759299507
 30
0.0
 40
15.24
  1
60
 50
90.0
 41
1.0625
  7
ＭＳ ゴシック
100
AcDbText
  0
LINE
  5
2E3
330
1F
100
AcDbEntity
  8
E-4
  6
Continuous
 62
     7
370
     9
100
AcDbLine
 10
533.4805238272713
 20
468.8162577709726
 30
0.0
 11
533.4805238272713
 21
408.8164309788482
 31
0.0
  0
LWPOLYLINE
  5
2E4
330
1F
100
AcDbEntity
  8
E-4
  6
Continuous
 62
     7
370
     9
100
AcDbPolyline
 90
        4
 70
     1
 43
1.0
 10
533.9805238272713
 20
468.8162577709726
 42
0.4142135623731
 10
533.4805238272713
 20
469.3162577709725
 42
0.4142135623731
 10
532.9805238272713
 20
468.8162577709726
 42
0.4142135623731
 10
533.4805238272713
 20
468.3162577709726
 42
0.4142135623731
  0
LWPOLYLINE
  5
2E5
330
1F
100
AcDbEntity
  8
E-4
  6
Continuous
 62
     7
370
     9
100
AcDbPolyline
 90
        4
 70
     1
 43
1.0
 10
533.9805238272713
 20
408.8164309788482
 42
0.4142135623731
 10
533.4805238272713
 20
409.3164309788482
 42
0.4142135623731
 10
532.9805238272713
 20
408.8164309788482
 42
0.4142135623731
 10
533.4805238272713
 20
408.3164309788482
 42
0.4142135623731
  0
LINE
  5
2E6
330
1F
100
AcDbEntity
  8
E-4
  6
Continuous
 62
     7
370
     9
100
AcDbLine
 10
534.9805238272713
 20
468.8162577709726
 30
0.0
 11
483.4805238272713
 21
468.8162577709726
 31
0.0
  0
LINE
  5
2E7
330
1F
100
AcDbEntity
  8
E-4
  6
Continuous
 62
     7
370
     9
100
AcDbLine
 10
534.9805238272713
 20
408.8164309788482
 30
0.0
 11
483.4805238272713
 21
408.8164309788482
 31
0.0
  0
TEXT
  5
2E8
330
1F
100
AcDbEntity
  8
E-4
  6
Continuous
 62
     2
370
   211
100
AcDbText
 10
527.6605238272713
 20
428.1913443749104
 30
0.0
 40
15.24
  1
60
 50
90.0
 41
1.0625
  7
ＭＳ ゴシック
100
AcDbText
  0
LINE
  5
2E9
330
1F
100
AcDbEntity
  8
E-4
  6
Continuous
 62
     7
370
     9
100
AcDbLine
 10
533.4805238272713
 20
408.8164309788482
 30
0.0
 11
533.4805238272713
 21
8.816125803066903
 31
0.0
  0
TEXT
  5
2EA
330
1F
100
AcDbEntity
  8
E-4
  6
Continuous
 62
     2
370
   211
100
AcDbText
 10
527.6605238272713
 20
192.5662783909576
 30
0.0
 40
15.24
  1
400
 50
90.0
 41
1.083333333333333
  7
ＭＳ ゴシック
100
AcDbText
  0
LWPOLYLINE
  5
2EB
330
1F
100
AcDbEntity
  8
E-4
  6
Continuous
 62
     7
370
     9
100
AcDbPolyline
 90
        4
 70
     1
 43
1.0
 10
473.9805238272713
 20
-151.1837009890573
 42
0.4142135623731
 10
473.4805238272713
 20
-150.6837009890573
 42
0.4142135623731
 10
472.9805238272713
 20
-151.1837009890573
 42
0.4142135623731
 10
473.4805238272713
 20
-151.6837009890573
 42
0.4142135623731
  0
LINE
  5
2EC
330
1F
100
AcDbEntity
  8
E-4
  6
Continuous
 62
     7
370
     9
100
AcDbLine
 10
473.4805238272713
 20
-152.6837009890571
 30
0.0
 11
473.4805238272713
 21
-61.18370098905732
 31
0.0
  0
LWPOLYLINE
  5
2ED
330
1F
100
AcDbEntity
  8
E-4
  6
Continuous
 62
     7
370
     9
100
AcDbPolyline
 90
        4
 70
     1
 43
1.0
 10
467.9804875038789
 20
-111.1837009890573
 42
0.4142135623731
 10
467.4804875038789
 20
-110.6837009890573
 42
0.4142135623731
 10
466.9804875038789
 20
-111.1837009890573
 42
0.4142135623731
 10
467.4804875038789
 20
-111.6837009890573
 42
0.4142135623731
  0
LINE
  5
2EE
330
1F
100
AcDbEntity
  8
E-4
  6
Continuous
 62
     7
370
     9
100
AcDbLine
 10
467.4804875038789
 20
-112.6837009890571
 30
0.0
 11
467.4804875038789
 21
-49.18372738263816
 31
0.0
  0
LINE
  5
2EF
330
1F
100
AcDbEntity
  8
E-4
  6
Continuous
 62
     7
370
     9
100
AcDbLine
 10
423.4805568192479
 20
-111.1837009890573
 30
0.0
 11
467.4804875038789
 21
-111.1837009890573
 31
0.0
  0
TEXT
  5
2F0
330
1F
100
AcDbEntity
  8
E-4
  6
Continuous
 62
     2
370
   211
100
AcDbText
 10
434.8555221615634
 20
-105.3637009890573
 30
0.0
 40
15.24
  1
44
 41
1.0625
  7
ＭＳ ゴシック
100
AcDbText
  0
LINE
  5
2F1
330
1F
100
AcDbEntity
  8
E-4
  6
Continuous
 62
     7
370
     9
100
AcDbLine
 10
423.4805568192479
 20
-151.1837009890573
 30
0.0
 11
473.4805238272713
 21
-151.1837009890573
 31
0.0
  0
TEXT
  5
2F2
330
1F
100
AcDbEntity
  8
E-4
  6
Continuous
 62
     2
370
   211
100
AcDbText
 10
437.8555403232596
 20
-145.3637009890573
 30
0.0
 40
15.24
  1
50
 41
1.0625
  7
ＭＳ ゴシック
100
AcDbText
  0
TEXT
  5
2F3
330
1F
100
AcDbEntity
  8
E-5
  6
Continuous
 62
     7
370
     9
100
AcDbText
 10
262.7958185577547
 20
532.8067773946003
 30
0.0
 40
11.43
  1
受枠：Ｌ－４４
 41
1.142857142857143
  7
ＭＳ ゴシック
100
AcDbText
  0
LINE
  5
2F4
330
1F
100
AcDbEntity
  8
E-5
  6
Continuous
 62
     7
370
     9
100
AcDbLine
 10
493.7203095113932
 20
485.9187786878856
 30
0.0
 11
497.7065650540453
 21
495.5425794295452
 31
0.0
  0
LINE
  5
2F5
330
1F
100
AcDbEntity
  8
E-5
  6
Continuous
 62
     7
370
     9
100
AcDbLine
 10
493.7203095113932
 20
485.9187786878856
 30
0.0
 11
515.9245694353797
 21
524.377731720508
 31
0.0
  0
LINE
  5
2F6
330
1F
100
AcDbEntity
  8
E-5
  6
Continuous
 62
     7
370
     9
100
AcDbLine
 10
493.7203095113932
 20
485.9187786878856
 30
0.0
 11
500.0616972858865
 21
494.1828976041651
 31
0.0
  0
LINE
  5
2F7
330
1F
100
AcDbEntity
  8
E-5
  6
Continuous
 62
     7
370
     9
100
AcDbLine
 10
515.9245694353797
 20
524.377731720508
 30
0.0
 11
646.8629189787708
 21
524.377731720508
 31
0.0
  0
LINE
  5
2F8
330
1F
100
AcDbEntity
  8
E-2
  6
JWW_CENTER1
 62
     3
370
     9
100
AcDbLine
 10
413.4805402910411
 20
208.8162783909576
 30
0.0
 11
471.480368732764
 21
208.8162783909576
 31
0.0
  0
TEXT
  5
2F9
330
1F
100
AcDbEntity
  8
E-5
  6
Continuous
 62
     7
370
     9
100
AcDbText
 10
522.454023847067
 20
531.6057044955292
 30
0.0
 40
11.43
  1
アンカー：φ９
 41
1.142857142857143
  7
ＭＳ ゴシック
100
AcDbText
  0
TEXT
  5
2FA
330
1F
100
AcDbEntity
  8
F-4ﾚｲﾔ
  6
Continuous
 62
     2
370
     9
100
AcDbText
 10
296.6884345797747
 20
-427.563516546833
 30
0.0
 40
15.24
  1
処理：溶融亜鉛めっき
 41
1.1125
  7
ＭＳ ゴシック
100
AcDbText
  0
TEXT
  5
2FB
330
1F
100
AcDbEntity
  8
F-4ﾚｲﾔ
  6
Continuous
 62
     2
370
     9
100
AcDbText
 10
296.6884226991797
 20
-400.062992799206
 30
0.0
 40
15.24
  1
材質：ＳＳ４００
 50
359.9999900160142
 41
1.109375
  7
ＭＳ ゴシック
100
AcDbText
  0
TEXT
  5
2FC
330
1F
100
AcDbEntity
  8
F-4ﾚｲﾔ
  6
Continuous
 62
     2
370
     9
100
AcDbText
 10
294.4388230602962
 20
-487.5638227536136
 30
0.0
 40
15.24
  1
材質：ＳＳ４００
 41
1.109375
  7
ＭＳ ゴシック
100
AcDbText
  0
LINE
  5
2FD
330
1F
100
AcDbEntity
  8
F-4ﾚｲﾔ
  6
Continuous
 62
     2
370
     9
100
AcDbLine
 10
212.8324643517341
 20
-320.9238715075066
 30
0.0
 11
212.8324643517341
 21
-295.923541587743
 31
0.0
  0
LINE
  5
2FE
330
1F
100
AcDbEntity
  8
F-4ﾚｲﾔ
  6
Continuous
 62
     2
370
     9
100
AcDbLine
 10
212.8324643517341
 20
-295.923541587743
 30
0.0
 11
325.3322169119117
 21
-295.923541587743
 31
0.0
  0
LINE
  5
2FF
330
1F
100
AcDbEntity
  8
F-4ﾚｲﾔ
  6
Continuous
 62
     2
370
     9
100
AcDbLine
 10
325.3322169119117
 20
-295.923541587743
 30
0.0
 11
325.3322169119117
 21
-320.9238715075066
 31
0.0
  0
LINE
  5
300
330
1F
100
AcDbEntity
  8
F-4ﾚｲﾔ
  6
Continuous
 62
     2
370
     9
100
AcDbLine
 10
325.3322169119117
 20
-320.9238715075066
 30
0.0
 11
212.8324643517341
 21
-320.9238715075066
 31
0.0
  0
TEXT
  5
301
330
1F
100
AcDbEntity
  8
F-4ﾚｲﾔ
  6
Continuous
 62
     2
370
     9
100
AcDbText
 10
236.5823406318229
 20
-315.6037065476248
 30
0.0
 40
15.24
  1
仕　様
 41
1.083333333333333
  7
ＭＳ ゴシック
100
AcDbText
  0
TEXT
  5
302
330
1F
100
AcDbEntity
  8
F-4ﾚｲﾔ
  6
Continuous
 62
     2
370
     9
100
AcDbText
 10
269.082340631823
 20
-345.0640485424518
 30
0.0
 40
15.24
  1
スチール製グレーチング　枠付正方形型　細目プレーンタイプ
 41
1.120535714285714
  7
ＭＳ ゴシック
100
AcDbText
  0
TEXT
  5
303
330
1F
100
AcDbEntity
  8
F-4ﾚｲﾔ
  6
Continuous
 62
     2
370
     9
100
AcDbText
 10
294.4388354322874
 20
-515.063789761637
 30
0.0
 40
15.24
  1
処理：樹脂系塗装
 41
1.109375
  7
ＭＳ ゴシック
100
AcDbText
  0
TEXT
  5
304
330
1F
100
AcDbEntity
  8
F-4ﾚｲﾔ
  6
Continuous
 62
     2
370
     9
100
AcDbText
 10
269.082340631823
 20
-372.5645722900763
 30
0.0
 40
15.24
  1
集水桝用　ＱＳＣ　４４４４Ⅰ
 41
1.116071428571428
  7
ＭＳ ゴシック
100
AcDbText
  0
TEXT
  5
305
330
1F
100
AcDbEntity
  8
F-4ﾚｲﾔ
  6
Continuous
 62
     2
370
     9
100
AcDbText
 10
269.0823158878407
 20
-460.063824815612
 30
0.0
 40
15.24
  1
スチール製受枠　Ｌ－４４（四方受四方枠）
 41
1.11875
  7
ＭＳ ゴシック
100
AcDbText
  0
TEXT
  5
306
330
1F
100
AcDbEntity
  8
F-5ﾚｲﾔ
  6
Continuous
 62
     3
370
     9
100
AcDbText
 10
350.3322169119117
 20
-317.3988715075067
 30
0.0
 40
19.05
  1
※適用荷重：Ｔ－２５
 41
1.09
  7
ＭＳ ゴシック
100
AcDbText
  0
ENDSEC
  0
SECTION
  2
OBJECTS
  0
DICTIONARY
  5
C
330
0
100
AcDbDictionary
281
     1
  3
ACAD_DETAILVIEWSTYLE
350
34C
  3
ACAD_GROUP
350
D
  3
ACAD_LAYOUT
350
1A
  3
ACAD_MATERIAL
350
43
  3
ACAD_MLEADERSTYLE
350
6B
  3
ACAD_MLINESTYLE
350
17
  3
ACAD_PLOTSETTINGS
350
19
  3
ACAD_PLOTSTYLENAME
350
E
  3
ACAD_SCALELIST
350
47
  3
ACAD_SECTIONVIEWSTYLE
350
34D
  3
ACAD_TABLESTYLE
350
69
  3
ACAD_VISUALSTYLE
350
2A
  3
ACDB_RECOMPOSE_DATA
350
349
  3
AcDbVariableDictionary
350
309
  0
DICTIONARY
  5
307
330
8
100
AcDbDictionary
280
     1
281
     1
  3
ACAD_XREC_ROUNDTRIP
360
308
  0
DICTIONARY
  5
34C
102
{ACAD_REACTORS
330
C
102
}
330
C
100
AcDbDictionary
281
     1
  0
DICTIONARY
  5
D
102
{ACAD_REACTORS
330
C
102
}
330
C
100
AcDbDictionary
281
     1
  0
DICTIONARY
  5
1A
102
{ACAD_REACTORS
330
C
102
}
330
C
100
AcDbDictionary
281
     1
  3
Layout1
350
1E
  3
Layout2
350
26
  3
Model
350
22
  0
DICTIONARY
  5
43
102
{ACAD_REACTORS
330
C
102
}
330
C
100
AcDbDictionary
281
     1
  3
ByBlock
350
45
  3
ByLayer
350
44
  3
Global
350
46
  0
DICTIONARY
  5
6B
102
{ACAD_REACTORS
330
C
102
}
330
C
100
AcDbDictionary
281
     1
  3
Standard
350
6C
  0
DICTIONARY
  5
17
102
{ACAD_REACTORS
330
C
102
}
330
C
100
AcDbDictionary
281
     1
  3
Standard
350
18
  0
DICTIONARY
  5
19
102
{ACAD_REACTORS
330
C
102
}
330
C
100
AcDbDictionary
281
     1
  0
ACDBDICTIONARYWDFLT
  5
E
102
{ACAD_REACTORS
330
C
102
}
330
C
100
AcDbDictionary
281
     1
  3
Normal
350
F
100
AcDbDictionaryWithDefault
340
F
  0
DICTIONARY
  5
47
102
{ACAD_REACTORS
330
C
102
}
330
C
100
AcDbDictionary
281
     1
  3
A0
350
48
  3
A1
350
49
  3
A2
350
4A
  3
A3
350
4B
  3
A4
350
4C
  3
A5
350
4D
  3
A6
350
4E
  3
A7
350
4F
  3
A8
350
50
  3
A9
350
51
  3
B0
350
52
  3
B1
350
53
  3
B2
350
54
  3
B3
350
55
  3
B4
350
56
  3
B5
350
57
  3
B6
350
58
  3
B7
350
59
  3
B8
350
5A
  3
B9
350
5B
  3
C0
350
5C
  3
C1
350
5D
  3
C2
350
5E
  3
C3
350
5F
  3
C4
350
60
  3
C5
350
61
  3
C6
350
62
  3
C7
350
63
  3
C8
350
64
  3
C9
350
65
  3
D0
350
66
  3
D1
350
67
  3
D2
350
68
  0
DICTIONARY
  5
34D
102
{ACAD_REACTORS
330
C
102
}
330
C
100
AcDbDictionary
281
     1
  0
DICTIONARY
  5
69
102
{ACAD_REACTORS
330
C
102
}
330
C
100
AcDbDictionary
281
     1
  3
Standard
350
6A
  0
DICTIONARY
  5
2A
102
{ACAD_REACTORS
330
C
102
}
330
C
100
AcDbDictionary
281
     1
  3
2dWireframe
350
2F
  3
Basic
350
32
  3
Brighten
350
36
  3
ColorChange
350
3A
  3
Conceptual
350
34
  3
Dim
350
35
  3
EdgeColorOff
350
3D
  3
Facepattern
350
39
  3
Flat
350
2B
  3
FlatWithEdges
350
2C
  3
Gouraud
350
2D
  3
GouraudWithEdges
350
2E
  3
Hidden
350
31
  3
JitterOff
350
3B
  3
Linepattern
350
38
  3
OverhangOff
350
3C
  3
Realistic
350
33
  3
Shaded
350
42
  3
Shaded with edges
350
41
  3
Shades of Gray
350
3E
  3
Sketchy
350
3F
  3
Thicken
350
37
  3
Wireframe
350
30
  3
X-Ray
350
40
  0
XRECORD
  5
349
102
{ACAD_REACTORS
330
C
102
}
330
C
100
AcDbXrecord
280
     1
 90
        1
330
6A
  0
DICTIONARY
  5
309
102
{ACAD_REACTORS
330
C
102
}
330
C
100
AcDbDictionary
281
     1
  3
CANNOSCALE
350
30A
  3
CENTEREXE
350
34E
  3
CENTERLTYPEFILE
350
34F
  3
CMLEADERSTYLE
350
34B
  3
CTABLESTYLE
350
34A
  3
MSLTSCALE
350
30B
  3
XCLIPFRAME
350
30C
  0
XRECORD
  5
308
102
{ACAD_REACTORS
330
307
102
}
330
307
100
AcDbXrecord
280
     1
102
VTR_0.000_0.000_1.000_1.000_VISUALSTYLE
340
2F
102
VTR_0.000_0.000_1.000_1.000_GRIDDISPLAY
 70
     3
102
VTR_0.000_0.000_1.000_1.000_GRIDMAJOR
 70
     5
102
VTR_0.000_0.000_1.000_1.000_DEFAULTLIGHTING
280
     1
102
VTR_0.000_0.000_1.000_1.000_DEFAULTLIGHTINGTYPE
 70
     1
102
VTR_0.000_0.000_1.000_1.000_BRIGHTNESS
141
0.0
102
VTR_0.000_0.000_1.000_1.000_CONTRAST
142
0.0
  0
LAYOUT
  5
1E
102
{ACAD_REACTORS
330
1A
102
}
330
1A
100
AcDbPlotSettings
  1

  2
none_device
  4

  6

 40
0.0
 41
0.0
 42
0.0
 43
0.0
 44
0.0
 45
0.0
 46
0.0
 47
0.0
 48
0.0
 49
0.0
140
0.0
141
0.0
142
1.0
143
1.0
 70
   688
 72
     1
 73
     0
 74
     5
  7

 75
    16
 76
     0
 77
     5
 78
   300
147
1.0
148
0.0
149
0.0
100
AcDbLayout
  1
Layout1
 70
     1
 71
     1
 10
0.0
 20
0.0
 11
420.0
 21
297.0
 12
0.0
 22
0.0
 32
0.0
 14
1.000000000000000E+20
 24
1.000000000000000E+20
 34
1.000000000000000E+20
 15
-1.000000000000000E+20
 25
-1.000000000000000E+20
 35
-1.000000000000000E+20
146
0.0
 13
0.0
 23
0.0
 33
0.0
 16
1.0
 26
0.0
 36
0.0
 17
0.0
 27
1.0
 37
0.0
 76
     0
330
1B
  0
LAYOUT
  5
26
102
{ACAD_REACTORS
330
1A
102
}
330
1A
100
AcDbPlotSettings
  1

  2
none_device
  4

  6

 40
0.0
 41
0.0
 42
0.0
 43
0.0
 44
0.0
 45
0.0
 46
0.0
 47
0.0
 48
0.0
 49
0.0
140
0.0
141
0.0
142
1.0
143
1.0
 70
   688
 72
     1
 73
     0
 74
     5
  7

 75
    16
 76
     0
 77
     5
 78
   300
147
1.0
148
0.0
149
0.0
100
AcDbLayout
  1
Layout2
 70
     1
 71
     2
 10
0.0
 20
0.0
 11
0.0
 21
0.0
 12
0.0
 22
0.0
 32
0.0
 14
0.0
 24
0.0
 34
0.0
 15
0.0
 25
0.0
 35
0.0
146
0.0
 13
0.0
 23
0.0
 33
0.0
 16
1.0
 26
0.0
 36
0.0
 17
0.0
 27
1.0
 37
0.0
 76
     0
330
23
  0
LAYOUT
  5
22
102
{ACAD_REACTORS
330
1A
102
}
330
1A
100
AcDbPlotSettings
  1

  2
none_device
  4
Letter_(8.50_x_11.00_Inches)
  6

 40
6.35
 41
6.35
 42
6.35000508
 43
6.35000508
 44
215.9
 45
279.4
 46
0.0
 47
0.0
 48
0.0
 49
0.0
140
0.0
141
0.0
142
1.0
143
1.0
 70
  1712
 72
     1
 73
     0
 74
     0
  7

 75
     0
 76
     0
 77
     5
 78
   300
147
1.0
148
0.0
149
0.0
100
AcDbLayout
  1
Model
 70
     1
 71
     0
 10
-1050.0
 20
-742.5
 11
1050.0
 21
742.5
 12
0.0
 22
0.0
 32
0.0
 14
-1050.0
 24
-742.5
 34
0.0
 15
1050.0
 25
742.5
 35
0.0
146
0.0
 13
0.0
 23
0.0
 33
0.0
 16
1.0
 26
0.0
 36
0.0
 17
0.0
 27
1.0
 37
0.0
 76
     0
330
1F
331
29
  0
MATERIAL
  5
45
102
{ACAD_REACTORS
330
43
102
}
102
{ACAD_XDICTIONARY
360
33F
102
}
330
43
100
AcDbMaterial
  1
ByBlock
  0
MATERIAL
  5
44
102
{ACAD_REACTORS
330
43
102
}
102
{ACAD_XDICTIONARY
360
33D
102
}
330
43
100
AcDbMaterial
  1
ByLayer
  0
MATERIAL
  5
46
102
{ACAD_REACTORS
330
43
102
}
102
{ACAD_XDICTIONARY
360
341
102
}
330
43
100
AcDbMaterial
  1
Global
  0
MLEADERSTYLE
  5
6C
102
{ACAD_REACTORS
330
6B
102
}
102
{ACAD_XDICTIONARY
360
347
102
}
330
6B
100
AcDbMLeaderStyle
170
     2
171
     1
172
     0
 90
        2
 40
0.0
 41
0.0
173
     1
 91
-1056964608
340
14
 92
       -2
290
     1
 42
2.0
291
     1
 43
8.0
  3
Standard
341
0
 44
4.0
300

342
11
174
     1
178
     6
175
     1
176
     0
 93
-1056964608
 45
4.0
292
     0
297
     0
 46
4.0
343
0
 94
-1056964608
 47
1.0
 49
1.0
140
1.0
293
     1
141
0.0
294
     1
177
     0
142
1.0
295
     0
296
     0
143
3.75
1001
ACAD_MLEADERVER
1070
     2
  0
MLINESTYLE
  5
18
102
{ACAD_REACTORS
330
17
102
}
330
17
100
AcDbMlineStyle
  2
Standard
 70
     0
  3

 62
   256
 51
90.0
 52
90.0
 71
     2
 49
0.5
 62
   256
  6
BYLAYER
 49
-0.5
 62
   256
  6
BYLAYER
  0
ACDBPLACEHOLDER
  5
F
102
{ACAD_REACTORS
330
E
102
}
330
E
  0
SCALE
  5
48
102
{ACAD_REACTORS
330
47
102
}
330
47
100
AcDbScale
 70
     0
300
1:1
140
1.0
141
1.0
290
     1
  0
SCALE
  5
49
102
{ACAD_REACTORS
330
47
102
}
330
47
100
AcDbScale
 70
     0
300
1:2
140
1.0
141
2.0
290
     0
  0
SCALE
  5
4A
102
{ACAD_REACTORS
330
47
102
}
330
47
100
AcDbScale
 70
     0
300
1:4
140
1.0
141
4.0
290
     0
  0
SCALE
  5
4B
102
{ACAD_REACTORS
330
47
102
}
330
47
100
AcDbScale
 70
     0
300
1:5
140
1.0
141
5.0
290
     0
  0
SCALE
  5
4C
102
{ACAD_REACTORS
330
47
102
}
330
47
100
AcDbScale
 70
     0
300
1:8
140
1.0
141
8.0
290
     0
  0
SCALE
  5
4D
102
{ACAD_REACTORS
330
47
102
}
330
47
100
AcDbScale
 70
     0
300
1:10
140
1.0
141
10.0
290
     0
  0
SCALE
  5
4E
102
{ACAD_REACTORS
330
47
102
}
330
47
100
AcDbScale
 70
     0
300
1:16
140
1.0
141
16.0
290
     0
  0
SCALE
  5
4F
102
{ACAD_REACTORS
330
47
102
}
330
47
100
AcDbScale
 70
     0
300
1:20
140
1.0
141
20.0
290
     0
  0
SCALE
  5
50
102
{ACAD_REACTORS
330
47
102
}
330
47
100
AcDbScale
 70
     0
300
1:30
140
1.0
141
30.0
290
     0
  0
SCALE
  5
51
102
{ACAD_REACTORS
330
47
102
}
330
47
100
AcDbScale
 70
     0
300
1:40
140
1.0
141
40.0
290
     0
  0
SCALE
  5
52
102
{ACAD_REACTORS
330
47
102
}
330
47
100
AcDbScale
 70
     0
300
1:50
140
1.0
141
50.0
290
     0
  0
SCALE
  5
53
102
{ACAD_REACTORS
330
47
102
}
330
47
100
AcDbScale
 70
     0
300
1:100
140
1.0
141
100.0
290
     0
  0
SCALE
  5
54
102
{ACAD_REACTORS
330
47
102
}
330
47
100
AcDbScale
 70
     0
300
2:1
140
2.0
141
1.0
290
     0
  0
SCALE
  5
55
102
{ACAD_REACTORS
330
47
102
}
330
47
100
AcDbScale
 70
     0
300
4:1
140
4.0
141
1.0
290
     0
  0
SCALE
  5
56
102
{ACAD_REACTORS
330
47
102
}
330
47
100
AcDbScale
 70
     0
300
8:1
140
8.0
141
1.0
290
     0
  0
SCALE
  5
57
102
{ACAD_REACTORS
330
47
102
}
330
47
100
AcDbScale
 70
     0
300
10:1
140
10.0
141
1.0
290
     0
  0
SCALE
  5
58
102
{ACAD_REACTORS
330
47
102
}
330
47
100
AcDbScale
 70
     0
300
100:1
140
100.0
141
1.0
290
     0
  0
SCALE
  5
59
102
{ACAD_REACTORS
330
47
102
}
330
47
100
AcDbScale
 70
     0
300
1/128" = 1'-0"
140
0.0078125
141
12.0
290
     0
  0
SCALE
  5
5A
102
{ACAD_REACTORS
330
47
102
}
330
47
100
AcDbScale
 70
     0
300
1/64" = 1'-0"
140
0.015625
141
12.0
290
     0
  0
SCALE
  5
5B
102
{ACAD_REACTORS
330
47
102
}
330
47
100
AcDbScale
 70
     0
300
1/32" = 1'-0"
140
0.03125
141
12.0
290
     0
  0
SCALE
  5
5C
102
{ACAD_REACTORS
330
47
102
}
330
47
100
AcDbScale
 70
     0
300
1/16" = 1'-0"
140
0.0625
141
12.0
290
     0
  0
SCALE
  5
5D
102
{ACAD_REACTORS
330
47
102
}
330
47
100
AcDbScale
 70
     0
300
3/32" = 1'-0"
140
0.09375
141
12.0
290
     0
  0
SCALE
  5
5E
102
{ACAD_REACTORS
330
47
102
}
330
47
100
AcDbScale
 70
     0
300
1/8" = 1'-0"
140
0.125
141
12.0
290
     0
  0
SCALE
  5
5F
102
{ACAD_REACTORS
330
47
102
}
330
47
100
AcDbScale
 70
     0
300
3/16" = 1'-0"
140
0.1875
141
12.0
290
     0
  0
SCALE
  5
60
102
{ACAD_REACTORS
330
47
102
}
330
47
100
AcDbScale
 70
     0
300
1/4" = 1'-0"
140
0.25
141
12.0
290
     0
  0
SCALE
  5
61
102
{ACAD_REACTORS
330
47
102
}
330
47
100
AcDbScale
 70
     0
300
3/8" = 1'-0"
140
0.375
141
12.0
290
     0
  0
SCALE
  5
62
102
{ACAD_REACTORS
330
47
102
}
330
47
100
AcDbScale
 70
     0
300
1/2" = 1'-0"
140
0.5
141
12.0
290
     0
  0
SCALE
  5
63
102
{ACAD_REACTORS
330
47
102
}
330
47
100
AcDbScale
 70
     0
300
3/4" = 1'-0"
140
0.75
141
12.0
290
     0
  0
SCALE
  5
64
102
{ACAD_REACTORS
330
47
102
}
330
47
100
AcDbScale
 70
     0
300
1" = 1'-0"
140
1.0
141
12.0
290
     0
  0
SCALE
  5
65
102
{ACAD_REACTORS
330
47
102
}
330
47
100
AcDbScale
 70
     0
300
1-1/2" = 1'-0"
140
1.5
141
12.0
290
     0
  0
SCALE
  5
66
102
{ACAD_REACTORS
330
47
102
}
330
47
100
AcDbScale
 70
     0
300
3" = 1'-0"
140
3.0
141
12.0
290
     0
  0
SCALE
  5
67
102
{ACAD_REACTORS
330
47
102
}
330
47
100
AcDbScale
 70
     0
300
6" = 1'-0"
140
6.0
141
12.0
290
     0
  0
SCALE
  5
68
102
{ACAD_REACTORS
330
47
102
}
330
47
100
AcDbScale
 70
     0
300
1'-0" = 1'-0"
140
12.0
141
12.0
290
     0
  0
TABLESTYLE
  5
6A
102
{ACAD_REACTORS
330
69
102
}
102
{ACAD_XDICTIONARY
360
343
102
}
330
69
100
AcDbTableStyle
  3
Standard
 70
     0
 71
     0
 40
0.06
 41
0.06
280
     0
281
     0
  7
Standard
140
4.5
170
     2
 62
     0
 63
   257
283
     0
274
    -2
284
     1
 64
     0
275
    -2
285
     1
 65
     0
276
    -2
286
     1
 66
     0
277
    -2
287
     1
 67
     0
278
    -2
288
     1
 68
     0
279
    -2
289
     1
 69
     0
  7
Standard
140
6.0
170
     5
 62
     0
 63
   257
283
     0
274
    -2
284
     1
 64
     0
275
    -2
285
     1
 65
     0
276
    -2
286
     1
 66
     0
277
    -2
287
     1
 67
     0
278
    -2
288
     1
 68
     0
279
    -2
289
     1
 69
     0
  7
Standard
140
4.5
170
     5
 62
     0
 63
   257
283
     0
274
    -2
284
     1
 64
     0
275
    -2
285
     1
 65
     0
276
    -2
286
     1
 66
     0
277
    -2
287
     1
 67
     0
278
    -2
288
     1
 68
     0
279
    -2
289
     1
 69
     0
  0
VISUALSTYLE
  5
2F
102
{ACAD_REACTORS
330
2A
102
}
102
{ACAD_XDICTIONARY
360
315
102
}
330
2A
100
AcDbVisualStyle
  2
2dWireframe
 70
     4
 71
     0
 72
     2
 73
     0
 90
        0
 40
0.6
 41
30.0
 62
     5
 63
     7
421
 16777215
 74
     1
 91
        4
 64
     7
 65
   257
 75
     1
175
     1
 42
1.0
 92
        0
 66
   257
 43
1.0
 76
     1
 77
     6
 78
     2
 67
     7
 79
     5
170
     0
171
     0
290
     0
174
     0
 93
        1
 44
0.0
173
     0
291
     0
 45
0.0
1001
ACAD
1000
AcDbSavedByObjectVersion
1070
     0
  0
VISUALSTYLE
  5
32
102
{ACAD_REACTORS
330
2A
102
}
102
{ACAD_XDICTIONARY
360
31B
102
}
330
2A
100
AcDbVisualStyle
  2
Basic
 70
     7
 71
     1
 72
     0
 73
     1
 90
        0
 40
0.6
 41
30.0
 62
     5
 63
     7
421
 16777215
 74
     0
 91
        4
 64
     7
 65
   257
 75
     1
175
     1
 42
1.0
 92
        8
 66
     7
 43
1.0
 76
     1
 77
     6
 78
     2
 67
     7
 79
     5
170
     0
171
     0
290
     0
174
     0
 93
        1
 44
0.0
173
     0
291
     1
 45
0.0
1001
ACAD
1000
AcDbSavedByObjectVersion
1070
     0
  0
VISUALSTYLE
  5
36
102
{ACAD_REACTORS
330
2A
102
}
102
{ACAD_XDICTIONARY
360
323
102
}
330
2A
100
AcDbVisualStyle
  2
Brighten
 70
    12
 71
     2
 72
     2
 73
     0
 90
        0
 40
0.6
 41
30.0
 62
     5
 63
     7
421
 16777215
 74
     1
 91
        4
 64
     7
 65
   257
 75
     1
175
     1
 42
1.0
 92
        8
 66
     7
 43
1.0
 76
     1
 77
     6
 78
     2
 67
     7
 79
     5
170
     0
171
     0
290
     0
174
     0
 93
        1
 44
50.0
173
     0
291
     1
 45
0.0
1001
ACAD
1000
AcDbSavedByObjectVersion
1070
     0
  0
VISUALSTYLE
  5
3A
102
{ACAD_REACTORS
330
2A
102
}
102
{ACAD_XDICTIONARY
360
32B
102
}
330
2A
100
AcDbVisualStyle
  2
ColorChange
 70
    16
 71
     2
 72
     2
 73
     3
 90
        0
 40
0.6
 41
30.0
 62
     5
 63
     8
421
  8421504
 74
     1
 91
        4
 64
     7
 65
   257
 75
     1
175
     1
 42
1.0
 92
        8
 66
     8
424
  8421504
 43
1.0
 76
     1
 77
     6
 78
     2
 67
     7
 79
     5
170
     0
171
     0
290
     0
174
     0
 93
        1
 44
0.0
173
     0
291
     1
 45
0.0
1001
ACAD
1000
AcDbSavedByObjectVersion
1070
     0
  0
VISUALSTYLE
  5
34
102
{ACAD_REACTORS
330
2A
102
}
102
{ACAD_XDICTIONARY
360
31F
102
}
330
2A
100
AcDbVisualStyle
  2
Conceptual
 70
     9
 71
     3
 72
     2
 73
     0
 90
        0
 40
0.6
 41
30.0
 62
     5
 63
     7
421
 16777215
 74
     2
 91
        2
 64
     7
 65
   257
 75
     1
175
     1
 42
179.0
 92
        8
 66
     7
 43
1.0
 76
     1
 77
     6
 78
     2
 67
     7
 79
     3
170
     0
171
     0
290
     0
174
     0
 93
        1
 44
0.0
173
     0
291
     0
 45
0.0
1001
ACAD
1000
AcDbSavedByObjectVersion
1070
     0
  0
VISUALSTYLE
  5
35
102
{ACAD_REACTORS
330
2A
102
}
102
{ACAD_XDICTIONARY
360
321
102
}
330
2A
100
AcDbVisualStyle
  2
Dim
 70
    11
 71
     2
 72
     2
 73
     0
 90
        0
 40
0.6
 41
30.0
 62
     5
 63
     7
421
 16777215
 74
     1
 91
        4
 64
     7
 65
   257
 75
     1
175
     1
 42
1.0
 92
        8
 66
     7
 43
1.0
 76
     1
 77
     6
 78
     2
 67
     7
 79
     5
170
     0
171
     0
290
     0
174
     0
 93
        1
 44
-50.0
173
     0
291
     1
 45
0.0
1001
ACAD
1000
AcDbSavedByObjectVersion
1070
     0
  0
VISUALSTYLE
  5
3D
102
{ACAD_REACTORS
330
2A
102
}
102
{ACAD_XDICTIONARY
360
331
102
}
330
2A
100
AcDbVisualStyle
  2
EdgeColorOff
 70
    22
 71
     2
 72
     2
 73
     0
 90
        0
 40
0.6
 41
30.0
 62
     5
 63
     7
421
 16777215
 74
     1
 91
        4
 64
     7
 65
   257
 75
     1
175
     1
 42
1.0
 92
        8
 66
     7
 43
1.0
 76
     1
 77
     6
 78
     2
 67
     7
 79
     5
170
     0
171
     0
290
     0
174
     0
 93
        1
 44
0.0
173
     0
291
     1
 45
0.0
1001
ACAD
1000
AcDbSavedByObjectVersion
1070
     0
  0
VISUALSTYLE
  5
39
102
{ACAD_REACTORS
330
2A
102
}
102
{ACAD_XDICTIONARY
360
329
102
}
330
2A
100
AcDbVisualStyle
  2
Facepattern
 70
    15
 71
     2
 72
     2
 73
     0
 90
        0
 40
0.6
 41
30.0
 62
     5
 63
     7
421
 16777215
 74
     1
 91
        4
 64
     7
 65
   257
 75
     1
175
     1
 42
1.0
 92
        8
 66
     7
 43
1.0
 76
     1
 77
     6
 78
     2
 67
     7
 79
     5
170
     0
171
     0
290
     0
174
     0
 93
        1
 44
0.0
173
     0
291
     1
 45
0.0
1001
ACAD
1000
AcDbSavedByObjectVersion
1070
     0
  0
VISUALSTYLE
  5
2B
102
{ACAD_REACTORS
330
2A
102
}
102
{ACAD_XDICTIONARY
360
30D
102
}
330
2A
100
AcDbVisualStyle
  2
Flat
 70
     0
 71
     2
 72
     1
 73
     1
 90
        2
 40
0.6
 41
30.0
 62
     5
 63
     7
421
 16777215
 74
     0
 91
        0
 64
     7
 65
   257
 75
     1
175
     1
 42
1.0
 92
        8
 66
     7
 43
1.0
 76
     1
 77
     6
 78
     2
 67
     7
 79
     5
170
     0
171
     0
290
     0
174
     0
 93
       13
 44
0.0
173
     0
291
     1
 45
0.0
1001
ACAD
1000
AcDbSavedByObjectVersion
1070
     0
  0
VISUALSTYLE
  5
2C
102
{ACAD_REACTORS
330
2A
102
}
102
{ACAD_XDICTIONARY
360
30F
102
}
330
2A
100
AcDbVisualStyle
  2
FlatWithEdges
 70
     1
 71
     2
 72
     1
 73
     1
 90
        2
 40
0.6
 41
30.0
 62
     5
 63
     7
421
 16777215
 74
     1
 91
        0
 64
     7
 65
   257
 75
     1
175
     1
 42
1.0
 92
        0
 66
   257
 43
1.0
 76
     1
 77
     6
 78
     2
 67
     7
 79
     5
170
     0
171
     0
290
     0
174
     0
 93
       13
 44
0.0
173
     0
291
     1
 45
0.0
1001
ACAD
1000
AcDbSavedByObjectVersion
1070
     0
  0
VISUALSTYLE
  5
2D
102
{ACAD_REACTORS
330
2A
102
}
102
{ACAD_XDICTIONARY
360
311
102
}
330
2A
100
AcDbVisualStyle
  2
Gouraud
 70
     2
 71
     2
 72
     2
 73
     1
 90
        2
 40
0.6
 41
30.0
 62
     5
 63
     7
421
 16777215
 74
     0
 91
        0
 64
     7
 65
   257
 75
     1
175
     1
 42
1.0
 92
        0
 66
     7
 43
1.0
 76
     1
 77
     6
 78
     2
 67
     7
 79
     5
170
     0
171
     0
290
     0
174
     0
 93
       13
 44
0.0
173
     0
291
     1
 45
0.0
1001
ACAD
1000
AcDbSavedByObjectVersion
1070
     0
  0
VISUALSTYLE
  5
2E
102
{ACAD_REACTORS
330
2A
102
}
102
{ACAD_XDICTIONARY
360
313
102
}
330
2A
100
AcDbVisualStyle
  2
GouraudWithEdges
 70
     3
 71
     2
 72
     2
 73
     1
 90
        2
 40
0.6
 41
30.0
 62
     5
 63
     7
421
 16777215
 74
     1
 91
        0
 64
     7
 65
   257
 75
     1
175
     1
 42
1.0
 92
        0
 66
   257
 43
1.0
 76
     1
 77
     6
 78
     2
 67
     7
 79
     5
170
     0
171
     0
290
     0
174
     0
 93
       13
 44
0.0
173
     0
291
     1
 45
0.0
1001
ACAD
1000
AcDbSavedByObjectVersion
1070
     0
  0
VISUALSTYLE
  5
31
102
{ACAD_REACTORS
330
2A
102
}
102
{ACAD_XDICTIONARY
360
319
102
}
330
2A
100
AcDbVisualStyle
  2
Hidden
 70
     6
 71
     1
 72
     2
 73
     2
 90
        0
 40
0.6
 41
30.0
 62
     5
 63
     7
421
 16777215
 74
     2
 91
        2
 64
     7
 65
   257
 75
     2
175
     1
 42
40.0
 92
        0
 66
   257
 43
1.0
 76
     1
 77
     6
 78
     2
 67
     7
 79
     3
170
     0
171
     0
290
     0
174
     0
 93
        1
 44
0.0
173
     0
291
     0
 45
0.0
1001
ACAD
1000
AcDbSavedByObjectVersion
1070
     0
  0
VISUALSTYLE
  5
3B
102
{ACAD_REACTORS
330
2A
102
}
102
{ACAD_XDICTIONARY
360
32D
102
}
330
2A
100
AcDbVisualStyle
  2
JitterOff
 70
    20
 71
     2
 72
     2
 73
     0
 90
        0
 40
0.6
 41
30.0
 62
     5
 63
     7
421
 16777215
 74
     1
 91
        4
 64
     7
 65
   257
 75
     1
175
     1
 42
1.0
 92
       10
 66
     7
 43
1.0
 76
     1
 77
     6
 78
     2
 67
     7
 79
     5
170
     0
171
     0
290
     0
174
     0
 93
        1
 44
0.0
173
     0
291
     1
 45
0.0
1001
ACAD
1000
AcDbSavedByObjectVersion
1070
     0
  0
VISUALSTYLE
  5
38
102
{ACAD_REACTORS
330
2A
102
}
102
{ACAD_XDICTIONARY
360
327
102
}
330
2A
100
AcDbVisualStyle
  2
Linepattern
 70
    14
 71
     2
 72
     2
 73
     0
 90
        0
 40
0.6
 41
30.0
 62
     5
 63
     7
421
 16777215
 74
     1
 91
        4
 64
     7
 65
   257
 75
     7
175
     7
 42
1.0
 92
        8
 66
     7
 43
1.0
 76
     1
 77
     6
 78
     2
 67
     7
 79
     5
170
     0
171
     0
290
     0
174
     0
 93
        1
 44
0.0
173
     0
291
     1
 45
0.0
1001
ACAD
1000
AcDbSavedByObjectVersion
1070
     0
  0
VISUALSTYLE
  5
3C
102
{ACAD_REACTORS
330
2A
102
}
102
{ACAD_XDICTIONARY
360
32F
102
}
330
2A
100
AcDbVisualStyle
  2
OverhangOff
 70
    21
 71
     2
 72
     2
 73
     0
 90
        0
 40
0.6
 41
30.0
 62
     5
 63
     7
421
 16777215
 74
     1
 91
        4
 64
     7
 65
   257
 75
     1
175
     1
 42
1.0
 92
        9
 66
     7
 43
1.0
 76
     1
 77
     6
 78
     2
 67
     7
 79
     5
170
     0
171
     0
290
     0
174
     0
 93
        1
 44
0.0
173
     0
291
     1
 45
0.0
1001
ACAD
1000
AcDbSavedByObjectVersion
1070
     0
  0
VISUALSTYLE
  5
33
102
{ACAD_REACTORS
330
2A
102
}
102
{ACAD_XDICTIONARY
360
31D
102
}
330
2A
100
AcDbVisualStyle
  2
Realistic
 70
     8
 71
     2
 72
     3
 73
     0
 90
        2
 40
0.6
 41
30.0
 62
     5
 63
     7
421
 16777215
 74
     0
 91
        0
 64
     7
 65
   257
 75
     1
175
     1
 42
1.0
 92
        8
 66
   257
 43
1.0
 76
     1
 77
     6
 78
     2
 67
     7
 79
     3
170
     0
171
     0
290
     0
174
     0
 93
       13
 44
0.0
173
     0
291
     0
 45
0.0
1001
ACAD
1000
AcDbSavedByObjectVersion
1070
     0
  0
VISUALSTYLE
  5
42
102
{ACAD_REACTORS
330
2A
102
}
102
{ACAD_XDICTIONARY
360
33B
102
}
330
2A
100
AcDbVisualStyle
  2
Shaded
 70
    27
 71
     2
 72
     2
 73
     1
 90
        2
 40
0.6
 41
30.0
 62
     5
 63
     7
421
 16777215
 74
     0
 91
        4
 64
     7
 65
   257
 75
     1
175
     1
 42
1.0
 92
        8
 66
   257
 43
1.0
 76
     1
 77
     6
 78
     2
 67
     8
425
  7895160
 79
     3
170
     0
171
     0
290
     0
174
     0
 93
        5
 44
0.0
173
     0
291
     0
 45
0.0
1001
ACAD
1000
AcDbSavedByObjectVersion
1070
     0
  0
VISUALSTYLE
  5
41
102
{ACAD_REACTORS
330
2A
102
}
102
{ACAD_XDICTIONARY
360
339
102
}
330
2A
100
AcDbVisualStyle
  2
Shaded with edges
 70
    26
 71
     2
 72
     2
 73
     1
 90
        2
 40
0.6
 41
30.0
 62
     5
 63
     7
421
 16777215
 74
     1
 91
       10
 64
     7
 65
   257
 75
     2
175
     1
 42
1.0
 92
        8
 66
   257
 43
1.0
 76
     1
 77
     6
 78
     2
 67
     7
 79
     3
170
     0
171
     0
290
     0
174
     0
 93
        5
 44
0.0
173
     0
291
     0
 45
0.0
1001
ACAD
1000
AcDbSavedByObjectVersion
1070
     0
  0
VISUALSTYLE
  5
3E
102
{ACAD_REACTORS
330
2A
102
}
102
{ACAD_XDICTIONARY
360
333
102
}
330
2A
100
AcDbVisualStyle
  2
Shades of Gray
 70
    23
 71
     2
 72
     2
 73
     3
 90
        0
 40
0.6
 41
30.0
 62
     5
 63
     7
421
 16777215
 74
     2
 91
        2
 64
     7
 65
     7
 75
     1
175
     1
 42
40.0
 92
        8
 66
     7
 43
1.0
 76
     1
 77
     6
 78
     2
 67
     7
 79
     3
170
     0
171
     0
290
     0
174
     0
 93
        1
 44
0.0
173
     0
291
     0
 45
0.0
1001
ACAD
1000
AcDbSavedByObjectVersion
1070
     0
  0
VISUALSTYLE
  5
3F
102
{ACAD_REACTORS
330
2A
102
}
102
{ACAD_XDICTIONARY
360
335
102
}
330
2A
100
AcDbVisualStyle
  2
Sketchy
 70
    24
 71
     1
 72
     2
 73
     2
 90
        0
 40
0.6
 41
30.0
 62
     5
 63
     7
421
 16777215
 74
     2
 91
        2
 64
     7
 65
     7
 75
     1
175
     1
 42
40.0
 92
       11
 66
     7
 43
1.0
 76
     1
 77
     6
 78
     2
 67
     7
 79
     6
170
     0
171
     0
290
     0
174
     0
 93
        1
 44
0.0
173
     0
291
     0
 45
0.0
1001
ACAD
1000
AcDbSavedByObjectVersion
1070
     0
  0
VISUALSTYLE
  5
37
102
{ACAD_REACTORS
330
2A
102
}
102
{ACAD_XDICTIONARY
360
325
102
}
330
2A
100
AcDbVisualStyle
  2
Thicken
 70
    13
 71
     2
 72
     2
 73
     0
 90
        0
 40
0.6
 41
30.0
 62
     5
 63
     7
421
 16777215
 74
     1
 91
        4
 64
     7
 65
   257
 75
     1
175
     1
 42
1.0
 92
       12
 66
     7
 43
1.0
 76
     1
 77
     6
 78
     2
 67
     7
 79
     5
170
     0
171
     0
290
     0
174
     0
 93
        1
 44
0.0
173
     0
291
     1
 45
0.0
1001
ACAD
1000
AcDbSavedByObjectVersion
1070
     0
  0
VISUALSTYLE
  5
30
102
{ACAD_REACTORS
330
2A
102
}
102
{ACAD_XDICTIONARY
360
317
102
}
330
2A
100
AcDbVisualStyle
  2
Wireframe
 70
     5
 71
     0
 72
     2
 73
     0
 90
        0
 40
0.6
 41
30.0
 62
     5
 63
     7
421
 16777215
 74
     1
 91
        4
 64
     7
 65
   257
 75
     1
175
     1
 42
1.0
 92
        0
 66
   257
 43
1.0
 76
     1
 77
     6
 78
     2
 67
     7
 79
     3
170
     0
171
     0
290
     0
174
     0
 93
        1
 44
0.0
173
     0
291
     0
 45
0.0
1001
ACAD
1000
AcDbSavedByObjectVersion
1070
     0
  0
VISUALSTYLE
  5
40
102
{ACAD_REACTORS
330
2A
102
}
102
{ACAD_XDICTIONARY
360
337
102
}
330
2A
100
AcDbVisualStyle
  2
X-Ray
 70
    25
 71
     2
 72
     2
 73
     1
 90
        1
 40
0.5
 41
30.0
 62
     5
 63
     7
421
 16777215
 74
     1
 91
        0
 64
     7
 65
   257
 75
     1
175
     1
 42
1.0
 92
        8
 66
     7
 43
1.0
 76
     1
 77
     6
 78
     2
 67
     7
 79
     3
170
     0
171
     0
290
     0
174
     0
 93
       13
 44
0.0
173
     0
291
     0
 45
0.0
1001
ACAD
1000
AcDbSavedByObjectVersion
1070
     0
  0
DICTIONARYVAR
  5
30A
102
{ACAD_REACTORS
330
309
102
}
330
309
100
DictionaryVariables
280
     0
  1
1:1
  0
DICTIONARYVAR
  5
34E
102
{ACAD_REACTORS
330
309
102
}
330
309
100
DictionaryVariables
280
     0
  1
3.500000
  0
DICTIONARYVAR
  5
34F
102
{ACAD_REACTORS
330
309
102
}
330
309
100
DictionaryVariables
280
     0
  1
acadiso.lin
  0
DICTIONARYVAR
  5
34B
102
{ACAD_REACTORS
330
309
102
}
330
309
100
DictionaryVariables
280
     0
  1
Standard
  0
DICTIONARYVAR
  5
34A
102
{ACAD_REACTORS
330
309
102
}
330
309
100
DictionaryVariables
280
     0
  1
Standard
  0
DICTIONARYVAR
  5
30B
102
{ACAD_REACTORS
330
309
102
}
330
309
100
DictionaryVariables
280
     0
  1
1
  0
DICTIONARYVAR
  5
30C
102
{ACAD_REACTORS
330
309
102
}
330
309
100
DictionaryVariables
280
     0
  1
2
  0
DICTIONARY
  5
33F
330
45
100
AcDbDictionary
280
     1
281
     1
  3
ACAD_XREC_ROUNDTRIP
360
340
  0
DICTIONARY
  5
33D
330
44
100
AcDbDictionary
280
     1
281
     1
  3
ACAD_XREC_ROUNDTRIP
360
33E
  0
DICTIONARY
  5
341
330
46
100
AcDbDictionary
280
     1
281
     1
  3
ACAD_XREC_ROUNDTRIP
360
342
  0
DICTIONARY
  5
347
330
6C
100
AcDbDictionary
280
     1
281
     1
  3
ACAD_XREC_ROUNDTRIP
360
348
  0
DICTIONARY
  5
343
330
6A
100
AcDbDictionary
280
     1
281
     1
  3
ACAD_ROUNDTRIP_2008_TABLESTYLE_CELLSTYLEMAP
360
345
  3
ACAD_XREC_ROUNDTRIP
360
344
  0
DICTIONARY
  5
315
330
2F
100
AcDbDictionary
280
     1
281
     1
  3
ACAD_XREC_ROUNDTRIP
360
316
  0
DICTIONARY
  5
31B
330
32
100
AcDbDictionary
280
     1
281
     1
  3
ACAD_XREC_ROUNDTRIP
360
31C
  0
DICTIONARY
  5
323
330
36
100
AcDbDictionary
280
     1
281
     1
  3
ACAD_XREC_ROUNDTRIP
360
324
  0
DICTIONARY
  5
32B
330
3A
100
AcDbDictionary
280
     1
281
     1
  3
ACAD_XREC_ROUNDTRIP
360
32C
  0
DICTIONARY
  5
31F
330
34
100
AcDbDictionary
280
     1
281
     1
  3
ACAD_XREC_ROUNDTRIP
360
320
  0
DICTIONARY
  5
321
330
35
100
AcDbDictionary
280
     1
281
     1
  3
ACAD_XREC_ROUNDTRIP
360
322
  0
DICTIONARY
  5
331
330
3D
100
AcDbDictionary
280
     1
281
     1
  3
ACAD_XREC_ROUNDTRIP
360
332
  0
DICTIONARY
  5
329
330
39
100
AcDbDictionary
280
     1
281
     1
  3
ACAD_XREC_ROUNDTRIP
360
32A
  0
DICTIONARY
  5
30D
330
2B
100
AcDbDictionary
280
     1
281
     1
  3
ACAD_XREC_ROUNDTRIP
360
30E
  0
DICTIONARY
  5
30F
330
2C
100
AcDbDictionary
280
     1
281
     1
  3
ACAD_XREC_ROUNDTRIP
360
310
  0
DICTIONARY
  5
311
330
2D
100
AcDbDictionary
280
     1
281
     1
  3
ACAD_XREC_ROUNDTRIP
360
312
  0
DICTIONARY
  5
313
330
2E
100
AcDbDictionary
280
     1
281
     1
  3
ACAD_XREC_ROUNDTRIP
360
314
  0
DICTIONARY
  5
319
330
31
100
AcDbDictionary
280
     1
281
     1
  3
ACAD_XREC_ROUNDTRIP
360
31A
  0
DICTIONARY
  5
32D
330
3B
100
AcDbDictionary
280
     1
281
     1
  3
ACAD_XREC_ROUNDTRIP
360
32E
  0
DICTIONARY
  5
327
330
38
100
AcDbDictionary
280
     1
281
     1
  3
ACAD_XREC_ROUNDTRIP
360
328
  0
DICTIONARY
  5
32F
330
3C
100
AcDbDictionary
280
     1
281
     1
  3
ACAD_XREC_ROUNDTRIP
360
330
  0
DICTIONARY
  5
31D
330
33
100
AcDbDictionary
280
     1
281
     1
  3
ACAD_XREC_ROUNDTRIP
360
31E
  0
DICTIONARY
  5
33B
330
42
100
AcDbDictionary
280
     1
281
     1
  3
ACAD_XREC_ROUNDTRIP
360
33C
  0
DICTIONARY
  5
339
330
41
100
AcDbDictionary
280
     1
281
     1
  3
ACAD_XREC_ROUNDTRIP
360
33A
  0
DICTIONARY
  5
333
330
3E
100
AcDbDictionary
280
     1
281
     1
  3
ACAD_XREC_ROUNDTRIP
360
334
  0
DICTIONARY
  5
335
330
3F
100
AcDbDictionary
280
     1
281
     1
  3
ACAD_XREC_ROUNDTRIP
360
336
  0
DICTIONARY
  5
325
330
37
100
AcDbDictionary
280
     1
281
     1
  3
ACAD_XREC_ROUNDTRIP
360
326
  0
DICTIONARY
  5
317
330
30
100
AcDbDictionary
280
     1
281
     1
  3
ACAD_XREC_ROUNDTRIP
360
318
  0
DICTIONARY
  5
337
330
40
100
AcDbDictionary
280
     1
281
     1
  3
ACAD_XREC_ROUNDTRIP
360
338
  0
XRECORD
  5
340
102
{ACAD_REACTORS
330
33F
102
}
330
33F
100
AcDbXrecord
280
     1
102
MATERIAL
148
0.0
149
0.0
149
0.0
 93
        0
 94
      127
282
     0
 72
     1
 77
     1
171
     1
175
     1
179
     1
273
     0
  0
XRECORD
  5
33E
102
{ACAD_REACTORS
330
33D
102
}
330
33D
100
AcDbXrecord
280
     1
102
MATERIAL
148
0.0
149
0.0
149
0.0
 93
        0
 94
      127
282
     0
 72
     1
 77
     1
171
     1
175
     1
179
     1
273
     0
  0
XRECORD
  5
342
102
{ACAD_REACTORS
330
341
102
}
330
341
100
AcDbXrecord
280
     1
102
MATERIAL
148
0.0
149
0.0
149
0.0
 93
        0
 94
      127
282
     0
 72
     1
 77
     1
171
     1
175
     1
179
     1
273
     0
  0
XRECORD
  5
348
102
{ACAD_REACTORS
330
347
102
}
330
347
100
AcDbXrecord
280
     1
102
ACAD_ROUNDTRIP_2010_MLEADER_STYLE
  0
CELLSTYLEMAP
  5
345
102
{ACAD_REACTORS
330
343
102
}
330
343
100
AcDbCellStyleMap
 90
        3
300
CELLSTYLE
  1
TABLEFORMAT_BEGIN
 90
        5
170
     1
 91
        0
 92
    32768
 62
   257
 93
        1
300
CONTENTFORMAT
  1
CONTENTFORMAT_BEGIN
 90
        0
 91
        0
 92
        4
 93
        0
300

 40
0.0
140
1.0
 94
        5
 62
     0
340
11
144
6.0
309
CONTENTFORMAT_END
171
     1
301
MARGIN
  1
CELLMARGIN_BEGIN
 40
1.5
 40
1.5
 40
1.5
 40
1.5
 40
1.5
 40
1.5
309
CELLMARGIN_END
 94
        6
 95
        1
302
GRIDFORMAT
  1
GRIDFORMAT_BEGIN
 90
        0
 91
        1
 62
     0
 92
       -2
340
14
 93
        0
 40
0.045
309
GRIDFORMAT_END
 95
        2
302
GRIDFORMAT
  1
GRIDFORMAT_BEGIN
 90
        0
 91
        1
 62
     0
 92
       -2
340
14
 93
        0
 40
0.045
309
GRIDFORMAT_END
 95
        4
302
GRIDFORMAT
  1
GRIDFORMAT_BEGIN
 90
        0
 91
        1
 62
     0
 92
       -2
340
14
 93
        0
 40
0.045
309
GRIDFORMAT_END
 95
        8
302
GRIDFORMAT
  1
GRIDFORMAT_BEGIN
 90
        0
 91
        1
 62
     0
 92
       -2
340
14
 93
        0
 40
0.045
309
GRIDFORMAT_END
 95
       16
302
GRIDFORMAT
  1
GRIDFORMAT_BEGIN
 90
        0
 91
        1
 62
     0
 92
       -2
340
14
 93
        0
 40
0.045
309
GRIDFORMAT_END
 95
       32
302
GRIDFORMAT
  1
GRIDFORMAT_BEGIN
 90
        0
 91
        1
 62
     0
 92
       -2
340
14
 93
        0
 40
0.045
309
GRIDFORMAT_END
309
TABLEFORMAT_END
  1
CELLSTYLE_BEGIN
 90
        1
 91
        1
300
_TITLE
309
CELLSTYLE_END
300
CELLSTYLE
  1
TABLEFORMAT_BEGIN
 90
        5
170
     1
 91
        0
 92
        0
 62
   257
 93
        1
300
CONTENTFORMAT
  1
CONTENTFORMAT_BEGIN
 90
        0
 91
        0
 92
        4
 93
        0
300

 40
0.0
140
1.0
 94
        5
 62
     0
340
11
144
4.5
309
CONTENTFORMAT_END
171
     1
301
MARGIN
  1
CELLMARGIN_BEGIN
 40
1.5
 40
1.5
 40
1.5
 40
1.5
 40
1.5
 40
1.5
309
CELLMARGIN_END
 94
        6
 95
        1
302
GRIDFORMAT
  1
GRIDFORMAT_BEGIN
 90
        0
 91
        1
 62
     0
 92
       -2
340
14
 93
        0
 40
0.045
309
GRIDFORMAT_END
 95
        2
302
GRIDFORMAT
  1
GRIDFORMAT_BEGIN
 90
        0
 91
        1
 62
     0
 92
       -2
340
14
 93
        0
 40
0.045
309
GRIDFORMAT_END
 95
        4
302
GRIDFORMAT
  1
GRIDFORMAT_BEGIN
 90
        0
 91
        1
 62
     0
 92
       -2
340
14
 93
        0
 40
0.045
309
GRIDFORMAT_END
 95
        8
302
GRIDFORMAT
  1
GRIDFORMAT_BEGIN
 90
        0
 91
        1
 62
     0
 92
       -2
340
14
 93
        0
 40
0.045
309
GRIDFORMAT_END
 95
       16
302
GRIDFORMAT
  1
GRIDFORMAT_BEGIN
 90
        0
 91
        1
 62
     0
 92
       -2
340
14
 93
        0
 40
0.045
309
GRIDFORMAT_END
 95
       32
302
GRIDFORMAT
  1
GRIDFORMAT_BEGIN
 90
        0
 91
        1
 62
     0
 92
       -2
340
14
 93
        0
 40
0.045
309
GRIDFORMAT_END
309
TABLEFORMAT_END
  1
CELLSTYLE_BEGIN
 90
        2
 91
        1
300
_HEADER
309
CELLSTYLE_END
300
CELLSTYLE
  1
TABLEFORMAT_BEGIN
 90
        5
170
     1
 91
        0
 92
        0
 62
   257
 93
        1
300
CONTENTFORMAT
  1
CONTENTFORMAT_BEGIN
 90
        0
 91
        0
 92
        4
 93
        0
300

 40
0.0
140
1.0
 94
        2
 62
     0
340
11
144
4.5
309
CONTENTFORMAT_END
171
     1
301
MARGIN
  1
CELLMARGIN_BEGIN
 40
1.5
 40
1.5
 40
1.5
 40
1.5
 40
1.5
 40
1.5
309
CELLMARGIN_END
 94
        6
 95
        1
302
GRIDFORMAT
  1
GRIDFORMAT_BEGIN
 90
        0
 91
        1
 62
     0
 92
       -2
340
14
 93
        0
 40
0.045
309
GRIDFORMAT_END
 95
        2
302
GRIDFORMAT
  1
GRIDFORMAT_BEGIN
 90
        0
 91
        1
 62
     0
 92
       -2
340
14
 93
        0
 40
0.045
309
GRIDFORMAT_END
 95
        4
302
GRIDFORMAT
  1
GRIDFORMAT_BEGIN
 90
        0
 91
        1
 62
     0
 92
       -2
340
14
 93
        0
 40
0.045
309
GRIDFORMAT_END
 95
        8
302
GRIDFORMAT
  1
GRIDFORMAT_BEGIN
 90
        0
 91
        1
 62
     0
 92
       -2
340
14
 93
        0
 40
0.045
309
GRIDFORMAT_END
 95
       16
302
GRIDFORMAT
  1
GRIDFORMAT_BEGIN
 90
        0
 91
        1
 62
     0
 92
       -2
340
14
 93
        0
 40
0.045
309
GRIDFORMAT_END
 95
       32
302
GRIDFORMAT
  1
GRIDFORMAT_BEGIN
 90
        0
 91
        1
 62
     0
 92
       -2
340
14
 93
        0
 40
0.045
309
GRIDFORMAT_END
309
TABLEFORMAT_END
  1
CELLSTYLE_BEGIN
 90
        3
 91
        2
300
_DATA
309
CELLSTYLE_END
  0
XRECORD
  5
344
102
{ACAD_REACTORS
330
343
102
}
330
343
100
AcDbXrecord
280
     1
102
ACAD_ROUNDTRIP_PRE2007_TABLESTYLE
 90
        4
 91
        0
  1

 92
        4
 93
        0
  2

 94
        4
 95
        0
  3

  0
XRECORD
  5
316
102
{ACAD_REACTORS
330
315
102
}
330
315
100
AcDbXrecord
280
     1
102
RTVSPropertyOp0
 70
     1
102
RTVSPropertyOp1
 70
     1
102
RTVSPropertyOp2
 70
     1
102
RTVSPropertyOp3
 70
     1
102
RTVSPropertyOp4
 70
     1
102
RTVSPropertyOp5
 70
     1
102
RTVSPropertyOp6
 70
     1
102
RTVSPropertyOp7
 70
     1
102
RTVSPropertyOp8
 70
     1
102
RTVSPropertyOp9
 70
     1
102
RTVSPropertyOp10
 70
     1
102
RTVSPropertyOp11
 70
     1
102
RTVSPropertyOp12
 70
     1
102
RTVSPropertyOp13
 70
     1
102
RTVSPropertyOp14
 70
     1
102
RTVSPropertyOp15
 70
     1
102
RTVSPropertyOp16
 70
     1
102
RTVSPropertyOp17
 70
     1
102
RTVSPropertyOp18
 70
     1
102
RTVSPropertyOp19
 70
     1
102
RTVSPropertyOp20
 70
     1
102
RTVSPropertyOp21
 70
     1
102
RTVSPropertyOp22
 70
     1
102
RTVSPropertyOp23
 70
     1
102
RTVSPropertyOp24
 70
     1
102
RTVSPropertyOp25
 70
     1
102
RTVSPropertyOp26
 70
     1
102
RTVSPropertyOp27
 70
     1
102
RTVSPropertyOp28
 70
     1
102
RTVSPropertyOp29
 70
     1
102
RTVSPropertyOp30
 70
     1
102
RTVSPropertyOp31
 70
     1
102
RTVSPropertyOp32
 70
     1
102
RTVSPropertyOp33
 70
     1
102
RTVSPropertyOp34
 70
     1
102
RTVSPropertyOp35
 70
     1
102
RTVSPropertyOp36
 70
     1
102
RTVSPropertyOp37
 70
     1
102
RTVSPropertyOp38
 70
     1
102
RTVSPropertyOp39
 70
     1
102
RTVSPropertyOp40
 70
     1
102
RTVSPropertyOp41
 70
     1
102
RTVSPropertyOp42
 70
     1
102
RTVSPropertyOp43
 70
     1
102
RTVSPropertyOp44
 70
     1
102
RTVSPropertyOp45
 70
     1
102
RTVSPropertyOp46
 70
     1
102
RTVSPropertyOp47
 70
     1
102
RTVSPropertyOp48
 70
     1
102
RTVSPropertyOp49
 70
     1
102
RTVSPropertyOp50
 70
     1
102
RTVSPropertyOp51
 70
     0
102
RTVSPropertyOp52
 70
     0
102
RTVSPropertyOp53
 70
     1
102
RTVSPropertyOp54
 70
     1
102
RTVSPropertyOp55
 70
     1
102
RTVSPropertyOp56
 70
     1
102
RTVSPropertyOp57
 70
     1
102
RTVSPost2010Prop28
280
     1
102
RTVSPost2010PropOp28
 70
     1
102
RTVSPost2010Prop29
280
     1
102
RTVSPost2010PropOp29
 70
     1
102
RTVSPost2010Prop30
280
     0
102
RTVSPost2010PropOp30
 70
     1
102
RTVSPost2010Prop31
280
     0
102
RTVSPost2010PropOp31
 70
     1
102
RTVSPost2010Prop32
280
     0
102
RTVSPost2010PropOp32
 70
     1
102
RTVSPost2010Prop33
280
     0
102
RTVSPost2010PropOp33
 70
     1
102
RTVSPost2010Prop34
280
     0
102
RTVSPost2010PropOp34
 70
     1
102
RTVSPost2010Prop35
280
     0
102
RTVSPost2010PropOp35
 70
     1
102
RTVSPost2010Prop36
280
     0
102
RTVSPost2010PropOp36
 70
     1
102
RTVSPost2010Prop37
 90
       50
102
RTVSPost2010PropOp37
 70
     1
102
RTVSPost2010Prop38
140
0.0
102
RTVSPost2010PropOp38
 70
     1
102
RTVSPost2010Prop39
140
1.0
102
RTVSPost2010PropOp39
 70
     1
102
RTVSPost2010Prop40
 90
        0
102
RTVSPost2010PropOp40
 70
     1
102
RTVSPost2010Prop41ColorIndex
 90
       18
102
RTVSPost2010Prop41ColorRGB
 90
        0
102
RTVSPost2010PropOp41
 70
     1
102
RTVSPost2010Prop42
 90
       50
102
RTVSPost2010PropOp42
 70
     1
102
RTVSPost2010Prop43
 90
        3
102
RTVSPost2010PropOp43
 70
     1
102
RTVSPost2010Prop44ColorIndex
 90
        5
102
RTVSPost2010Prop44ColorRGB
 90
      255
102
RTVSPost2010PropOp44
 70
     1
102
RTVSPost2010Prop45
280
     0
102
RTVSPost2010PropOp45
 70
     1
102
RTVSPost2010Prop46
 90
       50
102
RTVSPost2010PropOp46
 70
     1
102
RTVSPost2010Prop47
 90
       50
102
RTVSPost2010PropOp47
 70
     1
102
RTVSPost2010Prop48
 90
       50
102
RTVSPost2010PropOp48
 70
     1
102
RTVSPost2010Prop49
280
     0
102
RTVSPost2010PropOp49
 70
     1
102
RTVSPost2010Prop50
 90
       50
102
RTVSPost2010PropOp50
 70
     1
102
RTVSPost2010Prop51ColorIndex
 90
      256
102
RTVSPost2010Prop51ColorRGB
 90
-16777216
102
RTVSPost2010PropOp51
 70
     0
102
RTVSPost2010Prop52
140
1.0
102
RTVSPost2010PropOp52
 70
     0
102
RTVSPost2010Prop53
 90
        2
102
RTVSPost2010PropOp53
 70
     1
102
RTVSPost2010Prop54
  1
strokes_ogs.tif
102
RTVSPost2010PropOp54
 70
     1
102
RTVSPost2010Prop55
280
     0
102
RTVSPost2010PropOp55
 70
     1
102
RTVSPost2010Prop56
140
1.0
102
RTVSPost2010PropOp56
 70
     1
102
RTVSPost2010Prop57
140
1.0
102
RTVSPost2010PropOp57
 70
     1
  0
XRECORD
  5
31C
102
{ACAD_REACTORS
330
31B
102
}
330
31B
100
AcDbXrecord
280
     1
102
RTVSPropertyOp0
 70
     1
102
RTVSPropertyOp1
 70
     1
102
RTVSPropertyOp2
 70
     1
102
RTVSPropertyOp3
 70
     1
102
RTVSPropertyOp4
 70
     1
102
RTVSPropertyOp5
 70
     1
102
RTVSPropertyOp6
 70
     1
102
RTVSPropertyOp7
 70
     1
102
RTVSPropertyOp8
 70
     1
102
RTVSPropertyOp9
 70
     1
102
RTVSPropertyOp10
 70
     1
102
RTVSPropertyOp11
 70
     1
102
RTVSPropertyOp12
 70
     1
102
RTVSPropertyOp13
 70
     1
102
RTVSPropertyOp14
 70
     1
102
RTVSPropertyOp15
 70
     1
102
RTVSPropertyOp16
 70
     1
102
RTVSPropertyOp17
 70
     1
102
RTVSPropertyOp18
 70
     1
102
RTVSPropertyOp19
 70
     1
102
RTVSPropertyOp20
 70
     1
102
RTVSPropertyOp21
 70
     1
102
RTVSPropertyOp22
 70
     1
102
RTVSPropertyOp23
 70
     1
102
RTVSPropertyOp24
 70
     1
102
RTVSPropertyOp25
 70
     1
102
RTVSPropertyOp26
 70
     1
102
RTVSPropertyOp27
 70
     1
102
RTVSPropertyOp28
 70
     1
102
RTVSPropertyOp29
 70
     1
102
RTVSPropertyOp30
 70
     1
102
RTVSPropertyOp31
 70
     1
102
RTVSPropertyOp32
 70
     1
102
RTVSPropertyOp33
 70
     1
102
RTVSPropertyOp34
 70
     1
102
RTVSPropertyOp35
 70
     1
102
RTVSPropertyOp36
 70
     1
102
RTVSPropertyOp37
 70
     1
102
RTVSPropertyOp38
 70
     1
102
RTVSPropertyOp39
 70
     1
102
RTVSPropertyOp40
 70
     1
102
RTVSPropertyOp41
 70
     1
102
RTVSPropertyOp42
 70
     1
102
RTVSPropertyOp43
 70
     1
102
RTVSPropertyOp44
 70
     1
102
RTVSPropertyOp45
 70
     1
102
RTVSPropertyOp46
 70
     1
102
RTVSPropertyOp47
 70
     1
102
RTVSPropertyOp48
 70
     1
102
RTVSPropertyOp49
 70
     1
102
RTVSPropertyOp50
 70
     1
102
RTVSPropertyOp51
 70
     0
102
RTVSPropertyOp52
 70
     0
102
RTVSPropertyOp53
 70
     1
102
RTVSPropertyOp54
 70
     1
102
RTVSPropertyOp55
 70
     1
102
RTVSPropertyOp56
 70
     1
102
RTVSPropertyOp57
 70
     1
102
RTVSPost2010Prop28
280
     0
102
RTVSPost2010PropOp28
 70
     1
102
RTVSPost2010Prop29
280
     1
102
RTVSPost2010PropOp29
 70
     1
102
RTVSPost2010Prop30
280
     1
102
RTVSPost2010PropOp30
 70
     1
102
RTVSPost2010Prop31
280
     0
102
RTVSPost2010PropOp31
 70
     1
102
RTVSPost2010Prop32
280
     0
102
RTVSPost2010PropOp32
 70
     1
102
RTVSPost2010Prop33
280
     0
102
RTVSPost2010PropOp33
 70
     1
102
RTVSPost2010Prop34
280
     0
102
RTVSPost2010PropOp34
 70
     1
102
RTVSPost2010Prop35
280
     0
102
RTVSPost2010PropOp35
 70
     1
102
RTVSPost2010Prop36
280
     0
102
RTVSPost2010PropOp36
 70
     1
102
RTVSPost2010Prop37
 90
       50
102
RTVSPost2010PropOp37
 70
     1
102
RTVSPost2010Prop38
140
0.0
102
RTVSPost2010PropOp38
 70
     1
102
RTVSPost2010Prop39
140
1.0
102
RTVSPost2010PropOp39
 70
     1
102
RTVSPost2010Prop40
 90
        0
102
RTVSPost2010PropOp40
 70
     1
102
RTVSPost2010Prop41ColorIndex
 90
       18
102
RTVSPost2010Prop41ColorRGB
 90
        0
102
RTVSPost2010PropOp41
 70
     1
102
RTVSPost2010Prop42
 90
       50
102
RTVSPost2010PropOp42
 70
     1
102
RTVSPost2010Prop43
 90
        3
102
RTVSPost2010PropOp43
 70
     1
102
RTVSPost2010Prop44ColorIndex
 90
        5
102
RTVSPost2010Prop44ColorRGB
 90
      255
102
RTVSPost2010PropOp44
 70
     1
102
RTVSPost2010Prop45
280
     0
102
RTVSPost2010PropOp45
 70
     1
102
RTVSPost2010Prop46
 90
       50
102
RTVSPost2010PropOp46
 70
     1
102
RTVSPost2010Prop47
 90
       50
102
RTVSPost2010PropOp47
 70
     1
102
RTVSPost2010Prop48
 90
       50
102
RTVSPost2010PropOp48
 70
     1
102
RTVSPost2010Prop49
280
     0
102
RTVSPost2010PropOp49
 70
     1
102
RTVSPost2010Prop50
 90
       50
102
RTVSPost2010PropOp50
 70
     1
102
RTVSPost2010Prop51ColorIndex
 90
      256
102
RTVSPost2010Prop51ColorRGB
 90
-16777216
102
RTVSPost2010PropOp51
 70
     0
102
RTVSPost2010Prop52
140
1.0
102
RTVSPost2010PropOp52
 70
     0
102
RTVSPost2010Prop53
 90
        2
102
RTVSPost2010PropOp53
 70
     1
102
RTVSPost2010Prop54
  1
strokes_ogs.tif
102
RTVSPost2010PropOp54
 70
     1
102
RTVSPost2010Prop55
280
     0
102
RTVSPost2010PropOp55
 70
     1
102
RTVSPost2010Prop56
140
1.0
102
RTVSPost2010PropOp56
 70
     1
102
RTVSPost2010Prop57
140
1.0
102
RTVSPost2010PropOp57
 70
     1
  0
XRECORD
  5
324
102
{ACAD_REACTORS
330
323
102
}
330
323
100
AcDbXrecord
280
     1
102
RTVSPropertyOp0
 70
     1
102
RTVSPropertyOp1
 70
     1
102
RTVSPropertyOp2
 70
     1
102
RTVSPropertyOp3
 70
     1
102
RTVSPropertyOp4
 70
     1
102
RTVSPropertyOp5
 70
     1
102
RTVSPropertyOp6
 70
     1
102
RTVSPropertyOp7
 70
     1
102
RTVSPropertyOp8
 70
     1
102
RTVSPropertyOp9
 70
     1
102
RTVSPropertyOp10
 70
     1
102
RTVSPropertyOp11
 70
     1
102
RTVSPropertyOp12
 70
     1
102
RTVSPropertyOp13
 70
     1
102
RTVSPropertyOp14
 70
     1
102
RTVSPropertyOp15
 70
     1
102
RTVSPropertyOp16
 70
     1
102
RTVSPropertyOp17
 70
     1
102
RTVSPropertyOp18
 70
     1
102
RTVSPropertyOp19
 70
     1
102
RTVSPropertyOp20
 70
     1
102
RTVSPropertyOp21
 70
     1
102
RTVSPropertyOp22
 70
     1
102
RTVSPropertyOp23
 70
     1
102
RTVSPropertyOp24
 70
     1
102
RTVSPropertyOp25
 70
     1
102
RTVSPropertyOp26
 70
     1
102
RTVSPropertyOp27
 70
     1
102
RTVSPropertyOp28
 70
     1
102
RTVSPropertyOp29
 70
     1
102
RTVSPropertyOp30
 70
     1
102
RTVSPropertyOp31
 70
     1
102
RTVSPropertyOp32
 70
     1
102
RTVSPropertyOp33
 70
     1
102
RTVSPropertyOp34
 70
     1
102
RTVSPropertyOp35
 70
     1
102
RTVSPropertyOp36
 70
     1
102
RTVSPropertyOp37
 70
     1
102
RTVSPropertyOp38
 70
     1
102
RTVSPropertyOp39
 70
     1
102
RTVSPropertyOp40
 70
     1
102
RTVSPropertyOp41
 70
     1
102
RTVSPropertyOp42
 70
     1
102
RTVSPropertyOp43
 70
     1
102
RTVSPropertyOp44
 70
     1
102
RTVSPropertyOp45
 70
     1
102
RTVSPropertyOp46
 70
     1
102
RTVSPropertyOp47
 70
     1
102
RTVSPropertyOp48
 70
     1
102
RTVSPropertyOp49
 70
     1
102
RTVSPropertyOp50
 70
     1
102
RTVSPropertyOp51
 70
     0
102
RTVSPropertyOp52
 70
     0
102
RTVSPropertyOp53
 70
     1
102
RTVSPropertyOp54
 70
     1
102
RTVSPropertyOp55
 70
     1
102
RTVSPropertyOp56
 70
     1
102
RTVSPropertyOp57
 70
     1
102
RTVSPost2010Prop28
280
     0
102
RTVSPost2010PropOp28
 70
     1
102
RTVSPost2010Prop29
280
     1
102
RTVSPost2010PropOp29
 70
     1
102
RTVSPost2010Prop30
280
     1
102
RTVSPost2010PropOp30
 70
     1
102
RTVSPost2010Prop31
280
     0
102
RTVSPost2010PropOp31
 70
     1
102
RTVSPost2010Prop32
280
     0
102
RTVSPost2010PropOp32
 70
     1
102
RTVSPost2010Prop33
280
     0
102
RTVSPost2010PropOp33
 70
     1
102
RTVSPost2010Prop34
280
     0
102
RTVSPost2010PropOp34
 70
     1
102
RTVSPost2010Prop35
280
     0
102
RTVSPost2010PropOp35
 70
     1
102
RTVSPost2010Prop36
280
     0
102
RTVSPost2010PropOp36
 70
     1
102
RTVSPost2010Prop37
 90
       50
102
RTVSPost2010PropOp37
 70
     1
102
RTVSPost2010Prop38
140
0.0
102
RTVSPost2010PropOp38
 70
     1
102
RTVSPost2010Prop39
140
1.0
102
RTVSPost2010PropOp39
 70
     1
102
RTVSPost2010Prop40
 90
        0
102
RTVSPost2010PropOp40
 70
     1
102
RTVSPost2010Prop41ColorIndex
 90
       18
102
RTVSPost2010Prop41ColorRGB
 90
        0
102
RTVSPost2010PropOp41
 70
     1
102
RTVSPost2010Prop42
 90
       50
102
RTVSPost2010PropOp42
 70
     1
102
RTVSPost2010Prop43
 90
        3
102
RTVSPost2010PropOp43
 70
     1
102
RTVSPost2010Prop44ColorIndex
 90
        5
102
RTVSPost2010Prop44ColorRGB
 90
      255
102
RTVSPost2010PropOp44
 70
     1
102
RTVSPost2010Prop45
280
     0
102
RTVSPost2010PropOp45
 70
     1
102
RTVSPost2010Prop46
 90
       50
102
RTVSPost2010PropOp46
 70
     1
102
RTVSPost2010Prop47
 90
       50
102
RTVSPost2010PropOp47
 70
     1
102
RTVSPost2010Prop48
 90
       50
102
RTVSPost2010PropOp48
 70
     1
102
RTVSPost2010Prop49
280
     0
102
RTVSPost2010PropOp49
 70
     1
102
RTVSPost2010Prop50
 90
       50
102
RTVSPost2010PropOp50
 70
     1
102
RTVSPost2010Prop51ColorIndex
 90
      256
102
RTVSPost2010Prop51ColorRGB
 90
-16777216
102
RTVSPost2010PropOp51
 70
     0
102
RTVSPost2010Prop52
140
1.0
102
RTVSPost2010PropOp52
 70
     0
102
RTVSPost2010Prop53
 90
        2
102
RTVSPost2010PropOp53
 70
     1
102
RTVSPost2010Prop54
  1
strokes_ogs.tif
102
RTVSPost2010PropOp54
 70
     1
102
RTVSPost2010Prop55
280
     0
102
RTVSPost2010PropOp55
 70
     1
102
RTVSPost2010Prop56
140
1.0
102
RTVSPost2010PropOp56
 70
     1
102
RTVSPost2010Prop57
140
1.0
102
RTVSPost2010PropOp57
 70
     1
  0
XRECORD
  5
32C
102
{ACAD_REACTORS
330
32B
102
}
330
32B
100
AcDbXrecord
280
     1
102
RTVSPropertyOp0
 70
     1
102
RTVSPropertyOp1
 70
     1
102
RTVSPropertyOp2
 70
     1
102
RTVSPropertyOp3
 70
     1
102
RTVSPropertyOp4
 70
     1
102
RTVSPropertyOp5
 70
     1
102
RTVSPropertyOp6
 70
     1
102
RTVSPropertyOp7
 70
     1
102
RTVSPropertyOp8
 70
     1
102
RTVSPropertyOp9
 70
     1
102
RTVSPropertyOp10
 70
     1
102
RTVSPropertyOp11
 70
     1
102
RTVSPropertyOp12
 70
     1
102
RTVSPropertyOp13
 70
     1
102
RTVSPropertyOp14
 70
     1
102
RTVSPropertyOp15
 70
     1
102
RTVSPropertyOp16
 70
     1
102
RTVSPropertyOp17
 70
     1
102
RTVSPropertyOp18
 70
     1
102
RTVSPropertyOp19
 70
     1
102
RTVSPropertyOp20
 70
     1
102
RTVSPropertyOp21
 70
     1
102
RTVSPropertyOp22
 70
     1
102
RTVSPropertyOp23
 70
     1
102
RTVSPropertyOp24
 70
     1
102
RTVSPropertyOp25
 70
     1
102
RTVSPropertyOp26
 70
     1
102
RTVSPropertyOp27
 70
     1
102
RTVSPropertyOp28
 70
     1
102
RTVSPropertyOp29
 70
     1
102
RTVSPropertyOp30
 70
     1
102
RTVSPropertyOp31
 70
     1
102
RTVSPropertyOp32
 70
     1
102
RTVSPropertyOp33
 70
     1
102
RTVSPropertyOp34
 70
     1
102
RTVSPropertyOp35
 70
     1
102
RTVSPropertyOp36
 70
     1
102
RTVSPropertyOp37
 70
     1
102
RTVSPropertyOp38
 70
     1
102
RTVSPropertyOp39
 70
     1
102
RTVSPropertyOp40
 70
     1
102
RTVSPropertyOp41
 70
     1
102
RTVSPropertyOp42
 70
     1
102
RTVSPropertyOp43
 70
     1
102
RTVSPropertyOp44
 70
     1
102
RTVSPropertyOp45
 70
     1
102
RTVSPropertyOp46
 70
     1
102
RTVSPropertyOp47
 70
     1
102
RTVSPropertyOp48
 70
     1
102
RTVSPropertyOp49
 70
     1
102
RTVSPropertyOp50
 70
     1
102
RTVSPropertyOp51
 70
     0
102
RTVSPropertyOp52
 70
     0
102
RTVSPropertyOp53
 70
     1
102
RTVSPropertyOp54
 70
     1
102
RTVSPropertyOp55
 70
     1
102
RTVSPropertyOp56
 70
     1
102
RTVSPropertyOp57
 70
     1
102
RTVSPost2010Prop28
280
     0
102
RTVSPost2010PropOp28
 70
     1
102
RTVSPost2010Prop29
280
     1
102
RTVSPost2010PropOp29
 70
     1
102
RTVSPost2010Prop30
280
     1
102
RTVSPost2010PropOp30
 70
     1
102
RTVSPost2010Prop31
280
     0
102
RTVSPost2010PropOp31
 70
     1
102
RTVSPost2010Prop32
280
     0
102
RTVSPost2010PropOp32
 70
     1
102
RTVSPost2010Prop33
280
     0
102
RTVSPost2010PropOp33
 70
     1
102
RTVSPost2010Prop34
280
     0
102
RTVSPost2010PropOp34
 70
     1
102
RTVSPost2010Prop35
280
     0
102
RTVSPost2010PropOp35
 70
     1
102
RTVSPost2010Prop36
280
     0
102
RTVSPost2010PropOp36
 70
     1
102
RTVSPost2010Prop37
 90
       50
102
RTVSPost2010PropOp37
 70
     1
102
RTVSPost2010Prop38
140
0.0
102
RTVSPost2010PropOp38
 70
     1
102
RTVSPost2010Prop39
140
1.0
102
RTVSPost2010PropOp39
 70
     1
102
RTVSPost2010Prop40
 90
        0
102
RTVSPost2010PropOp40
 70
     1
102
RTVSPost2010Prop41ColorIndex
 90
       18
102
RTVSPost2010Prop41ColorRGB
 90
        0
102
RTVSPost2010PropOp41
 70
     1
102
RTVSPost2010Prop42
 90
       50
102
RTVSPost2010PropOp42
 70
     1
102
RTVSPost2010Prop43
 90
        3
102
RTVSPost2010PropOp43
 70
     1
102
RTVSPost2010Prop44ColorIndex
 90
        5
102
RTVSPost2010Prop44ColorRGB
 90
      255
102
RTVSPost2010PropOp44
 70
     1
102
RTVSPost2010Prop45
280
     0
102
RTVSPost2010PropOp45
 70
     1
102
RTVSPost2010Prop46
 90
       50
102
RTVSPost2010PropOp46
 70
     1
102
RTVSPost2010Prop47
 90
       50
102
RTVSPost2010PropOp47
 70
     1
102
RTVSPost2010Prop48
 90
       50
102
RTVSPost2010PropOp48
 70
     1
102
RTVSPost2010Prop49
280
     0
102
RTVSPost2010PropOp49
 70
     1
102
RTVSPost2010Prop50
 90
       50
102
RTVSPost2010PropOp50
 70
     1
102
RTVSPost2010Prop51ColorIndex
 90
      256
102
RTVSPost2010Prop51ColorRGB
 90
-16777216
102
RTVSPost2010PropOp51
 70
     0
102
RTVSPost2010Prop52
140
1.0
102
RTVSPost2010PropOp52
 70
     0
102
RTVSPost2010Prop53
 90
        2
102
RTVSPost2010PropOp53
 70
     1
102
RTVSPost2010Prop54
  1
strokes_ogs.tif
102
RTVSPost2010PropOp54
 70
     1
102
RTVSPost2010Prop55
280
     0
102
RTVSPost2010PropOp55
 70
     1
102
RTVSPost2010Prop56
140
1.0
102
RTVSPost2010PropOp56
 70
     1
102
RTVSPost2010Prop57
140
1.0
102
RTVSPost2010PropOp57
 70
     1
  0
XRECORD
  5
320
102
{ACAD_REACTORS
330
31F
102
}
330
31F
100
AcDbXrecord
280
     1
102
RTVSPropertyOp0
 70
     1
102
RTVSPropertyOp1
 70
     1
102
RTVSPropertyOp2
 70
     1
102
RTVSPropertyOp3
 70
     1
102
RTVSPropertyOp4
 70
     1
102
RTVSPropertyOp5
 70
     1
102
RTVSPropertyOp6
 70
     1
102
RTVSPropertyOp7
 70
     1
102
RTVSPropertyOp8
 70
     1
102
RTVSPropertyOp9
 70
     1
102
RTVSPropertyOp10
 70
     1
102
RTVSPropertyOp11
 70
     1
102
RTVSPropertyOp12
 70
     1
102
RTVSPropertyOp13
 70
     1
102
RTVSPropertyOp14
 70
     1
102
RTVSPropertyOp15
 70
     1
102
RTVSPropertyOp16
 70
     1
102
RTVSPropertyOp17
 70
     1
102
RTVSPropertyOp18
 70
     1
102
RTVSPropertyOp19
 70
     1
102
RTVSPropertyOp20
 70
     1
102
RTVSPropertyOp21
 70
     1
102
RTVSPropertyOp22
 70
     1
102
RTVSPropertyOp23
 70
     1
102
RTVSPropertyOp24
 70
     1
102
RTVSPropertyOp25
 70
     1
102
RTVSPropertyOp26
 70
     1
102
RTVSPropertyOp27
 70
     1
102
RTVSPropertyOp28
 70
     1
102
RTVSPropertyOp29
 70
     1
102
RTVSPropertyOp30
 70
     1
102
RTVSPropertyOp31
 70
     1
102
RTVSPropertyOp32
 70
     1
102
RTVSPropertyOp33
 70
     1
102
RTVSPropertyOp34
 70
     1
102
RTVSPropertyOp35
 70
     1
102
RTVSPropertyOp36
 70
     1
102
RTVSPropertyOp37
 70
     1
102
RTVSPropertyOp38
 70
     1
102
RTVSPropertyOp39
 70
     1
102
RTVSPropertyOp40
 70
     1
102
RTVSPropertyOp41
 70
     1
102
RTVSPropertyOp42
 70
     1
102
RTVSPropertyOp43
 70
     1
102
RTVSPropertyOp44
 70
     1
102
RTVSPropertyOp45
 70
     1
102
RTVSPropertyOp46
 70
     1
102
RTVSPropertyOp47
 70
     1
102
RTVSPropertyOp48
 70
     1
102
RTVSPropertyOp49
 70
     1
102
RTVSPropertyOp50
 70
     1
102
RTVSPropertyOp51
 70
     0
102
RTVSPropertyOp52
 70
     0
102
RTVSPropertyOp53
 70
     1
102
RTVSPropertyOp54
 70
     1
102
RTVSPropertyOp55
 70
     1
102
RTVSPropertyOp56
 70
     1
102
RTVSPropertyOp57
 70
     1
102
RTVSPost2010Prop28
280
     0
102
RTVSPost2010PropOp28
 70
     1
102
RTVSPost2010Prop29
280
     1
102
RTVSPost2010PropOp29
 70
     1
102
RTVSPost2010Prop30
280
     1
102
RTVSPost2010PropOp30
 70
     1
102
RTVSPost2010Prop31
280
     0
102
RTVSPost2010PropOp31
 70
     1
102
RTVSPost2010Prop32
280
     0
102
RTVSPost2010PropOp32
 70
     1
102
RTVSPost2010Prop33
280
     0
102
RTVSPost2010PropOp33
 70
     1
102
RTVSPost2010Prop34
280
     0
102
RTVSPost2010PropOp34
 70
     1
102
RTVSPost2010Prop35
280
     0
102
RTVSPost2010PropOp35
 70
     1
102
RTVSPost2010Prop36
280
     0
102
RTVSPost2010PropOp36
 70
     1
102
RTVSPost2010Prop37
 90
       50
102
RTVSPost2010PropOp37
 70
     1
102
RTVSPost2010Prop38
140
0.0
102
RTVSPost2010PropOp38
 70
     1
102
RTVSPost2010Prop39
140
1.0
102
RTVSPost2010PropOp39
 70
     1
102
RTVSPost2010Prop40
 90
        0
102
RTVSPost2010PropOp40
 70
     1
102
RTVSPost2010Prop41ColorIndex
 90
       18
102
RTVSPost2010Prop41ColorRGB
 90
        0
102
RTVSPost2010PropOp41
 70
     1
102
RTVSPost2010Prop42
 90
       50
102
RTVSPost2010PropOp42
 70
     1
102
RTVSPost2010Prop43
 90
        3
102
RTVSPost2010PropOp43
 70
     1
102
RTVSPost2010Prop44ColorIndex
 90
        5
102
RTVSPost2010Prop44ColorRGB
 90
      255
102
RTVSPost2010PropOp44
 70
     1
102
RTVSPost2010Prop45
280
     0
102
RTVSPost2010PropOp45
 70
     1
102
RTVSPost2010Prop46
 90
       50
102
RTVSPost2010PropOp46
 70
     1
102
RTVSPost2010Prop47
 90
       50
102
RTVSPost2010PropOp47
 70
     1
102
RTVSPost2010Prop48
 90
       50
102
RTVSPost2010PropOp48
 70
     1
102
RTVSPost2010Prop49
280
     0
102
RTVSPost2010PropOp49
 70
     1
102
RTVSPost2010Prop50
 90
       50
102
RTVSPost2010PropOp50
 70
     1
102
RTVSPost2010Prop51ColorIndex
 90
      256
102
RTVSPost2010Prop51ColorRGB
 90
-16777216
102
RTVSPost2010PropOp51
 70
     0
102
RTVSPost2010Prop52
140
1.0
102
RTVSPost2010PropOp52
 70
     0
102
RTVSPost2010Prop53
 90
        2
102
RTVSPost2010PropOp53
 70
     1
102
RTVSPost2010Prop54
  1
strokes_ogs.tif
102
RTVSPost2010PropOp54
 70
     1
102
RTVSPost2010Prop55
280
     0
102
RTVSPost2010PropOp55
 70
     1
102
RTVSPost2010Prop56
140
1.0
102
RTVSPost2010PropOp56
 70
     1
102
RTVSPost2010Prop57
140
1.0
102
RTVSPost2010PropOp57
 70
     1
  0
XRECORD
  5
322
102
{ACAD_REACTORS
330
321
102
}
330
321
100
AcDbXrecord
280
     1
102
RTVSPropertyOp0
 70
     1
102
RTVSPropertyOp1
 70
     1
102
RTVSPropertyOp2
 70
     1
102
RTVSPropertyOp3
 70
     1
102
RTVSPropertyOp4
 70
     1
102
RTVSPropertyOp5
 70
     1
102
RTVSPropertyOp6
 70
     1
102
RTVSPropertyOp7
 70
     1
102
RTVSPropertyOp8
 70
     1
102
RTVSPropertyOp9
 70
     1
102
RTVSPropertyOp10
 70
     1
102
RTVSPropertyOp11
 70
     1
102
RTVSPropertyOp12
 70
     1
102
RTVSPropertyOp13
 70
     1
102
RTVSPropertyOp14
 70
     1
102
RTVSPropertyOp15
 70
     1
102
RTVSPropertyOp16
 70
     1
102
RTVSPropertyOp17
 70
     1
102
RTVSPropertyOp18
 70
     1
102
RTVSPropertyOp19
 70
     1
102
RTVSPropertyOp20
 70
     1
102
RTVSPropertyOp21
 70
     1
102
RTVSPropertyOp22
 70
     1
102
RTVSPropertyOp23
 70
     1
102
RTVSPropertyOp24
 70
     1
102
RTVSPropertyOp25
 70
     1
102
RTVSPropertyOp26
 70
     1
102
RTVSPropertyOp27
 70
     1
102
RTVSPropertyOp28
 70
     1
102
RTVSPropertyOp29
 70
     1
102
RTVSPropertyOp30
 70
     1
102
RTVSPropertyOp31
 70
     1
102
RTVSPropertyOp32
 70
     1
102
RTVSPropertyOp33
 70
     1
102
RTVSPropertyOp34
 70
     1
102
RTVSPropertyOp35
 70
     1
102
RTVSPropertyOp36
 70
     1
102
RTVSPropertyOp37
 70
     1
102
RTVSPropertyOp38
 70
     1
102
RTVSPropertyOp39
 70
     1
102
RTVSPropertyOp40
 70
     1
102
RTVSPropertyOp41
 70
     1
102
RTVSPropertyOp42
 70
     1
102
RTVSPropertyOp43
 70
     1
102
RTVSPropertyOp44
 70
     1
102
RTVSPropertyOp45
 70
     1
102
RTVSPropertyOp46
 70
     1
102
RTVSPropertyOp47
 70
     1
102
RTVSPropertyOp48
 70
     1
102
RTVSPropertyOp49
 70
     1
102
RTVSPropertyOp50
 70
     1
102
RTVSPropertyOp51
 70
     0
102
RTVSPropertyOp52
 70
     0
102
RTVSPropertyOp53
 70
     1
102
RTVSPropertyOp54
 70
     1
102
RTVSPropertyOp55
 70
     1
102
RTVSPropertyOp56
 70
     1
102
RTVSPropertyOp57
 70
     1
102
RTVSPost2010Prop28
280
     0
102
RTVSPost2010PropOp28
 70
     1
102
RTVSPost2010Prop29
280
     1
102
RTVSPost2010PropOp29
 70
     1
102
RTVSPost2010Prop30
280
     1
102
RTVSPost2010PropOp30
 70
     1
102
RTVSPost2010Prop31
280
     0
102
RTVSPost2010PropOp31
 70
     1
102
RTVSPost2010Prop32
280
     0
102
RTVSPost2010PropOp32
 70
     1
102
RTVSPost2010Prop33
280
     0
102
RTVSPost2010PropOp33
 70
     1
102
RTVSPost2010Prop34
280
     0
102
RTVSPost2010PropOp34
 70
     1
102
RTVSPost2010Prop35
280
     0
102
RTVSPost2010PropOp35
 70
     1
102
RTVSPost2010Prop36
280
     0
102
RTVSPost2010PropOp36
 70
     1
102
RTVSPost2010Prop37
 90
       50
102
RTVSPost2010PropOp37
 70
     1
102
RTVSPost2010Prop38
140
0.0
102
RTVSPost2010PropOp38
 70
     1
102
RTVSPost2010Prop39
140
1.0
102
RTVSPost2010PropOp39
 70
     1
102
RTVSPost2010Prop40
 90
        0
102
RTVSPost2010PropOp40
 70
     1
102
RTVSPost2010Prop41ColorIndex
 90
       18
102
RTVSPost2010Prop41ColorRGB
 90
        0
102
RTVSPost2010PropOp41
 70
     1
102
RTVSPost2010Prop42
 90
       50
102
RTVSPost2010PropOp42
 70
     1
102
RTVSPost2010Prop43
 90
        3
102
RTVSPost2010PropOp43
 70
     1
102
RTVSPost2010Prop44ColorIndex
 90
        5
102
RTVSPost2010Prop44ColorRGB
 90
      255
102
RTVSPost2010PropOp44
 70
     1
102
RTVSPost2010Prop45
280
     0
102
RTVSPost2010PropOp45
 70
     1
102
RTVSPost2010Prop46
 90
       50
102
RTVSPost2010PropOp46
 70
     1
102
RTVSPost2010Prop47
 90
       50
102
RTVSPost2010PropOp47
 70
     1
102
RTVSPost2010Prop48
 90
       50
102
RTVSPost2010PropOp48
 70
     1
102
RTVSPost2010Prop49
280
     0
102
RTVSPost2010PropOp49
 70
     1
102
RTVSPost2010Prop50
 90
       50
102
RTVSPost2010PropOp50
 70
     1
102
RTVSPost2010Prop51ColorIndex
 90
      256
102
RTVSPost2010Prop51ColorRGB
 90
-16777216
102
RTVSPost2010PropOp51
 70
     0
102
RTVSPost2010Prop52
140
1.0
102
RTVSPost2010PropOp52
 70
     0
102
RTVSPost2010Prop53
 90
        2
102
RTVSPost2010PropOp53
 70
     1
102
RTVSPost2010Prop54
  1
strokes_ogs.tif
102
RTVSPost2010PropOp54
 70
     1
102
RTVSPost2010Prop55
280
     0
102
RTVSPost2010PropOp55
 70
     1
102
RTVSPost2010Prop56
140
1.0
102
RTVSPost2010PropOp56
 70
     1
102
RTVSPost2010Prop57
140
1.0
102
RTVSPost2010PropOp57
 70
     1
  0
XRECORD
  5
332
102
{ACAD_REACTORS
330
331
102
}
330
331
100
AcDbXrecord
280
     1
102
RTVSPropertyOp0
 70
     0
102
RTVSPropertyOp1
 70
     0
102
RTVSPropertyOp2
 70
     0
102
RTVSPropertyOp3
 70
     0
102
RTVSPropertyOp4
 70
     0
102
RTVSPropertyOp5
 70
     0
102
RTVSPropertyOp6
 70
     0
102
RTVSPropertyOp7
 70
     0
102
RTVSPropertyOp8
 70
     0
102
RTVSPropertyOp9
 70
     0
102
RTVSPropertyOp10
 70
     0
102
RTVSPropertyOp11
 70
     0
102
RTVSPropertyOp12
 70
     0
102
RTVSPropertyOp13
 70
     0
102
RTVSPropertyOp14
 70
     2
102
RTVSPropertyOp15
 70
     0
102
RTVSPropertyOp16
 70
     0
102
RTVSPropertyOp17
 70
     0
102
RTVSPropertyOp18
 70
     0
102
RTVSPropertyOp19
 70
     0
102
RTVSPropertyOp20
 70
     0
102
RTVSPropertyOp21
 70
     0
102
RTVSPropertyOp22
 70
     0
102
RTVSPropertyOp23
 70
     0
102
RTVSPropertyOp24
 70
     0
102
RTVSPropertyOp25
 70
     0
102
RTVSPropertyOp26
 70
     0
102
RTVSPropertyOp27
 70
     0
102
RTVSPropertyOp28
 70
     0
102
RTVSPropertyOp29
 70
     0
102
RTVSPropertyOp30
 70
     0
102
RTVSPropertyOp31
 70
     0
102
RTVSPropertyOp32
 70
     0
102
RTVSPropertyOp33
 70
     0
102
RTVSPropertyOp34
 70
     0
102
RTVSPropertyOp35
 70
     0
102
RTVSPropertyOp36
 70
     0
102
RTVSPropertyOp37
 70
     0
102
RTVSPropertyOp38
 70
     0
102
RTVSPropertyOp39
 70
     0
102
RTVSPropertyOp40
 70
     0
102
RTVSPropertyOp41
 70
     0
102
RTVSPropertyOp42
 70
     0
102
RTVSPropertyOp43
 70
     0
102
RTVSPropertyOp44
 70
     0
102
RTVSPropertyOp45
 70
     0
102
RTVSPropertyOp46
 70
     0
102
RTVSPropertyOp47
 70
     0
102
RTVSPropertyOp48
 70
     0
102
RTVSPropertyOp49
 70
     0
102
RTVSPropertyOp50
 70
     0
102
RTVSPropertyOp51
 70
     0
102
RTVSPropertyOp52
 70
     0
102
RTVSPropertyOp53
 70
     0
102
RTVSPropertyOp54
 70
     0
102
RTVSPropertyOp55
 70
     0
102
RTVSPropertyOp56
 70
     0
102
RTVSPropertyOp57
 70
     0
102
RTVSPost2010Prop28
280
     0
102
RTVSPost2010PropOp28
 70
     0
102
RTVSPost2010Prop29
280
     1
102
RTVSPost2010PropOp29
 70
     0
102
RTVSPost2010Prop30
280
     1
102
RTVSPost2010PropOp30
 70
     0
102
RTVSPost2010Prop31
280
     0
102
RTVSPost2010PropOp31
 70
     0
102
RTVSPost2010Prop32
280
     0
102
RTVSPost2010PropOp32
 70
     0
102
RTVSPost2010Prop33
280
     0
102
RTVSPost2010PropOp33
 70
     0
102
RTVSPost2010Prop34
280
     0
102
RTVSPost2010PropOp34
 70
     0
102
RTVSPost2010Prop35
280
     0
102
RTVSPost2010PropOp35
 70
     0
102
RTVSPost2010Prop36
280
     0
102
RTVSPost2010PropOp36
 70
     0
102
RTVSPost2010Prop37
 90
       50
102
RTVSPost2010PropOp37
 70
     0
102
RTVSPost2010Prop38
140
0.0
102
RTVSPost2010PropOp38
 70
     0
102
RTVSPost2010Prop39
140
1.0
102
RTVSPost2010PropOp39
 70
     0
102
RTVSPost2010Prop40
 90
        0
102
RTVSPost2010PropOp40
 70
     0
102
RTVSPost2010Prop41ColorIndex
 90
       18
102
RTVSPost2010Prop41ColorRGB
 90
        0
102
RTVSPost2010PropOp41
 70
     0
102
RTVSPost2010Prop42
 90
       50
102
RTVSPost2010PropOp42
 70
     0
102
RTVSPost2010Prop43
 90
        3
102
RTVSPost2010PropOp43
 70
     0
102
RTVSPost2010Prop44ColorIndex
 90
        5
102
RTVSPost2010Prop44ColorRGB
 90
      255
102
RTVSPost2010PropOp44
 70
     0
102
RTVSPost2010Prop45
280
     0
102
RTVSPost2010PropOp45
 70
     0
102
RTVSPost2010Prop46
 90
       50
102
RTVSPost2010PropOp46
 70
     0
102
RTVSPost2010Prop47
 90
       50
102
RTVSPost2010PropOp47
 70
     0
102
RTVSPost2010Prop48
 90
       50
102
RTVSPost2010PropOp48
 70
     0
102
RTVSPost2010Prop49
280
     0
102
RTVSPost2010PropOp49
 70
     0
102
RTVSPost2010Prop50
 90
       50
102
RTVSPost2010PropOp50
 70
     0
102
RTVSPost2010Prop51ColorIndex
 90
      256
102
RTVSPost2010Prop51ColorRGB
 90
-16777216
102
RTVSPost2010PropOp51
 70
     0
102
RTVSPost2010Prop52
140
1.0
102
RTVSPost2010PropOp52
 70
     0
102
RTVSPost2010Prop53
 90
        2
102
RTVSPost2010PropOp53
 70
     0
102
RTVSPost2010Prop54
  1
strokes_ogs.tif
102
RTVSPost2010PropOp54
 70
     0
102
RTVSPost2010Prop55
280
     0
102
RTVSPost2010PropOp55
 70
     0
102
RTVSPost2010Prop56
140
1.0
102
RTVSPost2010PropOp56
 70
     0
102
RTVSPost2010Prop57
140
1.0
102
RTVSPost2010PropOp57
 70
     0
  0
XRECORD
  5
32A
102
{ACAD_REACTORS
330
329
102
}
330
329
100
AcDbXrecord
280
     1
102
RTVSPropertyOp0
 70
     1
102
RTVSPropertyOp1
 70
     1
102
RTVSPropertyOp2
 70
     1
102
RTVSPropertyOp3
 70
     1
102
RTVSPropertyOp4
 70
     1
102
RTVSPropertyOp5
 70
     1
102
RTVSPropertyOp6
 70
     1
102
RTVSPropertyOp7
 70
     1
102
RTVSPropertyOp8
 70
     1
102
RTVSPropertyOp9
 70
     1
102
RTVSPropertyOp10
 70
     1
102
RTVSPropertyOp11
 70
     1
102
RTVSPropertyOp12
 70
     1
102
RTVSPropertyOp13
 70
     1
102
RTVSPropertyOp14
 70
     1
102
RTVSPropertyOp15
 70
     1
102
RTVSPropertyOp16
 70
     1
102
RTVSPropertyOp17
 70
     1
102
RTVSPropertyOp18
 70
     1
102
RTVSPropertyOp19
 70
     1
102
RTVSPropertyOp20
 70
     1
102
RTVSPropertyOp21
 70
     1
102
RTVSPropertyOp22
 70
     1
102
RTVSPropertyOp23
 70
     1
102
RTVSPropertyOp24
 70
     1
102
RTVSPropertyOp25
 70
     1
102
RTVSPropertyOp26
 70
     1
102
RTVSPropertyOp27
 70
     1
102
RTVSPropertyOp28
 70
     1
102
RTVSPropertyOp29
 70
     1
102
RTVSPropertyOp30
 70
     1
102
RTVSPropertyOp31
 70
     1
102
RTVSPropertyOp32
 70
     1
102
RTVSPropertyOp33
 70
     1
102
RTVSPropertyOp34
 70
     1
102
RTVSPropertyOp35
 70
     1
102
RTVSPropertyOp36
 70
     1
102
RTVSPropertyOp37
 70
     1
102
RTVSPropertyOp38
 70
     1
102
RTVSPropertyOp39
 70
     1
102
RTVSPropertyOp40
 70
     1
102
RTVSPropertyOp41
 70
     1
102
RTVSPropertyOp42
 70
     1
102
RTVSPropertyOp43
 70
     1
102
RTVSPropertyOp44
 70
     1
102
RTVSPropertyOp45
 70
     1
102
RTVSPropertyOp46
 70
     1
102
RTVSPropertyOp47
 70
     1
102
RTVSPropertyOp48
 70
     1
102
RTVSPropertyOp49
 70
     1
102
RTVSPropertyOp50
 70
     1
102
RTVSPropertyOp51
 70
     0
102
RTVSPropertyOp52
 70
     0
102
RTVSPropertyOp53
 70
     1
102
RTVSPropertyOp54
 70
     1
102
RTVSPropertyOp55
 70
     1
102
RTVSPropertyOp56
 70
     1
102
RTVSPropertyOp57
 70
     1
102
RTVSPost2010Prop28
280
     0
102
RTVSPost2010PropOp28
 70
     1
102
RTVSPost2010Prop29
280
     1
102
RTVSPost2010PropOp29
 70
     1
102
RTVSPost2010Prop30
280
     1
102
RTVSPost2010PropOp30
 70
     1
102
RTVSPost2010Prop31
280
     0
102
RTVSPost2010PropOp31
 70
     1
102
RTVSPost2010Prop32
280
     0
102
RTVSPost2010PropOp32
 70
     1
102
RTVSPost2010Prop33
280
     0
102
RTVSPost2010PropOp33
 70
     1
102
RTVSPost2010Prop34
280
     0
102
RTVSPost2010PropOp34
 70
     1
102
RTVSPost2010Prop35
280
     0
102
RTVSPost2010PropOp35
 70
     1
102
RTVSPost2010Prop36
280
     0
102
RTVSPost2010PropOp36
 70
     1
102
RTVSPost2010Prop37
 90
       50
102
RTVSPost2010PropOp37
 70
     1
102
RTVSPost2010Prop38
140
0.0
102
RTVSPost2010PropOp38
 70
     1
102
RTVSPost2010Prop39
140
1.0
102
RTVSPost2010PropOp39
 70
     1
102
RTVSPost2010Prop40
 90
        0
102
RTVSPost2010PropOp40
 70
     1
102
RTVSPost2010Prop41ColorIndex
 90
       18
102
RTVSPost2010Prop41ColorRGB
 90
        0
102
RTVSPost2010PropOp41
 70
     1
102
RTVSPost2010Prop42
 90
       50
102
RTVSPost2010PropOp42
 70
     1
102
RTVSPost2010Prop43
 90
        3
102
RTVSPost2010PropOp43
 70
     1
102
RTVSPost2010Prop44ColorIndex
 90
        5
102
RTVSPost2010Prop44ColorRGB
 90
      255
102
RTVSPost2010PropOp44
 70
     1
102
RTVSPost2010Prop45
280
     0
102
RTVSPost2010PropOp45
 70
     1
102
RTVSPost2010Prop46
 90
       50
102
RTVSPost2010PropOp46
 70
     1
102
RTVSPost2010Prop47
 90
       50
102
RTVSPost2010PropOp47
 70
     1
102
RTVSPost2010Prop48
 90
       50
102
RTVSPost2010PropOp48
 70
     1
102
RTVSPost2010Prop49
280
     0
102
RTVSPost2010PropOp49
 70
     1
102
RTVSPost2010Prop50
 90
       50
102
RTVSPost2010PropOp50
 70
     1
102
RTVSPost2010Prop51ColorIndex
 90
      256
102
RTVSPost2010Prop51ColorRGB
 90
-16777216
102
RTVSPost2010PropOp51
 70
     0
102
RTVSPost2010Prop52
140
1.0
102
RTVSPost2010PropOp52
 70
     0
102
RTVSPost2010Prop53
 90
        2
102
RTVSPost2010PropOp53
 70
     1
102
RTVSPost2010Prop54
  1
strokes_ogs.tif
102
RTVSPost2010PropOp54
 70
     1
102
RTVSPost2010Prop55
280
     0
102
RTVSPost2010PropOp55
 70
     1
102
RTVSPost2010Prop56
140
1.0
102
RTVSPost2010PropOp56
 70
     1
102
RTVSPost2010Prop57
140
1.0
102
RTVSPost2010PropOp57
 70
     1
  0
XRECORD
  5
30E
102
{ACAD_REACTORS
330
30D
102
}
330
30D
100
AcDbXrecord
280
     1
102
RTVSPropertyOp0
 70
     1
102
RTVSPropertyOp1
 70
     1
102
RTVSPropertyOp2
 70
     1
102
RTVSPropertyOp3
 70
     1
102
RTVSPropertyOp4
 70
     1
102
RTVSPropertyOp5
 70
     1
102
RTVSPropertyOp6
 70
     1
102
RTVSPropertyOp7
 70
     1
102
RTVSPropertyOp8
 70
     1
102
RTVSPropertyOp9
 70
     1
102
RTVSPropertyOp10
 70
     1
102
RTVSPropertyOp11
 70
     1
102
RTVSPropertyOp12
 70
     1
102
RTVSPropertyOp13
 70
     1
102
RTVSPropertyOp14
 70
     1
102
RTVSPropertyOp15
 70
     1
102
RTVSPropertyOp16
 70
     1
102
RTVSPropertyOp17
 70
     1
102
RTVSPropertyOp18
 70
     1
102
RTVSPropertyOp19
 70
     1
102
RTVSPropertyOp20
 70
     1
102
RTVSPropertyOp21
 70
     1
102
RTVSPropertyOp22
 70
     1
102
RTVSPropertyOp23
 70
     1
102
RTVSPropertyOp24
 70
     1
102
RTVSPropertyOp25
 70
     1
102
RTVSPropertyOp26
 70
     1
102
RTVSPropertyOp27
 70
     1
102
RTVSPropertyOp28
 70
     1
102
RTVSPropertyOp29
 70
     1
102
RTVSPropertyOp30
 70
     1
102
RTVSPropertyOp31
 70
     1
102
RTVSPropertyOp32
 70
     1
102
RTVSPropertyOp33
 70
     1
102
RTVSPropertyOp34
 70
     1
102
RTVSPropertyOp35
 70
     1
102
RTVSPropertyOp36
 70
     1
102
RTVSPropertyOp37
 70
     1
102
RTVSPropertyOp38
 70
     1
102
RTVSPropertyOp39
 70
     1
102
RTVSPropertyOp40
 70
     1
102
RTVSPropertyOp41
 70
     1
102
RTVSPropertyOp42
 70
     1
102
RTVSPropertyOp43
 70
     1
102
RTVSPropertyOp44
 70
     1
102
RTVSPropertyOp45
 70
     1
102
RTVSPropertyOp46
 70
     1
102
RTVSPropertyOp47
 70
     1
102
RTVSPropertyOp48
 70
     1
102
RTVSPropertyOp49
 70
     1
102
RTVSPropertyOp50
 70
     1
102
RTVSPropertyOp51
 70
     0
102
RTVSPropertyOp52
 70
     0
102
RTVSPropertyOp53
 70
     1
102
RTVSPropertyOp54
 70
     1
102
RTVSPropertyOp55
 70
     1
102
RTVSPropertyOp56
 70
     1
102
RTVSPropertyOp57
 70
     1
102
RTVSPost2010Prop28
280
     0
102
RTVSPost2010PropOp28
 70
     1
102
RTVSPost2010Prop29
280
     1
102
RTVSPost2010PropOp29
 70
     1
102
RTVSPost2010Prop30
280
     1
102
RTVSPost2010PropOp30
 70
     1
102
RTVSPost2010Prop31
280
     0
102
RTVSPost2010PropOp31
 70
     1
102
RTVSPost2010Prop32
280
     0
102
RTVSPost2010PropOp32
 70
     1
102
RTVSPost2010Prop33
280
     0
102
RTVSPost2010PropOp33
 70
     1
102
RTVSPost2010Prop34
280
     0
102
RTVSPost2010PropOp34
 70
     1
102
RTVSPost2010Prop35
280
     0
102
RTVSPost2010PropOp35
 70
     1
102
RTVSPost2010Prop36
280
     0
102
RTVSPost2010PropOp36
 70
     1
102
RTVSPost2010Prop37
 90
       50
102
RTVSPost2010PropOp37
 70
     1
102
RTVSPost2010Prop38
140
0.0
102
RTVSPost2010PropOp38
 70
     1
102
RTVSPost2010Prop39
140
1.0
102
RTVSPost2010PropOp39
 70
     1
102
RTVSPost2010Prop40
 90
        0
102
RTVSPost2010PropOp40
 70
     1
102
RTVSPost2010Prop41ColorIndex
 90
       18
102
RTVSPost2010Prop41ColorRGB
 90
        0
102
RTVSPost2010PropOp41
 70
     1
102
RTVSPost2010Prop42
 90
       50
102
RTVSPost2010PropOp42
 70
     1
102
RTVSPost2010Prop43
 90
        3
102
RTVSPost2010PropOp43
 70
     1
102
RTVSPost2010Prop44ColorIndex
 90
        5
102
RTVSPost2010Prop44ColorRGB
 90
      255
102
RTVSPost2010PropOp44
 70
     1
102
RTVSPost2010Prop45
280
     0
102
RTVSPost2010PropOp45
 70
     1
102
RTVSPost2010Prop46
 90
       50
102
RTVSPost2010PropOp46
 70
     1
102
RTVSPost2010Prop47
 90
       50
102
RTVSPost2010PropOp47
 70
     1
102
RTVSPost2010Prop48
 90
       50
102
RTVSPost2010PropOp48
 70
     1
102
RTVSPost2010Prop49
280
     0
102
RTVSPost2010PropOp49
 70
     1
102
RTVSPost2010Prop50
 90
       50
102
RTVSPost2010PropOp50
 70
     1
102
RTVSPost2010Prop51ColorIndex
 90
      256
102
RTVSPost2010Prop51ColorRGB
 90
-16777216
102
RTVSPost2010PropOp51
 70
     0
102
RTVSPost2010Prop52
140
1.0
102
RTVSPost2010PropOp52
 70
     0
102
RTVSPost2010Prop53
 90
        2
102
RTVSPost2010PropOp53
 70
     1
102
RTVSPost2010Prop54
  1
strokes_ogs.tif
102
RTVSPost2010PropOp54
 70
     1
102
RTVSPost2010Prop55
280
     0
102
RTVSPost2010PropOp55
 70
     1
102
RTVSPost2010Prop56
140
1.0
102
RTVSPost2010PropOp56
 70
     1
102
RTVSPost2010Prop57
140
1.0
102
RTVSPost2010PropOp57
 70
     1
  0
XRECORD
  5
310
102
{ACAD_REACTORS
330
30F
102
}
330
30F
100
AcDbXrecord
280
     1
102
RTVSPropertyOp0
 70
     1
102
RTVSPropertyOp1
 70
     1
102
RTVSPropertyOp2
 70
     1
102
RTVSPropertyOp3
 70
     1
102
RTVSPropertyOp4
 70
     1
102
RTVSPropertyOp5
 70
     1
102
RTVSPropertyOp6
 70
     1
102
RTVSPropertyOp7
 70
     1
102
RTVSPropertyOp8
 70
     1
102
RTVSPropertyOp9
 70
     1
102
RTVSPropertyOp10
 70
     1
102
RTVSPropertyOp11
 70
     1
102
RTVSPropertyOp12
 70
     1
102
RTVSPropertyOp13
 70
     1
102
RTVSPropertyOp14
 70
     1
102
RTVSPropertyOp15
 70
     1
102
RTVSPropertyOp16
 70
     1
102
RTVSPropertyOp17
 70
     1
102
RTVSPropertyOp18
 70
     1
102
RTVSPropertyOp19
 70
     1
102
RTVSPropertyOp20
 70
     1
102
RTVSPropertyOp21
 70
     1
102
RTVSPropertyOp22
 70
     1
102
RTVSPropertyOp23
 70
     1
102
RTVSPropertyOp24
 70
     1
102
RTVSPropertyOp25
 70
     1
102
RTVSPropertyOp26
 70
     1
102
RTVSPropertyOp27
 70
     1
102
RTVSPropertyOp28
 70
     1
102
RTVSPropertyOp29
 70
     1
102
RTVSPropertyOp30
 70
     1
102
RTVSPropertyOp31
 70
     1
102
RTVSPropertyOp32
 70
     1
102
RTVSPropertyOp33
 70
     1
102
RTVSPropertyOp34
 70
     1
102
RTVSPropertyOp35
 70
     1
102
RTVSPropertyOp36
 70
     1
102
RTVSPropertyOp37
 70
     1
102
RTVSPropertyOp38
 70
     1
102
RTVSPropertyOp39
 70
     1
102
RTVSPropertyOp40
 70
     1
102
RTVSPropertyOp41
 70
     1
102
RTVSPropertyOp42
 70
     1
102
RTVSPropertyOp43
 70
     1
102
RTVSPropertyOp44
 70
     1
102
RTVSPropertyOp45
 70
     1
102
RTVSPropertyOp46
 70
     1
102
RTVSPropertyOp47
 70
     1
102
RTVSPropertyOp48
 70
     1
102
RTVSPropertyOp49
 70
     1
102
RTVSPropertyOp50
 70
     1
102
RTVSPropertyOp51
 70
     0
102
RTVSPropertyOp52
 70
     0
102
RTVSPropertyOp53
 70
     1
102
RTVSPropertyOp54
 70
     1
102
RTVSPropertyOp55
 70
     1
102
RTVSPropertyOp56
 70
     1
102
RTVSPropertyOp57
 70
     1
102
RTVSPost2010Prop28
280
     0
102
RTVSPost2010PropOp28
 70
     1
102
RTVSPost2010Prop29
280
     1
102
RTVSPost2010PropOp29
 70
     1
102
RTVSPost2010Prop30
280
     1
102
RTVSPost2010PropOp30
 70
     1
102
RTVSPost2010Prop31
280
     0
102
RTVSPost2010PropOp31
 70
     1
102
RTVSPost2010Prop32
280
     0
102
RTVSPost2010PropOp32
 70
     1
102
RTVSPost2010Prop33
280
     0
102
RTVSPost2010PropOp33
 70
     1
102
RTVSPost2010Prop34
280
     0
102
RTVSPost2010PropOp34
 70
     1
102
RTVSPost2010Prop35
280
     0
102
RTVSPost2010PropOp35
 70
     1
102
RTVSPost2010Prop36
280
     0
102
RTVSPost2010PropOp36
 70
     1
102
RTVSPost2010Prop37
 90
       50
102
RTVSPost2010PropOp37
 70
     1
102
RTVSPost2010Prop38
140
0.0
102
RTVSPost2010PropOp38
 70
     1
102
RTVSPost2010Prop39
140
1.0
102
RTVSPost2010PropOp39
 70
     1
102
RTVSPost2010Prop40
 90
        0
102
RTVSPost2010PropOp40
 70
     1
102
RTVSPost2010Prop41ColorIndex
 90
       18
102
RTVSPost2010Prop41ColorRGB
 90
        0
102
RTVSPost2010PropOp41
 70
     1
102
RTVSPost2010Prop42
 90
       50
102
RTVSPost2010PropOp42
 70
     1
102
RTVSPost2010Prop43
 90
        3
102
RTVSPost2010PropOp43
 70
     1
102
RTVSPost2010Prop44ColorIndex
 90
        5
102
RTVSPost2010Prop44ColorRGB
 90
      255
102
RTVSPost2010PropOp44
 70
     1
102
RTVSPost2010Prop45
280
     0
102
RTVSPost2010PropOp45
 70
     1
102
RTVSPost2010Prop46
 90
       50
102
RTVSPost2010PropOp46
 70
     1
102
RTVSPost2010Prop47
 90
       50
102
RTVSPost2010PropOp47
 70
     1
102
RTVSPost2010Prop48
 90
       50
102
RTVSPost2010PropOp48
 70
     1
102
RTVSPost2010Prop49
280
     0
102
RTVSPost2010PropOp49
 70
     1
102
RTVSPost2010Prop50
 90
       50
102
RTVSPost2010PropOp50
 70
     1
102
RTVSPost2010Prop51ColorIndex
 90
      256
102
RTVSPost2010Prop51ColorRGB
 90
-16777216
102
RTVSPost2010PropOp51
 70
     0
102
RTVSPost2010Prop52
140
1.0
102
RTVSPost2010PropOp52
 70
     0
102
RTVSPost2010Prop53
 90
        2
102
RTVSPost2010PropOp53
 70
     1
102
RTVSPost2010Prop54
  1
strokes_ogs.tif
102
RTVSPost2010PropOp54
 70
     1
102
RTVSPost2010Prop55
280
     0
102
RTVSPost2010PropOp55
 70
     1
102
RTVSPost2010Prop56
140
1.0
102
RTVSPost2010PropOp56
 70
     1
102
RTVSPost2010Prop57
140
1.0
102
RTVSPost2010PropOp57
 70
     1
  0
XRECORD
  5
312
102
{ACAD_REACTORS
330
311
102
}
330
311
100
AcDbXrecord
280
     1
102
RTVSPropertyOp0
 70
     1
102
RTVSPropertyOp1
 70
     1
102
RTVSPropertyOp2
 70
     1
102
RTVSPropertyOp3
 70
     1
102
RTVSPropertyOp4
 70
     1
102
RTVSPropertyOp5
 70
     1
102
RTVSPropertyOp6
 70
     1
102
RTVSPropertyOp7
 70
     1
102
RTVSPropertyOp8
 70
     1
102
RTVSPropertyOp9
 70
     1
102
RTVSPropertyOp10
 70
     1
102
RTVSPropertyOp11
 70
     1
102
RTVSPropertyOp12
 70
     1
102
RTVSPropertyOp13
 70
     1
102
RTVSPropertyOp14
 70
     1
102
RTVSPropertyOp15
 70
     1
102
RTVSPropertyOp16
 70
     1
102
RTVSPropertyOp17
 70
     1
102
RTVSPropertyOp18
 70
     1
102
RTVSPropertyOp19
 70
     1
102
RTVSPropertyOp20
 70
     1
102
RTVSPropertyOp21
 70
     1
102
RTVSPropertyOp22
 70
     1
102
RTVSPropertyOp23
 70
     1
102
RTVSPropertyOp24
 70
     1
102
RTVSPropertyOp25
 70
     1
102
RTVSPropertyOp26
 70
     1
102
RTVSPropertyOp27
 70
     1
102
RTVSPropertyOp28
 70
     1
102
RTVSPropertyOp29
 70
     1
102
RTVSPropertyOp30
 70
     1
102
RTVSPropertyOp31
 70
     1
102
RTVSPropertyOp32
 70
     1
102
RTVSPropertyOp33
 70
     1
102
RTVSPropertyOp34
 70
     1
102
RTVSPropertyOp35
 70
     1
102
RTVSPropertyOp36
 70
     1
102
RTVSPropertyOp37
 70
     1
102
RTVSPropertyOp38
 70
     1
102
RTVSPropertyOp39
 70
     1
102
RTVSPropertyOp40
 70
     1
102
RTVSPropertyOp41
 70
     1
102
RTVSPropertyOp42
 70
     1
102
RTVSPropertyOp43
 70
     1
102
RTVSPropertyOp44
 70
     1
102
RTVSPropertyOp45
 70
     1
102
RTVSPropertyOp46
 70
     1
102
RTVSPropertyOp47
 70
     1
102
RTVSPropertyOp48
 70
     1
102
RTVSPropertyOp49
 70
     1
102
RTVSPropertyOp50
 70
     1
102
RTVSPropertyOp51
 70
     0
102
RTVSPropertyOp52
 70
     0
102
RTVSPropertyOp53
 70
     1
102
RTVSPropertyOp54
 70
     1
102
RTVSPropertyOp55
 70
     1
102
RTVSPropertyOp56
 70
     1
102
RTVSPropertyOp57
 70
     1
102
RTVSPost2010Prop28
280
     0
102
RTVSPost2010PropOp28
 70
     1
102
RTVSPost2010Prop29
280
     1
102
RTVSPost2010PropOp29
 70
     1
102
RTVSPost2010Prop30
280
     1
102
RTVSPost2010PropOp30
 70
     1
102
RTVSPost2010Prop31
280
     0
102
RTVSPost2010PropOp31
 70
     1
102
RTVSPost2010Prop32
280
     0
102
RTVSPost2010PropOp32
 70
     1
102
RTVSPost2010Prop33
280
     0
102
RTVSPost2010PropOp33
 70
     1
102
RTVSPost2010Prop34
280
     0
102
RTVSPost2010PropOp34
 70
     1
102
RTVSPost2010Prop35
280
     0
102
RTVSPost2010PropOp35
 70
     1
102
RTVSPost2010Prop36
280
     0
102
RTVSPost2010PropOp36
 70
     1
102
RTVSPost2010Prop37
 90
       50
102
RTVSPost2010PropOp37
 70
     1
102
RTVSPost2010Prop38
140
0.0
102
RTVSPost2010PropOp38
 70
     1
102
RTVSPost2010Prop39
140
1.0
102
RTVSPost2010PropOp39
 70
     1
102
RTVSPost2010Prop40
 90
        0
102
RTVSPost2010PropOp40
 70
     1
102
RTVSPost2010Prop41ColorIndex
 90
       18
102
RTVSPost2010Prop41ColorRGB
 90
        0
102
RTVSPost2010PropOp41
 70
     1
102
RTVSPost2010Prop42
 90
       50
102
RTVSPost2010PropOp42
 70
     1
102
RTVSPost2010Prop43
 90
        3
102
RTVSPost2010PropOp43
 70
     1
102
RTVSPost2010Prop44ColorIndex
 90
        5
102
RTVSPost2010Prop44ColorRGB
 90
      255
102
RTVSPost2010PropOp44
 70
     1
102
RTVSPost2010Prop45
280
     0
102
RTVSPost2010PropOp45
 70
     1
102
RTVSPost2010Prop46
 90
       50
102
RTVSPost2010PropOp46
 70
     1
102
RTVSPost2010Prop47
 90
       50
102
RTVSPost2010PropOp47
 70
     1
102
RTVSPost2010Prop48
 90
       50
102
RTVSPost2010PropOp48
 70
     1
102
RTVSPost2010Prop49
280
     0
102
RTVSPost2010PropOp49
 70
     1
102
RTVSPost2010Prop50
 90
       50
102
RTVSPost2010PropOp50
 70
     1
102
RTVSPost2010Prop51ColorIndex
 90
      256
102
RTVSPost2010Prop51ColorRGB
 90
-16777216
102
RTVSPost2010PropOp51
 70
     0
102
RTVSPost2010Prop52
140
1.0
102
RTVSPost2010PropOp52
 70
     0
102
RTVSPost2010Prop53
 90
        2
102
RTVSPost2010PropOp53
 70
     1
102
RTVSPost2010Prop54
  1
strokes_ogs.tif
102
RTVSPost2010PropOp54
 70
     1
102
RTVSPost2010Prop55
280
     0
102
RTVSPost2010PropOp55
 70
     1
102
RTVSPost2010Prop56
140
1.0
102
RTVSPost2010PropOp56
 70
     1
102
RTVSPost2010Prop57
140
1.0
102
RTVSPost2010PropOp57
 70
     1
  0
XRECORD
  5
314
102
{ACAD_REACTORS
330
313
102
}
330
313
100
AcDbXrecord
280
     1
102
RTVSPropertyOp0
 70
     1
102
RTVSPropertyOp1
 70
     1
102
RTVSPropertyOp2
 70
     1
102
RTVSPropertyOp3
 70
     1
102
RTVSPropertyOp4
 70
     1
102
RTVSPropertyOp5
 70
     1
102
RTVSPropertyOp6
 70
     1
102
RTVSPropertyOp7
 70
     1
102
RTVSPropertyOp8
 70
     1
102
RTVSPropertyOp9
 70
     1
102
RTVSPropertyOp10
 70
     1
102
RTVSPropertyOp11
 70
     1
102
RTVSPropertyOp12
 70
     1
102
RTVSPropertyOp13
 70
     1
102
RTVSPropertyOp14
 70
     1
102
RTVSPropertyOp15
 70
     1
102
RTVSPropertyOp16
 70
     1
102
RTVSPropertyOp17
 70
     1
102
RTVSPropertyOp18
 70
     1
102
RTVSPropertyOp19
 70
     1
102
RTVSPropertyOp20
 70
     1
102
RTVSPropertyOp21
 70
     1
102
RTVSPropertyOp22
 70
     1
102
RTVSPropertyOp23
 70
     1
102
RTVSPropertyOp24
 70
     1
102
RTVSPropertyOp25
 70
     1
102
RTVSPropertyOp26
 70
     1
102
RTVSPropertyOp27
 70
     1
102
RTVSPropertyOp28
 70
     1
102
RTVSPropertyOp29
 70
     1
102
RTVSPropertyOp30
 70
     1
102
RTVSPropertyOp31
 70
     1
102
RTVSPropertyOp32
 70
     1
102
RTVSPropertyOp33
 70
     1
102
RTVSPropertyOp34
 70
     1
102
RTVSPropertyOp35
 70
     1
102
RTVSPropertyOp36
 70
     1
102
RTVSPropertyOp37
 70
     1
102
RTVSPropertyOp38
 70
     1
102
RTVSPropertyOp39
 70
     1
102
RTVSPropertyOp40
 70
     1
102
RTVSPropertyOp41
 70
     1
102
RTVSPropertyOp42
 70
     1
102
RTVSPropertyOp43
 70
     1
102
RTVSPropertyOp44
 70
     1
102
RTVSPropertyOp45
 70
     1
102
RTVSPropertyOp46
 70
     1
102
RTVSPropertyOp47
 70
     1
102
RTVSPropertyOp48
 70
     1
102
RTVSPropertyOp49
 70
     1
102
RTVSPropertyOp50
 70
     1
102
RTVSPropertyOp51
 70
     0
102
RTVSPropertyOp52
 70
     0
102
RTVSPropertyOp53
 70
     1
102
RTVSPropertyOp54
 70
     1
102
RTVSPropertyOp55
 70
     1
102
RTVSPropertyOp56
 70
     1
102
RTVSPropertyOp57
 70
     1
102
RTVSPost2010Prop28
280
     0
102
RTVSPost2010PropOp28
 70
     1
102
RTVSPost2010Prop29
280
     1
102
RTVSPost2010PropOp29
 70
     1
102
RTVSPost2010Prop30
280
     1
102
RTVSPost2010PropOp30
 70
     1
102
RTVSPost2010Prop31
280
     0
102
RTVSPost2010PropOp31
 70
     1
102
RTVSPost2010Prop32
280
     0
102
RTVSPost2010PropOp32
 70
     1
102
RTVSPost2010Prop33
280
     0
102
RTVSPost2010PropOp33
 70
     1
102
RTVSPost2010Prop34
280
     0
102
RTVSPost2010PropOp34
 70
     1
102
RTVSPost2010Prop35
280
     0
102
RTVSPost2010PropOp35
 70
     1
102
RTVSPost2010Prop36
280
     0
102
RTVSPost2010PropOp36
 70
     1
102
RTVSPost2010Prop37
 90
       50
102
RTVSPost2010PropOp37
 70
     1
102
RTVSPost2010Prop38
140
0.0
102
RTVSPost2010PropOp38
 70
     1
102
RTVSPost2010Prop39
140
1.0
102
RTVSPost2010PropOp39
 70
     1
102
RTVSPost2010Prop40
 90
        0
102
RTVSPost2010PropOp40
 70
     1
102
RTVSPost2010Prop41ColorIndex
 90
       18
102
RTVSPost2010Prop41ColorRGB
 90
        0
102
RTVSPost2010PropOp41
 70
     1
102
RTVSPost2010Prop42
 90
       50
102
RTVSPost2010PropOp42
 70
     1
102
RTVSPost2010Prop43
 90
        3
102
RTVSPost2010PropOp43
 70
     1
102
RTVSPost2010Prop44ColorIndex
 90
        5
102
RTVSPost2010Prop44ColorRGB
 90
      255
102
RTVSPost2010PropOp44
 70
     1
102
RTVSPost2010Prop45
280
     0
102
RTVSPost2010PropOp45
 70
     1
102
RTVSPost2010Prop46
 90
       50
102
RTVSPost2010PropOp46
 70
     1
102
RTVSPost2010Prop47
 90
       50
102
RTVSPost2010PropOp47
 70
     1
102
RTVSPost2010Prop48
 90
       50
102
RTVSPost2010PropOp48
 70
     1
102
RTVSPost2010Prop49
280
     0
102
RTVSPost2010PropOp49
 70
     1
102
RTVSPost2010Prop50
 90
       50
102
RTVSPost2010PropOp50
 70
     1
102
RTVSPost2010Prop51ColorIndex
 90
      256
102
RTVSPost2010Prop51ColorRGB
 90
-16777216
102
RTVSPost2010PropOp51
 70
     0
102
RTVSPost2010Prop52
140
1.0
102
RTVSPost2010PropOp52
 70
     0
102
RTVSPost2010Prop53
 90
        2
102
RTVSPost2010PropOp53
 70
     1
102
RTVSPost2010Prop54
  1
strokes_ogs.tif
102
RTVSPost2010PropOp54
 70
     1
102
RTVSPost2010Prop55
280
     0
102
RTVSPost2010PropOp55
 70
     1
102
RTVSPost2010Prop56
140
1.0
102
RTVSPost2010PropOp56
 70
     1
102
RTVSPost2010Prop57
140
1.0
102
RTVSPost2010PropOp57
 70
     1
  0
XRECORD
  5
31A
102
{ACAD_REACTORS
330
319
102
}
330
319
100
AcDbXrecord
280
     1
102
RTVSPropertyOp0
 70
     1
102
RTVSPropertyOp1
 70
     1
102
RTVSPropertyOp2
 70
     1
102
RTVSPropertyOp3
 70
     1
102
RTVSPropertyOp4
 70
     1
102
RTVSPropertyOp5
 70
     1
102
RTVSPropertyOp6
 70
     1
102
RTVSPropertyOp7
 70
     1
102
RTVSPropertyOp8
 70
     1
102
RTVSPropertyOp9
 70
     1
102
RTVSPropertyOp10
 70
     1
102
RTVSPropertyOp11
 70
     1
102
RTVSPropertyOp12
 70
     1
102
RTVSPropertyOp13
 70
     1
102
RTVSPropertyOp14
 70
     1
102
RTVSPropertyOp15
 70
     1
102
RTVSPropertyOp16
 70
     1
102
RTVSPropertyOp17
 70
     1
102
RTVSPropertyOp18
 70
     1
102
RTVSPropertyOp19
 70
     1
102
RTVSPropertyOp20
 70
     1
102
RTVSPropertyOp21
 70
     1
102
RTVSPropertyOp22
 70
     1
102
RTVSPropertyOp23
 70
     1
102
RTVSPropertyOp24
 70
     1
102
RTVSPropertyOp25
 70
     1
102
RTVSPropertyOp26
 70
     1
102
RTVSPropertyOp27
 70
     1
102
RTVSPropertyOp28
 70
     1
102
RTVSPropertyOp29
 70
     1
102
RTVSPropertyOp30
 70
     1
102
RTVSPropertyOp31
 70
     1
102
RTVSPropertyOp32
 70
     1
102
RTVSPropertyOp33
 70
     1
102
RTVSPropertyOp34
 70
     1
102
RTVSPropertyOp35
 70
     1
102
RTVSPropertyOp36
 70
     1
102
RTVSPropertyOp37
 70
     1
102
RTVSPropertyOp38
 70
     1
102
RTVSPropertyOp39
 70
     1
102
RTVSPropertyOp40
 70
     1
102
RTVSPropertyOp41
 70
     1
102
RTVSPropertyOp42
 70
     1
102
RTVSPropertyOp43
 70
     1
102
RTVSPropertyOp44
 70
     1
102
RTVSPropertyOp45
 70
     1
102
RTVSPropertyOp46
 70
     1
102
RTVSPropertyOp47
 70
     1
102
RTVSPropertyOp48
 70
     1
102
RTVSPropertyOp49
 70
     1
102
RTVSPropertyOp50
 70
     1
102
RTVSPropertyOp51
 70
     0
102
RTVSPropertyOp52
 70
     0
102
RTVSPropertyOp53
 70
     1
102
RTVSPropertyOp54
 70
     1
102
RTVSPropertyOp55
 70
     1
102
RTVSPropertyOp56
 70
     1
102
RTVSPropertyOp57
 70
     1
102
RTVSPost2010Prop28
280
     0
102
RTVSPost2010PropOp28
 70
     1
102
RTVSPost2010Prop29
280
     1
102
RTVSPost2010PropOp29
 70
     1
102
RTVSPost2010Prop30
280
     1
102
RTVSPost2010PropOp30
 70
     1
102
RTVSPost2010Prop31
280
     0
102
RTVSPost2010PropOp31
 70
     1
102
RTVSPost2010Prop32
280
     0
102
RTVSPost2010PropOp32
 70
     1
102
RTVSPost2010Prop33
280
     0
102
RTVSPost2010PropOp33
 70
     1
102
RTVSPost2010Prop34
280
     0
102
RTVSPost2010PropOp34
 70
     1
102
RTVSPost2010Prop35
280
     0
102
RTVSPost2010PropOp35
 70
     1
102
RTVSPost2010Prop36
280
     0
102
RTVSPost2010PropOp36
 70
     1
102
RTVSPost2010Prop37
 90
       50
102
RTVSPost2010PropOp37
 70
     1
102
RTVSPost2010Prop38
140
0.0
102
RTVSPost2010PropOp38
 70
     1
102
RTVSPost2010Prop39
140
1.0
102
RTVSPost2010PropOp39
 70
     1
102
RTVSPost2010Prop40
 90
        0
102
RTVSPost2010PropOp40
 70
     1
102
RTVSPost2010Prop41ColorIndex
 90
       18
102
RTVSPost2010Prop41ColorRGB
 90
        0
102
RTVSPost2010PropOp41
 70
     1
102
RTVSPost2010Prop42
 90
       50
102
RTVSPost2010PropOp42
 70
     1
102
RTVSPost2010Prop43
 90
        3
102
RTVSPost2010PropOp43
 70
     1
102
RTVSPost2010Prop44ColorIndex
 90
        5
102
RTVSPost2010Prop44ColorRGB
 90
      255
102
RTVSPost2010PropOp44
 70
     1
102
RTVSPost2010Prop45
280
     0
102
RTVSPost2010PropOp45
 70
     1
102
RTVSPost2010Prop46
 90
       50
102
RTVSPost2010PropOp46
 70
     1
102
RTVSPost2010Prop47
 90
       50
102
RTVSPost2010PropOp47
 70
     1
102
RTVSPost2010Prop48
 90
       50
102
RTVSPost2010PropOp48
 70
     1
102
RTVSPost2010Prop49
280
     0
102
RTVSPost2010PropOp49
 70
     1
102
RTVSPost2010Prop50
 90
       50
102
RTVSPost2010PropOp50
 70
     1
102
RTVSPost2010Prop51ColorIndex
 90
      256
102
RTVSPost2010Prop51ColorRGB
 90
-16777216
102
RTVSPost2010PropOp51
 70
     0
102
RTVSPost2010Prop52
140
1.0
102
RTVSPost2010PropOp52
 70
     0
102
RTVSPost2010Prop53
 90
        2
102
RTVSPost2010PropOp53
 70
     1
102
RTVSPost2010Prop54
  1
strokes_ogs.tif
102
RTVSPost2010PropOp54
 70
     1
102
RTVSPost2010Prop55
280
     0
102
RTVSPost2010PropOp55
 70
     1
102
RTVSPost2010Prop56
140
1.0
102
RTVSPost2010PropOp56
 70
     1
102
RTVSPost2010Prop57
140
1.0
102
RTVSPost2010PropOp57
 70
     1
  0
XRECORD
  5
32E
102
{ACAD_REACTORS
330
32D
102
}
330
32D
100
AcDbXrecord
280
     1
102
RTVSPropertyOp0
 70
     0
102
RTVSPropertyOp1
 70
     0
102
RTVSPropertyOp2
 70
     0
102
RTVSPropertyOp3
 70
     0
102
RTVSPropertyOp4
 70
     0
102
RTVSPropertyOp5
 70
     0
102
RTVSPropertyOp6
 70
     0
102
RTVSPropertyOp7
 70
     0
102
RTVSPropertyOp8
 70
     0
102
RTVSPropertyOp9
 70
     0
102
RTVSPropertyOp10
 70
     0
102
RTVSPropertyOp11
 70
     0
102
RTVSPropertyOp12
 70
     0
102
RTVSPropertyOp13
 70
     0
102
RTVSPropertyOp14
 70
     2
102
RTVSPropertyOp15
 70
     0
102
RTVSPropertyOp16
 70
     0
102
RTVSPropertyOp17
 70
     0
102
RTVSPropertyOp18
 70
     0
102
RTVSPropertyOp19
 70
     0
102
RTVSPropertyOp20
 70
     0
102
RTVSPropertyOp21
 70
     0
102
RTVSPropertyOp22
 70
     0
102
RTVSPropertyOp23
 70
     0
102
RTVSPropertyOp24
 70
     0
102
RTVSPropertyOp25
 70
     0
102
RTVSPropertyOp26
 70
     0
102
RTVSPropertyOp27
 70
     0
102
RTVSPropertyOp28
 70
     0
102
RTVSPropertyOp29
 70
     0
102
RTVSPropertyOp30
 70
     0
102
RTVSPropertyOp31
 70
     0
102
RTVSPropertyOp32
 70
     0
102
RTVSPropertyOp33
 70
     0
102
RTVSPropertyOp34
 70
     0
102
RTVSPropertyOp35
 70
     0
102
RTVSPropertyOp36
 70
     0
102
RTVSPropertyOp37
 70
     0
102
RTVSPropertyOp38
 70
     0
102
RTVSPropertyOp39
 70
     0
102
RTVSPropertyOp40
 70
     0
102
RTVSPropertyOp41
 70
     0
102
RTVSPropertyOp42
 70
     0
102
RTVSPropertyOp43
 70
     0
102
RTVSPropertyOp44
 70
     0
102
RTVSPropertyOp45
 70
     0
102
RTVSPropertyOp46
 70
     0
102
RTVSPropertyOp47
 70
     0
102
RTVSPropertyOp48
 70
     0
102
RTVSPropertyOp49
 70
     0
102
RTVSPropertyOp50
 70
     0
102
RTVSPropertyOp51
 70
     0
102
RTVSPropertyOp52
 70
     0
102
RTVSPropertyOp53
 70
     0
102
RTVSPropertyOp54
 70
     0
102
RTVSPropertyOp55
 70
     0
102
RTVSPropertyOp56
 70
     0
102
RTVSPropertyOp57
 70
     0
102
RTVSPost2010Prop28
280
     0
102
RTVSPost2010PropOp28
 70
     0
102
RTVSPost2010Prop29
280
     1
102
RTVSPost2010PropOp29
 70
     0
102
RTVSPost2010Prop30
280
     1
102
RTVSPost2010PropOp30
 70
     0
102
RTVSPost2010Prop31
280
     0
102
RTVSPost2010PropOp31
 70
     0
102
RTVSPost2010Prop32
280
     0
102
RTVSPost2010PropOp32
 70
     0
102
RTVSPost2010Prop33
280
     0
102
RTVSPost2010PropOp33
 70
     0
102
RTVSPost2010Prop34
280
     0
102
RTVSPost2010PropOp34
 70
     0
102
RTVSPost2010Prop35
280
     0
102
RTVSPost2010PropOp35
 70
     0
102
RTVSPost2010Prop36
280
     0
102
RTVSPost2010PropOp36
 70
     0
102
RTVSPost2010Prop37
 90
       50
102
RTVSPost2010PropOp37
 70
     0
102
RTVSPost2010Prop38
140
0.0
102
RTVSPost2010PropOp38
 70
     0
102
RTVSPost2010Prop39
140
1.0
102
RTVSPost2010PropOp39
 70
     0
102
RTVSPost2010Prop40
 90
        0
102
RTVSPost2010PropOp40
 70
     0
102
RTVSPost2010Prop41ColorIndex
 90
       18
102
RTVSPost2010Prop41ColorRGB
 90
        0
102
RTVSPost2010PropOp41
 70
     0
102
RTVSPost2010Prop42
 90
       50
102
RTVSPost2010PropOp42
 70
     0
102
RTVSPost2010Prop43
 90
        3
102
RTVSPost2010PropOp43
 70
     0
102
RTVSPost2010Prop44ColorIndex
 90
        5
102
RTVSPost2010Prop44ColorRGB
 90
      255
102
RTVSPost2010PropOp44
 70
     0
102
RTVSPost2010Prop45
280
     0
102
RTVSPost2010PropOp45
 70
     0
102
RTVSPost2010Prop46
 90
       50
102
RTVSPost2010PropOp46
 70
     0
102
RTVSPost2010Prop47
 90
       50
102
RTVSPost2010PropOp47
 70
     0
102
RTVSPost2010Prop48
 90
       50
102
RTVSPost2010PropOp48
 70
     0
102
RTVSPost2010Prop49
280
     0
102
RTVSPost2010PropOp49
 70
     0
102
RTVSPost2010Prop50
 90
       50
102
RTVSPost2010PropOp50
 70
     0
102
RTVSPost2010Prop51ColorIndex
 90
      256
102
RTVSPost2010Prop51ColorRGB
 90
-16777216
102
RTVSPost2010PropOp51
 70
     0
102
RTVSPost2010Prop52
140
1.0
102
RTVSPost2010PropOp52
 70
     0
102
RTVSPost2010Prop53
 90
        2
102
RTVSPost2010PropOp53
 70
     0
102
RTVSPost2010Prop54
  1
strokes_ogs.tif
102
RTVSPost2010PropOp54
 70
     0
102
RTVSPost2010Prop55
280
     0
102
RTVSPost2010PropOp55
 70
     0
102
RTVSPost2010Prop56
140
1.0
102
RTVSPost2010PropOp56
 70
     0
102
RTVSPost2010Prop57
140
1.0
102
RTVSPost2010PropOp57
 70
     0
  0
XRECORD
  5
328
102
{ACAD_REACTORS
330
327
102
}
330
327
100
AcDbXrecord
280
     1
102
RTVSPropertyOp0
 70
     1
102
RTVSPropertyOp1
 70
     1
102
RTVSPropertyOp2
 70
     1
102
RTVSPropertyOp3
 70
     1
102
RTVSPropertyOp4
 70
     1
102
RTVSPropertyOp5
 70
     1
102
RTVSPropertyOp6
 70
     1
102
RTVSPropertyOp7
 70
     1
102
RTVSPropertyOp8
 70
     1
102
RTVSPropertyOp9
 70
     1
102
RTVSPropertyOp10
 70
     1
102
RTVSPropertyOp11
 70
     1
102
RTVSPropertyOp12
 70
     1
102
RTVSPropertyOp13
 70
     1
102
RTVSPropertyOp14
 70
     1
102
RTVSPropertyOp15
 70
     1
102
RTVSPropertyOp16
 70
     1
102
RTVSPropertyOp17
 70
     1
102
RTVSPropertyOp18
 70
     1
102
RTVSPropertyOp19
 70
     1
102
RTVSPropertyOp20
 70
     1
102
RTVSPropertyOp21
 70
     1
102
RTVSPropertyOp22
 70
     1
102
RTVSPropertyOp23
 70
     1
102
RTVSPropertyOp24
 70
     1
102
RTVSPropertyOp25
 70
     1
102
RTVSPropertyOp26
 70
     1
102
RTVSPropertyOp27
 70
     1
102
RTVSPropertyOp28
 70
     1
102
RTVSPropertyOp29
 70
     1
102
RTVSPropertyOp30
 70
     1
102
RTVSPropertyOp31
 70
     1
102
RTVSPropertyOp32
 70
     1
102
RTVSPropertyOp33
 70
     1
102
RTVSPropertyOp34
 70
     1
102
RTVSPropertyOp35
 70
     1
102
RTVSPropertyOp36
 70
     1
102
RTVSPropertyOp37
 70
     1
102
RTVSPropertyOp38
 70
     1
102
RTVSPropertyOp39
 70
     1
102
RTVSPropertyOp40
 70
     1
102
RTVSPropertyOp41
 70
     1
102
RTVSPropertyOp42
 70
     1
102
RTVSPropertyOp43
 70
     1
102
RTVSPropertyOp44
 70
     1
102
RTVSPropertyOp45
 70
     1
102
RTVSPropertyOp46
 70
     1
102
RTVSPropertyOp47
 70
     1
102
RTVSPropertyOp48
 70
     1
102
RTVSPropertyOp49
 70
     1
102
RTVSPropertyOp50
 70
     1
102
RTVSPropertyOp51
 70
     0
102
RTVSPropertyOp52
 70
     0
102
RTVSPropertyOp53
 70
     1
102
RTVSPropertyOp54
 70
     1
102
RTVSPropertyOp55
 70
     1
102
RTVSPropertyOp56
 70
     1
102
RTVSPropertyOp57
 70
     1
102
RTVSPost2010Prop28
280
     0
102
RTVSPost2010PropOp28
 70
     1
102
RTVSPost2010Prop29
280
     1
102
RTVSPost2010PropOp29
 70
     1
102
RTVSPost2010Prop30
280
     1
102
RTVSPost2010PropOp30
 70
     1
102
RTVSPost2010Prop31
280
     0
102
RTVSPost2010PropOp31
 70
     1
102
RTVSPost2010Prop32
280
     0
102
RTVSPost2010PropOp32
 70
     1
102
RTVSPost2010Prop33
280
     0
102
RTVSPost2010PropOp33
 70
     1
102
RTVSPost2010Prop34
280
     0
102
RTVSPost2010PropOp34
 70
     1
102
RTVSPost2010Prop35
280
     0
102
RTVSPost2010PropOp35
 70
     1
102
RTVSPost2010Prop36
280
     0
102
RTVSPost2010PropOp36
 70
     1
102
RTVSPost2010Prop37
 90
       50
102
RTVSPost2010PropOp37
 70
     1
102
RTVSPost2010Prop38
140
0.0
102
RTVSPost2010PropOp38
 70
     1
102
RTVSPost2010Prop39
140
1.0
102
RTVSPost2010PropOp39
 70
     1
102
RTVSPost2010Prop40
 90
        0
102
RTVSPost2010PropOp40
 70
     1
102
RTVSPost2010Prop41ColorIndex
 90
       18
102
RTVSPost2010Prop41ColorRGB
 90
        0
102
RTVSPost2010PropOp41
 70
     1
102
RTVSPost2010Prop42
 90
       50
102
RTVSPost2010PropOp42
 70
     1
102
RTVSPost2010Prop43
 90
        3
102
RTVSPost2010PropOp43
 70
     1
102
RTVSPost2010Prop44ColorIndex
 90
        5
102
RTVSPost2010Prop44ColorRGB
 90
      255
102
RTVSPost2010PropOp44
 70
     1
102
RTVSPost2010Prop45
280
     0
102
RTVSPost2010PropOp45
 70
     1
102
RTVSPost2010Prop46
 90
       50
102
RTVSPost2010PropOp46
 70
     1
102
RTVSPost2010Prop47
 90
       50
102
RTVSPost2010PropOp47
 70
     1
102
RTVSPost2010Prop48
 90
       50
102
RTVSPost2010PropOp48
 70
     1
102
RTVSPost2010Prop49
280
     0
102
RTVSPost2010PropOp49
 70
     1
102
RTVSPost2010Prop50
 90
       50
102
RTVSPost2010PropOp50
 70
     1
102
RTVSPost2010Prop51ColorIndex
 90
      256
102
RTVSPost2010Prop51ColorRGB
 90
-16777216
102
RTVSPost2010PropOp51
 70
     0
102
RTVSPost2010Prop52
140
1.0
102
RTVSPost2010PropOp52
 70
     0
102
RTVSPost2010Prop53
 90
        2
102
RTVSPost2010PropOp53
 70
     1
102
RTVSPost2010Prop54
  1
strokes_ogs.tif
102
RTVSPost2010PropOp54
 70
     1
102
RTVSPost2010Prop55
280
     0
102
RTVSPost2010PropOp55
 70
     1
102
RTVSPost2010Prop56
140
1.0
102
RTVSPost2010PropOp56
 70
     1
102
RTVSPost2010Prop57
140
1.0
102
RTVSPost2010PropOp57
 70
     1
  0
XRECORD
  5
330
102
{ACAD_REACTORS
330
32F
102
}
330
32F
100
AcDbXrecord
280
     1
102
RTVSPropertyOp0
 70
     0
102
RTVSPropertyOp1
 70
     0
102
RTVSPropertyOp2
 70
     0
102
RTVSPropertyOp3
 70
     0
102
RTVSPropertyOp4
 70
     0
102
RTVSPropertyOp5
 70
     0
102
RTVSPropertyOp6
 70
     0
102
RTVSPropertyOp7
 70
     0
102
RTVSPropertyOp8
 70
     0
102
RTVSPropertyOp9
 70
     0
102
RTVSPropertyOp10
 70
     0
102
RTVSPropertyOp11
 70
     0
102
RTVSPropertyOp12
 70
     0
102
RTVSPropertyOp13
 70
     0
102
RTVSPropertyOp14
 70
     2
102
RTVSPropertyOp15
 70
     0
102
RTVSPropertyOp16
 70
     0
102
RTVSPropertyOp17
 70
     0
102
RTVSPropertyOp18
 70
     0
102
RTVSPropertyOp19
 70
     0
102
RTVSPropertyOp20
 70
     0
102
RTVSPropertyOp21
 70
     0
102
RTVSPropertyOp22
 70
     0
102
RTVSPropertyOp23
 70
     0
102
RTVSPropertyOp24
 70
     0
102
RTVSPropertyOp25
 70
     0
102
RTVSPropertyOp26
 70
     0
102
RTVSPropertyOp27
 70
     0
102
RTVSPropertyOp28
 70
     0
102
RTVSPropertyOp29
 70
     0
102
RTVSPropertyOp30
 70
     0
102
RTVSPropertyOp31
 70
     0
102
RTVSPropertyOp32
 70
     0
102
RTVSPropertyOp33
 70
     0
102
RTVSPropertyOp34
 70
     0
102
RTVSPropertyOp35
 70
     0
102
RTVSPropertyOp36
 70
     0
102
RTVSPropertyOp37
 70
     0
102
RTVSPropertyOp38
 70
     0
102
RTVSPropertyOp39
 70
     0
102
RTVSPropertyOp40
 70
     0
102
RTVSPropertyOp41
 70
     0
102
RTVSPropertyOp42
 70
     0
102
RTVSPropertyOp43
 70
     0
102
RTVSPropertyOp44
 70
     0
102
RTVSPropertyOp45
 70
     0
102
RTVSPropertyOp46
 70
     0
102
RTVSPropertyOp47
 70
     0
102
RTVSPropertyOp48
 70
     0
102
RTVSPropertyOp49
 70
     0
102
RTVSPropertyOp50
 70
     0
102
RTVSPropertyOp51
 70
     0
102
RTVSPropertyOp52
 70
     0
102
RTVSPropertyOp53
 70
     0
102
RTVSPropertyOp54
 70
     0
102
RTVSPropertyOp55
 70
     0
102
RTVSPropertyOp56
 70
     0
102
RTVSPropertyOp57
 70
     0
102
RTVSPost2010Prop28
280
     0
102
RTVSPost2010PropOp28
 70
     0
102
RTVSPost2010Prop29
280
     1
102
RTVSPost2010PropOp29
 70
     0
102
RTVSPost2010Prop30
280
     1
102
RTVSPost2010PropOp30
 70
     0
102
RTVSPost2010Prop31
280
     0
102
RTVSPost2010PropOp31
 70
     0
102
RTVSPost2010Prop32
280
     0
102
RTVSPost2010PropOp32
 70
     0
102
RTVSPost2010Prop33
280
     0
102
RTVSPost2010PropOp33
 70
     0
102
RTVSPost2010Prop34
280
     0
102
RTVSPost2010PropOp34
 70
     0
102
RTVSPost2010Prop35
280
     0
102
RTVSPost2010PropOp35
 70
     0
102
RTVSPost2010Prop36
280
     0
102
RTVSPost2010PropOp36
 70
     0
102
RTVSPost2010Prop37
 90
       50
102
RTVSPost2010PropOp37
 70
     0
102
RTVSPost2010Prop38
140
0.0
102
RTVSPost2010PropOp38
 70
     0
102
RTVSPost2010Prop39
140
1.0
102
RTVSPost2010PropOp39
 70
     0
102
RTVSPost2010Prop40
 90
        0
102
RTVSPost2010PropOp40
 70
     0
102
RTVSPost2010Prop41ColorIndex
 90
       18
102
RTVSPost2010Prop41ColorRGB
 90
        0
102
RTVSPost2010PropOp41
 70
     0
102
RTVSPost2010Prop42
 90
       50
102
RTVSPost2010PropOp42
 70
     0
102
RTVSPost2010Prop43
 90
        3
102
RTVSPost2010PropOp43
 70
     0
102
RTVSPost2010Prop44ColorIndex
 90
        5
102
RTVSPost2010Prop44ColorRGB
 90
      255
102
RTVSPost2010PropOp44
 70
     0
102
RTVSPost2010Prop45
280
     0
102
RTVSPost2010PropOp45
 70
     0
102
RTVSPost2010Prop46
 90
       50
102
RTVSPost2010PropOp46
 70
     0
102
RTVSPost2010Prop47
 90
       50
102
RTVSPost2010PropOp47
 70
     0
102
RTVSPost2010Prop48
 90
       50
102
RTVSPost2010PropOp48
 70
     0
102
RTVSPost2010Prop49
280
     0
102
RTVSPost2010PropOp49
 70
     0
102
RTVSPost2010Prop50
 90
       50
102
RTVSPost2010PropOp50
 70
     0
102
RTVSPost2010Prop51ColorIndex
 90
      256
102
RTVSPost2010Prop51ColorRGB
 90
-16777216
102
RTVSPost2010PropOp51
 70
     0
102
RTVSPost2010Prop52
140
1.0
102
RTVSPost2010PropOp52
 70
     0
102
RTVSPost2010Prop53
 90
        2
102
RTVSPost2010PropOp53
 70
     0
102
RTVSPost2010Prop54
  1
strokes_ogs.tif
102
RTVSPost2010PropOp54
 70
     0
102
RTVSPost2010Prop55
280
     0
102
RTVSPost2010PropOp55
 70
     0
102
RTVSPost2010Prop56
140
1.0
102
RTVSPost2010PropOp56
 70
     0
102
RTVSPost2010Prop57
140
1.0
102
RTVSPost2010PropOp57
 70
     0
  0
XRECORD
  5
31E
102
{ACAD_REACTORS
330
31D
102
}
330
31D
100
AcDbXrecord
280
     1
102
RTVSPropertyOp0
 70
     1
102
RTVSPropertyOp1
 70
     1
102
RTVSPropertyOp2
 70
     1
102
RTVSPropertyOp3
 70
     1
102
RTVSPropertyOp4
 70
     1
102
RTVSPropertyOp5
 70
     1
102
RTVSPropertyOp6
 70
     1
102
RTVSPropertyOp7
 70
     1
102
RTVSPropertyOp8
 70
     1
102
RTVSPropertyOp9
 70
     1
102
RTVSPropertyOp10
 70
     1
102
RTVSPropertyOp11
 70
     1
102
RTVSPropertyOp12
 70
     1
102
RTVSPropertyOp13
 70
     1
102
RTVSPropertyOp14
 70
     1
102
RTVSPropertyOp15
 70
     1
102
RTVSPropertyOp16
 70
     1
102
RTVSPropertyOp17
 70
     1
102
RTVSPropertyOp18
 70
     1
102
RTVSPropertyOp19
 70
     1
102
RTVSPropertyOp20
 70
     1
102
RTVSPropertyOp21
 70
     1
102
RTVSPropertyOp22
 70
     1
102
RTVSPropertyOp23
 70
     1
102
RTVSPropertyOp24
 70
     1
102
RTVSPropertyOp25
 70
     1
102
RTVSPropertyOp26
 70
     1
102
RTVSPropertyOp27
 70
     1
102
RTVSPropertyOp28
 70
     1
102
RTVSPropertyOp29
 70
     1
102
RTVSPropertyOp30
 70
     1
102
RTVSPropertyOp31
 70
     1
102
RTVSPropertyOp32
 70
     1
102
RTVSPropertyOp33
 70
     1
102
RTVSPropertyOp34
 70
     1
102
RTVSPropertyOp35
 70
     1
102
RTVSPropertyOp36
 70
     1
102
RTVSPropertyOp37
 70
     1
102
RTVSPropertyOp38
 70
     1
102
RTVSPropertyOp39
 70
     1
102
RTVSPropertyOp40
 70
     1
102
RTVSPropertyOp41
 70
     1
102
RTVSPropertyOp42
 70
     1
102
RTVSPropertyOp43
 70
     1
102
RTVSPropertyOp44
 70
     1
102
RTVSPropertyOp45
 70
     1
102
RTVSPropertyOp46
 70
     1
102
RTVSPropertyOp47
 70
     1
102
RTVSPropertyOp48
 70
     1
102
RTVSPropertyOp49
 70
     1
102
RTVSPropertyOp50
 70
     1
102
RTVSPropertyOp51
 70
     0
102
RTVSPropertyOp52
 70
     0
102
RTVSPropertyOp53
 70
     1
102
RTVSPropertyOp54
 70
     1
102
RTVSPropertyOp55
 70
     1
102
RTVSPropertyOp56
 70
     1
102
RTVSPropertyOp57
 70
     1
102
RTVSPost2010Prop28
280
     0
102
RTVSPost2010PropOp28
 70
     1
102
RTVSPost2010Prop29
280
     1
102
RTVSPost2010PropOp29
 70
     1
102
RTVSPost2010Prop30
280
     1
102
RTVSPost2010PropOp30
 70
     1
102
RTVSPost2010Prop31
280
     0
102
RTVSPost2010PropOp31
 70
     1
102
RTVSPost2010Prop32
280
     0
102
RTVSPost2010PropOp32
 70
     1
102
RTVSPost2010Prop33
280
     0
102
RTVSPost2010PropOp33
 70
     1
102
RTVSPost2010Prop34
280
     0
102
RTVSPost2010PropOp34
 70
     1
102
RTVSPost2010Prop35
280
     0
102
RTVSPost2010PropOp35
 70
     1
102
RTVSPost2010Prop36
280
     0
102
RTVSPost2010PropOp36
 70
     1
102
RTVSPost2010Prop37
 90
       50
102
RTVSPost2010PropOp37
 70
     1
102
RTVSPost2010Prop38
140
0.0
102
RTVSPost2010PropOp38
 70
     1
102
RTVSPost2010Prop39
140
1.0
102
RTVSPost2010PropOp39
 70
     1
102
RTVSPost2010Prop40
 90
        0
102
RTVSPost2010PropOp40
 70
     1
102
RTVSPost2010Prop41ColorIndex
 90
       18
102
RTVSPost2010Prop41ColorRGB
 90
        0
102
RTVSPost2010PropOp41
 70
     1
102
RTVSPost2010Prop42
 90
       50
102
RTVSPost2010PropOp42
 70
     1
102
RTVSPost2010Prop43
 90
        3
102
RTVSPost2010PropOp43
 70
     1
102
RTVSPost2010Prop44ColorIndex
 90
        5
102
RTVSPost2010Prop44ColorRGB
 90
      255
102
RTVSPost2010PropOp44
 70
     1
102
RTVSPost2010Prop45
280
     0
102
RTVSPost2010PropOp45
 70
     1
102
RTVSPost2010Prop46
 90
       50
102
RTVSPost2010PropOp46
 70
     1
102
RTVSPost2010Prop47
 90
       50
102
RTVSPost2010PropOp47
 70
     1
102
RTVSPost2010Prop48
 90
       50
102
RTVSPost2010PropOp48
 70
     1
102
RTVSPost2010Prop49
280
     0
102
RTVSPost2010PropOp49
 70
     1
102
RTVSPost2010Prop50
 90
       50
102
RTVSPost2010PropOp50
 70
     1
102
RTVSPost2010Prop51ColorIndex
 90
      256
102
RTVSPost2010Prop51ColorRGB
 90
-16777216
102
RTVSPost2010PropOp51
 70
     0
102
RTVSPost2010Prop52
140
1.0
102
RTVSPost2010PropOp52
 70
     0
102
RTVSPost2010Prop53
 90
        2
102
RTVSPost2010PropOp53
 70
     1
102
RTVSPost2010Prop54
  1
strokes_ogs.tif
102
RTVSPost2010PropOp54
 70
     1
102
RTVSPost2010Prop55
280
     0
102
RTVSPost2010PropOp55
 70
     1
102
RTVSPost2010Prop56
140
1.0
102
RTVSPost2010PropOp56
 70
     1
102
RTVSPost2010Prop57
140
1.0
102
RTVSPost2010PropOp57
 70
     1
  0
XRECORD
  5
33C
102
{ACAD_REACTORS
330
33B
102
}
330
33B
100
AcDbXrecord
280
     1
102
RTVSPropertyOp0
 70
     1
102
RTVSPropertyOp1
 70
     1
102
RTVSPropertyOp2
 70
     1
102
RTVSPropertyOp3
 70
     1
102
RTVSPropertyOp4
 70
     1
102
RTVSPropertyOp5
 70
     1
102
RTVSPropertyOp6
 70
     1
102
RTVSPropertyOp7
 70
     1
102
RTVSPropertyOp8
 70
     1
102
RTVSPropertyOp9
 70
     1
102
RTVSPropertyOp10
 70
     1
102
RTVSPropertyOp11
 70
     1
102
RTVSPropertyOp12
 70
     1
102
RTVSPropertyOp13
 70
     1
102
RTVSPropertyOp14
 70
     1
102
RTVSPropertyOp15
 70
     1
102
RTVSPropertyOp16
 70
     1
102
RTVSPropertyOp17
 70
     1
102
RTVSPropertyOp18
 70
     1
102
RTVSPropertyOp19
 70
     1
102
RTVSPropertyOp20
 70
     1
102
RTVSPropertyOp21
 70
     1
102
RTVSPropertyOp22
 70
     1
102
RTVSPropertyOp23
 70
     1
102
RTVSPropertyOp24
 70
     1
102
RTVSPropertyOp25
 70
     1
102
RTVSPropertyOp26
 70
     1
102
RTVSPropertyOp27
 70
     1
102
RTVSPropertyOp28
 70
     1
102
RTVSPropertyOp29
 70
     1
102
RTVSPropertyOp30
 70
     1
102
RTVSPropertyOp31
 70
     1
102
RTVSPropertyOp32
 70
     1
102
RTVSPropertyOp33
 70
     1
102
RTVSPropertyOp34
 70
     1
102
RTVSPropertyOp35
 70
     1
102
RTVSPropertyOp36
 70
     1
102
RTVSPropertyOp37
 70
     1
102
RTVSPropertyOp38
 70
     1
102
RTVSPropertyOp39
 70
     1
102
RTVSPropertyOp40
 70
     1
102
RTVSPropertyOp41
 70
     1
102
RTVSPropertyOp42
 70
     1
102
RTVSPropertyOp43
 70
     1
102
RTVSPropertyOp44
 70
     1
102
RTVSPropertyOp45
 70
     1
102
RTVSPropertyOp46
 70
     1
102
RTVSPropertyOp47
 70
     1
102
RTVSPropertyOp48
 70
     1
102
RTVSPropertyOp49
 70
     1
102
RTVSPropertyOp50
 70
     1
102
RTVSPropertyOp51
 70
     0
102
RTVSPropertyOp52
 70
     0
102
RTVSPropertyOp53
 70
     1
102
RTVSPropertyOp54
 70
     1
102
RTVSPropertyOp55
 70
     1
102
RTVSPropertyOp56
 70
     1
102
RTVSPropertyOp57
 70
     1
102
RTVSPost2010Prop28
280
     0
102
RTVSPost2010PropOp28
 70
     1
102
RTVSPost2010Prop29
280
     1
102
RTVSPost2010PropOp29
 70
     1
102
RTVSPost2010Prop30
280
     1
102
RTVSPost2010PropOp30
 70
     1
102
RTVSPost2010Prop31
280
     0
102
RTVSPost2010PropOp31
 70
     1
102
RTVSPost2010Prop32
280
     0
102
RTVSPost2010PropOp32
 70
     1
102
RTVSPost2010Prop33
280
     0
102
RTVSPost2010PropOp33
 70
     1
102
RTVSPost2010Prop34
280
     0
102
RTVSPost2010PropOp34
 70
     1
102
RTVSPost2010Prop35
280
     0
102
RTVSPost2010PropOp35
 70
     1
102
RTVSPost2010Prop36
280
     0
102
RTVSPost2010PropOp36
 70
     1
102
RTVSPost2010Prop37
 90
       50
102
RTVSPost2010PropOp37
 70
     1
102
RTVSPost2010Prop38
140
0.0
102
RTVSPost2010PropOp38
 70
     1
102
RTVSPost2010Prop39
140
1.0
102
RTVSPost2010PropOp39
 70
     1
102
RTVSPost2010Prop40
 90
        0
102
RTVSPost2010PropOp40
 70
     1
102
RTVSPost2010Prop41ColorIndex
 90
       18
102
RTVSPost2010Prop41ColorRGB
 90
        0
102
RTVSPost2010PropOp41
 70
     1
102
RTVSPost2010Prop42
 90
       50
102
RTVSPost2010PropOp42
 70
     1
102
RTVSPost2010Prop43
 90
        3
102
RTVSPost2010PropOp43
 70
     1
102
RTVSPost2010Prop44ColorIndex
 90
        5
102
RTVSPost2010Prop44ColorRGB
 90
      255
102
RTVSPost2010PropOp44
 70
     1
102
RTVSPost2010Prop45
280
     0
102
RTVSPost2010PropOp45
 70
     1
102
RTVSPost2010Prop46
 90
       50
102
RTVSPost2010PropOp46
 70
     1
102
RTVSPost2010Prop47
 90
       50
102
RTVSPost2010PropOp47
 70
     1
102
RTVSPost2010Prop48
 90
       50
102
RTVSPost2010PropOp48
 70
     1
102
RTVSPost2010Prop49
280
     0
102
RTVSPost2010PropOp49
 70
     1
102
RTVSPost2010Prop50
 90
       50
102
RTVSPost2010PropOp50
 70
     1
102
RTVSPost2010Prop51ColorIndex
 90
      256
102
RTVSPost2010Prop51ColorRGB
 90
-16777216
102
RTVSPost2010PropOp51
 70
     0
102
RTVSPost2010Prop52
140
1.0
102
RTVSPost2010PropOp52
 70
     0
102
RTVSPost2010Prop53
 90
        2
102
RTVSPost2010PropOp53
 70
     1
102
RTVSPost2010Prop54
  1
strokes_ogs.tif
102
RTVSPost2010PropOp54
 70
     1
102
RTVSPost2010Prop55
280
     0
102
RTVSPost2010PropOp55
 70
     1
102
RTVSPost2010Prop56
140
1.0
102
RTVSPost2010PropOp56
 70
     1
102
RTVSPost2010Prop57
140
1.0
102
RTVSPost2010PropOp57
 70
     1
  0
XRECORD
  5
33A
102
{ACAD_REACTORS
330
339
102
}
330
339
100
AcDbXrecord
280
     1
102
RTVSPropertyOp0
 70
     1
102
RTVSPropertyOp1
 70
     1
102
RTVSPropertyOp2
 70
     1
102
RTVSPropertyOp3
 70
     1
102
RTVSPropertyOp4
 70
     1
102
RTVSPropertyOp5
 70
     1
102
RTVSPropertyOp6
 70
     1
102
RTVSPropertyOp7
 70
     1
102
RTVSPropertyOp8
 70
     1
102
RTVSPropertyOp9
 70
     1
102
RTVSPropertyOp10
 70
     1
102
RTVSPropertyOp11
 70
     1
102
RTVSPropertyOp12
 70
     1
102
RTVSPropertyOp13
 70
     1
102
RTVSPropertyOp14
 70
     1
102
RTVSPropertyOp15
 70
     1
102
RTVSPropertyOp16
 70
     1
102
RTVSPropertyOp17
 70
     1
102
RTVSPropertyOp18
 70
     1
102
RTVSPropertyOp19
 70
     1
102
RTVSPropertyOp20
 70
     1
102
RTVSPropertyOp21
 70
     1
102
RTVSPropertyOp22
 70
     1
102
RTVSPropertyOp23
 70
     1
102
RTVSPropertyOp24
 70
     1
102
RTVSPropertyOp25
 70
     1
102
RTVSPropertyOp26
 70
     1
102
RTVSPropertyOp27
 70
     1
102
RTVSPropertyOp28
 70
     1
102
RTVSPropertyOp29
 70
     1
102
RTVSPropertyOp30
 70
     1
102
RTVSPropertyOp31
 70
     1
102
RTVSPropertyOp32
 70
     1
102
RTVSPropertyOp33
 70
     1
102
RTVSPropertyOp34
 70
     1
102
RTVSPropertyOp35
 70
     1
102
RTVSPropertyOp36
 70
     1
102
RTVSPropertyOp37
 70
     1
102
RTVSPropertyOp38
 70
     1
102
RTVSPropertyOp39
 70
     1
102
RTVSPropertyOp40
 70
     1
102
RTVSPropertyOp41
 70
     1
102
RTVSPropertyOp42
 70
     1
102
RTVSPropertyOp43
 70
     1
102
RTVSPropertyOp44
 70
     1
102
RTVSPropertyOp45
 70
     1
102
RTVSPropertyOp46
 70
     1
102
RTVSPropertyOp47
 70
     1
102
RTVSPropertyOp48
 70
     1
102
RTVSPropertyOp49
 70
     1
102
RTVSPropertyOp50
 70
     1
102
RTVSPropertyOp51
 70
     0
102
RTVSPropertyOp52
 70
     0
102
RTVSPropertyOp53
 70
     1
102
RTVSPropertyOp54
 70
     1
102
RTVSPropertyOp55
 70
     1
102
RTVSPropertyOp56
 70
     1
102
RTVSPropertyOp57
 70
     1
102
RTVSPost2010Prop28
280
     0
102
RTVSPost2010PropOp28
 70
     1
102
RTVSPost2010Prop29
280
     1
102
RTVSPost2010PropOp29
 70
     1
102
RTVSPost2010Prop30
280
     1
102
RTVSPost2010PropOp30
 70
     1
102
RTVSPost2010Prop31
280
     0
102
RTVSPost2010PropOp31
 70
     1
102
RTVSPost2010Prop32
280
     0
102
RTVSPost2010PropOp32
 70
     1
102
RTVSPost2010Prop33
280
     0
102
RTVSPost2010PropOp33
 70
     1
102
RTVSPost2010Prop34
280
     0
102
RTVSPost2010PropOp34
 70
     1
102
RTVSPost2010Prop35
280
     0
102
RTVSPost2010PropOp35
 70
     1
102
RTVSPost2010Prop36
280
     0
102
RTVSPost2010PropOp36
 70
     1
102
RTVSPost2010Prop37
 90
       50
102
RTVSPost2010PropOp37
 70
     1
102
RTVSPost2010Prop38
140
0.0
102
RTVSPost2010PropOp38
 70
     1
102
RTVSPost2010Prop39
140
1.0
102
RTVSPost2010PropOp39
 70
     1
102
RTVSPost2010Prop40
 90
        0
102
RTVSPost2010PropOp40
 70
     1
102
RTVSPost2010Prop41ColorIndex
 90
       18
102
RTVSPost2010Prop41ColorRGB
 90
        0
102
RTVSPost2010PropOp41
 70
     1
102
RTVSPost2010Prop42
 90
       50
102
RTVSPost2010PropOp42
 70
     1
102
RTVSPost2010Prop43
 90
        3
102
RTVSPost2010PropOp43
 70
     1
102
RTVSPost2010Prop44ColorIndex
 90
        5
102
RTVSPost2010Prop44ColorRGB
 90
      255
102
RTVSPost2010PropOp44
 70
     1
102
RTVSPost2010Prop45
280
     0
102
RTVSPost2010PropOp45
 70
     1
102
RTVSPost2010Prop46
 90
       50
102
RTVSPost2010PropOp46
 70
     1
102
RTVSPost2010Prop47
 90
       50
102
RTVSPost2010PropOp47
 70
     1
102
RTVSPost2010Prop48
 90
       50
102
RTVSPost2010PropOp48
 70
     1
102
RTVSPost2010Prop49
280
     0
102
RTVSPost2010PropOp49
 70
     1
102
RTVSPost2010Prop50
 90
       50
102
RTVSPost2010PropOp50
 70
     1
102
RTVSPost2010Prop51ColorIndex
 90
      256
102
RTVSPost2010Prop51ColorRGB
 90
-16777216
102
RTVSPost2010PropOp51
 70
     0
102
RTVSPost2010Prop52
140
1.0
102
RTVSPost2010PropOp52
 70
     0
102
RTVSPost2010Prop53
 90
        2
102
RTVSPost2010PropOp53
 70
     1
102
RTVSPost2010Prop54
  1
strokes_ogs.tif
102
RTVSPost2010PropOp54
 70
     1
102
RTVSPost2010Prop55
280
     0
102
RTVSPost2010PropOp55
 70
     1
102
RTVSPost2010Prop56
140
1.0
102
RTVSPost2010PropOp56
 70
     1
102
RTVSPost2010Prop57
140
1.0
102
RTVSPost2010PropOp57
 70
     1
  0
XRECORD
  5
334
102
{ACAD_REACTORS
330
333
102
}
330
333
100
AcDbXrecord
280
     1
102
RTVSPropertyOp0
 70
     1
102
RTVSPropertyOp1
 70
     1
102
RTVSPropertyOp2
 70
     1
102
RTVSPropertyOp3
 70
     1
102
RTVSPropertyOp4
 70
     1
102
RTVSPropertyOp5
 70
     1
102
RTVSPropertyOp6
 70
     1
102
RTVSPropertyOp7
 70
     1
102
RTVSPropertyOp8
 70
     1
102
RTVSPropertyOp9
 70
     1
102
RTVSPropertyOp10
 70
     1
102
RTVSPropertyOp11
 70
     1
102
RTVSPropertyOp12
 70
     1
102
RTVSPropertyOp13
 70
     1
102
RTVSPropertyOp14
 70
     1
102
RTVSPropertyOp15
 70
     1
102
RTVSPropertyOp16
 70
     1
102
RTVSPropertyOp17
 70
     1
102
RTVSPropertyOp18
 70
     1
102
RTVSPropertyOp19
 70
     1
102
RTVSPropertyOp20
 70
     1
102
RTVSPropertyOp21
 70
     1
102
RTVSPropertyOp22
 70
     1
102
RTVSPropertyOp23
 70
     1
102
RTVSPropertyOp24
 70
     1
102
RTVSPropertyOp25
 70
     1
102
RTVSPropertyOp26
 70
     1
102
RTVSPropertyOp27
 70
     1
102
RTVSPropertyOp28
 70
     1
102
RTVSPropertyOp29
 70
     1
102
RTVSPropertyOp30
 70
     1
102
RTVSPropertyOp31
 70
     1
102
RTVSPropertyOp32
 70
     1
102
RTVSPropertyOp33
 70
     1
102
RTVSPropertyOp34
 70
     1
102
RTVSPropertyOp35
 70
     1
102
RTVSPropertyOp36
 70
     1
102
RTVSPropertyOp37
 70
     1
102
RTVSPropertyOp38
 70
     1
102
RTVSPropertyOp39
 70
     1
102
RTVSPropertyOp40
 70
     1
102
RTVSPropertyOp41
 70
     1
102
RTVSPropertyOp42
 70
     1
102
RTVSPropertyOp43
 70
     1
102
RTVSPropertyOp44
 70
     1
102
RTVSPropertyOp45
 70
     1
102
RTVSPropertyOp46
 70
     1
102
RTVSPropertyOp47
 70
     1
102
RTVSPropertyOp48
 70
     1
102
RTVSPropertyOp49
 70
     1
102
RTVSPropertyOp50
 70
     1
102
RTVSPropertyOp51
 70
     0
102
RTVSPropertyOp52
 70
     0
102
RTVSPropertyOp53
 70
     1
102
RTVSPropertyOp54
 70
     1
102
RTVSPropertyOp55
 70
     1
102
RTVSPropertyOp56
 70
     1
102
RTVSPropertyOp57
 70
     1
102
RTVSPost2010Prop28
280
     0
102
RTVSPost2010PropOp28
 70
     1
102
RTVSPost2010Prop29
280
     1
102
RTVSPost2010PropOp29
 70
     1
102
RTVSPost2010Prop30
280
     1
102
RTVSPost2010PropOp30
 70
     1
102
RTVSPost2010Prop31
280
     0
102
RTVSPost2010PropOp31
 70
     1
102
RTVSPost2010Prop32
280
     0
102
RTVSPost2010PropOp32
 70
     1
102
RTVSPost2010Prop33
280
     0
102
RTVSPost2010PropOp33
 70
     1
102
RTVSPost2010Prop34
280
     0
102
RTVSPost2010PropOp34
 70
     1
102
RTVSPost2010Prop35
280
     0
102
RTVSPost2010PropOp35
 70
     1
102
RTVSPost2010Prop36
280
     0
102
RTVSPost2010PropOp36
 70
     1
102
RTVSPost2010Prop37
 90
       50
102
RTVSPost2010PropOp37
 70
     1
102
RTVSPost2010Prop38
140
0.0
102
RTVSPost2010PropOp38
 70
     1
102
RTVSPost2010Prop39
140
1.0
102
RTVSPost2010PropOp39
 70
     1
102
RTVSPost2010Prop40
 90
        0
102
RTVSPost2010PropOp40
 70
     1
102
RTVSPost2010Prop41ColorIndex
 90
       18
102
RTVSPost2010Prop41ColorRGB
 90
        0
102
RTVSPost2010PropOp41
 70
     1
102
RTVSPost2010Prop42
 90
       50
102
RTVSPost2010PropOp42
 70
     1
102
RTVSPost2010Prop43
 90
        3
102
RTVSPost2010PropOp43
 70
     1
102
RTVSPost2010Prop44ColorIndex
 90
        5
102
RTVSPost2010Prop44ColorRGB
 90
      255
102
RTVSPost2010PropOp44
 70
     1
102
RTVSPost2010Prop45
280
     0
102
RTVSPost2010PropOp45
 70
     1
102
RTVSPost2010Prop46
 90
       50
102
RTVSPost2010PropOp46
 70
     1
102
RTVSPost2010Prop47
 90
       50
102
RTVSPost2010PropOp47
 70
     1
102
RTVSPost2010Prop48
 90
       50
102
RTVSPost2010PropOp48
 70
     1
102
RTVSPost2010Prop49
280
     0
102
RTVSPost2010PropOp49
 70
     1
102
RTVSPost2010Prop50
 90
       50
102
RTVSPost2010PropOp50
 70
     1
102
RTVSPost2010Prop51ColorIndex
 90
      256
102
RTVSPost2010Prop51ColorRGB
 90
-16777216
102
RTVSPost2010PropOp51
 70
     0
102
RTVSPost2010Prop52
140
1.0
102
RTVSPost2010PropOp52
 70
     0
102
RTVSPost2010Prop53
 90
        2
102
RTVSPost2010PropOp53
 70
     1
102
RTVSPost2010Prop54
  1
strokes_ogs.tif
102
RTVSPost2010PropOp54
 70
     1
102
RTVSPost2010Prop55
280
     0
102
RTVSPost2010PropOp55
 70
     1
102
RTVSPost2010Prop56
140
1.0
102
RTVSPost2010PropOp56
 70
     1
102
RTVSPost2010Prop57
140
1.0
102
RTVSPost2010PropOp57
 70
     1
  0
XRECORD
  5
336
102
{ACAD_REACTORS
330
335
102
}
330
335
100
AcDbXrecord
280
     1
102
RTVSPropertyOp0
 70
     1
102
RTVSPropertyOp1
 70
     1
102
RTVSPropertyOp2
 70
     1
102
RTVSPropertyOp3
 70
     1
102
RTVSPropertyOp4
 70
     1
102
RTVSPropertyOp5
 70
     1
102
RTVSPropertyOp6
 70
     1
102
RTVSPropertyOp7
 70
     1
102
RTVSPropertyOp8
 70
     1
102
RTVSPropertyOp9
 70
     1
102
RTVSPropertyOp10
 70
     1
102
RTVSPropertyOp11
 70
     1
102
RTVSPropertyOp12
 70
     1
102
RTVSPropertyOp13
 70
     1
102
RTVSPropertyOp14
 70
     1
102
RTVSPropertyOp15
 70
     1
102
RTVSPropertyOp16
 70
     1
102
RTVSPropertyOp17
 70
     1
102
RTVSPropertyOp18
 70
     1
102
RTVSPropertyOp19
 70
     1
102
RTVSPropertyOp20
 70
     1
102
RTVSPropertyOp21
 70
     1
102
RTVSPropertyOp22
 70
     1
102
RTVSPropertyOp23
 70
     1
102
RTVSPropertyOp24
 70
     1
102
RTVSPropertyOp25
 70
     1
102
RTVSPropertyOp26
 70
     1
102
RTVSPropertyOp27
 70
     1
102
RTVSPropertyOp28
 70
     1
102
RTVSPropertyOp29
 70
     1
102
RTVSPropertyOp30
 70
     1
102
RTVSPropertyOp31
 70
     1
102
RTVSPropertyOp32
 70
     1
102
RTVSPropertyOp33
 70
     1
102
RTVSPropertyOp34
 70
     1
102
RTVSPropertyOp35
 70
     1
102
RTVSPropertyOp36
 70
     1
102
RTVSPropertyOp37
 70
     1
102
RTVSPropertyOp38
 70
     1
102
RTVSPropertyOp39
 70
     1
102
RTVSPropertyOp40
 70
     1
102
RTVSPropertyOp41
 70
     1
102
RTVSPropertyOp42
 70
     1
102
RTVSPropertyOp43
 70
     1
102
RTVSPropertyOp44
 70
     1
102
RTVSPropertyOp45
 70
     1
102
RTVSPropertyOp46
 70
     1
102
RTVSPropertyOp47
 70
     1
102
RTVSPropertyOp48
 70
     1
102
RTVSPropertyOp49
 70
     1
102
RTVSPropertyOp50
 70
     1
102
RTVSPropertyOp51
 70
     0
102
RTVSPropertyOp52
 70
     0
102
RTVSPropertyOp53
 70
     1
102
RTVSPropertyOp54
 70
     1
102
RTVSPropertyOp55
 70
     1
102
RTVSPropertyOp56
 70
     1
102
RTVSPropertyOp57
 70
     1
102
RTVSPost2010Prop28
280
     0
102
RTVSPost2010PropOp28
 70
     1
102
RTVSPost2010Prop29
280
     1
102
RTVSPost2010PropOp29
 70
     1
102
RTVSPost2010Prop30
280
     1
102
RTVSPost2010PropOp30
 70
     1
102
RTVSPost2010Prop31
280
     0
102
RTVSPost2010PropOp31
 70
     1
102
RTVSPost2010Prop32
280
     0
102
RTVSPost2010PropOp32
 70
     1
102
RTVSPost2010Prop33
280
     0
102
RTVSPost2010PropOp33
 70
     1
102
RTVSPost2010Prop34
280
     0
102
RTVSPost2010PropOp34
 70
     1
102
RTVSPost2010Prop35
280
     0
102
RTVSPost2010PropOp35
 70
     1
102
RTVSPost2010Prop36
280
     0
102
RTVSPost2010PropOp36
 70
     1
102
RTVSPost2010Prop37
 90
       50
102
RTVSPost2010PropOp37
 70
     1
102
RTVSPost2010Prop38
140
0.0
102
RTVSPost2010PropOp38
 70
     1
102
RTVSPost2010Prop39
140
1.0
102
RTVSPost2010PropOp39
 70
     1
102
RTVSPost2010Prop40
 90
        0
102
RTVSPost2010PropOp40
 70
     1
102
RTVSPost2010Prop41ColorIndex
 90
       18
102
RTVSPost2010Prop41ColorRGB
 90
        0
102
RTVSPost2010PropOp41
 70
     1
102
RTVSPost2010Prop42
 90
       50
102
RTVSPost2010PropOp42
 70
     1
102
RTVSPost2010Prop43
 90
        3
102
RTVSPost2010PropOp43
 70
     1
102
RTVSPost2010Prop44ColorIndex
 90
        5
102
RTVSPost2010Prop44ColorRGB
 90
      255
102
RTVSPost2010PropOp44
 70
     1
102
RTVSPost2010Prop45
280
     0
102
RTVSPost2010PropOp45
 70
     1
102
RTVSPost2010Prop46
 90
       50
102
RTVSPost2010PropOp46
 70
     1
102
RTVSPost2010Prop47
 90
       50
102
RTVSPost2010PropOp47
 70
     1
102
RTVSPost2010Prop48
 90
       50
102
RTVSPost2010PropOp48
 70
     1
102
RTVSPost2010Prop49
280
     0
102
RTVSPost2010PropOp49
 70
     1
102
RTVSPost2010Prop50
 90
       50
102
RTVSPost2010PropOp50
 70
     1
102
RTVSPost2010Prop51ColorIndex
 90
      256
102
RTVSPost2010Prop51ColorRGB
 90
-16777216
102
RTVSPost2010PropOp51
 70
     0
102
RTVSPost2010Prop52
140
1.0
102
RTVSPost2010PropOp52
 70
     0
102
RTVSPost2010Prop53
 90
        2
102
RTVSPost2010PropOp53
 70
     1
102
RTVSPost2010Prop54
  1
strokes_ogs.tif
102
RTVSPost2010PropOp54
 70
     1
102
RTVSPost2010Prop55
280
     0
102
RTVSPost2010PropOp55
 70
     1
102
RTVSPost2010Prop56
140
1.0
102
RTVSPost2010PropOp56
 70
     1
102
RTVSPost2010Prop57
140
1.0
102
RTVSPost2010PropOp57
 70
     1
  0
XRECORD
  5
326
102
{ACAD_REACTORS
330
325
102
}
330
325
100
AcDbXrecord
280
     1
102
RTVSPropertyOp0
 70
     1
102
RTVSPropertyOp1
 70
     1
102
RTVSPropertyOp2
 70
     1
102
RTVSPropertyOp3
 70
     1
102
RTVSPropertyOp4
 70
     1
102
RTVSPropertyOp5
 70
     1
102
RTVSPropertyOp6
 70
     1
102
RTVSPropertyOp7
 70
     1
102
RTVSPropertyOp8
 70
     1
102
RTVSPropertyOp9
 70
     1
102
RTVSPropertyOp10
 70
     1
102
RTVSPropertyOp11
 70
     1
102
RTVSPropertyOp12
 70
     1
102
RTVSPropertyOp13
 70
     1
102
RTVSPropertyOp14
 70
     1
102
RTVSPropertyOp15
 70
     1
102
RTVSPropertyOp16
 70
     1
102
RTVSPropertyOp17
 70
     1
102
RTVSPropertyOp18
 70
     1
102
RTVSPropertyOp19
 70
     1
102
RTVSPropertyOp20
 70
     1
102
RTVSPropertyOp21
 70
     1
102
RTVSPropertyOp22
 70
     1
102
RTVSPropertyOp23
 70
     1
102
RTVSPropertyOp24
 70
     1
102
RTVSPropertyOp25
 70
     1
102
RTVSPropertyOp26
 70
     1
102
RTVSPropertyOp27
 70
     1
102
RTVSPropertyOp28
 70
     1
102
RTVSPropertyOp29
 70
     1
102
RTVSPropertyOp30
 70
     1
102
RTVSPropertyOp31
 70
     1
102
RTVSPropertyOp32
 70
     1
102
RTVSPropertyOp33
 70
     1
102
RTVSPropertyOp34
 70
     1
102
RTVSPropertyOp35
 70
     1
102
RTVSPropertyOp36
 70
     1
102
RTVSPropertyOp37
 70
     1
102
RTVSPropertyOp38
 70
     1
102
RTVSPropertyOp39
 70
     1
102
RTVSPropertyOp40
 70
     1
102
RTVSPropertyOp41
 70
     1
102
RTVSPropertyOp42
 70
     1
102
RTVSPropertyOp43
 70
     1
102
RTVSPropertyOp44
 70
     1
102
RTVSPropertyOp45
 70
     1
102
RTVSPropertyOp46
 70
     1
102
RTVSPropertyOp47
 70
     1
102
RTVSPropertyOp48
 70
     1
102
RTVSPropertyOp49
 70
     1
102
RTVSPropertyOp50
 70
     1
102
RTVSPropertyOp51
 70
     0
102
RTVSPropertyOp52
 70
     0
102
RTVSPropertyOp53
 70
     1
102
RTVSPropertyOp54
 70
     1
102
RTVSPropertyOp55
 70
     1
102
RTVSPropertyOp56
 70
     1
102
RTVSPropertyOp57
 70
     1
102
RTVSPost2010Prop28
280
     0
102
RTVSPost2010PropOp28
 70
     1
102
RTVSPost2010Prop29
280
     1
102
RTVSPost2010PropOp29
 70
     1
102
RTVSPost2010Prop30
280
     1
102
RTVSPost2010PropOp30
 70
     1
102
RTVSPost2010Prop31
280
     0
102
RTVSPost2010PropOp31
 70
     1
102
RTVSPost2010Prop32
280
     0
102
RTVSPost2010PropOp32
 70
     1
102
RTVSPost2010Prop33
280
     0
102
RTVSPost2010PropOp33
 70
     1
102
RTVSPost2010Prop34
280
     0
102
RTVSPost2010PropOp34
 70
     1
102
RTVSPost2010Prop35
280
     0
102
RTVSPost2010PropOp35
 70
     1
102
RTVSPost2010Prop36
280
     0
102
RTVSPost2010PropOp36
 70
     1
102
RTVSPost2010Prop37
 90
       50
102
RTVSPost2010PropOp37
 70
     1
102
RTVSPost2010Prop38
140
0.0
102
RTVSPost2010PropOp38
 70
     1
102
RTVSPost2010Prop39
140
1.0
102
RTVSPost2010PropOp39
 70
     1
102
RTVSPost2010Prop40
 90
        0
102
RTVSPost2010PropOp40
 70
     1
102
RTVSPost2010Prop41ColorIndex
 90
       18
102
RTVSPost2010Prop41ColorRGB
 90
        0
102
RTVSPost2010PropOp41
 70
     1
102
RTVSPost2010Prop42
 90
       50
102
RTVSPost2010PropOp42
 70
     1
102
RTVSPost2010Prop43
 90
        3
102
RTVSPost2010PropOp43
 70
     1
102
RTVSPost2010Prop44ColorIndex
 90
        5
102
RTVSPost2010Prop44ColorRGB
 90
      255
102
RTVSPost2010PropOp44
 70
     1
102
RTVSPost2010Prop45
280
     0
102
RTVSPost2010PropOp45
 70
     1
102
RTVSPost2010Prop46
 90
       50
102
RTVSPost2010PropOp46
 70
     1
102
RTVSPost2010Prop47
 90
       50
102
RTVSPost2010PropOp47
 70
     1
102
RTVSPost2010Prop48
 90
       50
102
RTVSPost2010PropOp48
 70
     1
102
RTVSPost2010Prop49
280
     0
102
RTVSPost2010PropOp49
 70
     1
102
RTVSPost2010Prop50
 90
       50
102
RTVSPost2010PropOp50
 70
     1
102
RTVSPost2010Prop51ColorIndex
 90
      256
102
RTVSPost2010Prop51ColorRGB
 90
-16777216
102
RTVSPost2010PropOp51
 70
     0
102
RTVSPost2010Prop52
140
1.0
102
RTVSPost2010PropOp52
 70
     0
102
RTVSPost2010Prop53
 90
        2
102
RTVSPost2010PropOp53
 70
     1
102
RTVSPost2010Prop54
  1
strokes_ogs.tif
102
RTVSPost2010PropOp54
 70
     1
102
RTVSPost2010Prop55
280
     0
102
RTVSPost2010PropOp55
 70
     1
102
RTVSPost2010Prop56
140
1.0
102
RTVSPost2010PropOp56
 70
     1
102
RTVSPost2010Prop57
140
1.0
102
RTVSPost2010PropOp57
 70
     1
  0
XRECORD
  5
318
102
{ACAD_REACTORS
330
317
102
}
330
317
100
AcDbXrecord
280
     1
102
RTVSPropertyOp0
 70
     1
102
RTVSPropertyOp1
 70
     1
102
RTVSPropertyOp2
 70
     1
102
RTVSPropertyOp3
 70
     1
102
RTVSPropertyOp4
 70
     1
102
RTVSPropertyOp5
 70
     1
102
RTVSPropertyOp6
 70
     1
102
RTVSPropertyOp7
 70
     1
102
RTVSPropertyOp8
 70
     1
102
RTVSPropertyOp9
 70
     1
102
RTVSPropertyOp10
 70
     1
102
RTVSPropertyOp11
 70
     1
102
RTVSPropertyOp12
 70
     1
102
RTVSPropertyOp13
 70
     1
102
RTVSPropertyOp14
 70
     1
102
RTVSPropertyOp15
 70
     1
102
RTVSPropertyOp16
 70
     1
102
RTVSPropertyOp17
 70
     1
102
RTVSPropertyOp18
 70
     1
102
RTVSPropertyOp19
 70
     1
102
RTVSPropertyOp20
 70
     1
102
RTVSPropertyOp21
 70
     1
102
RTVSPropertyOp22
 70
     1
102
RTVSPropertyOp23
 70
     1
102
RTVSPropertyOp24
 70
     1
102
RTVSPropertyOp25
 70
     1
102
RTVSPropertyOp26
 70
     1
102
RTVSPropertyOp27
 70
     1
102
RTVSPropertyOp28
 70
     1
102
RTVSPropertyOp29
 70
     1
102
RTVSPropertyOp30
 70
     1
102
RTVSPropertyOp31
 70
     1
102
RTVSPropertyOp32
 70
     1
102
RTVSPropertyOp33
 70
     1
102
RTVSPropertyOp34
 70
     1
102
RTVSPropertyOp35
 70
     1
102
RTVSPropertyOp36
 70
     1
102
RTVSPropertyOp37
 70
     1
102
RTVSPropertyOp38
 70
     1
102
RTVSPropertyOp39
 70
     1
102
RTVSPropertyOp40
 70
     1
102
RTVSPropertyOp41
 70
     1
102
RTVSPropertyOp42
 70
     1
102
RTVSPropertyOp43
 70
     1
102
RTVSPropertyOp44
 70
     1
102
RTVSPropertyOp45
 70
     1
102
RTVSPropertyOp46
 70
     1
102
RTVSPropertyOp47
 70
     1
102
RTVSPropertyOp48
 70
     1
102
RTVSPropertyOp49
 70
     1
102
RTVSPropertyOp50
 70
     1
102
RTVSPropertyOp51
 70
     0
102
RTVSPropertyOp52
 70
     0
102
RTVSPropertyOp53
 70
     1
102
RTVSPropertyOp54
 70
     1
102
RTVSPropertyOp55
 70
     1
102
RTVSPropertyOp56
 70
     1
102
RTVSPropertyOp57
 70
     1
102
RTVSPost2010Prop28
280
     0
102
RTVSPost2010PropOp28
 70
     1
102
RTVSPost2010Prop29
280
     1
102
RTVSPost2010PropOp29
 70
     1
102
RTVSPost2010Prop30
280
     1
102
RTVSPost2010PropOp30
 70
     1
102
RTVSPost2010Prop31
280
     0
102
RTVSPost2010PropOp31
 70
     1
102
RTVSPost2010Prop32
280
     0
102
RTVSPost2010PropOp32
 70
     1
102
RTVSPost2010Prop33
280
     0
102
RTVSPost2010PropOp33
 70
     1
102
RTVSPost2010Prop34
280
     0
102
RTVSPost2010PropOp34
 70
     1
102
RTVSPost2010Prop35
280
     0
102
RTVSPost2010PropOp35
 70
     1
102
RTVSPost2010Prop36
280
     0
102
RTVSPost2010PropOp36
 70
     1
102
RTVSPost2010Prop37
 90
       50
102
RTVSPost2010PropOp37
 70
     1
102
RTVSPost2010Prop38
140
0.0
102
RTVSPost2010PropOp38
 70
     1
102
RTVSPost2010Prop39
140
1.0
102
RTVSPost2010PropOp39
 70
     1
102
RTVSPost2010Prop40
 90
        0
102
RTVSPost2010PropOp40
 70
     1
102
RTVSPost2010Prop41ColorIndex
 90
       18
102
RTVSPost2010Prop41ColorRGB
 90
        0
102
RTVSPost2010PropOp41
 70
     1
102
RTVSPost2010Prop42
 90
       50
102
RTVSPost2010PropOp42
 70
     1
102
RTVSPost2010Prop43
 90
        3
102
RTVSPost2010PropOp43
 70
     1
102
RTVSPost2010Prop44ColorIndex
 90
        5
102
RTVSPost2010Prop44ColorRGB
 90
      255
102
RTVSPost2010PropOp44
 70
     1
102
RTVSPost2010Prop45
280
     0
102
RTVSPost2010PropOp45
 70
     1
102
RTVSPost2010Prop46
 90
       50
102
RTVSPost2010PropOp46
 70
     1
102
RTVSPost2010Prop47
 90
       50
102
RTVSPost2010PropOp47
 70
     1
102
RTVSPost2010Prop48
 90
       50
102
RTVSPost2010PropOp48
 70
     1
102
RTVSPost2010Prop49
280
     0
102
RTVSPost2010PropOp49
 70
     1
102
RTVSPost2010Prop50
 90
       50
102
RTVSPost2010PropOp50
 70
     1
102
RTVSPost2010Prop51ColorIndex
 90
      256
102
RTVSPost2010Prop51ColorRGB
 90
-16777216
102
RTVSPost2010PropOp51
 70
     0
102
RTVSPost2010Prop52
140
1.0
102
RTVSPost2010PropOp52
 70
     0
102
RTVSPost2010Prop53
 90
        2
102
RTVSPost2010PropOp53
 70
     1
102
RTVSPost2010Prop54
  1
strokes_ogs.tif
102
RTVSPost2010PropOp54
 70
     1
102
RTVSPost2010Prop55
280
     0
102
RTVSPost2010PropOp55
 70
     1
102
RTVSPost2010Prop56
140
1.0
102
RTVSPost2010PropOp56
 70
     1
102
RTVSPost2010Prop57
140
1.0
102
RTVSPost2010PropOp57
 70
     1
  0
XRECORD
  5
338
102
{ACAD_REACTORS
330
337
102
}
330
337
100
AcDbXrecord
280
     1
102
RTVSPropertyOp0
 70
     1
102
RTVSPropertyOp1
 70
     1
102
RTVSPropertyOp2
 70
     1
102
RTVSPropertyOp3
 70
     1
102
RTVSPropertyOp4
 70
     1
102
RTVSPropertyOp5
 70
     1
102
RTVSPropertyOp6
 70
     1
102
RTVSPropertyOp7
 70
     1
102
RTVSPropertyOp8
 70
     1
102
RTVSPropertyOp9
 70
     1
102
RTVSPropertyOp10
 70
     1
102
RTVSPropertyOp11
 70
     1
102
RTVSPropertyOp12
 70
     1
102
RTVSPropertyOp13
 70
     1
102
RTVSPropertyOp14
 70
     1
102
RTVSPropertyOp15
 70
     1
102
RTVSPropertyOp16
 70
     1
102
RTVSPropertyOp17
 70
     1
102
RTVSPropertyOp18
 70
     1
102
RTVSPropertyOp19
 70
     1
102
RTVSPropertyOp20
 70
     1
102
RTVSPropertyOp21
 70
     1
102
RTVSPropertyOp22
 70
     1
102
RTVSPropertyOp23
 70
     1
102
RTVSPropertyOp24
 70
     1
102
RTVSPropertyOp25
 70
     1
102
RTVSPropertyOp26
 70
     1
102
RTVSPropertyOp27
 70
     1
102
RTVSPropertyOp28
 70
     1
102
RTVSPropertyOp29
 70
     1
102
RTVSPropertyOp30
 70
     1
102
RTVSPropertyOp31
 70
     1
102
RTVSPropertyOp32
 70
     1
102
RTVSPropertyOp33
 70
     1
102
RTVSPropertyOp34
 70
     1
102
RTVSPropertyOp35
 70
     1
102
RTVSPropertyOp36
 70
     1
102
RTVSPropertyOp37
 70
     1
102
RTVSPropertyOp38
 70
     1
102
RTVSPropertyOp39
 70
     1
102
RTVSPropertyOp40
 70
     1
102
RTVSPropertyOp41
 70
     1
102
RTVSPropertyOp42
 70
     1
102
RTVSPropertyOp43
 70
     1
102
RTVSPropertyOp44
 70
     1
102
RTVSPropertyOp45
 70
     1
102
RTVSPropertyOp46
 70
     1
102
RTVSPropertyOp47
 70
     1
102
RTVSPropertyOp48
 70
     1
102
RTVSPropertyOp49
 70
     1
102
RTVSPropertyOp50
 70
     1
102
RTVSPropertyOp51
 70
     0
102
RTVSPropertyOp52
 70
     0
102
RTVSPropertyOp53
 70
     1
102
RTVSPropertyOp54
 70
     1
102
RTVSPropertyOp55
 70
     1
102
RTVSPropertyOp56
 70
     1
102
RTVSPropertyOp57
 70
     1
102
RTVSPost2010Prop28
280
     0
102
RTVSPost2010PropOp28
 70
     1
102
RTVSPost2010Prop29
280
     1
102
RTVSPost2010PropOp29
 70
     1
102
RTVSPost2010Prop30
280
     1
102
RTVSPost2010PropOp30
 70
     1
102
RTVSPost2010Prop31
280
     0
102
RTVSPost2010PropOp31
 70
     1
102
RTVSPost2010Prop32
280
     0
102
RTVSPost2010PropOp32
 70
     1
102
RTVSPost2010Prop33
280
     0
102
RTVSPost2010PropOp33
 70
     1
102
RTVSPost2010Prop34
280
     0
102
RTVSPost2010PropOp34
 70
     1
102
RTVSPost2010Prop35
280
     0
102
RTVSPost2010PropOp35
 70
     1
102
RTVSPost2010Prop36
280
     0
102
RTVSPost2010PropOp36
 70
     1
102
RTVSPost2010Prop37
 90
       50
102
RTVSPost2010PropOp37
 70
     1
102
RTVSPost2010Prop38
140
0.0
102
RTVSPost2010PropOp38
 70
     1
102
RTVSPost2010Prop39
140
1.0
102
RTVSPost2010PropOp39
 70
     1
102
RTVSPost2010Prop40
 90
        0
102
RTVSPost2010PropOp40
 70
     1
102
RTVSPost2010Prop41ColorIndex
 90
       18
102
RTVSPost2010Prop41ColorRGB
 90
        0
102
RTVSPost2010PropOp41
 70
     1
102
RTVSPost2010Prop42
 90
       50
102
RTVSPost2010PropOp42
 70
     1
102
RTVSPost2010Prop43
 90
        3
102
RTVSPost2010PropOp43
 70
     1
102
RTVSPost2010Prop44ColorIndex
 90
        5
102
RTVSPost2010Prop44ColorRGB
 90
      255
102
RTVSPost2010PropOp44
 70
     1
102
RTVSPost2010Prop45
280
     0
102
RTVSPost2010PropOp45
 70
     1
102
RTVSPost2010Prop46
 90
       50
102
RTVSPost2010PropOp46
 70
     1
102
RTVSPost2010Prop47
 90
       50
102
RTVSPost2010PropOp47
 70
     1
102
RTVSPost2010Prop48
 90
       50
102
RTVSPost2010PropOp48
 70
     1
102
RTVSPost2010Prop49
280
     0
102
RTVSPost2010PropOp49
 70
     1
102
RTVSPost2010Prop50
 90
       50
102
RTVSPost2010PropOp50
 70
     1
102
RTVSPost2010Prop51ColorIndex
 90
      256
102
RTVSPost2010Prop51ColorRGB
 90
-16777216
102
RTVSPost2010PropOp51
 70
     0
102
RTVSPost2010Prop52
140
1.0
102
RTVSPost2010PropOp52
 70
     0
102
RTVSPost2010Prop53
 90
        2
102
RTVSPost2010PropOp53
 70
     1
102
RTVSPost2010Prop54
  1
strokes_ogs.tif
102
RTVSPost2010PropOp54
 70
     1
102
RTVSPost2010Prop55
280
     0
102
RTVSPost2010PropOp55
 70
     1
102
RTVSPost2010Prop56
140
1.0
102
RTVSPost2010PropOp56
 70
     1
102
RTVSPost2010Prop57
140
1.0
102
RTVSPost2010PropOp57
 70
     1
  0
ENDSEC
  0
EOF
