  0
SECTION
  2
HEADER
  9
$ACADVER
  1
AC1018
  9
$ACADMAINTVER
 70
     0
  9
$DWGCODEPAGE
  3
ANSI_932
  9
$INSBASE
 10
0.0
 20
0.0
 30
0.0
  9
$EXTMIN
 10
-1050.0
 20
-742.5
 30
0.0
  9
$EXTMAX
 10
1050.0
 20
742.5
 30
0.0
  9
$LIMMIN
 10
-1050.0
 20
-742.5
  9
$LIMMAX
 10
1050.0
 20
742.5
  9
$ORTHOMODE
 70
     0
  9
$REGENMODE
 70
     1
  9
$FILLMODE
 70
     1
  9
$QTEXTMODE
 70
     0
  9
$MIRRTEXT
 70
     1
  9
$LTSCALE
 40
5.0
  9
$ATTMODE
 70
     1
  9
$TEXTSIZE
 40
2.5
  9
$TRACEWID
 40
1.0
  9
$TEXTSTYLE
  7
Standard
  9
$CLAYER
  8
0
  9
$CELTYPE
  6
ByLayer
  9
$CECOLOR
 62
   256
  9
$CELTSCALE
 40
1.0
  9
$DISPSILH
 70
     0
  9
$DIMSCALE
 40
1.0
  9
$DIMASZ
 40
2.5
  9
$DIMEXO
 40
0.625
  9
$DIMDLI
 40
3.75
  9
$DIMRND
 40
0.0
  9
$DIMDLE
 40
0.0
  9
$DIMEXE
 40
1.25
  9
$DIMTP
 40
0.0
  9
$DIMTM
 40
0.0
  9
$DIMTXT
 40
2.5
  9
$DIMCEN
 40
2.5
  9
$DIMTSZ
 40
0.0
  9
$DIMTOL
 70
     0
  9
$DIMLIM
 70
     0
  9
$DIMTIH
 70
     0
  9
$DIMTOH
 70
     0
  9
$DIMSE1
 70
     0
  9
$DIMSE2
 70
     0
  9
$DIMTAD
 70
     1
  9
$DIMZIN
 70
     8
  9
$DIMBLK
  1

  9
$DIMASO
 70
     1
  9
$DIMSHO
 70
     1
  9
$DIMPOST
  1

  9
$DIMAPOST
  1

  9
$DIMALT
 70
     0
  9
$DIMALTD
 70
     3
  9
$DIMALTF
 40
0.03937007874016
  9
$DIMLFAC
 40
1.0
  9
$DIMTOFL
 70
     1
  9
$DIMTVP
 40
0.0
  9
$DIMTIX
 70
     0
  9
$DIMSOXD
 70
     0
  9
$DIMSAH
 70
     0
  9
$DIMBLK1
  1

  9
$DIMBLK2
  1

  9
$DIMSTYLE
  2
ISO-25
  9
$DIMCLRD
 70
     0
  9
$DIMCLRE
 70
     0
  9
$DIMCLRT
 70
     0
  9
$DIMTFAC
 40
1.0
  9
$DIMGAP
 40
0.625
  9
$DIMJUST
 70
     0
  9
$DIMSD1
 70
     0
  9
$DIMSD2
 70
     0
  9
$DIMTOLJ
 70
     0
  9
$DIMTZIN
 70
     8
  9
$DIMALTZ
 70
     0
  9
$DIMALTTZ
 70
     0
  9
$DIMUPT
 70
     0
  9
$DIMDEC
 70
     2
  9
$DIMTDEC
 70
     2
  9
$DIMALTU
 70
     2
  9
$DIMALTTD
 70
     3
  9
$DIMTXSTY
  7
Standard
  9
$DIMAUNIT
 70
     0
  9
$DIMADEC
 70
     0
  9
$DIMALTRND
 40
0.0
  9
$DIMAZIN
 70
     0
  9
$DIMDSEP
 70
    44
  9
$DIMATFIT
 70
     3
  9
$DIMFRAC
 70
     0
  9
$DIMLDRBLK
  1

  9
$DIMLUNIT
 70
     2
  9
$DIMLWD
 70
    -2
  9
$DIMLWE
 70
    -2
  9
$DIMTMOVE
 70
     0
  9
$LUNITS
 70
     2
  9
$LUPREC
 70
     4
  9
$SKETCHINC
 40
1.0
  9
$FILLETRAD
 40
10.0
  9
$AUNITS
 70
     0
  9
$AUPREC
 70
     0
  9
$MENU
  1
.
  9
$ELEVATION
 40
0.0
  9
$PELEVATION
 40
0.0
  9
$THICKNESS
 40
0.0
  9
$LIMCHECK
 70
     0
  9
$CHAMFERA
 40
0.0
  9
$CHAMFERB
 40
0.0
  9
$CHAMFERC
 40
0.0
  9
$CHAMFERD
 40
0.0
  9
$SKPOLY
 70
     0
  9
$TDCREATE
 40
2459131.405109583
  9
$TDUCREATE
 40
2459131.030109583
  9
$TDUPDATE
 40
2459131.405109688
  9
$TDUUPDATE
 40
2459131.030109688
  9
$TDINDWG
 40
0.0000000116
  9
$TDUSRTIMER
 40
0.0000000116
  9
$USRTIMER
 70
     1
  9
$ANGBASE
 50
0.0
  9
$ANGDIR
 70
     0
  9
$PDMODE
 70
     0
  9
$PDSIZE
 40
0.0
  9
$PLINEWID
 40
0.0
  9
$SPLFRAME
 70
     0
  9
$SPLINETYPE
 70
     6
  9
$SPLINESEGS
 70
     8
  9
$HANDSEED
  5
3F6
  9
$SURFTAB1
 70
     6
  9
$SURFTAB2
 70
     6
  9
$SURFTYPE
 70
     6
  9
$SURFU
 70
     6
  9
$SURFV
 70
     6
  9
$UCSBASE
  2

  9
$UCSNAME
  2

  9
$UCSORG
 10
0.0
 20
0.0
 30
0.0
  9
$UCSXDIR
 10
1.0
 20
0.0
 30
0.0
  9
$UCSYDIR
 10
0.0
 20
1.0
 30
0.0
  9
$UCSORTHOREF
  2

  9
$UCSORTHOVIEW
 70
     0
  9
$UCSORGTOP
 10
0.0
 20
0.0
 30
0.0
  9
$UCSORGBOTTOM
 10
0.0
 20
0.0
 30
0.0
  9
$UCSORGLEFT
 10
0.0
 20
0.0
 30
0.0
  9
$UCSORGRIGHT
 10
0.0
 20
0.0
 30
0.0
  9
$UCSORGFRONT
 10
0.0
 20
0.0
 30
0.0
  9
$UCSORGBACK
 10
0.0
 20
0.0
 30
0.0
  9
$PUCSBASE
  2

  9
$PUCSNAME
  2

  9
$PUCSORG
 10
0.0
 20
0.0
 30
0.0
  9
$PUCSXDIR
 10
1.0
 20
0.0
 30
0.0
  9
$PUCSYDIR
 10
0.0
 20
1.0
 30
0.0
  9
$PUCSORTHOREF
  2

  9
$PUCSORTHOVIEW
 70
     0
  9
$PUCSORGTOP
 10
0.0
 20
0.0
 30
0.0
  9
$PUCSORGBOTTOM
 10
0.0
 20
0.0
 30
0.0
  9
$PUCSORGLEFT
 10
0.0
 20
0.0
 30
0.0
  9
$PUCSORGRIGHT
 10
0.0
 20
0.0
 30
0.0
  9
$PUCSORGFRONT
 10
0.0
 20
0.0
 30
0.0
  9
$PUCSORGBACK
 10
0.0
 20
0.0
 30
0.0
  9
$USERI1
 70
     0
  9
$USERI2
 70
     0
  9
$USERI3
 70
     0
  9
$USERI4
 70
     0
  9
$USERI5
 70
     0
  9
$USERR1
 40
0.0
  9
$USERR2
 40
0.0
  9
$USERR3
 40
0.0
  9
$USERR4
 40
0.0
  9
$USERR5
 40
0.0
  9
$WORLDVIEW
 70
     1
  9
$SHADEDGE
 70
     3
  9
$SHADEDIF
 70
    70
  9
$TILEMODE
 70
     1
  9
$MAXACTVP
 70
    64
  9
$PINSBASE
 10
0.0
 20
0.0
 30
0.0
  9
$PLIMCHECK
 70
     0
  9
$PEXTMIN
 10
1.000000000000000E+20
 20
1.000000000000000E+20
 30
1.000000000000000E+20
  9
$PEXTMAX
 10
-1.000000000000000E+20
 20
-1.000000000000000E+20
 30
-1.000000000000000E+20
  9
$PLIMMIN
 10
0.0
 20
0.0
  9
$PLIMMAX
 10
420.0
 20
297.0
  9
$UNITMODE
 70
     0
  9
$VISRETAIN
 70
     1
  9
$PLINEGEN
 70
     0
  9
$PSLTSCALE
 70
     1
  9
$TREEDEPTH
 70
  3020
  9
$CMLSTYLE
  2
Standard
  9
$CMLJUST
 70
     0
  9
$CMLSCALE
 40
20.0
  9
$PROXYGRAPHICS
 70
     1
  9
$MEASUREMENT
 70
     1
  9
$CELWEIGHT
370
    -1
  9
$ENDCAPS
280
     0
  9
$JOINSTYLE
280
     0
  9
$LWDISPLAY
290
     0
  9
$INSUNITS
 70
     4
  9
$HYPERLINKBASE
  1

  9
$STYLESHEET
  1

  9
$XEDIT
290
     1
  9
$CEPSNTYPE
380
     0
  9
$PSTYLEMODE
290
     1
  9
$FINGERPRINTGUID
  2
{4A45DD38-DBC8-4565-90F2-444DE93883BC}
  9
$VERSIONGUID
  2
{FAEB1C32-E019-11D5-929B-00C0DF256EC4}
  9
$EXTNAMES
290
     1
  9
$PSVPSCALE
 40
0.0
  9
$OLESTARTUP
290
     0
  9
$SORTENTS
280
   127
  9
$INDEXCTL
280
     0
  9
$HIDETEXT
280
     1
  9
$XCLIPFRAME
290
     0
  9
$HALOGAP
280
     0
  9
$OBSCOLOR
 70
   257
  9
$OBSLTYPE
280
     0
  9
$INTERSECTIONDISPLAY
280
     0
  9
$INTERSECTIONCOLOR
 70
   257
  9
$DIMASSOC
280
     2
  9
$PROJECTNAME
  1

  0
ENDSEC
  0
SECTION
  2
CLASSES
  0
CLASS
  1
ACDBDICTIONARYWDFLT
  2
AcDbDictionaryWithDefault
  3
ObjectDBX Classes
 90
        0
 91
        4
280
     0
281
     0
  0
CLASS
  1
VISUALSTYLE
  2
AcDbVisualStyle
  3
ObjectDBX Classes
 90
     4095
 91
        4
280
     0
281
     0
  0
CLASS
  1
MATERIAL
  2
AcDbMaterial
  3
ObjectDBX Classes
 90
     1153
 91
        4
280
     0
281
     0
  0
CLASS
  1
SCALE
  2
AcDbScale
  3
ObjectDBX Classes
 90
     1153
 91
        4
280
     0
281
     0
  0
CLASS
  1
TABLESTYLE
  2
AcDbTableStyle
  3
ObjectDBX Classes
 90
     4095
 91
        4
280
     0
281
     0
  0
CLASS
  1
MLEADERSTYLE
  2
AcDbMLeaderStyle
  3
ACDB_MLEADERSTYLE_CLASS
 90
     4095
 91
        4
280
     0
281
     0
  0
CLASS
  1
SUN
  2
AcDbSun
  3
SCENEOE
 90
     1153
 91
        4
280
     0
281
     0
  0
CLASS
  1
DICTIONARYVAR
  2
AcDbDictionaryVar
  3
ObjectDBX Classes
 90
        0
 91
        4
280
     0
281
     0
  0
CLASS
  1
CELLSTYLEMAP
  2
AcDbCellStyleMap
  3
ObjectDBX Classes
 90
     1152
 91
        4
280
     0
281
     0
  0
ENDSEC
  0
SECTION
  2
TABLES
  0
TABLE
  2
VPORT
  5
8
102
{ACAD_XDICTIONARY
360
3AD
102
}
330
0
100
AcDbSymbolTable
 70
     1
  0
VPORT
  5
29
330
8
100
AcDbSymbolTableRecord
100
AcDbViewportTableRecord
  2
*Active
 70
     0
 10
0.0
 20
0.0
 11
1.0
 21
1.0
 12
0.0
 22
0.0
 13
0.0
 23
0.0
 14
10.0
 24
10.0
 15
10.0
 25
10.0
 16
0.0
 26
0.0
 36
1.0
 17
0.0
 27
0.0
 37
0.0
 40
1633.5
 41
1.414141414141414
 42
50.0
 43
0.0
 44
0.0
 50
0.0
 51
0.0
 71
     0
 72
 10000
 73
     1
 74
     3
 75
     0
 76
     0
 77
     0
 78
     0
281
     0
 65
     1
110
0.0
120
0.0
130
0.0
111
1.0
121
0.0
131
0.0
112
0.0
122
1.0
132
0.0
 79
     0
146
0.0
  0
ENDTAB
  0
TABLE
  2
LTYPE
  5
5
330
0
100
AcDbSymbolTable
 70
     4
  0
LTYPE
  5
14
330
5
100
AcDbSymbolTableRecord
100
AcDbLinetypeTableRecord
  2
ByBlock
 70
     0
  3

 72
    65
 73
     0
 40
0.0
  0
LTYPE
  5
15
330
5
100
AcDbSymbolTableRecord
100
AcDbLinetypeTableRecord
  2
ByLayer
 70
     0
  3

 72
    65
 73
     0
 40
0.0
  0
LTYPE
  5
16
330
5
100
AcDbSymbolTableRecord
100
AcDbLinetypeTableRecord
  2
Continuous
 70
     0
  3
Solid line
 72
    65
 73
     0
 40
0.0
  0
LTYPE
  5
6F
330
5
100
AcDbSymbolTableRecord
100
AcDbLinetypeTableRecord
  2
JWW_CENTER1
 70
     0
  3
-----  --  ----------  --  -----
 72
    65
 73
     4
 40
6.773333333333333
 49
4.233333333333333
 74
     0
 49
-0.8466666666666667
 74
     0
 49
0.8466666666666667
 74
     0
 49
-0.8466666666666667
 74
     0
  0
LTYPE
  5
70
330
5
100
AcDbSymbolTableRecord
100
AcDbLinetypeTableRecord
  2
JWW_DASHED3
 70
     0
  3
---  ------  ------  ------  ---
 72
    65
 73
     2
 40
3.386666666666667
 49
2.54
 74
     0
 49
-0.8466666666666667
 74
     0
  0
LTYPE
  5
71
330
5
100
AcDbSymbolTableRecord
100
AcDbLinetypeTableRecord
  2
JWW_CENTER2
 70
     0
  3
-------------  --  -------------
 72
    65
 73
     4
 40
13.54666666666667
 49
11.00666666666667
 74
     0
 49
-0.8466666666666667
 74
     0
 49
0.8466666666666667
 74
     0
 49
-0.8466666666666667
 74
     0
  0
ENDTAB
  0
TABLE
  2
LAYER
  5
2
330
0
100
AcDbSymbolTable
 70
     6
  0
LAYER
  5
10
330
2
100
AcDbSymbolTableRecord
100
AcDbLayerTableRecord
  2
0
 70
     0
 62
     7
  6
Continuous
370
    -3
390
F
  0
LAYER
  5
72
330
2
100
AcDbSymbolTableRecord
100
AcDbLayerTableRecord
  2
F-5ﾚｲﾔ
 70
     0
 62
     7
  6
Continuous
370
    -3
390
F
  0
LAYER
  5
73
330
2
100
AcDbSymbolTableRecord
100
AcDbLayerTableRecord
  2
E-2
 70
     0
 62
     7
  6
Continuous
370
    -3
390
F
  0
LAYER
  5
74
330
2
100
AcDbSymbolTableRecord
100
AcDbLayerTableRecord
  2
E-1
 70
     0
 62
     7
  6
Continuous
370
    -3
390
F
  0
LAYER
  5
75
330
2
100
AcDbSymbolTableRecord
100
AcDbLayerTableRecord
  2
E-4
 70
     0
 62
     7
  6
Continuous
370
    -3
390
F
  0
LAYER
  5
76
330
2
100
AcDbSymbolTableRecord
100
AcDbLayerTableRecord
  2
E-5
 70
     0
 62
     7
  6
Continuous
370
    -3
390
F
  0
ENDTAB
  0
TABLE
  2
STYLE
  5
3
330
0
100
AcDbSymbolTable
 70
     2
  0
STYLE
  5
11
330
3
100
AcDbSymbolTableRecord
100
AcDbTextStyleTableRecord
  2
Standard
 70
     0
 40
0.0
 41
1.0
 50
0.0
 71
     0
 42
2.5
  3
txt
  4

  0
STYLE
  5
6E
330
3
100
AcDbSymbolTableRecord
100
AcDbTextStyleTableRecord
  2
ＭＳ ゴシック
 70
     0
 40
1.0
 41
1.0
 50
0.0
 71
     0
 42
2.5
  3

  4

1001
ACAD
1000
MS Gothic
1071
    32817
  0
ENDTAB
  0
TABLE
  2
VIEW
  5
6
330
0
100
AcDbSymbolTable
 70
     0
  0
ENDTAB
  0
TABLE
  2
UCS
  5
7
330
0
100
AcDbSymbolTable
 70
     0
  0
ENDTAB
  0
TABLE
  2
APPID
  5
9
330
0
100
AcDbSymbolTable
 70
     2
  0
APPID
  5
12
330
9
100
AcDbSymbolTableRecord
100
AcDbRegAppTableRecord
  2
ACAD
 70
     0
  0
APPID
  5
3EC
330
9
100
AcDbSymbolTableRecord
100
AcDbRegAppTableRecord
  2
ACAD_MLEADERVER
 70
     0
  0
ENDTAB
  0
TABLE
  2
DIMSTYLE
  5
A
330
0
100
AcDbSymbolTable
 70
     1
100
AcDbDimStyleTable
  0
DIMSTYLE
105
27
330
A
100
AcDbSymbolTableRecord
100
AcDbDimStyleTableRecord
  2
ISO-25
 70
     0
 41
2.5
 42
0.625
 43
3.75
 44
1.25
 73
     0
 74
     0
 77
     1
 78
     8
140
2.5
141
2.5
143
0.03937007874016
147
0.625
171
     3
172
     1
178
     0
271
     2
272
     2
274
     3
278
    44
283
     0
284
     8
340
11
  0
ENDTAB
  0
TABLE
  2
BLOCK_RECORD
  5
1
330
0
100
AcDbSymbolTable
 70
     1
  0
BLOCK_RECORD
  5
1F
330
1
100
AcDbSymbolTableRecord
100
AcDbBlockTableRecord
  2
*Model_Space
340
22
  0
BLOCK_RECORD
  5
1B
330
1
100
AcDbSymbolTableRecord
100
AcDbBlockTableRecord
  2
*Paper_Space
340
1E
  0
BLOCK_RECORD
  5
23
330
1
100
AcDbSymbolTableRecord
100
AcDbBlockTableRecord
  2
*Paper_Space0
340
26
  0
ENDTAB
  0
ENDSEC
  0
SECTION
  2
BLOCKS
  0
BLOCK
  5
20
330
1F
100
AcDbEntity
  8
0
100
AcDbBlockBegin
  2
*Model_Space
 70
     0
 10
0.0
 20
0.0
 30
0.0
  3
*Model_Space
  1

  0
ENDBLK
  5
21
330
1F
100
AcDbEntity
  8
0
100
AcDbBlockEnd
  0
BLOCK
  5
1C
330
1B
100
AcDbEntity
 67
     1
  8
0
100
AcDbBlockBegin
  2
*Paper_Space
 70
     0
 10
0.0
 20
0.0
 30
0.0
  3
*Paper_Space
  1

  0
ENDBLK
  5
1D
330
1B
100
AcDbEntity
 67
     1
  8
0
100
AcDbBlockEnd
  0
BLOCK
  5
24
330
23
100
AcDbEntity
  8
0
100
AcDbBlockBegin
  2
*Paper_Space0
 70
     0
 10
0.0
 20
0.0
 30
0.0
  3
*Paper_Space0
  1

  0
ENDBLK
  5
25
330
23
100
AcDbEntity
  8
0
100
AcDbBlockEnd
  0
ENDSEC
  0
SECTION
  2
ENTITIES
  0
TEXT
  5
77
330
1F
100
AcDbEntity
  8
F-5ﾚｲﾔ
  6
Continuous
 62
     2
370
     9
100
AcDbText
 10
-470.5001752698743
 20
-682.8316433452651
 30
0.0
 40
15.24
  1
スチール製グレーチング　枠付正方形型　細目プレーンタイプ　集水桝用　ＱＳＣ　５５３８Ⅰ
 41
0.7744186046511626
  7
ＭＳ ゴシック
100
AcDbText
  0
LINE
  5
78
330
1F
100
AcDbEntity
  8
E-2
  6
Continuous
 62
     3
370
     9
100
AcDbLine
 10
-133.4777926034487
 20
-126.0602958543629
 30
0.0
 11
-733.4777860050533
 21
-126.0602958543629
 31
0.0
  0
LINE
  5
79
330
1F
100
AcDbEntity
  8
E-2
  6
Continuous
 62
     3
370
     9
100
AcDbLine
 10
-133.4777926034487
 20
-121.5603552399201
 30
0.0
 11
-733.4777860050533
 21
-121.5603552399201
 31
0.0
  0
LINE
  5
7A
330
1F
100
AcDbEntity
  8
E-2
  6
Continuous
 62
     3
370
     9
100
AcDbLine
 10
-133.4777926034487
 20
473.9397206416254
 30
0.0
 11
-133.4777926034487
 21
-126.0602958543629
 31
0.0
  0
LINE
  5
7B
330
1F
100
AcDbEntity
  8
E-2
  6
Continuous
 62
     3
370
     9
100
AcDbLine
 10
-733.4777860050533
 20
469.439037707715
 30
0.0
 11
-133.4777926034487
 21
469.439037707715
 31
0.0
  0
LINE
  5
7C
330
1F
100
AcDbEntity
  8
E-2
  6
Continuous
 62
     3
370
     9
100
AcDbLine
 10
-733.4777860050533
 20
473.9397206416254
 30
0.0
 11
-133.4777926034487
 21
473.9397206416254
 31
0.0
  0
LINE
  5
7D
330
1F
100
AcDbEntity
  8
E-2
  6
Continuous
 62
     3
370
     9
100
AcDbLine
 10
-133.4777926034487
 20
420.9398253911506
 30
0.0
 11
-733.4777860050533
 21
420.9398253911506
 31
0.0
  0
LINE
  5
7E
330
1F
100
AcDbEntity
  8
E-2
  6
Continuous
 62
     3
370
     9
100
AcDbLine
 10
-133.4777926034487
 20
426.9399936502299
 30
0.0
 11
-733.4777860050533
 21
426.9399936502299
 31
0.0
  0
LINE
  5
7F
330
1F
100
AcDbEntity
  8
E-2
  6
Continuous
 62
     3
370
     9
100
AcDbLine
 10
-138.4776235195699
 20
326.9401586101117
 30
0.0
 11
-138.4776235195699
 21
420.9398253911506
 31
0.0
  0
LINE
  5
80
330
1F
100
AcDbEntity
  8
E-2
  6
Continuous
 62
     3
370
     9
100
AcDbLine
 10
-138.4776235195699
 20
426.9399936502299
 30
0.0
 11
-138.4776235195699
 21
469.439037707715
 31
0.0
  0
LINE
  5
81
330
1F
100
AcDbEntity
  8
E-2
  6
Continuous
 62
     3
370
     9
100
AcDbLine
 10
-138.4776235195699
 20
226.9400761301708
 30
0.0
 11
-138.4776235195699
 21
320.9399903510324
 31
0.0
  0
LINE
  5
82
330
1F
100
AcDbEntity
  8
E-2
  6
Continuous
 62
     3
370
     9
100
AcDbLine
 10
-133.4777926034487
 20
226.9403235699933
 30
0.0
 11
-733.4777860050533
 21
226.9403235699933
 31
0.0
  0
LINE
  5
83
330
1F
100
AcDbEntity
  8
E-2
  6
Continuous
 62
     3
370
     9
100
AcDbLine
 10
-133.4777926034487
 20
220.9399078710913
 30
0.0
 11
-733.4777860050533
 21
220.9399078710913
 31
0.0
  0
LINE
  5
84
330
1F
100
AcDbEntity
  8
E-2
  6
Continuous
 62
     3
370
     9
100
AcDbLine
 10
-138.4776235195699
 20
126.9399936502297
 30
0.0
 11
-138.4776235195699
 21
220.9399078710913
 31
0.0
  0
LINE
  5
85
330
1F
100
AcDbEntity
  8
E-2
  6
Continuous
 62
     3
370
     9
100
AcDbLine
 10
-133.4777926034487
 20
320.9399903510324
 30
0.0
 11
-733.4777860050533
 21
320.9399903510324
 31
0.0
  0
LINE
  5
86
330
1F
100
AcDbEntity
  8
E-2
  6
Continuous
 62
     3
370
     9
100
AcDbLine
 10
-133.4777926034487
 20
326.9399111702892
 30
0.0
 11
-733.4777860050533
 21
326.9399111702892
 31
0.0
  0
LINE
  5
87
330
1F
100
AcDbEntity
  8
E-2
  6
Continuous
 62
     3
370
     9
100
AcDbLine
 10
-133.4777926034487
 20
126.9402410900525
 30
0.0
 11
-733.4777860050533
 21
126.9402410900525
 31
0.0
  0
LINE
  5
88
330
1F
100
AcDbEntity
  8
E-2
  6
Continuous
 62
     3
370
     9
100
AcDbLine
 10
-133.4777926034487
 20
120.940072830973
 30
0.0
 11
-733.4777860050533
 21
120.940072830973
 31
0.0
  0
LINE
  5
89
330
1F
100
AcDbEntity
  8
E-2
  6
Continuous
 62
     3
370
     9
100
AcDbLine
 10
-133.4777926034487
 20
26.94024109005252
 30
0.0
 11
-733.4777860050533
 21
26.94024109005252
 31
0.0
  0
LINE
  5
8A
330
1F
100
AcDbEntity
  8
E-2
  6
Continuous
 62
     3
370
     9
100
AcDbLine
 10
-133.4777926034487
 20
20.94007283097294
 30
0.0
 11
-733.4777860050533
 21
20.94007283097294
 31
0.0
  0
LINE
  5
8B
330
1F
100
AcDbEntity
  8
E-2
  6
Continuous
 62
     3
370
     9
100
AcDbLine
 10
-133.4777926034487
 20
-73.05975890994748
 30
0.0
 11
-733.4777860050533
 21
-73.05975890994748
 31
0.0
  0
LINE
  5
8C
330
1F
100
AcDbEntity
  8
E-2
  6
Continuous
 62
     3
370
     9
100
AcDbLine
 10
-133.4777926034487
 20
-79.05992716902705
 30
0.0
 11
-733.4777860050533
 21
-79.05992716902705
 31
0.0
  0
LINE
  5
8D
330
1F
100
AcDbEntity
  8
E-2
  6
Continuous
 62
     3
370
     9
100
AcDbLine
 10
-138.4776235195699
 20
26.94024109005252
 30
0.0
 11
-138.4776235195699
 21
120.940072830973
 31
0.0
  0
LINE
  5
8E
330
1F
100
AcDbEntity
  8
E-2
  6
Continuous
 62
     3
370
     9
100
AcDbLine
 10
-138.4776235195699
 20
-121.5603552399201
 30
0.0
 11
-138.4776235195699
 21
-79.05992716902705
 31
0.0
  0
LINE
  5
8F
330
1F
100
AcDbEntity
  8
E-2
  6
Continuous
 62
     3
370
     9
100
AcDbLine
 10
-138.4776235195699
 20
-73.05975890994748
 30
0.0
 11
-138.4776235195699
 21
20.94007283097294
 31
0.0
  0
LINE
  5
90
330
1F
100
AcDbEntity
  8
E-2
  6
Continuous
 62
     3
370
     9
100
AcDbLine
 10
-728.4776457891539
 20
-73.05975890994748
 30
0.0
 11
-728.4776457891539
 21
20.94007283097294
 31
0.0
  0
LINE
  5
91
330
1F
100
AcDbEntity
  8
E-2
  6
Continuous
 62
     3
370
     9
100
AcDbLine
 10
-728.4776457891539
 20
-121.5603552399201
 30
0.0
 11
-728.4776457891539
 21
-79.05992716902705
 31
0.0
  0
LINE
  5
92
330
1F
100
AcDbEntity
  8
E-2
  6
Continuous
 62
     3
370
     9
100
AcDbLine
 10
-728.4776457891539
 20
26.94024109005252
 30
0.0
 11
-728.4776457891539
 21
120.940072830973
 31
0.0
  0
LINE
  5
93
330
1F
100
AcDbEntity
  8
E-2
  6
Continuous
 62
     3
370
     9
100
AcDbLine
 10
-728.4776457891539
 20
126.9399936502297
 30
0.0
 11
-728.4776457891539
 21
220.9399078710913
 31
0.0
  0
LINE
  5
94
330
1F
100
AcDbEntity
  8
E-2
  6
Continuous
 62
     3
370
     9
100
AcDbLine
 10
-728.4776457891539
 20
226.9400761301708
 30
0.0
 11
-728.4776457891539
 21
320.9399903510324
 31
0.0
  0
LINE
  5
95
330
1F
100
AcDbEntity
  8
E-2
  6
Continuous
 62
     3
370
     9
100
AcDbLine
 10
-728.4776457891539
 20
426.9399936502299
 30
0.0
 11
-728.4776457891539
 21
469.439037707715
 31
0.0
  0
LINE
  5
96
330
1F
100
AcDbEntity
  8
E-2
  6
Continuous
 62
     3
370
     9
100
AcDbLine
 10
-728.4776457891539
 20
326.9401586101117
 30
0.0
 11
-728.4776457891539
 21
420.9398253911506
 31
0.0
  0
LINE
  5
97
330
1F
100
AcDbEntity
  8
E-1
  6
Continuous
 62
     2
370
     9
100
AcDbLine
 10
-488.4778470402097
 20
494.5399634625714
 30
0.0
 11
-488.4778470402097
 21
488.4403243947926
 31
0.0
  0
LINE
  5
98
330
1F
100
AcDbEntity
  8
E-1
  6
Continuous
 62
     2
370
     9
100
AcDbLine
 10
-388.4778882801802
 20
504.5399964545477
 30
0.0
 11
-478.4778140482334
 21
504.5399964545477
 31
0.0
  0
LINE
  5
99
330
1F
100
AcDbEntity
  8
E-1
  6
Continuous
 62
     2
370
     9
100
AcDbLine
 10
-378.477855288204
 20
494.5399634625714
 30
0.0
 11
-378.477855288204
 21
488.4403243947926
 31
0.0
  0
LINE
  5
9A
330
1F
100
AcDbEntity
  8
E-1
  6
Continuous
 62
     2
370
     9
100
AcDbLine
 10
-387.4779839569115
 20
494.5399634625714
 30
0.0
 11
-387.4779839569115
 21
488.4403243947926
 31
0.0
  0
LINE
  5
9B
330
1F
100
AcDbEntity
  8
E-1
  6
Continuous
 62
     2
370
     9
100
AcDbLine
 10
-478.4778140482334
 20
495.53986778584
 30
0.0
 11
-388.4778882801802
 21
495.53986778584
 31
0.0
  0
LINE
  5
9C
330
1F
100
AcDbEntity
  8
E-1
  6
Continuous
 62
     2
370
     9
100
AcDbLine
 10
-479.4780895312359
 20
494.5399634625714
 30
0.0
 11
-479.4780895312359
 21
488.4403243947926
 31
0.0
  0
LINE
  5
9D
330
1F
100
AcDbEntity
  8
E-1
  6
JWW_CENTER1
 62
     2
370
     9
100
AcDbLine
 10
-483.9780301456785
 20
480.3329586061525
 30
0.0
 11
-483.9780301456785
 21
495.9303278259583
 31
0.0
  0
LINE
  5
9E
330
1F
100
AcDbEntity
  8
E-1
  6
JWW_CENTER1
 62
     2
370
     9
100
AcDbLine
 10
-475.8151141168568
 20
488.4403243947926
 30
0.0
 11
-492.2221064363247
 21
488.4403243947926
 31
0.0
  0
LINE
  5
9F
330
1F
100
AcDbEntity
  8
E-1
  6
JWW_CENTER1
 62
     2
370
     9
100
AcDbLine
 10
-382.9776721827352
 20
480.3329586061525
 30
0.0
 11
-382.9776721827352
 21
495.9303278259583
 31
0.0
  0
LINE
  5
A0
330
1F
100
AcDbEntity
  8
E-1
  6
JWW_CENTER1
 62
     2
370
     9
100
AcDbLine
 10
-374.8151273136472
 20
488.4403243947926
 30
0.0
 11
-391.221995913204
 21
488.4403243947926
 31
0.0
  0
CIRCLE
  5
A1
330
1F
100
AcDbEntity
  8
E-1
  6
Continuous
 62
     2
370
     9
100
AcDbCircle
 10
-483.9780301456785
 20
488.4403243947926
 30
0.0
 40
4.500000057993709
  0
CIRCLE
  5
A2
330
1F
100
AcDbEntity
  8
E-1
  6
Continuous
 62
     2
370
     9
100
AcDbCircle
 10
-382.9781670623803
 20
488.4403243947926
 30
0.0
 40
4.500000057993709
  0
ARC
  5
A3
330
1F
100
AcDbEntity
  8
E-1
  6
Continuous
 62
     2
370
     9
100
AcDbCircle
 10
-478.4778140482334
 20
494.5399634625714
 30
0.0
 40
9.9999991623131
100
AcDbArc
 50
90.0
 51
180.0
  0
ARC
  5
A4
330
1F
100
AcDbEntity
  8
E-1
  6
Continuous
 62
     2
370
     9
100
AcDbCircle
 10
-388.4778882801802
 20
494.5399634625714
 30
0.0
 40
9.9999991623131
100
AcDbArc
 50
0.0
 51
90.0
  0
ARC
  5
A5
330
1F
100
AcDbEntity
  8
E-1
  6
Continuous
 62
     2
370
     9
100
AcDbCircle
 10
-388.4778882801802
 20
494.5399634625714
 30
0.0
 40
0.9999999524773778
100
AcDbArc
 50
0.0
 51
90.0
  0
ARC
  5
A6
330
1F
100
AcDbEntity
  8
E-1
  6
Continuous
 62
     2
370
     9
100
AcDbCircle
 10
-478.4778140482334
 20
494.5399634625714
 30
0.0
 40
0.9999999524773778
100
AcDbArc
 50
90.0
 51
180.0
  0
LWPOLYLINE
  5
A7
330
1F
100
AcDbEntity
  8
E-4
  6
Continuous
 62
     7
370
     9
100
AcDbPolyline
 90
        4
 70
     1
 43
1.0
 10
-432.9778511642068
 20
543.9398889007049
 42
0.4142135623731
 10
-433.4778511642068
 20
544.4398889007049
 42
0.4142135623731
 10
-433.9778511642067
 20
543.9398889007049
 42
0.4142135623731
 10
-433.4778511642068
 20
543.4398889007049
 42
0.4142135623731
  0
LINE
  5
A8
330
1F
100
AcDbEntity
  8
E-4
  6
Continuous
 62
     7
370
     9
100
AcDbLine
 10
-433.4778511642068
 20
545.4398889007048
 30
0.0
 11
-433.4778511642068
 21
514.5399964545477
 31
0.0
  0
LINE
  5
A9
330
1F
100
AcDbEntity
  8
E-1
  6
Continuous
 62
     2
370
     9
100
AcDbLine
 10
-488.4778470402097
 20
-146.6608867406592
 30
0.0
 11
-488.4778470402097
 21
-140.5607527932352
 31
0.0
  0
LINE
  5
AA
330
1F
100
AcDbEntity
  8
E-1
  6
Continuous
 62
     2
370
     9
100
AcDbLine
 10
-388.4778882801802
 20
-156.6604248529904
 30
0.0
 11
-478.4778140482334
 21
-156.6604248529904
 31
0.0
  0
LINE
  5
AB
330
1F
100
AcDbEntity
  8
E-1
  6
Continuous
 62
     2
370
     9
100
AcDbLine
 10
-378.477855288204
 20
-146.6608867406592
 30
0.0
 11
-378.477855288204
 21
-140.5607527932352
 31
0.0
  0
LINE
  5
AC
330
1F
100
AcDbEntity
  8
E-1
  6
Continuous
 62
     2
370
     9
100
AcDbLine
 10
-387.4779839569115
 20
-146.6608867406592
 30
0.0
 11
-387.4779839569115
 21
-140.5607527932352
 31
0.0
  0
LINE
  5
AD
330
1F
100
AcDbEntity
  8
E-1
  6
Continuous
 62
     2
370
     9
100
AcDbLine
 10
-478.4778140482334
 20
-147.6607910639279
 30
0.0
 11
-388.4778882801802
 21
-147.6607910639279
 31
0.0
  0
LINE
  5
AE
330
1F
100
AcDbEntity
  8
E-1
  6
Continuous
 62
     2
370
     9
100
AcDbLine
 10
-479.4780895312359
 20
-146.6608867406592
 30
0.0
 11
-479.4780895312359
 21
-140.5607527932352
 31
0.0
  0
LINE
  5
AF
330
1F
100
AcDbEntity
  8
E-1
  6
JWW_CENTER1
 62
     2
370
     9
100
AcDbLine
 10
-483.9780301456785
 20
-132.453387004595
 30
0.0
 11
-483.9780301456785
 21
-148.0502613447557
 31
0.0
  0
LINE
  5
B0
330
1F
100
AcDbEntity
  8
E-1
  6
JWW_CENTER1
 62
     2
370
     9
100
AcDbLine
 10
-475.8151141168568
 20
-140.5607527932352
 30
0.0
 11
-492.2221064363247
 21
-140.5607527932352
 31
0.0
  0
LINE
  5
B1
330
1F
100
AcDbEntity
  8
E-1
  6
JWW_CENTER1
 62
     2
370
     9
100
AcDbLine
 10
-382.9776721827352
 20
-132.453387004595
 30
0.0
 11
-382.9776721827352
 21
-148.0502613447557
 31
0.0
  0
LINE
  5
B2
330
1F
100
AcDbEntity
  8
E-1
  6
JWW_CENTER1
 62
     2
370
     9
100
AcDbLine
 10
-374.8151273136472
 20
-140.5607527932352
 30
0.0
 11
-391.221995913204
 21
-140.5607527932352
 31
0.0
  0
CIRCLE
  5
B3
330
1F
100
AcDbEntity
  8
E-1
  6
Continuous
 62
     2
370
     9
100
AcDbCircle
 10
-483.9780301456785
 20
-140.5607527932352
 30
0.0
 40
4.500000057993709
  0
CIRCLE
  5
B4
330
1F
100
AcDbEntity
  8
E-1
  6
Continuous
 62
     2
370
     9
100
AcDbCircle
 10
-382.9781670623803
 20
-140.5607527932352
 30
0.0
 40
4.500000057993709
  0
ARC
  5
B5
330
1F
100
AcDbEntity
  8
E-1
  6
Continuous
 62
     2
370
     9
100
AcDbCircle
 10
-478.4778140482334
 20
-146.6608867406592
 30
0.0
 40
9.9999991623131
100
AcDbArc
 50
180.0
 51
270.0
  0
ARC
  5
B6
330
1F
100
AcDbEntity
  8
E-1
  6
Continuous
 62
     2
370
     9
100
AcDbCircle
 10
-388.4778882801802
 20
-146.6608867406592
 30
0.0
 40
9.9999991623131
100
AcDbArc
 50
270.0
 51
0.0
  0
ARC
  5
B7
330
1F
100
AcDbEntity
  8
E-1
  6
Continuous
 62
     2
370
     9
100
AcDbCircle
 10
-388.4778882801802
 20
-146.6608867406592
 30
0.0
 40
0.9999999524773778
100
AcDbArc
 50
270.0
 51
0.0
  0
ARC
  5
B8
330
1F
100
AcDbEntity
  8
E-1
  6
Continuous
 62
     2
370
     9
100
AcDbCircle
 10
-478.4778140482334
 20
-146.6608867406592
 30
0.0
 40
0.9999999524773778
100
AcDbArc
 50
180.0
 51
270.0
  0
LWPOLYLINE
  5
B9
330
1F
100
AcDbEntity
  8
E-4
  6
Continuous
 62
     7
370
     9
100
AcDbPolyline
 90
        4
 70
     1
 43
1.0
 10
-122.977871784192
 20
543.9398889007049
 42
0.4142135623731
 10
-123.477871784192
 20
544.4398889007049
 42
0.4142135623731
 10
-123.977871784192
 20
543.9398889007049
 42
0.4142135623731
 10
-123.477871784192
 20
543.4398889007049
 42
0.4142135623731
  0
LINE
  5
BA
330
1F
100
AcDbEntity
  8
E-4
  6
Continuous
 62
     7
370
     9
100
AcDbLine
 10
-123.477871784192
 20
545.4398889007048
 30
0.0
 11
-123.477871784192
 21
493.9398889007049
 31
0.0
  0
LWPOLYLINE
  5
BB
330
1F
100
AcDbEntity
  8
E-4
  6
Continuous
 62
     7
370
     9
100
AcDbPolyline
 90
        4
 70
     1
 43
1.0
 10
-182.9778841561832
 20
-196.0598224195023
 42
0.4142135623731
 10
-183.4778841561832
 20
-195.5598224195023
 42
0.4142135623731
 10
-183.9778841561832
 20
-196.0598224195023
 42
0.4142135623731
 10
-183.4778841561832
 20
-196.5598224195023
 42
0.4142135623731
  0
LINE
  5
BC
330
1F
100
AcDbEntity
  8
E-4
  6
Continuous
 62
     7
370
     9
100
AcDbLine
 10
-183.4778841561832
 20
-197.559822419502
 30
0.0
 11
-183.4778841561832
 21
-86.06061422693455
 31
0.0
  0
LWPOLYLINE
  5
BD
330
1F
100
AcDbEntity
  8
E-4
  6
Continuous
 62
     7
370
     9
100
AcDbPolyline
 90
        4
 70
     1
 43
1.0
 10
-132.9777926034488
 20
-236.0598224195023
 42
0.4142135623731
 10
-133.4777926034488
 20
-235.5598224195023
 42
0.4142135623731
 10
-133.9777926034488
 20
-236.0598224195023
 42
0.4142135623731
 10
-133.4777926034488
 20
-236.5598224195023
 42
0.4142135623731
  0
LINE
  5
BE
330
1F
100
AcDbEntity
  8
E-4
  6
Continuous
 62
     7
370
     9
100
AcDbLine
 10
-133.4777926034488
 20
-237.559822419502
 30
0.0
 11
-133.4777926034488
 21
-136.0602958543629
 31
0.0
  0
LINE
  5
BF
330
1F
100
AcDbEntity
  8
E-4
  6
Continuous
 62
     7
370
     9
100
AcDbLine
 10
-133.4777926034488
 20
-236.0598224195023
 30
0.0
 11
-129.4777926034488
 21
-236.0598224195023
 31
0.0
  0
LWPOLYLINE
  5
C0
330
1F
100
AcDbEntity
  8
E-4
  6
Continuous
 62
     7
370
     9
100
AcDbPolyline
 90
        4
 70
     1
 43
1.0
 10
-128.9777926034488
 20
-236.0598224195023
 42
0.4142135623731
 10
-129.4777926034488
 20
-235.5598224195023
 42
0.4142135623731
 10
-129.9777926034488
 20
-236.0598224195023
 42
0.4142135623731
 10
-129.4777926034488
 20
-236.5598224195023
 42
0.4142135623731
  0
LINE
  5
C1
330
1F
100
AcDbEntity
  8
E-4
  6
Continuous
 62
     7
370
     9
100
AcDbLine
 10
-129.4777926034488
 20
-237.559822419502
 30
0.0
 11
-129.4777926034488
 21
-140.0597778803342
 31
0.0
  0
LINE
  5
C2
330
1F
100
AcDbEntity
  8
E-4
  6
Continuous
 62
     7
370
     9
100
AcDbLine
 10
-129.4777926034488
 20
-236.0598224195023
 30
0.0
 11
-123.477871784192
 21
-236.0598224195023
 31
0.0
  0
LWPOLYLINE
  5
C3
330
1F
100
AcDbEntity
  8
E-4
  6
Continuous
 62
     7
370
     9
100
AcDbPolyline
 90
        4
 70
     1
 43
1.0
 10
-122.977871784192
 20
-236.0598224195023
 42
0.4142135623731
 10
-123.477871784192
 20
-235.5598224195023
 42
0.4142135623731
 10
-123.977871784192
 20
-236.0598224195023
 42
0.4142135623731
 10
-123.477871784192
 20
-236.5598224195023
 42
0.4142135623731
  0
LWPOLYLINE
  5
C4
330
1F
100
AcDbEntity
  8
E-4
  6
Continuous
 62
     7
370
     9
100
AcDbPolyline
 90
        4
 70
     1
 43
1.0
 10
-122.977871784192
 20
-276.0598224195023
 42
0.4142135623731
 10
-123.477871784192
 20
-275.5598224195023
 42
0.4142135623731
 10
-123.977871784192
 20
-276.0598224195023
 42
0.4142135623731
 10
-123.477871784192
 20
-276.5598224195023
 42
0.4142135623731
  0
LINE
  5
C5
330
1F
100
AcDbEntity
  8
E-4
  6
Continuous
 62
     7
370
     9
100
AcDbLine
 10
-123.477871784192
 20
-277.559822419502
 30
0.0
 11
-123.477871784192
 21
-146.0598224195023
 31
0.0
  0
TEXT
  5
C6
330
1F
100
AcDbEntity
  8
E-4
  6
Continuous
 62
     2
370
   211
100
AcDbText
 10
-116.4778321938204
 20
-230.2398224195023
 30
0.0
 40
15.24
  1
6
 41
0.9999999999999998
  7
ＭＳ ゴシック
100
AcDbText
  0
TEXT
  5
C7
330
1F
100
AcDbEntity
  8
E-4
  6
Continuous
 62
     2
370
   211
100
AcDbText
 10
-151.4777926034488
 20
-230.2398224195023
 30
0.0
 40
15.24
  1
4
 41
0.9999999999999998
  7
ＭＳ ゴシック
100
AcDbText
  0
LINE
  5
C8
330
1F
100
AcDbEntity
  8
E-4
  6
Continuous
 62
     7
370
     9
100
AcDbLine
 10
-123.477871784192
 20
-236.0598224195023
 30
0.0
 11
-106.4778321938204
 21
-236.0598224195023
 31
0.0
  0
LINE
  5
C9
330
1F
100
AcDbEntity
  8
E-1
  6
Continuous
 62
     2
370
     9
100
AcDbLine
 10
-123.477871784192
 20
483.9398889007049
 30
0.0
 11
-123.477871784192
 21
-136.0598224195023
 31
0.0
  0
LINE
  5
CA
330
1F
100
AcDbEntity
  8
E-1
  6
Continuous
 62
     2
370
     9
100
AcDbLine
 10
-129.4777926034488
 20
477.9397206416255
 30
0.0
 11
-129.4777926034488
 21
-130.0597778803342
 31
0.0
  0
LINE
  5
CB
330
1F
100
AcDbEntity
  8
E-1
  6
JWW_DASHED3
 62
     2
370
     9
100
AcDbLine
 10
-183.4778841561832
 20
423.9406807081373
 30
0.0
 11
-183.4778841561832
 21
-76.06061422693455
 31
0.0
  0
LWPOLYLINE
  5
CC
330
1F
100
AcDbEntity
  8
E-4
  6
Continuous
 62
     7
370
     9
100
AcDbPolyline
 90
        4
 70
     1
 43
1.0
 10
-742.9778305442217
 20
543.9398889007049
 42
0.4142135623731
 10
-743.4778305442217
 20
544.4398889007049
 42
0.4142135623731
 10
-743.9778305442217
 20
543.9398889007049
 42
0.4142135623731
 10
-743.4778305442217
 20
543.4398889007049
 42
0.4142135623731
  0
LINE
  5
CD
330
1F
100
AcDbEntity
  8
E-4
  6
Continuous
 62
     7
370
     9
100
AcDbLine
 10
-743.4778305442217
 20
545.4398889007048
 30
0.0
 11
-743.4778305442217
 21
493.9398889007049
 31
0.0
  0
LWPOLYLINE
  5
CE
330
1F
100
AcDbEntity
  8
E-4
  6
Continuous
 62
     7
370
     9
100
AcDbPolyline
 90
        4
 70
     1
 43
1.0
 10
-682.9777563122748
 20
-196.0598224195023
 42
0.4142135623731
 10
-683.4777563122748
 20
-195.5598224195023
 42
0.4142135623731
 10
-683.9777563122748
 20
-196.0598224195023
 42
0.4142135623731
 10
-683.4777563122748
 20
-196.5598224195023
 42
0.4142135623731
  0
LINE
  5
CF
330
1F
100
AcDbEntity
  8
E-4
  6
Continuous
 62
     7
370
     9
100
AcDbLine
 10
-683.4777563122748
 20
-197.559822419502
 30
0.0
 11
-683.4777563122748
 21
-86.06061422693455
 31
0.0
  0
LINE
  5
D0
330
1F
100
AcDbEntity
  8
E-4
  6
Continuous
 62
     7
370
     9
100
AcDbLine
 10
-743.4778305442217
 20
-236.0598224195023
 30
0.0
 11
-737.4777860050534
 21
-236.0598224195023
 31
0.0
  0
LWPOLYLINE
  5
D1
330
1F
100
AcDbEntity
  8
E-4
  6
Continuous
 62
     7
370
     9
100
AcDbPolyline
 90
        4
 70
     1
 43
1.0
 10
-742.9778305442217
 20
-236.0598224195023
 42
0.4142135623731
 10
-743.4778305442217
 20
-235.5598224195023
 42
0.4142135623731
 10
-743.9778305442217
 20
-236.0598224195023
 42
0.4142135623731
 10
-743.4778305442217
 20
-236.5598224195023
 42
0.4142135623731
  0
LWPOLYLINE
  5
D2
330
1F
100
AcDbEntity
  8
E-4
  6
Continuous
 62
     7
370
     9
100
AcDbPolyline
 90
        4
 70
     1
 43
1.0
 10
-736.9777860050534
 20
-236.0598224195023
 42
0.4142135623731
 10
-737.4777860050534
 20
-235.5598224195023
 42
0.4142135623731
 10
-737.9777860050534
 20
-236.0598224195023
 42
0.4142135623731
 10
-737.4777860050534
 20
-236.5598224195023
 42
0.4142135623731
  0
LINE
  5
D3
330
1F
100
AcDbEntity
  8
E-4
  6
Continuous
 62
     7
370
     9
100
AcDbLine
 10
-737.4777860050534
 20
-237.559822419502
 30
0.0
 11
-737.4777860050534
 21
-140.0597778803342
 31
0.0
  0
LINE
  5
D4
330
1F
100
AcDbEntity
  8
E-4
  6
Continuous
 62
     7
370
     9
100
AcDbLine
 10
-737.4777860050534
 20
-236.0598224195023
 30
0.0
 11
-733.4777860050533
 21
-236.0598224195023
 31
0.0
  0
LWPOLYLINE
  5
D5
330
1F
100
AcDbEntity
  8
E-4
  6
Continuous
 62
     7
370
     9
100
AcDbPolyline
 90
        4
 70
     1
 43
1.0
 10
-732.9777860050534
 20
-236.0598224195023
 42
0.4142135623731
 10
-733.4777860050533
 20
-235.5598224195023
 42
0.4142135623731
 10
-733.9777860050533
 20
-236.0598224195023
 42
0.4142135623731
 10
-733.4777860050533
 20
-236.5598224195023
 42
0.4142135623731
  0
LINE
  5
D6
330
1F
100
AcDbEntity
  8
E-4
  6
Continuous
 62
     7
370
     9
100
AcDbLine
 10
-733.4777860050533
 20
-237.559822419502
 30
0.0
 11
-733.4777860050533
 21
-136.0602958543629
 31
0.0
  0
LWPOLYLINE
  5
D7
330
1F
100
AcDbEntity
  8
E-4
  6
Continuous
 62
     7
370
     9
100
AcDbPolyline
 90
        4
 70
     1
 43
1.0
 10
-742.9778305442217
 20
-276.0598224195023
 42
0.4142135623731
 10
-743.4778305442217
 20
-275.5598224195023
 42
0.4142135623731
 10
-743.9778305442217
 20
-276.0598224195023
 42
0.4142135623731
 10
-743.4778305442217
 20
-276.5598224195023
 42
0.4142135623731
  0
LINE
  5
D8
330
1F
100
AcDbEntity
  8
E-4
  6
Continuous
 62
     7
370
     9
100
AcDbLine
 10
-743.4778305442217
 20
-277.559822419502
 30
0.0
 11
-743.4778305442217
 21
-146.0598224195023
 31
0.0
  0
TEXT
  5
D9
330
1F
100
AcDbEntity
  8
E-4
  6
Continuous
 62
     2
370
   211
100
AcDbText
 10
-725.4777860050535
 20
-230.2398224195023
 30
0.0
 40
15.24
  1
4
 41
0.9999999999999998
  7
ＭＳ ゴシック
100
AcDbText
  0
TEXT
  5
DA
330
1F
100
AcDbEntity
  8
E-4
  6
Continuous
 62
     2
370
   211
100
AcDbText
 10
-760.4778082746373
 20
-230.2398224195023
 30
0.0
 40
15.24
  1
6
 41
0.9999999999999429
  7
ＭＳ ゴシック
100
AcDbText
  0
LINE
  5
DB
330
1F
100
AcDbEntity
  8
E-4
  6
Continuous
 62
     7
370
     9
100
AcDbLine
 10
-743.4778305442217
 20
-236.0598224195023
 30
0.0
 11
-760.4778082746375
 21
-236.0598224195023
 31
0.0
  0
LINE
  5
DC
330
1F
100
AcDbEntity
  8
E-1
  6
Continuous
 62
     2
370
     9
100
AcDbLine
 10
-743.4778305442217
 20
-136.0598224195023
 30
0.0
 11
-743.4778305442217
 21
483.9398889007049
 31
0.0
  0
LINE
  5
DD
330
1F
100
AcDbEntity
  8
E-1
  6
Continuous
 62
     2
370
     9
100
AcDbLine
 10
-737.4777860050534
 20
-130.0597778803342
 30
0.0
 11
-737.4777860050534
 21
477.9397206416255
 31
0.0
  0
LINE
  5
DE
330
1F
100
AcDbEntity
  8
E-1
  6
JWW_DASHED3
 62
     2
370
     9
100
AcDbLine
 10
-683.4777563122748
 20
-76.06061422693455
 30
0.0
 11
-683.4777563122748
 21
423.9406807081373
 31
0.0
  0
LINE
  5
DF
330
1F
100
AcDbEntity
  8
E-1
  6
Continuous
 62
     2
370
     9
100
AcDbLine
 10
-123.477871784192
 20
483.9398889007049
 30
0.0
 11
-743.4778305442217
 21
483.9398889007049
 31
0.0
  0
LINE
  5
E0
330
1F
100
AcDbEntity
  8
E-1
  6
Continuous
 62
     2
370
     9
100
AcDbLine
 10
-129.4777926034488
 20
477.9397206416255
 30
0.0
 11
-737.4777860050534
 21
477.9397206416255
 31
0.0
  0
LINE
  5
E1
330
1F
100
AcDbEntity
  8
E-1
  6
JWW_DASHED3
 62
     2
370
     9
100
AcDbLine
 10
-183.4778841561832
 20
423.9406807081373
 30
0.0
 11
-683.4777563122748
 21
423.9406807081373
 31
0.0
  0
LINE
  5
E2
330
1F
100
AcDbEntity
  8
E-1
  6
Continuous
 62
     2
370
     9
100
AcDbLine
 10
-129.4777926034488
 20
-130.0597778803342
 30
0.0
 11
-737.4777860050534
 21
-130.0597778803342
 31
0.0
  0
LINE
  5
E3
330
1F
100
AcDbEntity
  8
E-1
  6
Continuous
 62
     2
370
     9
100
AcDbLine
 10
-123.477871784192
 20
-136.0598224195023
 30
0.0
 11
-743.4778305442217
 21
-136.0598224195023
 31
0.0
  0
LINE
  5
E4
330
1F
100
AcDbEntity
  8
E-1
  6
JWW_DASHED3
 62
     2
370
     9
100
AcDbLine
 10
-183.4778841561832
 20
-76.06061422693455
 30
0.0
 11
-683.4777563122748
 21
-76.06061422693455
 31
0.0
  0
LINE
  5
E5
330
1F
100
AcDbEntity
  8
E-4
  6
Continuous
 62
     7
370
     9
100
AcDbLine
 10
-743.4778305442217
 20
543.9398889007049
 30
0.0
 11
-433.4778511642068
 21
543.9398889007049
 31
0.0
  0
TEXT
  5
E6
330
1F
100
AcDbEntity
  8
E-4
  6
Continuous
 62
     2
370
   211
100
AcDbText
 10
-604.7278408542142
 20
549.7598889007049
 30
0.0
 40
15.24
  1
310
 41
1.083333333333333
  7
ＭＳ ゴシック
100
AcDbText
  0
LINE
  5
E7
330
1F
100
AcDbEntity
  8
E-4
  6
Continuous
 62
     7
370
     9
100
AcDbLine
 10
-433.4778511642068
 20
543.9398889007049
 30
0.0
 11
-123.477871784192
 21
543.9398889007049
 31
0.0
  0
TEXT
  5
E8
330
1F
100
AcDbEntity
  8
E-4
  6
Continuous
 62
     2
370
   211
100
AcDbText
 10
-294.7278614741994
 20
549.7598889007049
 30
0.0
 40
15.24
  1
310
 41
1.083333333333333
  7
ＭＳ ゴシック
100
AcDbText
  0
LINE
  5
E9
330
1F
100
AcDbEntity
  8
E-4
  6
Continuous
 62
     7
370
     9
100
AcDbLine
 10
-683.4777563122748
 20
-196.0598224195023
 30
0.0
 11
-183.4778841561832
 21
-196.0598224195023
 31
0.0
  0
TEXT
  5
EA
330
1F
100
AcDbEntity
  8
E-4
  6
Continuous
 62
     2
370
   211
100
AcDbText
 10
-449.727820234229
 20
-190.2398224195023
 30
0.0
 40
15.24
  1
500
 41
1.083333333333333
  7
ＭＳ ゴシック
100
AcDbText
  0
LINE
  5
EB
330
1F
100
AcDbEntity
  8
E-4
  6
Continuous
 62
     7
370
     9
100
AcDbLine
 10
-743.4778305442217
 20
-276.0598224195023
 30
0.0
 11
-123.477871784192
 21
-276.0598224195023
 31
0.0
  0
TEXT
  5
EC
330
1F
100
AcDbEntity
  8
E-4
  6
Continuous
 62
     2
370
   211
100
AcDbText
 10
-449.7278511642069
 20
-270.2398224195023
 30
0.0
 40
15.24
  1
620
 41
1.083333333333333
  7
ＭＳ ゴシック
100
AcDbText
  0
LINE
  5
ED
330
1F
100
AcDbEntity
  8
E-2
  6
Continuous
 62
     3
370
     9
100
AcDbLine
 10
-733.4777860050533
 20
473.9397206416254
 30
0.0
 11
-733.4777860050533
 21
-126.0602958543629
 31
0.0
  0
LINE
  5
EE
330
1F
100
AcDbEntity
  8
E-2
  6
Continuous
 62
     3
370
     9
100
AcDbLine
 10
-713.4776457891539
 20
-73.05975890994748
 30
0.0
 11
-713.4776457891539
 21
20.94007283097294
 31
0.0
  0
LINE
  5
EF
330
1F
100
AcDbEntity
  8
E-2
  6
Continuous
 62
     3
370
     9
100
AcDbLine
 10
-713.4776457891539
 20
-121.5603552399201
 30
0.0
 11
-713.4776457891539
 21
-79.05992716902705
 31
0.0
  0
LINE
  5
F0
330
1F
100
AcDbEntity
  8
E-2
  6
Continuous
 62
     3
370
     9
100
AcDbLine
 10
-718.4773839153416
 20
-73.05975890994748
 30
0.0
 11
-718.4773839153416
 21
20.94007283097294
 31
0.0
  0
LINE
  5
F1
330
1F
100
AcDbEntity
  8
E-2
  6
Continuous
 62
     3
370
     9
100
AcDbLine
 10
-718.4773839153416
 20
-121.5603552399201
 30
0.0
 11
-718.4773839153416
 21
-79.05992716902705
 31
0.0
  0
LINE
  5
F2
330
1F
100
AcDbEntity
  8
E-2
  6
Continuous
 62
     3
370
     9
100
AcDbLine
 10
-713.4776457891539
 20
26.94024109005252
 30
0.0
 11
-713.4776457891539
 21
120.940072830973
 31
0.0
  0
LINE
  5
F3
330
1F
100
AcDbEntity
  8
E-2
  6
Continuous
 62
     3
370
     9
100
AcDbLine
 10
-718.4773839153416
 20
26.94024109005252
 30
0.0
 11
-718.4773839153416
 21
120.940072830973
 31
0.0
  0
LINE
  5
F4
330
1F
100
AcDbEntity
  8
E-2
  6
Continuous
 62
     3
370
     9
100
AcDbLine
 10
-713.4776457891539
 20
126.9399936502297
 30
0.0
 11
-713.4776457891539
 21
220.9399078710913
 31
0.0
  0
LINE
  5
F5
330
1F
100
AcDbEntity
  8
E-2
  6
Continuous
 62
     3
370
     9
100
AcDbLine
 10
-718.4773839153416
 20
126.9399936502297
 30
0.0
 11
-718.4773839153416
 21
220.9399078710913
 31
0.0
  0
LINE
  5
F6
330
1F
100
AcDbEntity
  8
E-2
  6
Continuous
 62
     3
370
     9
100
AcDbLine
 10
-713.4776457891539
 20
226.9400761301708
 30
0.0
 11
-713.4776457891539
 21
320.9399903510324
 31
0.0
  0
LINE
  5
F7
330
1F
100
AcDbEntity
  8
E-2
  6
Continuous
 62
     3
370
     9
100
AcDbLine
 10
-718.4773839153416
 20
226.9400761301708
 30
0.0
 11
-718.4773839153416
 21
320.9399903510324
 31
0.0
  0
LINE
  5
F8
330
1F
100
AcDbEntity
  8
E-2
  6
Continuous
 62
     3
370
     9
100
AcDbLine
 10
-713.4776457891539
 20
426.9399936502299
 30
0.0
 11
-713.4776457891539
 21
469.439037707715
 31
0.0
  0
LINE
  5
F9
330
1F
100
AcDbEntity
  8
E-2
  6
Continuous
 62
     3
370
     9
100
AcDbLine
 10
-718.4773839153416
 20
426.9399936502299
 30
0.0
 11
-718.4773839153416
 21
469.439037707715
 31
0.0
  0
LINE
  5
FA
330
1F
100
AcDbEntity
  8
E-2
  6
Continuous
 62
     3
370
     9
100
AcDbLine
 10
-713.4776457891539
 20
326.9401586101117
 30
0.0
 11
-713.4776457891539
 21
420.9398253911506
 31
0.0
  0
LINE
  5
FB
330
1F
100
AcDbEntity
  8
E-2
  6
Continuous
 62
     3
370
     9
100
AcDbLine
 10
-718.4773839153416
 20
326.9401586101117
 30
0.0
 11
-718.4773839153416
 21
420.9398253911506
 31
0.0
  0
LINE
  5
FC
330
1F
100
AcDbEntity
  8
E-2
  6
Continuous
 62
     3
370
     9
100
AcDbLine
 10
-698.4776457891539
 20
-73.05975890994748
 30
0.0
 11
-698.4776457891539
 21
20.94007283097294
 31
0.0
  0
LINE
  5
FD
330
1F
100
AcDbEntity
  8
E-2
  6
Continuous
 62
     3
370
     9
100
AcDbLine
 10
-698.4776457891539
 20
-121.5603552399201
 30
0.0
 11
-698.4776457891539
 21
-79.05992716902705
 31
0.0
  0
LINE
  5
FE
330
1F
100
AcDbEntity
  8
E-2
  6
Continuous
 62
     3
370
     9
100
AcDbLine
 10
-703.4773839153416
 20
-73.05975890994748
 30
0.0
 11
-703.4773839153416
 21
20.94007283097294
 31
0.0
  0
LINE
  5
FF
330
1F
100
AcDbEntity
  8
E-2
  6
Continuous
 62
     3
370
     9
100
AcDbLine
 10
-703.4773839153416
 20
-121.5603552399201
 30
0.0
 11
-703.4773839153416
 21
-79.05992716902705
 31
0.0
  0
LINE
  5
100
330
1F
100
AcDbEntity
  8
E-2
  6
Continuous
 62
     3
370
     9
100
AcDbLine
 10
-698.4776457891539
 20
26.94024109005252
 30
0.0
 11
-698.4776457891539
 21
120.940072830973
 31
0.0
  0
LINE
  5
101
330
1F
100
AcDbEntity
  8
E-2
  6
Continuous
 62
     3
370
     9
100
AcDbLine
 10
-703.4773839153416
 20
26.94024109005252
 30
0.0
 11
-703.4773839153416
 21
120.940072830973
 31
0.0
  0
LINE
  5
102
330
1F
100
AcDbEntity
  8
E-2
  6
Continuous
 62
     3
370
     9
100
AcDbLine
 10
-698.4776457891539
 20
126.9399936502297
 30
0.0
 11
-698.4776457891539
 21
220.9399078710913
 31
0.0
  0
LINE
  5
103
330
1F
100
AcDbEntity
  8
E-2
  6
Continuous
 62
     3
370
     9
100
AcDbLine
 10
-703.4773839153416
 20
126.9399936502297
 30
0.0
 11
-703.4773839153416
 21
220.9399078710913
 31
0.0
  0
LINE
  5
104
330
1F
100
AcDbEntity
  8
E-2
  6
Continuous
 62
     3
370
     9
100
AcDbLine
 10
-698.4776457891539
 20
226.9400761301708
 30
0.0
 11
-698.4776457891539
 21
320.9399903510324
 31
0.0
  0
LINE
  5
105
330
1F
100
AcDbEntity
  8
E-2
  6
Continuous
 62
     3
370
     9
100
AcDbLine
 10
-703.4773839153416
 20
226.9400761301708
 30
0.0
 11
-703.4773839153416
 21
320.9399903510324
 31
0.0
  0
LINE
  5
106
330
1F
100
AcDbEntity
  8
E-2
  6
Continuous
 62
     3
370
     9
100
AcDbLine
 10
-698.4776457891539
 20
426.9399936502299
 30
0.0
 11
-698.4776457891539
 21
469.439037707715
 31
0.0
  0
LINE
  5
107
330
1F
100
AcDbEntity
  8
E-2
  6
Continuous
 62
     3
370
     9
100
AcDbLine
 10
-703.4773839153416
 20
426.9399936502299
 30
0.0
 11
-703.4773839153416
 21
469.439037707715
 31
0.0
  0
LINE
  5
108
330
1F
100
AcDbEntity
  8
E-2
  6
Continuous
 62
     3
370
     9
100
AcDbLine
 10
-698.4776457891539
 20
326.9401586101117
 30
0.0
 11
-698.4776457891539
 21
420.9398253911506
 31
0.0
  0
LINE
  5
109
330
1F
100
AcDbEntity
  8
E-2
  6
Continuous
 62
     3
370
     9
100
AcDbLine
 10
-703.4773839153416
 20
326.9401586101117
 30
0.0
 11
-703.4773839153416
 21
420.9398253911506
 31
0.0
  0
LINE
  5
10A
330
1F
100
AcDbEntity
  8
E-2
  6
Continuous
 62
     3
370
     9
100
AcDbLine
 10
-683.4776457891539
 20
-73.05975890994748
 30
0.0
 11
-683.4776457891539
 21
20.94007283097294
 31
0.0
  0
LINE
  5
10B
330
1F
100
AcDbEntity
  8
E-2
  6
Continuous
 62
     3
370
     9
100
AcDbLine
 10
-683.4776457891539
 20
-121.5603552399201
 30
0.0
 11
-683.4776457891539
 21
-79.05992716902705
 31
0.0
  0
LINE
  5
10C
330
1F
100
AcDbEntity
  8
E-2
  6
Continuous
 62
     3
370
     9
100
AcDbLine
 10
-688.4773839153416
 20
-73.05975890994748
 30
0.0
 11
-688.4773839153416
 21
20.94007283097294
 31
0.0
  0
LINE
  5
10D
330
1F
100
AcDbEntity
  8
E-2
  6
Continuous
 62
     3
370
     9
100
AcDbLine
 10
-688.4773839153416
 20
-121.5603552399201
 30
0.0
 11
-688.4773839153416
 21
-79.05992716902705
 31
0.0
  0
LINE
  5
10E
330
1F
100
AcDbEntity
  8
E-2
  6
Continuous
 62
     3
370
     9
100
AcDbLine
 10
-683.4776457891539
 20
26.94024109005252
 30
0.0
 11
-683.4776457891539
 21
120.940072830973
 31
0.0
  0
LINE
  5
10F
330
1F
100
AcDbEntity
  8
E-2
  6
Continuous
 62
     3
370
     9
100
AcDbLine
 10
-688.4773839153416
 20
26.94024109005252
 30
0.0
 11
-688.4773839153416
 21
120.940072830973
 31
0.0
  0
LINE
  5
110
330
1F
100
AcDbEntity
  8
E-2
  6
Continuous
 62
     3
370
     9
100
AcDbLine
 10
-683.4776457891539
 20
126.9399936502297
 30
0.0
 11
-683.4776457891539
 21
220.9399078710913
 31
0.0
  0
LINE
  5
111
330
1F
100
AcDbEntity
  8
E-2
  6
Continuous
 62
     3
370
     9
100
AcDbLine
 10
-688.4773839153416
 20
126.9399936502297
 30
0.0
 11
-688.4773839153416
 21
220.9399078710913
 31
0.0
  0
LINE
  5
112
330
1F
100
AcDbEntity
  8
E-2
  6
Continuous
 62
     3
370
     9
100
AcDbLine
 10
-683.4776457891539
 20
226.9400761301708
 30
0.0
 11
-683.4776457891539
 21
320.9399903510324
 31
0.0
  0
LINE
  5
113
330
1F
100
AcDbEntity
  8
E-2
  6
Continuous
 62
     3
370
     9
100
AcDbLine
 10
-688.4773839153416
 20
226.9400761301708
 30
0.0
 11
-688.4773839153416
 21
320.9399903510324
 31
0.0
  0
LINE
  5
114
330
1F
100
AcDbEntity
  8
E-2
  6
Continuous
 62
     3
370
     9
100
AcDbLine
 10
-683.4776457891539
 20
426.9399936502299
 30
0.0
 11
-683.4776457891539
 21
469.439037707715
 31
0.0
  0
LINE
  5
115
330
1F
100
AcDbEntity
  8
E-2
  6
Continuous
 62
     3
370
     9
100
AcDbLine
 10
-688.4773839153416
 20
426.9399936502299
 30
0.0
 11
-688.4773839153416
 21
469.439037707715
 31
0.0
  0
LINE
  5
116
330
1F
100
AcDbEntity
  8
E-2
  6
Continuous
 62
     3
370
     9
100
AcDbLine
 10
-683.4776457891539
 20
326.9401586101117
 30
0.0
 11
-683.4776457891539
 21
420.9398253911506
 31
0.0
  0
LINE
  5
117
330
1F
100
AcDbEntity
  8
E-2
  6
Continuous
 62
     3
370
     9
100
AcDbLine
 10
-688.4773839153416
 20
326.9401586101117
 30
0.0
 11
-688.4773839153416
 21
420.9398253911506
 31
0.0
  0
LINE
  5
118
330
1F
100
AcDbEntity
  8
E-2
  6
Continuous
 62
     3
370
     9
100
AcDbLine
 10
-668.4776457891539
 20
-73.05975890994748
 30
0.0
 11
-668.4776457891539
 21
20.94007283097294
 31
0.0
  0
LINE
  5
119
330
1F
100
AcDbEntity
  8
E-2
  6
Continuous
 62
     3
370
     9
100
AcDbLine
 10
-668.4776457891539
 20
-121.5603552399201
 30
0.0
 11
-668.4776457891539
 21
-79.05992716902705
 31
0.0
  0
LINE
  5
11A
330
1F
100
AcDbEntity
  8
E-2
  6
Continuous
 62
     3
370
     9
100
AcDbLine
 10
-673.4773839153416
 20
-73.05975890994748
 30
0.0
 11
-673.4773839153416
 21
20.94007283097294
 31
0.0
  0
LINE
  5
11B
330
1F
100
AcDbEntity
  8
E-2
  6
Continuous
 62
     3
370
     9
100
AcDbLine
 10
-673.4773839153416
 20
-121.5603552399201
 30
0.0
 11
-673.4773839153416
 21
-79.05992716902705
 31
0.0
  0
LINE
  5
11C
330
1F
100
AcDbEntity
  8
E-2
  6
Continuous
 62
     3
370
     9
100
AcDbLine
 10
-668.4776457891539
 20
26.94024109005252
 30
0.0
 11
-668.4776457891539
 21
120.940072830973
 31
0.0
  0
LINE
  5
11D
330
1F
100
AcDbEntity
  8
E-2
  6
Continuous
 62
     3
370
     9
100
AcDbLine
 10
-673.4773839153416
 20
26.94024109005252
 30
0.0
 11
-673.4773839153416
 21
120.940072830973
 31
0.0
  0
LINE
  5
11E
330
1F
100
AcDbEntity
  8
E-2
  6
Continuous
 62
     3
370
     9
100
AcDbLine
 10
-668.4776457891539
 20
126.9399936502297
 30
0.0
 11
-668.4776457891539
 21
220.9399078710913
 31
0.0
  0
LINE
  5
11F
330
1F
100
AcDbEntity
  8
E-2
  6
Continuous
 62
     3
370
     9
100
AcDbLine
 10
-673.4773839153416
 20
126.9399936502297
 30
0.0
 11
-673.4773839153416
 21
220.9399078710913
 31
0.0
  0
LINE
  5
120
330
1F
100
AcDbEntity
  8
E-2
  6
Continuous
 62
     3
370
     9
100
AcDbLine
 10
-668.4776457891539
 20
226.9400761301708
 30
0.0
 11
-668.4776457891539
 21
320.9399903510324
 31
0.0
  0
LINE
  5
121
330
1F
100
AcDbEntity
  8
E-2
  6
Continuous
 62
     3
370
     9
100
AcDbLine
 10
-673.4773839153416
 20
226.9400761301708
 30
0.0
 11
-673.4773839153416
 21
320.9399903510324
 31
0.0
  0
LINE
  5
122
330
1F
100
AcDbEntity
  8
E-2
  6
Continuous
 62
     3
370
     9
100
AcDbLine
 10
-668.4776457891539
 20
426.9399936502299
 30
0.0
 11
-668.4776457891539
 21
469.439037707715
 31
0.0
  0
LINE
  5
123
330
1F
100
AcDbEntity
  8
E-2
  6
Continuous
 62
     3
370
     9
100
AcDbLine
 10
-673.4773839153416
 20
426.9399936502299
 30
0.0
 11
-673.4773839153416
 21
469.439037707715
 31
0.0
  0
LINE
  5
124
330
1F
100
AcDbEntity
  8
E-2
  6
Continuous
 62
     3
370
     9
100
AcDbLine
 10
-668.4776457891539
 20
326.9401586101117
 30
0.0
 11
-668.4776457891539
 21
420.9398253911506
 31
0.0
  0
LINE
  5
125
330
1F
100
AcDbEntity
  8
E-2
  6
Continuous
 62
     3
370
     9
100
AcDbLine
 10
-673.4773839153416
 20
326.9401586101117
 30
0.0
 11
-673.4773839153416
 21
420.9398253911506
 31
0.0
  0
LINE
  5
126
330
1F
100
AcDbEntity
  8
E-2
  6
Continuous
 62
     3
370
     9
100
AcDbLine
 10
-653.4776457891539
 20
-73.05975890994748
 30
0.0
 11
-653.4776457891539
 21
20.94007283097294
 31
0.0
  0
LINE
  5
127
330
1F
100
AcDbEntity
  8
E-2
  6
Continuous
 62
     3
370
     9
100
AcDbLine
 10
-653.4776457891539
 20
-121.5603552399201
 30
0.0
 11
-653.4776457891539
 21
-79.05992716902705
 31
0.0
  0
LINE
  5
128
330
1F
100
AcDbEntity
  8
E-2
  6
Continuous
 62
     3
370
     9
100
AcDbLine
 10
-658.4773839153416
 20
-73.05975890994748
 30
0.0
 11
-658.4773839153416
 21
20.94007283097294
 31
0.0
  0
LINE
  5
129
330
1F
100
AcDbEntity
  8
E-2
  6
Continuous
 62
     3
370
     9
100
AcDbLine
 10
-658.4773839153416
 20
-121.5603552399201
 30
0.0
 11
-658.4773839153416
 21
-79.05992716902705
 31
0.0
  0
LINE
  5
12A
330
1F
100
AcDbEntity
  8
E-2
  6
Continuous
 62
     3
370
     9
100
AcDbLine
 10
-653.4776457891539
 20
26.94024109005252
 30
0.0
 11
-653.4776457891539
 21
120.940072830973
 31
0.0
  0
LINE
  5
12B
330
1F
100
AcDbEntity
  8
E-2
  6
Continuous
 62
     3
370
     9
100
AcDbLine
 10
-658.4773839153416
 20
26.94024109005252
 30
0.0
 11
-658.4773839153416
 21
120.940072830973
 31
0.0
  0
LINE
  5
12C
330
1F
100
AcDbEntity
  8
E-2
  6
Continuous
 62
     3
370
     9
100
AcDbLine
 10
-653.4776457891539
 20
126.9399936502297
 30
0.0
 11
-653.4776457891539
 21
220.9399078710913
 31
0.0
  0
LINE
  5
12D
330
1F
100
AcDbEntity
  8
E-2
  6
Continuous
 62
     3
370
     9
100
AcDbLine
 10
-658.4773839153416
 20
126.9399936502297
 30
0.0
 11
-658.4773839153416
 21
220.9399078710913
 31
0.0
  0
LINE
  5
12E
330
1F
100
AcDbEntity
  8
E-2
  6
Continuous
 62
     3
370
     9
100
AcDbLine
 10
-653.4776457891539
 20
226.9400761301708
 30
0.0
 11
-653.4776457891539
 21
320.9399903510324
 31
0.0
  0
LINE
  5
12F
330
1F
100
AcDbEntity
  8
E-2
  6
Continuous
 62
     3
370
     9
100
AcDbLine
 10
-658.4773839153416
 20
226.9400761301708
 30
0.0
 11
-658.4773839153416
 21
320.9399903510324
 31
0.0
  0
LINE
  5
130
330
1F
100
AcDbEntity
  8
E-2
  6
Continuous
 62
     3
370
     9
100
AcDbLine
 10
-653.4776457891539
 20
426.9399936502299
 30
0.0
 11
-653.4776457891539
 21
469.439037707715
 31
0.0
  0
LINE
  5
131
330
1F
100
AcDbEntity
  8
E-2
  6
Continuous
 62
     3
370
     9
100
AcDbLine
 10
-658.4773839153416
 20
426.9399936502299
 30
0.0
 11
-658.4773839153416
 21
469.439037707715
 31
0.0
  0
LINE
  5
132
330
1F
100
AcDbEntity
  8
E-2
  6
Continuous
 62
     3
370
     9
100
AcDbLine
 10
-653.4776457891539
 20
326.9401586101117
 30
0.0
 11
-653.4776457891539
 21
420.9398253911506
 31
0.0
  0
LINE
  5
133
330
1F
100
AcDbEntity
  8
E-2
  6
Continuous
 62
     3
370
     9
100
AcDbLine
 10
-658.4773839153416
 20
326.9401586101117
 30
0.0
 11
-658.4773839153416
 21
420.9398253911506
 31
0.0
  0
LINE
  5
134
330
1F
100
AcDbEntity
  8
E-2
  6
Continuous
 62
     3
370
     9
100
AcDbLine
 10
-638.4776457891539
 20
-73.05975890994748
 30
0.0
 11
-638.4776457891539
 21
20.94007283097294
 31
0.0
  0
LINE
  5
135
330
1F
100
AcDbEntity
  8
E-2
  6
Continuous
 62
     3
370
     9
100
AcDbLine
 10
-638.4776457891539
 20
-121.5603552399201
 30
0.0
 11
-638.4776457891539
 21
-79.05992716902705
 31
0.0
  0
LINE
  5
136
330
1F
100
AcDbEntity
  8
E-2
  6
Continuous
 62
     3
370
     9
100
AcDbLine
 10
-643.4773839153416
 20
-73.05975890994748
 30
0.0
 11
-643.4773839153416
 21
20.94007283097294
 31
0.0
  0
LINE
  5
137
330
1F
100
AcDbEntity
  8
E-2
  6
Continuous
 62
     3
370
     9
100
AcDbLine
 10
-643.4773839153416
 20
-121.5603552399201
 30
0.0
 11
-643.4773839153416
 21
-79.05992716902705
 31
0.0
  0
LINE
  5
138
330
1F
100
AcDbEntity
  8
E-2
  6
Continuous
 62
     3
370
     9
100
AcDbLine
 10
-638.4776457891539
 20
26.94024109005252
 30
0.0
 11
-638.4776457891539
 21
120.940072830973
 31
0.0
  0
LINE
  5
139
330
1F
100
AcDbEntity
  8
E-2
  6
Continuous
 62
     3
370
     9
100
AcDbLine
 10
-643.4773839153416
 20
26.94024109005252
 30
0.0
 11
-643.4773839153416
 21
120.940072830973
 31
0.0
  0
LINE
  5
13A
330
1F
100
AcDbEntity
  8
E-2
  6
Continuous
 62
     3
370
     9
100
AcDbLine
 10
-638.4776457891539
 20
126.9399936502297
 30
0.0
 11
-638.4776457891539
 21
220.9399078710913
 31
0.0
  0
LINE
  5
13B
330
1F
100
AcDbEntity
  8
E-2
  6
Continuous
 62
     3
370
     9
100
AcDbLine
 10
-643.4773839153416
 20
126.9399936502297
 30
0.0
 11
-643.4773839153416
 21
220.9399078710913
 31
0.0
  0
LINE
  5
13C
330
1F
100
AcDbEntity
  8
E-2
  6
Continuous
 62
     3
370
     9
100
AcDbLine
 10
-638.4776457891539
 20
226.9400761301708
 30
0.0
 11
-638.4776457891539
 21
320.9399903510324
 31
0.0
  0
LINE
  5
13D
330
1F
100
AcDbEntity
  8
E-2
  6
Continuous
 62
     3
370
     9
100
AcDbLine
 10
-643.4773839153416
 20
226.9400761301708
 30
0.0
 11
-643.4773839153416
 21
320.9399903510324
 31
0.0
  0
LINE
  5
13E
330
1F
100
AcDbEntity
  8
E-2
  6
Continuous
 62
     3
370
     9
100
AcDbLine
 10
-638.4776457891539
 20
426.9399936502299
 30
0.0
 11
-638.4776457891539
 21
469.439037707715
 31
0.0
  0
LINE
  5
13F
330
1F
100
AcDbEntity
  8
E-2
  6
Continuous
 62
     3
370
     9
100
AcDbLine
 10
-643.4773839153416
 20
426.9399936502299
 30
0.0
 11
-643.4773839153416
 21
469.439037707715
 31
0.0
  0
LINE
  5
140
330
1F
100
AcDbEntity
  8
E-2
  6
Continuous
 62
     3
370
     9
100
AcDbLine
 10
-638.4776457891539
 20
326.9401586101117
 30
0.0
 11
-638.4776457891539
 21
420.9398253911506
 31
0.0
  0
LINE
  5
141
330
1F
100
AcDbEntity
  8
E-2
  6
Continuous
 62
     3
370
     9
100
AcDbLine
 10
-643.4773839153416
 20
326.9401586101117
 30
0.0
 11
-643.4773839153416
 21
420.9398253911506
 31
0.0
  0
LINE
  5
142
330
1F
100
AcDbEntity
  8
E-2
  6
Continuous
 62
     3
370
     9
100
AcDbLine
 10
-623.4776457891539
 20
-73.05975890994748
 30
0.0
 11
-623.4776457891539
 21
20.94007283097294
 31
0.0
  0
LINE
  5
143
330
1F
100
AcDbEntity
  8
E-2
  6
Continuous
 62
     3
370
     9
100
AcDbLine
 10
-623.4776457891539
 20
-121.5603552399201
 30
0.0
 11
-623.4776457891539
 21
-79.05992716902705
 31
0.0
  0
LINE
  5
144
330
1F
100
AcDbEntity
  8
E-2
  6
Continuous
 62
     3
370
     9
100
AcDbLine
 10
-628.4773839153418
 20
-73.05975890994748
 30
0.0
 11
-628.4773839153418
 21
20.94007283097294
 31
0.0
  0
LINE
  5
145
330
1F
100
AcDbEntity
  8
E-2
  6
Continuous
 62
     3
370
     9
100
AcDbLine
 10
-628.4773839153418
 20
-121.5603552399201
 30
0.0
 11
-628.4773839153418
 21
-79.05992716902705
 31
0.0
  0
LINE
  5
146
330
1F
100
AcDbEntity
  8
E-2
  6
Continuous
 62
     3
370
     9
100
AcDbLine
 10
-623.4776457891539
 20
26.94024109005252
 30
0.0
 11
-623.4776457891539
 21
120.940072830973
 31
0.0
  0
LINE
  5
147
330
1F
100
AcDbEntity
  8
E-2
  6
Continuous
 62
     3
370
     9
100
AcDbLine
 10
-628.4773839153418
 20
26.94024109005252
 30
0.0
 11
-628.4773839153418
 21
120.940072830973
 31
0.0
  0
LINE
  5
148
330
1F
100
AcDbEntity
  8
E-2
  6
Continuous
 62
     3
370
     9
100
AcDbLine
 10
-623.4776457891539
 20
126.9399936502297
 30
0.0
 11
-623.4776457891539
 21
220.9399078710913
 31
0.0
  0
LINE
  5
149
330
1F
100
AcDbEntity
  8
E-2
  6
Continuous
 62
     3
370
     9
100
AcDbLine
 10
-628.4773839153418
 20
126.9399936502297
 30
0.0
 11
-628.4773839153418
 21
220.9399078710913
 31
0.0
  0
LINE
  5
14A
330
1F
100
AcDbEntity
  8
E-2
  6
Continuous
 62
     3
370
     9
100
AcDbLine
 10
-623.4776457891539
 20
226.9400761301708
 30
0.0
 11
-623.4776457891539
 21
320.9399903510324
 31
0.0
  0
LINE
  5
14B
330
1F
100
AcDbEntity
  8
E-2
  6
Continuous
 62
     3
370
     9
100
AcDbLine
 10
-628.4773839153418
 20
226.9400761301708
 30
0.0
 11
-628.4773839153418
 21
320.9399903510324
 31
0.0
  0
LINE
  5
14C
330
1F
100
AcDbEntity
  8
E-2
  6
Continuous
 62
     3
370
     9
100
AcDbLine
 10
-623.4776457891539
 20
426.9399936502299
 30
0.0
 11
-623.4776457891539
 21
469.439037707715
 31
0.0
  0
LINE
  5
14D
330
1F
100
AcDbEntity
  8
E-2
  6
Continuous
 62
     3
370
     9
100
AcDbLine
 10
-628.4773839153418
 20
426.9399936502299
 30
0.0
 11
-628.4773839153418
 21
469.439037707715
 31
0.0
  0
LINE
  5
14E
330
1F
100
AcDbEntity
  8
E-2
  6
Continuous
 62
     3
370
     9
100
AcDbLine
 10
-623.4776457891539
 20
326.9401586101117
 30
0.0
 11
-623.4776457891539
 21
420.9398253911506
 31
0.0
  0
LINE
  5
14F
330
1F
100
AcDbEntity
  8
E-2
  6
Continuous
 62
     3
370
     9
100
AcDbLine
 10
-628.4773839153418
 20
326.9401586101117
 30
0.0
 11
-628.4773839153418
 21
420.9398253911506
 31
0.0
  0
LINE
  5
150
330
1F
100
AcDbEntity
  8
E-2
  6
Continuous
 62
     3
370
     9
100
AcDbLine
 10
-608.4776457891539
 20
-73.05975890994748
 30
0.0
 11
-608.4776457891539
 21
20.94007283097294
 31
0.0
  0
LINE
  5
151
330
1F
100
AcDbEntity
  8
E-2
  6
Continuous
 62
     3
370
     9
100
AcDbLine
 10
-608.4776457891539
 20
-121.5603552399201
 30
0.0
 11
-608.4776457891539
 21
-79.05992716902705
 31
0.0
  0
LINE
  5
152
330
1F
100
AcDbEntity
  8
E-2
  6
Continuous
 62
     3
370
     9
100
AcDbLine
 10
-613.4773839153418
 20
-73.05975890994748
 30
0.0
 11
-613.4773839153418
 21
20.94007283097294
 31
0.0
  0
LINE
  5
153
330
1F
100
AcDbEntity
  8
E-2
  6
Continuous
 62
     3
370
     9
100
AcDbLine
 10
-613.4773839153418
 20
-121.5603552399201
 30
0.0
 11
-613.4773839153418
 21
-79.05992716902705
 31
0.0
  0
LINE
  5
154
330
1F
100
AcDbEntity
  8
E-2
  6
Continuous
 62
     3
370
     9
100
AcDbLine
 10
-608.4776457891539
 20
26.94024109005252
 30
0.0
 11
-608.4776457891539
 21
120.940072830973
 31
0.0
  0
LINE
  5
155
330
1F
100
AcDbEntity
  8
E-2
  6
Continuous
 62
     3
370
     9
100
AcDbLine
 10
-613.4773839153418
 20
26.94024109005252
 30
0.0
 11
-613.4773839153418
 21
120.940072830973
 31
0.0
  0
LINE
  5
156
330
1F
100
AcDbEntity
  8
E-2
  6
Continuous
 62
     3
370
     9
100
AcDbLine
 10
-608.4776457891539
 20
126.9399936502297
 30
0.0
 11
-608.4776457891539
 21
220.9399078710913
 31
0.0
  0
LINE
  5
157
330
1F
100
AcDbEntity
  8
E-2
  6
Continuous
 62
     3
370
     9
100
AcDbLine
 10
-613.4773839153418
 20
126.9399936502297
 30
0.0
 11
-613.4773839153418
 21
220.9399078710913
 31
0.0
  0
LINE
  5
158
330
1F
100
AcDbEntity
  8
E-2
  6
Continuous
 62
     3
370
     9
100
AcDbLine
 10
-608.4776457891539
 20
226.9400761301708
 30
0.0
 11
-608.4776457891539
 21
320.9399903510324
 31
0.0
  0
LINE
  5
159
330
1F
100
AcDbEntity
  8
E-2
  6
Continuous
 62
     3
370
     9
100
AcDbLine
 10
-613.4773839153418
 20
226.9400761301708
 30
0.0
 11
-613.4773839153418
 21
320.9399903510324
 31
0.0
  0
LINE
  5
15A
330
1F
100
AcDbEntity
  8
E-2
  6
Continuous
 62
     3
370
     9
100
AcDbLine
 10
-608.4776457891539
 20
426.9399936502299
 30
0.0
 11
-608.4776457891539
 21
469.439037707715
 31
0.0
  0
LINE
  5
15B
330
1F
100
AcDbEntity
  8
E-2
  6
Continuous
 62
     3
370
     9
100
AcDbLine
 10
-613.4773839153418
 20
426.9399936502299
 30
0.0
 11
-613.4773839153418
 21
469.439037707715
 31
0.0
  0
LINE
  5
15C
330
1F
100
AcDbEntity
  8
E-2
  6
Continuous
 62
     3
370
     9
100
AcDbLine
 10
-608.4776457891539
 20
326.9401586101117
 30
0.0
 11
-608.4776457891539
 21
420.9398253911506
 31
0.0
  0
LINE
  5
15D
330
1F
100
AcDbEntity
  8
E-2
  6
Continuous
 62
     3
370
     9
100
AcDbLine
 10
-613.4773839153418
 20
326.9401586101117
 30
0.0
 11
-613.4773839153418
 21
420.9398253911506
 31
0.0
  0
LINE
  5
15E
330
1F
100
AcDbEntity
  8
E-2
  6
Continuous
 62
     3
370
     9
100
AcDbLine
 10
-593.4776457891539
 20
-73.05975890994748
 30
0.0
 11
-593.4776457891539
 21
20.94007283097294
 31
0.0
  0
LINE
  5
15F
330
1F
100
AcDbEntity
  8
E-2
  6
Continuous
 62
     3
370
     9
100
AcDbLine
 10
-593.4776457891539
 20
-121.5603552399201
 30
0.0
 11
-593.4776457891539
 21
-79.05992716902705
 31
0.0
  0
LINE
  5
160
330
1F
100
AcDbEntity
  8
E-2
  6
Continuous
 62
     3
370
     9
100
AcDbLine
 10
-598.4773839153418
 20
-73.05975890994748
 30
0.0
 11
-598.4773839153418
 21
20.94007283097294
 31
0.0
  0
LINE
  5
161
330
1F
100
AcDbEntity
  8
E-2
  6
Continuous
 62
     3
370
     9
100
AcDbLine
 10
-598.4773839153418
 20
-121.5603552399201
 30
0.0
 11
-598.4773839153418
 21
-79.05992716902705
 31
0.0
  0
LINE
  5
162
330
1F
100
AcDbEntity
  8
E-2
  6
Continuous
 62
     3
370
     9
100
AcDbLine
 10
-593.4776457891539
 20
26.94024109005252
 30
0.0
 11
-593.4776457891539
 21
120.940072830973
 31
0.0
  0
LINE
  5
163
330
1F
100
AcDbEntity
  8
E-2
  6
Continuous
 62
     3
370
     9
100
AcDbLine
 10
-598.4773839153418
 20
26.94024109005252
 30
0.0
 11
-598.4773839153418
 21
120.940072830973
 31
0.0
  0
LINE
  5
164
330
1F
100
AcDbEntity
  8
E-2
  6
Continuous
 62
     3
370
     9
100
AcDbLine
 10
-593.4776457891539
 20
126.9399936502297
 30
0.0
 11
-593.4776457891539
 21
220.9399078710913
 31
0.0
  0
LINE
  5
165
330
1F
100
AcDbEntity
  8
E-2
  6
Continuous
 62
     3
370
     9
100
AcDbLine
 10
-598.4773839153418
 20
126.9399936502297
 30
0.0
 11
-598.4773839153418
 21
220.9399078710913
 31
0.0
  0
LINE
  5
166
330
1F
100
AcDbEntity
  8
E-2
  6
Continuous
 62
     3
370
     9
100
AcDbLine
 10
-593.4776457891539
 20
226.9400761301708
 30
0.0
 11
-593.4776457891539
 21
320.9399903510324
 31
0.0
  0
LINE
  5
167
330
1F
100
AcDbEntity
  8
E-2
  6
Continuous
 62
     3
370
     9
100
AcDbLine
 10
-598.4773839153418
 20
226.9400761301708
 30
0.0
 11
-598.4773839153418
 21
320.9399903510324
 31
0.0
  0
LINE
  5
168
330
1F
100
AcDbEntity
  8
E-2
  6
Continuous
 62
     3
370
     9
100
AcDbLine
 10
-593.4776457891539
 20
426.9399936502299
 30
0.0
 11
-593.4776457891539
 21
469.439037707715
 31
0.0
  0
LINE
  5
169
330
1F
100
AcDbEntity
  8
E-2
  6
Continuous
 62
     3
370
     9
100
AcDbLine
 10
-598.4773839153418
 20
426.9399936502299
 30
0.0
 11
-598.4773839153418
 21
469.439037707715
 31
0.0
  0
LINE
  5
16A
330
1F
100
AcDbEntity
  8
E-2
  6
Continuous
 62
     3
370
     9
100
AcDbLine
 10
-593.4776457891539
 20
326.9401586101117
 30
0.0
 11
-593.4776457891539
 21
420.9398253911506
 31
0.0
  0
LINE
  5
16B
330
1F
100
AcDbEntity
  8
E-2
  6
Continuous
 62
     3
370
     9
100
AcDbLine
 10
-598.4773839153418
 20
326.9401586101117
 30
0.0
 11
-598.4773839153418
 21
420.9398253911506
 31
0.0
  0
LINE
  5
16C
330
1F
100
AcDbEntity
  8
E-2
  6
Continuous
 62
     3
370
     9
100
AcDbLine
 10
-578.4776457891539
 20
-73.05975890994748
 30
0.0
 11
-578.4776457891539
 21
20.94007283097294
 31
0.0
  0
LINE
  5
16D
330
1F
100
AcDbEntity
  8
E-2
  6
Continuous
 62
     3
370
     9
100
AcDbLine
 10
-578.4776457891539
 20
-121.5603552399201
 30
0.0
 11
-578.4776457891539
 21
-79.05992716902705
 31
0.0
  0
LINE
  5
16E
330
1F
100
AcDbEntity
  8
E-2
  6
Continuous
 62
     3
370
     9
100
AcDbLine
 10
-583.4773839153418
 20
-73.05975890994748
 30
0.0
 11
-583.4773839153418
 21
20.94007283097294
 31
0.0
  0
LINE
  5
16F
330
1F
100
AcDbEntity
  8
E-2
  6
Continuous
 62
     3
370
     9
100
AcDbLine
 10
-583.4773839153418
 20
-121.5603552399201
 30
0.0
 11
-583.4773839153418
 21
-79.05992716902705
 31
0.0
  0
LINE
  5
170
330
1F
100
AcDbEntity
  8
E-2
  6
Continuous
 62
     3
370
     9
100
AcDbLine
 10
-578.4776457891539
 20
26.94024109005252
 30
0.0
 11
-578.4776457891539
 21
120.940072830973
 31
0.0
  0
LINE
  5
171
330
1F
100
AcDbEntity
  8
E-2
  6
Continuous
 62
     3
370
     9
100
AcDbLine
 10
-583.4773839153418
 20
26.94024109005252
 30
0.0
 11
-583.4773839153418
 21
120.940072830973
 31
0.0
  0
LINE
  5
172
330
1F
100
AcDbEntity
  8
E-2
  6
Continuous
 62
     3
370
     9
100
AcDbLine
 10
-578.4776457891539
 20
126.9399936502297
 30
0.0
 11
-578.4776457891539
 21
220.9399078710913
 31
0.0
  0
LINE
  5
173
330
1F
100
AcDbEntity
  8
E-2
  6
Continuous
 62
     3
370
     9
100
AcDbLine
 10
-583.4773839153418
 20
126.9399936502297
 30
0.0
 11
-583.4773839153418
 21
220.9399078710913
 31
0.0
  0
LINE
  5
174
330
1F
100
AcDbEntity
  8
E-2
  6
Continuous
 62
     3
370
     9
100
AcDbLine
 10
-578.4776457891539
 20
226.9400761301708
 30
0.0
 11
-578.4776457891539
 21
320.9399903510324
 31
0.0
  0
LINE
  5
175
330
1F
100
AcDbEntity
  8
E-2
  6
Continuous
 62
     3
370
     9
100
AcDbLine
 10
-583.4773839153418
 20
226.9400761301708
 30
0.0
 11
-583.4773839153418
 21
320.9399903510324
 31
0.0
  0
LINE
  5
176
330
1F
100
AcDbEntity
  8
E-2
  6
Continuous
 62
     3
370
     9
100
AcDbLine
 10
-578.4776457891539
 20
426.9399936502299
 30
0.0
 11
-578.4776457891539
 21
469.439037707715
 31
0.0
  0
LINE
  5
177
330
1F
100
AcDbEntity
  8
E-2
  6
Continuous
 62
     3
370
     9
100
AcDbLine
 10
-583.4773839153418
 20
426.9399936502299
 30
0.0
 11
-583.4773839153418
 21
469.439037707715
 31
0.0
  0
LINE
  5
178
330
1F
100
AcDbEntity
  8
E-2
  6
Continuous
 62
     3
370
     9
100
AcDbLine
 10
-578.4776457891539
 20
326.9401586101117
 30
0.0
 11
-578.4776457891539
 21
420.9398253911506
 31
0.0
  0
LINE
  5
179
330
1F
100
AcDbEntity
  8
E-2
  6
Continuous
 62
     3
370
     9
100
AcDbLine
 10
-583.4773839153418
 20
326.9401586101117
 30
0.0
 11
-583.4773839153418
 21
420.9398253911506
 31
0.0
  0
LINE
  5
17A
330
1F
100
AcDbEntity
  8
E-2
  6
Continuous
 62
     3
370
     9
100
AcDbLine
 10
-563.4776457891539
 20
-73.05975890994748
 30
0.0
 11
-563.4776457891539
 21
20.94007283097294
 31
0.0
  0
LINE
  5
17B
330
1F
100
AcDbEntity
  8
E-2
  6
Continuous
 62
     3
370
     9
100
AcDbLine
 10
-563.4776457891539
 20
-121.5603552399201
 30
0.0
 11
-563.4776457891539
 21
-79.05992716902705
 31
0.0
  0
LINE
  5
17C
330
1F
100
AcDbEntity
  8
E-2
  6
Continuous
 62
     3
370
     9
100
AcDbLine
 10
-568.4773839153418
 20
-73.05975890994748
 30
0.0
 11
-568.4773839153418
 21
20.94007283097294
 31
0.0
  0
LINE
  5
17D
330
1F
100
AcDbEntity
  8
E-2
  6
Continuous
 62
     3
370
     9
100
AcDbLine
 10
-568.4773839153418
 20
-121.5603552399201
 30
0.0
 11
-568.4773839153418
 21
-79.05992716902705
 31
0.0
  0
LINE
  5
17E
330
1F
100
AcDbEntity
  8
E-2
  6
Continuous
 62
     3
370
     9
100
AcDbLine
 10
-563.4776457891539
 20
26.94024109005252
 30
0.0
 11
-563.4776457891539
 21
120.940072830973
 31
0.0
  0
LINE
  5
17F
330
1F
100
AcDbEntity
  8
E-2
  6
Continuous
 62
     3
370
     9
100
AcDbLine
 10
-568.4773839153418
 20
26.94024109005252
 30
0.0
 11
-568.4773839153418
 21
120.940072830973
 31
0.0
  0
LINE
  5
180
330
1F
100
AcDbEntity
  8
E-2
  6
Continuous
 62
     3
370
     9
100
AcDbLine
 10
-563.4776457891539
 20
126.9399936502297
 30
0.0
 11
-563.4776457891539
 21
220.9399078710913
 31
0.0
  0
LINE
  5
181
330
1F
100
AcDbEntity
  8
E-2
  6
Continuous
 62
     3
370
     9
100
AcDbLine
 10
-568.4773839153418
 20
126.9399936502297
 30
0.0
 11
-568.4773839153418
 21
220.9399078710913
 31
0.0
  0
LINE
  5
182
330
1F
100
AcDbEntity
  8
E-2
  6
Continuous
 62
     3
370
     9
100
AcDbLine
 10
-563.4776457891539
 20
226.9400761301708
 30
0.0
 11
-563.4776457891539
 21
320.9399903510324
 31
0.0
  0
LINE
  5
183
330
1F
100
AcDbEntity
  8
E-2
  6
Continuous
 62
     3
370
     9
100
AcDbLine
 10
-568.4773839153418
 20
226.9400761301708
 30
0.0
 11
-568.4773839153418
 21
320.9399903510324
 31
0.0
  0
LINE
  5
184
330
1F
100
AcDbEntity
  8
E-2
  6
Continuous
 62
     3
370
     9
100
AcDbLine
 10
-563.4776457891539
 20
426.9399936502299
 30
0.0
 11
-563.4776457891539
 21
469.439037707715
 31
0.0
  0
LINE
  5
185
330
1F
100
AcDbEntity
  8
E-2
  6
Continuous
 62
     3
370
     9
100
AcDbLine
 10
-568.4773839153418
 20
426.9399936502299
 30
0.0
 11
-568.4773839153418
 21
469.439037707715
 31
0.0
  0
LINE
  5
186
330
1F
100
AcDbEntity
  8
E-2
  6
Continuous
 62
     3
370
     9
100
AcDbLine
 10
-563.4776457891539
 20
326.9401586101117
 30
0.0
 11
-563.4776457891539
 21
420.9398253911506
 31
0.0
  0
LINE
  5
187
330
1F
100
AcDbEntity
  8
E-2
  6
Continuous
 62
     3
370
     9
100
AcDbLine
 10
-568.4773839153418
 20
326.9401586101117
 30
0.0
 11
-568.4773839153418
 21
420.9398253911506
 31
0.0
  0
LINE
  5
188
330
1F
100
AcDbEntity
  8
E-2
  6
Continuous
 62
     3
370
     9
100
AcDbLine
 10
-548.4776457891539
 20
-73.05975890994748
 30
0.0
 11
-548.4776457891539
 21
20.94007283097294
 31
0.0
  0
LINE
  5
189
330
1F
100
AcDbEntity
  8
E-2
  6
Continuous
 62
     3
370
     9
100
AcDbLine
 10
-548.4776457891539
 20
-121.5603552399201
 30
0.0
 11
-548.4776457891539
 21
-79.05992716902705
 31
0.0
  0
LINE
  5
18A
330
1F
100
AcDbEntity
  8
E-2
  6
Continuous
 62
     3
370
     9
100
AcDbLine
 10
-553.4773839153418
 20
-73.05975890994748
 30
0.0
 11
-553.4773839153418
 21
20.94007283097294
 31
0.0
  0
LINE
  5
18B
330
1F
100
AcDbEntity
  8
E-2
  6
Continuous
 62
     3
370
     9
100
AcDbLine
 10
-553.4773839153418
 20
-121.5603552399201
 30
0.0
 11
-553.4773839153418
 21
-79.05992716902705
 31
0.0
  0
LINE
  5
18C
330
1F
100
AcDbEntity
  8
E-2
  6
Continuous
 62
     3
370
     9
100
AcDbLine
 10
-548.4776457891539
 20
26.94024109005252
 30
0.0
 11
-548.4776457891539
 21
120.940072830973
 31
0.0
  0
LINE
  5
18D
330
1F
100
AcDbEntity
  8
E-2
  6
Continuous
 62
     3
370
     9
100
AcDbLine
 10
-553.4773839153418
 20
26.94024109005252
 30
0.0
 11
-553.4773839153418
 21
120.940072830973
 31
0.0
  0
LINE
  5
18E
330
1F
100
AcDbEntity
  8
E-2
  6
Continuous
 62
     3
370
     9
100
AcDbLine
 10
-548.4776457891539
 20
126.9399936502297
 30
0.0
 11
-548.4776457891539
 21
220.9399078710913
 31
0.0
  0
LINE
  5
18F
330
1F
100
AcDbEntity
  8
E-2
  6
Continuous
 62
     3
370
     9
100
AcDbLine
 10
-553.4773839153418
 20
126.9399936502297
 30
0.0
 11
-553.4773839153418
 21
220.9399078710913
 31
0.0
  0
LINE
  5
190
330
1F
100
AcDbEntity
  8
E-2
  6
Continuous
 62
     3
370
     9
100
AcDbLine
 10
-548.4776457891539
 20
226.9400761301708
 30
0.0
 11
-548.4776457891539
 21
320.9399903510324
 31
0.0
  0
LINE
  5
191
330
1F
100
AcDbEntity
  8
E-2
  6
Continuous
 62
     3
370
     9
100
AcDbLine
 10
-553.4773839153418
 20
226.9400761301708
 30
0.0
 11
-553.4773839153418
 21
320.9399903510324
 31
0.0
  0
LINE
  5
192
330
1F
100
AcDbEntity
  8
E-2
  6
Continuous
 62
     3
370
     9
100
AcDbLine
 10
-548.4776457891539
 20
426.9399936502299
 30
0.0
 11
-548.4776457891539
 21
469.439037707715
 31
0.0
  0
LINE
  5
193
330
1F
100
AcDbEntity
  8
E-2
  6
Continuous
 62
     3
370
     9
100
AcDbLine
 10
-553.4773839153418
 20
426.9399936502299
 30
0.0
 11
-553.4773839153418
 21
469.439037707715
 31
0.0
  0
LINE
  5
194
330
1F
100
AcDbEntity
  8
E-2
  6
Continuous
 62
     3
370
     9
100
AcDbLine
 10
-548.4776457891539
 20
326.9401586101117
 30
0.0
 11
-548.4776457891539
 21
420.9398253911506
 31
0.0
  0
LINE
  5
195
330
1F
100
AcDbEntity
  8
E-2
  6
Continuous
 62
     3
370
     9
100
AcDbLine
 10
-553.4773839153418
 20
326.9401586101117
 30
0.0
 11
-553.4773839153418
 21
420.9398253911506
 31
0.0
  0
LINE
  5
196
330
1F
100
AcDbEntity
  8
E-2
  6
Continuous
 62
     3
370
     9
100
AcDbLine
 10
-533.4776457891539
 20
-73.05975890994748
 30
0.0
 11
-533.4776457891539
 21
20.94007283097294
 31
0.0
  0
LINE
  5
197
330
1F
100
AcDbEntity
  8
E-2
  6
Continuous
 62
     3
370
     9
100
AcDbLine
 10
-533.4776457891539
 20
-121.5603552399201
 30
0.0
 11
-533.4776457891539
 21
-79.05992716902705
 31
0.0
  0
LINE
  5
198
330
1F
100
AcDbEntity
  8
E-2
  6
Continuous
 62
     3
370
     9
100
AcDbLine
 10
-538.4773839153418
 20
-73.05975890994748
 30
0.0
 11
-538.4773839153418
 21
20.94007283097294
 31
0.0
  0
LINE
  5
199
330
1F
100
AcDbEntity
  8
E-2
  6
Continuous
 62
     3
370
     9
100
AcDbLine
 10
-538.4773839153418
 20
-121.5603552399201
 30
0.0
 11
-538.4773839153418
 21
-79.05992716902705
 31
0.0
  0
LINE
  5
19A
330
1F
100
AcDbEntity
  8
E-2
  6
Continuous
 62
     3
370
     9
100
AcDbLine
 10
-533.4776457891539
 20
26.94024109005252
 30
0.0
 11
-533.4776457891539
 21
120.940072830973
 31
0.0
  0
LINE
  5
19B
330
1F
100
AcDbEntity
  8
E-2
  6
Continuous
 62
     3
370
     9
100
AcDbLine
 10
-538.4773839153418
 20
26.94024109005252
 30
0.0
 11
-538.4773839153418
 21
120.940072830973
 31
0.0
  0
LINE
  5
19C
330
1F
100
AcDbEntity
  8
E-2
  6
Continuous
 62
     3
370
     9
100
AcDbLine
 10
-533.4776457891539
 20
126.9399936502297
 30
0.0
 11
-533.4776457891539
 21
220.9399078710913
 31
0.0
  0
LINE
  5
19D
330
1F
100
AcDbEntity
  8
E-2
  6
Continuous
 62
     3
370
     9
100
AcDbLine
 10
-538.4773839153418
 20
126.9399936502297
 30
0.0
 11
-538.4773839153418
 21
220.9399078710913
 31
0.0
  0
LINE
  5
19E
330
1F
100
AcDbEntity
  8
E-2
  6
Continuous
 62
     3
370
     9
100
AcDbLine
 10
-533.4776457891539
 20
226.9400761301708
 30
0.0
 11
-533.4776457891539
 21
320.9399903510324
 31
0.0
  0
LINE
  5
19F
330
1F
100
AcDbEntity
  8
E-2
  6
Continuous
 62
     3
370
     9
100
AcDbLine
 10
-538.4773839153418
 20
226.9400761301708
 30
0.0
 11
-538.4773839153418
 21
320.9399903510324
 31
0.0
  0
LINE
  5
1A0
330
1F
100
AcDbEntity
  8
E-2
  6
Continuous
 62
     3
370
     9
100
AcDbLine
 10
-533.4776457891539
 20
426.9399936502299
 30
0.0
 11
-533.4776457891539
 21
469.439037707715
 31
0.0
  0
LINE
  5
1A1
330
1F
100
AcDbEntity
  8
E-2
  6
Continuous
 62
     3
370
     9
100
AcDbLine
 10
-538.4773839153418
 20
426.9399936502299
 30
0.0
 11
-538.4773839153418
 21
469.439037707715
 31
0.0
  0
LINE
  5
1A2
330
1F
100
AcDbEntity
  8
E-2
  6
Continuous
 62
     3
370
     9
100
AcDbLine
 10
-533.4776457891539
 20
326.9401586101117
 30
0.0
 11
-533.4776457891539
 21
420.9398253911506
 31
0.0
  0
LINE
  5
1A3
330
1F
100
AcDbEntity
  8
E-2
  6
Continuous
 62
     3
370
     9
100
AcDbLine
 10
-538.4773839153418
 20
326.9401586101117
 30
0.0
 11
-538.4773839153418
 21
420.9398253911506
 31
0.0
  0
LINE
  5
1A4
330
1F
100
AcDbEntity
  8
E-2
  6
Continuous
 62
     3
370
     9
100
AcDbLine
 10
-518.4776457891539
 20
-73.05975890994748
 30
0.0
 11
-518.4776457891539
 21
20.94007283097294
 31
0.0
  0
LINE
  5
1A5
330
1F
100
AcDbEntity
  8
E-2
  6
Continuous
 62
     3
370
     9
100
AcDbLine
 10
-518.4776457891539
 20
-121.5603552399201
 30
0.0
 11
-518.4776457891539
 21
-79.05992716902705
 31
0.0
  0
LINE
  5
1A6
330
1F
100
AcDbEntity
  8
E-2
  6
Continuous
 62
     3
370
     9
100
AcDbLine
 10
-523.4773839153418
 20
-73.05975890994748
 30
0.0
 11
-523.4773839153418
 21
20.94007283097294
 31
0.0
  0
LINE
  5
1A7
330
1F
100
AcDbEntity
  8
E-2
  6
Continuous
 62
     3
370
     9
100
AcDbLine
 10
-523.4773839153418
 20
-121.5603552399201
 30
0.0
 11
-523.4773839153418
 21
-79.05992716902705
 31
0.0
  0
LINE
  5
1A8
330
1F
100
AcDbEntity
  8
E-2
  6
Continuous
 62
     3
370
     9
100
AcDbLine
 10
-518.4776457891539
 20
26.94024109005252
 30
0.0
 11
-518.4776457891539
 21
120.940072830973
 31
0.0
  0
LINE
  5
1A9
330
1F
100
AcDbEntity
  8
E-2
  6
Continuous
 62
     3
370
     9
100
AcDbLine
 10
-523.4773839153418
 20
26.94024109005252
 30
0.0
 11
-523.4773839153418
 21
120.940072830973
 31
0.0
  0
LINE
  5
1AA
330
1F
100
AcDbEntity
  8
E-2
  6
Continuous
 62
     3
370
     9
100
AcDbLine
 10
-518.4776457891539
 20
126.9399936502297
 30
0.0
 11
-518.4776457891539
 21
220.9399078710913
 31
0.0
  0
LINE
  5
1AB
330
1F
100
AcDbEntity
  8
E-2
  6
Continuous
 62
     3
370
     9
100
AcDbLine
 10
-523.4773839153418
 20
126.9399936502297
 30
0.0
 11
-523.4773839153418
 21
220.9399078710913
 31
0.0
  0
LINE
  5
1AC
330
1F
100
AcDbEntity
  8
E-2
  6
Continuous
 62
     3
370
     9
100
AcDbLine
 10
-518.4776457891539
 20
226.9400761301708
 30
0.0
 11
-518.4776457891539
 21
320.9399903510324
 31
0.0
  0
LINE
  5
1AD
330
1F
100
AcDbEntity
  8
E-2
  6
Continuous
 62
     3
370
     9
100
AcDbLine
 10
-523.4773839153418
 20
226.9400761301708
 30
0.0
 11
-523.4773839153418
 21
320.9399903510324
 31
0.0
  0
LINE
  5
1AE
330
1F
100
AcDbEntity
  8
E-2
  6
Continuous
 62
     3
370
     9
100
AcDbLine
 10
-518.4776457891539
 20
426.9399936502299
 30
0.0
 11
-518.4776457891539
 21
469.439037707715
 31
0.0
  0
LINE
  5
1AF
330
1F
100
AcDbEntity
  8
E-2
  6
Continuous
 62
     3
370
     9
100
AcDbLine
 10
-523.4773839153418
 20
426.9399936502299
 30
0.0
 11
-523.4773839153418
 21
469.439037707715
 31
0.0
  0
LINE
  5
1B0
330
1F
100
AcDbEntity
  8
E-2
  6
Continuous
 62
     3
370
     9
100
AcDbLine
 10
-518.4776457891539
 20
326.9401586101117
 30
0.0
 11
-518.4776457891539
 21
420.9398253911506
 31
0.0
  0
LINE
  5
1B1
330
1F
100
AcDbEntity
  8
E-2
  6
Continuous
 62
     3
370
     9
100
AcDbLine
 10
-523.4773839153418
 20
326.9401586101117
 30
0.0
 11
-523.4773839153418
 21
420.9398253911506
 31
0.0
  0
LINE
  5
1B2
330
1F
100
AcDbEntity
  8
E-2
  6
Continuous
 62
     3
370
     9
100
AcDbLine
 10
-503.4776457891539
 20
-73.05975890994748
 30
0.0
 11
-503.4776457891539
 21
20.94007283097294
 31
0.0
  0
LINE
  5
1B3
330
1F
100
AcDbEntity
  8
E-2
  6
Continuous
 62
     3
370
     9
100
AcDbLine
 10
-503.4776457891539
 20
-121.5603552399201
 30
0.0
 11
-503.4776457891539
 21
-79.05992716902705
 31
0.0
  0
LINE
  5
1B4
330
1F
100
AcDbEntity
  8
E-2
  6
Continuous
 62
     3
370
     9
100
AcDbLine
 10
-508.4773839153417
 20
-73.05975890994748
 30
0.0
 11
-508.4773839153417
 21
20.94007283097294
 31
0.0
  0
LINE
  5
1B5
330
1F
100
AcDbEntity
  8
E-2
  6
Continuous
 62
     3
370
     9
100
AcDbLine
 10
-508.4773839153417
 20
-121.5603552399201
 30
0.0
 11
-508.4773839153417
 21
-79.05992716902705
 31
0.0
  0
LINE
  5
1B6
330
1F
100
AcDbEntity
  8
E-2
  6
Continuous
 62
     3
370
     9
100
AcDbLine
 10
-503.4776457891539
 20
26.94024109005252
 30
0.0
 11
-503.4776457891539
 21
120.940072830973
 31
0.0
  0
LINE
  5
1B7
330
1F
100
AcDbEntity
  8
E-2
  6
Continuous
 62
     3
370
     9
100
AcDbLine
 10
-508.4773839153417
 20
26.94024109005252
 30
0.0
 11
-508.4773839153417
 21
120.940072830973
 31
0.0
  0
LINE
  5
1B8
330
1F
100
AcDbEntity
  8
E-2
  6
Continuous
 62
     3
370
     9
100
AcDbLine
 10
-503.4776457891539
 20
126.9399936502297
 30
0.0
 11
-503.4776457891539
 21
220.9399078710913
 31
0.0
  0
LINE
  5
1B9
330
1F
100
AcDbEntity
  8
E-2
  6
Continuous
 62
     3
370
     9
100
AcDbLine
 10
-508.4773839153417
 20
126.9399936502297
 30
0.0
 11
-508.4773839153417
 21
220.9399078710913
 31
0.0
  0
LINE
  5
1BA
330
1F
100
AcDbEntity
  8
E-2
  6
Continuous
 62
     3
370
     9
100
AcDbLine
 10
-503.4776457891539
 20
226.9400761301708
 30
0.0
 11
-503.4776457891539
 21
320.9399903510324
 31
0.0
  0
LINE
  5
1BB
330
1F
100
AcDbEntity
  8
E-2
  6
Continuous
 62
     3
370
     9
100
AcDbLine
 10
-508.4773839153417
 20
226.9400761301708
 30
0.0
 11
-508.4773839153417
 21
320.9399903510324
 31
0.0
  0
LINE
  5
1BC
330
1F
100
AcDbEntity
  8
E-2
  6
Continuous
 62
     3
370
     9
100
AcDbLine
 10
-503.4776457891539
 20
426.9399936502299
 30
0.0
 11
-503.4776457891539
 21
469.439037707715
 31
0.0
  0
LINE
  5
1BD
330
1F
100
AcDbEntity
  8
E-2
  6
Continuous
 62
     3
370
     9
100
AcDbLine
 10
-508.4773839153417
 20
426.9399936502299
 30
0.0
 11
-508.4773839153417
 21
469.439037707715
 31
0.0
  0
LINE
  5
1BE
330
1F
100
AcDbEntity
  8
E-2
  6
Continuous
 62
     3
370
     9
100
AcDbLine
 10
-503.4776457891539
 20
326.9401586101117
 30
0.0
 11
-503.4776457891539
 21
420.9398253911506
 31
0.0
  0
LINE
  5
1BF
330
1F
100
AcDbEntity
  8
E-2
  6
Continuous
 62
     3
370
     9
100
AcDbLine
 10
-508.4773839153417
 20
326.9401586101117
 30
0.0
 11
-508.4773839153417
 21
420.9398253911506
 31
0.0
  0
LINE
  5
1C0
330
1F
100
AcDbEntity
  8
E-2
  6
Continuous
 62
     3
370
     9
100
AcDbLine
 10
-488.4776457891539
 20
-73.05975890994748
 30
0.0
 11
-488.4776457891539
 21
20.94007283097294
 31
0.0
  0
LINE
  5
1C1
330
1F
100
AcDbEntity
  8
E-2
  6
Continuous
 62
     3
370
     9
100
AcDbLine
 10
-488.4776457891539
 20
-121.5603552399201
 30
0.0
 11
-488.4776457891539
 21
-79.05992716902705
 31
0.0
  0
LINE
  5
1C2
330
1F
100
AcDbEntity
  8
E-2
  6
Continuous
 62
     3
370
     9
100
AcDbLine
 10
-493.4773839153417
 20
-73.05975890994748
 30
0.0
 11
-493.4773839153417
 21
20.94007283097294
 31
0.0
  0
LINE
  5
1C3
330
1F
100
AcDbEntity
  8
E-2
  6
Continuous
 62
     3
370
     9
100
AcDbLine
 10
-493.4773839153417
 20
-121.5603552399201
 30
0.0
 11
-493.4773839153417
 21
-79.05992716902705
 31
0.0
  0
LINE
  5
1C4
330
1F
100
AcDbEntity
  8
E-2
  6
Continuous
 62
     3
370
     9
100
AcDbLine
 10
-488.4776457891539
 20
26.94024109005252
 30
0.0
 11
-488.4776457891539
 21
120.940072830973
 31
0.0
  0
LINE
  5
1C5
330
1F
100
AcDbEntity
  8
E-2
  6
Continuous
 62
     3
370
     9
100
AcDbLine
 10
-493.4773839153417
 20
26.94024109005252
 30
0.0
 11
-493.4773839153417
 21
120.940072830973
 31
0.0
  0
LINE
  5
1C6
330
1F
100
AcDbEntity
  8
E-2
  6
Continuous
 62
     3
370
     9
100
AcDbLine
 10
-488.4776457891539
 20
126.9399936502297
 30
0.0
 11
-488.4776457891539
 21
220.9399078710913
 31
0.0
  0
LINE
  5
1C7
330
1F
100
AcDbEntity
  8
E-2
  6
Continuous
 62
     3
370
     9
100
AcDbLine
 10
-493.4773839153417
 20
126.9399936502297
 30
0.0
 11
-493.4773839153417
 21
220.9399078710913
 31
0.0
  0
LINE
  5
1C8
330
1F
100
AcDbEntity
  8
E-2
  6
Continuous
 62
     3
370
     9
100
AcDbLine
 10
-488.4776457891539
 20
226.9400761301708
 30
0.0
 11
-488.4776457891539
 21
320.9399903510324
 31
0.0
  0
LINE
  5
1C9
330
1F
100
AcDbEntity
  8
E-2
  6
Continuous
 62
     3
370
     9
100
AcDbLine
 10
-493.4773839153417
 20
226.9400761301708
 30
0.0
 11
-493.4773839153417
 21
320.9399903510324
 31
0.0
  0
LINE
  5
1CA
330
1F
100
AcDbEntity
  8
E-2
  6
Continuous
 62
     3
370
     9
100
AcDbLine
 10
-488.4776457891539
 20
426.9399936502299
 30
0.0
 11
-488.4776457891539
 21
469.439037707715
 31
0.0
  0
LINE
  5
1CB
330
1F
100
AcDbEntity
  8
E-2
  6
Continuous
 62
     3
370
     9
100
AcDbLine
 10
-493.4773839153417
 20
426.9399936502299
 30
0.0
 11
-493.4773839153417
 21
469.439037707715
 31
0.0
  0
LINE
  5
1CC
330
1F
100
AcDbEntity
  8
E-2
  6
Continuous
 62
     3
370
     9
100
AcDbLine
 10
-488.4776457891539
 20
326.9401586101117
 30
0.0
 11
-488.4776457891539
 21
420.9398253911506
 31
0.0
  0
LINE
  5
1CD
330
1F
100
AcDbEntity
  8
E-2
  6
Continuous
 62
     3
370
     9
100
AcDbLine
 10
-493.4773839153417
 20
326.9401586101117
 30
0.0
 11
-493.4773839153417
 21
420.9398253911506
 31
0.0
  0
LINE
  5
1CE
330
1F
100
AcDbEntity
  8
E-2
  6
Continuous
 62
     3
370
     9
100
AcDbLine
 10
-473.4776457891539
 20
-73.05975890994748
 30
0.0
 11
-473.4776457891539
 21
20.94007283097294
 31
0.0
  0
LINE
  5
1CF
330
1F
100
AcDbEntity
  8
E-2
  6
Continuous
 62
     3
370
     9
100
AcDbLine
 10
-473.4776457891539
 20
-121.5603552399201
 30
0.0
 11
-473.4776457891539
 21
-79.05992716902705
 31
0.0
  0
LINE
  5
1D0
330
1F
100
AcDbEntity
  8
E-2
  6
Continuous
 62
     3
370
     9
100
AcDbLine
 10
-478.4773839153417
 20
-73.05975890994748
 30
0.0
 11
-478.4773839153417
 21
20.94007283097294
 31
0.0
  0
LINE
  5
1D1
330
1F
100
AcDbEntity
  8
E-2
  6
Continuous
 62
     3
370
     9
100
AcDbLine
 10
-478.4773839153417
 20
-121.5603552399201
 30
0.0
 11
-478.4773839153417
 21
-79.05992716902705
 31
0.0
  0
LINE
  5
1D2
330
1F
100
AcDbEntity
  8
E-2
  6
Continuous
 62
     3
370
     9
100
AcDbLine
 10
-473.4776457891539
 20
26.94024109005252
 30
0.0
 11
-473.4776457891539
 21
120.940072830973
 31
0.0
  0
LINE
  5
1D3
330
1F
100
AcDbEntity
  8
E-2
  6
Continuous
 62
     3
370
     9
100
AcDbLine
 10
-478.4773839153417
 20
26.94024109005252
 30
0.0
 11
-478.4773839153417
 21
120.940072830973
 31
0.0
  0
LINE
  5
1D4
330
1F
100
AcDbEntity
  8
E-2
  6
Continuous
 62
     3
370
     9
100
AcDbLine
 10
-473.4776457891539
 20
126.9399936502297
 30
0.0
 11
-473.4776457891539
 21
220.9399078710913
 31
0.0
  0
LINE
  5
1D5
330
1F
100
AcDbEntity
  8
E-2
  6
Continuous
 62
     3
370
     9
100
AcDbLine
 10
-478.4773839153417
 20
126.9399936502297
 30
0.0
 11
-478.4773839153417
 21
220.9399078710913
 31
0.0
  0
LINE
  5
1D6
330
1F
100
AcDbEntity
  8
E-2
  6
Continuous
 62
     3
370
     9
100
AcDbLine
 10
-473.4776457891539
 20
226.9400761301708
 30
0.0
 11
-473.4776457891539
 21
320.9399903510324
 31
0.0
  0
LINE
  5
1D7
330
1F
100
AcDbEntity
  8
E-2
  6
Continuous
 62
     3
370
     9
100
AcDbLine
 10
-478.4773839153417
 20
226.9400761301708
 30
0.0
 11
-478.4773839153417
 21
320.9399903510324
 31
0.0
  0
LINE
  5
1D8
330
1F
100
AcDbEntity
  8
E-2
  6
Continuous
 62
     3
370
     9
100
AcDbLine
 10
-473.4776457891539
 20
426.9399936502299
 30
0.0
 11
-473.4776457891539
 21
469.439037707715
 31
0.0
  0
LINE
  5
1D9
330
1F
100
AcDbEntity
  8
E-2
  6
Continuous
 62
     3
370
     9
100
AcDbLine
 10
-478.4773839153417
 20
426.9399936502299
 30
0.0
 11
-478.4773839153417
 21
469.439037707715
 31
0.0
  0
LINE
  5
1DA
330
1F
100
AcDbEntity
  8
E-2
  6
Continuous
 62
     3
370
     9
100
AcDbLine
 10
-473.4776457891539
 20
326.9401586101117
 30
0.0
 11
-473.4776457891539
 21
420.9398253911506
 31
0.0
  0
LINE
  5
1DB
330
1F
100
AcDbEntity
  8
E-2
  6
Continuous
 62
     3
370
     9
100
AcDbLine
 10
-478.4773839153417
 20
326.9401586101117
 30
0.0
 11
-478.4773839153417
 21
420.9398253911506
 31
0.0
  0
LINE
  5
1DC
330
1F
100
AcDbEntity
  8
E-2
  6
Continuous
 62
     3
370
     9
100
AcDbLine
 10
-458.4776457891539
 20
-73.05975890994748
 30
0.0
 11
-458.4776457891539
 21
20.94007283097294
 31
0.0
  0
LINE
  5
1DD
330
1F
100
AcDbEntity
  8
E-2
  6
Continuous
 62
     3
370
     9
100
AcDbLine
 10
-458.4776457891539
 20
-121.5603552399201
 30
0.0
 11
-458.4776457891539
 21
-79.05992716902705
 31
0.0
  0
LINE
  5
1DE
330
1F
100
AcDbEntity
  8
E-2
  6
Continuous
 62
     3
370
     9
100
AcDbLine
 10
-463.4773839153417
 20
-73.05975890994748
 30
0.0
 11
-463.4773839153417
 21
20.94007283097294
 31
0.0
  0
LINE
  5
1DF
330
1F
100
AcDbEntity
  8
E-2
  6
Continuous
 62
     3
370
     9
100
AcDbLine
 10
-463.4773839153417
 20
-121.5603552399201
 30
0.0
 11
-463.4773839153417
 21
-79.05992716902705
 31
0.0
  0
LINE
  5
1E0
330
1F
100
AcDbEntity
  8
E-2
  6
Continuous
 62
     3
370
     9
100
AcDbLine
 10
-458.4776457891539
 20
26.94024109005252
 30
0.0
 11
-458.4776457891539
 21
120.940072830973
 31
0.0
  0
LINE
  5
1E1
330
1F
100
AcDbEntity
  8
E-2
  6
Continuous
 62
     3
370
     9
100
AcDbLine
 10
-463.4773839153417
 20
26.94024109005252
 30
0.0
 11
-463.4773839153417
 21
120.940072830973
 31
0.0
  0
LINE
  5
1E2
330
1F
100
AcDbEntity
  8
E-2
  6
Continuous
 62
     3
370
     9
100
AcDbLine
 10
-458.4776457891539
 20
126.9399936502297
 30
0.0
 11
-458.4776457891539
 21
220.9399078710913
 31
0.0
  0
LINE
  5
1E3
330
1F
100
AcDbEntity
  8
E-2
  6
Continuous
 62
     3
370
     9
100
AcDbLine
 10
-463.4773839153417
 20
126.9399936502297
 30
0.0
 11
-463.4773839153417
 21
220.9399078710913
 31
0.0
  0
LINE
  5
1E4
330
1F
100
AcDbEntity
  8
E-2
  6
Continuous
 62
     3
370
     9
100
AcDbLine
 10
-458.4776457891539
 20
226.9400761301708
 30
0.0
 11
-458.4776457891539
 21
320.9399903510324
 31
0.0
  0
LINE
  5
1E5
330
1F
100
AcDbEntity
  8
E-2
  6
Continuous
 62
     3
370
     9
100
AcDbLine
 10
-463.4773839153417
 20
226.9400761301708
 30
0.0
 11
-463.4773839153417
 21
320.9399903510324
 31
0.0
  0
LINE
  5
1E6
330
1F
100
AcDbEntity
  8
E-2
  6
Continuous
 62
     3
370
     9
100
AcDbLine
 10
-458.4776457891539
 20
426.9399936502299
 30
0.0
 11
-458.4776457891539
 21
469.439037707715
 31
0.0
  0
LINE
  5
1E7
330
1F
100
AcDbEntity
  8
E-2
  6
Continuous
 62
     3
370
     9
100
AcDbLine
 10
-463.4773839153417
 20
426.9399936502299
 30
0.0
 11
-463.4773839153417
 21
469.439037707715
 31
0.0
  0
LINE
  5
1E8
330
1F
100
AcDbEntity
  8
E-2
  6
Continuous
 62
     3
370
     9
100
AcDbLine
 10
-458.4776457891539
 20
326.9401586101117
 30
0.0
 11
-458.4776457891539
 21
420.9398253911506
 31
0.0
  0
LINE
  5
1E9
330
1F
100
AcDbEntity
  8
E-2
  6
Continuous
 62
     3
370
     9
100
AcDbLine
 10
-463.4773839153417
 20
326.9401586101117
 30
0.0
 11
-463.4773839153417
 21
420.9398253911506
 31
0.0
  0
LINE
  5
1EA
330
1F
100
AcDbEntity
  8
E-2
  6
Continuous
 62
     3
370
     9
100
AcDbLine
 10
-443.4776457891539
 20
-73.05975890994748
 30
0.0
 11
-443.4776457891539
 21
20.94007283097294
 31
0.0
  0
LINE
  5
1EB
330
1F
100
AcDbEntity
  8
E-2
  6
Continuous
 62
     3
370
     9
100
AcDbLine
 10
-443.4776457891539
 20
-121.5603552399201
 30
0.0
 11
-443.4776457891539
 21
-79.05992716902705
 31
0.0
  0
LINE
  5
1EC
330
1F
100
AcDbEntity
  8
E-2
  6
Continuous
 62
     3
370
     9
100
AcDbLine
 10
-448.4773839153417
 20
-73.05975890994748
 30
0.0
 11
-448.4773839153417
 21
20.94007283097294
 31
0.0
  0
LINE
  5
1ED
330
1F
100
AcDbEntity
  8
E-2
  6
Continuous
 62
     3
370
     9
100
AcDbLine
 10
-448.4773839153417
 20
-121.5603552399201
 30
0.0
 11
-448.4773839153417
 21
-79.05992716902705
 31
0.0
  0
LINE
  5
1EE
330
1F
100
AcDbEntity
  8
E-2
  6
Continuous
 62
     3
370
     9
100
AcDbLine
 10
-443.4776457891539
 20
26.94024109005252
 30
0.0
 11
-443.4776457891539
 21
120.940072830973
 31
0.0
  0
LINE
  5
1EF
330
1F
100
AcDbEntity
  8
E-2
  6
Continuous
 62
     3
370
     9
100
AcDbLine
 10
-448.4773839153417
 20
26.94024109005252
 30
0.0
 11
-448.4773839153417
 21
120.940072830973
 31
0.0
  0
LINE
  5
1F0
330
1F
100
AcDbEntity
  8
E-2
  6
Continuous
 62
     3
370
     9
100
AcDbLine
 10
-443.4776457891539
 20
126.9399936502297
 30
0.0
 11
-443.4776457891539
 21
220.9399078710913
 31
0.0
  0
LINE
  5
1F1
330
1F
100
AcDbEntity
  8
E-2
  6
Continuous
 62
     3
370
     9
100
AcDbLine
 10
-448.4773839153417
 20
126.9399936502297
 30
0.0
 11
-448.4773839153417
 21
220.9399078710913
 31
0.0
  0
LINE
  5
1F2
330
1F
100
AcDbEntity
  8
E-2
  6
Continuous
 62
     3
370
     9
100
AcDbLine
 10
-443.4776457891539
 20
226.9400761301708
 30
0.0
 11
-443.4776457891539
 21
320.9399903510324
 31
0.0
  0
LINE
  5
1F3
330
1F
100
AcDbEntity
  8
E-2
  6
Continuous
 62
     3
370
     9
100
AcDbLine
 10
-448.4773839153417
 20
226.9400761301708
 30
0.0
 11
-448.4773839153417
 21
320.9399903510324
 31
0.0
  0
LINE
  5
1F4
330
1F
100
AcDbEntity
  8
E-2
  6
Continuous
 62
     3
370
     9
100
AcDbLine
 10
-443.4776457891539
 20
426.9399936502299
 30
0.0
 11
-443.4776457891539
 21
469.439037707715
 31
0.0
  0
LINE
  5
1F5
330
1F
100
AcDbEntity
  8
E-2
  6
Continuous
 62
     3
370
     9
100
AcDbLine
 10
-448.4773839153417
 20
426.9399936502299
 30
0.0
 11
-448.4773839153417
 21
469.439037707715
 31
0.0
  0
LINE
  5
1F6
330
1F
100
AcDbEntity
  8
E-2
  6
Continuous
 62
     3
370
     9
100
AcDbLine
 10
-443.4776457891539
 20
326.9401586101117
 30
0.0
 11
-443.4776457891539
 21
420.9398253911506
 31
0.0
  0
LINE
  5
1F7
330
1F
100
AcDbEntity
  8
E-2
  6
Continuous
 62
     3
370
     9
100
AcDbLine
 10
-448.4773839153417
 20
326.9401586101117
 30
0.0
 11
-448.4773839153417
 21
420.9398253911506
 31
0.0
  0
LINE
  5
1F8
330
1F
100
AcDbEntity
  8
E-2
  6
Continuous
 62
     3
370
     9
100
AcDbLine
 10
-428.4776457891539
 20
-73.05975890994748
 30
0.0
 11
-428.4776457891539
 21
20.94007283097294
 31
0.0
  0
LINE
  5
1F9
330
1F
100
AcDbEntity
  8
E-2
  6
Continuous
 62
     3
370
     9
100
AcDbLine
 10
-428.4776457891539
 20
-121.5603552399201
 30
0.0
 11
-428.4776457891539
 21
-79.05992716902705
 31
0.0
  0
LINE
  5
1FA
330
1F
100
AcDbEntity
  8
E-2
  6
Continuous
 62
     3
370
     9
100
AcDbLine
 10
-433.4773839153417
 20
-73.05975890994748
 30
0.0
 11
-433.4773839153417
 21
20.94007283097294
 31
0.0
  0
LINE
  5
1FB
330
1F
100
AcDbEntity
  8
E-2
  6
Continuous
 62
     3
370
     9
100
AcDbLine
 10
-433.4773839153417
 20
-121.5603552399201
 30
0.0
 11
-433.4773839153417
 21
-79.05992716902705
 31
0.0
  0
LINE
  5
1FC
330
1F
100
AcDbEntity
  8
E-2
  6
Continuous
 62
     3
370
     9
100
AcDbLine
 10
-428.4776457891539
 20
26.94024109005252
 30
0.0
 11
-428.4776457891539
 21
120.940072830973
 31
0.0
  0
LINE
  5
1FD
330
1F
100
AcDbEntity
  8
E-2
  6
Continuous
 62
     3
370
     9
100
AcDbLine
 10
-433.4773839153417
 20
26.94024109005252
 30
0.0
 11
-433.4773839153417
 21
120.940072830973
 31
0.0
  0
LINE
  5
1FE
330
1F
100
AcDbEntity
  8
E-2
  6
Continuous
 62
     3
370
     9
100
AcDbLine
 10
-428.4776457891539
 20
126.9399936502297
 30
0.0
 11
-428.4776457891539
 21
220.9399078710913
 31
0.0
  0
LINE
  5
1FF
330
1F
100
AcDbEntity
  8
E-2
  6
Continuous
 62
     3
370
     9
100
AcDbLine
 10
-433.4773839153417
 20
126.9399936502297
 30
0.0
 11
-433.4773839153417
 21
220.9399078710913
 31
0.0
  0
LINE
  5
200
330
1F
100
AcDbEntity
  8
E-2
  6
Continuous
 62
     3
370
     9
100
AcDbLine
 10
-428.4776457891539
 20
226.9400761301708
 30
0.0
 11
-428.4776457891539
 21
320.9399903510324
 31
0.0
  0
LINE
  5
201
330
1F
100
AcDbEntity
  8
E-2
  6
Continuous
 62
     3
370
     9
100
AcDbLine
 10
-433.4773839153417
 20
226.9400761301708
 30
0.0
 11
-433.4773839153417
 21
320.9399903510324
 31
0.0
  0
LINE
  5
202
330
1F
100
AcDbEntity
  8
E-2
  6
Continuous
 62
     3
370
     9
100
AcDbLine
 10
-428.4776457891539
 20
426.9399936502299
 30
0.0
 11
-428.4776457891539
 21
469.439037707715
 31
0.0
  0
LINE
  5
203
330
1F
100
AcDbEntity
  8
E-2
  6
Continuous
 62
     3
370
     9
100
AcDbLine
 10
-433.4773839153417
 20
426.9399936502299
 30
0.0
 11
-433.4773839153417
 21
469.439037707715
 31
0.0
  0
LINE
  5
204
330
1F
100
AcDbEntity
  8
E-2
  6
Continuous
 62
     3
370
     9
100
AcDbLine
 10
-428.4776457891539
 20
326.9401586101117
 30
0.0
 11
-428.4776457891539
 21
420.9398253911506
 31
0.0
  0
LINE
  5
205
330
1F
100
AcDbEntity
  8
E-2
  6
Continuous
 62
     3
370
     9
100
AcDbLine
 10
-433.4773839153417
 20
326.9401586101117
 30
0.0
 11
-433.4773839153417
 21
420.9398253911506
 31
0.0
  0
LINE
  5
206
330
1F
100
AcDbEntity
  8
E-2
  6
Continuous
 62
     3
370
     9
100
AcDbLine
 10
-413.4776457891539
 20
-73.05975890994748
 30
0.0
 11
-413.4776457891539
 21
20.94007283097294
 31
0.0
  0
LINE
  5
207
330
1F
100
AcDbEntity
  8
E-2
  6
Continuous
 62
     3
370
     9
100
AcDbLine
 10
-413.4776457891539
 20
-121.5603552399201
 30
0.0
 11
-413.4776457891539
 21
-79.05992716902705
 31
0.0
  0
LINE
  5
208
330
1F
100
AcDbEntity
  8
E-2
  6
Continuous
 62
     3
370
     9
100
AcDbLine
 10
-418.4773839153417
 20
-73.05975890994748
 30
0.0
 11
-418.4773839153417
 21
20.94007283097294
 31
0.0
  0
LINE
  5
209
330
1F
100
AcDbEntity
  8
E-2
  6
Continuous
 62
     3
370
     9
100
AcDbLine
 10
-418.4773839153417
 20
-121.5603552399201
 30
0.0
 11
-418.4773839153417
 21
-79.05992716902705
 31
0.0
  0
LINE
  5
20A
330
1F
100
AcDbEntity
  8
E-2
  6
Continuous
 62
     3
370
     9
100
AcDbLine
 10
-413.4776457891539
 20
26.94024109005252
 30
0.0
 11
-413.4776457891539
 21
120.940072830973
 31
0.0
  0
LINE
  5
20B
330
1F
100
AcDbEntity
  8
E-2
  6
Continuous
 62
     3
370
     9
100
AcDbLine
 10
-418.4773839153417
 20
26.94024109005252
 30
0.0
 11
-418.4773839153417
 21
120.940072830973
 31
0.0
  0
LINE
  5
20C
330
1F
100
AcDbEntity
  8
E-2
  6
Continuous
 62
     3
370
     9
100
AcDbLine
 10
-413.4776457891539
 20
126.9399936502297
 30
0.0
 11
-413.4776457891539
 21
220.9399078710913
 31
0.0
  0
LINE
  5
20D
330
1F
100
AcDbEntity
  8
E-2
  6
Continuous
 62
     3
370
     9
100
AcDbLine
 10
-418.4773839153417
 20
126.9399936502297
 30
0.0
 11
-418.4773839153417
 21
220.9399078710913
 31
0.0
  0
LINE
  5
20E
330
1F
100
AcDbEntity
  8
E-2
  6
Continuous
 62
     3
370
     9
100
AcDbLine
 10
-413.4776457891539
 20
226.9400761301708
 30
0.0
 11
-413.4776457891539
 21
320.9399903510324
 31
0.0
  0
LINE
  5
20F
330
1F
100
AcDbEntity
  8
E-2
  6
Continuous
 62
     3
370
     9
100
AcDbLine
 10
-418.4773839153417
 20
226.9400761301708
 30
0.0
 11
-418.4773839153417
 21
320.9399903510324
 31
0.0
  0
LINE
  5
210
330
1F
100
AcDbEntity
  8
E-2
  6
Continuous
 62
     3
370
     9
100
AcDbLine
 10
-413.4776457891539
 20
426.9399936502299
 30
0.0
 11
-413.4776457891539
 21
469.439037707715
 31
0.0
  0
LINE
  5
211
330
1F
100
AcDbEntity
  8
E-2
  6
Continuous
 62
     3
370
     9
100
AcDbLine
 10
-418.4773839153417
 20
426.9399936502299
 30
0.0
 11
-418.4773839153417
 21
469.439037707715
 31
0.0
  0
LINE
  5
212
330
1F
100
AcDbEntity
  8
E-2
  6
Continuous
 62
     3
370
     9
100
AcDbLine
 10
-413.4776457891539
 20
326.9401586101117
 30
0.0
 11
-413.4776457891539
 21
420.9398253911506
 31
0.0
  0
LINE
  5
213
330
1F
100
AcDbEntity
  8
E-2
  6
Continuous
 62
     3
370
     9
100
AcDbLine
 10
-418.4773839153417
 20
326.9401586101117
 30
0.0
 11
-418.4773839153417
 21
420.9398253911506
 31
0.0
  0
LINE
  5
214
330
1F
100
AcDbEntity
  8
E-2
  6
Continuous
 62
     3
370
     9
100
AcDbLine
 10
-398.4776457891539
 20
-73.05975890994748
 30
0.0
 11
-398.4776457891539
 21
20.94007283097294
 31
0.0
  0
LINE
  5
215
330
1F
100
AcDbEntity
  8
E-2
  6
Continuous
 62
     3
370
     9
100
AcDbLine
 10
-398.4776457891539
 20
-121.5603552399201
 30
0.0
 11
-398.4776457891539
 21
-79.05992716902705
 31
0.0
  0
LINE
  5
216
330
1F
100
AcDbEntity
  8
E-2
  6
Continuous
 62
     3
370
     9
100
AcDbLine
 10
-403.4773839153417
 20
-73.05975890994748
 30
0.0
 11
-403.4773839153417
 21
20.94007283097294
 31
0.0
  0
LINE
  5
217
330
1F
100
AcDbEntity
  8
E-2
  6
Continuous
 62
     3
370
     9
100
AcDbLine
 10
-403.4773839153417
 20
-121.5603552399201
 30
0.0
 11
-403.4773839153417
 21
-79.05992716902705
 31
0.0
  0
LINE
  5
218
330
1F
100
AcDbEntity
  8
E-2
  6
Continuous
 62
     3
370
     9
100
AcDbLine
 10
-398.4776457891539
 20
26.94024109005252
 30
0.0
 11
-398.4776457891539
 21
120.940072830973
 31
0.0
  0
LINE
  5
219
330
1F
100
AcDbEntity
  8
E-2
  6
Continuous
 62
     3
370
     9
100
AcDbLine
 10
-403.4773839153417
 20
26.94024109005252
 30
0.0
 11
-403.4773839153417
 21
120.940072830973
 31
0.0
  0
LINE
  5
21A
330
1F
100
AcDbEntity
  8
E-2
  6
Continuous
 62
     3
370
     9
100
AcDbLine
 10
-398.4776457891539
 20
126.9399936502297
 30
0.0
 11
-398.4776457891539
 21
220.9399078710913
 31
0.0
  0
LINE
  5
21B
330
1F
100
AcDbEntity
  8
E-2
  6
Continuous
 62
     3
370
     9
100
AcDbLine
 10
-403.4773839153417
 20
126.9399936502297
 30
0.0
 11
-403.4773839153417
 21
220.9399078710913
 31
0.0
  0
LINE
  5
21C
330
1F
100
AcDbEntity
  8
E-2
  6
Continuous
 62
     3
370
     9
100
AcDbLine
 10
-398.4776457891539
 20
226.9400761301708
 30
0.0
 11
-398.4776457891539
 21
320.9399903510324
 31
0.0
  0
LINE
  5
21D
330
1F
100
AcDbEntity
  8
E-2
  6
Continuous
 62
     3
370
     9
100
AcDbLine
 10
-403.4773839153417
 20
226.9400761301708
 30
0.0
 11
-403.4773839153417
 21
320.9399903510324
 31
0.0
  0
LINE
  5
21E
330
1F
100
AcDbEntity
  8
E-2
  6
Continuous
 62
     3
370
     9
100
AcDbLine
 10
-398.4776457891539
 20
426.9399936502299
 30
0.0
 11
-398.4776457891539
 21
469.439037707715
 31
0.0
  0
LINE
  5
21F
330
1F
100
AcDbEntity
  8
E-2
  6
Continuous
 62
     3
370
     9
100
AcDbLine
 10
-403.4773839153417
 20
426.9399936502299
 30
0.0
 11
-403.4773839153417
 21
469.439037707715
 31
0.0
  0
LINE
  5
220
330
1F
100
AcDbEntity
  8
E-2
  6
Continuous
 62
     3
370
     9
100
AcDbLine
 10
-398.4776457891539
 20
326.9401586101117
 30
0.0
 11
-398.4776457891539
 21
420.9398253911506
 31
0.0
  0
LINE
  5
221
330
1F
100
AcDbEntity
  8
E-2
  6
Continuous
 62
     3
370
     9
100
AcDbLine
 10
-403.4773839153417
 20
326.9401586101117
 30
0.0
 11
-403.4773839153417
 21
420.9398253911506
 31
0.0
  0
LINE
  5
222
330
1F
100
AcDbEntity
  8
E-2
  6
Continuous
 62
     3
370
     9
100
AcDbLine
 10
-383.4776457891539
 20
-73.05975890994748
 30
0.0
 11
-383.4776457891539
 21
20.94007283097294
 31
0.0
  0
LINE
  5
223
330
1F
100
AcDbEntity
  8
E-2
  6
Continuous
 62
     3
370
     9
100
AcDbLine
 10
-383.4776457891539
 20
-121.5603552399201
 30
0.0
 11
-383.4776457891539
 21
-79.05992716902705
 31
0.0
  0
LINE
  5
224
330
1F
100
AcDbEntity
  8
E-2
  6
Continuous
 62
     3
370
     9
100
AcDbLine
 10
-388.4773839153417
 20
-73.05975890994748
 30
0.0
 11
-388.4773839153417
 21
20.94007283097294
 31
0.0
  0
LINE
  5
225
330
1F
100
AcDbEntity
  8
E-2
  6
Continuous
 62
     3
370
     9
100
AcDbLine
 10
-388.4773839153417
 20
-121.5603552399201
 30
0.0
 11
-388.4773839153417
 21
-79.05992716902705
 31
0.0
  0
LINE
  5
226
330
1F
100
AcDbEntity
  8
E-2
  6
Continuous
 62
     3
370
     9
100
AcDbLine
 10
-383.4776457891539
 20
26.94024109005252
 30
0.0
 11
-383.4776457891539
 21
120.940072830973
 31
0.0
  0
LINE
  5
227
330
1F
100
AcDbEntity
  8
E-2
  6
Continuous
 62
     3
370
     9
100
AcDbLine
 10
-388.4773839153417
 20
26.94024109005252
 30
0.0
 11
-388.4773839153417
 21
120.940072830973
 31
0.0
  0
LINE
  5
228
330
1F
100
AcDbEntity
  8
E-2
  6
Continuous
 62
     3
370
     9
100
AcDbLine
 10
-383.4776457891539
 20
126.9399936502297
 30
0.0
 11
-383.4776457891539
 21
220.9399078710913
 31
0.0
  0
LINE
  5
229
330
1F
100
AcDbEntity
  8
E-2
  6
Continuous
 62
     3
370
     9
100
AcDbLine
 10
-388.4773839153417
 20
126.9399936502297
 30
0.0
 11
-388.4773839153417
 21
220.9399078710913
 31
0.0
  0
LINE
  5
22A
330
1F
100
AcDbEntity
  8
E-2
  6
Continuous
 62
     3
370
     9
100
AcDbLine
 10
-383.4776457891539
 20
226.9400761301708
 30
0.0
 11
-383.4776457891539
 21
320.9399903510324
 31
0.0
  0
LINE
  5
22B
330
1F
100
AcDbEntity
  8
E-2
  6
Continuous
 62
     3
370
     9
100
AcDbLine
 10
-388.4773839153417
 20
226.9400761301708
 30
0.0
 11
-388.4773839153417
 21
320.9399903510324
 31
0.0
  0
LINE
  5
22C
330
1F
100
AcDbEntity
  8
E-2
  6
Continuous
 62
     3
370
     9
100
AcDbLine
 10
-383.4776457891539
 20
426.9399936502299
 30
0.0
 11
-383.4776457891539
 21
469.439037707715
 31
0.0
  0
LINE
  5
22D
330
1F
100
AcDbEntity
  8
E-2
  6
Continuous
 62
     3
370
     9
100
AcDbLine
 10
-388.4773839153417
 20
426.9399936502299
 30
0.0
 11
-388.4773839153417
 21
469.439037707715
 31
0.0
  0
LINE
  5
22E
330
1F
100
AcDbEntity
  8
E-2
  6
Continuous
 62
     3
370
     9
100
AcDbLine
 10
-383.4776457891539
 20
326.9401586101117
 30
0.0
 11
-383.4776457891539
 21
420.9398253911506
 31
0.0
  0
LINE
  5
22F
330
1F
100
AcDbEntity
  8
E-2
  6
Continuous
 62
     3
370
     9
100
AcDbLine
 10
-388.4773839153417
 20
326.9401586101117
 30
0.0
 11
-388.4773839153417
 21
420.9398253911506
 31
0.0
  0
LINE
  5
230
330
1F
100
AcDbEntity
  8
E-2
  6
Continuous
 62
     3
370
     9
100
AcDbLine
 10
-368.4776457891539
 20
-73.05975890994748
 30
0.0
 11
-368.4776457891539
 21
20.94007283097294
 31
0.0
  0
LINE
  5
231
330
1F
100
AcDbEntity
  8
E-2
  6
Continuous
 62
     3
370
     9
100
AcDbLine
 10
-368.4776457891539
 20
-121.5603552399201
 30
0.0
 11
-368.4776457891539
 21
-79.05992716902705
 31
0.0
  0
LINE
  5
232
330
1F
100
AcDbEntity
  8
E-2
  6
Continuous
 62
     3
370
     9
100
AcDbLine
 10
-373.4773839153417
 20
-73.05975890994748
 30
0.0
 11
-373.4773839153417
 21
20.94007283097294
 31
0.0
  0
LINE
  5
233
330
1F
100
AcDbEntity
  8
E-2
  6
Continuous
 62
     3
370
     9
100
AcDbLine
 10
-373.4773839153417
 20
-121.5603552399201
 30
0.0
 11
-373.4773839153417
 21
-79.05992716902705
 31
0.0
  0
LINE
  5
234
330
1F
100
AcDbEntity
  8
E-2
  6
Continuous
 62
     3
370
     9
100
AcDbLine
 10
-368.4776457891539
 20
26.94024109005252
 30
0.0
 11
-368.4776457891539
 21
120.940072830973
 31
0.0
  0
LINE
  5
235
330
1F
100
AcDbEntity
  8
E-2
  6
Continuous
 62
     3
370
     9
100
AcDbLine
 10
-373.4773839153417
 20
26.94024109005252
 30
0.0
 11
-373.4773839153417
 21
120.940072830973
 31
0.0
  0
LINE
  5
236
330
1F
100
AcDbEntity
  8
E-2
  6
Continuous
 62
     3
370
     9
100
AcDbLine
 10
-368.4776457891539
 20
126.9399936502297
 30
0.0
 11
-368.4776457891539
 21
220.9399078710913
 31
0.0
  0
LINE
  5
237
330
1F
100
AcDbEntity
  8
E-2
  6
Continuous
 62
     3
370
     9
100
AcDbLine
 10
-373.4773839153417
 20
126.9399936502297
 30
0.0
 11
-373.4773839153417
 21
220.9399078710913
 31
0.0
  0
LINE
  5
238
330
1F
100
AcDbEntity
  8
E-2
  6
Continuous
 62
     3
370
     9
100
AcDbLine
 10
-368.4776457891539
 20
226.9400761301708
 30
0.0
 11
-368.4776457891539
 21
320.9399903510324
 31
0.0
  0
LINE
  5
239
330
1F
100
AcDbEntity
  8
E-2
  6
Continuous
 62
     3
370
     9
100
AcDbLine
 10
-373.4773839153417
 20
226.9400761301708
 30
0.0
 11
-373.4773839153417
 21
320.9399903510324
 31
0.0
  0
LINE
  5
23A
330
1F
100
AcDbEntity
  8
E-2
  6
Continuous
 62
     3
370
     9
100
AcDbLine
 10
-368.4776457891539
 20
426.9399936502299
 30
0.0
 11
-368.4776457891539
 21
469.439037707715
 31
0.0
  0
LINE
  5
23B
330
1F
100
AcDbEntity
  8
E-2
  6
Continuous
 62
     3
370
     9
100
AcDbLine
 10
-373.4773839153417
 20
426.9399936502299
 30
0.0
 11
-373.4773839153417
 21
469.439037707715
 31
0.0
  0
LINE
  5
23C
330
1F
100
AcDbEntity
  8
E-2
  6
Continuous
 62
     3
370
     9
100
AcDbLine
 10
-368.4776457891539
 20
326.9401586101117
 30
0.0
 11
-368.4776457891539
 21
420.9398253911506
 31
0.0
  0
LINE
  5
23D
330
1F
100
AcDbEntity
  8
E-2
  6
Continuous
 62
     3
370
     9
100
AcDbLine
 10
-373.4773839153417
 20
326.9401586101117
 30
0.0
 11
-373.4773839153417
 21
420.9398253911506
 31
0.0
  0
LINE
  5
23E
330
1F
100
AcDbEntity
  8
E-2
  6
Continuous
 62
     3
370
     9
100
AcDbLine
 10
-353.4776457891539
 20
-73.05975890994748
 30
0.0
 11
-353.4776457891539
 21
20.94007283097294
 31
0.0
  0
LINE
  5
23F
330
1F
100
AcDbEntity
  8
E-2
  6
Continuous
 62
     3
370
     9
100
AcDbLine
 10
-353.4776457891539
 20
-121.5603552399201
 30
0.0
 11
-353.4776457891539
 21
-79.05992716902705
 31
0.0
  0
LINE
  5
240
330
1F
100
AcDbEntity
  8
E-2
  6
Continuous
 62
     3
370
     9
100
AcDbLine
 10
-358.4773839153417
 20
-73.05975890994748
 30
0.0
 11
-358.4773839153417
 21
20.94007283097294
 31
0.0
  0
LINE
  5
241
330
1F
100
AcDbEntity
  8
E-2
  6
Continuous
 62
     3
370
     9
100
AcDbLine
 10
-358.4773839153417
 20
-121.5603552399201
 30
0.0
 11
-358.4773839153417
 21
-79.05992716902705
 31
0.0
  0
LINE
  5
242
330
1F
100
AcDbEntity
  8
E-2
  6
Continuous
 62
     3
370
     9
100
AcDbLine
 10
-353.4776457891539
 20
26.94024109005252
 30
0.0
 11
-353.4776457891539
 21
120.940072830973
 31
0.0
  0
LINE
  5
243
330
1F
100
AcDbEntity
  8
E-2
  6
Continuous
 62
     3
370
     9
100
AcDbLine
 10
-358.4773839153417
 20
26.94024109005252
 30
0.0
 11
-358.4773839153417
 21
120.940072830973
 31
0.0
  0
LINE
  5
244
330
1F
100
AcDbEntity
  8
E-2
  6
Continuous
 62
     3
370
     9
100
AcDbLine
 10
-353.4776457891539
 20
126.9399936502297
 30
0.0
 11
-353.4776457891539
 21
220.9399078710913
 31
0.0
  0
LINE
  5
245
330
1F
100
AcDbEntity
  8
E-2
  6
Continuous
 62
     3
370
     9
100
AcDbLine
 10
-358.4773839153417
 20
126.9399936502297
 30
0.0
 11
-358.4773839153417
 21
220.9399078710913
 31
0.0
  0
LINE
  5
246
330
1F
100
AcDbEntity
  8
E-2
  6
Continuous
 62
     3
370
     9
100
AcDbLine
 10
-353.4776457891539
 20
226.9400761301708
 30
0.0
 11
-353.4776457891539
 21
320.9399903510324
 31
0.0
  0
LINE
  5
247
330
1F
100
AcDbEntity
  8
E-2
  6
Continuous
 62
     3
370
     9
100
AcDbLine
 10
-358.4773839153417
 20
226.9400761301708
 30
0.0
 11
-358.4773839153417
 21
320.9399903510324
 31
0.0
  0
LINE
  5
248
330
1F
100
AcDbEntity
  8
E-2
  6
Continuous
 62
     3
370
     9
100
AcDbLine
 10
-353.4776457891539
 20
426.9399936502299
 30
0.0
 11
-353.4776457891539
 21
469.439037707715
 31
0.0
  0
LINE
  5
249
330
1F
100
AcDbEntity
  8
E-2
  6
Continuous
 62
     3
370
     9
100
AcDbLine
 10
-358.4773839153417
 20
426.9399936502299
 30
0.0
 11
-358.4773839153417
 21
469.439037707715
 31
0.0
  0
LINE
  5
24A
330
1F
100
AcDbEntity
  8
E-2
  6
Continuous
 62
     3
370
     9
100
AcDbLine
 10
-353.4776457891539
 20
326.9401586101117
 30
0.0
 11
-353.4776457891539
 21
420.9398253911506
 31
0.0
  0
LINE
  5
24B
330
1F
100
AcDbEntity
  8
E-2
  6
Continuous
 62
     3
370
     9
100
AcDbLine
 10
-358.4773839153417
 20
326.9401586101117
 30
0.0
 11
-358.4773839153417
 21
420.9398253911506
 31
0.0
  0
LINE
  5
24C
330
1F
100
AcDbEntity
  8
E-2
  6
Continuous
 62
     3
370
     9
100
AcDbLine
 10
-338.4776457891539
 20
-73.05975890994748
 30
0.0
 11
-338.4776457891539
 21
20.94007283097294
 31
0.0
  0
LINE
  5
24D
330
1F
100
AcDbEntity
  8
E-2
  6
Continuous
 62
     3
370
     9
100
AcDbLine
 10
-338.4776457891539
 20
-121.5603552399201
 30
0.0
 11
-338.4776457891539
 21
-79.05992716902705
 31
0.0
  0
LINE
  5
24E
330
1F
100
AcDbEntity
  8
E-2
  6
Continuous
 62
     3
370
     9
100
AcDbLine
 10
-343.4773839153417
 20
-73.05975890994748
 30
0.0
 11
-343.4773839153417
 21
20.94007283097294
 31
0.0
  0
LINE
  5
24F
330
1F
100
AcDbEntity
  8
E-2
  6
Continuous
 62
     3
370
     9
100
AcDbLine
 10
-343.4773839153417
 20
-121.5603552399201
 30
0.0
 11
-343.4773839153417
 21
-79.05992716902705
 31
0.0
  0
LINE
  5
250
330
1F
100
AcDbEntity
  8
E-2
  6
Continuous
 62
     3
370
     9
100
AcDbLine
 10
-338.4776457891539
 20
26.94024109005252
 30
0.0
 11
-338.4776457891539
 21
120.940072830973
 31
0.0
  0
LINE
  5
251
330
1F
100
AcDbEntity
  8
E-2
  6
Continuous
 62
     3
370
     9
100
AcDbLine
 10
-343.4773839153417
 20
26.94024109005252
 30
0.0
 11
-343.4773839153417
 21
120.940072830973
 31
0.0
  0
LINE
  5
252
330
1F
100
AcDbEntity
  8
E-2
  6
Continuous
 62
     3
370
     9
100
AcDbLine
 10
-338.4776457891539
 20
126.9399936502297
 30
0.0
 11
-338.4776457891539
 21
220.9399078710913
 31
0.0
  0
LINE
  5
253
330
1F
100
AcDbEntity
  8
E-2
  6
Continuous
 62
     3
370
     9
100
AcDbLine
 10
-343.4773839153417
 20
126.9399936502297
 30
0.0
 11
-343.4773839153417
 21
220.9399078710913
 31
0.0
  0
LINE
  5
254
330
1F
100
AcDbEntity
  8
E-2
  6
Continuous
 62
     3
370
     9
100
AcDbLine
 10
-338.4776457891539
 20
226.9400761301708
 30
0.0
 11
-338.4776457891539
 21
320.9399903510324
 31
0.0
  0
LINE
  5
255
330
1F
100
AcDbEntity
  8
E-2
  6
Continuous
 62
     3
370
     9
100
AcDbLine
 10
-343.4773839153417
 20
226.9400761301708
 30
0.0
 11
-343.4773839153417
 21
320.9399903510324
 31
0.0
  0
LINE
  5
256
330
1F
100
AcDbEntity
  8
E-2
  6
Continuous
 62
     3
370
     9
100
AcDbLine
 10
-338.4776457891539
 20
426.9399936502299
 30
0.0
 11
-338.4776457891539
 21
469.439037707715
 31
0.0
  0
LINE
  5
257
330
1F
100
AcDbEntity
  8
E-2
  6
Continuous
 62
     3
370
     9
100
AcDbLine
 10
-343.4773839153417
 20
426.9399936502299
 30
0.0
 11
-343.4773839153417
 21
469.439037707715
 31
0.0
  0
LINE
  5
258
330
1F
100
AcDbEntity
  8
E-2
  6
Continuous
 62
     3
370
     9
100
AcDbLine
 10
-338.4776457891539
 20
326.9401586101117
 30
0.0
 11
-338.4776457891539
 21
420.9398253911506
 31
0.0
  0
LINE
  5
259
330
1F
100
AcDbEntity
  8
E-2
  6
Continuous
 62
     3
370
     9
100
AcDbLine
 10
-343.4773839153417
 20
326.9401586101117
 30
0.0
 11
-343.4773839153417
 21
420.9398253911506
 31
0.0
  0
LINE
  5
25A
330
1F
100
AcDbEntity
  8
E-2
  6
Continuous
 62
     3
370
     9
100
AcDbLine
 10
-323.4776457891539
 20
-73.05975890994748
 30
0.0
 11
-323.4776457891539
 21
20.94007283097294
 31
0.0
  0
LINE
  5
25B
330
1F
100
AcDbEntity
  8
E-2
  6
Continuous
 62
     3
370
     9
100
AcDbLine
 10
-323.4776457891539
 20
-121.5603552399201
 30
0.0
 11
-323.4776457891539
 21
-79.05992716902705
 31
0.0
  0
LINE
  5
25C
330
1F
100
AcDbEntity
  8
E-2
  6
Continuous
 62
     3
370
     9
100
AcDbLine
 10
-328.4773839153417
 20
-73.05975890994748
 30
0.0
 11
-328.4773839153417
 21
20.94007283097294
 31
0.0
  0
LINE
  5
25D
330
1F
100
AcDbEntity
  8
E-2
  6
Continuous
 62
     3
370
     9
100
AcDbLine
 10
-328.4773839153417
 20
-121.5603552399201
 30
0.0
 11
-328.4773839153417
 21
-79.05992716902705
 31
0.0
  0
LINE
  5
25E
330
1F
100
AcDbEntity
  8
E-2
  6
Continuous
 62
     3
370
     9
100
AcDbLine
 10
-323.4776457891539
 20
26.94024109005252
 30
0.0
 11
-323.4776457891539
 21
120.940072830973
 31
0.0
  0
LINE
  5
25F
330
1F
100
AcDbEntity
  8
E-2
  6
Continuous
 62
     3
370
     9
100
AcDbLine
 10
-328.4773839153417
 20
26.94024109005252
 30
0.0
 11
-328.4773839153417
 21
120.940072830973
 31
0.0
  0
LINE
  5
260
330
1F
100
AcDbEntity
  8
E-2
  6
Continuous
 62
     3
370
     9
100
AcDbLine
 10
-323.4776457891539
 20
126.9399936502297
 30
0.0
 11
-323.4776457891539
 21
220.9399078710913
 31
0.0
  0
LINE
  5
261
330
1F
100
AcDbEntity
  8
E-2
  6
Continuous
 62
     3
370
     9
100
AcDbLine
 10
-328.4773839153417
 20
126.9399936502297
 30
0.0
 11
-328.4773839153417
 21
220.9399078710913
 31
0.0
  0
LINE
  5
262
330
1F
100
AcDbEntity
  8
E-2
  6
Continuous
 62
     3
370
     9
100
AcDbLine
 10
-323.4776457891539
 20
226.9400761301708
 30
0.0
 11
-323.4776457891539
 21
320.9399903510324
 31
0.0
  0
LINE
  5
263
330
1F
100
AcDbEntity
  8
E-2
  6
Continuous
 62
     3
370
     9
100
AcDbLine
 10
-328.4773839153417
 20
226.9400761301708
 30
0.0
 11
-328.4773839153417
 21
320.9399903510324
 31
0.0
  0
LINE
  5
264
330
1F
100
AcDbEntity
  8
E-2
  6
Continuous
 62
     3
370
     9
100
AcDbLine
 10
-323.4776457891539
 20
426.9399936502299
 30
0.0
 11
-323.4776457891539
 21
469.439037707715
 31
0.0
  0
LINE
  5
265
330
1F
100
AcDbEntity
  8
E-2
  6
Continuous
 62
     3
370
     9
100
AcDbLine
 10
-328.4773839153417
 20
426.9399936502299
 30
0.0
 11
-328.4773839153417
 21
469.439037707715
 31
0.0
  0
LINE
  5
266
330
1F
100
AcDbEntity
  8
E-2
  6
Continuous
 62
     3
370
     9
100
AcDbLine
 10
-323.4776457891539
 20
326.9401586101117
 30
0.0
 11
-323.4776457891539
 21
420.9398253911506
 31
0.0
  0
LINE
  5
267
330
1F
100
AcDbEntity
  8
E-2
  6
Continuous
 62
     3
370
     9
100
AcDbLine
 10
-328.4773839153417
 20
326.9401586101117
 30
0.0
 11
-328.4773839153417
 21
420.9398253911506
 31
0.0
  0
LINE
  5
268
330
1F
100
AcDbEntity
  8
E-2
  6
Continuous
 62
     3
370
     9
100
AcDbLine
 10
-308.4776457891539
 20
-73.05975890994748
 30
0.0
 11
-308.4776457891539
 21
20.94007283097294
 31
0.0
  0
LINE
  5
269
330
1F
100
AcDbEntity
  8
E-2
  6
Continuous
 62
     3
370
     9
100
AcDbLine
 10
-308.4776457891539
 20
-121.5603552399201
 30
0.0
 11
-308.4776457891539
 21
-79.05992716902705
 31
0.0
  0
LINE
  5
26A
330
1F
100
AcDbEntity
  8
E-2
  6
Continuous
 62
     3
370
     9
100
AcDbLine
 10
-313.4773839153417
 20
-73.05975890994748
 30
0.0
 11
-313.4773839153417
 21
20.94007283097294
 31
0.0
  0
LINE
  5
26B
330
1F
100
AcDbEntity
  8
E-2
  6
Continuous
 62
     3
370
     9
100
AcDbLine
 10
-313.4773839153417
 20
-121.5603552399201
 30
0.0
 11
-313.4773839153417
 21
-79.05992716902705
 31
0.0
  0
LINE
  5
26C
330
1F
100
AcDbEntity
  8
E-2
  6
Continuous
 62
     3
370
     9
100
AcDbLine
 10
-308.4776457891539
 20
26.94024109005252
 30
0.0
 11
-308.4776457891539
 21
120.940072830973
 31
0.0
  0
LINE
  5
26D
330
1F
100
AcDbEntity
  8
E-2
  6
Continuous
 62
     3
370
     9
100
AcDbLine
 10
-313.4773839153417
 20
26.94024109005252
 30
0.0
 11
-313.4773839153417
 21
120.940072830973
 31
0.0
  0
LINE
  5
26E
330
1F
100
AcDbEntity
  8
E-2
  6
Continuous
 62
     3
370
     9
100
AcDbLine
 10
-308.4776457891539
 20
126.9399936502297
 30
0.0
 11
-308.4776457891539
 21
220.9399078710913
 31
0.0
  0
LINE
  5
26F
330
1F
100
AcDbEntity
  8
E-2
  6
Continuous
 62
     3
370
     9
100
AcDbLine
 10
-313.4773839153417
 20
126.9399936502297
 30
0.0
 11
-313.4773839153417
 21
220.9399078710913
 31
0.0
  0
LINE
  5
270
330
1F
100
AcDbEntity
  8
E-2
  6
Continuous
 62
     3
370
     9
100
AcDbLine
 10
-308.4776457891539
 20
226.9400761301708
 30
0.0
 11
-308.4776457891539
 21
320.9399903510324
 31
0.0
  0
LINE
  5
271
330
1F
100
AcDbEntity
  8
E-2
  6
Continuous
 62
     3
370
     9
100
AcDbLine
 10
-313.4773839153417
 20
226.9400761301708
 30
0.0
 11
-313.4773839153417
 21
320.9399903510324
 31
0.0
  0
LINE
  5
272
330
1F
100
AcDbEntity
  8
E-2
  6
Continuous
 62
     3
370
     9
100
AcDbLine
 10
-308.4776457891539
 20
426.9399936502299
 30
0.0
 11
-308.4776457891539
 21
469.439037707715
 31
0.0
  0
LINE
  5
273
330
1F
100
AcDbEntity
  8
E-2
  6
Continuous
 62
     3
370
     9
100
AcDbLine
 10
-313.4773839153417
 20
426.9399936502299
 30
0.0
 11
-313.4773839153417
 21
469.439037707715
 31
0.0
  0
LINE
  5
274
330
1F
100
AcDbEntity
  8
E-2
  6
Continuous
 62
     3
370
     9
100
AcDbLine
 10
-308.4776457891539
 20
326.9401586101117
 30
0.0
 11
-308.4776457891539
 21
420.9398253911506
 31
0.0
  0
LINE
  5
275
330
1F
100
AcDbEntity
  8
E-2
  6
Continuous
 62
     3
370
     9
100
AcDbLine
 10
-313.4773839153417
 20
326.9401586101117
 30
0.0
 11
-313.4773839153417
 21
420.9398253911506
 31
0.0
  0
LINE
  5
276
330
1F
100
AcDbEntity
  8
E-2
  6
Continuous
 62
     3
370
     9
100
AcDbLine
 10
-293.4776457891539
 20
-73.05975890994748
 30
0.0
 11
-293.4776457891539
 21
20.94007283097294
 31
0.0
  0
LINE
  5
277
330
1F
100
AcDbEntity
  8
E-2
  6
Continuous
 62
     3
370
     9
100
AcDbLine
 10
-293.4776457891539
 20
-121.5603552399201
 30
0.0
 11
-293.4776457891539
 21
-79.05992716902705
 31
0.0
  0
LINE
  5
278
330
1F
100
AcDbEntity
  8
E-2
  6
Continuous
 62
     3
370
     9
100
AcDbLine
 10
-298.4773839153417
 20
-73.05975890994748
 30
0.0
 11
-298.4773839153417
 21
20.94007283097294
 31
0.0
  0
LINE
  5
279
330
1F
100
AcDbEntity
  8
E-2
  6
Continuous
 62
     3
370
     9
100
AcDbLine
 10
-298.4773839153417
 20
-121.5603552399201
 30
0.0
 11
-298.4773839153417
 21
-79.05992716902705
 31
0.0
  0
LINE
  5
27A
330
1F
100
AcDbEntity
  8
E-2
  6
Continuous
 62
     3
370
     9
100
AcDbLine
 10
-293.4776457891539
 20
26.94024109005252
 30
0.0
 11
-293.4776457891539
 21
120.940072830973
 31
0.0
  0
LINE
  5
27B
330
1F
100
AcDbEntity
  8
E-2
  6
Continuous
 62
     3
370
     9
100
AcDbLine
 10
-298.4773839153417
 20
26.94024109005252
 30
0.0
 11
-298.4773839153417
 21
120.940072830973
 31
0.0
  0
LINE
  5
27C
330
1F
100
AcDbEntity
  8
E-2
  6
Continuous
 62
     3
370
     9
100
AcDbLine
 10
-293.4776457891539
 20
126.9399936502297
 30
0.0
 11
-293.4776457891539
 21
220.9399078710913
 31
0.0
  0
LINE
  5
27D
330
1F
100
AcDbEntity
  8
E-2
  6
Continuous
 62
     3
370
     9
100
AcDbLine
 10
-298.4773839153417
 20
126.9399936502297
 30
0.0
 11
-298.4773839153417
 21
220.9399078710913
 31
0.0
  0
LINE
  5
27E
330
1F
100
AcDbEntity
  8
E-2
  6
Continuous
 62
     3
370
     9
100
AcDbLine
 10
-293.4776457891539
 20
226.9400761301708
 30
0.0
 11
-293.4776457891539
 21
320.9399903510324
 31
0.0
  0
LINE
  5
27F
330
1F
100
AcDbEntity
  8
E-2
  6
Continuous
 62
     3
370
     9
100
AcDbLine
 10
-298.4773839153417
 20
226.9400761301708
 30
0.0
 11
-298.4773839153417
 21
320.9399903510324
 31
0.0
  0
LINE
  5
280
330
1F
100
AcDbEntity
  8
E-2
  6
Continuous
 62
     3
370
     9
100
AcDbLine
 10
-293.4776457891539
 20
426.9399936502299
 30
0.0
 11
-293.4776457891539
 21
469.439037707715
 31
0.0
  0
LINE
  5
281
330
1F
100
AcDbEntity
  8
E-2
  6
Continuous
 62
     3
370
     9
100
AcDbLine
 10
-298.4773839153417
 20
426.9399936502299
 30
0.0
 11
-298.4773839153417
 21
469.439037707715
 31
0.0
  0
LINE
  5
282
330
1F
100
AcDbEntity
  8
E-2
  6
Continuous
 62
     3
370
     9
100
AcDbLine
 10
-293.4776457891539
 20
326.9401586101117
 30
0.0
 11
-293.4776457891539
 21
420.9398253911506
 31
0.0
  0
LINE
  5
283
330
1F
100
AcDbEntity
  8
E-2
  6
Continuous
 62
     3
370
     9
100
AcDbLine
 10
-298.4773839153417
 20
326.9401586101117
 30
0.0
 11
-298.4773839153417
 21
420.9398253911506
 31
0.0
  0
LINE
  5
284
330
1F
100
AcDbEntity
  8
E-2
  6
Continuous
 62
     3
370
     9
100
AcDbLine
 10
-278.4776457891539
 20
-73.05975890994748
 30
0.0
 11
-278.4776457891539
 21
20.94007283097294
 31
0.0
  0
LINE
  5
285
330
1F
100
AcDbEntity
  8
E-2
  6
Continuous
 62
     3
370
     9
100
AcDbLine
 10
-278.4776457891539
 20
-121.5603552399201
 30
0.0
 11
-278.4776457891539
 21
-79.05992716902705
 31
0.0
  0
LINE
  5
286
330
1F
100
AcDbEntity
  8
E-2
  6
Continuous
 62
     3
370
     9
100
AcDbLine
 10
-283.4773839153417
 20
-73.05975890994748
 30
0.0
 11
-283.4773839153417
 21
20.94007283097294
 31
0.0
  0
LINE
  5
287
330
1F
100
AcDbEntity
  8
E-2
  6
Continuous
 62
     3
370
     9
100
AcDbLine
 10
-283.4773839153417
 20
-121.5603552399201
 30
0.0
 11
-283.4773839153417
 21
-79.05992716902705
 31
0.0
  0
LINE
  5
288
330
1F
100
AcDbEntity
  8
E-2
  6
Continuous
 62
     3
370
     9
100
AcDbLine
 10
-278.4776457891539
 20
26.94024109005252
 30
0.0
 11
-278.4776457891539
 21
120.940072830973
 31
0.0
  0
LINE
  5
289
330
1F
100
AcDbEntity
  8
E-2
  6
Continuous
 62
     3
370
     9
100
AcDbLine
 10
-283.4773839153417
 20
26.94024109005252
 30
0.0
 11
-283.4773839153417
 21
120.940072830973
 31
0.0
  0
LINE
  5
28A
330
1F
100
AcDbEntity
  8
E-2
  6
Continuous
 62
     3
370
     9
100
AcDbLine
 10
-278.4776457891539
 20
126.9399936502297
 30
0.0
 11
-278.4776457891539
 21
220.9399078710913
 31
0.0
  0
LINE
  5
28B
330
1F
100
AcDbEntity
  8
E-2
  6
Continuous
 62
     3
370
     9
100
AcDbLine
 10
-283.4773839153417
 20
126.9399936502297
 30
0.0
 11
-283.4773839153417
 21
220.9399078710913
 31
0.0
  0
LINE
  5
28C
330
1F
100
AcDbEntity
  8
E-2
  6
Continuous
 62
     3
370
     9
100
AcDbLine
 10
-278.4776457891539
 20
226.9400761301708
 30
0.0
 11
-278.4776457891539
 21
320.9399903510324
 31
0.0
  0
LINE
  5
28D
330
1F
100
AcDbEntity
  8
E-2
  6
Continuous
 62
     3
370
     9
100
AcDbLine
 10
-283.4773839153417
 20
226.9400761301708
 30
0.0
 11
-283.4773839153417
 21
320.9399903510324
 31
0.0
  0
LINE
  5
28E
330
1F
100
AcDbEntity
  8
E-2
  6
Continuous
 62
     3
370
     9
100
AcDbLine
 10
-278.4776457891539
 20
426.9399936502299
 30
0.0
 11
-278.4776457891539
 21
469.439037707715
 31
0.0
  0
LINE
  5
28F
330
1F
100
AcDbEntity
  8
E-2
  6
Continuous
 62
     3
370
     9
100
AcDbLine
 10
-283.4773839153417
 20
426.9399936502299
 30
0.0
 11
-283.4773839153417
 21
469.439037707715
 31
0.0
  0
LINE
  5
290
330
1F
100
AcDbEntity
  8
E-2
  6
Continuous
 62
     3
370
     9
100
AcDbLine
 10
-278.4776457891539
 20
326.9401586101117
 30
0.0
 11
-278.4776457891539
 21
420.9398253911506
 31
0.0
  0
LINE
  5
291
330
1F
100
AcDbEntity
  8
E-2
  6
Continuous
 62
     3
370
     9
100
AcDbLine
 10
-283.4773839153417
 20
326.9401586101117
 30
0.0
 11
-283.4773839153417
 21
420.9398253911506
 31
0.0
  0
LINE
  5
292
330
1F
100
AcDbEntity
  8
E-2
  6
Continuous
 62
     3
370
     9
100
AcDbLine
 10
-263.4776457891539
 20
-73.05975890994748
 30
0.0
 11
-263.4776457891539
 21
20.94007283097294
 31
0.0
  0
LINE
  5
293
330
1F
100
AcDbEntity
  8
E-2
  6
Continuous
 62
     3
370
     9
100
AcDbLine
 10
-263.4776457891539
 20
-121.5603552399201
 30
0.0
 11
-263.4776457891539
 21
-79.05992716902705
 31
0.0
  0
LINE
  5
294
330
1F
100
AcDbEntity
  8
E-2
  6
Continuous
 62
     3
370
     9
100
AcDbLine
 10
-268.4773839153417
 20
-73.05975890994748
 30
0.0
 11
-268.4773839153417
 21
20.94007283097294
 31
0.0
  0
LINE
  5
295
330
1F
100
AcDbEntity
  8
E-2
  6
Continuous
 62
     3
370
     9
100
AcDbLine
 10
-268.4773839153417
 20
-121.5603552399201
 30
0.0
 11
-268.4773839153417
 21
-79.05992716902705
 31
0.0
  0
LINE
  5
296
330
1F
100
AcDbEntity
  8
E-2
  6
Continuous
 62
     3
370
     9
100
AcDbLine
 10
-263.4776457891539
 20
26.94024109005252
 30
0.0
 11
-263.4776457891539
 21
120.940072830973
 31
0.0
  0
LINE
  5
297
330
1F
100
AcDbEntity
  8
E-2
  6
Continuous
 62
     3
370
     9
100
AcDbLine
 10
-268.4773839153417
 20
26.94024109005252
 30
0.0
 11
-268.4773839153417
 21
120.940072830973
 31
0.0
  0
LINE
  5
298
330
1F
100
AcDbEntity
  8
E-2
  6
Continuous
 62
     3
370
     9
100
AcDbLine
 10
-263.4776457891539
 20
126.9399936502297
 30
0.0
 11
-263.4776457891539
 21
220.9399078710913
 31
0.0
  0
LINE
  5
299
330
1F
100
AcDbEntity
  8
E-2
  6
Continuous
 62
     3
370
     9
100
AcDbLine
 10
-268.4773839153417
 20
126.9399936502297
 30
0.0
 11
-268.4773839153417
 21
220.9399078710913
 31
0.0
  0
LINE
  5
29A
330
1F
100
AcDbEntity
  8
E-2
  6
Continuous
 62
     3
370
     9
100
AcDbLine
 10
-263.4776457891539
 20
226.9400761301708
 30
0.0
 11
-263.4776457891539
 21
320.9399903510324
 31
0.0
  0
LINE
  5
29B
330
1F
100
AcDbEntity
  8
E-2
  6
Continuous
 62
     3
370
     9
100
AcDbLine
 10
-268.4773839153417
 20
226.9400761301708
 30
0.0
 11
-268.4773839153417
 21
320.9399903510324
 31
0.0
  0
LINE
  5
29C
330
1F
100
AcDbEntity
  8
E-2
  6
Continuous
 62
     3
370
     9
100
AcDbLine
 10
-263.4776457891539
 20
426.9399936502299
 30
0.0
 11
-263.4776457891539
 21
469.439037707715
 31
0.0
  0
LINE
  5
29D
330
1F
100
AcDbEntity
  8
E-2
  6
Continuous
 62
     3
370
     9
100
AcDbLine
 10
-268.4773839153417
 20
426.9399936502299
 30
0.0
 11
-268.4773839153417
 21
469.439037707715
 31
0.0
  0
LINE
  5
29E
330
1F
100
AcDbEntity
  8
E-2
  6
Continuous
 62
     3
370
     9
100
AcDbLine
 10
-263.4776457891539
 20
326.9401586101117
 30
0.0
 11
-263.4776457891539
 21
420.9398253911506
 31
0.0
  0
LINE
  5
29F
330
1F
100
AcDbEntity
  8
E-2
  6
Continuous
 62
     3
370
     9
100
AcDbLine
 10
-268.4773839153417
 20
326.9401586101117
 30
0.0
 11
-268.4773839153417
 21
420.9398253911506
 31
0.0
  0
LINE
  5
2A0
330
1F
100
AcDbEntity
  8
E-2
  6
Continuous
 62
     3
370
     9
100
AcDbLine
 10
-248.4776457891539
 20
-73.05975890994748
 30
0.0
 11
-248.4776457891539
 21
20.94007283097294
 31
0.0
  0
LINE
  5
2A1
330
1F
100
AcDbEntity
  8
E-2
  6
Continuous
 62
     3
370
     9
100
AcDbLine
 10
-248.4776457891539
 20
-121.5603552399201
 30
0.0
 11
-248.4776457891539
 21
-79.05992716902705
 31
0.0
  0
LINE
  5
2A2
330
1F
100
AcDbEntity
  8
E-2
  6
Continuous
 62
     3
370
     9
100
AcDbLine
 10
-253.4773839153417
 20
-73.05975890994748
 30
0.0
 11
-253.4773839153417
 21
20.94007283097294
 31
0.0
  0
LINE
  5
2A3
330
1F
100
AcDbEntity
  8
E-2
  6
Continuous
 62
     3
370
     9
100
AcDbLine
 10
-253.4773839153417
 20
-121.5603552399201
 30
0.0
 11
-253.4773839153417
 21
-79.05992716902705
 31
0.0
  0
LINE
  5
2A4
330
1F
100
AcDbEntity
  8
E-2
  6
Continuous
 62
     3
370
     9
100
AcDbLine
 10
-248.4776457891539
 20
26.94024109005252
 30
0.0
 11
-248.4776457891539
 21
120.940072830973
 31
0.0
  0
LINE
  5
2A5
330
1F
100
AcDbEntity
  8
E-2
  6
Continuous
 62
     3
370
     9
100
AcDbLine
 10
-253.4773839153417
 20
26.94024109005252
 30
0.0
 11
-253.4773839153417
 21
120.940072830973
 31
0.0
  0
LINE
  5
2A6
330
1F
100
AcDbEntity
  8
E-2
  6
Continuous
 62
     3
370
     9
100
AcDbLine
 10
-248.4776457891539
 20
126.9399936502297
 30
0.0
 11
-248.4776457891539
 21
220.9399078710913
 31
0.0
  0
LINE
  5
2A7
330
1F
100
AcDbEntity
  8
E-2
  6
Continuous
 62
     3
370
     9
100
AcDbLine
 10
-253.4773839153417
 20
126.9399936502297
 30
0.0
 11
-253.4773839153417
 21
220.9399078710913
 31
0.0
  0
LINE
  5
2A8
330
1F
100
AcDbEntity
  8
E-2
  6
Continuous
 62
     3
370
     9
100
AcDbLine
 10
-248.4776457891539
 20
226.9400761301708
 30
0.0
 11
-248.4776457891539
 21
320.9399903510324
 31
0.0
  0
LINE
  5
2A9
330
1F
100
AcDbEntity
  8
E-2
  6
Continuous
 62
     3
370
     9
100
AcDbLine
 10
-253.4773839153417
 20
226.9400761301708
 30
0.0
 11
-253.4773839153417
 21
320.9399903510324
 31
0.0
  0
LINE
  5
2AA
330
1F
100
AcDbEntity
  8
E-2
  6
Continuous
 62
     3
370
     9
100
AcDbLine
 10
-248.4776457891539
 20
426.9399936502299
 30
0.0
 11
-248.4776457891539
 21
469.439037707715
 31
0.0
  0
LINE
  5
2AB
330
1F
100
AcDbEntity
  8
E-2
  6
Continuous
 62
     3
370
     9
100
AcDbLine
 10
-253.4773839153417
 20
426.9399936502299
 30
0.0
 11
-253.4773839153417
 21
469.439037707715
 31
0.0
  0
LINE
  5
2AC
330
1F
100
AcDbEntity
  8
E-2
  6
Continuous
 62
     3
370
     9
100
AcDbLine
 10
-248.4776457891539
 20
326.9401586101117
 30
0.0
 11
-248.4776457891539
 21
420.9398253911506
 31
0.0
  0
LINE
  5
2AD
330
1F
100
AcDbEntity
  8
E-2
  6
Continuous
 62
     3
370
     9
100
AcDbLine
 10
-253.4773839153417
 20
326.9401586101117
 30
0.0
 11
-253.4773839153417
 21
420.9398253911506
 31
0.0
  0
LINE
  5
2AE
330
1F
100
AcDbEntity
  8
E-2
  6
Continuous
 62
     3
370
     9
100
AcDbLine
 10
-233.4776457891539
 20
-73.05975890994748
 30
0.0
 11
-233.4776457891539
 21
20.94007283097294
 31
0.0
  0
LINE
  5
2AF
330
1F
100
AcDbEntity
  8
E-2
  6
Continuous
 62
     3
370
     9
100
AcDbLine
 10
-233.4776457891539
 20
-121.5603552399201
 30
0.0
 11
-233.4776457891539
 21
-79.05992716902705
 31
0.0
  0
LINE
  5
2B0
330
1F
100
AcDbEntity
  8
E-2
  6
Continuous
 62
     3
370
     9
100
AcDbLine
 10
-238.4773839153417
 20
-73.05975890994748
 30
0.0
 11
-238.4773839153417
 21
20.94007283097294
 31
0.0
  0
LINE
  5
2B1
330
1F
100
AcDbEntity
  8
E-2
  6
Continuous
 62
     3
370
     9
100
AcDbLine
 10
-238.4773839153417
 20
-121.5603552399201
 30
0.0
 11
-238.4773839153417
 21
-79.05992716902705
 31
0.0
  0
LINE
  5
2B2
330
1F
100
AcDbEntity
  8
E-2
  6
Continuous
 62
     3
370
     9
100
AcDbLine
 10
-233.4776457891539
 20
26.94024109005252
 30
0.0
 11
-233.4776457891539
 21
120.940072830973
 31
0.0
  0
LINE
  5
2B3
330
1F
100
AcDbEntity
  8
E-2
  6
Continuous
 62
     3
370
     9
100
AcDbLine
 10
-238.4773839153417
 20
26.94024109005252
 30
0.0
 11
-238.4773839153417
 21
120.940072830973
 31
0.0
  0
LINE
  5
2B4
330
1F
100
AcDbEntity
  8
E-2
  6
Continuous
 62
     3
370
     9
100
AcDbLine
 10
-233.4776457891539
 20
126.9399936502297
 30
0.0
 11
-233.4776457891539
 21
220.9399078710913
 31
0.0
  0
LINE
  5
2B5
330
1F
100
AcDbEntity
  8
E-2
  6
Continuous
 62
     3
370
     9
100
AcDbLine
 10
-238.4773839153417
 20
126.9399936502297
 30
0.0
 11
-238.4773839153417
 21
220.9399078710913
 31
0.0
  0
LINE
  5
2B6
330
1F
100
AcDbEntity
  8
E-2
  6
Continuous
 62
     3
370
     9
100
AcDbLine
 10
-233.4776457891539
 20
226.9400761301708
 30
0.0
 11
-233.4776457891539
 21
320.9399903510324
 31
0.0
  0
LINE
  5
2B7
330
1F
100
AcDbEntity
  8
E-2
  6
Continuous
 62
     3
370
     9
100
AcDbLine
 10
-238.4773839153417
 20
226.9400761301708
 30
0.0
 11
-238.4773839153417
 21
320.9399903510324
 31
0.0
  0
LINE
  5
2B8
330
1F
100
AcDbEntity
  8
E-2
  6
Continuous
 62
     3
370
     9
100
AcDbLine
 10
-233.4776457891539
 20
426.9399936502299
 30
0.0
 11
-233.4776457891539
 21
469.439037707715
 31
0.0
  0
LINE
  5
2B9
330
1F
100
AcDbEntity
  8
E-2
  6
Continuous
 62
     3
370
     9
100
AcDbLine
 10
-238.4773839153417
 20
426.9399936502299
 30
0.0
 11
-238.4773839153417
 21
469.439037707715
 31
0.0
  0
LINE
  5
2BA
330
1F
100
AcDbEntity
  8
E-2
  6
Continuous
 62
     3
370
     9
100
AcDbLine
 10
-233.4776457891539
 20
326.9401586101117
 30
0.0
 11
-233.4776457891539
 21
420.9398253911506
 31
0.0
  0
LINE
  5
2BB
330
1F
100
AcDbEntity
  8
E-2
  6
Continuous
 62
     3
370
     9
100
AcDbLine
 10
-238.4773839153417
 20
326.9401586101117
 30
0.0
 11
-238.4773839153417
 21
420.9398253911506
 31
0.0
  0
LINE
  5
2BC
330
1F
100
AcDbEntity
  8
E-2
  6
Continuous
 62
     3
370
     9
100
AcDbLine
 10
-218.4776457891539
 20
-73.05975890994748
 30
0.0
 11
-218.4776457891539
 21
20.94007283097294
 31
0.0
  0
LINE
  5
2BD
330
1F
100
AcDbEntity
  8
E-2
  6
Continuous
 62
     3
370
     9
100
AcDbLine
 10
-218.4776457891539
 20
-121.5603552399201
 30
0.0
 11
-218.4776457891539
 21
-79.05992716902705
 31
0.0
  0
LINE
  5
2BE
330
1F
100
AcDbEntity
  8
E-2
  6
Continuous
 62
     3
370
     9
100
AcDbLine
 10
-223.4773839153417
 20
-73.05975890994748
 30
0.0
 11
-223.4773839153417
 21
20.94007283097294
 31
0.0
  0
LINE
  5
2BF
330
1F
100
AcDbEntity
  8
E-2
  6
Continuous
 62
     3
370
     9
100
AcDbLine
 10
-223.4773839153417
 20
-121.5603552399201
 30
0.0
 11
-223.4773839153417
 21
-79.05992716902705
 31
0.0
  0
LINE
  5
2C0
330
1F
100
AcDbEntity
  8
E-2
  6
Continuous
 62
     3
370
     9
100
AcDbLine
 10
-218.4776457891539
 20
26.94024109005252
 30
0.0
 11
-218.4776457891539
 21
120.940072830973
 31
0.0
  0
LINE
  5
2C1
330
1F
100
AcDbEntity
  8
E-2
  6
Continuous
 62
     3
370
     9
100
AcDbLine
 10
-223.4773839153417
 20
26.94024109005252
 30
0.0
 11
-223.4773839153417
 21
120.940072830973
 31
0.0
  0
LINE
  5
2C2
330
1F
100
AcDbEntity
  8
E-2
  6
Continuous
 62
     3
370
     9
100
AcDbLine
 10
-218.4776457891539
 20
126.9399936502297
 30
0.0
 11
-218.4776457891539
 21
220.9399078710913
 31
0.0
  0
LINE
  5
2C3
330
1F
100
AcDbEntity
  8
E-2
  6
Continuous
 62
     3
370
     9
100
AcDbLine
 10
-223.4773839153417
 20
126.9399936502297
 30
0.0
 11
-223.4773839153417
 21
220.9399078710913
 31
0.0
  0
LINE
  5
2C4
330
1F
100
AcDbEntity
  8
E-2
  6
Continuous
 62
     3
370
     9
100
AcDbLine
 10
-218.4776457891539
 20
226.9400761301708
 30
0.0
 11
-218.4776457891539
 21
320.9399903510324
 31
0.0
  0
LINE
  5
2C5
330
1F
100
AcDbEntity
  8
E-2
  6
Continuous
 62
     3
370
     9
100
AcDbLine
 10
-223.4773839153417
 20
226.9400761301708
 30
0.0
 11
-223.4773839153417
 21
320.9399903510324
 31
0.0
  0
LINE
  5
2C6
330
1F
100
AcDbEntity
  8
E-2
  6
Continuous
 62
     3
370
     9
100
AcDbLine
 10
-218.4776457891539
 20
426.9399936502299
 30
0.0
 11
-218.4776457891539
 21
469.439037707715
 31
0.0
  0
LINE
  5
2C7
330
1F
100
AcDbEntity
  8
E-2
  6
Continuous
 62
     3
370
     9
100
AcDbLine
 10
-223.4773839153417
 20
426.9399936502299
 30
0.0
 11
-223.4773839153417
 21
469.439037707715
 31
0.0
  0
LINE
  5
2C8
330
1F
100
AcDbEntity
  8
E-2
  6
Continuous
 62
     3
370
     9
100
AcDbLine
 10
-218.4776457891539
 20
326.9401586101117
 30
0.0
 11
-218.4776457891539
 21
420.9398253911506
 31
0.0
  0
LINE
  5
2C9
330
1F
100
AcDbEntity
  8
E-2
  6
Continuous
 62
     3
370
     9
100
AcDbLine
 10
-223.4773839153417
 20
326.9401586101117
 30
0.0
 11
-223.4773839153417
 21
420.9398253911506
 31
0.0
  0
LINE
  5
2CA
330
1F
100
AcDbEntity
  8
E-2
  6
Continuous
 62
     3
370
     9
100
AcDbLine
 10
-203.4776457891539
 20
-73.05975890994748
 30
0.0
 11
-203.4776457891539
 21
20.94007283097294
 31
0.0
  0
LINE
  5
2CB
330
1F
100
AcDbEntity
  8
E-2
  6
Continuous
 62
     3
370
     9
100
AcDbLine
 10
-203.4776457891539
 20
-121.5603552399201
 30
0.0
 11
-203.4776457891539
 21
-79.05992716902705
 31
0.0
  0
LINE
  5
2CC
330
1F
100
AcDbEntity
  8
E-2
  6
Continuous
 62
     3
370
     9
100
AcDbLine
 10
-208.4773839153417
 20
-73.05975890994748
 30
0.0
 11
-208.4773839153417
 21
20.94007283097294
 31
0.0
  0
LINE
  5
2CD
330
1F
100
AcDbEntity
  8
E-2
  6
Continuous
 62
     3
370
     9
100
AcDbLine
 10
-208.4773839153417
 20
-121.5603552399201
 30
0.0
 11
-208.4773839153417
 21
-79.05992716902705
 31
0.0
  0
LINE
  5
2CE
330
1F
100
AcDbEntity
  8
E-2
  6
Continuous
 62
     3
370
     9
100
AcDbLine
 10
-203.4776457891539
 20
26.94024109005252
 30
0.0
 11
-203.4776457891539
 21
120.940072830973
 31
0.0
  0
LINE
  5
2CF
330
1F
100
AcDbEntity
  8
E-2
  6
Continuous
 62
     3
370
     9
100
AcDbLine
 10
-208.4773839153417
 20
26.94024109005252
 30
0.0
 11
-208.4773839153417
 21
120.940072830973
 31
0.0
  0
LINE
  5
2D0
330
1F
100
AcDbEntity
  8
E-2
  6
Continuous
 62
     3
370
     9
100
AcDbLine
 10
-203.4776457891539
 20
126.9399936502297
 30
0.0
 11
-203.4776457891539
 21
220.9399078710913
 31
0.0
  0
LINE
  5
2D1
330
1F
100
AcDbEntity
  8
E-2
  6
Continuous
 62
     3
370
     9
100
AcDbLine
 10
-208.4773839153417
 20
126.9399936502297
 30
0.0
 11
-208.4773839153417
 21
220.9399078710913
 31
0.0
  0
LINE
  5
2D2
330
1F
100
AcDbEntity
  8
E-2
  6
Continuous
 62
     3
370
     9
100
AcDbLine
 10
-203.4776457891539
 20
226.9400761301708
 30
0.0
 11
-203.4776457891539
 21
320.9399903510324
 31
0.0
  0
LINE
  5
2D3
330
1F
100
AcDbEntity
  8
E-2
  6
Continuous
 62
     3
370
     9
100
AcDbLine
 10
-208.4773839153417
 20
226.9400761301708
 30
0.0
 11
-208.4773839153417
 21
320.9399903510324
 31
0.0
  0
LINE
  5
2D4
330
1F
100
AcDbEntity
  8
E-2
  6
Continuous
 62
     3
370
     9
100
AcDbLine
 10
-203.4776457891539
 20
426.9399936502299
 30
0.0
 11
-203.4776457891539
 21
469.439037707715
 31
0.0
  0
LINE
  5
2D5
330
1F
100
AcDbEntity
  8
E-2
  6
Continuous
 62
     3
370
     9
100
AcDbLine
 10
-208.4773839153417
 20
426.9399936502299
 30
0.0
 11
-208.4773839153417
 21
469.439037707715
 31
0.0
  0
LINE
  5
2D6
330
1F
100
AcDbEntity
  8
E-2
  6
Continuous
 62
     3
370
     9
100
AcDbLine
 10
-203.4776457891539
 20
326.9401586101117
 30
0.0
 11
-203.4776457891539
 21
420.9398253911506
 31
0.0
  0
LINE
  5
2D7
330
1F
100
AcDbEntity
  8
E-2
  6
Continuous
 62
     3
370
     9
100
AcDbLine
 10
-208.4773839153417
 20
326.9401586101117
 30
0.0
 11
-208.4773839153417
 21
420.9398253911506
 31
0.0
  0
LINE
  5
2D8
330
1F
100
AcDbEntity
  8
E-2
  6
Continuous
 62
     3
370
     9
100
AcDbLine
 10
-188.4776457891539
 20
-73.05975890994748
 30
0.0
 11
-188.4776457891539
 21
20.94007283097294
 31
0.0
  0
LINE
  5
2D9
330
1F
100
AcDbEntity
  8
E-2
  6
Continuous
 62
     3
370
     9
100
AcDbLine
 10
-188.4776457891539
 20
-121.5603552399201
 30
0.0
 11
-188.4776457891539
 21
-79.05992716902705
 31
0.0
  0
LINE
  5
2DA
330
1F
100
AcDbEntity
  8
E-2
  6
Continuous
 62
     3
370
     9
100
AcDbLine
 10
-193.4773839153417
 20
-73.05975890994748
 30
0.0
 11
-193.4773839153417
 21
20.94007283097294
 31
0.0
  0
LINE
  5
2DB
330
1F
100
AcDbEntity
  8
E-2
  6
Continuous
 62
     3
370
     9
100
AcDbLine
 10
-193.4773839153417
 20
-121.5603552399201
 30
0.0
 11
-193.4773839153417
 21
-79.05992716902705
 31
0.0
  0
LINE
  5
2DC
330
1F
100
AcDbEntity
  8
E-2
  6
Continuous
 62
     3
370
     9
100
AcDbLine
 10
-188.4776457891539
 20
26.94024109005252
 30
0.0
 11
-188.4776457891539
 21
120.940072830973
 31
0.0
  0
LINE
  5
2DD
330
1F
100
AcDbEntity
  8
E-2
  6
Continuous
 62
     3
370
     9
100
AcDbLine
 10
-193.4773839153417
 20
26.94024109005252
 30
0.0
 11
-193.4773839153417
 21
120.940072830973
 31
0.0
  0
LINE
  5
2DE
330
1F
100
AcDbEntity
  8
E-2
  6
Continuous
 62
     3
370
     9
100
AcDbLine
 10
-188.4776457891539
 20
126.9399936502297
 30
0.0
 11
-188.4776457891539
 21
220.9399078710913
 31
0.0
  0
LINE
  5
2DF
330
1F
100
AcDbEntity
  8
E-2
  6
Continuous
 62
     3
370
     9
100
AcDbLine
 10
-193.4773839153417
 20
126.9399936502297
 30
0.0
 11
-193.4773839153417
 21
220.9399078710913
 31
0.0
  0
LINE
  5
2E0
330
1F
100
AcDbEntity
  8
E-2
  6
Continuous
 62
     3
370
     9
100
AcDbLine
 10
-188.4776457891539
 20
226.9400761301708
 30
0.0
 11
-188.4776457891539
 21
320.9399903510324
 31
0.0
  0
LINE
  5
2E1
330
1F
100
AcDbEntity
  8
E-2
  6
Continuous
 62
     3
370
     9
100
AcDbLine
 10
-193.4773839153417
 20
226.9400761301708
 30
0.0
 11
-193.4773839153417
 21
320.9399903510324
 31
0.0
  0
LINE
  5
2E2
330
1F
100
AcDbEntity
  8
E-2
  6
Continuous
 62
     3
370
     9
100
AcDbLine
 10
-188.4776457891539
 20
426.9399936502299
 30
0.0
 11
-188.4776457891539
 21
469.439037707715
 31
0.0
  0
LINE
  5
2E3
330
1F
100
AcDbEntity
  8
E-2
  6
Continuous
 62
     3
370
     9
100
AcDbLine
 10
-193.4773839153417
 20
426.9399936502299
 30
0.0
 11
-193.4773839153417
 21
469.439037707715
 31
0.0
  0
LINE
  5
2E4
330
1F
100
AcDbEntity
  8
E-2
  6
Continuous
 62
     3
370
     9
100
AcDbLine
 10
-188.4776457891539
 20
326.9401586101117
 30
0.0
 11
-188.4776457891539
 21
420.9398253911506
 31
0.0
  0
LINE
  5
2E5
330
1F
100
AcDbEntity
  8
E-2
  6
Continuous
 62
     3
370
     9
100
AcDbLine
 10
-193.4773839153417
 20
326.9401586101117
 30
0.0
 11
-193.4773839153417
 21
420.9398253911506
 31
0.0
  0
LINE
  5
2E6
330
1F
100
AcDbEntity
  8
E-2
  6
Continuous
 62
     3
370
     9
100
AcDbLine
 10
-173.4776457891539
 20
-73.05975890994748
 30
0.0
 11
-173.4776457891539
 21
20.94007283097294
 31
0.0
  0
LINE
  5
2E7
330
1F
100
AcDbEntity
  8
E-2
  6
Continuous
 62
     3
370
     9
100
AcDbLine
 10
-173.4776457891539
 20
-121.5603552399201
 30
0.0
 11
-173.4776457891539
 21
-79.05992716902705
 31
0.0
  0
LINE
  5
2E8
330
1F
100
AcDbEntity
  8
E-2
  6
Continuous
 62
     3
370
     9
100
AcDbLine
 10
-178.4773839153417
 20
-73.05975890994748
 30
0.0
 11
-178.4773839153417
 21
20.94007283097294
 31
0.0
  0
LINE
  5
2E9
330
1F
100
AcDbEntity
  8
E-2
  6
Continuous
 62
     3
370
     9
100
AcDbLine
 10
-178.4773839153417
 20
-121.5603552399201
 30
0.0
 11
-178.4773839153417
 21
-79.05992716902705
 31
0.0
  0
LINE
  5
2EA
330
1F
100
AcDbEntity
  8
E-2
  6
Continuous
 62
     3
370
     9
100
AcDbLine
 10
-173.4776457891539
 20
26.94024109005252
 30
0.0
 11
-173.4776457891539
 21
120.940072830973
 31
0.0
  0
LINE
  5
2EB
330
1F
100
AcDbEntity
  8
E-2
  6
Continuous
 62
     3
370
     9
100
AcDbLine
 10
-178.4773839153417
 20
26.94024109005252
 30
0.0
 11
-178.4773839153417
 21
120.940072830973
 31
0.0
  0
LINE
  5
2EC
330
1F
100
AcDbEntity
  8
E-2
  6
Continuous
 62
     3
370
     9
100
AcDbLine
 10
-173.4776457891539
 20
126.9399936502297
 30
0.0
 11
-173.4776457891539
 21
220.9399078710913
 31
0.0
  0
LINE
  5
2ED
330
1F
100
AcDbEntity
  8
E-2
  6
Continuous
 62
     3
370
     9
100
AcDbLine
 10
-178.4773839153417
 20
126.9399936502297
 30
0.0
 11
-178.4773839153417
 21
220.9399078710913
 31
0.0
  0
LINE
  5
2EE
330
1F
100
AcDbEntity
  8
E-2
  6
Continuous
 62
     3
370
     9
100
AcDbLine
 10
-173.4776457891539
 20
226.9400761301708
 30
0.0
 11
-173.4776457891539
 21
320.9399903510324
 31
0.0
  0
LINE
  5
2EF
330
1F
100
AcDbEntity
  8
E-2
  6
Continuous
 62
     3
370
     9
100
AcDbLine
 10
-178.4773839153417
 20
226.9400761301708
 30
0.0
 11
-178.4773839153417
 21
320.9399903510324
 31
0.0
  0
LINE
  5
2F0
330
1F
100
AcDbEntity
  8
E-2
  6
Continuous
 62
     3
370
     9
100
AcDbLine
 10
-173.4776457891539
 20
426.9399936502299
 30
0.0
 11
-173.4776457891539
 21
469.439037707715
 31
0.0
  0
LINE
  5
2F1
330
1F
100
AcDbEntity
  8
E-2
  6
Continuous
 62
     3
370
     9
100
AcDbLine
 10
-178.4773839153417
 20
426.9399936502299
 30
0.0
 11
-178.4773839153417
 21
469.439037707715
 31
0.0
  0
LINE
  5
2F2
330
1F
100
AcDbEntity
  8
E-2
  6
Continuous
 62
     3
370
     9
100
AcDbLine
 10
-173.4776457891539
 20
326.9401586101117
 30
0.0
 11
-173.4776457891539
 21
420.9398253911506
 31
0.0
  0
LINE
  5
2F3
330
1F
100
AcDbEntity
  8
E-2
  6
Continuous
 62
     3
370
     9
100
AcDbLine
 10
-178.4773839153417
 20
326.9401586101117
 30
0.0
 11
-178.4773839153417
 21
420.9398253911506
 31
0.0
  0
LINE
  5
2F4
330
1F
100
AcDbEntity
  8
E-2
  6
Continuous
 62
     3
370
     9
100
AcDbLine
 10
-158.4776457891539
 20
-73.05975890994748
 30
0.0
 11
-158.4776457891539
 21
20.94007283097294
 31
0.0
  0
LINE
  5
2F5
330
1F
100
AcDbEntity
  8
E-2
  6
Continuous
 62
     3
370
     9
100
AcDbLine
 10
-158.4776457891539
 20
-121.5603552399201
 30
0.0
 11
-158.4776457891539
 21
-79.05992716902705
 31
0.0
  0
LINE
  5
2F6
330
1F
100
AcDbEntity
  8
E-2
  6
Continuous
 62
     3
370
     9
100
AcDbLine
 10
-163.4773839153417
 20
-73.05975890994748
 30
0.0
 11
-163.4773839153417
 21
20.94007283097294
 31
0.0
  0
LINE
  5
2F7
330
1F
100
AcDbEntity
  8
E-2
  6
Continuous
 62
     3
370
     9
100
AcDbLine
 10
-163.4773839153417
 20
-121.5603552399201
 30
0.0
 11
-163.4773839153417
 21
-79.05992716902705
 31
0.0
  0
LINE
  5
2F8
330
1F
100
AcDbEntity
  8
E-2
  6
Continuous
 62
     3
370
     9
100
AcDbLine
 10
-158.4776457891539
 20
26.94024109005252
 30
0.0
 11
-158.4776457891539
 21
120.940072830973
 31
0.0
  0
LINE
  5
2F9
330
1F
100
AcDbEntity
  8
E-2
  6
Continuous
 62
     3
370
     9
100
AcDbLine
 10
-163.4773839153417
 20
26.94024109005252
 30
0.0
 11
-163.4773839153417
 21
120.940072830973
 31
0.0
  0
LINE
  5
2FA
330
1F
100
AcDbEntity
  8
E-2
  6
Continuous
 62
     3
370
     9
100
AcDbLine
 10
-158.4776457891539
 20
126.9399936502297
 30
0.0
 11
-158.4776457891539
 21
220.9399078710913
 31
0.0
  0
LINE
  5
2FB
330
1F
100
AcDbEntity
  8
E-2
  6
Continuous
 62
     3
370
     9
100
AcDbLine
 10
-163.4773839153417
 20
126.9399936502297
 30
0.0
 11
-163.4773839153417
 21
220.9399078710913
 31
0.0
  0
LINE
  5
2FC
330
1F
100
AcDbEntity
  8
E-2
  6
Continuous
 62
     3
370
     9
100
AcDbLine
 10
-158.4776457891539
 20
226.9400761301708
 30
0.0
 11
-158.4776457891539
 21
320.9399903510324
 31
0.0
  0
LINE
  5
2FD
330
1F
100
AcDbEntity
  8
E-2
  6
Continuous
 62
     3
370
     9
100
AcDbLine
 10
-163.4773839153417
 20
226.9400761301708
 30
0.0
 11
-163.4773839153417
 21
320.9399903510324
 31
0.0
  0
LINE
  5
2FE
330
1F
100
AcDbEntity
  8
E-2
  6
Continuous
 62
     3
370
     9
100
AcDbLine
 10
-158.4776457891539
 20
426.9399936502299
 30
0.0
 11
-158.4776457891539
 21
469.439037707715
 31
0.0
  0
LINE
  5
2FF
330
1F
100
AcDbEntity
  8
E-2
  6
Continuous
 62
     3
370
     9
100
AcDbLine
 10
-163.4773839153417
 20
426.9399936502299
 30
0.0
 11
-163.4773839153417
 21
469.439037707715
 31
0.0
  0
LINE
  5
300
330
1F
100
AcDbEntity
  8
E-2
  6
Continuous
 62
     3
370
     9
100
AcDbLine
 10
-158.4776457891539
 20
326.9401586101117
 30
0.0
 11
-158.4776457891539
 21
420.9398253911506
 31
0.0
  0
LINE
  5
301
330
1F
100
AcDbEntity
  8
E-2
  6
Continuous
 62
     3
370
     9
100
AcDbLine
 10
-163.4773839153417
 20
326.9401586101117
 30
0.0
 11
-163.4773839153417
 21
420.9398253911506
 31
0.0
  0
LINE
  5
302
330
1F
100
AcDbEntity
  8
E-2
  6
Continuous
 62
     3
370
     9
100
AcDbLine
 10
-143.4776457891539
 20
-73.05975890994748
 30
0.0
 11
-143.4776457891539
 21
20.94007283097294
 31
0.0
  0
LINE
  5
303
330
1F
100
AcDbEntity
  8
E-2
  6
Continuous
 62
     3
370
     9
100
AcDbLine
 10
-143.4776457891539
 20
-121.5603552399201
 30
0.0
 11
-143.4776457891539
 21
-79.05992716902705
 31
0.0
  0
LINE
  5
304
330
1F
100
AcDbEntity
  8
E-2
  6
Continuous
 62
     3
370
     9
100
AcDbLine
 10
-148.4773839153417
 20
-73.05975890994748
 30
0.0
 11
-148.4773839153417
 21
20.94007283097294
 31
0.0
  0
LINE
  5
305
330
1F
100
AcDbEntity
  8
E-2
  6
Continuous
 62
     3
370
     9
100
AcDbLine
 10
-148.4773839153417
 20
-121.5603552399201
 30
0.0
 11
-148.4773839153417
 21
-79.05992716902705
 31
0.0
  0
LINE
  5
306
330
1F
100
AcDbEntity
  8
E-2
  6
Continuous
 62
     3
370
     9
100
AcDbLine
 10
-143.4776457891539
 20
26.94024109005252
 30
0.0
 11
-143.4776457891539
 21
120.940072830973
 31
0.0
  0
LINE
  5
307
330
1F
100
AcDbEntity
  8
E-2
  6
Continuous
 62
     3
370
     9
100
AcDbLine
 10
-148.4773839153417
 20
26.94024109005252
 30
0.0
 11
-148.4773839153417
 21
120.940072830973
 31
0.0
  0
LINE
  5
308
330
1F
100
AcDbEntity
  8
E-2
  6
Continuous
 62
     3
370
     9
100
AcDbLine
 10
-143.4776457891539
 20
126.9399936502297
 30
0.0
 11
-143.4776457891539
 21
220.9399078710913
 31
0.0
  0
LINE
  5
309
330
1F
100
AcDbEntity
  8
E-2
  6
Continuous
 62
     3
370
     9
100
AcDbLine
 10
-148.4773839153417
 20
126.9399936502297
 30
0.0
 11
-148.4773839153417
 21
220.9399078710913
 31
0.0
  0
LINE
  5
30A
330
1F
100
AcDbEntity
  8
E-2
  6
Continuous
 62
     3
370
     9
100
AcDbLine
 10
-143.4776457891539
 20
226.9400761301708
 30
0.0
 11
-143.4776457891539
 21
320.9399903510324
 31
0.0
  0
LINE
  5
30B
330
1F
100
AcDbEntity
  8
E-2
  6
Continuous
 62
     3
370
     9
100
AcDbLine
 10
-148.4773839153417
 20
226.9400761301708
 30
0.0
 11
-148.4773839153417
 21
320.9399903510324
 31
0.0
  0
LINE
  5
30C
330
1F
100
AcDbEntity
  8
E-2
  6
Continuous
 62
     3
370
     9
100
AcDbLine
 10
-143.4776457891539
 20
426.9399936502299
 30
0.0
 11
-143.4776457891539
 21
469.439037707715
 31
0.0
  0
LINE
  5
30D
330
1F
100
AcDbEntity
  8
E-2
  6
Continuous
 62
     3
370
     9
100
AcDbLine
 10
-148.4773839153417
 20
426.9399936502299
 30
0.0
 11
-148.4773839153417
 21
469.439037707715
 31
0.0
  0
LINE
  5
30E
330
1F
100
AcDbEntity
  8
E-2
  6
Continuous
 62
     3
370
     9
100
AcDbLine
 10
-143.4776457891539
 20
326.9401586101117
 30
0.0
 11
-143.4776457891539
 21
420.9398253911506
 31
0.0
  0
LINE
  5
30F
330
1F
100
AcDbEntity
  8
E-2
  6
Continuous
 62
     3
370
     9
100
AcDbLine
 10
-148.4773839153417
 20
326.9401586101117
 30
0.0
 11
-148.4773839153417
 21
420.9398253911506
 31
0.0
  0
LINE
  5
310
330
1F
100
AcDbEntity
  8
E-4
  6
Continuous
 62
     7
370
     9
100
AcDbLine
 10
-670.9473751353519
 20
503.9398889007049
 30
0.0
 11
-656.0076545691436
 21
503.9398889007049
 31
0.0
  0
LWPOLYLINE
  5
311
330
1F
100
AcDbEntity
  8
E-4
  6
Continuous
 62
     7
370
     9
100
AcDbPolyline
 90
        4
 70
     1
 43
1.0
 10
-670.447375135352
 20
503.9398889007049
 42
0.4142135623731
 10
-670.9473751353519
 20
504.4398889007049
 42
0.4142135623731
 10
-671.4473751353519
 20
503.9398889007049
 42
0.4142135623731
 10
-670.9473751353519
 20
503.4398889007049
 42
0.4142135623731
  0
LWPOLYLINE
  5
312
330
1F
100
AcDbEntity
  8
E-4
  6
Continuous
 62
     7
370
     9
100
AcDbPolyline
 90
        4
 70
     1
 43
1.0
 10
-655.5076545691436
 20
503.9398889007049
 42
0.4142135623731
 10
-656.0076545691436
 20
504.4398889007049
 42
0.4142135623731
 10
-656.5076545691436
 20
503.9398889007049
 42
0.4142135623731
 10
-656.0076545691436
 20
503.4398889007049
 42
0.4142135623731
  0
TEXT
  5
313
330
1F
100
AcDbEntity
  8
E-4
  6
Continuous
 62
     2
370
   211
100
AcDbText
 10
-674.1025148522476
 20
509.7598889007049
 30
0.0
 40
15.24
  1
15
 41
1.0625
  7
ＭＳ ゴシック
100
AcDbText
  0
LINE
  5
314
330
1F
100
AcDbEntity
  8
E-4
  6
Continuous
 62
     7
370
     9
100
AcDbLine
 10
-670.9473751353519
 20
505.4398889007048
 30
0.0
 11
-670.9473751353519
 21
453.9398889007049
 31
0.0
  0
LINE
  5
315
330
1F
100
AcDbEntity
  8
E-4
  6
Continuous
 62
     7
370
     9
100
AcDbLine
 10
-656.0076545691436
 20
505.4398889007048
 30
0.0
 11
-656.0076545691436
 21
453.9398889007049
 31
0.0
  0
LINE
  5
316
330
1F
100
AcDbEntity
  8
E-5
  6
Continuous
 62
     7
370
     9
100
AcDbLine
 10
-249.8892855739538
 20
473.9397206416254
 30
0.0
 11
-201.0612438348463
 21
656.1683203961651
 31
0.0
  0
LINE
  5
317
330
1F
100
AcDbEntity
  8
E-5
  6
Continuous
 62
     7
370
     9
100
AcDbLine
 10
-201.0612438348463
 20
656.1683203961651
 30
0.0
 11
32.56500326185972
 21
656.1683203961651
 31
0.0
  0
LINE
  5
318
330
1F
100
AcDbEntity
  8
E-5
  6
Continuous
 62
     7
370
     9
100
AcDbLine
 10
-249.8892855739538
 20
473.9397206416254
 30
0.0
 11
-245.9030300313017
 21
483.5633976633737
 31
0.0
  0
LINE
  5
319
330
1F
100
AcDbEntity
  8
E-5
  6
Continuous
 62
     7
370
     9
100
AcDbLine
 10
-249.8892855739538
 20
473.9397206416254
 30
0.0
 11
-248.5296037485735
 21
484.2672402388594
 31
0.0
  0
TEXT
  5
31A
330
1F
100
AcDbEntity
  8
E-5
  6
Continuous
 62
     7
370
     9
100
AcDbText
 10
-199.4723688117518
 20
662.4499595695182
 30
0.0
 40
11.43
  1
エンドプレート ＦＢ4.5×32
 41
1.16025641025641
  7
ＭＳ ゴシック
100
AcDbText
  0
TEXT
  5
31B
330
1F
100
AcDbEntity
  8
E-5
  6
Continuous
 62
     7
370
     9
100
AcDbText
 10
-144.0854354433251
 20
595.783237916224
 30
0.0
 40
11.43
  1
メインバー Ⅰ－３８ ＠15
 50
359.9999060071311
 41
1.159722222222223
  7
ＭＳ ゴシック
100
AcDbText
  0
LINE
  5
31C
330
1F
100
AcDbEntity
  8
E-5
  6
Continuous
 62
     7
370
     9
100
AcDbLine
 10
-150.2468162786278
 20
589.5015987428711
 30
0.0
 11
64.6645610867683
 21
589.5015987428711
 31
0.0
  0
LINE
  5
31D
330
1F
100
AcDbEntity
  8
E-5
  6
Continuous
 62
     7
370
     9
100
AcDbLine
 10
-188.4775839291985
 20
446.822713373794
 30
0.0
 11
-150.2468162786278
 21
589.5015987428712
 31
0.0
  0
LINE
  5
31E
330
1F
100
AcDbEntity
  8
E-5
  6
Continuous
 62
     7
370
     9
100
AcDbLine
 10
-188.4776457891539
 20
446.822713373794
 30
0.0
 11
-184.4913283865464
 21
456.4463903955424
 31
0.0
  0
LINE
  5
31F
330
1F
100
AcDbEntity
  8
E-5
  6
Continuous
 62
     7
370
     9
100
AcDbLine
 10
-188.4776457891539
 20
446.822713373794
 30
0.0
 11
-187.1180258237297
 21
457.150232971028
 31
0.0
  0
LINE
  5
320
330
1F
100
AcDbEntity
  8
E-5
  6
Continuous
 62
     7
370
     9
100
AcDbLine
 10
-228.4775160570755
 20
426.9399891537471
 30
0.0
 11
-175.4294781990249
 21
624.9181691829402
 31
0.0
  0
LINE
  5
321
330
1F
100
AcDbEntity
  8
E-5
  6
Continuous
 62
     7
370
     9
100
AcDbLine
 10
-228.4775160570755
 20
426.9399891537471
 30
0.0
 11
-224.4912605144233
 21
436.5637898954068
 31
0.0
  0
LINE
  5
322
330
1F
100
AcDbEntity
  8
E-5
  6
Continuous
 62
     7
370
     9
100
AcDbLine
 10
-228.4775160570755
 20
426.9399891537471
 30
0.0
 11
-227.1179579516067
 21
437.2675087509812
 31
0.0
  0
LINE
  5
323
330
1F
100
AcDbEntity
  8
E-5
  6
Continuous
 62
     7
370
     9
100
AcDbLine
 10
-175.4294781990249
 20
624.9181691829402
 30
0.0
 11
27.90580441024467
 21
624.9181691829402
 31
0.0
  0
TEXT
  5
324
330
1F
100
AcDbEntity
  8
E-5
  6
Continuous
 62
     7
370
     9
100
AcDbText
 10
-165.4788824271204
 20
631.1998083562775
 30
0.0
 40
11.43
  1
クロスバー φ６ ＠100
 50
0.0000776836115367
 41
1.158730158730158
  7
ＭＳ ゴシック
100
AcDbText
  0
CIRCLE
  5
325
330
1F
100
AcDbEntity
  8
E-2
  6
Continuous
 62
     3
370
     9
100
AcDbCircle
 10
317.8432249148354
 20
323.9398476607345
 30
0.0
 40
2.999999797022021
  0
CIRCLE
  5
326
330
1F
100
AcDbEntity
  8
E-2
  6
Continuous
 62
     3
370
     9
100
AcDbCircle
 10
317.8432249148354
 20
223.9400126206162
 30
0.0
 40
2.999999797022021
  0
CIRCLE
  5
327
330
1F
100
AcDbEntity
  8
E-2
  6
Continuous
 62
     3
370
     9
100
AcDbCircle
 10
317.8432249148354
 20
123.9399301406752
 30
0.0
 40
2.999999797022021
  0
CIRCLE
  5
328
330
1F
100
AcDbEntity
  8
E-2
  6
Continuous
 62
     3
370
     9
100
AcDbCircle
 10
317.8432249148354
 20
23.94009510055685
 30
0.0
 40
2.999999797022021
  0
LINE
  5
329
330
1F
100
AcDbEntity
  8
E-2
  6
JWW_CENTER1
 62
     3
370
     9
100
AcDbLine
 10
304.8432645052071
 20
174.6900852029642
 30
0.0
 11
362.84309294693
 21
174.6900852029642
 31
0.0
  0
LINE
  5
32A
330
1F
100
AcDbEntity
  8
E-1
  6
Continuous
 62
     2
370
     9
100
AcDbLine
 10
314.8432645052071
 20
480.4402237692648
 30
0.0
 11
314.8432645052071
 21
483.9401363405275
 31
0.0
  0
LINE
  5
32B
330
1F
100
AcDbEntity
  8
E-1
  6
Continuous
 62
     2
370
     9
100
AcDbLine
 10
355.3432249148354
 20
423.9403095484033
 30
0.0
 11
358.8432612060094
 21
423.9403095484033
 31
0.0
  0
LINE
  5
32C
330
1F
100
AcDbEntity
  8
E-1
  6
Continuous
 62
     2
370
     9
100
AcDbLine
 10
352.8432166668412
 20
473.9403507883737
 30
0.0
 11
352.8432166668412
 21
426.4403177963975
 31
0.0
  0
LINE
  5
32D
330
1F
100
AcDbEntity
  8
E-1
  6
Continuous
 62
     2
370
     9
100
AcDbLine
 10
348.8432282140331
 20
477.9402155212708
 30
0.0
 11
317.3432727532011
 21
477.9402155212708
 31
0.0
  0
LINE
  5
32E
330
1F
100
AcDbEntity
  8
E-1
  6
Continuous
 62
     2
370
     9
100
AcDbLine
 10
358.8432612060094
 20
483.9401363405275
 30
0.0
 11
314.8432645052071
 21
483.9401363405275
 31
0.0
  0
LINE
  5
32F
330
1F
100
AcDbEntity
  8
E-1
  6
Continuous
 62
     2
370
     9
100
AcDbLine
 10
333.8433024459797
 20
483.9401363405275
 30
0.0
 11
333.8433024459797
 21
492.9402650092352
 31
0.0
  0
LINE
  5
330
330
1F
100
AcDbEntity
  8
E-1
  6
Continuous
 62
     2
370
     9
100
AcDbLine
 10
347.6583626233445
 20
492.9402650092352
 30
0.0
 11
333.8433024459797
 21
492.9402650092352
 31
0.0
  0
LINE
  5
331
330
1F
100
AcDbEntity
  8
E-1
  6
Continuous
 62
     2
370
     9
100
AcDbLine
 10
352.317159603919
 20
484.55353966084
 30
0.0
 11
410.5078301328464
 21
500.1458363642817
 31
0.0
  0
LINE
  5
332
330
1F
100
AcDbEntity
  8
E-1
  6
Continuous
 62
     2
370
     9
100
AcDbLine
 10
349.9877611136318
 20
493.2468429494801
 30
0.0
 11
408.1784316425591
 21
508.8390159330106
 31
0.0
  0
LINE
  5
333
330
1F
100
AcDbEntity
  8
E-1
  6
JWW_CENTER2
 62
     2
370
     9
100
AcDbLine
 10
347.6583626233445
 20
488.4403243947926
 30
0.0
 11
330.0382965734078
 21
488.4403243947926
 31
0.0
  0
LINE
  5
334
330
1F
100
AcDbEntity
  8
E-1
  6
JWW_CENTER2
 62
     2
370
     9
100
AcDbLine
 10
351.1523366388641
 20
488.9003150250714
 30
0.0
 11
416.3189543674326
 21
506.3616484287876
 31
0.0
  0
ARC
  5
335
330
1F
100
AcDbEntity
  8
E-1
  6
Continuous
 62
     2
370
     9
100
AcDbCircle
 10
317.3432727532011
 20
480.4402237692648
 30
0.0
 40
2.500000273859179
100
AcDbArc
 50
180.0
 51
270.0
  0
ARC
  5
336
330
1F
100
AcDbEntity
  8
E-1
  6
Continuous
 62
     2
370
     9
100
AcDbCircle
 10
355.3432249148354
 20
426.4403177963975
 30
0.0
 40
2.500000273859179
100
AcDbArc
 50
180.0
 51
270.0
  0
ARC
  5
337
330
1F
100
AcDbEntity
  8
E-1
  6
Continuous
 62
     2
370
     9
100
AcDbCircle
 10
348.8432282140331
 20
473.9403507883737
 30
0.0
 40
4.000000293190416
100
AcDbArc
 50
0.0
 51
90.0
  0
ARC
  5
338
330
1F
100
AcDbEntity
  8
E-1
  6
Continuous
 62
     2
370
     9
100
AcDbCircle
 10
347.6583626233445
 20
501.940393677943
 30
0.0
 40
18.00000023197483
100
AcDbArc
 50
270.0
 51
285.0
  0
ARC
  5
339
330
1F
100
AcDbEntity
  8
E-1
  6
Continuous
 62
     2
370
     9
100
AcDbCircle
 10
409.3432546076141
 20
504.4924880086018
 30
0.0
 40
4.500000057993709
100
AcDbArc
 50
285.0001373291016
 51
104.9999084472656
  0
ARC
  5
33A
330
1F
100
AcDbEntity
  8
E-1
  6
JWW_CENTER2
 62
     2
370
     9
100
AcDbCircle
 10
347.6583626233445
 20
501.9401462381204
 30
0.0
 40
13.50000162382384
100
AcDbArc
 50
270.0
 51
284.9999542236328
  0
ARC
  5
33B
330
1F
100
AcDbEntity
  8
E-1
  6
Continuous
 62
     2
370
     9
100
AcDbCircle
 10
347.6583626233445
 20
501.940393677943
 30
0.0
 40
9.000000115987417
100
AcDbArc
 50
270.0
 51
285.0000152587891
  0
LINE
  5
33C
330
1F
100
AcDbEntity
  8
E-1
  6
Continuous
 62
     2
370
     9
100
AcDbLine
 10
358.8432612060094
 20
483.9401363405275
 30
0.0
 11
358.8432612060094
 21
423.9403095484033
 31
0.0
  0
LINE
  5
33D
330
1F
100
AcDbEntity
  8
E-4
  6
Continuous
 62
     7
370
     9
100
AcDbLine
 10
254.8432645052071
 20
483.9401363405275
 30
0.0
 11
254.8432645052071
 21
477.9402155212708
 31
0.0
  0
LWPOLYLINE
  5
33E
330
1F
100
AcDbEntity
  8
E-4
  6
Continuous
 62
     7
370
     9
100
AcDbPolyline
 90
        4
 70
     1
 43
1.0
 10
255.3432645052071
 20
483.9401363405275
 42
0.4142135623731
 10
254.8432645052071
 20
484.4401363405275
 42
0.4142135623731
 10
254.343264505207
 20
483.9401363405275
 42
0.4142135623731
 10
254.8432645052071
 20
483.4401363405276
 42
0.4142135623731
  0
LWPOLYLINE
  5
33F
330
1F
100
AcDbEntity
  8
E-4
  6
Continuous
 62
     7
370
     9
100
AcDbPolyline
 90
        4
 70
     1
 43
1.0
 10
255.3432645052071
 20
477.9402155212708
 42
0.4142135623731
 10
254.8432645052071
 20
478.4402155212707
 42
0.4142135623731
 10
254.343264505207
 20
477.9402155212708
 42
0.4142135623731
 10
254.8432645052071
 20
477.4402155212708
 42
0.4142135623731
  0
LINE
  5
340
330
1F
100
AcDbEntity
  8
E-4
  6
Continuous
 62
     7
370
     9
100
AcDbLine
 10
253.3432645052071
 20
477.9402155212708
 30
0.0
 11
307.3432727532011
 21
477.9402155212708
 31
0.0
  0
LINE
  5
341
330
1F
100
AcDbEntity
  8
E-4
  6
Continuous
 62
     7
370
     9
100
AcDbLine
 10
254.8432645052071
 20
477.9402155212708
 30
0.0
 11
254.8432645052071
 21
473.9397206416254
 31
0.0
  0
LWPOLYLINE
  5
342
330
1F
100
AcDbEntity
  8
E-4
  6
Continuous
 62
     7
370
     9
100
AcDbPolyline
 90
        4
 70
     1
 43
1.0
 10
255.3432645052071
 20
473.9397206416254
 42
0.4142135623731
 10
254.8432645052071
 20
474.4397206416254
 42
0.4142135623731
 10
254.343264505207
 20
473.9397206416254
 42
0.4142135623731
 10
254.8432645052071
 20
473.4397206416254
 42
0.4142135623731
  0
LINE
  5
343
330
1F
100
AcDbEntity
  8
E-4
  6
Continuous
 62
     7
370
     9
100
AcDbLine
 10
253.3432645052071
 20
473.9397206416254
 30
0.0
 11
304.8432645052071
 21
473.9397206416254
 31
0.0
  0
LWPOLYLINE
  5
344
330
1F
100
AcDbEntity
  8
E-4
  6
Continuous
 62
     7
370
     9
100
AcDbPolyline
 90
        4
 70
     1
 43
1.0
 10
215.3432645052071
 20
483.9401363405275
 42
0.4142135623731
 10
214.8432645052071
 20
484.4401363405275
 42
0.4142135623731
 10
214.343264505207
 20
483.9401363405275
 42
0.4142135623731
 10
214.8432645052071
 20
483.4401363405276
 42
0.4142135623731
  0
LINE
  5
345
330
1F
100
AcDbEntity
  8
E-4
  6
Continuous
 62
     7
370
     9
100
AcDbLine
 10
213.3432645052071
 20
483.9401363405275
 30
0.0
 11
304.8432645052071
 21
483.9401363405275
 31
0.0
  0
TEXT
  5
346
330
1F
100
AcDbEntity
  8
E-4
  6
Continuous
 62
     2
370
   211
100
AcDbText
 10
249.0232645052071
 20
490.9401759308992
 30
0.0
 40
15.24
  1
6
 50
90.0
 41
0.9999999999999998
  7
ＭＳ ゴシック
100
AcDbText
  0
TEXT
  5
347
330
1F
100
AcDbEntity
  8
E-4
  6
Continuous
 62
     2
370
   211
100
AcDbText
 10
249.0232645052071
 20
465.9399680814481
 30
0.0
 40
15.24
  1
4
 50
90.0
 41
0.9999999999999998
  7
ＭＳ ゴシック
100
AcDbText
  0
LINE
  5
348
330
1F
100
AcDbEntity
  8
E-4
  6
Continuous
 62
     7
370
     9
100
AcDbLine
 10
254.8432645052071
 20
483.9401363405275
 30
0.0
 11
254.8432645052071
 21
500.9401759308992
 31
0.0
  0
LINE
  5
349
330
1F
100
AcDbEntity
  8
E-4
  6
Continuous
 62
     7
370
     9
100
AcDbLine
 10
418.8432612060094
 20
483.9401363405275
 30
0.0
 11
418.8432612060094
 21
423.9403095484033
 31
0.0
  0
LWPOLYLINE
  5
34A
330
1F
100
AcDbEntity
  8
E-4
  6
Continuous
 62
     7
370
     9
100
AcDbPolyline
 90
        4
 70
     1
 43
1.0
 10
419.3432612060093
 20
483.9401363405275
 42
0.4142135623731
 10
418.8432612060094
 20
484.4401363405275
 42
0.4142135623731
 10
418.3432612060094
 20
483.9401363405275
 42
0.4142135623731
 10
418.8432612060094
 20
483.4401363405276
 42
0.4142135623731
  0
LWPOLYLINE
  5
34B
330
1F
100
AcDbEntity
  8
E-4
  6
Continuous
 62
     7
370
     9
100
AcDbPolyline
 90
        4
 70
     1
 43
1.0
 10
419.3432612060093
 20
423.9403095484033
 42
0.4142135623731
 10
418.8432612060094
 20
424.4403095484033
 42
0.4142135623731
 10
418.3432612060094
 20
423.9403095484033
 42
0.4142135623731
 10
418.8432612060094
 20
423.4403095484033
 42
0.4142135623731
  0
LINE
  5
34C
330
1F
100
AcDbEntity
  8
E-4
  6
Continuous
 62
     7
370
     9
100
AcDbLine
 10
420.3432612060094
 20
483.9401363405275
 30
0.0
 11
368.8432612060094
 21
483.9401363405275
 31
0.0
  0
LINE
  5
34D
330
1F
100
AcDbEntity
  8
E-4
  6
Continuous
 62
     7
370
     9
100
AcDbLine
 10
420.3432612060094
 20
423.9403095484033
 30
0.0
 11
368.8432612060094
 21
423.9403095484033
 31
0.0
  0
TEXT
  5
34E
330
1F
100
AcDbEntity
  8
E-4
  6
Continuous
 62
     2
370
   211
100
AcDbText
 10
413.0232612060094
 20
443.3152229444654
 30
0.0
 40
15.24
  1
60
 50
90.0
 41
1.0625
  7
ＭＳ ゴシック
100
AcDbText
  0
LINE
  5
34F
330
1F
100
AcDbEntity
  8
E-1
  6
Continuous
 62
     2
370
     9
100
AcDbLine
 10
314.8432645052071
 20
-132.5599098482394
 30
0.0
 11
314.8432645052071
 21
-136.0598224195023
 31
0.0
  0
LINE
  5
350
330
1F
100
AcDbEntity
  8
E-1
  6
Continuous
 62
     2
370
     9
100
AcDbLine
 10
355.3432249148354
 20
-76.05999562737804
 30
0.0
 11
358.8432612060094
 21
-76.05999562737804
 31
0.0
  0
LINE
  5
351
330
1F
100
AcDbEntity
  8
E-1
  6
Continuous
 62
     2
370
     9
100
AcDbLine
 10
352.8432166668412
 20
-126.0600368673483
 30
0.0
 11
352.8432166668412
 21
-78.56000387537205
 31
0.0
  0
LINE
  5
352
330
1F
100
AcDbEntity
  8
E-1
  6
Continuous
 62
     2
370
     9
100
AcDbLine
 10
348.8432282140331
 20
-130.0599016002454
 30
0.0
 11
317.3432727532011
 21
-130.0599016002454
 31
0.0
  0
LINE
  5
353
330
1F
100
AcDbEntity
  8
E-1
  6
Continuous
 62
     2
370
     9
100
AcDbLine
 10
358.8432612060094
 20
-136.0598224195023
 30
0.0
 11
314.8432645052071
 21
-136.0598224195023
 31
0.0
  0
LINE
  5
354
330
1F
100
AcDbEntity
  8
E-1
  6
Continuous
 62
     2
370
     9
100
AcDbLine
 10
333.8433024459797
 20
-136.0598224195023
 30
0.0
 11
333.8433024459797
 21
-145.0599510882099
 31
0.0
  0
LINE
  5
355
330
1F
100
AcDbEntity
  8
E-1
  6
Continuous
 62
     2
370
     9
100
AcDbLine
 10
347.6583626233445
 20
-145.0599510882099
 30
0.0
 11
333.8433024459797
 21
-145.0599510882099
 31
0.0
  0
LINE
  5
356
330
1F
100
AcDbEntity
  8
E-1
  6
Continuous
 62
     2
370
     9
100
AcDbLine
 10
352.317159603919
 20
-136.6732257398148
 30
0.0
 11
410.5078301328464
 21
-152.2655224432564
 31
0.0
  0
LINE
  5
357
330
1F
100
AcDbEntity
  8
E-1
  6
Continuous
 62
     2
370
     9
100
AcDbLine
 10
349.9877611136318
 20
-145.3665290284547
 30
0.0
 11
408.1784316425591
 21
-160.9587020119852
 31
0.0
  0
LINE
  5
358
330
1F
100
AcDbEntity
  8
E-1
  6
JWW_CENTER2
 62
     2
370
     9
100
AcDbLine
 10
347.6583626233445
 20
-140.5600104737672
 30
0.0
 11
330.0382965734078
 21
-140.5600104737672
 31
0.0
  0
LINE
  5
359
330
1F
100
AcDbEntity
  8
E-1
  6
JWW_CENTER2
 62
     2
370
     9
100
AcDbLine
 10
351.1523366388641
 20
-141.020001104046
 30
0.0
 11
416.3189543674326
 21
-158.4813345077623
 31
0.0
  0
ARC
  5
35A
330
1F
100
AcDbEntity
  8
E-1
  6
Continuous
 62
     2
370
     9
100
AcDbCircle
 10
317.3432727532011
 20
-132.5599098482394
 30
0.0
 40
2.500000273859179
100
AcDbArc
 50
90.0
 51
180.0
  0
ARC
  5
35B
330
1F
100
AcDbEntity
  8
E-1
  6
Continuous
 62
     2
370
     9
100
AcDbCircle
 10
355.3432249148354
 20
-78.56000387537205
 30
0.0
 40
2.500000273859179
100
AcDbArc
 50
90.0
 51
180.0
  0
ARC
  5
35C
330
1F
100
AcDbEntity
  8
E-1
  6
Continuous
 62
     2
370
     9
100
AcDbCircle
 10
348.8432282140331
 20
-126.0600368673483
 30
0.0
 40
4.000000293190416
100
AcDbArc
 50
270.0
 51
0.0
  0
ARC
  5
35D
330
1F
100
AcDbEntity
  8
E-1
  6
Continuous
 62
     2
370
     9
100
AcDbCircle
 10
347.6583626233445
 20
-154.0600797569176
 30
0.0
 40
18.00000023197483
100
AcDbArc
 50
75.0
 51
89.99999999999999
  0
ARC
  5
35E
330
1F
100
AcDbEntity
  8
E-1
  6
Continuous
 62
     2
370
     9
100
AcDbCircle
 10
409.3432546076141
 20
-156.6121740875765
 30
0.0
 40
4.500000057993709
100
AcDbArc
 50
255.0000915527344
 51
74.99986267089845
  0
ARC
  5
35F
330
1F
100
AcDbEntity
  8
E-1
  6
JWW_CENTER2
 62
     2
370
     9
100
AcDbCircle
 10
347.6583626233445
 20
-154.059832317095
 30
0.0
 40
13.50000162382384
100
AcDbArc
 50
75.00004577636717
 51
90.0
  0
ARC
  5
360
330
1F
100
AcDbEntity
  8
E-1
  6
Continuous
 62
     2
370
     9
100
AcDbCircle
 10
347.6583626233445
 20
-154.0600797569176
 30
0.0
 40
9.000000115987417
100
AcDbArc
 50
74.99998474121094
 51
90.00000000000001
  0
LINE
  5
361
330
1F
100
AcDbEntity
  8
E-1
  6
Continuous
 62
     2
370
     9
100
AcDbLine
 10
358.8432612060094
 20
-76.05999562737804
 30
0.0
 11
358.8432612060094
 21
-136.0598224195023
 31
0.0
  0
LINE
  5
362
330
1F
100
AcDbEntity
  8
E-4
  6
Continuous
 62
     7
370
     9
100
AcDbLine
 10
314.8432645052071
 20
-236.0598224195023
 30
0.0
 11
358.8432612060094
 21
-236.0598224195023
 31
0.0
  0
LWPOLYLINE
  5
363
330
1F
100
AcDbEntity
  8
E-4
  6
Continuous
 62
     7
370
     9
100
AcDbPolyline
 90
        4
 70
     1
 43
1.0
 10
315.3432645052071
 20
-236.0598224195023
 42
0.4142135623731
 10
314.8432645052071
 20
-235.5598224195023
 42
0.4142135623731
 10
314.3432645052071
 20
-236.0598224195023
 42
0.4142135623731
 10
314.8432645052071
 20
-236.5598224195023
 42
0.4142135623731
  0
LWPOLYLINE
  5
364
330
1F
100
AcDbEntity
  8
E-4
  6
Continuous
 62
     7
370
     9
100
AcDbPolyline
 90
        4
 70
     1
 43
1.0
 10
359.3432612060093
 20
-236.0598224195023
 42
0.4142135623731
 10
358.8432612060094
 20
-235.5598224195023
 42
0.4142135623731
 10
358.3432612060094
 20
-236.0598224195023
 42
0.4142135623731
 10
358.8432612060094
 20
-236.5598224195023
 42
0.4142135623731
  0
LINE
  5
365
330
1F
100
AcDbEntity
  8
E-4
  6
Continuous
 62
     7
370
     9
100
AcDbLine
 10
314.8432645052071
 20
-237.559822419502
 30
0.0
 11
314.8432645052071
 21
-146.0598224195023
 31
0.0
  0
LINE
  5
366
330
1F
100
AcDbEntity
  8
E-4
  6
Continuous
 62
     7
370
     9
100
AcDbLine
 10
358.8432612060094
 20
-237.559822419502
 30
0.0
 11
358.8432612060094
 21
-146.0598224195023
 31
0.0
  0
TEXT
  5
367
330
1F
100
AcDbEntity
  8
E-4
  6
Continuous
 62
     2
370
   211
100
AcDbText
 10
326.2182628556082
 20
-230.2398224195023
 30
0.0
 40
15.24
  1
44
 41
1.0625
  7
ＭＳ ゴシック
100
AcDbText
  0
LINE
  5
368
330
1F
100
AcDbEntity
  8
E-4
  6
Continuous
 62
     7
370
     9
100
AcDbLine
 10
314.8432645052071
 20
-196.0598224195023
 30
0.0
 11
352.84309294693
 21
-196.0598224195023
 31
0.0
  0
LWPOLYLINE
  5
369
330
1F
100
AcDbEntity
  8
E-4
  6
Continuous
 62
     7
370
     9
100
AcDbPolyline
 90
        4
 70
     1
 43
1.0
 10
315.3432645052071
 20
-196.0598224195023
 42
0.4142135623731
 10
314.8432645052071
 20
-195.5598224195023
 42
0.4142135623731
 10
314.3432645052071
 20
-196.0598224195023
 42
0.4142135623731
 10
314.8432645052071
 20
-196.5598224195023
 42
0.4142135623731
  0
LWPOLYLINE
  5
36A
330
1F
100
AcDbEntity
  8
E-4
  6
Continuous
 62
     7
370
     9
100
AcDbPolyline
 90
        4
 70
     1
 43
1.0
 10
353.3430929469299
 20
-196.0598224195023
 42
0.4142135623731
 10
352.84309294693
 20
-195.5598224195023
 42
0.4142135623731
 10
352.34309294693
 20
-196.0598224195023
 42
0.4142135623731
 10
352.84309294693
 20
-196.5598224195023
 42
0.4142135623731
  0
LINE
  5
36B
330
1F
100
AcDbEntity
  8
E-4
  6
Continuous
 62
     7
370
     9
100
AcDbLine
 10
352.84309294693
 20
-197.559822419502
 30
0.0
 11
352.84309294693
 21
-134.0598488130831
 31
0.0
  0
TEXT
  5
36C
330
1F
100
AcDbEntity
  8
E-4
  6
Continuous
 62
     2
370
   211
100
AcDbText
 10
323.2181787260685
 20
-190.2398224195023
 30
0.0
 40
15.24
  1
38
 41
1.0625
  7
ＭＳ ゴシック
100
AcDbText
  0
LWPOLYLINE
  5
36D
330
1F
100
AcDbEntity
  8
E-4
  6
Continuous
 62
     7
370
     9
100
AcDbPolyline
 90
        4
 70
     1
 43
1.0
 10
255.3432645052071
 20
-126.0602958543629
 42
0.4142135623731
 10
254.8432645052071
 20
-125.5602958543628
 42
0.4142135623731
 10
254.343264505207
 20
-126.0602958543629
 42
0.4142135623731
 10
254.8432645052071
 20
-126.5602958543629
 42
0.4142135623731
  0
LINE
  5
36E
330
1F
100
AcDbEntity
  8
E-4
  6
Continuous
 62
     7
370
     9
100
AcDbLine
 10
253.3432645052071
 20
-126.0602958543629
 30
0.0
 11
304.8432645052071
 21
-126.0602958543629
 31
0.0
  0
LINE
  5
36F
330
1F
100
AcDbEntity
  8
E-4
  6
Continuous
 62
     7
370
     9
100
AcDbLine
 10
254.8432645052071
 20
-126.0602958543629
 30
0.0
 11
254.8432645052071
 21
-130.0599095743803
 31
0.0
  0
LWPOLYLINE
  5
370
330
1F
100
AcDbEntity
  8
E-4
  6
Continuous
 62
     7
370
     9
100
AcDbPolyline
 90
        4
 70
     1
 43
1.0
 10
255.3432645052071
 20
-130.0599095743803
 42
0.4142135623731
 10
254.8432645052071
 20
-129.5599095743802
 42
0.4142135623731
 10
254.343264505207
 20
-130.0599095743803
 42
0.4142135623731
 10
254.8432645052071
 20
-130.5599095743803
 42
0.4142135623731
  0
LINE
  5
371
330
1F
100
AcDbEntity
  8
E-4
  6
Continuous
 62
     7
370
     9
100
AcDbLine
 10
253.3432645052071
 20
-130.0599095743803
 30
0.0
 11
307.3432727532011
 21
-130.0599095743803
 31
0.0
  0
LINE
  5
372
330
1F
100
AcDbEntity
  8
E-4
  6
Continuous
 62
     7
370
     9
100
AcDbLine
 10
254.8432645052071
 20
-130.0599095743803
 30
0.0
 11
254.8432645052071
 21
-136.0598322139951
 31
0.0
  0
LWPOLYLINE
  5
373
330
1F
100
AcDbEntity
  8
E-4
  6
Continuous
 62
     7
370
     9
100
AcDbPolyline
 90
        4
 70
     1
 43
1.0
 10
255.3432645052071
 20
-136.0598322139951
 42
0.4142135623731
 10
254.8432645052071
 20
-135.5598322139951
 42
0.4142135623731
 10
254.343264505207
 20
-136.0598322139951
 42
0.4142135623731
 10
254.8432645052071
 20
-136.5598322139951
 42
0.4142135623731
  0
LWPOLYLINE
  5
374
330
1F
100
AcDbEntity
  8
E-4
  6
Continuous
 62
     7
370
     9
100
AcDbPolyline
 90
        4
 70
     1
 43
1.0
 10
215.3432645052071
 20
-136.0598224195023
 42
0.4142135623731
 10
214.8432645052071
 20
-135.5598224195023
 42
0.4142135623731
 10
214.343264505207
 20
-136.0598224195023
 42
0.4142135623731
 10
214.8432645052071
 20
-136.5598224195023
 42
0.4142135623731
  0
LINE
  5
375
330
1F
100
AcDbEntity
  8
E-4
  6
Continuous
 62
     7
370
     9
100
AcDbLine
 10
213.3432645052071
 20
-136.0598224195023
 30
0.0
 11
304.8432645052071
 21
-136.0598224195023
 31
0.0
  0
TEXT
  5
376
330
1F
100
AcDbEntity
  8
E-4
  6
Continuous
 62
     2
370
   211
100
AcDbText
 10
249.0232645052071
 20
-153.0598708941876
 30
0.0
 40
15.24
  1
6
 50
90.0
 41
0.9999999999999998
  7
ＭＳ ゴシック
100
AcDbText
  0
LINE
  5
377
330
1F
100
AcDbEntity
  8
E-4
  6
Continuous
 62
     7
370
     9
100
AcDbLine
 10
254.8432645052071
 20
-136.0598322139951
 30
0.0
 11
254.8432645052071
 21
-153.0598708941876
 31
0.0
  0
TEXT
  5
378
330
1F
100
AcDbEntity
  8
E-4
  6
Continuous
 62
     2
370
   211
100
AcDbText
 10
249.0232645052071
 20
-128.0601027143716
 30
0.0
 40
15.24
  1
4
 50
90.0
 41
0.9999999999999998
  7
ＭＳ ゴシック
100
AcDbText
  0
LWPOLYLINE
  5
379
330
1F
100
AcDbEntity
  8
E-4
  6
Continuous
 62
     7
370
     9
100
AcDbPolyline
 90
        4
 70
     1
 43
1.0
 10
419.3432612060093
 20
-76.05999562737804
 42
0.4142135623731
 10
418.8432612060094
 20
-75.55999562737804
 42
0.4142135623731
 10
418.3432612060094
 20
-76.05999562737804
 42
0.4142135623731
 10
418.8432612060094
 20
-76.55999562737803
 42
0.4142135623731
  0
LINE
  5
37A
330
1F
100
AcDbEntity
  8
E-4
  6
Continuous
 62
     7
370
     9
100
AcDbLine
 10
420.3432612060094
 20
-76.05999562737804
 30
0.0
 11
368.8432612060094
 21
-76.05999562737804
 31
0.0
  0
LINE
  5
37B
330
1F
100
AcDbEntity
  8
E-4
  6
Continuous
 62
     7
370
     9
100
AcDbLine
 10
418.8432612060094
 20
-76.05999562737804
 30
0.0
 11
418.8432612060094
 21
-136.0598224195023
 31
0.0
  0
LWPOLYLINE
  5
37C
330
1F
100
AcDbEntity
  8
E-4
  6
Continuous
 62
     7
370
     9
100
AcDbPolyline
 90
        4
 70
     1
 43
1.0
 10
419.3432612060093
 20
-136.0598224195023
 42
0.4142135623731
 10
418.8432612060094
 20
-135.5598224195023
 42
0.4142135623731
 10
418.3432612060094
 20
-136.0598224195023
 42
0.4142135623731
 10
418.8432612060094
 20
-136.5598224195023
 42
0.4142135623731
  0
LINE
  5
37D
330
1F
100
AcDbEntity
  8
E-4
  6
Continuous
 62
     7
370
     9
100
AcDbLine
 10
420.3432612060094
 20
-136.0598224195023
 30
0.0
 11
368.8432612060094
 21
-136.0598224195023
 31
0.0
  0
TEXT
  5
37E
330
1F
100
AcDbEntity
  8
E-4
  6
Continuous
 62
     2
370
   211
100
AcDbText
 10
413.0232612060094
 20
-116.68490902344
 30
0.0
 40
15.24
  1
60
 50
90.0
 41
1.0625
  7
ＭＳ ゴシック
100
AcDbText
  0
LINE
  5
37F
330
1F
100
AcDbEntity
  8
E-4
  6
Continuous
 62
     7
370
     9
100
AcDbLine
 10
254.8432645052071
 20
473.9397206416254
 30
0.0
 11
254.8432645052071
 21
-126.0602958543629
 31
0.0
  0
TEXT
  5
380
330
1F
100
AcDbEntity
  8
E-4
  6
Continuous
 62
     2
370
   211
100
AcDbText
 10
249.0232645052071
 20
157.6897123936313
 30
0.0
 40
15.24
  1
600
 50
90.0
 41
1.083333333333333
  7
ＭＳ ゴシック
100
AcDbText
  0
LINE
  5
381
330
1F
100
AcDbEntity
  8
E-4
  6
Continuous
 62
     7
370
     9
100
AcDbLine
 10
214.8432645052071
 20
483.9401363405275
 30
0.0
 11
214.8432645052071
 21
-136.0598224195023
 31
0.0
  0
TEXT
  5
382
330
1F
100
AcDbEntity
  8
E-4
  6
Continuous
 62
     2
370
   211
100
AcDbText
 10
209.0232645052071
 20
157.6901569605127
 30
0.0
 40
15.24
  1
620
 50
90.0
 41
1.083333333333333
  7
ＭＳ ゴシック
100
AcDbText
  0
LINE
  5
383
330
1F
100
AcDbEntity
  8
E-4
  6
Continuous
 62
     7
370
     9
100
AcDbLine
 10
418.8432612060094
 20
423.9403095484033
 30
0.0
 11
418.8432612060094
 21
-76.05999562737804
 31
0.0
  0
TEXT
  5
384
330
1F
100
AcDbEntity
  8
E-4
  6
Continuous
 62
     2
370
   211
100
AcDbText
 10
413.0232612060094
 20
157.6901569605126
 30
0.0
 40
15.24
  1
500
 50
90.0
 41
1.083333333333333
  7
ＭＳ ゴシック
100
AcDbText
  0
LINE
  5
385
330
1F
100
AcDbEntity
  8
E-5
  6
Continuous
 62
     7
370
     9
100
AcDbLine
 10
314.8432645052071
 20
483.9401363405275
 30
0.0
 11
308.5018767307138
 21
492.2041315368958
 31
0.0
  0
LINE
  5
386
330
1F
100
AcDbEntity
  8
E-5
  6
Continuous
 62
     7
370
     9
100
AcDbLine
 10
314.8432645052071
 20
483.9401363405275
 30
0.0
 11
310.857008962555
 21
493.5638133622758
 31
0.0
  0
LINE
  5
387
330
1F
100
AcDbEntity
  8
E-5
  6
Continuous
 62
     7
370
     9
100
AcDbLine
 10
156.1496621244678
 20
539.5019814497971
 30
0.0
 11
282.7646193668664
 21
539.5019814497971
 31
0.0
  0
LINE
  5
388
330
1F
100
AcDbEntity
  8
E-5
  6
Continuous
 62
     7
370
     9
100
AcDbLine
 10
314.8432645052071
 20
483.9401363405275
 30
0.0
 11
282.7646193668664
 21
539.5019814497971
 31
0.0
  0
TEXT
  5
389
330
1F
100
AcDbEntity
  8
E-5
  6
Continuous
 62
     7
370
     9
100
AcDbText
 10
149.0713779381821
 20
519.7450332076096
 30
0.0
 40
11.43
  1
（四方受四方枠）
 41
1.145833333333333
  7
ＭＳ ゴシック
100
AcDbText
  0
TEXT
  5
38A
330
1F
100
AcDbEntity
  8
E-5
  6
Continuous
 62
     7
370
     9
100
AcDbText
 10
154.1585262437139
 20
547.9306559641553
 30
0.0
 40
11.43
  1
受枠：Ｌ－３８
 41
1.142857142857143
  7
ＭＳ ゴシック
100
AcDbText
  0
LINE
  5
38B
330
1F
100
AcDbEntity
  8
E-5
  6
Continuous
 62
     7
370
     9
100
AcDbLine
 10
379.0830963780954
 20
501.0429294412454
 30
0.0
 11
383.0693519207475
 21
510.666730182905
 31
0.0
  0
LINE
  5
38C
330
1F
100
AcDbEntity
  8
E-5
  6
Continuous
 62
     7
370
     9
100
AcDbLine
 10
379.0830963780954
 20
501.0429294412454
 30
0.0
 11
401.2873563020819
 21
539.5018824738679
 31
0.0
  0
LINE
  5
38D
330
1F
100
AcDbEntity
  8
E-5
  6
Continuous
 62
     7
370
     9
100
AcDbLine
 10
379.0830963780954
 20
501.0429294412454
 30
0.0
 11
385.4244841525887
 21
509.3070483575249
 31
0.0
  0
LINE
  5
38E
330
1F
100
AcDbEntity
  8
E-5
  6
Continuous
 62
     7
370
     9
100
AcDbLine
 10
401.2873563020819
 20
539.5018824738679
 30
0.0
 11
532.225705845473
 21
539.5018824738679
 31
0.0
  0
LINE
  5
38F
330
1F
100
AcDbEntity
  8
E-2
  6
Continuous
 62
     3
370
     9
100
AcDbLine
 10
314.8432645052071
 20
469.4397800271828
 30
0.0
 11
352.84309294693
 21
469.4397800271828
 31
0.0
  0
LINE
  5
390
330
1F
100
AcDbEntity
  8
E-2
  6
Continuous
 62
     3
370
     9
100
AcDbLine
 10
346.8432958475844
 20
473.9397206416254
 30
0.0
 11
346.8432958475844
 21
469.4397800271828
 31
0.0
  0
LINE
  5
391
330
1F
100
AcDbEntity
  8
E-2
  6
Continuous
 62
     3
370
     9
100
AcDbLine
 10
314.8432645052071
 20
473.9397206416254
 30
0.0
 11
346.8432958475844
 21
473.9397206416254
 31
0.0
  0
CIRCLE
  5
392
330
1F
100
AcDbEntity
  8
E-2
  6
Continuous
 62
     3
370
     9
100
AcDbCircle
 10
317.8432249148354
 20
423.9398476607345
 30
0.0
 40
2.999999797022021
  0
LINE
  5
393
330
1F
100
AcDbEntity
  8
E-2
  6
Continuous
 62
     3
370
     9
100
AcDbLine
 10
314.8432645052071
 20
-121.5603552399201
 30
0.0
 11
352.84309294693
 21
-121.5603552399201
 31
0.0
  0
LINE
  5
394
330
1F
100
AcDbEntity
  8
E-2
  6
Continuous
 62
     3
370
     9
100
AcDbLine
 10
346.8432958475844
 20
-121.5603552399201
 30
0.0
 11
346.8432958475844
 21
-126.0602958543629
 31
0.0
  0
LINE
  5
395
330
1F
100
AcDbEntity
  8
E-2
  6
Continuous
 62
     3
370
     9
100
AcDbLine
 10
314.8432645052071
 20
-126.0602958543629
 30
0.0
 11
346.8432958475844
 21
-126.0602958543629
 31
0.0
  0
LINE
  5
396
330
1F
100
AcDbEntity
  8
E-2
  6
Continuous
 62
     3
370
     9
100
AcDbLine
 10
322.8432414108235
 20
469.4397800271828
 30
0.0
 11
322.8432414108235
 21
-121.5603552399201
 31
0.0
  0
LINE
  5
397
330
1F
100
AcDbEntity
  8
E-2
  6
Continuous
 62
     3
370
     9
100
AcDbLine
 10
321.8430896477323
 20
469.4397800271828
 30
0.0
 11
321.8430896477323
 21
-121.5603552399201
 31
0.0
  0
LINE
  5
398
330
1F
100
AcDbEntity
  8
E-2
  6
Continuous
 62
     3
370
     9
100
AcDbLine
 10
344.8431160413133
 20
469.4397800271828
 30
0.0
 11
344.8431160413133
 21
-121.5603552399201
 31
0.0
  0
LINE
  5
399
330
1F
100
AcDbEntity
  8
E-2
  6
Continuous
 62
     3
370
     9
100
AcDbLine
 10
345.8432678044047
 20
469.4397800271828
 30
0.0
 11
345.8432678044047
 21
-121.5603552399201
 31
0.0
  0
LINE
  5
39A
330
1F
100
AcDbEntity
  8
E-2
  6
Continuous
 62
     3
370
     9
100
AcDbLine
 10
352.84309294693
 20
469.4397800271828
 30
0.0
 11
352.84309294693
 21
-121.5603552399201
 31
0.0
  0
LINE
  5
39B
330
1F
100
AcDbEntity
  8
E-2
  6
Continuous
 62
     3
370
     9
100
AcDbLine
 10
314.8432645052071
 20
473.9397206416254
 30
0.0
 11
314.8432645052071
 21
-126.0602958543629
 31
0.0
  0
CIRCLE
  5
39C
330
1F
100
AcDbEntity
  8
E-2
  6
Continuous
 62
     3
370
     9
100
AcDbCircle
 10
317.8432249148354
 20
-76.05990489944315
 30
0.0
 40
2.999999797022021
  0
TEXT
  5
39D
330
1F
100
AcDbEntity
  8
E-5
  6
Continuous
 62
     7
370
     9
100
AcDbText
 10
407.8168107137691
 20
546.729855248889
 30
0.0
 40
11.43
  1
アンカー：φ９
 41
1.142857142857143
  7
ＭＳ ゴシック
100
AcDbText
  0
TEXT
  5
39E
330
1F
100
AcDbEntity
  8
E-4
  6
Continuous
 62
     2
370
     9
100
AcDbText
 10
284.0270460292267
 20
-456.5038332338002
 30
0.0
 40
15.24
  1
処理：溶融亜鉛めっき
 41
1.1125
  7
ＭＳ ゴシック
100
AcDbText
  0
TEXT
  5
39F
330
1F
100
AcDbEntity
  8
E-4
  6
Continuous
 62
     2
370
     9
100
AcDbText
 10
284.0270341486316
 20
-429.0033094861732
 30
0.0
 40
15.24
  1
材質：ＳＳ４００
 50
359.9999900160142
 41
1.109374999999999
  7
ＭＳ ゴシック
100
AcDbText
  0
TEXT
  5
3A0
330
1F
100
AcDbEntity
  8
E-4
  6
Continuous
 62
     2
370
     9
100
AcDbText
 10
281.7774345097481
 20
-516.5041394405807
 30
0.0
 40
15.24
  1
材質：ＳＳ４００
 41
1.109375
  7
ＭＳ ゴシック
100
AcDbText
  0
LINE
  5
3A1
330
1F
100
AcDbEntity
  8
E-4
  6
Continuous
 62
     2
370
     9
100
AcDbLine
 10
200.171075801186
 20
-349.8641881944739
 30
0.0
 11
200.171075801186
 21
-324.8638582747102
 31
0.0
  0
LINE
  5
3A2
330
1F
100
AcDbEntity
  8
E-4
  6
Continuous
 62
     2
370
     9
100
AcDbLine
 10
200.171075801186
 20
-324.8638582747102
 30
0.0
 11
312.6708283613636
 21
-324.8638582747102
 31
0.0
  0
LINE
  5
3A3
330
1F
100
AcDbEntity
  8
E-4
  6
Continuous
 62
     2
370
     9
100
AcDbLine
 10
312.6708283613636
 20
-324.8638582747102
 30
0.0
 11
312.6708283613636
 21
-349.8641881944739
 31
0.0
  0
LINE
  5
3A4
330
1F
100
AcDbEntity
  8
E-4
  6
Continuous
 62
     2
370
     9
100
AcDbLine
 10
312.6708283613636
 20
-349.8641881944739
 30
0.0
 11
200.171075801186
 21
-349.8641881944739
 31
0.0
  0
TEXT
  5
3A5
330
1F
100
AcDbEntity
  8
E-4
  6
Continuous
 62
     2
370
     9
100
AcDbText
 10
223.9209520812748
 20
-344.544023234592
 30
0.0
 40
15.24
  1
仕　様
 41
1.083333333333333
  7
ＭＳ ゴシック
100
AcDbText
  0
TEXT
  5
3A6
330
1F
100
AcDbEntity
  8
E-4
  6
Continuous
 62
     2
370
     9
100
AcDbText
 10
256.4209520812749
 20
-374.0043652294189
 30
0.0
 40
15.24
  1
スチール製グレーチング　枠付正方形型　細目プレーンタイプ
 41
1.120535714285714
  7
ＭＳ ゴシック
100
AcDbText
  0
TEXT
  5
3A7
330
1F
100
AcDbEntity
  8
E-4
  6
Continuous
 62
     2
370
     9
100
AcDbText
 10
256.4209273372926
 20
-489.0041415025792
 30
0.0
 40
15.24
  1
スチール製受枠　Ｌ－３８（四方受四方枠）
 41
1.11875
  7
ＭＳ ゴシック
100
AcDbText
  0
TEXT
  5
3A8
330
1F
100
AcDbEntity
  8
E-4
  6
Continuous
 62
     2
370
     9
100
AcDbText
 10
256.4209520812749
 20
-401.5048889770434
 30
0.0
 40
15.24
  1
集水桝用　ＱＳＣ　５５３８Ⅰ
 41
1.116071428571428
  7
ＭＳ ゴシック
100
AcDbText
  0
TEXT
  5
3A9
330
1F
100
AcDbEntity
  8
E-4
  6
Continuous
 62
     2
370
     9
100
AcDbText
 10
281.7774468817393
 20
-544.0041064486041
 30
0.0
 40
15.24
  1
処理：樹脂系塗装
 41
1.109375
  7
ＭＳ ゴシック
100
AcDbText
  0
TEXT
  5
3AA
330
1F
100
AcDbEntity
  8
F-5ﾚｲﾔ
  6
Continuous
 62
     2
370
     9
100
AcDbText
 10
452.499991752006
 20
-678.6399980534734
 30
0.0
 40
15.24
  1
１：５
 41
1.083333333333333
  7
ＭＳ ゴシック
100
AcDbText
  0
LINE
  5
3AB
330
1F
100
AcDbEntity
  8
E-4
  6
Continuous
 62
     7
370
     9
100
AcDbLine
 10
-733.4777860050533
 20
-236.0598224195023
 30
0.0
 11
-133.4777926034488
 21
-236.0598224195023
 31
0.0
  0
TEXT
  5
3AC
330
1F
100
AcDbEntity
  8
E-4
  6
Continuous
 62
     2
370
   211
100
AcDbText
 10
-449.7277893042511
 20
-230.2398224195023
 30
0.0
 40
15.24
  1
600
 41
1.083333333333333
  7
ＭＳ ゴシック
100
AcDbText
  0
ENDSEC
  0
SECTION
  2
OBJECTS
  0
DICTIONARY
  5
C
330
0
100
AcDbDictionary
281
     1
  3
ACAD_DETAILVIEWSTYLE
350
3F2
  3
ACAD_GROUP
350
D
  3
ACAD_LAYOUT
350
1A
  3
ACAD_MATERIAL
350
43
  3
ACAD_MLEADERSTYLE
350
6B
  3
ACAD_MLINESTYLE
350
17
  3
ACAD_PLOTSETTINGS
350
19
  3
ACAD_PLOTSTYLENAME
350
E
  3
ACAD_SCALELIST
350
47
  3
ACAD_SECTIONVIEWSTYLE
350
3F3
  3
ACAD_TABLESTYLE
350
69
  3
ACAD_VISUALSTYLE
350
2A
  3
ACDB_RECOMPOSE_DATA
350
3EF
  3
AcDbVariableDictionary
350
3AF
  0
DICTIONARY
  5
3AD
330
8
100
AcDbDictionary
280
     1
281
     1
  3
ACAD_XREC_ROUNDTRIP
360
3AE
  0
DICTIONARY
  5
3F2
102
{ACAD_REACTORS
330
C
102
}
330
C
100
AcDbDictionary
281
     1
  0
DICTIONARY
  5
D
102
{ACAD_REACTORS
330
C
102
}
330
C
100
AcDbDictionary
281
     1
  0
DICTIONARY
  5
1A
102
{ACAD_REACTORS
330
C
102
}
330
C
100
AcDbDictionary
281
     1
  3
Layout1
350
1E
  3
Layout2
350
26
  3
Model
350
22
  0
DICTIONARY
  5
43
102
{ACAD_REACTORS
330
C
102
}
330
C
100
AcDbDictionary
281
     1
  3
ByBlock
350
45
  3
ByLayer
350
44
  3
Global
350
46
  0
DICTIONARY
  5
6B
102
{ACAD_REACTORS
330
C
102
}
330
C
100
AcDbDictionary
281
     1
  3
Standard
350
6C
  0
DICTIONARY
  5
17
102
{ACAD_REACTORS
330
C
102
}
330
C
100
AcDbDictionary
281
     1
  3
Standard
350
18
  0
DICTIONARY
  5
19
102
{ACAD_REACTORS
330
C
102
}
330
C
100
AcDbDictionary
281
     1
  0
ACDBDICTIONARYWDFLT
  5
E
102
{ACAD_REACTORS
330
C
102
}
330
C
100
AcDbDictionary
281
     1
  3
Normal
350
F
100
AcDbDictionaryWithDefault
340
F
  0
DICTIONARY
  5
47
102
{ACAD_REACTORS
330
C
102
}
330
C
100
AcDbDictionary
281
     1
  3
A0
350
48
  3
A1
350
49
  3
A2
350
4A
  3
A3
350
4B
  3
A4
350
4C
  3
A5
350
4D
  3
A6
350
4E
  3
A7
350
4F
  3
A8
350
50
  3
A9
350
51
  3
B0
350
52
  3
B1
350
53
  3
B2
350
54
  3
B3
350
55
  3
B4
350
56
  3
B5
350
57
  3
B6
350
58
  3
B7
350
59
  3
B8
350
5A
  3
B9
350
5B
  3
C0
350
5C
  3
C1
350
5D
  3
C2
350
5E
  3
C3
350
5F
  3
C4
350
60
  3
C5
350
61
  3
C6
350
62
  3
C7
350
63
  3
C8
350
64
  3
C9
350
65
  3
D0
350
66
  3
D1
350
67
  3
D2
350
68
  0
DICTIONARY
  5
3F3
102
{ACAD_REACTORS
330
C
102
}
330
C
100
AcDbDictionary
281
     1
  0
DICTIONARY
  5
69
102
{ACAD_REACTORS
330
C
102
}
330
C
100
AcDbDictionary
281
     1
  3
Standard
350
6A
  0
DICTIONARY
  5
2A
102
{ACAD_REACTORS
330
C
102
}
330
C
100
AcDbDictionary
281
     1
  3
2dWireframe
350
2F
  3
Basic
350
32
  3
Brighten
350
36
  3
ColorChange
350
3A
  3
Conceptual
350
34
  3
Dim
350
35
  3
EdgeColorOff
350
3D
  3
Facepattern
350
39
  3
Flat
350
2B
  3
FlatWithEdges
350
2C
  3
Gouraud
350
2D
  3
GouraudWithEdges
350
2E
  3
Hidden
350
31
  3
JitterOff
350
3B
  3
Linepattern
350
38
  3
OverhangOff
350
3C
  3
Realistic
350
33
  3
Shaded
350
42
  3
Shaded with edges
350
41
  3
Shades of Gray
350
3E
  3
Sketchy
350
3F
  3
Thicken
350
37
  3
Wireframe
350
30
  3
X-Ray
350
40
  0
XRECORD
  5
3EF
102
{ACAD_REACTORS
330
C
102
}
330
C
100
AcDbXrecord
280
     1
 90
        1
330
6A
  0
DICTIONARY
  5
3AF
102
{ACAD_REACTORS
330
C
102
}
330
C
100
AcDbDictionary
281
     1
  3
CANNOSCALE
350
3B0
  3
CENTEREXE
350
3F4
  3
CENTERLTYPEFILE
350
3F5
  3
CMLEADERSTYLE
350
3F1
  3
CTABLESTYLE
350
3F0
  3
MSLTSCALE
350
3B1
  3
XCLIPFRAME
350
3B2
  0
XRECORD
  5
3AE
102
{ACAD_REACTORS
330
3AD
102
}
330
3AD
100
AcDbXrecord
280
     1
102
VTR_0.000_0.000_1.000_1.000_VISUALSTYLE
340
2F
102
VTR_0.000_0.000_1.000_1.000_GRIDDISPLAY
 70
     3
102
VTR_0.000_0.000_1.000_1.000_GRIDMAJOR
 70
     5
102
VTR_0.000_0.000_1.000_1.000_DEFAULTLIGHTING
280
     1
102
VTR_0.000_0.000_1.000_1.000_DEFAULTLIGHTINGTYPE
 70
     1
102
VTR_0.000_0.000_1.000_1.000_BRIGHTNESS
141
0.0
102
VTR_0.000_0.000_1.000_1.000_CONTRAST
142
0.0
  0
LAYOUT
  5
1E
102
{ACAD_REACTORS
330
1A
102
}
330
1A
100
AcDbPlotSettings
  1

  2
none_device
  4

  6

 40
0.0
 41
0.0
 42
0.0
 43
0.0
 44
0.0
 45
0.0
 46
0.0
 47
0.0
 48
0.0
 49
0.0
140
0.0
141
0.0
142
1.0
143
1.0
 70
   688
 72
     1
 73
     0
 74
     5
  7

 75
    16
 76
     0
 77
     5
 78
   300
147
1.0
148
0.0
149
0.0
100
AcDbLayout
  1
Layout1
 70
     1
 71
     1
 10
0.0
 20
0.0
 11
420.0
 21
297.0
 12
0.0
 22
0.0
 32
0.0
 14
1.000000000000000E+20
 24
1.000000000000000E+20
 34
1.000000000000000E+20
 15
-1.000000000000000E+20
 25
-1.000000000000000E+20
 35
-1.000000000000000E+20
146
0.0
 13
0.0
 23
0.0
 33
0.0
 16
1.0
 26
0.0
 36
0.0
 17
0.0
 27
1.0
 37
0.0
 76
     0
330
1B
  0
LAYOUT
  5
26
102
{ACAD_REACTORS
330
1A
102
}
330
1A
100
AcDbPlotSettings
  1

  2
none_device
  4

  6

 40
0.0
 41
0.0
 42
0.0
 43
0.0
 44
0.0
 45
0.0
 46
0.0
 47
0.0
 48
0.0
 49
0.0
140
0.0
141
0.0
142
1.0
143
1.0
 70
   688
 72
     1
 73
     0
 74
     5
  7

 75
    16
 76
     0
 77
     5
 78
   300
147
1.0
148
0.0
149
0.0
100
AcDbLayout
  1
Layout2
 70
     1
 71
     2
 10
0.0
 20
0.0
 11
0.0
 21
0.0
 12
0.0
 22
0.0
 32
0.0
 14
0.0
 24
0.0
 34
0.0
 15
0.0
 25
0.0
 35
0.0
146
0.0
 13
0.0
 23
0.0
 33
0.0
 16
1.0
 26
0.0
 36
0.0
 17
0.0
 27
1.0
 37
0.0
 76
     0
330
23
  0
LAYOUT
  5
22
102
{ACAD_REACTORS
330
1A
102
}
330
1A
100
AcDbPlotSettings
  1

  2
none_device
  4
Letter_(8.50_x_11.00_Inches)
  6

 40
6.35
 41
6.35
 42
6.35000508
 43
6.35000508
 44
215.9
 45
279.4
 46
0.0
 47
0.0
 48
0.0
 49
0.0
140
0.0
141
0.0
142
1.0
143
1.0
 70
  1712
 72
     1
 73
     0
 74
     0
  7

 75
     0
 76
     0
 77
     5
 78
   300
147
1.0
148
0.0
149
0.0
100
AcDbLayout
  1
Model
 70
     1
 71
     0
 10
-1050.0
 20
-742.5
 11
1050.0
 21
742.5
 12
0.0
 22
0.0
 32
0.0
 14
-1050.0
 24
-742.5
 34
0.0
 15
1050.0
 25
742.5
 35
0.0
146
0.0
 13
0.0
 23
0.0
 33
0.0
 16
1.0
 26
0.0
 36
0.0
 17
0.0
 27
1.0
 37
0.0
 76
     0
330
1F
331
29
  0
MATERIAL
  5
45
102
{ACAD_REACTORS
330
43
102
}
102
{ACAD_XDICTIONARY
360
3E5
102
}
330
43
100
AcDbMaterial
  1
ByBlock
  0
MATERIAL
  5
44
102
{ACAD_REACTORS
330
43
102
}
102
{ACAD_XDICTIONARY
360
3E3
102
}
330
43
100
AcDbMaterial
  1
ByLayer
  0
MATERIAL
  5
46
102
{ACAD_REACTORS
330
43
102
}
102
{ACAD_XDICTIONARY
360
3E7
102
}
330
43
100
AcDbMaterial
  1
Global
  0
MLEADERSTYLE
  5
6C
102
{ACAD_REACTORS
330
6B
102
}
102
{ACAD_XDICTIONARY
360
3ED
102
}
330
6B
100
AcDbMLeaderStyle
170
     2
171
     1
172
     0
 90
        2
 40
0.0
 41
0.0
173
     1
 91
-1056964608
340
14
 92
       -2
290
     1
 42
2.0
291
     1
 43
8.0
  3
Standard
341
0
 44
4.0
300

342
11
174
     1
178
     6
175
     1
176
     0
 93
-1056964608
 45
4.0
292
     0
297
     0
 46
4.0
343
0
 94
-1056964608
 47
1.0
 49
1.0
140
1.0
293
     1
141
0.0
294
     1
177
     0
142
1.0
295
     0
296
     0
143
3.75
1001
ACAD_MLEADERVER
1070
     2
  0
MLINESTYLE
  5
18
102
{ACAD_REACTORS
330
17
102
}
330
17
100
AcDbMlineStyle
  2
Standard
 70
     0
  3

 62
   256
 51
90.0
 52
90.0
 71
     2
 49
0.5
 62
   256
  6
BYLAYER
 49
-0.5
 62
   256
  6
BYLAYER
  0
ACDBPLACEHOLDER
  5
F
102
{ACAD_REACTORS
330
E
102
}
330
E
  0
SCALE
  5
48
102
{ACAD_REACTORS
330
47
102
}
330
47
100
AcDbScale
 70
     0
300
1:1
140
1.0
141
1.0
290
     1
  0
SCALE
  5
49
102
{ACAD_REACTORS
330
47
102
}
330
47
100
AcDbScale
 70
     0
300
1:2
140
1.0
141
2.0
290
     0
  0
SCALE
  5
4A
102
{ACAD_REACTORS
330
47
102
}
330
47
100
AcDbScale
 70
     0
300
1:4
140
1.0
141
4.0
290
     0
  0
SCALE
  5
4B
102
{ACAD_REACTORS
330
47
102
}
330
47
100
AcDbScale
 70
     0
300
1:5
140
1.0
141
5.0
290
     0
  0
SCALE
  5
4C
102
{ACAD_REACTORS
330
47
102
}
330
47
100
AcDbScale
 70
     0
300
1:8
140
1.0
141
8.0
290
     0
  0
SCALE
  5
4D
102
{ACAD_REACTORS
330
47
102
}
330
47
100
AcDbScale
 70
     0
300
1:10
140
1.0
141
10.0
290
     0
  0
SCALE
  5
4E
102
{ACAD_REACTORS
330
47
102
}
330
47
100
AcDbScale
 70
     0
300
1:16
140
1.0
141
16.0
290
     0
  0
SCALE
  5
4F
102
{ACAD_REACTORS
330
47
102
}
330
47
100
AcDbScale
 70
     0
300
1:20
140
1.0
141
20.0
290
     0
  0
SCALE
  5
50
102
{ACAD_REACTORS
330
47
102
}
330
47
100
AcDbScale
 70
     0
300
1:30
140
1.0
141
30.0
290
     0
  0
SCALE
  5
51
102
{ACAD_REACTORS
330
47
102
}
330
47
100
AcDbScale
 70
     0
300
1:40
140
1.0
141
40.0
290
     0
  0
SCALE
  5
52
102
{ACAD_REACTORS
330
47
102
}
330
47
100
AcDbScale
 70
     0
300
1:50
140
1.0
141
50.0
290
     0
  0
SCALE
  5
53
102
{ACAD_REACTORS
330
47
102
}
330
47
100
AcDbScale
 70
     0
300
1:100
140
1.0
141
100.0
290
     0
  0
SCALE
  5
54
102
{ACAD_REACTORS
330
47
102
}
330
47
100
AcDbScale
 70
     0
300
2:1
140
2.0
141
1.0
290
     0
  0
SCALE
  5
55
102
{ACAD_REACTORS
330
47
102
}
330
47
100
AcDbScale
 70
     0
300
4:1
140
4.0
141
1.0
290
     0
  0
SCALE
  5
56
102
{ACAD_REACTORS
330
47
102
}
330
47
100
AcDbScale
 70
     0
300
8:1
140
8.0
141
1.0
290
     0
  0
SCALE
  5
57
102
{ACAD_REACTORS
330
47
102
}
330
47
100
AcDbScale
 70
     0
300
10:1
140
10.0
141
1.0
290
     0
  0
SCALE
  5
58
102
{ACAD_REACTORS
330
47
102
}
330
47
100
AcDbScale
 70
     0
300
100:1
140
100.0
141
1.0
290
     0
  0
SCALE
  5
59
102
{ACAD_REACTORS
330
47
102
}
330
47
100
AcDbScale
 70
     0
300
1/128" = 1'-0"
140
0.0078125
141
12.0
290
     0
  0
SCALE
  5
5A
102
{ACAD_REACTORS
330
47
102
}
330
47
100
AcDbScale
 70
     0
300
1/64" = 1'-0"
140
0.015625
141
12.0
290
     0
  0
SCALE
  5
5B
102
{ACAD_REACTORS
330
47
102
}
330
47
100
AcDbScale
 70
     0
300
1/32" = 1'-0"
140
0.03125
141
12.0
290
     0
  0
SCALE
  5
5C
102
{ACAD_REACTORS
330
47
102
}
330
47
100
AcDbScale
 70
     0
300
1/16" = 1'-0"
140
0.0625
141
12.0
290
     0
  0
SCALE
  5
5D
102
{ACAD_REACTORS
330
47
102
}
330
47
100
AcDbScale
 70
     0
300
3/32" = 1'-0"
140
0.09375
141
12.0
290
     0
  0
SCALE
  5
5E
102
{ACAD_REACTORS
330
47
102
}
330
47
100
AcDbScale
 70
     0
300
1/8" = 1'-0"
140
0.125
141
12.0
290
     0
  0
SCALE
  5
5F
102
{ACAD_REACTORS
330
47
102
}
330
47
100
AcDbScale
 70
     0
300
3/16" = 1'-0"
140
0.1875
141
12.0
290
     0
  0
SCALE
  5
60
102
{ACAD_REACTORS
330
47
102
}
330
47
100
AcDbScale
 70
     0
300
1/4" = 1'-0"
140
0.25
141
12.0
290
     0
  0
SCALE
  5
61
102
{ACAD_REACTORS
330
47
102
}
330
47
100
AcDbScale
 70
     0
300
3/8" = 1'-0"
140
0.375
141
12.0
290
     0
  0
SCALE
  5
62
102
{ACAD_REACTORS
330
47
102
}
330
47
100
AcDbScale
 70
     0
300
1/2" = 1'-0"
140
0.5
141
12.0
290
     0
  0
SCALE
  5
63
102
{ACAD_REACTORS
330
47
102
}
330
47
100
AcDbScale
 70
     0
300
3/4" = 1'-0"
140
0.75
141
12.0
290
     0
  0
SCALE
  5
64
102
{ACAD_REACTORS
330
47
102
}
330
47
100
AcDbScale
 70
     0
300
1" = 1'-0"
140
1.0
141
12.0
290
     0
  0
SCALE
  5
65
102
{ACAD_REACTORS
330
47
102
}
330
47
100
AcDbScale
 70
     0
300
1-1/2" = 1'-0"
140
1.5
141
12.0
290
     0
  0
SCALE
  5
66
102
{ACAD_REACTORS
330
47
102
}
330
47
100
AcDbScale
 70
     0
300
3" = 1'-0"
140
3.0
141
12.0
290
     0
  0
SCALE
  5
67
102
{ACAD_REACTORS
330
47
102
}
330
47
100
AcDbScale
 70
     0
300
6" = 1'-0"
140
6.0
141
12.0
290
     0
  0
SCALE
  5
68
102
{ACAD_REACTORS
330
47
102
}
330
47
100
AcDbScale
 70
     0
300
1'-0" = 1'-0"
140
12.0
141
12.0
290
     0
  0
TABLESTYLE
  5
6A
102
{ACAD_REACTORS
330
69
102
}
102
{ACAD_XDICTIONARY
360
3E9
102
}
330
69
100
AcDbTableStyle
  3
Standard
 70
     0
 71
     0
 40
0.06
 41
0.06
280
     0
281
     0
  7
Standard
140
4.5
170
     2
 62
     0
 63
   257
283
     0
274
    -2
284
     1
 64
     0
275
    -2
285
     1
 65
     0
276
    -2
286
     1
 66
     0
277
    -2
287
     1
 67
     0
278
    -2
288
     1
 68
     0
279
    -2
289
     1
 69
     0
  7
Standard
140
6.0
170
     5
 62
     0
 63
   257
283
     0
274
    -2
284
     1
 64
     0
275
    -2
285
     1
 65
     0
276
    -2
286
     1
 66
     0
277
    -2
287
     1
 67
     0
278
    -2
288
     1
 68
     0
279
    -2
289
     1
 69
     0
  7
Standard
140
4.5
170
     5
 62
     0
 63
   257
283
     0
274
    -2
284
     1
 64
     0
275
    -2
285
     1
 65
     0
276
    -2
286
     1
 66
     0
277
    -2
287
     1
 67
     0
278
    -2
288
     1
 68
     0
279
    -2
289
     1
 69
     0
  0
VISUALSTYLE
  5
2F
102
{ACAD_REACTORS
330
2A
102
}
102
{ACAD_XDICTIONARY
360
3BB
102
}
330
2A
100
AcDbVisualStyle
  2
2dWireframe
 70
     4
 71
     0
 72
     2
 73
     0
 90
        0
 40
0.6
 41
30.0
 62
     5
 63
     7
421
 16777215
 74
     1
 91
        4
 64
     7
 65
   257
 75
     1
175
     1
 42
1.0
 92
        0
 66
   257
 43
1.0
 76
     1
 77
     6
 78
     2
 67
     7
 79
     5
170
     0
171
     0
290
     0
174
     0
 93
        1
 44
0.0
173
     0
291
     0
 45
0.0
1001
ACAD
1000
AcDbSavedByObjectVersion
1070
     0
  0
VISUALSTYLE
  5
32
102
{ACAD_REACTORS
330
2A
102
}
102
{ACAD_XDICTIONARY
360
3C1
102
}
330
2A
100
AcDbVisualStyle
  2
Basic
 70
     7
 71
     1
 72
     0
 73
     1
 90
        0
 40
0.6
 41
30.0
 62
     5
 63
     7
421
 16777215
 74
     0
 91
        4
 64
     7
 65
   257
 75
     1
175
     1
 42
1.0
 92
        8
 66
     7
 43
1.0
 76
     1
 77
     6
 78
     2
 67
     7
 79
     5
170
     0
171
     0
290
     0
174
     0
 93
        1
 44
0.0
173
     0
291
     1
 45
0.0
1001
ACAD
1000
AcDbSavedByObjectVersion
1070
     0
  0
VISUALSTYLE
  5
36
102
{ACAD_REACTORS
330
2A
102
}
102
{ACAD_XDICTIONARY
360
3C9
102
}
330
2A
100
AcDbVisualStyle
  2
Brighten
 70
    12
 71
     2
 72
     2
 73
     0
 90
        0
 40
0.6
 41
30.0
 62
     5
 63
     7
421
 16777215
 74
     1
 91
        4
 64
     7
 65
   257
 75
     1
175
     1
 42
1.0
 92
        8
 66
     7
 43
1.0
 76
     1
 77
     6
 78
     2
 67
     7
 79
     5
170
     0
171
     0
290
     0
174
     0
 93
        1
 44
50.0
173
     0
291
     1
 45
0.0
1001
ACAD
1000
AcDbSavedByObjectVersion
1070
     0
  0
VISUALSTYLE
  5
3A
102
{ACAD_REACTORS
330
2A
102
}
102
{ACAD_XDICTIONARY
360
3D1
102
}
330
2A
100
AcDbVisualStyle
  2
ColorChange
 70
    16
 71
     2
 72
     2
 73
     3
 90
        0
 40
0.6
 41
30.0
 62
     5
 63
     8
421
  8421504
 74
     1
 91
        4
 64
     7
 65
   257
 75
     1
175
     1
 42
1.0
 92
        8
 66
     8
424
  8421504
 43
1.0
 76
     1
 77
     6
 78
     2
 67
     7
 79
     5
170
     0
171
     0
290
     0
174
     0
 93
        1
 44
0.0
173
     0
291
     1
 45
0.0
1001
ACAD
1000
AcDbSavedByObjectVersion
1070
     0
  0
VISUALSTYLE
  5
34
102
{ACAD_REACTORS
330
2A
102
}
102
{ACAD_XDICTIONARY
360
3C5
102
}
330
2A
100
AcDbVisualStyle
  2
Conceptual
 70
     9
 71
     3
 72
     2
 73
     0
 90
        0
 40
0.6
 41
30.0
 62
     5
 63
     7
421
 16777215
 74
     2
 91
        2
 64
     7
 65
   257
 75
     1
175
     1
 42
179.0
 92
        8
 66
     7
 43
1.0
 76
     1
 77
     6
 78
     2
 67
     7
 79
     3
170
     0
171
     0
290
     0
174
     0
 93
        1
 44
0.0
173
     0
291
     0
 45
0.0
1001
ACAD
1000
AcDbSavedByObjectVersion
1070
     0
  0
VISUALSTYLE
  5
35
102
{ACAD_REACTORS
330
2A
102
}
102
{ACAD_XDICTIONARY
360
3C7
102
}
330
2A
100
AcDbVisualStyle
  2
Dim
 70
    11
 71
     2
 72
     2
 73
     0
 90
        0
 40
0.6
 41
30.0
 62
     5
 63
     7
421
 16777215
 74
     1
 91
        4
 64
     7
 65
   257
 75
     1
175
     1
 42
1.0
 92
        8
 66
     7
 43
1.0
 76
     1
 77
     6
 78
     2
 67
     7
 79
     5
170
     0
171
     0
290
     0
174
     0
 93
        1
 44
-50.0
173
     0
291
     1
 45
0.0
1001
ACAD
1000
AcDbSavedByObjectVersion
1070
     0
  0
VISUALSTYLE
  5
3D
102
{ACAD_REACTORS
330
2A
102
}
102
{ACAD_XDICTIONARY
360
3D7
102
}
330
2A
100
AcDbVisualStyle
  2
EdgeColorOff
 70
    22
 71
     2
 72
     2
 73
     0
 90
        0
 40
0.6
 41
30.0
 62
     5
 63
     7
421
 16777215
 74
     1
 91
        4
 64
     7
 65
   257
 75
     1
175
     1
 42
1.0
 92
        8
 66
     7
 43
1.0
 76
     1
 77
     6
 78
     2
 67
     7
 79
     5
170
     0
171
     0
290
     0
174
     0
 93
        1
 44
0.0
173
     0
291
     1
 45
0.0
1001
ACAD
1000
AcDbSavedByObjectVersion
1070
     0
  0
VISUALSTYLE
  5
39
102
{ACAD_REACTORS
330
2A
102
}
102
{ACAD_XDICTIONARY
360
3CF
102
}
330
2A
100
AcDbVisualStyle
  2
Facepattern
 70
    15
 71
     2
 72
     2
 73
     0
 90
        0
 40
0.6
 41
30.0
 62
     5
 63
     7
421
 16777215
 74
     1
 91
        4
 64
     7
 65
   257
 75
     1
175
     1
 42
1.0
 92
        8
 66
     7
 43
1.0
 76
     1
 77
     6
 78
     2
 67
     7
 79
     5
170
     0
171
     0
290
     0
174
     0
 93
        1
 44
0.0
173
     0
291
     1
 45
0.0
1001
ACAD
1000
AcDbSavedByObjectVersion
1070
     0
  0
VISUALSTYLE
  5
2B
102
{ACAD_REACTORS
330
2A
102
}
102
{ACAD_XDICTIONARY
360
3B3
102
}
330
2A
100
AcDbVisualStyle
  2
Flat
 70
     0
 71
     2
 72
     1
 73
     1
 90
        2
 40
0.6
 41
30.0
 62
     5
 63
     7
421
 16777215
 74
     0
 91
        0
 64
     7
 65
   257
 75
     1
175
     1
 42
1.0
 92
        8
 66
     7
 43
1.0
 76
     1
 77
     6
 78
     2
 67
     7
 79
     5
170
     0
171
     0
290
     0
174
     0
 93
       13
 44
0.0
173
     0
291
     1
 45
0.0
1001
ACAD
1000
AcDbSavedByObjectVersion
1070
     0
  0
VISUALSTYLE
  5
2C
102
{ACAD_REACTORS
330
2A
102
}
102
{ACAD_XDICTIONARY
360
3B5
102
}
330
2A
100
AcDbVisualStyle
  2
FlatWithEdges
 70
     1
 71
     2
 72
     1
 73
     1
 90
        2
 40
0.6
 41
30.0
 62
     5
 63
     7
421
 16777215
 74
     1
 91
        0
 64
     7
 65
   257
 75
     1
175
     1
 42
1.0
 92
        0
 66
   257
 43
1.0
 76
     1
 77
     6
 78
     2
 67
     7
 79
     5
170
     0
171
     0
290
     0
174
     0
 93
       13
 44
0.0
173
     0
291
     1
 45
0.0
1001
ACAD
1000
AcDbSavedByObjectVersion
1070
     0
  0
VISUALSTYLE
  5
2D
102
{ACAD_REACTORS
330
2A
102
}
102
{ACAD_XDICTIONARY
360
3B7
102
}
330
2A
100
AcDbVisualStyle
  2
Gouraud
 70
     2
 71
     2
 72
     2
 73
     1
 90
        2
 40
0.6
 41
30.0
 62
     5
 63
     7
421
 16777215
 74
     0
 91
        0
 64
     7
 65
   257
 75
     1
175
     1
 42
1.0
 92
        0
 66
     7
 43
1.0
 76
     1
 77
     6
 78
     2
 67
     7
 79
     5
170
     0
171
     0
290
     0
174
     0
 93
       13
 44
0.0
173
     0
291
     1
 45
0.0
1001
ACAD
1000
AcDbSavedByObjectVersion
1070
     0
  0
VISUALSTYLE
  5
2E
102
{ACAD_REACTORS
330
2A
102
}
102
{ACAD_XDICTIONARY
360
3B9
102
}
330
2A
100
AcDbVisualStyle
  2
GouraudWithEdges
 70
     3
 71
     2
 72
     2
 73
     1
 90
        2
 40
0.6
 41
30.0
 62
     5
 63
     7
421
 16777215
 74
     1
 91
        0
 64
     7
 65
   257
 75
     1
175
     1
 42
1.0
 92
        0
 66
   257
 43
1.0
 76
     1
 77
     6
 78
     2
 67
     7
 79
     5
170
     0
171
     0
290
     0
174
     0
 93
       13
 44
0.0
173
     0
291
     1
 45
0.0
1001
ACAD
1000
AcDbSavedByObjectVersion
1070
     0
  0
VISUALSTYLE
  5
31
102
{ACAD_REACTORS
330
2A
102
}
102
{ACAD_XDICTIONARY
360
3BF
102
}
330
2A
100
AcDbVisualStyle
  2
Hidden
 70
     6
 71
     1
 72
     2
 73
     2
 90
        0
 40
0.6
 41
30.0
 62
     5
 63
     7
421
 16777215
 74
     2
 91
        2
 64
     7
 65
   257
 75
     2
175
     1
 42
40.0
 92
        0
 66
   257
 43
1.0
 76
     1
 77
     6
 78
     2
 67
     7
 79
     3
170
     0
171
     0
290
     0
174
     0
 93
        1
 44
0.0
173
     0
291
     0
 45
0.0
1001
ACAD
1000
AcDbSavedByObjectVersion
1070
     0
  0
VISUALSTYLE
  5
3B
102
{ACAD_REACTORS
330
2A
102
}
102
{ACAD_XDICTIONARY
360
3D3
102
}
330
2A
100
AcDbVisualStyle
  2
JitterOff
 70
    20
 71
     2
 72
     2
 73
     0
 90
        0
 40
0.6
 41
30.0
 62
     5
 63
     7
421
 16777215
 74
     1
 91
        4
 64
     7
 65
   257
 75
     1
175
     1
 42
1.0
 92
       10
 66
     7
 43
1.0
 76
     1
 77
     6
 78
     2
 67
     7
 79
     5
170
     0
171
     0
290
     0
174
     0
 93
        1
 44
0.0
173
     0
291
     1
 45
0.0
1001
ACAD
1000
AcDbSavedByObjectVersion
1070
     0
  0
VISUALSTYLE
  5
38
102
{ACAD_REACTORS
330
2A
102
}
102
{ACAD_XDICTIONARY
360
3CD
102
}
330
2A
100
AcDbVisualStyle
  2
Linepattern
 70
    14
 71
     2
 72
     2
 73
     0
 90
        0
 40
0.6
 41
30.0
 62
     5
 63
     7
421
 16777215
 74
     1
 91
        4
 64
     7
 65
   257
 75
     7
175
     7
 42
1.0
 92
        8
 66
     7
 43
1.0
 76
     1
 77
     6
 78
     2
 67
     7
 79
     5
170
     0
171
     0
290
     0
174
     0
 93
        1
 44
0.0
173
     0
291
     1
 45
0.0
1001
ACAD
1000
AcDbSavedByObjectVersion
1070
     0
  0
VISUALSTYLE
  5
3C
102
{ACAD_REACTORS
330
2A
102
}
102
{ACAD_XDICTIONARY
360
3D5
102
}
330
2A
100
AcDbVisualStyle
  2
OverhangOff
 70
    21
 71
     2
 72
     2
 73
     0
 90
        0
 40
0.6
 41
30.0
 62
     5
 63
     7
421
 16777215
 74
     1
 91
        4
 64
     7
 65
   257
 75
     1
175
     1
 42
1.0
 92
        9
 66
     7
 43
1.0
 76
     1
 77
     6
 78
     2
 67
     7
 79
     5
170
     0
171
     0
290
     0
174
     0
 93
        1
 44
0.0
173
     0
291
     1
 45
0.0
1001
ACAD
1000
AcDbSavedByObjectVersion
1070
     0
  0
VISUALSTYLE
  5
33
102
{ACAD_REACTORS
330
2A
102
}
102
{ACAD_XDICTIONARY
360
3C3
102
}
330
2A
100
AcDbVisualStyle
  2
Realistic
 70
     8
 71
     2
 72
     3
 73
     0
 90
        2
 40
0.6
 41
30.0
 62
     5
 63
     7
421
 16777215
 74
     0
 91
        0
 64
     7
 65
   257
 75
     1
175
     1
 42
1.0
 92
        8
 66
   257
 43
1.0
 76
     1
 77
     6
 78
     2
 67
     7
 79
     3
170
     0
171
     0
290
     0
174
     0
 93
       13
 44
0.0
173
     0
291
     0
 45
0.0
1001
ACAD
1000
AcDbSavedByObjectVersion
1070
     0
  0
VISUALSTYLE
  5
42
102
{ACAD_REACTORS
330
2A
102
}
102
{ACAD_XDICTIONARY
360
3E1
102
}
330
2A
100
AcDbVisualStyle
  2
Shaded
 70
    27
 71
     2
 72
     2
 73
     1
 90
        2
 40
0.6
 41
30.0
 62
     5
 63
     7
421
 16777215
 74
     0
 91
        4
 64
     7
 65
   257
 75
     1
175
     1
 42
1.0
 92
        8
 66
   257
 43
1.0
 76
     1
 77
     6
 78
     2
 67
     8
425
  7895160
 79
     3
170
     0
171
     0
290
     0
174
     0
 93
        5
 44
0.0
173
     0
291
     0
 45
0.0
1001
ACAD
1000
AcDbSavedByObjectVersion
1070
     0
  0
VISUALSTYLE
  5
41
102
{ACAD_REACTORS
330
2A
102
}
102
{ACAD_XDICTIONARY
360
3DF
102
}
330
2A
100
AcDbVisualStyle
  2
Shaded with edges
 70
    26
 71
     2
 72
     2
 73
     1
 90
        2
 40
0.6
 41
30.0
 62
     5
 63
     7
421
 16777215
 74
     1
 91
       10
 64
     7
 65
   257
 75
     2
175
     1
 42
1.0
 92
        8
 66
   257
 43
1.0
 76
     1
 77
     6
 78
     2
 67
     7
 79
     3
170
     0
171
     0
290
     0
174
     0
 93
        5
 44
0.0
173
     0
291
     0
 45
0.0
1001
ACAD
1000
AcDbSavedByObjectVersion
1070
     0
  0
VISUALSTYLE
  5
3E
102
{ACAD_REACTORS
330
2A
102
}
102
{ACAD_XDICTIONARY
360
3D9
102
}
330
2A
100
AcDbVisualStyle
  2
Shades of Gray
 70
    23
 71
     2
 72
     2
 73
     3
 90
        0
 40
0.6
 41
30.0
 62
     5
 63
     7
421
 16777215
 74
     2
 91
        2
 64
     7
 65
     7
 75
     1
175
     1
 42
40.0
 92
        8
 66
     7
 43
1.0
 76
     1
 77
     6
 78
     2
 67
     7
 79
     3
170
     0
171
     0
290
     0
174
     0
 93
        1
 44
0.0
173
     0
291
     0
 45
0.0
1001
ACAD
1000
AcDbSavedByObjectVersion
1070
     0
  0
VISUALSTYLE
  5
3F
102
{ACAD_REACTORS
330
2A
102
}
102
{ACAD_XDICTIONARY
360
3DB
102
}
330
2A
100
AcDbVisualStyle
  2
Sketchy
 70
    24
 71
     1
 72
     2
 73
     2
 90
        0
 40
0.6
 41
30.0
 62
     5
 63
     7
421
 16777215
 74
     2
 91
        2
 64
     7
 65
     7
 75
     1
175
     1
 42
40.0
 92
       11
 66
     7
 43
1.0
 76
     1
 77
     6
 78
     2
 67
     7
 79
     6
170
     0
171
     0
290
     0
174
     0
 93
        1
 44
0.0
173
     0
291
     0
 45
0.0
1001
ACAD
1000
AcDbSavedByObjectVersion
1070
     0
  0
VISUALSTYLE
  5
37
102
{ACAD_REACTORS
330
2A
102
}
102
{ACAD_XDICTIONARY
360
3CB
102
}
330
2A
100
AcDbVisualStyle
  2
Thicken
 70
    13
 71
     2
 72
     2
 73
     0
 90
        0
 40
0.6
 41
30.0
 62
     5
 63
     7
421
 16777215
 74
     1
 91
        4
 64
     7
 65
   257
 75
     1
175
     1
 42
1.0
 92
       12
 66
     7
 43
1.0
 76
     1
 77
     6
 78
     2
 67
     7
 79
     5
170
     0
171
     0
290
     0
174
     0
 93
        1
 44
0.0
173
     0
291
     1
 45
0.0
1001
ACAD
1000
AcDbSavedByObjectVersion
1070
     0
  0
VISUALSTYLE
  5
30
102
{ACAD_REACTORS
330
2A
102
}
102
{ACAD_XDICTIONARY
360
3BD
102
}
330
2A
100
AcDbVisualStyle
  2
Wireframe
 70
     5
 71
     0
 72
     2
 73
     0
 90
        0
 40
0.6
 41
30.0
 62
     5
 63
     7
421
 16777215
 74
     1
 91
        4
 64
     7
 65
   257
 75
     1
175
     1
 42
1.0
 92
        0
 66
   257
 43
1.0
 76
     1
 77
     6
 78
     2
 67
     7
 79
     3
170
     0
171
     0
290
     0
174
     0
 93
        1
 44
0.0
173
     0
291
     0
 45
0.0
1001
ACAD
1000
AcDbSavedByObjectVersion
1070
     0
  0
VISUALSTYLE
  5
40
102
{ACAD_REACTORS
330
2A
102
}
102
{ACAD_XDICTIONARY
360
3DD
102
}
330
2A
100
AcDbVisualStyle
  2
X-Ray
 70
    25
 71
     2
 72
     2
 73
     1
 90
        1
 40
0.5
 41
30.0
 62
     5
 63
     7
421
 16777215
 74
     1
 91
        0
 64
     7
 65
   257
 75
     1
175
     1
 42
1.0
 92
        8
 66
     7
 43
1.0
 76
     1
 77
     6
 78
     2
 67
     7
 79
     3
170
     0
171
     0
290
     0
174
     0
 93
       13
 44
0.0
173
     0
291
     0
 45
0.0
1001
ACAD
1000
AcDbSavedByObjectVersion
1070
     0
  0
DICTIONARYVAR
  5
3B0
102
{ACAD_REACTORS
330
3AF
102
}
330
3AF
100
DictionaryVariables
280
     0
  1
1:1
  0
DICTIONARYVAR
  5
3F4
102
{ACAD_REACTORS
330
3AF
102
}
330
3AF
100
DictionaryVariables
280
     0
  1
3.500000
  0
DICTIONARYVAR
  5
3F5
102
{ACAD_REACTORS
330
3AF
102
}
330
3AF
100
DictionaryVariables
280
     0
  1
acadiso.lin
  0
DICTIONARYVAR
  5
3F1
102
{ACAD_REACTORS
330
3AF
102
}
330
3AF
100
DictionaryVariables
280
     0
  1
Standard
  0
DICTIONARYVAR
  5
3F0
102
{ACAD_REACTORS
330
3AF
102
}
330
3AF
100
DictionaryVariables
280
     0
  1
Standard
  0
DICTIONARYVAR
  5
3B1
102
{ACAD_REACTORS
330
3AF
102
}
330
3AF
100
DictionaryVariables
280
     0
  1
1
  0
DICTIONARYVAR
  5
3B2
102
{ACAD_REACTORS
330
3AF
102
}
330
3AF
100
DictionaryVariables
280
     0
  1
2
  0
DICTIONARY
  5
3E5
330
45
100
AcDbDictionary
280
     1
281
     1
  3
ACAD_XREC_ROUNDTRIP
360
3E6
  0
DICTIONARY
  5
3E3
330
44
100
AcDbDictionary
280
     1
281
     1
  3
ACAD_XREC_ROUNDTRIP
360
3E4
  0
DICTIONARY
  5
3E7
330
46
100
AcDbDictionary
280
     1
281
     1
  3
ACAD_XREC_ROUNDTRIP
360
3E8
  0
DICTIONARY
  5
3ED
330
6C
100
AcDbDictionary
280
     1
281
     1
  3
ACAD_XREC_ROUNDTRIP
360
3EE
  0
DICTIONARY
  5
3E9
330
6A
100
AcDbDictionary
280
     1
281
     1
  3
ACAD_ROUNDTRIP_2008_TABLESTYLE_CELLSTYLEMAP
360
3EB
  3
ACAD_XREC_ROUNDTRIP
360
3EA
  0
DICTIONARY
  5
3BB
330
2F
100
AcDbDictionary
280
     1
281
     1
  3
ACAD_XREC_ROUNDTRIP
360
3BC
  0
DICTIONARY
  5
3C1
330
32
100
AcDbDictionary
280
     1
281
     1
  3
ACAD_XREC_ROUNDTRIP
360
3C2
  0
DICTIONARY
  5
3C9
330
36
100
AcDbDictionary
280
     1
281
     1
  3
ACAD_XREC_ROUNDTRIP
360
3CA
  0
DICTIONARY
  5
3D1
330
3A
100
AcDbDictionary
280
     1
281
     1
  3
ACAD_XREC_ROUNDTRIP
360
3D2
  0
DICTIONARY
  5
3C5
330
34
100
AcDbDictionary
280
     1
281
     1
  3
ACAD_XREC_ROUNDTRIP
360
3C6
  0
DICTIONARY
  5
3C7
330
35
100
AcDbDictionary
280
     1
281
     1
  3
ACAD_XREC_ROUNDTRIP
360
3C8
  0
DICTIONARY
  5
3D7
330
3D
100
AcDbDictionary
280
     1
281
     1
  3
ACAD_XREC_ROUNDTRIP
360
3D8
  0
DICTIONARY
  5
3CF
330
39
100
AcDbDictionary
280
     1
281
     1
  3
ACAD_XREC_ROUNDTRIP
360
3D0
  0
DICTIONARY
  5
3B3
330
2B
100
AcDbDictionary
280
     1
281
     1
  3
ACAD_XREC_ROUNDTRIP
360
3B4
  0
DICTIONARY
  5
3B5
330
2C
100
AcDbDictionary
280
     1
281
     1
  3
ACAD_XREC_ROUNDTRIP
360
3B6
  0
DICTIONARY
  5
3B7
330
2D
100
AcDbDictionary
280
     1
281
     1
  3
ACAD_XREC_ROUNDTRIP
360
3B8
  0
DICTIONARY
  5
3B9
330
2E
100
AcDbDictionary
280
     1
281
     1
  3
ACAD_XREC_ROUNDTRIP
360
3BA
  0
DICTIONARY
  5
3BF
330
31
100
AcDbDictionary
280
     1
281
     1
  3
ACAD_XREC_ROUNDTRIP
360
3C0
  0
DICTIONARY
  5
3D3
330
3B
100
AcDbDictionary
280
     1
281
     1
  3
ACAD_XREC_ROUNDTRIP
360
3D4
  0
DICTIONARY
  5
3CD
330
38
100
AcDbDictionary
280
     1
281
     1
  3
ACAD_XREC_ROUNDTRIP
360
3CE
  0
DICTIONARY
  5
3D5
330
3C
100
AcDbDictionary
280
     1
281
     1
  3
ACAD_XREC_ROUNDTRIP
360
3D6
  0
DICTIONARY
  5
3C3
330
33
100
AcDbDictionary
280
     1
281
     1
  3
ACAD_XREC_ROUNDTRIP
360
3C4
  0
DICTIONARY
  5
3E1
330
42
100
AcDbDictionary
280
     1
281
     1
  3
ACAD_XREC_ROUNDTRIP
360
3E2
  0
DICTIONARY
  5
3DF
330
41
100
AcDbDictionary
280
     1
281
     1
  3
ACAD_XREC_ROUNDTRIP
360
3E0
  0
DICTIONARY
  5
3D9
330
3E
100
AcDbDictionary
280
     1
281
     1
  3
ACAD_XREC_ROUNDTRIP
360
3DA
  0
DICTIONARY
  5
3DB
330
3F
100
AcDbDictionary
280
     1
281
     1
  3
ACAD_XREC_ROUNDTRIP
360
3DC
  0
DICTIONARY
  5
3CB
330
37
100
AcDbDictionary
280
     1
281
     1
  3
ACAD_XREC_ROUNDTRIP
360
3CC
  0
DICTIONARY
  5
3BD
330
30
100
AcDbDictionary
280
     1
281
     1
  3
ACAD_XREC_ROUNDTRIP
360
3BE
  0
DICTIONARY
  5
3DD
330
40
100
AcDbDictionary
280
     1
281
     1
  3
ACAD_XREC_ROUNDTRIP
360
3DE
  0
XRECORD
  5
3E6
102
{ACAD_REACTORS
330
3E5
102
}
330
3E5
100
AcDbXrecord
280
     1
102
MATERIAL
148
0.0
149
0.0
149
0.0
 93
        0
 94
      127
282
     0
 72
     1
 77
     1
171
     1
175
     1
179
     1
273
     0
  0
XRECORD
  5
3E4
102
{ACAD_REACTORS
330
3E3
102
}
330
3E3
100
AcDbXrecord
280
     1
102
MATERIAL
148
0.0
149
0.0
149
0.0
 93
        0
 94
      127
282
     0
 72
     1
 77
     1
171
     1
175
     1
179
     1
273
     0
  0
XRECORD
  5
3E8
102
{ACAD_REACTORS
330
3E7
102
}
330
3E7
100
AcDbXrecord
280
     1
102
MATERIAL
148
0.0
149
0.0
149
0.0
 93
        0
 94
      127
282
     0
 72
     1
 77
     1
171
     1
175
     1
179
     1
273
     0
  0
XRECORD
  5
3EE
102
{ACAD_REACTORS
330
3ED
102
}
330
3ED
100
AcDbXrecord
280
     1
102
ACAD_ROUNDTRIP_2010_MLEADER_STYLE
  0
CELLSTYLEMAP
  5
3EB
102
{ACAD_REACTORS
330
3E9
102
}
330
3E9
100
AcDbCellStyleMap
 90
        3
300
CELLSTYLE
  1
TABLEFORMAT_BEGIN
 90
        5
170
     1
 91
        0
 92
    32768
 62
   257
 93
        1
300
CONTENTFORMAT
  1
CONTENTFORMAT_BEGIN
 90
        0
 91
        0
 92
        4
 93
        0
300

 40
0.0
140
1.0
 94
        5
 62
     0
340
11
144
6.0
309
CONTENTFORMAT_END
171
     1
301
MARGIN
  1
CELLMARGIN_BEGIN
 40
1.5
 40
1.5
 40
1.5
 40
1.5
 40
1.5
 40
1.5
309
CELLMARGIN_END
 94
        6
 95
        1
302
GRIDFORMAT
  1
GRIDFORMAT_BEGIN
 90
        0
 91
        1
 62
     0
 92
       -2
340
14
 93
        0
 40
0.045
309
GRIDFORMAT_END
 95
        2
302
GRIDFORMAT
  1
GRIDFORMAT_BEGIN
 90
        0
 91
        1
 62
     0
 92
       -2
340
14
 93
        0
 40
0.045
309
GRIDFORMAT_END
 95
        4
302
GRIDFORMAT
  1
GRIDFORMAT_BEGIN
 90
        0
 91
        1
 62
     0
 92
       -2
340
14
 93
        0
 40
0.045
309
GRIDFORMAT_END
 95
        8
302
GRIDFORMAT
  1
GRIDFORMAT_BEGIN
 90
        0
 91
        1
 62
     0
 92
       -2
340
14
 93
        0
 40
0.045
309
GRIDFORMAT_END
 95
       16
302
GRIDFORMAT
  1
GRIDFORMAT_BEGIN
 90
        0
 91
        1
 62
     0
 92
       -2
340
14
 93
        0
 40
0.045
309
GRIDFORMAT_END
 95
       32
302
GRIDFORMAT
  1
GRIDFORMAT_BEGIN
 90
        0
 91
        1
 62
     0
 92
       -2
340
14
 93
        0
 40
0.045
309
GRIDFORMAT_END
309
TABLEFORMAT_END
  1
CELLSTYLE_BEGIN
 90
        1
 91
        1
300
_TITLE
309
CELLSTYLE_END
300
CELLSTYLE
  1
TABLEFORMAT_BEGIN
 90
        5
170
     1
 91
        0
 92
        0
 62
   257
 93
        1
300
CONTENTFORMAT
  1
CONTENTFORMAT_BEGIN
 90
        0
 91
        0
 92
        4
 93
        0
300

 40
0.0
140
1.0
 94
        5
 62
     0
340
11
144
4.5
309
CONTENTFORMAT_END
171
     1
301
MARGIN
  1
CELLMARGIN_BEGIN
 40
1.5
 40
1.5
 40
1.5
 40
1.5
 40
1.5
 40
1.5
309
CELLMARGIN_END
 94
        6
 95
        1
302
GRIDFORMAT
  1
GRIDFORMAT_BEGIN
 90
        0
 91
        1
 62
     0
 92
       -2
340
14
 93
        0
 40
0.045
309
GRIDFORMAT_END
 95
        2
302
GRIDFORMAT
  1
GRIDFORMAT_BEGIN
 90
        0
 91
        1
 62
     0
 92
       -2
340
14
 93
        0
 40
0.045
309
GRIDFORMAT_END
 95
        4
302
GRIDFORMAT
  1
GRIDFORMAT_BEGIN
 90
        0
 91
        1
 62
     0
 92
       -2
340
14
 93
        0
 40
0.045
309
GRIDFORMAT_END
 95
        8
302
GRIDFORMAT
  1
GRIDFORMAT_BEGIN
 90
        0
 91
        1
 62
     0
 92
       -2
340
14
 93
        0
 40
0.045
309
GRIDFORMAT_END
 95
       16
302
GRIDFORMAT
  1
GRIDFORMAT_BEGIN
 90
        0
 91
        1
 62
     0
 92
       -2
340
14
 93
        0
 40
0.045
309
GRIDFORMAT_END
 95
       32
302
GRIDFORMAT
  1
GRIDFORMAT_BEGIN
 90
        0
 91
        1
 62
     0
 92
       -2
340
14
 93
        0
 40
0.045
309
GRIDFORMAT_END
309
TABLEFORMAT_END
  1
CELLSTYLE_BEGIN
 90
        2
 91
        1
300
_HEADER
309
CELLSTYLE_END
300
CELLSTYLE
  1
TABLEFORMAT_BEGIN
 90
        5
170
     1
 91
        0
 92
        0
 62
   257
 93
        1
300
CONTENTFORMAT
  1
CONTENTFORMAT_BEGIN
 90
        0
 91
        0
 92
        4
 93
        0
300

 40
0.0
140
1.0
 94
        2
 62
     0
340
11
144
4.5
309
CONTENTFORMAT_END
171
     1
301
MARGIN
  1
CELLMARGIN_BEGIN
 40
1.5
 40
1.5
 40
1.5
 40
1.5
 40
1.5
 40
1.5
309
CELLMARGIN_END
 94
        6
 95
        1
302
GRIDFORMAT
  1
GRIDFORMAT_BEGIN
 90
        0
 91
        1
 62
     0
 92
       -2
340
14
 93
        0
 40
0.045
309
GRIDFORMAT_END
 95
        2
302
GRIDFORMAT
  1
GRIDFORMAT_BEGIN
 90
        0
 91
        1
 62
     0
 92
       -2
340
14
 93
        0
 40
0.045
309
GRIDFORMAT_END
 95
        4
302
GRIDFORMAT
  1
GRIDFORMAT_BEGIN
 90
        0
 91
        1
 62
     0
 92
       -2
340
14
 93
        0
 40
0.045
309
GRIDFORMAT_END
 95
        8
302
GRIDFORMAT
  1
GRIDFORMAT_BEGIN
 90
        0
 91
        1
 62
     0
 92
       -2
340
14
 93
        0
 40
0.045
309
GRIDFORMAT_END
 95
       16
302
GRIDFORMAT
  1
GRIDFORMAT_BEGIN
 90
        0
 91
        1
 62
     0
 92
       -2
340
14
 93
        0
 40
0.045
309
GRIDFORMAT_END
 95
       32
302
GRIDFORMAT
  1
GRIDFORMAT_BEGIN
 90
        0
 91
        1
 62
     0
 92
       -2
340
14
 93
        0
 40
0.045
309
GRIDFORMAT_END
309
TABLEFORMAT_END
  1
CELLSTYLE_BEGIN
 90
        3
 91
        2
300
_DATA
309
CELLSTYLE_END
  0
XRECORD
  5
3EA
102
{ACAD_REACTORS
330
3E9
102
}
330
3E9
100
AcDbXrecord
280
     1
102
ACAD_ROUNDTRIP_PRE2007_TABLESTYLE
 90
        4
 91
        0
  1

 92
        4
 93
        0
  2

 94
        4
 95
        0
  3

  0
XRECORD
  5
3BC
102
{ACAD_REACTORS
330
3BB
102
}
330
3BB
100
AcDbXrecord
280
     1
102
RTVSPropertyOp0
 70
     1
102
RTVSPropertyOp1
 70
     1
102
RTVSPropertyOp2
 70
     1
102
RTVSPropertyOp3
 70
     1
102
RTVSPropertyOp4
 70
     1
102
RTVSPropertyOp5
 70
     1
102
RTVSPropertyOp6
 70
     1
102
RTVSPropertyOp7
 70
     1
102
RTVSPropertyOp8
 70
     1
102
RTVSPropertyOp9
 70
     1
102
RTVSPropertyOp10
 70
     1
102
RTVSPropertyOp11
 70
     1
102
RTVSPropertyOp12
 70
     1
102
RTVSPropertyOp13
 70
     1
102
RTVSPropertyOp14
 70
     1
102
RTVSPropertyOp15
 70
     1
102
RTVSPropertyOp16
 70
     1
102
RTVSPropertyOp17
 70
     1
102
RTVSPropertyOp18
 70
     1
102
RTVSPropertyOp19
 70
     1
102
RTVSPropertyOp20
 70
     1
102
RTVSPropertyOp21
 70
     1
102
RTVSPropertyOp22
 70
     1
102
RTVSPropertyOp23
 70
     1
102
RTVSPropertyOp24
 70
     1
102
RTVSPropertyOp25
 70
     1
102
RTVSPropertyOp26
 70
     1
102
RTVSPropertyOp27
 70
     1
102
RTVSPropertyOp28
 70
     1
102
RTVSPropertyOp29
 70
     1
102
RTVSPropertyOp30
 70
     1
102
RTVSPropertyOp31
 70
     1
102
RTVSPropertyOp32
 70
     1
102
RTVSPropertyOp33
 70
     1
102
RTVSPropertyOp34
 70
     1
102
RTVSPropertyOp35
 70
     1
102
RTVSPropertyOp36
 70
     1
102
RTVSPropertyOp37
 70
     1
102
RTVSPropertyOp38
 70
     1
102
RTVSPropertyOp39
 70
     1
102
RTVSPropertyOp40
 70
     1
102
RTVSPropertyOp41
 70
     1
102
RTVSPropertyOp42
 70
     1
102
RTVSPropertyOp43
 70
     1
102
RTVSPropertyOp44
 70
     1
102
RTVSPropertyOp45
 70
     1
102
RTVSPropertyOp46
 70
     1
102
RTVSPropertyOp47
 70
     1
102
RTVSPropertyOp48
 70
     1
102
RTVSPropertyOp49
 70
     1
102
RTVSPropertyOp50
 70
     1
102
RTVSPropertyOp51
 70
     0
102
RTVSPropertyOp52
 70
     0
102
RTVSPropertyOp53
 70
     1
102
RTVSPropertyOp54
 70
     1
102
RTVSPropertyOp55
 70
     1
102
RTVSPropertyOp56
 70
     1
102
RTVSPropertyOp57
 70
     1
102
RTVSPost2010Prop28
280
     1
102
RTVSPost2010PropOp28
 70
     1
102
RTVSPost2010Prop29
280
     1
102
RTVSPost2010PropOp29
 70
     1
102
RTVSPost2010Prop30
280
     0
102
RTVSPost2010PropOp30
 70
     1
102
RTVSPost2010Prop31
280
     0
102
RTVSPost2010PropOp31
 70
     1
102
RTVSPost2010Prop32
280
     0
102
RTVSPost2010PropOp32
 70
     1
102
RTVSPost2010Prop33
280
     0
102
RTVSPost2010PropOp33
 70
     1
102
RTVSPost2010Prop34
280
     0
102
RTVSPost2010PropOp34
 70
     1
102
RTVSPost2010Prop35
280
     0
102
RTVSPost2010PropOp35
 70
     1
102
RTVSPost2010Prop36
280
     0
102
RTVSPost2010PropOp36
 70
     1
102
RTVSPost2010Prop37
 90
       50
102
RTVSPost2010PropOp37
 70
     1
102
RTVSPost2010Prop38
140
0.0
102
RTVSPost2010PropOp38
 70
     1
102
RTVSPost2010Prop39
140
1.0
102
RTVSPost2010PropOp39
 70
     1
102
RTVSPost2010Prop40
 90
        0
102
RTVSPost2010PropOp40
 70
     1
102
RTVSPost2010Prop41ColorIndex
 90
       18
102
RTVSPost2010Prop41ColorRGB
 90
        0
102
RTVSPost2010PropOp41
 70
     1
102
RTVSPost2010Prop42
 90
       50
102
RTVSPost2010PropOp42
 70
     1
102
RTVSPost2010Prop43
 90
        3
102
RTVSPost2010PropOp43
 70
     1
102
RTVSPost2010Prop44ColorIndex
 90
        5
102
RTVSPost2010Prop44ColorRGB
 90
      255
102
RTVSPost2010PropOp44
 70
     1
102
RTVSPost2010Prop45
280
     0
102
RTVSPost2010PropOp45
 70
     1
102
RTVSPost2010Prop46
 90
       50
102
RTVSPost2010PropOp46
 70
     1
102
RTVSPost2010Prop47
 90
       50
102
RTVSPost2010PropOp47
 70
     1
102
RTVSPost2010Prop48
 90
       50
102
RTVSPost2010PropOp48
 70
     1
102
RTVSPost2010Prop49
280
     0
102
RTVSPost2010PropOp49
 70
     1
102
RTVSPost2010Prop50
 90
       50
102
RTVSPost2010PropOp50
 70
     1
102
RTVSPost2010Prop51ColorIndex
 90
      256
102
RTVSPost2010Prop51ColorRGB
 90
-16777216
102
RTVSPost2010PropOp51
 70
     0
102
RTVSPost2010Prop52
140
1.0
102
RTVSPost2010PropOp52
 70
     0
102
RTVSPost2010Prop53
 90
        2
102
RTVSPost2010PropOp53
 70
     1
102
RTVSPost2010Prop54
  1
strokes_ogs.tif
102
RTVSPost2010PropOp54
 70
     1
102
RTVSPost2010Prop55
280
     0
102
RTVSPost2010PropOp55
 70
     1
102
RTVSPost2010Prop56
140
1.0
102
RTVSPost2010PropOp56
 70
     1
102
RTVSPost2010Prop57
140
1.0
102
RTVSPost2010PropOp57
 70
     1
  0
XRECORD
  5
3C2
102
{ACAD_REACTORS
330
3C1
102
}
330
3C1
100
AcDbXrecord
280
     1
102
RTVSPropertyOp0
 70
     1
102
RTVSPropertyOp1
 70
     1
102
RTVSPropertyOp2
 70
     1
102
RTVSPropertyOp3
 70
     1
102
RTVSPropertyOp4
 70
     1
102
RTVSPropertyOp5
 70
     1
102
RTVSPropertyOp6
 70
     1
102
RTVSPropertyOp7
 70
     1
102
RTVSPropertyOp8
 70
     1
102
RTVSPropertyOp9
 70
     1
102
RTVSPropertyOp10
 70
     1
102
RTVSPropertyOp11
 70
     1
102
RTVSPropertyOp12
 70
     1
102
RTVSPropertyOp13
 70
     1
102
RTVSPropertyOp14
 70
     1
102
RTVSPropertyOp15
 70
     1
102
RTVSPropertyOp16
 70
     1
102
RTVSPropertyOp17
 70
     1
102
RTVSPropertyOp18
 70
     1
102
RTVSPropertyOp19
 70
     1
102
RTVSPropertyOp20
 70
     1
102
RTVSPropertyOp21
 70
     1
102
RTVSPropertyOp22
 70
     1
102
RTVSPropertyOp23
 70
     1
102
RTVSPropertyOp24
 70
     1
102
RTVSPropertyOp25
 70
     1
102
RTVSPropertyOp26
 70
     1
102
RTVSPropertyOp27
 70
     1
102
RTVSPropertyOp28
 70
     1
102
RTVSPropertyOp29
 70
     1
102
RTVSPropertyOp30
 70
     1
102
RTVSPropertyOp31
 70
     1
102
RTVSPropertyOp32
 70
     1
102
RTVSPropertyOp33
 70
     1
102
RTVSPropertyOp34
 70
     1
102
RTVSPropertyOp35
 70
     1
102
RTVSPropertyOp36
 70
     1
102
RTVSPropertyOp37
 70
     1
102
RTVSPropertyOp38
 70
     1
102
RTVSPropertyOp39
 70
     1
102
RTVSPropertyOp40
 70
     1
102
RTVSPropertyOp41
 70
     1
102
RTVSPropertyOp42
 70
     1
102
RTVSPropertyOp43
 70
     1
102
RTVSPropertyOp44
 70
     1
102
RTVSPropertyOp45
 70
     1
102
RTVSPropertyOp46
 70
     1
102
RTVSPropertyOp47
 70
     1
102
RTVSPropertyOp48
 70
     1
102
RTVSPropertyOp49
 70
     1
102
RTVSPropertyOp50
 70
     1
102
RTVSPropertyOp51
 70
     0
102
RTVSPropertyOp52
 70
     0
102
RTVSPropertyOp53
 70
     1
102
RTVSPropertyOp54
 70
     1
102
RTVSPropertyOp55
 70
     1
102
RTVSPropertyOp56
 70
     1
102
RTVSPropertyOp57
 70
     1
102
RTVSPost2010Prop28
280
     0
102
RTVSPost2010PropOp28
 70
     1
102
RTVSPost2010Prop29
280
     1
102
RTVSPost2010PropOp29
 70
     1
102
RTVSPost2010Prop30
280
     1
102
RTVSPost2010PropOp30
 70
     1
102
RTVSPost2010Prop31
280
     0
102
RTVSPost2010PropOp31
 70
     1
102
RTVSPost2010Prop32
280
     0
102
RTVSPost2010PropOp32
 70
     1
102
RTVSPost2010Prop33
280
     0
102
RTVSPost2010PropOp33
 70
     1
102
RTVSPost2010Prop34
280
     0
102
RTVSPost2010PropOp34
 70
     1
102
RTVSPost2010Prop35
280
     0
102
RTVSPost2010PropOp35
 70
     1
102
RTVSPost2010Prop36
280
     0
102
RTVSPost2010PropOp36
 70
     1
102
RTVSPost2010Prop37
 90
       50
102
RTVSPost2010PropOp37
 70
     1
102
RTVSPost2010Prop38
140
0.0
102
RTVSPost2010PropOp38
 70
     1
102
RTVSPost2010Prop39
140
1.0
102
RTVSPost2010PropOp39
 70
     1
102
RTVSPost2010Prop40
 90
        0
102
RTVSPost2010PropOp40
 70
     1
102
RTVSPost2010Prop41ColorIndex
 90
       18
102
RTVSPost2010Prop41ColorRGB
 90
        0
102
RTVSPost2010PropOp41
 70
     1
102
RTVSPost2010Prop42
 90
       50
102
RTVSPost2010PropOp42
 70
     1
102
RTVSPost2010Prop43
 90
        3
102
RTVSPost2010PropOp43
 70
     1
102
RTVSPost2010Prop44ColorIndex
 90
        5
102
RTVSPost2010Prop44ColorRGB
 90
      255
102
RTVSPost2010PropOp44
 70
     1
102
RTVSPost2010Prop45
280
     0
102
RTVSPost2010PropOp45
 70
     1
102
RTVSPost2010Prop46
 90
       50
102
RTVSPost2010PropOp46
 70
     1
102
RTVSPost2010Prop47
 90
       50
102
RTVSPost2010PropOp47
 70
     1
102
RTVSPost2010Prop48
 90
       50
102
RTVSPost2010PropOp48
 70
     1
102
RTVSPost2010Prop49
280
     0
102
RTVSPost2010PropOp49
 70
     1
102
RTVSPost2010Prop50
 90
       50
102
RTVSPost2010PropOp50
 70
     1
102
RTVSPost2010Prop51ColorIndex
 90
      256
102
RTVSPost2010Prop51ColorRGB
 90
-16777216
102
RTVSPost2010PropOp51
 70
     0
102
RTVSPost2010Prop52
140
1.0
102
RTVSPost2010PropOp52
 70
     0
102
RTVSPost2010Prop53
 90
        2
102
RTVSPost2010PropOp53
 70
     1
102
RTVSPost2010Prop54
  1
strokes_ogs.tif
102
RTVSPost2010PropOp54
 70
     1
102
RTVSPost2010Prop55
280
     0
102
RTVSPost2010PropOp55
 70
     1
102
RTVSPost2010Prop56
140
1.0
102
RTVSPost2010PropOp56
 70
     1
102
RTVSPost2010Prop57
140
1.0
102
RTVSPost2010PropOp57
 70
     1
  0
XRECORD
  5
3CA
102
{ACAD_REACTORS
330
3C9
102
}
330
3C9
100
AcDbXrecord
280
     1
102
RTVSPropertyOp0
 70
     1
102
RTVSPropertyOp1
 70
     1
102
RTVSPropertyOp2
 70
     1
102
RTVSPropertyOp3
 70
     1
102
RTVSPropertyOp4
 70
     1
102
RTVSPropertyOp5
 70
     1
102
RTVSPropertyOp6
 70
     1
102
RTVSPropertyOp7
 70
     1
102
RTVSPropertyOp8
 70
     1
102
RTVSPropertyOp9
 70
     1
102
RTVSPropertyOp10
 70
     1
102
RTVSPropertyOp11
 70
     1
102
RTVSPropertyOp12
 70
     1
102
RTVSPropertyOp13
 70
     1
102
RTVSPropertyOp14
 70
     1
102
RTVSPropertyOp15
 70
     1
102
RTVSPropertyOp16
 70
     1
102
RTVSPropertyOp17
 70
     1
102
RTVSPropertyOp18
 70
     1
102
RTVSPropertyOp19
 70
     1
102
RTVSPropertyOp20
 70
     1
102
RTVSPropertyOp21
 70
     1
102
RTVSPropertyOp22
 70
     1
102
RTVSPropertyOp23
 70
     1
102
RTVSPropertyOp24
 70
     1
102
RTVSPropertyOp25
 70
     1
102
RTVSPropertyOp26
 70
     1
102
RTVSPropertyOp27
 70
     1
102
RTVSPropertyOp28
 70
     1
102
RTVSPropertyOp29
 70
     1
102
RTVSPropertyOp30
 70
     1
102
RTVSPropertyOp31
 70
     1
102
RTVSPropertyOp32
 70
     1
102
RTVSPropertyOp33
 70
     1
102
RTVSPropertyOp34
 70
     1
102
RTVSPropertyOp35
 70
     1
102
RTVSPropertyOp36
 70
     1
102
RTVSPropertyOp37
 70
     1
102
RTVSPropertyOp38
 70
     1
102
RTVSPropertyOp39
 70
     1
102
RTVSPropertyOp40
 70
     1
102
RTVSPropertyOp41
 70
     1
102
RTVSPropertyOp42
 70
     1
102
RTVSPropertyOp43
 70
     1
102
RTVSPropertyOp44
 70
     1
102
RTVSPropertyOp45
 70
     1
102
RTVSPropertyOp46
 70
     1
102
RTVSPropertyOp47
 70
     1
102
RTVSPropertyOp48
 70
     1
102
RTVSPropertyOp49
 70
     1
102
RTVSPropertyOp50
 70
     1
102
RTVSPropertyOp51
 70
     0
102
RTVSPropertyOp52
 70
     0
102
RTVSPropertyOp53
 70
     1
102
RTVSPropertyOp54
 70
     1
102
RTVSPropertyOp55
 70
     1
102
RTVSPropertyOp56
 70
     1
102
RTVSPropertyOp57
 70
     1
102
RTVSPost2010Prop28
280
     0
102
RTVSPost2010PropOp28
 70
     1
102
RTVSPost2010Prop29
280
     1
102
RTVSPost2010PropOp29
 70
     1
102
RTVSPost2010Prop30
280
     1
102
RTVSPost2010PropOp30
 70
     1
102
RTVSPost2010Prop31
280
     0
102
RTVSPost2010PropOp31
 70
     1
102
RTVSPost2010Prop32
280
     0
102
RTVSPost2010PropOp32
 70
     1
102
RTVSPost2010Prop33
280
     0
102
RTVSPost2010PropOp33
 70
     1
102
RTVSPost2010Prop34
280
     0
102
RTVSPost2010PropOp34
 70
     1
102
RTVSPost2010Prop35
280
     0
102
RTVSPost2010PropOp35
 70
     1
102
RTVSPost2010Prop36
280
     0
102
RTVSPost2010PropOp36
 70
     1
102
RTVSPost2010Prop37
 90
       50
102
RTVSPost2010PropOp37
 70
     1
102
RTVSPost2010Prop38
140
0.0
102
RTVSPost2010PropOp38
 70
     1
102
RTVSPost2010Prop39
140
1.0
102
RTVSPost2010PropOp39
 70
     1
102
RTVSPost2010Prop40
 90
        0
102
RTVSPost2010PropOp40
 70
     1
102
RTVSPost2010Prop41ColorIndex
 90
       18
102
RTVSPost2010Prop41ColorRGB
 90
        0
102
RTVSPost2010PropOp41
 70
     1
102
RTVSPost2010Prop42
 90
       50
102
RTVSPost2010PropOp42
 70
     1
102
RTVSPost2010Prop43
 90
        3
102
RTVSPost2010PropOp43
 70
     1
102
RTVSPost2010Prop44ColorIndex
 90
        5
102
RTVSPost2010Prop44ColorRGB
 90
      255
102
RTVSPost2010PropOp44
 70
     1
102
RTVSPost2010Prop45
280
     0
102
RTVSPost2010PropOp45
 70
     1
102
RTVSPost2010Prop46
 90
       50
102
RTVSPost2010PropOp46
 70
     1
102
RTVSPost2010Prop47
 90
       50
102
RTVSPost2010PropOp47
 70
     1
102
RTVSPost2010Prop48
 90
       50
102
RTVSPost2010PropOp48
 70
     1
102
RTVSPost2010Prop49
280
     0
102
RTVSPost2010PropOp49
 70
     1
102
RTVSPost2010Prop50
 90
       50
102
RTVSPost2010PropOp50
 70
     1
102
RTVSPost2010Prop51ColorIndex
 90
      256
102
RTVSPost2010Prop51ColorRGB
 90
-16777216
102
RTVSPost2010PropOp51
 70
     0
102
RTVSPost2010Prop52
140
1.0
102
RTVSPost2010PropOp52
 70
     0
102
RTVSPost2010Prop53
 90
        2
102
RTVSPost2010PropOp53
 70
     1
102
RTVSPost2010Prop54
  1
strokes_ogs.tif
102
RTVSPost2010PropOp54
 70
     1
102
RTVSPost2010Prop55
280
     0
102
RTVSPost2010PropOp55
 70
     1
102
RTVSPost2010Prop56
140
1.0
102
RTVSPost2010PropOp56
 70
     1
102
RTVSPost2010Prop57
140
1.0
102
RTVSPost2010PropOp57
 70
     1
  0
XRECORD
  5
3D2
102
{ACAD_REACTORS
330
3D1
102
}
330
3D1
100
AcDbXrecord
280
     1
102
RTVSPropertyOp0
 70
     1
102
RTVSPropertyOp1
 70
     1
102
RTVSPropertyOp2
 70
     1
102
RTVSPropertyOp3
 70
     1
102
RTVSPropertyOp4
 70
     1
102
RTVSPropertyOp5
 70
     1
102
RTVSPropertyOp6
 70
     1
102
RTVSPropertyOp7
 70
     1
102
RTVSPropertyOp8
 70
     1
102
RTVSPropertyOp9
 70
     1
102
RTVSPropertyOp10
 70
     1
102
RTVSPropertyOp11
 70
     1
102
RTVSPropertyOp12
 70
     1
102
RTVSPropertyOp13
 70
     1
102
RTVSPropertyOp14
 70
     1
102
RTVSPropertyOp15
 70
     1
102
RTVSPropertyOp16
 70
     1
102
RTVSPropertyOp17
 70
     1
102
RTVSPropertyOp18
 70
     1
102
RTVSPropertyOp19
 70
     1
102
RTVSPropertyOp20
 70
     1
102
RTVSPropertyOp21
 70
     1
102
RTVSPropertyOp22
 70
     1
102
RTVSPropertyOp23
 70
     1
102
RTVSPropertyOp24
 70
     1
102
RTVSPropertyOp25
 70
     1
102
RTVSPropertyOp26
 70
     1
102
RTVSPropertyOp27
 70
     1
102
RTVSPropertyOp28
 70
     1
102
RTVSPropertyOp29
 70
     1
102
RTVSPropertyOp30
 70
     1
102
RTVSPropertyOp31
 70
     1
102
RTVSPropertyOp32
 70
     1
102
RTVSPropertyOp33
 70
     1
102
RTVSPropertyOp34
 70
     1
102
RTVSPropertyOp35
 70
     1
102
RTVSPropertyOp36
 70
     1
102
RTVSPropertyOp37
 70
     1
102
RTVSPropertyOp38
 70
     1
102
RTVSPropertyOp39
 70
     1
102
RTVSPropertyOp40
 70
     1
102
RTVSPropertyOp41
 70
     1
102
RTVSPropertyOp42
 70
     1
102
RTVSPropertyOp43
 70
     1
102
RTVSPropertyOp44
 70
     1
102
RTVSPropertyOp45
 70
     1
102
RTVSPropertyOp46
 70
     1
102
RTVSPropertyOp47
 70
     1
102
RTVSPropertyOp48
 70
     1
102
RTVSPropertyOp49
 70
     1
102
RTVSPropertyOp50
 70
     1
102
RTVSPropertyOp51
 70
     0
102
RTVSPropertyOp52
 70
     0
102
RTVSPropertyOp53
 70
     1
102
RTVSPropertyOp54
 70
     1
102
RTVSPropertyOp55
 70
     1
102
RTVSPropertyOp56
 70
     1
102
RTVSPropertyOp57
 70
     1
102
RTVSPost2010Prop28
280
     0
102
RTVSPost2010PropOp28
 70
     1
102
RTVSPost2010Prop29
280
     1
102
RTVSPost2010PropOp29
 70
     1
102
RTVSPost2010Prop30
280
     1
102
RTVSPost2010PropOp30
 70
     1
102
RTVSPost2010Prop31
280
     0
102
RTVSPost2010PropOp31
 70
     1
102
RTVSPost2010Prop32
280
     0
102
RTVSPost2010PropOp32
 70
     1
102
RTVSPost2010Prop33
280
     0
102
RTVSPost2010PropOp33
 70
     1
102
RTVSPost2010Prop34
280
     0
102
RTVSPost2010PropOp34
 70
     1
102
RTVSPost2010Prop35
280
     0
102
RTVSPost2010PropOp35
 70
     1
102
RTVSPost2010Prop36
280
     0
102
RTVSPost2010PropOp36
 70
     1
102
RTVSPost2010Prop37
 90
       50
102
RTVSPost2010PropOp37
 70
     1
102
RTVSPost2010Prop38
140
0.0
102
RTVSPost2010PropOp38
 70
     1
102
RTVSPost2010Prop39
140
1.0
102
RTVSPost2010PropOp39
 70
     1
102
RTVSPost2010Prop40
 90
        0
102
RTVSPost2010PropOp40
 70
     1
102
RTVSPost2010Prop41ColorIndex
 90
       18
102
RTVSPost2010Prop41ColorRGB
 90
        0
102
RTVSPost2010PropOp41
 70
     1
102
RTVSPost2010Prop42
 90
       50
102
RTVSPost2010PropOp42
 70
     1
102
RTVSPost2010Prop43
 90
        3
102
RTVSPost2010PropOp43
 70
     1
102
RTVSPost2010Prop44ColorIndex
 90
        5
102
RTVSPost2010Prop44ColorRGB
 90
      255
102
RTVSPost2010PropOp44
 70
     1
102
RTVSPost2010Prop45
280
     0
102
RTVSPost2010PropOp45
 70
     1
102
RTVSPost2010Prop46
 90
       50
102
RTVSPost2010PropOp46
 70
     1
102
RTVSPost2010Prop47
 90
       50
102
RTVSPost2010PropOp47
 70
     1
102
RTVSPost2010Prop48
 90
       50
102
RTVSPost2010PropOp48
 70
     1
102
RTVSPost2010Prop49
280
     0
102
RTVSPost2010PropOp49
 70
     1
102
RTVSPost2010Prop50
 90
       50
102
RTVSPost2010PropOp50
 70
     1
102
RTVSPost2010Prop51ColorIndex
 90
      256
102
RTVSPost2010Prop51ColorRGB
 90
-16777216
102
RTVSPost2010PropOp51
 70
     0
102
RTVSPost2010Prop52
140
1.0
102
RTVSPost2010PropOp52
 70
     0
102
RTVSPost2010Prop53
 90
        2
102
RTVSPost2010PropOp53
 70
     1
102
RTVSPost2010Prop54
  1
strokes_ogs.tif
102
RTVSPost2010PropOp54
 70
     1
102
RTVSPost2010Prop55
280
     0
102
RTVSPost2010PropOp55
 70
     1
102
RTVSPost2010Prop56
140
1.0
102
RTVSPost2010PropOp56
 70
     1
102
RTVSPost2010Prop57
140
1.0
102
RTVSPost2010PropOp57
 70
     1
  0
XRECORD
  5
3C6
102
{ACAD_REACTORS
330
3C5
102
}
330
3C5
100
AcDbXrecord
280
     1
102
RTVSPropertyOp0
 70
     1
102
RTVSPropertyOp1
 70
     1
102
RTVSPropertyOp2
 70
     1
102
RTVSPropertyOp3
 70
     1
102
RTVSPropertyOp4
 70
     1
102
RTVSPropertyOp5
 70
     1
102
RTVSPropertyOp6
 70
     1
102
RTVSPropertyOp7
 70
     1
102
RTVSPropertyOp8
 70
     1
102
RTVSPropertyOp9
 70
     1
102
RTVSPropertyOp10
 70
     1
102
RTVSPropertyOp11
 70
     1
102
RTVSPropertyOp12
 70
     1
102
RTVSPropertyOp13
 70
     1
102
RTVSPropertyOp14
 70
     1
102
RTVSPropertyOp15
 70
     1
102
RTVSPropertyOp16
 70
     1
102
RTVSPropertyOp17
 70
     1
102
RTVSPropertyOp18
 70
     1
102
RTVSPropertyOp19
 70
     1
102
RTVSPropertyOp20
 70
     1
102
RTVSPropertyOp21
 70
     1
102
RTVSPropertyOp22
 70
     1
102
RTVSPropertyOp23
 70
     1
102
RTVSPropertyOp24
 70
     1
102
RTVSPropertyOp25
 70
     1
102
RTVSPropertyOp26
 70
     1
102
RTVSPropertyOp27
 70
     1
102
RTVSPropertyOp28
 70
     1
102
RTVSPropertyOp29
 70
     1
102
RTVSPropertyOp30
 70
     1
102
RTVSPropertyOp31
 70
     1
102
RTVSPropertyOp32
 70
     1
102
RTVSPropertyOp33
 70
     1
102
RTVSPropertyOp34
 70
     1
102
RTVSPropertyOp35
 70
     1
102
RTVSPropertyOp36
 70
     1
102
RTVSPropertyOp37
 70
     1
102
RTVSPropertyOp38
 70
     1
102
RTVSPropertyOp39
 70
     1
102
RTVSPropertyOp40
 70
     1
102
RTVSPropertyOp41
 70
     1
102
RTVSPropertyOp42
 70
     1
102
RTVSPropertyOp43
 70
     1
102
RTVSPropertyOp44
 70
     1
102
RTVSPropertyOp45
 70
     1
102
RTVSPropertyOp46
 70
     1
102
RTVSPropertyOp47
 70
     1
102
RTVSPropertyOp48
 70
     1
102
RTVSPropertyOp49
 70
     1
102
RTVSPropertyOp50
 70
     1
102
RTVSPropertyOp51
 70
     0
102
RTVSPropertyOp52
 70
     0
102
RTVSPropertyOp53
 70
     1
102
RTVSPropertyOp54
 70
     1
102
RTVSPropertyOp55
 70
     1
102
RTVSPropertyOp56
 70
     1
102
RTVSPropertyOp57
 70
     1
102
RTVSPost2010Prop28
280
     0
102
RTVSPost2010PropOp28
 70
     1
102
RTVSPost2010Prop29
280
     1
102
RTVSPost2010PropOp29
 70
     1
102
RTVSPost2010Prop30
280
     1
102
RTVSPost2010PropOp30
 70
     1
102
RTVSPost2010Prop31
280
     0
102
RTVSPost2010PropOp31
 70
     1
102
RTVSPost2010Prop32
280
     0
102
RTVSPost2010PropOp32
 70
     1
102
RTVSPost2010Prop33
280
     0
102
RTVSPost2010PropOp33
 70
     1
102
RTVSPost2010Prop34
280
     0
102
RTVSPost2010PropOp34
 70
     1
102
RTVSPost2010Prop35
280
     0
102
RTVSPost2010PropOp35
 70
     1
102
RTVSPost2010Prop36
280
     0
102
RTVSPost2010PropOp36
 70
     1
102
RTVSPost2010Prop37
 90
       50
102
RTVSPost2010PropOp37
 70
     1
102
RTVSPost2010Prop38
140
0.0
102
RTVSPost2010PropOp38
 70
     1
102
RTVSPost2010Prop39
140
1.0
102
RTVSPost2010PropOp39
 70
     1
102
RTVSPost2010Prop40
 90
        0
102
RTVSPost2010PropOp40
 70
     1
102
RTVSPost2010Prop41ColorIndex
 90
       18
102
RTVSPost2010Prop41ColorRGB
 90
        0
102
RTVSPost2010PropOp41
 70
     1
102
RTVSPost2010Prop42
 90
       50
102
RTVSPost2010PropOp42
 70
     1
102
RTVSPost2010Prop43
 90
        3
102
RTVSPost2010PropOp43
 70
     1
102
RTVSPost2010Prop44ColorIndex
 90
        5
102
RTVSPost2010Prop44ColorRGB
 90
      255
102
RTVSPost2010PropOp44
 70
     1
102
RTVSPost2010Prop45
280
     0
102
RTVSPost2010PropOp45
 70
     1
102
RTVSPost2010Prop46
 90
       50
102
RTVSPost2010PropOp46
 70
     1
102
RTVSPost2010Prop47
 90
       50
102
RTVSPost2010PropOp47
 70
     1
102
RTVSPost2010Prop48
 90
       50
102
RTVSPost2010PropOp48
 70
     1
102
RTVSPost2010Prop49
280
     0
102
RTVSPost2010PropOp49
 70
     1
102
RTVSPost2010Prop50
 90
       50
102
RTVSPost2010PropOp50
 70
     1
102
RTVSPost2010Prop51ColorIndex
 90
      256
102
RTVSPost2010Prop51ColorRGB
 90
-16777216
102
RTVSPost2010PropOp51
 70
     0
102
RTVSPost2010Prop52
140
1.0
102
RTVSPost2010PropOp52
 70
     0
102
RTVSPost2010Prop53
 90
        2
102
RTVSPost2010PropOp53
 70
     1
102
RTVSPost2010Prop54
  1
strokes_ogs.tif
102
RTVSPost2010PropOp54
 70
     1
102
RTVSPost2010Prop55
280
     0
102
RTVSPost2010PropOp55
 70
     1
102
RTVSPost2010Prop56
140
1.0
102
RTVSPost2010PropOp56
 70
     1
102
RTVSPost2010Prop57
140
1.0
102
RTVSPost2010PropOp57
 70
     1
  0
XRECORD
  5
3C8
102
{ACAD_REACTORS
330
3C7
102
}
330
3C7
100
AcDbXrecord
280
     1
102
RTVSPropertyOp0
 70
     1
102
RTVSPropertyOp1
 70
     1
102
RTVSPropertyOp2
 70
     1
102
RTVSPropertyOp3
 70
     1
102
RTVSPropertyOp4
 70
     1
102
RTVSPropertyOp5
 70
     1
102
RTVSPropertyOp6
 70
     1
102
RTVSPropertyOp7
 70
     1
102
RTVSPropertyOp8
 70
     1
102
RTVSPropertyOp9
 70
     1
102
RTVSPropertyOp10
 70
     1
102
RTVSPropertyOp11
 70
     1
102
RTVSPropertyOp12
 70
     1
102
RTVSPropertyOp13
 70
     1
102
RTVSPropertyOp14
 70
     1
102
RTVSPropertyOp15
 70
     1
102
RTVSPropertyOp16
 70
     1
102
RTVSPropertyOp17
 70
     1
102
RTVSPropertyOp18
 70
     1
102
RTVSPropertyOp19
 70
     1
102
RTVSPropertyOp20
 70
     1
102
RTVSPropertyOp21
 70
     1
102
RTVSPropertyOp22
 70
     1
102
RTVSPropertyOp23
 70
     1
102
RTVSPropertyOp24
 70
     1
102
RTVSPropertyOp25
 70
     1
102
RTVSPropertyOp26
 70
     1
102
RTVSPropertyOp27
 70
     1
102
RTVSPropertyOp28
 70
     1
102
RTVSPropertyOp29
 70
     1
102
RTVSPropertyOp30
 70
     1
102
RTVSPropertyOp31
 70
     1
102
RTVSPropertyOp32
 70
     1
102
RTVSPropertyOp33
 70
     1
102
RTVSPropertyOp34
 70
     1
102
RTVSPropertyOp35
 70
     1
102
RTVSPropertyOp36
 70
     1
102
RTVSPropertyOp37
 70
     1
102
RTVSPropertyOp38
 70
     1
102
RTVSPropertyOp39
 70
     1
102
RTVSPropertyOp40
 70
     1
102
RTVSPropertyOp41
 70
     1
102
RTVSPropertyOp42
 70
     1
102
RTVSPropertyOp43
 70
     1
102
RTVSPropertyOp44
 70
     1
102
RTVSPropertyOp45
 70
     1
102
RTVSPropertyOp46
 70
     1
102
RTVSPropertyOp47
 70
     1
102
RTVSPropertyOp48
 70
     1
102
RTVSPropertyOp49
 70
     1
102
RTVSPropertyOp50
 70
     1
102
RTVSPropertyOp51
 70
     0
102
RTVSPropertyOp52
 70
     0
102
RTVSPropertyOp53
 70
     1
102
RTVSPropertyOp54
 70
     1
102
RTVSPropertyOp55
 70
     1
102
RTVSPropertyOp56
 70
     1
102
RTVSPropertyOp57
 70
     1
102
RTVSPost2010Prop28
280
     0
102
RTVSPost2010PropOp28
 70
     1
102
RTVSPost2010Prop29
280
     1
102
RTVSPost2010PropOp29
 70
     1
102
RTVSPost2010Prop30
280
     1
102
RTVSPost2010PropOp30
 70
     1
102
RTVSPost2010Prop31
280
     0
102
RTVSPost2010PropOp31
 70
     1
102
RTVSPost2010Prop32
280
     0
102
RTVSPost2010PropOp32
 70
     1
102
RTVSPost2010Prop33
280
     0
102
RTVSPost2010PropOp33
 70
     1
102
RTVSPost2010Prop34
280
     0
102
RTVSPost2010PropOp34
 70
     1
102
RTVSPost2010Prop35
280
     0
102
RTVSPost2010PropOp35
 70
     1
102
RTVSPost2010Prop36
280
     0
102
RTVSPost2010PropOp36
 70
     1
102
RTVSPost2010Prop37
 90
       50
102
RTVSPost2010PropOp37
 70
     1
102
RTVSPost2010Prop38
140
0.0
102
RTVSPost2010PropOp38
 70
     1
102
RTVSPost2010Prop39
140
1.0
102
RTVSPost2010PropOp39
 70
     1
102
RTVSPost2010Prop40
 90
        0
102
RTVSPost2010PropOp40
 70
     1
102
RTVSPost2010Prop41ColorIndex
 90
       18
102
RTVSPost2010Prop41ColorRGB
 90
        0
102
RTVSPost2010PropOp41
 70
     1
102
RTVSPost2010Prop42
 90
       50
102
RTVSPost2010PropOp42
 70
     1
102
RTVSPost2010Prop43
 90
        3
102
RTVSPost2010PropOp43
 70
     1
102
RTVSPost2010Prop44ColorIndex
 90
        5
102
RTVSPost2010Prop44ColorRGB
 90
      255
102
RTVSPost2010PropOp44
 70
     1
102
RTVSPost2010Prop45
280
     0
102
RTVSPost2010PropOp45
 70
     1
102
RTVSPost2010Prop46
 90
       50
102
RTVSPost2010PropOp46
 70
     1
102
RTVSPost2010Prop47
 90
       50
102
RTVSPost2010PropOp47
 70
     1
102
RTVSPost2010Prop48
 90
       50
102
RTVSPost2010PropOp48
 70
     1
102
RTVSPost2010Prop49
280
     0
102
RTVSPost2010PropOp49
 70
     1
102
RTVSPost2010Prop50
 90
       50
102
RTVSPost2010PropOp50
 70
     1
102
RTVSPost2010Prop51ColorIndex
 90
      256
102
RTVSPost2010Prop51ColorRGB
 90
-16777216
102
RTVSPost2010PropOp51
 70
     0
102
RTVSPost2010Prop52
140
1.0
102
RTVSPost2010PropOp52
 70
     0
102
RTVSPost2010Prop53
 90
        2
102
RTVSPost2010PropOp53
 70
     1
102
RTVSPost2010Prop54
  1
strokes_ogs.tif
102
RTVSPost2010PropOp54
 70
     1
102
RTVSPost2010Prop55
280
     0
102
RTVSPost2010PropOp55
 70
     1
102
RTVSPost2010Prop56
140
1.0
102
RTVSPost2010PropOp56
 70
     1
102
RTVSPost2010Prop57
140
1.0
102
RTVSPost2010PropOp57
 70
     1
  0
XRECORD
  5
3D8
102
{ACAD_REACTORS
330
3D7
102
}
330
3D7
100
AcDbXrecord
280
     1
102
RTVSPropertyOp0
 70
     0
102
RTVSPropertyOp1
 70
     0
102
RTVSPropertyOp2
 70
     0
102
RTVSPropertyOp3
 70
     0
102
RTVSPropertyOp4
 70
     0
102
RTVSPropertyOp5
 70
     0
102
RTVSPropertyOp6
 70
     0
102
RTVSPropertyOp7
 70
     0
102
RTVSPropertyOp8
 70
     0
102
RTVSPropertyOp9
 70
     0
102
RTVSPropertyOp10
 70
     0
102
RTVSPropertyOp11
 70
     0
102
RTVSPropertyOp12
 70
     0
102
RTVSPropertyOp13
 70
     0
102
RTVSPropertyOp14
 70
     2
102
RTVSPropertyOp15
 70
     0
102
RTVSPropertyOp16
 70
     0
102
RTVSPropertyOp17
 70
     0
102
RTVSPropertyOp18
 70
     0
102
RTVSPropertyOp19
 70
     0
102
RTVSPropertyOp20
 70
     0
102
RTVSPropertyOp21
 70
     0
102
RTVSPropertyOp22
 70
     0
102
RTVSPropertyOp23
 70
     0
102
RTVSPropertyOp24
 70
     0
102
RTVSPropertyOp25
 70
     0
102
RTVSPropertyOp26
 70
     0
102
RTVSPropertyOp27
 70
     0
102
RTVSPropertyOp28
 70
     0
102
RTVSPropertyOp29
 70
     0
102
RTVSPropertyOp30
 70
     0
102
RTVSPropertyOp31
 70
     0
102
RTVSPropertyOp32
 70
     0
102
RTVSPropertyOp33
 70
     0
102
RTVSPropertyOp34
 70
     0
102
RTVSPropertyOp35
 70
     0
102
RTVSPropertyOp36
 70
     0
102
RTVSPropertyOp37
 70
     0
102
RTVSPropertyOp38
 70
     0
102
RTVSPropertyOp39
 70
     0
102
RTVSPropertyOp40
 70
     0
102
RTVSPropertyOp41
 70
     0
102
RTVSPropertyOp42
 70
     0
102
RTVSPropertyOp43
 70
     0
102
RTVSPropertyOp44
 70
     0
102
RTVSPropertyOp45
 70
     0
102
RTVSPropertyOp46
 70
     0
102
RTVSPropertyOp47
 70
     0
102
RTVSPropertyOp48
 70
     0
102
RTVSPropertyOp49
 70
     0
102
RTVSPropertyOp50
 70
     0
102
RTVSPropertyOp51
 70
     0
102
RTVSPropertyOp52
 70
     0
102
RTVSPropertyOp53
 70
     0
102
RTVSPropertyOp54
 70
     0
102
RTVSPropertyOp55
 70
     0
102
RTVSPropertyOp56
 70
     0
102
RTVSPropertyOp57
 70
     0
102
RTVSPost2010Prop28
280
     0
102
RTVSPost2010PropOp28
 70
     0
102
RTVSPost2010Prop29
280
     1
102
RTVSPost2010PropOp29
 70
     0
102
RTVSPost2010Prop30
280
     1
102
RTVSPost2010PropOp30
 70
     0
102
RTVSPost2010Prop31
280
     0
102
RTVSPost2010PropOp31
 70
     0
102
RTVSPost2010Prop32
280
     0
102
RTVSPost2010PropOp32
 70
     0
102
RTVSPost2010Prop33
280
     0
102
RTVSPost2010PropOp33
 70
     0
102
RTVSPost2010Prop34
280
     0
102
RTVSPost2010PropOp34
 70
     0
102
RTVSPost2010Prop35
280
     0
102
RTVSPost2010PropOp35
 70
     0
102
RTVSPost2010Prop36
280
     0
102
RTVSPost2010PropOp36
 70
     0
102
RTVSPost2010Prop37
 90
       50
102
RTVSPost2010PropOp37
 70
     0
102
RTVSPost2010Prop38
140
0.0
102
RTVSPost2010PropOp38
 70
     0
102
RTVSPost2010Prop39
140
1.0
102
RTVSPost2010PropOp39
 70
     0
102
RTVSPost2010Prop40
 90
        0
102
RTVSPost2010PropOp40
 70
     0
102
RTVSPost2010Prop41ColorIndex
 90
       18
102
RTVSPost2010Prop41ColorRGB
 90
        0
102
RTVSPost2010PropOp41
 70
     0
102
RTVSPost2010Prop42
 90
       50
102
RTVSPost2010PropOp42
 70
     0
102
RTVSPost2010Prop43
 90
        3
102
RTVSPost2010PropOp43
 70
     0
102
RTVSPost2010Prop44ColorIndex
 90
        5
102
RTVSPost2010Prop44ColorRGB
 90
      255
102
RTVSPost2010PropOp44
 70
     0
102
RTVSPost2010Prop45
280
     0
102
RTVSPost2010PropOp45
 70
     0
102
RTVSPost2010Prop46
 90
       50
102
RTVSPost2010PropOp46
 70
     0
102
RTVSPost2010Prop47
 90
       50
102
RTVSPost2010PropOp47
 70
     0
102
RTVSPost2010Prop48
 90
       50
102
RTVSPost2010PropOp48
 70
     0
102
RTVSPost2010Prop49
280
     0
102
RTVSPost2010PropOp49
 70
     0
102
RTVSPost2010Prop50
 90
       50
102
RTVSPost2010PropOp50
 70
     0
102
RTVSPost2010Prop51ColorIndex
 90
      256
102
RTVSPost2010Prop51ColorRGB
 90
-16777216
102
RTVSPost2010PropOp51
 70
     0
102
RTVSPost2010Prop52
140
1.0
102
RTVSPost2010PropOp52
 70
     0
102
RTVSPost2010Prop53
 90
        2
102
RTVSPost2010PropOp53
 70
     0
102
RTVSPost2010Prop54
  1
strokes_ogs.tif
102
RTVSPost2010PropOp54
 70
     0
102
RTVSPost2010Prop55
280
     0
102
RTVSPost2010PropOp55
 70
     0
102
RTVSPost2010Prop56
140
1.0
102
RTVSPost2010PropOp56
 70
     0
102
RTVSPost2010Prop57
140
1.0
102
RTVSPost2010PropOp57
 70
     0
  0
XRECORD
  5
3D0
102
{ACAD_REACTORS
330
3CF
102
}
330
3CF
100
AcDbXrecord
280
     1
102
RTVSPropertyOp0
 70
     1
102
RTVSPropertyOp1
 70
     1
102
RTVSPropertyOp2
 70
     1
102
RTVSPropertyOp3
 70
     1
102
RTVSPropertyOp4
 70
     1
102
RTVSPropertyOp5
 70
     1
102
RTVSPropertyOp6
 70
     1
102
RTVSPropertyOp7
 70
     1
102
RTVSPropertyOp8
 70
     1
102
RTVSPropertyOp9
 70
     1
102
RTVSPropertyOp10
 70
     1
102
RTVSPropertyOp11
 70
     1
102
RTVSPropertyOp12
 70
     1
102
RTVSPropertyOp13
 70
     1
102
RTVSPropertyOp14
 70
     1
102
RTVSPropertyOp15
 70
     1
102
RTVSPropertyOp16
 70
     1
102
RTVSPropertyOp17
 70
     1
102
RTVSPropertyOp18
 70
     1
102
RTVSPropertyOp19
 70
     1
102
RTVSPropertyOp20
 70
     1
102
RTVSPropertyOp21
 70
     1
102
RTVSPropertyOp22
 70
     1
102
RTVSPropertyOp23
 70
     1
102
RTVSPropertyOp24
 70
     1
102
RTVSPropertyOp25
 70
     1
102
RTVSPropertyOp26
 70
     1
102
RTVSPropertyOp27
 70
     1
102
RTVSPropertyOp28
 70
     1
102
RTVSPropertyOp29
 70
     1
102
RTVSPropertyOp30
 70
     1
102
RTVSPropertyOp31
 70
     1
102
RTVSPropertyOp32
 70
     1
102
RTVSPropertyOp33
 70
     1
102
RTVSPropertyOp34
 70
     1
102
RTVSPropertyOp35
 70
     1
102
RTVSPropertyOp36
 70
     1
102
RTVSPropertyOp37
 70
     1
102
RTVSPropertyOp38
 70
     1
102
RTVSPropertyOp39
 70
     1
102
RTVSPropertyOp40
 70
     1
102
RTVSPropertyOp41
 70
     1
102
RTVSPropertyOp42
 70
     1
102
RTVSPropertyOp43
 70
     1
102
RTVSPropertyOp44
 70
     1
102
RTVSPropertyOp45
 70
     1
102
RTVSPropertyOp46
 70
     1
102
RTVSPropertyOp47
 70
     1
102
RTVSPropertyOp48
 70
     1
102
RTVSPropertyOp49
 70
     1
102
RTVSPropertyOp50
 70
     1
102
RTVSPropertyOp51
 70
     0
102
RTVSPropertyOp52
 70
     0
102
RTVSPropertyOp53
 70
     1
102
RTVSPropertyOp54
 70
     1
102
RTVSPropertyOp55
 70
     1
102
RTVSPropertyOp56
 70
     1
102
RTVSPropertyOp57
 70
     1
102
RTVSPost2010Prop28
280
     0
102
RTVSPost2010PropOp28
 70
     1
102
RTVSPost2010Prop29
280
     1
102
RTVSPost2010PropOp29
 70
     1
102
RTVSPost2010Prop30
280
     1
102
RTVSPost2010PropOp30
 70
     1
102
RTVSPost2010Prop31
280
     0
102
RTVSPost2010PropOp31
 70
     1
102
RTVSPost2010Prop32
280
     0
102
RTVSPost2010PropOp32
 70
     1
102
RTVSPost2010Prop33
280
     0
102
RTVSPost2010PropOp33
 70
     1
102
RTVSPost2010Prop34
280
     0
102
RTVSPost2010PropOp34
 70
     1
102
RTVSPost2010Prop35
280
     0
102
RTVSPost2010PropOp35
 70
     1
102
RTVSPost2010Prop36
280
     0
102
RTVSPost2010PropOp36
 70
     1
102
RTVSPost2010Prop37
 90
       50
102
RTVSPost2010PropOp37
 70
     1
102
RTVSPost2010Prop38
140
0.0
102
RTVSPost2010PropOp38
 70
     1
102
RTVSPost2010Prop39
140
1.0
102
RTVSPost2010PropOp39
 70
     1
102
RTVSPost2010Prop40
 90
        0
102
RTVSPost2010PropOp40
 70
     1
102
RTVSPost2010Prop41ColorIndex
 90
       18
102
RTVSPost2010Prop41ColorRGB
 90
        0
102
RTVSPost2010PropOp41
 70
     1
102
RTVSPost2010Prop42
 90
       50
102
RTVSPost2010PropOp42
 70
     1
102
RTVSPost2010Prop43
 90
        3
102
RTVSPost2010PropOp43
 70
     1
102
RTVSPost2010Prop44ColorIndex
 90
        5
102
RTVSPost2010Prop44ColorRGB
 90
      255
102
RTVSPost2010PropOp44
 70
     1
102
RTVSPost2010Prop45
280
     0
102
RTVSPost2010PropOp45
 70
     1
102
RTVSPost2010Prop46
 90
       50
102
RTVSPost2010PropOp46
 70
     1
102
RTVSPost2010Prop47
 90
       50
102
RTVSPost2010PropOp47
 70
     1
102
RTVSPost2010Prop48
 90
       50
102
RTVSPost2010PropOp48
 70
     1
102
RTVSPost2010Prop49
280
     0
102
RTVSPost2010PropOp49
 70
     1
102
RTVSPost2010Prop50
 90
       50
102
RTVSPost2010PropOp50
 70
     1
102
RTVSPost2010Prop51ColorIndex
 90
      256
102
RTVSPost2010Prop51ColorRGB
 90
-16777216
102
RTVSPost2010PropOp51
 70
     0
102
RTVSPost2010Prop52
140
1.0
102
RTVSPost2010PropOp52
 70
     0
102
RTVSPost2010Prop53
 90
        2
102
RTVSPost2010PropOp53
 70
     1
102
RTVSPost2010Prop54
  1
strokes_ogs.tif
102
RTVSPost2010PropOp54
 70
     1
102
RTVSPost2010Prop55
280
     0
102
RTVSPost2010PropOp55
 70
     1
102
RTVSPost2010Prop56
140
1.0
102
RTVSPost2010PropOp56
 70
     1
102
RTVSPost2010Prop57
140
1.0
102
RTVSPost2010PropOp57
 70
     1
  0
XRECORD
  5
3B4
102
{ACAD_REACTORS
330
3B3
102
}
330
3B3
100
AcDbXrecord
280
     1
102
RTVSPropertyOp0
 70
     1
102
RTVSPropertyOp1
 70
     1
102
RTVSPropertyOp2
 70
     1
102
RTVSPropertyOp3
 70
     1
102
RTVSPropertyOp4
 70
     1
102
RTVSPropertyOp5
 70
     1
102
RTVSPropertyOp6
 70
     1
102
RTVSPropertyOp7
 70
     1
102
RTVSPropertyOp8
 70
     1
102
RTVSPropertyOp9
 70
     1
102
RTVSPropertyOp10
 70
     1
102
RTVSPropertyOp11
 70
     1
102
RTVSPropertyOp12
 70
     1
102
RTVSPropertyOp13
 70
     1
102
RTVSPropertyOp14
 70
     1
102
RTVSPropertyOp15
 70
     1
102
RTVSPropertyOp16
 70
     1
102
RTVSPropertyOp17
 70
     1
102
RTVSPropertyOp18
 70
     1
102
RTVSPropertyOp19
 70
     1
102
RTVSPropertyOp20
 70
     1
102
RTVSPropertyOp21
 70
     1
102
RTVSPropertyOp22
 70
     1
102
RTVSPropertyOp23
 70
     1
102
RTVSPropertyOp24
 70
     1
102
RTVSPropertyOp25
 70
     1
102
RTVSPropertyOp26
 70
     1
102
RTVSPropertyOp27
 70
     1
102
RTVSPropertyOp28
 70
     1
102
RTVSPropertyOp29
 70
     1
102
RTVSPropertyOp30
 70
     1
102
RTVSPropertyOp31
 70
     1
102
RTVSPropertyOp32
 70
     1
102
RTVSPropertyOp33
 70
     1
102
RTVSPropertyOp34
 70
     1
102
RTVSPropertyOp35
 70
     1
102
RTVSPropertyOp36
 70
     1
102
RTVSPropertyOp37
 70
     1
102
RTVSPropertyOp38
 70
     1
102
RTVSPropertyOp39
 70
     1
102
RTVSPropertyOp40
 70
     1
102
RTVSPropertyOp41
 70
     1
102
RTVSPropertyOp42
 70
     1
102
RTVSPropertyOp43
 70
     1
102
RTVSPropertyOp44
 70
     1
102
RTVSPropertyOp45
 70
     1
102
RTVSPropertyOp46
 70
     1
102
RTVSPropertyOp47
 70
     1
102
RTVSPropertyOp48
 70
     1
102
RTVSPropertyOp49
 70
     1
102
RTVSPropertyOp50
 70
     1
102
RTVSPropertyOp51
 70
     0
102
RTVSPropertyOp52
 70
     0
102
RTVSPropertyOp53
 70
     1
102
RTVSPropertyOp54
 70
     1
102
RTVSPropertyOp55
 70
     1
102
RTVSPropertyOp56
 70
     1
102
RTVSPropertyOp57
 70
     1
102
RTVSPost2010Prop28
280
     0
102
RTVSPost2010PropOp28
 70
     1
102
RTVSPost2010Prop29
280
     1
102
RTVSPost2010PropOp29
 70
     1
102
RTVSPost2010Prop30
280
     1
102
RTVSPost2010PropOp30
 70
     1
102
RTVSPost2010Prop31
280
     0
102
RTVSPost2010PropOp31
 70
     1
102
RTVSPost2010Prop32
280
     0
102
RTVSPost2010PropOp32
 70
     1
102
RTVSPost2010Prop33
280
     0
102
RTVSPost2010PropOp33
 70
     1
102
RTVSPost2010Prop34
280
     0
102
RTVSPost2010PropOp34
 70
     1
102
RTVSPost2010Prop35
280
     0
102
RTVSPost2010PropOp35
 70
     1
102
RTVSPost2010Prop36
280
     0
102
RTVSPost2010PropOp36
 70
     1
102
RTVSPost2010Prop37
 90
       50
102
RTVSPost2010PropOp37
 70
     1
102
RTVSPost2010Prop38
140
0.0
102
RTVSPost2010PropOp38
 70
     1
102
RTVSPost2010Prop39
140
1.0
102
RTVSPost2010PropOp39
 70
     1
102
RTVSPost2010Prop40
 90
        0
102
RTVSPost2010PropOp40
 70
     1
102
RTVSPost2010Prop41ColorIndex
 90
       18
102
RTVSPost2010Prop41ColorRGB
 90
        0
102
RTVSPost2010PropOp41
 70
     1
102
RTVSPost2010Prop42
 90
       50
102
RTVSPost2010PropOp42
 70
     1
102
RTVSPost2010Prop43
 90
        3
102
RTVSPost2010PropOp43
 70
     1
102
RTVSPost2010Prop44ColorIndex
 90
        5
102
RTVSPost2010Prop44ColorRGB
 90
      255
102
RTVSPost2010PropOp44
 70
     1
102
RTVSPost2010Prop45
280
     0
102
RTVSPost2010PropOp45
 70
     1
102
RTVSPost2010Prop46
 90
       50
102
RTVSPost2010PropOp46
 70
     1
102
RTVSPost2010Prop47
 90
       50
102
RTVSPost2010PropOp47
 70
     1
102
RTVSPost2010Prop48
 90
       50
102
RTVSPost2010PropOp48
 70
     1
102
RTVSPost2010Prop49
280
     0
102
RTVSPost2010PropOp49
 70
     1
102
RTVSPost2010Prop50
 90
       50
102
RTVSPost2010PropOp50
 70
     1
102
RTVSPost2010Prop51ColorIndex
 90
      256
102
RTVSPost2010Prop51ColorRGB
 90
-16777216
102
RTVSPost2010PropOp51
 70
     0
102
RTVSPost2010Prop52
140
1.0
102
RTVSPost2010PropOp52
 70
     0
102
RTVSPost2010Prop53
 90
        2
102
RTVSPost2010PropOp53
 70
     1
102
RTVSPost2010Prop54
  1
strokes_ogs.tif
102
RTVSPost2010PropOp54
 70
     1
102
RTVSPost2010Prop55
280
     0
102
RTVSPost2010PropOp55
 70
     1
102
RTVSPost2010Prop56
140
1.0
102
RTVSPost2010PropOp56
 70
     1
102
RTVSPost2010Prop57
140
1.0
102
RTVSPost2010PropOp57
 70
     1
  0
XRECORD
  5
3B6
102
{ACAD_REACTORS
330
3B5
102
}
330
3B5
100
AcDbXrecord
280
     1
102
RTVSPropertyOp0
 70
     1
102
RTVSPropertyOp1
 70
     1
102
RTVSPropertyOp2
 70
     1
102
RTVSPropertyOp3
 70
     1
102
RTVSPropertyOp4
 70
     1
102
RTVSPropertyOp5
 70
     1
102
RTVSPropertyOp6
 70
     1
102
RTVSPropertyOp7
 70
     1
102
RTVSPropertyOp8
 70
     1
102
RTVSPropertyOp9
 70
     1
102
RTVSPropertyOp10
 70
     1
102
RTVSPropertyOp11
 70
     1
102
RTVSPropertyOp12
 70
     1
102
RTVSPropertyOp13
 70
     1
102
RTVSPropertyOp14
 70
     1
102
RTVSPropertyOp15
 70
     1
102
RTVSPropertyOp16
 70
     1
102
RTVSPropertyOp17
 70
     1
102
RTVSPropertyOp18
 70
     1
102
RTVSPropertyOp19
 70
     1
102
RTVSPropertyOp20
 70
     1
102
RTVSPropertyOp21
 70
     1
102
RTVSPropertyOp22
 70
     1
102
RTVSPropertyOp23
 70
     1
102
RTVSPropertyOp24
 70
     1
102
RTVSPropertyOp25
 70
     1
102
RTVSPropertyOp26
 70
     1
102
RTVSPropertyOp27
 70
     1
102
RTVSPropertyOp28
 70
     1
102
RTVSPropertyOp29
 70
     1
102
RTVSPropertyOp30
 70
     1
102
RTVSPropertyOp31
 70
     1
102
RTVSPropertyOp32
 70
     1
102
RTVSPropertyOp33
 70
     1
102
RTVSPropertyOp34
 70
     1
102
RTVSPropertyOp35
 70
     1
102
RTVSPropertyOp36
 70
     1
102
RTVSPropertyOp37
 70
     1
102
RTVSPropertyOp38
 70
     1
102
RTVSPropertyOp39
 70
     1
102
RTVSPropertyOp40
 70
     1
102
RTVSPropertyOp41
 70
     1
102
RTVSPropertyOp42
 70
     1
102
RTVSPropertyOp43
 70
     1
102
RTVSPropertyOp44
 70
     1
102
RTVSPropertyOp45
 70
     1
102
RTVSPropertyOp46
 70
     1
102
RTVSPropertyOp47
 70
     1
102
RTVSPropertyOp48
 70
     1
102
RTVSPropertyOp49
 70
     1
102
RTVSPropertyOp50
 70
     1
102
RTVSPropertyOp51
 70
     0
102
RTVSPropertyOp52
 70
     0
102
RTVSPropertyOp53
 70
     1
102
RTVSPropertyOp54
 70
     1
102
RTVSPropertyOp55
 70
     1
102
RTVSPropertyOp56
 70
     1
102
RTVSPropertyOp57
 70
     1
102
RTVSPost2010Prop28
280
     0
102
RTVSPost2010PropOp28
 70
     1
102
RTVSPost2010Prop29
280
     1
102
RTVSPost2010PropOp29
 70
     1
102
RTVSPost2010Prop30
280
     1
102
RTVSPost2010PropOp30
 70
     1
102
RTVSPost2010Prop31
280
     0
102
RTVSPost2010PropOp31
 70
     1
102
RTVSPost2010Prop32
280
     0
102
RTVSPost2010PropOp32
 70
     1
102
RTVSPost2010Prop33
280
     0
102
RTVSPost2010PropOp33
 70
     1
102
RTVSPost2010Prop34
280
     0
102
RTVSPost2010PropOp34
 70
     1
102
RTVSPost2010Prop35
280
     0
102
RTVSPost2010PropOp35
 70
     1
102
RTVSPost2010Prop36
280
     0
102
RTVSPost2010PropOp36
 70
     1
102
RTVSPost2010Prop37
 90
       50
102
RTVSPost2010PropOp37
 70
     1
102
RTVSPost2010Prop38
140
0.0
102
RTVSPost2010PropOp38
 70
     1
102
RTVSPost2010Prop39
140
1.0
102
RTVSPost2010PropOp39
 70
     1
102
RTVSPost2010Prop40
 90
        0
102
RTVSPost2010PropOp40
 70
     1
102
RTVSPost2010Prop41ColorIndex
 90
       18
102
RTVSPost2010Prop41ColorRGB
 90
        0
102
RTVSPost2010PropOp41
 70
     1
102
RTVSPost2010Prop42
 90
       50
102
RTVSPost2010PropOp42
 70
     1
102
RTVSPost2010Prop43
 90
        3
102
RTVSPost2010PropOp43
 70
     1
102
RTVSPost2010Prop44ColorIndex
 90
        5
102
RTVSPost2010Prop44ColorRGB
 90
      255
102
RTVSPost2010PropOp44
 70
     1
102
RTVSPost2010Prop45
280
     0
102
RTVSPost2010PropOp45
 70
     1
102
RTVSPost2010Prop46
 90
       50
102
RTVSPost2010PropOp46
 70
     1
102
RTVSPost2010Prop47
 90
       50
102
RTVSPost2010PropOp47
 70
     1
102
RTVSPost2010Prop48
 90
       50
102
RTVSPost2010PropOp48
 70
     1
102
RTVSPost2010Prop49
280
     0
102
RTVSPost2010PropOp49
 70
     1
102
RTVSPost2010Prop50
 90
       50
102
RTVSPost2010PropOp50
 70
     1
102
RTVSPost2010Prop51ColorIndex
 90
      256
102
RTVSPost2010Prop51ColorRGB
 90
-16777216
102
RTVSPost2010PropOp51
 70
     0
102
RTVSPost2010Prop52
140
1.0
102
RTVSPost2010PropOp52
 70
     0
102
RTVSPost2010Prop53
 90
        2
102
RTVSPost2010PropOp53
 70
     1
102
RTVSPost2010Prop54
  1
strokes_ogs.tif
102
RTVSPost2010PropOp54
 70
     1
102
RTVSPost2010Prop55
280
     0
102
RTVSPost2010PropOp55
 70
     1
102
RTVSPost2010Prop56
140
1.0
102
RTVSPost2010PropOp56
 70
     1
102
RTVSPost2010Prop57
140
1.0
102
RTVSPost2010PropOp57
 70
     1
  0
XRECORD
  5
3B8
102
{ACAD_REACTORS
330
3B7
102
}
330
3B7
100
AcDbXrecord
280
     1
102
RTVSPropertyOp0
 70
     1
102
RTVSPropertyOp1
 70
     1
102
RTVSPropertyOp2
 70
     1
102
RTVSPropertyOp3
 70
     1
102
RTVSPropertyOp4
 70
     1
102
RTVSPropertyOp5
 70
     1
102
RTVSPropertyOp6
 70
     1
102
RTVSPropertyOp7
 70
     1
102
RTVSPropertyOp8
 70
     1
102
RTVSPropertyOp9
 70
     1
102
RTVSPropertyOp10
 70
     1
102
RTVSPropertyOp11
 70
     1
102
RTVSPropertyOp12
 70
     1
102
RTVSPropertyOp13
 70
     1
102
RTVSPropertyOp14
 70
     1
102
RTVSPropertyOp15
 70
     1
102
RTVSPropertyOp16
 70
     1
102
RTVSPropertyOp17
 70
     1
102
RTVSPropertyOp18
 70
     1
102
RTVSPropertyOp19
 70
     1
102
RTVSPropertyOp20
 70
     1
102
RTVSPropertyOp21
 70
     1
102
RTVSPropertyOp22
 70
     1
102
RTVSPropertyOp23
 70
     1
102
RTVSPropertyOp24
 70
     1
102
RTVSPropertyOp25
 70
     1
102
RTVSPropertyOp26
 70
     1
102
RTVSPropertyOp27
 70
     1
102
RTVSPropertyOp28
 70
     1
102
RTVSPropertyOp29
 70
     1
102
RTVSPropertyOp30
 70
     1
102
RTVSPropertyOp31
 70
     1
102
RTVSPropertyOp32
 70
     1
102
RTVSPropertyOp33
 70
     1
102
RTVSPropertyOp34
 70
     1
102
RTVSPropertyOp35
 70
     1
102
RTVSPropertyOp36
 70
     1
102
RTVSPropertyOp37
 70
     1
102
RTVSPropertyOp38
 70
     1
102
RTVSPropertyOp39
 70
     1
102
RTVSPropertyOp40
 70
     1
102
RTVSPropertyOp41
 70
     1
102
RTVSPropertyOp42
 70
     1
102
RTVSPropertyOp43
 70
     1
102
RTVSPropertyOp44
 70
     1
102
RTVSPropertyOp45
 70
     1
102
RTVSPropertyOp46
 70
     1
102
RTVSPropertyOp47
 70
     1
102
RTVSPropertyOp48
 70
     1
102
RTVSPropertyOp49
 70
     1
102
RTVSPropertyOp50
 70
     1
102
RTVSPropertyOp51
 70
     0
102
RTVSPropertyOp52
 70
     0
102
RTVSPropertyOp53
 70
     1
102
RTVSPropertyOp54
 70
     1
102
RTVSPropertyOp55
 70
     1
102
RTVSPropertyOp56
 70
     1
102
RTVSPropertyOp57
 70
     1
102
RTVSPost2010Prop28
280
     0
102
RTVSPost2010PropOp28
 70
     1
102
RTVSPost2010Prop29
280
     1
102
RTVSPost2010PropOp29
 70
     1
102
RTVSPost2010Prop30
280
     1
102
RTVSPost2010PropOp30
 70
     1
102
RTVSPost2010Prop31
280
     0
102
RTVSPost2010PropOp31
 70
     1
102
RTVSPost2010Prop32
280
     0
102
RTVSPost2010PropOp32
 70
     1
102
RTVSPost2010Prop33
280
     0
102
RTVSPost2010PropOp33
 70
     1
102
RTVSPost2010Prop34
280
     0
102
RTVSPost2010PropOp34
 70
     1
102
RTVSPost2010Prop35
280
     0
102
RTVSPost2010PropOp35
 70
     1
102
RTVSPost2010Prop36
280
     0
102
RTVSPost2010PropOp36
 70
     1
102
RTVSPost2010Prop37
 90
       50
102
RTVSPost2010PropOp37
 70
     1
102
RTVSPost2010Prop38
140
0.0
102
RTVSPost2010PropOp38
 70
     1
102
RTVSPost2010Prop39
140
1.0
102
RTVSPost2010PropOp39
 70
     1
102
RTVSPost2010Prop40
 90
        0
102
RTVSPost2010PropOp40
 70
     1
102
RTVSPost2010Prop41ColorIndex
 90
       18
102
RTVSPost2010Prop41ColorRGB
 90
        0
102
RTVSPost2010PropOp41
 70
     1
102
RTVSPost2010Prop42
 90
       50
102
RTVSPost2010PropOp42
 70
     1
102
RTVSPost2010Prop43
 90
        3
102
RTVSPost2010PropOp43
 70
     1
102
RTVSPost2010Prop44ColorIndex
 90
        5
102
RTVSPost2010Prop44ColorRGB
 90
      255
102
RTVSPost2010PropOp44
 70
     1
102
RTVSPost2010Prop45
280
     0
102
RTVSPost2010PropOp45
 70
     1
102
RTVSPost2010Prop46
 90
       50
102
RTVSPost2010PropOp46
 70
     1
102
RTVSPost2010Prop47
 90
       50
102
RTVSPost2010PropOp47
 70
     1
102
RTVSPost2010Prop48
 90
       50
102
RTVSPost2010PropOp48
 70
     1
102
RTVSPost2010Prop49
280
     0
102
RTVSPost2010PropOp49
 70
     1
102
RTVSPost2010Prop50
 90
       50
102
RTVSPost2010PropOp50
 70
     1
102
RTVSPost2010Prop51ColorIndex
 90
      256
102
RTVSPost2010Prop51ColorRGB
 90
-16777216
102
RTVSPost2010PropOp51
 70
     0
102
RTVSPost2010Prop52
140
1.0
102
RTVSPost2010PropOp52
 70
     0
102
RTVSPost2010Prop53
 90
        2
102
RTVSPost2010PropOp53
 70
     1
102
RTVSPost2010Prop54
  1
strokes_ogs.tif
102
RTVSPost2010PropOp54
 70
     1
102
RTVSPost2010Prop55
280
     0
102
RTVSPost2010PropOp55
 70
     1
102
RTVSPost2010Prop56
140
1.0
102
RTVSPost2010PropOp56
 70
     1
102
RTVSPost2010Prop57
140
1.0
102
RTVSPost2010PropOp57
 70
     1
  0
XRECORD
  5
3BA
102
{ACAD_REACTORS
330
3B9
102
}
330
3B9
100
AcDbXrecord
280
     1
102
RTVSPropertyOp0
 70
     1
102
RTVSPropertyOp1
 70
     1
102
RTVSPropertyOp2
 70
     1
102
RTVSPropertyOp3
 70
     1
102
RTVSPropertyOp4
 70
     1
102
RTVSPropertyOp5
 70
     1
102
RTVSPropertyOp6
 70
     1
102
RTVSPropertyOp7
 70
     1
102
RTVSPropertyOp8
 70
     1
102
RTVSPropertyOp9
 70
     1
102
RTVSPropertyOp10
 70
     1
102
RTVSPropertyOp11
 70
     1
102
RTVSPropertyOp12
 70
     1
102
RTVSPropertyOp13
 70
     1
102
RTVSPropertyOp14
 70
     1
102
RTVSPropertyOp15
 70
     1
102
RTVSPropertyOp16
 70
     1
102
RTVSPropertyOp17
 70
     1
102
RTVSPropertyOp18
 70
     1
102
RTVSPropertyOp19
 70
     1
102
RTVSPropertyOp20
 70
     1
102
RTVSPropertyOp21
 70
     1
102
RTVSPropertyOp22
 70
     1
102
RTVSPropertyOp23
 70
     1
102
RTVSPropertyOp24
 70
     1
102
RTVSPropertyOp25
 70
     1
102
RTVSPropertyOp26
 70
     1
102
RTVSPropertyOp27
 70
     1
102
RTVSPropertyOp28
 70
     1
102
RTVSPropertyOp29
 70
     1
102
RTVSPropertyOp30
 70
     1
102
RTVSPropertyOp31
 70
     1
102
RTVSPropertyOp32
 70
     1
102
RTVSPropertyOp33
 70
     1
102
RTVSPropertyOp34
 70
     1
102
RTVSPropertyOp35
 70
     1
102
RTVSPropertyOp36
 70
     1
102
RTVSPropertyOp37
 70
     1
102
RTVSPropertyOp38
 70
     1
102
RTVSPropertyOp39
 70
     1
102
RTVSPropertyOp40
 70
     1
102
RTVSPropertyOp41
 70
     1
102
RTVSPropertyOp42
 70
     1
102
RTVSPropertyOp43
 70
     1
102
RTVSPropertyOp44
 70
     1
102
RTVSPropertyOp45
 70
     1
102
RTVSPropertyOp46
 70
     1
102
RTVSPropertyOp47
 70
     1
102
RTVSPropertyOp48
 70
     1
102
RTVSPropertyOp49
 70
     1
102
RTVSPropertyOp50
 70
     1
102
RTVSPropertyOp51
 70
     0
102
RTVSPropertyOp52
 70
     0
102
RTVSPropertyOp53
 70
     1
102
RTVSPropertyOp54
 70
     1
102
RTVSPropertyOp55
 70
     1
102
RTVSPropertyOp56
 70
     1
102
RTVSPropertyOp57
 70
     1
102
RTVSPost2010Prop28
280
     0
102
RTVSPost2010PropOp28
 70
     1
102
RTVSPost2010Prop29
280
     1
102
RTVSPost2010PropOp29
 70
     1
102
RTVSPost2010Prop30
280
     1
102
RTVSPost2010PropOp30
 70
     1
102
RTVSPost2010Prop31
280
     0
102
RTVSPost2010PropOp31
 70
     1
102
RTVSPost2010Prop32
280
     0
102
RTVSPost2010PropOp32
 70
     1
102
RTVSPost2010Prop33
280
     0
102
RTVSPost2010PropOp33
 70
     1
102
RTVSPost2010Prop34
280
     0
102
RTVSPost2010PropOp34
 70
     1
102
RTVSPost2010Prop35
280
     0
102
RTVSPost2010PropOp35
 70
     1
102
RTVSPost2010Prop36
280
     0
102
RTVSPost2010PropOp36
 70
     1
102
RTVSPost2010Prop37
 90
       50
102
RTVSPost2010PropOp37
 70
     1
102
RTVSPost2010Prop38
140
0.0
102
RTVSPost2010PropOp38
 70
     1
102
RTVSPost2010Prop39
140
1.0
102
RTVSPost2010PropOp39
 70
     1
102
RTVSPost2010Prop40
 90
        0
102
RTVSPost2010PropOp40
 70
     1
102
RTVSPost2010Prop41ColorIndex
 90
       18
102
RTVSPost2010Prop41ColorRGB
 90
        0
102
RTVSPost2010PropOp41
 70
     1
102
RTVSPost2010Prop42
 90
       50
102
RTVSPost2010PropOp42
 70
     1
102
RTVSPost2010Prop43
 90
        3
102
RTVSPost2010PropOp43
 70
     1
102
RTVSPost2010Prop44ColorIndex
 90
        5
102
RTVSPost2010Prop44ColorRGB
 90
      255
102
RTVSPost2010PropOp44
 70
     1
102
RTVSPost2010Prop45
280
     0
102
RTVSPost2010PropOp45
 70
     1
102
RTVSPost2010Prop46
 90
       50
102
RTVSPost2010PropOp46
 70
     1
102
RTVSPost2010Prop47
 90
       50
102
RTVSPost2010PropOp47
 70
     1
102
RTVSPost2010Prop48
 90
       50
102
RTVSPost2010PropOp48
 70
     1
102
RTVSPost2010Prop49
280
     0
102
RTVSPost2010PropOp49
 70
     1
102
RTVSPost2010Prop50
 90
       50
102
RTVSPost2010PropOp50
 70
     1
102
RTVSPost2010Prop51ColorIndex
 90
      256
102
RTVSPost2010Prop51ColorRGB
 90
-16777216
102
RTVSPost2010PropOp51
 70
     0
102
RTVSPost2010Prop52
140
1.0
102
RTVSPost2010PropOp52
 70
     0
102
RTVSPost2010Prop53
 90
        2
102
RTVSPost2010PropOp53
 70
     1
102
RTVSPost2010Prop54
  1
strokes_ogs.tif
102
RTVSPost2010PropOp54
 70
     1
102
RTVSPost2010Prop55
280
     0
102
RTVSPost2010PropOp55
 70
     1
102
RTVSPost2010Prop56
140
1.0
102
RTVSPost2010PropOp56
 70
     1
102
RTVSPost2010Prop57
140
1.0
102
RTVSPost2010PropOp57
 70
     1
  0
XRECORD
  5
3C0
102
{ACAD_REACTORS
330
3BF
102
}
330
3BF
100
AcDbXrecord
280
     1
102
RTVSPropertyOp0
 70
     1
102
RTVSPropertyOp1
 70
     1
102
RTVSPropertyOp2
 70
     1
102
RTVSPropertyOp3
 70
     1
102
RTVSPropertyOp4
 70
     1
102
RTVSPropertyOp5
 70
     1
102
RTVSPropertyOp6
 70
     1
102
RTVSPropertyOp7
 70
     1
102
RTVSPropertyOp8
 70
     1
102
RTVSPropertyOp9
 70
     1
102
RTVSPropertyOp10
 70
     1
102
RTVSPropertyOp11
 70
     1
102
RTVSPropertyOp12
 70
     1
102
RTVSPropertyOp13
 70
     1
102
RTVSPropertyOp14
 70
     1
102
RTVSPropertyOp15
 70
     1
102
RTVSPropertyOp16
 70
     1
102
RTVSPropertyOp17
 70
     1
102
RTVSPropertyOp18
 70
     1
102
RTVSPropertyOp19
 70
     1
102
RTVSPropertyOp20
 70
     1
102
RTVSPropertyOp21
 70
     1
102
RTVSPropertyOp22
 70
     1
102
RTVSPropertyOp23
 70
     1
102
RTVSPropertyOp24
 70
     1
102
RTVSPropertyOp25
 70
     1
102
RTVSPropertyOp26
 70
     1
102
RTVSPropertyOp27
 70
     1
102
RTVSPropertyOp28
 70
     1
102
RTVSPropertyOp29
 70
     1
102
RTVSPropertyOp30
 70
     1
102
RTVSPropertyOp31
 70
     1
102
RTVSPropertyOp32
 70
     1
102
RTVSPropertyOp33
 70
     1
102
RTVSPropertyOp34
 70
     1
102
RTVSPropertyOp35
 70
     1
102
RTVSPropertyOp36
 70
     1
102
RTVSPropertyOp37
 70
     1
102
RTVSPropertyOp38
 70
     1
102
RTVSPropertyOp39
 70
     1
102
RTVSPropertyOp40
 70
     1
102
RTVSPropertyOp41
 70
     1
102
RTVSPropertyOp42
 70
     1
102
RTVSPropertyOp43
 70
     1
102
RTVSPropertyOp44
 70
     1
102
RTVSPropertyOp45
 70
     1
102
RTVSPropertyOp46
 70
     1
102
RTVSPropertyOp47
 70
     1
102
RTVSPropertyOp48
 70
     1
102
RTVSPropertyOp49
 70
     1
102
RTVSPropertyOp50
 70
     1
102
RTVSPropertyOp51
 70
     0
102
RTVSPropertyOp52
 70
     0
102
RTVSPropertyOp53
 70
     1
102
RTVSPropertyOp54
 70
     1
102
RTVSPropertyOp55
 70
     1
102
RTVSPropertyOp56
 70
     1
102
RTVSPropertyOp57
 70
     1
102
RTVSPost2010Prop28
280
     0
102
RTVSPost2010PropOp28
 70
     1
102
RTVSPost2010Prop29
280
     1
102
RTVSPost2010PropOp29
 70
     1
102
RTVSPost2010Prop30
280
     1
102
RTVSPost2010PropOp30
 70
     1
102
RTVSPost2010Prop31
280
     0
102
RTVSPost2010PropOp31
 70
     1
102
RTVSPost2010Prop32
280
     0
102
RTVSPost2010PropOp32
 70
     1
102
RTVSPost2010Prop33
280
     0
102
RTVSPost2010PropOp33
 70
     1
102
RTVSPost2010Prop34
280
     0
102
RTVSPost2010PropOp34
 70
     1
102
RTVSPost2010Prop35
280
     0
102
RTVSPost2010PropOp35
 70
     1
102
RTVSPost2010Prop36
280
     0
102
RTVSPost2010PropOp36
 70
     1
102
RTVSPost2010Prop37
 90
       50
102
RTVSPost2010PropOp37
 70
     1
102
RTVSPost2010Prop38
140
0.0
102
RTVSPost2010PropOp38
 70
     1
102
RTVSPost2010Prop39
140
1.0
102
RTVSPost2010PropOp39
 70
     1
102
RTVSPost2010Prop40
 90
        0
102
RTVSPost2010PropOp40
 70
     1
102
RTVSPost2010Prop41ColorIndex
 90
       18
102
RTVSPost2010Prop41ColorRGB
 90
        0
102
RTVSPost2010PropOp41
 70
     1
102
RTVSPost2010Prop42
 90
       50
102
RTVSPost2010PropOp42
 70
     1
102
RTVSPost2010Prop43
 90
        3
102
RTVSPost2010PropOp43
 70
     1
102
RTVSPost2010Prop44ColorIndex
 90
        5
102
RTVSPost2010Prop44ColorRGB
 90
      255
102
RTVSPost2010PropOp44
 70
     1
102
RTVSPost2010Prop45
280
     0
102
RTVSPost2010PropOp45
 70
     1
102
RTVSPost2010Prop46
 90
       50
102
RTVSPost2010PropOp46
 70
     1
102
RTVSPost2010Prop47
 90
       50
102
RTVSPost2010PropOp47
 70
     1
102
RTVSPost2010Prop48
 90
       50
102
RTVSPost2010PropOp48
 70
     1
102
RTVSPost2010Prop49
280
     0
102
RTVSPost2010PropOp49
 70
     1
102
RTVSPost2010Prop50
 90
       50
102
RTVSPost2010PropOp50
 70
     1
102
RTVSPost2010Prop51ColorIndex
 90
      256
102
RTVSPost2010Prop51ColorRGB
 90
-16777216
102
RTVSPost2010PropOp51
 70
     0
102
RTVSPost2010Prop52
140
1.0
102
RTVSPost2010PropOp52
 70
     0
102
RTVSPost2010Prop53
 90
        2
102
RTVSPost2010PropOp53
 70
     1
102
RTVSPost2010Prop54
  1
strokes_ogs.tif
102
RTVSPost2010PropOp54
 70
     1
102
RTVSPost2010Prop55
280
     0
102
RTVSPost2010PropOp55
 70
     1
102
RTVSPost2010Prop56
140
1.0
102
RTVSPost2010PropOp56
 70
     1
102
RTVSPost2010Prop57
140
1.0
102
RTVSPost2010PropOp57
 70
     1
  0
XRECORD
  5
3D4
102
{ACAD_REACTORS
330
3D3
102
}
330
3D3
100
AcDbXrecord
280
     1
102
RTVSPropertyOp0
 70
     0
102
RTVSPropertyOp1
 70
     0
102
RTVSPropertyOp2
 70
     0
102
RTVSPropertyOp3
 70
     0
102
RTVSPropertyOp4
 70
     0
102
RTVSPropertyOp5
 70
     0
102
RTVSPropertyOp6
 70
     0
102
RTVSPropertyOp7
 70
     0
102
RTVSPropertyOp8
 70
     0
102
RTVSPropertyOp9
 70
     0
102
RTVSPropertyOp10
 70
     0
102
RTVSPropertyOp11
 70
     0
102
RTVSPropertyOp12
 70
     0
102
RTVSPropertyOp13
 70
     0
102
RTVSPropertyOp14
 70
     2
102
RTVSPropertyOp15
 70
     0
102
RTVSPropertyOp16
 70
     0
102
RTVSPropertyOp17
 70
     0
102
RTVSPropertyOp18
 70
     0
102
RTVSPropertyOp19
 70
     0
102
RTVSPropertyOp20
 70
     0
102
RTVSPropertyOp21
 70
     0
102
RTVSPropertyOp22
 70
     0
102
RTVSPropertyOp23
 70
     0
102
RTVSPropertyOp24
 70
     0
102
RTVSPropertyOp25
 70
     0
102
RTVSPropertyOp26
 70
     0
102
RTVSPropertyOp27
 70
     0
102
RTVSPropertyOp28
 70
     0
102
RTVSPropertyOp29
 70
     0
102
RTVSPropertyOp30
 70
     0
102
RTVSPropertyOp31
 70
     0
102
RTVSPropertyOp32
 70
     0
102
RTVSPropertyOp33
 70
     0
102
RTVSPropertyOp34
 70
     0
102
RTVSPropertyOp35
 70
     0
102
RTVSPropertyOp36
 70
     0
102
RTVSPropertyOp37
 70
     0
102
RTVSPropertyOp38
 70
     0
102
RTVSPropertyOp39
 70
     0
102
RTVSPropertyOp40
 70
     0
102
RTVSPropertyOp41
 70
     0
102
RTVSPropertyOp42
 70
     0
102
RTVSPropertyOp43
 70
     0
102
RTVSPropertyOp44
 70
     0
102
RTVSPropertyOp45
 70
     0
102
RTVSPropertyOp46
 70
     0
102
RTVSPropertyOp47
 70
     0
102
RTVSPropertyOp48
 70
     0
102
RTVSPropertyOp49
 70
     0
102
RTVSPropertyOp50
 70
     0
102
RTVSPropertyOp51
 70
     0
102
RTVSPropertyOp52
 70
     0
102
RTVSPropertyOp53
 70
     0
102
RTVSPropertyOp54
 70
     0
102
RTVSPropertyOp55
 70
     0
102
RTVSPropertyOp56
 70
     0
102
RTVSPropertyOp57
 70
     0
102
RTVSPost2010Prop28
280
     0
102
RTVSPost2010PropOp28
 70
     0
102
RTVSPost2010Prop29
280
     1
102
RTVSPost2010PropOp29
 70
     0
102
RTVSPost2010Prop30
280
     1
102
RTVSPost2010PropOp30
 70
     0
102
RTVSPost2010Prop31
280
     0
102
RTVSPost2010PropOp31
 70
     0
102
RTVSPost2010Prop32
280
     0
102
RTVSPost2010PropOp32
 70
     0
102
RTVSPost2010Prop33
280
     0
102
RTVSPost2010PropOp33
 70
     0
102
RTVSPost2010Prop34
280
     0
102
RTVSPost2010PropOp34
 70
     0
102
RTVSPost2010Prop35
280
     0
102
RTVSPost2010PropOp35
 70
     0
102
RTVSPost2010Prop36
280
     0
102
RTVSPost2010PropOp36
 70
     0
102
RTVSPost2010Prop37
 90
       50
102
RTVSPost2010PropOp37
 70
     0
102
RTVSPost2010Prop38
140
0.0
102
RTVSPost2010PropOp38
 70
     0
102
RTVSPost2010Prop39
140
1.0
102
RTVSPost2010PropOp39
 70
     0
102
RTVSPost2010Prop40
 90
        0
102
RTVSPost2010PropOp40
 70
     0
102
RTVSPost2010Prop41ColorIndex
 90
       18
102
RTVSPost2010Prop41ColorRGB
 90
        0
102
RTVSPost2010PropOp41
 70
     0
102
RTVSPost2010Prop42
 90
       50
102
RTVSPost2010PropOp42
 70
     0
102
RTVSPost2010Prop43
 90
        3
102
RTVSPost2010PropOp43
 70
     0
102
RTVSPost2010Prop44ColorIndex
 90
        5
102
RTVSPost2010Prop44ColorRGB
 90
      255
102
RTVSPost2010PropOp44
 70
     0
102
RTVSPost2010Prop45
280
     0
102
RTVSPost2010PropOp45
 70
     0
102
RTVSPost2010Prop46
 90
       50
102
RTVSPost2010PropOp46
 70
     0
102
RTVSPost2010Prop47
 90
       50
102
RTVSPost2010PropOp47
 70
     0
102
RTVSPost2010Prop48
 90
       50
102
RTVSPost2010PropOp48
 70
     0
102
RTVSPost2010Prop49
280
     0
102
RTVSPost2010PropOp49
 70
     0
102
RTVSPost2010Prop50
 90
       50
102
RTVSPost2010PropOp50
 70
     0
102
RTVSPost2010Prop51ColorIndex
 90
      256
102
RTVSPost2010Prop51ColorRGB
 90
-16777216
102
RTVSPost2010PropOp51
 70
     0
102
RTVSPost2010Prop52
140
1.0
102
RTVSPost2010PropOp52
 70
     0
102
RTVSPost2010Prop53
 90
        2
102
RTVSPost2010PropOp53
 70
     0
102
RTVSPost2010Prop54
  1
strokes_ogs.tif
102
RTVSPost2010PropOp54
 70
     0
102
RTVSPost2010Prop55
280
     0
102
RTVSPost2010PropOp55
 70
     0
102
RTVSPost2010Prop56
140
1.0
102
RTVSPost2010PropOp56
 70
     0
102
RTVSPost2010Prop57
140
1.0
102
RTVSPost2010PropOp57
 70
     0
  0
XRECORD
  5
3CE
102
{ACAD_REACTORS
330
3CD
102
}
330
3CD
100
AcDbXrecord
280
     1
102
RTVSPropertyOp0
 70
     1
102
RTVSPropertyOp1
 70
     1
102
RTVSPropertyOp2
 70
     1
102
RTVSPropertyOp3
 70
     1
102
RTVSPropertyOp4
 70
     1
102
RTVSPropertyOp5
 70
     1
102
RTVSPropertyOp6
 70
     1
102
RTVSPropertyOp7
 70
     1
102
RTVSPropertyOp8
 70
     1
102
RTVSPropertyOp9
 70
     1
102
RTVSPropertyOp10
 70
     1
102
RTVSPropertyOp11
 70
     1
102
RTVSPropertyOp12
 70
     1
102
RTVSPropertyOp13
 70
     1
102
RTVSPropertyOp14
 70
     1
102
RTVSPropertyOp15
 70
     1
102
RTVSPropertyOp16
 70
     1
102
RTVSPropertyOp17
 70
     1
102
RTVSPropertyOp18
 70
     1
102
RTVSPropertyOp19
 70
     1
102
RTVSPropertyOp20
 70
     1
102
RTVSPropertyOp21
 70
     1
102
RTVSPropertyOp22
 70
     1
102
RTVSPropertyOp23
 70
     1
102
RTVSPropertyOp24
 70
     1
102
RTVSPropertyOp25
 70
     1
102
RTVSPropertyOp26
 70
     1
102
RTVSPropertyOp27
 70
     1
102
RTVSPropertyOp28
 70
     1
102
RTVSPropertyOp29
 70
     1
102
RTVSPropertyOp30
 70
     1
102
RTVSPropertyOp31
 70
     1
102
RTVSPropertyOp32
 70
     1
102
RTVSPropertyOp33
 70
     1
102
RTVSPropertyOp34
 70
     1
102
RTVSPropertyOp35
 70
     1
102
RTVSPropertyOp36
 70
     1
102
RTVSPropertyOp37
 70
     1
102
RTVSPropertyOp38
 70
     1
102
RTVSPropertyOp39
 70
     1
102
RTVSPropertyOp40
 70
     1
102
RTVSPropertyOp41
 70
     1
102
RTVSPropertyOp42
 70
     1
102
RTVSPropertyOp43
 70
     1
102
RTVSPropertyOp44
 70
     1
102
RTVSPropertyOp45
 70
     1
102
RTVSPropertyOp46
 70
     1
102
RTVSPropertyOp47
 70
     1
102
RTVSPropertyOp48
 70
     1
102
RTVSPropertyOp49
 70
     1
102
RTVSPropertyOp50
 70
     1
102
RTVSPropertyOp51
 70
     0
102
RTVSPropertyOp52
 70
     0
102
RTVSPropertyOp53
 70
     1
102
RTVSPropertyOp54
 70
     1
102
RTVSPropertyOp55
 70
     1
102
RTVSPropertyOp56
 70
     1
102
RTVSPropertyOp57
 70
     1
102
RTVSPost2010Prop28
280
     0
102
RTVSPost2010PropOp28
 70
     1
102
RTVSPost2010Prop29
280
     1
102
RTVSPost2010PropOp29
 70
     1
102
RTVSPost2010Prop30
280
     1
102
RTVSPost2010PropOp30
 70
     1
102
RTVSPost2010Prop31
280
     0
102
RTVSPost2010PropOp31
 70
     1
102
RTVSPost2010Prop32
280
     0
102
RTVSPost2010PropOp32
 70
     1
102
RTVSPost2010Prop33
280
     0
102
RTVSPost2010PropOp33
 70
     1
102
RTVSPost2010Prop34
280
     0
102
RTVSPost2010PropOp34
 70
     1
102
RTVSPost2010Prop35
280
     0
102
RTVSPost2010PropOp35
 70
     1
102
RTVSPost2010Prop36
280
     0
102
RTVSPost2010PropOp36
 70
     1
102
RTVSPost2010Prop37
 90
       50
102
RTVSPost2010PropOp37
 70
     1
102
RTVSPost2010Prop38
140
0.0
102
RTVSPost2010PropOp38
 70
     1
102
RTVSPost2010Prop39
140
1.0
102
RTVSPost2010PropOp39
 70
     1
102
RTVSPost2010Prop40
 90
        0
102
RTVSPost2010PropOp40
 70
     1
102
RTVSPost2010Prop41ColorIndex
 90
       18
102
RTVSPost2010Prop41ColorRGB
 90
        0
102
RTVSPost2010PropOp41
 70
     1
102
RTVSPost2010Prop42
 90
       50
102
RTVSPost2010PropOp42
 70
     1
102
RTVSPost2010Prop43
 90
        3
102
RTVSPost2010PropOp43
 70
     1
102
RTVSPost2010Prop44ColorIndex
 90
        5
102
RTVSPost2010Prop44ColorRGB
 90
      255
102
RTVSPost2010PropOp44
 70
     1
102
RTVSPost2010Prop45
280
     0
102
RTVSPost2010PropOp45
 70
     1
102
RTVSPost2010Prop46
 90
       50
102
RTVSPost2010PropOp46
 70
     1
102
RTVSPost2010Prop47
 90
       50
102
RTVSPost2010PropOp47
 70
     1
102
RTVSPost2010Prop48
 90
       50
102
RTVSPost2010PropOp48
 70
     1
102
RTVSPost2010Prop49
280
     0
102
RTVSPost2010PropOp49
 70
     1
102
RTVSPost2010Prop50
 90
       50
102
RTVSPost2010PropOp50
 70
     1
102
RTVSPost2010Prop51ColorIndex
 90
      256
102
RTVSPost2010Prop51ColorRGB
 90
-16777216
102
RTVSPost2010PropOp51
 70
     0
102
RTVSPost2010Prop52
140
1.0
102
RTVSPost2010PropOp52
 70
     0
102
RTVSPost2010Prop53
 90
        2
102
RTVSPost2010PropOp53
 70
     1
102
RTVSPost2010Prop54
  1
strokes_ogs.tif
102
RTVSPost2010PropOp54
 70
     1
102
RTVSPost2010Prop55
280
     0
102
RTVSPost2010PropOp55
 70
     1
102
RTVSPost2010Prop56
140
1.0
102
RTVSPost2010PropOp56
 70
     1
102
RTVSPost2010Prop57
140
1.0
102
RTVSPost2010PropOp57
 70
     1
  0
XRECORD
  5
3D6
102
{ACAD_REACTORS
330
3D5
102
}
330
3D5
100
AcDbXrecord
280
     1
102
RTVSPropertyOp0
 70
     0
102
RTVSPropertyOp1
 70
     0
102
RTVSPropertyOp2
 70
     0
102
RTVSPropertyOp3
 70
     0
102
RTVSPropertyOp4
 70
     0
102
RTVSPropertyOp5
 70
     0
102
RTVSPropertyOp6
 70
     0
102
RTVSPropertyOp7
 70
     0
102
RTVSPropertyOp8
 70
     0
102
RTVSPropertyOp9
 70
     0
102
RTVSPropertyOp10
 70
     0
102
RTVSPropertyOp11
 70
     0
102
RTVSPropertyOp12
 70
     0
102
RTVSPropertyOp13
 70
     0
102
RTVSPropertyOp14
 70
     2
102
RTVSPropertyOp15
 70
     0
102
RTVSPropertyOp16
 70
     0
102
RTVSPropertyOp17
 70
     0
102
RTVSPropertyOp18
 70
     0
102
RTVSPropertyOp19
 70
     0
102
RTVSPropertyOp20
 70
     0
102
RTVSPropertyOp21
 70
     0
102
RTVSPropertyOp22
 70
     0
102
RTVSPropertyOp23
 70
     0
102
RTVSPropertyOp24
 70
     0
102
RTVSPropertyOp25
 70
     0
102
RTVSPropertyOp26
 70
     0
102
RTVSPropertyOp27
 70
     0
102
RTVSPropertyOp28
 70
     0
102
RTVSPropertyOp29
 70
     0
102
RTVSPropertyOp30
 70
     0
102
RTVSPropertyOp31
 70
     0
102
RTVSPropertyOp32
 70
     0
102
RTVSPropertyOp33
 70
     0
102
RTVSPropertyOp34
 70
     0
102
RTVSPropertyOp35
 70
     0
102
RTVSPropertyOp36
 70
     0
102
RTVSPropertyOp37
 70
     0
102
RTVSPropertyOp38
 70
     0
102
RTVSPropertyOp39
 70
     0
102
RTVSPropertyOp40
 70
     0
102
RTVSPropertyOp41
 70
     0
102
RTVSPropertyOp42
 70
     0
102
RTVSPropertyOp43
 70
     0
102
RTVSPropertyOp44
 70
     0
102
RTVSPropertyOp45
 70
     0
102
RTVSPropertyOp46
 70
     0
102
RTVSPropertyOp47
 70
     0
102
RTVSPropertyOp48
 70
     0
102
RTVSPropertyOp49
 70
     0
102
RTVSPropertyOp50
 70
     0
102
RTVSPropertyOp51
 70
     0
102
RTVSPropertyOp52
 70
     0
102
RTVSPropertyOp53
 70
     0
102
RTVSPropertyOp54
 70
     0
102
RTVSPropertyOp55
 70
     0
102
RTVSPropertyOp56
 70
     0
102
RTVSPropertyOp57
 70
     0
102
RTVSPost2010Prop28
280
     0
102
RTVSPost2010PropOp28
 70
     0
102
RTVSPost2010Prop29
280
     1
102
RTVSPost2010PropOp29
 70
     0
102
RTVSPost2010Prop30
280
     1
102
RTVSPost2010PropOp30
 70
     0
102
RTVSPost2010Prop31
280
     0
102
RTVSPost2010PropOp31
 70
     0
102
RTVSPost2010Prop32
280
     0
102
RTVSPost2010PropOp32
 70
     0
102
RTVSPost2010Prop33
280
     0
102
RTVSPost2010PropOp33
 70
     0
102
RTVSPost2010Prop34
280
     0
102
RTVSPost2010PropOp34
 70
     0
102
RTVSPost2010Prop35
280
     0
102
RTVSPost2010PropOp35
 70
     0
102
RTVSPost2010Prop36
280
     0
102
RTVSPost2010PropOp36
 70
     0
102
RTVSPost2010Prop37
 90
       50
102
RTVSPost2010PropOp37
 70
     0
102
RTVSPost2010Prop38
140
0.0
102
RTVSPost2010PropOp38
 70
     0
102
RTVSPost2010Prop39
140
1.0
102
RTVSPost2010PropOp39
 70
     0
102
RTVSPost2010Prop40
 90
        0
102
RTVSPost2010PropOp40
 70
     0
102
RTVSPost2010Prop41ColorIndex
 90
       18
102
RTVSPost2010Prop41ColorRGB
 90
        0
102
RTVSPost2010PropOp41
 70
     0
102
RTVSPost2010Prop42
 90
       50
102
RTVSPost2010PropOp42
 70
     0
102
RTVSPost2010Prop43
 90
        3
102
RTVSPost2010PropOp43
 70
     0
102
RTVSPost2010Prop44ColorIndex
 90
        5
102
RTVSPost2010Prop44ColorRGB
 90
      255
102
RTVSPost2010PropOp44
 70
     0
102
RTVSPost2010Prop45
280
     0
102
RTVSPost2010PropOp45
 70
     0
102
RTVSPost2010Prop46
 90
       50
102
RTVSPost2010PropOp46
 70
     0
102
RTVSPost2010Prop47
 90
       50
102
RTVSPost2010PropOp47
 70
     0
102
RTVSPost2010Prop48
 90
       50
102
RTVSPost2010PropOp48
 70
     0
102
RTVSPost2010Prop49
280
     0
102
RTVSPost2010PropOp49
 70
     0
102
RTVSPost2010Prop50
 90
       50
102
RTVSPost2010PropOp50
 70
     0
102
RTVSPost2010Prop51ColorIndex
 90
      256
102
RTVSPost2010Prop51ColorRGB
 90
-16777216
102
RTVSPost2010PropOp51
 70
     0
102
RTVSPost2010Prop52
140
1.0
102
RTVSPost2010PropOp52
 70
     0
102
RTVSPost2010Prop53
 90
        2
102
RTVSPost2010PropOp53
 70
     0
102
RTVSPost2010Prop54
  1
strokes_ogs.tif
102
RTVSPost2010PropOp54
 70
     0
102
RTVSPost2010Prop55
280
     0
102
RTVSPost2010PropOp55
 70
     0
102
RTVSPost2010Prop56
140
1.0
102
RTVSPost2010PropOp56
 70
     0
102
RTVSPost2010Prop57
140
1.0
102
RTVSPost2010PropOp57
 70
     0
  0
XRECORD
  5
3C4
102
{ACAD_REACTORS
330
3C3
102
}
330
3C3
100
AcDbXrecord
280
     1
102
RTVSPropertyOp0
 70
     1
102
RTVSPropertyOp1
 70
     1
102
RTVSPropertyOp2
 70
     1
102
RTVSPropertyOp3
 70
     1
102
RTVSPropertyOp4
 70
     1
102
RTVSPropertyOp5
 70
     1
102
RTVSPropertyOp6
 70
     1
102
RTVSPropertyOp7
 70
     1
102
RTVSPropertyOp8
 70
     1
102
RTVSPropertyOp9
 70
     1
102
RTVSPropertyOp10
 70
     1
102
RTVSPropertyOp11
 70
     1
102
RTVSPropertyOp12
 70
     1
102
RTVSPropertyOp13
 70
     1
102
RTVSPropertyOp14
 70
     1
102
RTVSPropertyOp15
 70
     1
102
RTVSPropertyOp16
 70
     1
102
RTVSPropertyOp17
 70
     1
102
RTVSPropertyOp18
 70
     1
102
RTVSPropertyOp19
 70
     1
102
RTVSPropertyOp20
 70
     1
102
RTVSPropertyOp21
 70
     1
102
RTVSPropertyOp22
 70
     1
102
RTVSPropertyOp23
 70
     1
102
RTVSPropertyOp24
 70
     1
102
RTVSPropertyOp25
 70
     1
102
RTVSPropertyOp26
 70
     1
102
RTVSPropertyOp27
 70
     1
102
RTVSPropertyOp28
 70
     1
102
RTVSPropertyOp29
 70
     1
102
RTVSPropertyOp30
 70
     1
102
RTVSPropertyOp31
 70
     1
102
RTVSPropertyOp32
 70
     1
102
RTVSPropertyOp33
 70
     1
102
RTVSPropertyOp34
 70
     1
102
RTVSPropertyOp35
 70
     1
102
RTVSPropertyOp36
 70
     1
102
RTVSPropertyOp37
 70
     1
102
RTVSPropertyOp38
 70
     1
102
RTVSPropertyOp39
 70
     1
102
RTVSPropertyOp40
 70
     1
102
RTVSPropertyOp41
 70
     1
102
RTVSPropertyOp42
 70
     1
102
RTVSPropertyOp43
 70
     1
102
RTVSPropertyOp44
 70
     1
102
RTVSPropertyOp45
 70
     1
102
RTVSPropertyOp46
 70
     1
102
RTVSPropertyOp47
 70
     1
102
RTVSPropertyOp48
 70
     1
102
RTVSPropertyOp49
 70
     1
102
RTVSPropertyOp50
 70
     1
102
RTVSPropertyOp51
 70
     0
102
RTVSPropertyOp52
 70
     0
102
RTVSPropertyOp53
 70
     1
102
RTVSPropertyOp54
 70
     1
102
RTVSPropertyOp55
 70
     1
102
RTVSPropertyOp56
 70
     1
102
RTVSPropertyOp57
 70
     1
102
RTVSPost2010Prop28
280
     0
102
RTVSPost2010PropOp28
 70
     1
102
RTVSPost2010Prop29
280
     1
102
RTVSPost2010PropOp29
 70
     1
102
RTVSPost2010Prop30
280
     1
102
RTVSPost2010PropOp30
 70
     1
102
RTVSPost2010Prop31
280
     0
102
RTVSPost2010PropOp31
 70
     1
102
RTVSPost2010Prop32
280
     0
102
RTVSPost2010PropOp32
 70
     1
102
RTVSPost2010Prop33
280
     0
102
RTVSPost2010PropOp33
 70
     1
102
RTVSPost2010Prop34
280
     0
102
RTVSPost2010PropOp34
 70
     1
102
RTVSPost2010Prop35
280
     0
102
RTVSPost2010PropOp35
 70
     1
102
RTVSPost2010Prop36
280
     0
102
RTVSPost2010PropOp36
 70
     1
102
RTVSPost2010Prop37
 90
       50
102
RTVSPost2010PropOp37
 70
     1
102
RTVSPost2010Prop38
140
0.0
102
RTVSPost2010PropOp38
 70
     1
102
RTVSPost2010Prop39
140
1.0
102
RTVSPost2010PropOp39
 70
     1
102
RTVSPost2010Prop40
 90
        0
102
RTVSPost2010PropOp40
 70
     1
102
RTVSPost2010Prop41ColorIndex
 90
       18
102
RTVSPost2010Prop41ColorRGB
 90
        0
102
RTVSPost2010PropOp41
 70
     1
102
RTVSPost2010Prop42
 90
       50
102
RTVSPost2010PropOp42
 70
     1
102
RTVSPost2010Prop43
 90
        3
102
RTVSPost2010PropOp43
 70
     1
102
RTVSPost2010Prop44ColorIndex
 90
        5
102
RTVSPost2010Prop44ColorRGB
 90
      255
102
RTVSPost2010PropOp44
 70
     1
102
RTVSPost2010Prop45
280
     0
102
RTVSPost2010PropOp45
 70
     1
102
RTVSPost2010Prop46
 90
       50
102
RTVSPost2010PropOp46
 70
     1
102
RTVSPost2010Prop47
 90
       50
102
RTVSPost2010PropOp47
 70
     1
102
RTVSPost2010Prop48
 90
       50
102
RTVSPost2010PropOp48
 70
     1
102
RTVSPost2010Prop49
280
     0
102
RTVSPost2010PropOp49
 70
     1
102
RTVSPost2010Prop50
 90
       50
102
RTVSPost2010PropOp50
 70
     1
102
RTVSPost2010Prop51ColorIndex
 90
      256
102
RTVSPost2010Prop51ColorRGB
 90
-16777216
102
RTVSPost2010PropOp51
 70
     0
102
RTVSPost2010Prop52
140
1.0
102
RTVSPost2010PropOp52
 70
     0
102
RTVSPost2010Prop53
 90
        2
102
RTVSPost2010PropOp53
 70
     1
102
RTVSPost2010Prop54
  1
strokes_ogs.tif
102
RTVSPost2010PropOp54
 70
     1
102
RTVSPost2010Prop55
280
     0
102
RTVSPost2010PropOp55
 70
     1
102
RTVSPost2010Prop56
140
1.0
102
RTVSPost2010PropOp56
 70
     1
102
RTVSPost2010Prop57
140
1.0
102
RTVSPost2010PropOp57
 70
     1
  0
XRECORD
  5
3E2
102
{ACAD_REACTORS
330
3E1
102
}
330
3E1
100
AcDbXrecord
280
     1
102
RTVSPropertyOp0
 70
     1
102
RTVSPropertyOp1
 70
     1
102
RTVSPropertyOp2
 70
     1
102
RTVSPropertyOp3
 70
     1
102
RTVSPropertyOp4
 70
     1
102
RTVSPropertyOp5
 70
     1
102
RTVSPropertyOp6
 70
     1
102
RTVSPropertyOp7
 70
     1
102
RTVSPropertyOp8
 70
     1
102
RTVSPropertyOp9
 70
     1
102
RTVSPropertyOp10
 70
     1
102
RTVSPropertyOp11
 70
     1
102
RTVSPropertyOp12
 70
     1
102
RTVSPropertyOp13
 70
     1
102
RTVSPropertyOp14
 70
     1
102
RTVSPropertyOp15
 70
     1
102
RTVSPropertyOp16
 70
     1
102
RTVSPropertyOp17
 70
     1
102
RTVSPropertyOp18
 70
     1
102
RTVSPropertyOp19
 70
     1
102
RTVSPropertyOp20
 70
     1
102
RTVSPropertyOp21
 70
     1
102
RTVSPropertyOp22
 70
     1
102
RTVSPropertyOp23
 70
     1
102
RTVSPropertyOp24
 70
     1
102
RTVSPropertyOp25
 70
     1
102
RTVSPropertyOp26
 70
     1
102
RTVSPropertyOp27
 70
     1
102
RTVSPropertyOp28
 70
     1
102
RTVSPropertyOp29
 70
     1
102
RTVSPropertyOp30
 70
     1
102
RTVSPropertyOp31
 70
     1
102
RTVSPropertyOp32
 70
     1
102
RTVSPropertyOp33
 70
     1
102
RTVSPropertyOp34
 70
     1
102
RTVSPropertyOp35
 70
     1
102
RTVSPropertyOp36
 70
     1
102
RTVSPropertyOp37
 70
     1
102
RTVSPropertyOp38
 70
     1
102
RTVSPropertyOp39
 70
     1
102
RTVSPropertyOp40
 70
     1
102
RTVSPropertyOp41
 70
     1
102
RTVSPropertyOp42
 70
     1
102
RTVSPropertyOp43
 70
     1
102
RTVSPropertyOp44
 70
     1
102
RTVSPropertyOp45
 70
     1
102
RTVSPropertyOp46
 70
     1
102
RTVSPropertyOp47
 70
     1
102
RTVSPropertyOp48
 70
     1
102
RTVSPropertyOp49
 70
     1
102
RTVSPropertyOp50
 70
     1
102
RTVSPropertyOp51
 70
     0
102
RTVSPropertyOp52
 70
     0
102
RTVSPropertyOp53
 70
     1
102
RTVSPropertyOp54
 70
     1
102
RTVSPropertyOp55
 70
     1
102
RTVSPropertyOp56
 70
     1
102
RTVSPropertyOp57
 70
     1
102
RTVSPost2010Prop28
280
     0
102
RTVSPost2010PropOp28
 70
     1
102
RTVSPost2010Prop29
280
     1
102
RTVSPost2010PropOp29
 70
     1
102
RTVSPost2010Prop30
280
     1
102
RTVSPost2010PropOp30
 70
     1
102
RTVSPost2010Prop31
280
     0
102
RTVSPost2010PropOp31
 70
     1
102
RTVSPost2010Prop32
280
     0
102
RTVSPost2010PropOp32
 70
     1
102
RTVSPost2010Prop33
280
     0
102
RTVSPost2010PropOp33
 70
     1
102
RTVSPost2010Prop34
280
     0
102
RTVSPost2010PropOp34
 70
     1
102
RTVSPost2010Prop35
280
     0
102
RTVSPost2010PropOp35
 70
     1
102
RTVSPost2010Prop36
280
     0
102
RTVSPost2010PropOp36
 70
     1
102
RTVSPost2010Prop37
 90
       50
102
RTVSPost2010PropOp37
 70
     1
102
RTVSPost2010Prop38
140
0.0
102
RTVSPost2010PropOp38
 70
     1
102
RTVSPost2010Prop39
140
1.0
102
RTVSPost2010PropOp39
 70
     1
102
RTVSPost2010Prop40
 90
        0
102
RTVSPost2010PropOp40
 70
     1
102
RTVSPost2010Prop41ColorIndex
 90
       18
102
RTVSPost2010Prop41ColorRGB
 90
        0
102
RTVSPost2010PropOp41
 70
     1
102
RTVSPost2010Prop42
 90
       50
102
RTVSPost2010PropOp42
 70
     1
102
RTVSPost2010Prop43
 90
        3
102
RTVSPost2010PropOp43
 70
     1
102
RTVSPost2010Prop44ColorIndex
 90
        5
102
RTVSPost2010Prop44ColorRGB
 90
      255
102
RTVSPost2010PropOp44
 70
     1
102
RTVSPost2010Prop45
280
     0
102
RTVSPost2010PropOp45
 70
     1
102
RTVSPost2010Prop46
 90
       50
102
RTVSPost2010PropOp46
 70
     1
102
RTVSPost2010Prop47
 90
       50
102
RTVSPost2010PropOp47
 70
     1
102
RTVSPost2010Prop48
 90
       50
102
RTVSPost2010PropOp48
 70
     1
102
RTVSPost2010Prop49
280
     0
102
RTVSPost2010PropOp49
 70
     1
102
RTVSPost2010Prop50
 90
       50
102
RTVSPost2010PropOp50
 70
     1
102
RTVSPost2010Prop51ColorIndex
 90
      256
102
RTVSPost2010Prop51ColorRGB
 90
-16777216
102
RTVSPost2010PropOp51
 70
     0
102
RTVSPost2010Prop52
140
1.0
102
RTVSPost2010PropOp52
 70
     0
102
RTVSPost2010Prop53
 90
        2
102
RTVSPost2010PropOp53
 70
     1
102
RTVSPost2010Prop54
  1
strokes_ogs.tif
102
RTVSPost2010PropOp54
 70
     1
102
RTVSPost2010Prop55
280
     0
102
RTVSPost2010PropOp55
 70
     1
102
RTVSPost2010Prop56
140
1.0
102
RTVSPost2010PropOp56
 70
     1
102
RTVSPost2010Prop57
140
1.0
102
RTVSPost2010PropOp57
 70
     1
  0
XRECORD
  5
3E0
102
{ACAD_REACTORS
330
3DF
102
}
330
3DF
100
AcDbXrecord
280
     1
102
RTVSPropertyOp0
 70
     1
102
RTVSPropertyOp1
 70
     1
102
RTVSPropertyOp2
 70
     1
102
RTVSPropertyOp3
 70
     1
102
RTVSPropertyOp4
 70
     1
102
RTVSPropertyOp5
 70
     1
102
RTVSPropertyOp6
 70
     1
102
RTVSPropertyOp7
 70
     1
102
RTVSPropertyOp8
 70
     1
102
RTVSPropertyOp9
 70
     1
102
RTVSPropertyOp10
 70
     1
102
RTVSPropertyOp11
 70
     1
102
RTVSPropertyOp12
 70
     1
102
RTVSPropertyOp13
 70
     1
102
RTVSPropertyOp14
 70
     1
102
RTVSPropertyOp15
 70
     1
102
RTVSPropertyOp16
 70
     1
102
RTVSPropertyOp17
 70
     1
102
RTVSPropertyOp18
 70
     1
102
RTVSPropertyOp19
 70
     1
102
RTVSPropertyOp20
 70
     1
102
RTVSPropertyOp21
 70
     1
102
RTVSPropertyOp22
 70
     1
102
RTVSPropertyOp23
 70
     1
102
RTVSPropertyOp24
 70
     1
102
RTVSPropertyOp25
 70
     1
102
RTVSPropertyOp26
 70
     1
102
RTVSPropertyOp27
 70
     1
102
RTVSPropertyOp28
 70
     1
102
RTVSPropertyOp29
 70
     1
102
RTVSPropertyOp30
 70
     1
102
RTVSPropertyOp31
 70
     1
102
RTVSPropertyOp32
 70
     1
102
RTVSPropertyOp33
 70
     1
102
RTVSPropertyOp34
 70
     1
102
RTVSPropertyOp35
 70
     1
102
RTVSPropertyOp36
 70
     1
102
RTVSPropertyOp37
 70
     1
102
RTVSPropertyOp38
 70
     1
102
RTVSPropertyOp39
 70
     1
102
RTVSPropertyOp40
 70
     1
102
RTVSPropertyOp41
 70
     1
102
RTVSPropertyOp42
 70
     1
102
RTVSPropertyOp43
 70
     1
102
RTVSPropertyOp44
 70
     1
102
RTVSPropertyOp45
 70
     1
102
RTVSPropertyOp46
 70
     1
102
RTVSPropertyOp47
 70
     1
102
RTVSPropertyOp48
 70
     1
102
RTVSPropertyOp49
 70
     1
102
RTVSPropertyOp50
 70
     1
102
RTVSPropertyOp51
 70
     0
102
RTVSPropertyOp52
 70
     0
102
RTVSPropertyOp53
 70
     1
102
RTVSPropertyOp54
 70
     1
102
RTVSPropertyOp55
 70
     1
102
RTVSPropertyOp56
 70
     1
102
RTVSPropertyOp57
 70
     1
102
RTVSPost2010Prop28
280
     0
102
RTVSPost2010PropOp28
 70
     1
102
RTVSPost2010Prop29
280
     1
102
RTVSPost2010PropOp29
 70
     1
102
RTVSPost2010Prop30
280
     1
102
RTVSPost2010PropOp30
 70
     1
102
RTVSPost2010Prop31
280
     0
102
RTVSPost2010PropOp31
 70
     1
102
RTVSPost2010Prop32
280
     0
102
RTVSPost2010PropOp32
 70
     1
102
RTVSPost2010Prop33
280
     0
102
RTVSPost2010PropOp33
 70
     1
102
RTVSPost2010Prop34
280
     0
102
RTVSPost2010PropOp34
 70
     1
102
RTVSPost2010Prop35
280
     0
102
RTVSPost2010PropOp35
 70
     1
102
RTVSPost2010Prop36
280
     0
102
RTVSPost2010PropOp36
 70
     1
102
RTVSPost2010Prop37
 90
       50
102
RTVSPost2010PropOp37
 70
     1
102
RTVSPost2010Prop38
140
0.0
102
RTVSPost2010PropOp38
 70
     1
102
RTVSPost2010Prop39
140
1.0
102
RTVSPost2010PropOp39
 70
     1
102
RTVSPost2010Prop40
 90
        0
102
RTVSPost2010PropOp40
 70
     1
102
RTVSPost2010Prop41ColorIndex
 90
       18
102
RTVSPost2010Prop41ColorRGB
 90
        0
102
RTVSPost2010PropOp41
 70
     1
102
RTVSPost2010Prop42
 90
       50
102
RTVSPost2010PropOp42
 70
     1
102
RTVSPost2010Prop43
 90
        3
102
RTVSPost2010PropOp43
 70
     1
102
RTVSPost2010Prop44ColorIndex
 90
        5
102
RTVSPost2010Prop44ColorRGB
 90
      255
102
RTVSPost2010PropOp44
 70
     1
102
RTVSPost2010Prop45
280
     0
102
RTVSPost2010PropOp45
 70
     1
102
RTVSPost2010Prop46
 90
       50
102
RTVSPost2010PropOp46
 70
     1
102
RTVSPost2010Prop47
 90
       50
102
RTVSPost2010PropOp47
 70
     1
102
RTVSPost2010Prop48
 90
       50
102
RTVSPost2010PropOp48
 70
     1
102
RTVSPost2010Prop49
280
     0
102
RTVSPost2010PropOp49
 70
     1
102
RTVSPost2010Prop50
 90
       50
102
RTVSPost2010PropOp50
 70
     1
102
RTVSPost2010Prop51ColorIndex
 90
      256
102
RTVSPost2010Prop51ColorRGB
 90
-16777216
102
RTVSPost2010PropOp51
 70
     0
102
RTVSPost2010Prop52
140
1.0
102
RTVSPost2010PropOp52
 70
     0
102
RTVSPost2010Prop53
 90
        2
102
RTVSPost2010PropOp53
 70
     1
102
RTVSPost2010Prop54
  1
strokes_ogs.tif
102
RTVSPost2010PropOp54
 70
     1
102
RTVSPost2010Prop55
280
     0
102
RTVSPost2010PropOp55
 70
     1
102
RTVSPost2010Prop56
140
1.0
102
RTVSPost2010PropOp56
 70
     1
102
RTVSPost2010Prop57
140
1.0
102
RTVSPost2010PropOp57
 70
     1
  0
XRECORD
  5
3DA
102
{ACAD_REACTORS
330
3D9
102
}
330
3D9
100
AcDbXrecord
280
     1
102
RTVSPropertyOp0
 70
     1
102
RTVSPropertyOp1
 70
     1
102
RTVSPropertyOp2
 70
     1
102
RTVSPropertyOp3
 70
     1
102
RTVSPropertyOp4
 70
     1
102
RTVSPropertyOp5
 70
     1
102
RTVSPropertyOp6
 70
     1
102
RTVSPropertyOp7
 70
     1
102
RTVSPropertyOp8
 70
     1
102
RTVSPropertyOp9
 70
     1
102
RTVSPropertyOp10
 70
     1
102
RTVSPropertyOp11
 70
     1
102
RTVSPropertyOp12
 70
     1
102
RTVSPropertyOp13
 70
     1
102
RTVSPropertyOp14
 70
     1
102
RTVSPropertyOp15
 70
     1
102
RTVSPropertyOp16
 70
     1
102
RTVSPropertyOp17
 70
     1
102
RTVSPropertyOp18
 70
     1
102
RTVSPropertyOp19
 70
     1
102
RTVSPropertyOp20
 70
     1
102
RTVSPropertyOp21
 70
     1
102
RTVSPropertyOp22
 70
     1
102
RTVSPropertyOp23
 70
     1
102
RTVSPropertyOp24
 70
     1
102
RTVSPropertyOp25
 70
     1
102
RTVSPropertyOp26
 70
     1
102
RTVSPropertyOp27
 70
     1
102
RTVSPropertyOp28
 70
     1
102
RTVSPropertyOp29
 70
     1
102
RTVSPropertyOp30
 70
     1
102
RTVSPropertyOp31
 70
     1
102
RTVSPropertyOp32
 70
     1
102
RTVSPropertyOp33
 70
     1
102
RTVSPropertyOp34
 70
     1
102
RTVSPropertyOp35
 70
     1
102
RTVSPropertyOp36
 70
     1
102
RTVSPropertyOp37
 70
     1
102
RTVSPropertyOp38
 70
     1
102
RTVSPropertyOp39
 70
     1
102
RTVSPropertyOp40
 70
     1
102
RTVSPropertyOp41
 70
     1
102
RTVSPropertyOp42
 70
     1
102
RTVSPropertyOp43
 70
     1
102
RTVSPropertyOp44
 70
     1
102
RTVSPropertyOp45
 70
     1
102
RTVSPropertyOp46
 70
     1
102
RTVSPropertyOp47
 70
     1
102
RTVSPropertyOp48
 70
     1
102
RTVSPropertyOp49
 70
     1
102
RTVSPropertyOp50
 70
     1
102
RTVSPropertyOp51
 70
     0
102
RTVSPropertyOp52
 70
     0
102
RTVSPropertyOp53
 70
     1
102
RTVSPropertyOp54
 70
     1
102
RTVSPropertyOp55
 70
     1
102
RTVSPropertyOp56
 70
     1
102
RTVSPropertyOp57
 70
     1
102
RTVSPost2010Prop28
280
     0
102
RTVSPost2010PropOp28
 70
     1
102
RTVSPost2010Prop29
280
     1
102
RTVSPost2010PropOp29
 70
     1
102
RTVSPost2010Prop30
280
     1
102
RTVSPost2010PropOp30
 70
     1
102
RTVSPost2010Prop31
280
     0
102
RTVSPost2010PropOp31
 70
     1
102
RTVSPost2010Prop32
280
     0
102
RTVSPost2010PropOp32
 70
     1
102
RTVSPost2010Prop33
280
     0
102
RTVSPost2010PropOp33
 70
     1
102
RTVSPost2010Prop34
280
     0
102
RTVSPost2010PropOp34
 70
     1
102
RTVSPost2010Prop35
280
     0
102
RTVSPost2010PropOp35
 70
     1
102
RTVSPost2010Prop36
280
     0
102
RTVSPost2010PropOp36
 70
     1
102
RTVSPost2010Prop37
 90
       50
102
RTVSPost2010PropOp37
 70
     1
102
RTVSPost2010Prop38
140
0.0
102
RTVSPost2010PropOp38
 70
     1
102
RTVSPost2010Prop39
140
1.0
102
RTVSPost2010PropOp39
 70
     1
102
RTVSPost2010Prop40
 90
        0
102
RTVSPost2010PropOp40
 70
     1
102
RTVSPost2010Prop41ColorIndex
 90
       18
102
RTVSPost2010Prop41ColorRGB
 90
        0
102
RTVSPost2010PropOp41
 70
     1
102
RTVSPost2010Prop42
 90
       50
102
RTVSPost2010PropOp42
 70
     1
102
RTVSPost2010Prop43
 90
        3
102
RTVSPost2010PropOp43
 70
     1
102
RTVSPost2010Prop44ColorIndex
 90
        5
102
RTVSPost2010Prop44ColorRGB
 90
      255
102
RTVSPost2010PropOp44
 70
     1
102
RTVSPost2010Prop45
280
     0
102
RTVSPost2010PropOp45
 70
     1
102
RTVSPost2010Prop46
 90
       50
102
RTVSPost2010PropOp46
 70
     1
102
RTVSPost2010Prop47
 90
       50
102
RTVSPost2010PropOp47
 70
     1
102
RTVSPost2010Prop48
 90
       50
102
RTVSPost2010PropOp48
 70
     1
102
RTVSPost2010Prop49
280
     0
102
RTVSPost2010PropOp49
 70
     1
102
RTVSPost2010Prop50
 90
       50
102
RTVSPost2010PropOp50
 70
     1
102
RTVSPost2010Prop51ColorIndex
 90
      256
102
RTVSPost2010Prop51ColorRGB
 90
-16777216
102
RTVSPost2010PropOp51
 70
     0
102
RTVSPost2010Prop52
140
1.0
102
RTVSPost2010PropOp52
 70
     0
102
RTVSPost2010Prop53
 90
        2
102
RTVSPost2010PropOp53
 70
     1
102
RTVSPost2010Prop54
  1
strokes_ogs.tif
102
RTVSPost2010PropOp54
 70
     1
102
RTVSPost2010Prop55
280
     0
102
RTVSPost2010PropOp55
 70
     1
102
RTVSPost2010Prop56
140
1.0
102
RTVSPost2010PropOp56
 70
     1
102
RTVSPost2010Prop57
140
1.0
102
RTVSPost2010PropOp57
 70
     1
  0
XRECORD
  5
3DC
102
{ACAD_REACTORS
330
3DB
102
}
330
3DB
100
AcDbXrecord
280
     1
102
RTVSPropertyOp0
 70
     1
102
RTVSPropertyOp1
 70
     1
102
RTVSPropertyOp2
 70
     1
102
RTVSPropertyOp3
 70
     1
102
RTVSPropertyOp4
 70
     1
102
RTVSPropertyOp5
 70
     1
102
RTVSPropertyOp6
 70
     1
102
RTVSPropertyOp7
 70
     1
102
RTVSPropertyOp8
 70
     1
102
RTVSPropertyOp9
 70
     1
102
RTVSPropertyOp10
 70
     1
102
RTVSPropertyOp11
 70
     1
102
RTVSPropertyOp12
 70
     1
102
RTVSPropertyOp13
 70
     1
102
RTVSPropertyOp14
 70
     1
102
RTVSPropertyOp15
 70
     1
102
RTVSPropertyOp16
 70
     1
102
RTVSPropertyOp17
 70
     1
102
RTVSPropertyOp18
 70
     1
102
RTVSPropertyOp19
 70
     1
102
RTVSPropertyOp20
 70
     1
102
RTVSPropertyOp21
 70
     1
102
RTVSPropertyOp22
 70
     1
102
RTVSPropertyOp23
 70
     1
102
RTVSPropertyOp24
 70
     1
102
RTVSPropertyOp25
 70
     1
102
RTVSPropertyOp26
 70
     1
102
RTVSPropertyOp27
 70
     1
102
RTVSPropertyOp28
 70
     1
102
RTVSPropertyOp29
 70
     1
102
RTVSPropertyOp30
 70
     1
102
RTVSPropertyOp31
 70
     1
102
RTVSPropertyOp32
 70
     1
102
RTVSPropertyOp33
 70
     1
102
RTVSPropertyOp34
 70
     1
102
RTVSPropertyOp35
 70
     1
102
RTVSPropertyOp36
 70
     1
102
RTVSPropertyOp37
 70
     1
102
RTVSPropertyOp38
 70
     1
102
RTVSPropertyOp39
 70
     1
102
RTVSPropertyOp40
 70
     1
102
RTVSPropertyOp41
 70
     1
102
RTVSPropertyOp42
 70
     1
102
RTVSPropertyOp43
 70
     1
102
RTVSPropertyOp44
 70
     1
102
RTVSPropertyOp45
 70
     1
102
RTVSPropertyOp46
 70
     1
102
RTVSPropertyOp47
 70
     1
102
RTVSPropertyOp48
 70
     1
102
RTVSPropertyOp49
 70
     1
102
RTVSPropertyOp50
 70
     1
102
RTVSPropertyOp51
 70
     0
102
RTVSPropertyOp52
 70
     0
102
RTVSPropertyOp53
 70
     1
102
RTVSPropertyOp54
 70
     1
102
RTVSPropertyOp55
 70
     1
102
RTVSPropertyOp56
 70
     1
102
RTVSPropertyOp57
 70
     1
102
RTVSPost2010Prop28
280
     0
102
RTVSPost2010PropOp28
 70
     1
102
RTVSPost2010Prop29
280
     1
102
RTVSPost2010PropOp29
 70
     1
102
RTVSPost2010Prop30
280
     1
102
RTVSPost2010PropOp30
 70
     1
102
RTVSPost2010Prop31
280
     0
102
RTVSPost2010PropOp31
 70
     1
102
RTVSPost2010Prop32
280
     0
102
RTVSPost2010PropOp32
 70
     1
102
RTVSPost2010Prop33
280
     0
102
RTVSPost2010PropOp33
 70
     1
102
RTVSPost2010Prop34
280
     0
102
RTVSPost2010PropOp34
 70
     1
102
RTVSPost2010Prop35
280
     0
102
RTVSPost2010PropOp35
 70
     1
102
RTVSPost2010Prop36
280
     0
102
RTVSPost2010PropOp36
 70
     1
102
RTVSPost2010Prop37
 90
       50
102
RTVSPost2010PropOp37
 70
     1
102
RTVSPost2010Prop38
140
0.0
102
RTVSPost2010PropOp38
 70
     1
102
RTVSPost2010Prop39
140
1.0
102
RTVSPost2010PropOp39
 70
     1
102
RTVSPost2010Prop40
 90
        0
102
RTVSPost2010PropOp40
 70
     1
102
RTVSPost2010Prop41ColorIndex
 90
       18
102
RTVSPost2010Prop41ColorRGB
 90
        0
102
RTVSPost2010PropOp41
 70
     1
102
RTVSPost2010Prop42
 90
       50
102
RTVSPost2010PropOp42
 70
     1
102
RTVSPost2010Prop43
 90
        3
102
RTVSPost2010PropOp43
 70
     1
102
RTVSPost2010Prop44ColorIndex
 90
        5
102
RTVSPost2010Prop44ColorRGB
 90
      255
102
RTVSPost2010PropOp44
 70
     1
102
RTVSPost2010Prop45
280
     0
102
RTVSPost2010PropOp45
 70
     1
102
RTVSPost2010Prop46
 90
       50
102
RTVSPost2010PropOp46
 70
     1
102
RTVSPost2010Prop47
 90
       50
102
RTVSPost2010PropOp47
 70
     1
102
RTVSPost2010Prop48
 90
       50
102
RTVSPost2010PropOp48
 70
     1
102
RTVSPost2010Prop49
280
     0
102
RTVSPost2010PropOp49
 70
     1
102
RTVSPost2010Prop50
 90
       50
102
RTVSPost2010PropOp50
 70
     1
102
RTVSPost2010Prop51ColorIndex
 90
      256
102
RTVSPost2010Prop51ColorRGB
 90
-16777216
102
RTVSPost2010PropOp51
 70
     0
102
RTVSPost2010Prop52
140
1.0
102
RTVSPost2010PropOp52
 70
     0
102
RTVSPost2010Prop53
 90
        2
102
RTVSPost2010PropOp53
 70
     1
102
RTVSPost2010Prop54
  1
strokes_ogs.tif
102
RTVSPost2010PropOp54
 70
     1
102
RTVSPost2010Prop55
280
     0
102
RTVSPost2010PropOp55
 70
     1
102
RTVSPost2010Prop56
140
1.0
102
RTVSPost2010PropOp56
 70
     1
102
RTVSPost2010Prop57
140
1.0
102
RTVSPost2010PropOp57
 70
     1
  0
XRECORD
  5
3CC
102
{ACAD_REACTORS
330
3CB
102
}
330
3CB
100
AcDbXrecord
280
     1
102
RTVSPropertyOp0
 70
     1
102
RTVSPropertyOp1
 70
     1
102
RTVSPropertyOp2
 70
     1
102
RTVSPropertyOp3
 70
     1
102
RTVSPropertyOp4
 70
     1
102
RTVSPropertyOp5
 70
     1
102
RTVSPropertyOp6
 70
     1
102
RTVSPropertyOp7
 70
     1
102
RTVSPropertyOp8
 70
     1
102
RTVSPropertyOp9
 70
     1
102
RTVSPropertyOp10
 70
     1
102
RTVSPropertyOp11
 70
     1
102
RTVSPropertyOp12
 70
     1
102
RTVSPropertyOp13
 70
     1
102
RTVSPropertyOp14
 70
     1
102
RTVSPropertyOp15
 70
     1
102
RTVSPropertyOp16
 70
     1
102
RTVSPropertyOp17
 70
     1
102
RTVSPropertyOp18
 70
     1
102
RTVSPropertyOp19
 70
     1
102
RTVSPropertyOp20
 70
     1
102
RTVSPropertyOp21
 70
     1
102
RTVSPropertyOp22
 70
     1
102
RTVSPropertyOp23
 70
     1
102
RTVSPropertyOp24
 70
     1
102
RTVSPropertyOp25
 70
     1
102
RTVSPropertyOp26
 70
     1
102
RTVSPropertyOp27
 70
     1
102
RTVSPropertyOp28
 70
     1
102
RTVSPropertyOp29
 70
     1
102
RTVSPropertyOp30
 70
     1
102
RTVSPropertyOp31
 70
     1
102
RTVSPropertyOp32
 70
     1
102
RTVSPropertyOp33
 70
     1
102
RTVSPropertyOp34
 70
     1
102
RTVSPropertyOp35
 70
     1
102
RTVSPropertyOp36
 70
     1
102
RTVSPropertyOp37
 70
     1
102
RTVSPropertyOp38
 70
     1
102
RTVSPropertyOp39
 70
     1
102
RTVSPropertyOp40
 70
     1
102
RTVSPropertyOp41
 70
     1
102
RTVSPropertyOp42
 70
     1
102
RTVSPropertyOp43
 70
     1
102
RTVSPropertyOp44
 70
     1
102
RTVSPropertyOp45
 70
     1
102
RTVSPropertyOp46
 70
     1
102
RTVSPropertyOp47
 70
     1
102
RTVSPropertyOp48
 70
     1
102
RTVSPropertyOp49
 70
     1
102
RTVSPropertyOp50
 70
     1
102
RTVSPropertyOp51
 70
     0
102
RTVSPropertyOp52
 70
     0
102
RTVSPropertyOp53
 70
     1
102
RTVSPropertyOp54
 70
     1
102
RTVSPropertyOp55
 70
     1
102
RTVSPropertyOp56
 70
     1
102
RTVSPropertyOp57
 70
     1
102
RTVSPost2010Prop28
280
     0
102
RTVSPost2010PropOp28
 70
     1
102
RTVSPost2010Prop29
280
     1
102
RTVSPost2010PropOp29
 70
     1
102
RTVSPost2010Prop30
280
     1
102
RTVSPost2010PropOp30
 70
     1
102
RTVSPost2010Prop31
280
     0
102
RTVSPost2010PropOp31
 70
     1
102
RTVSPost2010Prop32
280
     0
102
RTVSPost2010PropOp32
 70
     1
102
RTVSPost2010Prop33
280
     0
102
RTVSPost2010PropOp33
 70
     1
102
RTVSPost2010Prop34
280
     0
102
RTVSPost2010PropOp34
 70
     1
102
RTVSPost2010Prop35
280
     0
102
RTVSPost2010PropOp35
 70
     1
102
RTVSPost2010Prop36
280
     0
102
RTVSPost2010PropOp36
 70
     1
102
RTVSPost2010Prop37
 90
       50
102
RTVSPost2010PropOp37
 70
     1
102
RTVSPost2010Prop38
140
0.0
102
RTVSPost2010PropOp38
 70
     1
102
RTVSPost2010Prop39
140
1.0
102
RTVSPost2010PropOp39
 70
     1
102
RTVSPost2010Prop40
 90
        0
102
RTVSPost2010PropOp40
 70
     1
102
RTVSPost2010Prop41ColorIndex
 90
       18
102
RTVSPost2010Prop41ColorRGB
 90
        0
102
RTVSPost2010PropOp41
 70
     1
102
RTVSPost2010Prop42
 90
       50
102
RTVSPost2010PropOp42
 70
     1
102
RTVSPost2010Prop43
 90
        3
102
RTVSPost2010PropOp43
 70
     1
102
RTVSPost2010Prop44ColorIndex
 90
        5
102
RTVSPost2010Prop44ColorRGB
 90
      255
102
RTVSPost2010PropOp44
 70
     1
102
RTVSPost2010Prop45
280
     0
102
RTVSPost2010PropOp45
 70
     1
102
RTVSPost2010Prop46
 90
       50
102
RTVSPost2010PropOp46
 70
     1
102
RTVSPost2010Prop47
 90
       50
102
RTVSPost2010PropOp47
 70
     1
102
RTVSPost2010Prop48
 90
       50
102
RTVSPost2010PropOp48
 70
     1
102
RTVSPost2010Prop49
280
     0
102
RTVSPost2010PropOp49
 70
     1
102
RTVSPost2010Prop50
 90
       50
102
RTVSPost2010PropOp50
 70
     1
102
RTVSPost2010Prop51ColorIndex
 90
      256
102
RTVSPost2010Prop51ColorRGB
 90
-16777216
102
RTVSPost2010PropOp51
 70
     0
102
RTVSPost2010Prop52
140
1.0
102
RTVSPost2010PropOp52
 70
     0
102
RTVSPost2010Prop53
 90
        2
102
RTVSPost2010PropOp53
 70
     1
102
RTVSPost2010Prop54
  1
strokes_ogs.tif
102
RTVSPost2010PropOp54
 70
     1
102
RTVSPost2010Prop55
280
     0
102
RTVSPost2010PropOp55
 70
     1
102
RTVSPost2010Prop56
140
1.0
102
RTVSPost2010PropOp56
 70
     1
102
RTVSPost2010Prop57
140
1.0
102
RTVSPost2010PropOp57
 70
     1
  0
XRECORD
  5
3BE
102
{ACAD_REACTORS
330
3BD
102
}
330
3BD
100
AcDbXrecord
280
     1
102
RTVSPropertyOp0
 70
     1
102
RTVSPropertyOp1
 70
     1
102
RTVSPropertyOp2
 70
     1
102
RTVSPropertyOp3
 70
     1
102
RTVSPropertyOp4
 70
     1
102
RTVSPropertyOp5
 70
     1
102
RTVSPropertyOp6
 70
     1
102
RTVSPropertyOp7
 70
     1
102
RTVSPropertyOp8
 70
     1
102
RTVSPropertyOp9
 70
     1
102
RTVSPropertyOp10
 70
     1
102
RTVSPropertyOp11
 70
     1
102
RTVSPropertyOp12
 70
     1
102
RTVSPropertyOp13
 70
     1
102
RTVSPropertyOp14
 70
     1
102
RTVSPropertyOp15
 70
     1
102
RTVSPropertyOp16
 70
     1
102
RTVSPropertyOp17
 70
     1
102
RTVSPropertyOp18
 70
     1
102
RTVSPropertyOp19
 70
     1
102
RTVSPropertyOp20
 70
     1
102
RTVSPropertyOp21
 70
     1
102
RTVSPropertyOp22
 70
     1
102
RTVSPropertyOp23
 70
     1
102
RTVSPropertyOp24
 70
     1
102
RTVSPropertyOp25
 70
     1
102
RTVSPropertyOp26
 70
     1
102
RTVSPropertyOp27
 70
     1
102
RTVSPropertyOp28
 70
     1
102
RTVSPropertyOp29
 70
     1
102
RTVSPropertyOp30
 70
     1
102
RTVSPropertyOp31
 70
     1
102
RTVSPropertyOp32
 70
     1
102
RTVSPropertyOp33
 70
     1
102
RTVSPropertyOp34
 70
     1
102
RTVSPropertyOp35
 70
     1
102
RTVSPropertyOp36
 70
     1
102
RTVSPropertyOp37
 70
     1
102
RTVSPropertyOp38
 70
     1
102
RTVSPropertyOp39
 70
     1
102
RTVSPropertyOp40
 70
     1
102
RTVSPropertyOp41
 70
     1
102
RTVSPropertyOp42
 70
     1
102
RTVSPropertyOp43
 70
     1
102
RTVSPropertyOp44
 70
     1
102
RTVSPropertyOp45
 70
     1
102
RTVSPropertyOp46
 70
     1
102
RTVSPropertyOp47
 70
     1
102
RTVSPropertyOp48
 70
     1
102
RTVSPropertyOp49
 70
     1
102
RTVSPropertyOp50
 70
     1
102
RTVSPropertyOp51
 70
     0
102
RTVSPropertyOp52
 70
     0
102
RTVSPropertyOp53
 70
     1
102
RTVSPropertyOp54
 70
     1
102
RTVSPropertyOp55
 70
     1
102
RTVSPropertyOp56
 70
     1
102
RTVSPropertyOp57
 70
     1
102
RTVSPost2010Prop28
280
     0
102
RTVSPost2010PropOp28
 70
     1
102
RTVSPost2010Prop29
280
     1
102
RTVSPost2010PropOp29
 70
     1
102
RTVSPost2010Prop30
280
     1
102
RTVSPost2010PropOp30
 70
     1
102
RTVSPost2010Prop31
280
     0
102
RTVSPost2010PropOp31
 70
     1
102
RTVSPost2010Prop32
280
     0
102
RTVSPost2010PropOp32
 70
     1
102
RTVSPost2010Prop33
280
     0
102
RTVSPost2010PropOp33
 70
     1
102
RTVSPost2010Prop34
280
     0
102
RTVSPost2010PropOp34
 70
     1
102
RTVSPost2010Prop35
280
     0
102
RTVSPost2010PropOp35
 70
     1
102
RTVSPost2010Prop36
280
     0
102
RTVSPost2010PropOp36
 70
     1
102
RTVSPost2010Prop37
 90
       50
102
RTVSPost2010PropOp37
 70
     1
102
RTVSPost2010Prop38
140
0.0
102
RTVSPost2010PropOp38
 70
     1
102
RTVSPost2010Prop39
140
1.0
102
RTVSPost2010PropOp39
 70
     1
102
RTVSPost2010Prop40
 90
        0
102
RTVSPost2010PropOp40
 70
     1
102
RTVSPost2010Prop41ColorIndex
 90
       18
102
RTVSPost2010Prop41ColorRGB
 90
        0
102
RTVSPost2010PropOp41
 70
     1
102
RTVSPost2010Prop42
 90
       50
102
RTVSPost2010PropOp42
 70
     1
102
RTVSPost2010Prop43
 90
        3
102
RTVSPost2010PropOp43
 70
     1
102
RTVSPost2010Prop44ColorIndex
 90
        5
102
RTVSPost2010Prop44ColorRGB
 90
      255
102
RTVSPost2010PropOp44
 70
     1
102
RTVSPost2010Prop45
280
     0
102
RTVSPost2010PropOp45
 70
     1
102
RTVSPost2010Prop46
 90
       50
102
RTVSPost2010PropOp46
 70
     1
102
RTVSPost2010Prop47
 90
       50
102
RTVSPost2010PropOp47
 70
     1
102
RTVSPost2010Prop48
 90
       50
102
RTVSPost2010PropOp48
 70
     1
102
RTVSPost2010Prop49
280
     0
102
RTVSPost2010PropOp49
 70
     1
102
RTVSPost2010Prop50
 90
       50
102
RTVSPost2010PropOp50
 70
     1
102
RTVSPost2010Prop51ColorIndex
 90
      256
102
RTVSPost2010Prop51ColorRGB
 90
-16777216
102
RTVSPost2010PropOp51
 70
     0
102
RTVSPost2010Prop52
140
1.0
102
RTVSPost2010PropOp52
 70
     0
102
RTVSPost2010Prop53
 90
        2
102
RTVSPost2010PropOp53
 70
     1
102
RTVSPost2010Prop54
  1
strokes_ogs.tif
102
RTVSPost2010PropOp54
 70
     1
102
RTVSPost2010Prop55
280
     0
102
RTVSPost2010PropOp55
 70
     1
102
RTVSPost2010Prop56
140
1.0
102
RTVSPost2010PropOp56
 70
     1
102
RTVSPost2010Prop57
140
1.0
102
RTVSPost2010PropOp57
 70
     1
  0
XRECORD
  5
3DE
102
{ACAD_REACTORS
330
3DD
102
}
330
3DD
100
AcDbXrecord
280
     1
102
RTVSPropertyOp0
 70
     1
102
RTVSPropertyOp1
 70
     1
102
RTVSPropertyOp2
 70
     1
102
RTVSPropertyOp3
 70
     1
102
RTVSPropertyOp4
 70
     1
102
RTVSPropertyOp5
 70
     1
102
RTVSPropertyOp6
 70
     1
102
RTVSPropertyOp7
 70
     1
102
RTVSPropertyOp8
 70
     1
102
RTVSPropertyOp9
 70
     1
102
RTVSPropertyOp10
 70
     1
102
RTVSPropertyOp11
 70
     1
102
RTVSPropertyOp12
 70
     1
102
RTVSPropertyOp13
 70
     1
102
RTVSPropertyOp14
 70
     1
102
RTVSPropertyOp15
 70
     1
102
RTVSPropertyOp16
 70
     1
102
RTVSPropertyOp17
 70
     1
102
RTVSPropertyOp18
 70
     1
102
RTVSPropertyOp19
 70
     1
102
RTVSPropertyOp20
 70
     1
102
RTVSPropertyOp21
 70
     1
102
RTVSPropertyOp22
 70
     1
102
RTVSPropertyOp23
 70
     1
102
RTVSPropertyOp24
 70
     1
102
RTVSPropertyOp25
 70
     1
102
RTVSPropertyOp26
 70
     1
102
RTVSPropertyOp27
 70
     1
102
RTVSPropertyOp28
 70
     1
102
RTVSPropertyOp29
 70
     1
102
RTVSPropertyOp30
 70
     1
102
RTVSPropertyOp31
 70
     1
102
RTVSPropertyOp32
 70
     1
102
RTVSPropertyOp33
 70
     1
102
RTVSPropertyOp34
 70
     1
102
RTVSPropertyOp35
 70
     1
102
RTVSPropertyOp36
 70
     1
102
RTVSPropertyOp37
 70
     1
102
RTVSPropertyOp38
 70
     1
102
RTVSPropertyOp39
 70
     1
102
RTVSPropertyOp40
 70
     1
102
RTVSPropertyOp41
 70
     1
102
RTVSPropertyOp42
 70
     1
102
RTVSPropertyOp43
 70
     1
102
RTVSPropertyOp44
 70
     1
102
RTVSPropertyOp45
 70
     1
102
RTVSPropertyOp46
 70
     1
102
RTVSPropertyOp47
 70
     1
102
RTVSPropertyOp48
 70
     1
102
RTVSPropertyOp49
 70
     1
102
RTVSPropertyOp50
 70
     1
102
RTVSPropertyOp51
 70
     0
102
RTVSPropertyOp52
 70
     0
102
RTVSPropertyOp53
 70
     1
102
RTVSPropertyOp54
 70
     1
102
RTVSPropertyOp55
 70
     1
102
RTVSPropertyOp56
 70
     1
102
RTVSPropertyOp57
 70
     1
102
RTVSPost2010Prop28
280
     0
102
RTVSPost2010PropOp28
 70
     1
102
RTVSPost2010Prop29
280
     1
102
RTVSPost2010PropOp29
 70
     1
102
RTVSPost2010Prop30
280
     1
102
RTVSPost2010PropOp30
 70
     1
102
RTVSPost2010Prop31
280
     0
102
RTVSPost2010PropOp31
 70
     1
102
RTVSPost2010Prop32
280
     0
102
RTVSPost2010PropOp32
 70
     1
102
RTVSPost2010Prop33
280
     0
102
RTVSPost2010PropOp33
 70
     1
102
RTVSPost2010Prop34
280
     0
102
RTVSPost2010PropOp34
 70
     1
102
RTVSPost2010Prop35
280
     0
102
RTVSPost2010PropOp35
 70
     1
102
RTVSPost2010Prop36
280
     0
102
RTVSPost2010PropOp36
 70
     1
102
RTVSPost2010Prop37
 90
       50
102
RTVSPost2010PropOp37
 70
     1
102
RTVSPost2010Prop38
140
0.0
102
RTVSPost2010PropOp38
 70
     1
102
RTVSPost2010Prop39
140
1.0
102
RTVSPost2010PropOp39
 70
     1
102
RTVSPost2010Prop40
 90
        0
102
RTVSPost2010PropOp40
 70
     1
102
RTVSPost2010Prop41ColorIndex
 90
       18
102
RTVSPost2010Prop41ColorRGB
 90
        0
102
RTVSPost2010PropOp41
 70
     1
102
RTVSPost2010Prop42
 90
       50
102
RTVSPost2010PropOp42
 70
     1
102
RTVSPost2010Prop43
 90
        3
102
RTVSPost2010PropOp43
 70
     1
102
RTVSPost2010Prop44ColorIndex
 90
        5
102
RTVSPost2010Prop44ColorRGB
 90
      255
102
RTVSPost2010PropOp44
 70
     1
102
RTVSPost2010Prop45
280
     0
102
RTVSPost2010PropOp45
 70
     1
102
RTVSPost2010Prop46
 90
       50
102
RTVSPost2010PropOp46
 70
     1
102
RTVSPost2010Prop47
 90
       50
102
RTVSPost2010PropOp47
 70
     1
102
RTVSPost2010Prop48
 90
       50
102
RTVSPost2010PropOp48
 70
     1
102
RTVSPost2010Prop49
280
     0
102
RTVSPost2010PropOp49
 70
     1
102
RTVSPost2010Prop50
 90
       50
102
RTVSPost2010PropOp50
 70
     1
102
RTVSPost2010Prop51ColorIndex
 90
      256
102
RTVSPost2010Prop51ColorRGB
 90
-16777216
102
RTVSPost2010PropOp51
 70
     0
102
RTVSPost2010Prop52
140
1.0
102
RTVSPost2010PropOp52
 70
     0
102
RTVSPost2010Prop53
 90
        2
102
RTVSPost2010PropOp53
 70
     1
102
RTVSPost2010Prop54
  1
strokes_ogs.tif
102
RTVSPost2010PropOp54
 70
     1
102
RTVSPost2010Prop55
280
     0
102
RTVSPost2010PropOp55
 70
     1
102
RTVSPost2010Prop56
140
1.0
102
RTVSPost2010PropOp56
 70
     1
102
RTVSPost2010Prop57
140
1.0
102
RTVSPost2010PropOp57
 70
     1
  0
ENDSEC
  0
EOF
