  0
SECTION
  2
HEADER
  9
$ACADVER
  1
AC1018
  9
$ACADMAINTVER
 70
     0
  9
$DWGCODEPAGE
  3
ANSI_932
  9
$INSBASE
 10
0.0
 20
0.0
 30
0.0
  9
$EXTMIN
 10
-1050.0
 20
-742.5
 30
0.0
  9
$EXTMAX
 10
1050.0
 20
742.5
 30
0.0
  9
$LIMMIN
 10
-1050.0
 20
-742.5
  9
$LIMMAX
 10
1050.0
 20
742.5
  9
$ORTHOMODE
 70
     0
  9
$REGENMODE
 70
     1
  9
$FILLMODE
 70
     1
  9
$QTEXTMODE
 70
     0
  9
$MIRRTEXT
 70
     1
  9
$LTSCALE
 40
5.0
  9
$ATTMODE
 70
     1
  9
$TEXTSIZE
 40
2.5
  9
$TRACEWID
 40
1.0
  9
$TEXTSTYLE
  7
Standard
  9
$CLAYER
  8
0
  9
$CELTYPE
  6
ByLayer
  9
$CECOLOR
 62
   256
  9
$CELTSCALE
 40
1.0
  9
$DISPSILH
 70
     0
  9
$DIMSCALE
 40
1.0
  9
$DIMASZ
 40
2.5
  9
$DIMEXO
 40
0.625
  9
$DIMDLI
 40
3.75
  9
$DIMRND
 40
0.0
  9
$DIMDLE
 40
0.0
  9
$DIMEXE
 40
1.25
  9
$DIMTP
 40
0.0
  9
$DIMTM
 40
0.0
  9
$DIMTXT
 40
2.5
  9
$DIMCEN
 40
2.5
  9
$DIMTSZ
 40
0.0
  9
$DIMTOL
 70
     0
  9
$DIMLIM
 70
     0
  9
$DIMTIH
 70
     0
  9
$DIMTOH
 70
     0
  9
$DIMSE1
 70
     0
  9
$DIMSE2
 70
     0
  9
$DIMTAD
 70
     1
  9
$DIMZIN
 70
     8
  9
$DIMBLK
  1

  9
$DIMASO
 70
     1
  9
$DIMSHO
 70
     1
  9
$DIMPOST
  1

  9
$DIMAPOST
  1

  9
$DIMALT
 70
     0
  9
$DIMALTD
 70
     3
  9
$DIMALTF
 40
0.03937007874016
  9
$DIMLFAC
 40
1.0
  9
$DIMTOFL
 70
     1
  9
$DIMTVP
 40
0.0
  9
$DIMTIX
 70
     0
  9
$DIMSOXD
 70
     0
  9
$DIMSAH
 70
     0
  9
$DIMBLK1
  1

  9
$DIMBLK2
  1

  9
$DIMSTYLE
  2
ISO-25
  9
$DIMCLRD
 70
     0
  9
$DIMCLRE
 70
     0
  9
$DIMCLRT
 70
     0
  9
$DIMTFAC
 40
1.0
  9
$DIMGAP
 40
0.625
  9
$DIMJUST
 70
     0
  9
$DIMSD1
 70
     0
  9
$DIMSD2
 70
     0
  9
$DIMTOLJ
 70
     0
  9
$DIMTZIN
 70
     8
  9
$DIMALTZ
 70
     0
  9
$DIMALTTZ
 70
     0
  9
$DIMUPT
 70
     0
  9
$DIMDEC
 70
     2
  9
$DIMTDEC
 70
     2
  9
$DIMALTU
 70
     2
  9
$DIMALTTD
 70
     3
  9
$DIMTXSTY
  7
Standard
  9
$DIMAUNIT
 70
     0
  9
$DIMADEC
 70
     0
  9
$DIMALTRND
 40
0.0
  9
$DIMAZIN
 70
     0
  9
$DIMDSEP
 70
    44
  9
$DIMATFIT
 70
     3
  9
$DIMFRAC
 70
     0
  9
$DIMLDRBLK
  1

  9
$DIMLUNIT
 70
     2
  9
$DIMLWD
 70
    -2
  9
$DIMLWE
 70
    -2
  9
$DIMTMOVE
 70
     0
  9
$LUNITS
 70
     2
  9
$LUPREC
 70
     4
  9
$SKETCHINC
 40
1.0
  9
$FILLETRAD
 40
10.0
  9
$AUNITS
 70
     0
  9
$AUPREC
 70
     0
  9
$MENU
  1
.
  9
$ELEVATION
 40
0.0
  9
$PELEVATION
 40
0.0
  9
$THICKNESS
 40
0.0
  9
$LIMCHECK
 70
     0
  9
$CHAMFERA
 40
0.0
  9
$CHAMFERB
 40
0.0
  9
$CHAMFERC
 40
0.0
  9
$CHAMFERD
 40
0.0
  9
$SKPOLY
 70
     0
  9
$TDCREATE
 40
2459131.405113854
  9
$TDUCREATE
 40
2459131.030113854
  9
$TDUPDATE
 40
2459131.40511397
  9
$TDUUPDATE
 40
2459131.03011397
  9
$TDINDWG
 40
0.0000000116
  9
$TDUSRTIMER
 40
0.0000000116
  9
$USRTIMER
 70
     1
  9
$ANGBASE
 50
0.0
  9
$ANGDIR
 70
     0
  9
$PDMODE
 70
     0
  9
$PDSIZE
 40
0.0
  9
$PLINEWID
 40
0.0
  9
$SPLFRAME
 70
     0
  9
$SPLINETYPE
 70
     6
  9
$SPLINESEGS
 70
     8
  9
$HANDSEED
  5
3F6
  9
$SURFTAB1
 70
     6
  9
$SURFTAB2
 70
     6
  9
$SURFTYPE
 70
     6
  9
$SURFU
 70
     6
  9
$SURFV
 70
     6
  9
$UCSBASE
  2

  9
$UCSNAME
  2

  9
$UCSORG
 10
0.0
 20
0.0
 30
0.0
  9
$UCSXDIR
 10
1.0
 20
0.0
 30
0.0
  9
$UCSYDIR
 10
0.0
 20
1.0
 30
0.0
  9
$UCSORTHOREF
  2

  9
$UCSORTHOVIEW
 70
     0
  9
$UCSORGTOP
 10
0.0
 20
0.0
 30
0.0
  9
$UCSORGBOTTOM
 10
0.0
 20
0.0
 30
0.0
  9
$UCSORGLEFT
 10
0.0
 20
0.0
 30
0.0
  9
$UCSORGRIGHT
 10
0.0
 20
0.0
 30
0.0
  9
$UCSORGFRONT
 10
0.0
 20
0.0
 30
0.0
  9
$UCSORGBACK
 10
0.0
 20
0.0
 30
0.0
  9
$PUCSBASE
  2

  9
$PUCSNAME
  2

  9
$PUCSORG
 10
0.0
 20
0.0
 30
0.0
  9
$PUCSXDIR
 10
1.0
 20
0.0
 30
0.0
  9
$PUCSYDIR
 10
0.0
 20
1.0
 30
0.0
  9
$PUCSORTHOREF
  2

  9
$PUCSORTHOVIEW
 70
     0
  9
$PUCSORGTOP
 10
0.0
 20
0.0
 30
0.0
  9
$PUCSORGBOTTOM
 10
0.0
 20
0.0
 30
0.0
  9
$PUCSORGLEFT
 10
0.0
 20
0.0
 30
0.0
  9
$PUCSORGRIGHT
 10
0.0
 20
0.0
 30
0.0
  9
$PUCSORGFRONT
 10
0.0
 20
0.0
 30
0.0
  9
$PUCSORGBACK
 10
0.0
 20
0.0
 30
0.0
  9
$USERI1
 70
     0
  9
$USERI2
 70
     0
  9
$USERI3
 70
     0
  9
$USERI4
 70
     0
  9
$USERI5
 70
     0
  9
$USERR1
 40
0.0
  9
$USERR2
 40
0.0
  9
$USERR3
 40
0.0
  9
$USERR4
 40
0.0
  9
$USERR5
 40
0.0
  9
$WORLDVIEW
 70
     1
  9
$SHADEDGE
 70
     3
  9
$SHADEDIF
 70
    70
  9
$TILEMODE
 70
     1
  9
$MAXACTVP
 70
    64
  9
$PINSBASE
 10
0.0
 20
0.0
 30
0.0
  9
$PLIMCHECK
 70
     0
  9
$PEXTMIN
 10
1.000000000000000E+20
 20
1.000000000000000E+20
 30
1.000000000000000E+20
  9
$PEXTMAX
 10
-1.000000000000000E+20
 20
-1.000000000000000E+20
 30
-1.000000000000000E+20
  9
$PLIMMIN
 10
0.0
 20
0.0
  9
$PLIMMAX
 10
420.0
 20
297.0
  9
$UNITMODE
 70
     0
  9
$VISRETAIN
 70
     1
  9
$PLINEGEN
 70
     0
  9
$PSLTSCALE
 70
     1
  9
$TREEDEPTH
 70
  3020
  9
$CMLSTYLE
  2
Standard
  9
$CMLJUST
 70
     0
  9
$CMLSCALE
 40
20.0
  9
$PROXYGRAPHICS
 70
     1
  9
$MEASUREMENT
 70
     1
  9
$CELWEIGHT
370
    -1
  9
$ENDCAPS
280
     0
  9
$JOINSTYLE
280
     0
  9
$LWDISPLAY
290
     0
  9
$INSUNITS
 70
     4
  9
$HYPERLINKBASE
  1

  9
$STYLESHEET
  1

  9
$XEDIT
290
     1
  9
$CEPSNTYPE
380
     0
  9
$PSTYLEMODE
290
     1
  9
$FINGERPRINTGUID
  2
{DF67A0DD-2EB4-4BF5-9FBA-24770C278F92}
  9
$VERSIONGUID
  2
{FAEB1C32-E019-11D5-929B-00C0DF256EC4}
  9
$EXTNAMES
290
     1
  9
$PSVPSCALE
 40
0.0
  9
$OLESTARTUP
290
     0
  9
$SORTENTS
280
   127
  9
$INDEXCTL
280
     0
  9
$HIDETEXT
280
     1
  9
$XCLIPFRAME
290
     0
  9
$HALOGAP
280
     0
  9
$OBSCOLOR
 70
   257
  9
$OBSLTYPE
280
     0
  9
$INTERSECTIONDISPLAY
280
     0
  9
$INTERSECTIONCOLOR
 70
   257
  9
$DIMASSOC
280
     2
  9
$PROJECTNAME
  1

  0
ENDSEC
  0
SECTION
  2
CLASSES
  0
CLASS
  1
ACDBDICTIONARYWDFLT
  2
AcDbDictionaryWithDefault
  3
ObjectDBX Classes
 90
        0
 91
        4
280
     0
281
     0
  0
CLASS
  1
VISUALSTYLE
  2
AcDbVisualStyle
  3
ObjectDBX Classes
 90
     4095
 91
        4
280
     0
281
     0
  0
CLASS
  1
MATERIAL
  2
AcDbMaterial
  3
ObjectDBX Classes
 90
     1153
 91
        4
280
     0
281
     0
  0
CLASS
  1
SCALE
  2
AcDbScale
  3
ObjectDBX Classes
 90
     1153
 91
        4
280
     0
281
     0
  0
CLASS
  1
TABLESTYLE
  2
AcDbTableStyle
  3
ObjectDBX Classes
 90
     4095
 91
        4
280
     0
281
     0
  0
CLASS
  1
MLEADERSTYLE
  2
AcDbMLeaderStyle
  3
ACDB_MLEADERSTYLE_CLASS
 90
     4095
 91
        4
280
     0
281
     0
  0
CLASS
  1
SUN
  2
AcDbSun
  3
SCENEOE
 90
     1153
 91
        4
280
     0
281
     0
  0
CLASS
  1
DICTIONARYVAR
  2
AcDbDictionaryVar
  3
ObjectDBX Classes
 90
        0
 91
        4
280
     0
281
     0
  0
CLASS
  1
CELLSTYLEMAP
  2
AcDbCellStyleMap
  3
ObjectDBX Classes
 90
     1152
 91
        4
280
     0
281
     0
  0
ENDSEC
  0
SECTION
  2
TABLES
  0
TABLE
  2
VPORT
  5
8
102
{ACAD_XDICTIONARY
360
3AD
102
}
330
0
100
AcDbSymbolTable
 70
     1
  0
VPORT
  5
29
330
8
100
AcDbSymbolTableRecord
100
AcDbViewportTableRecord
  2
*Active
 70
     0
 10
0.0
 20
0.0
 11
1.0
 21
1.0
 12
0.0
 22
0.0
 13
0.0
 23
0.0
 14
10.0
 24
10.0
 15
10.0
 25
10.0
 16
0.0
 26
0.0
 36
1.0
 17
0.0
 27
0.0
 37
0.0
 40
1633.5
 41
1.414141414141414
 42
50.0
 43
0.0
 44
0.0
 50
0.0
 51
0.0
 71
     0
 72
 10000
 73
     1
 74
     3
 75
     0
 76
     0
 77
     0
 78
     0
281
     0
 65
     1
110
0.0
120
0.0
130
0.0
111
1.0
121
0.0
131
0.0
112
0.0
122
1.0
132
0.0
 79
     0
146
0.0
  0
ENDTAB
  0
TABLE
  2
LTYPE
  5
5
330
0
100
AcDbSymbolTable
 70
     4
  0
LTYPE
  5
14
330
5
100
AcDbSymbolTableRecord
100
AcDbLinetypeTableRecord
  2
ByBlock
 70
     0
  3

 72
    65
 73
     0
 40
0.0
  0
LTYPE
  5
15
330
5
100
AcDbSymbolTableRecord
100
AcDbLinetypeTableRecord
  2
ByLayer
 70
     0
  3

 72
    65
 73
     0
 40
0.0
  0
LTYPE
  5
16
330
5
100
AcDbSymbolTableRecord
100
AcDbLinetypeTableRecord
  2
Continuous
 70
     0
  3
Solid line
 72
    65
 73
     0
 40
0.0
  0
LTYPE
  5
6F
330
5
100
AcDbSymbolTableRecord
100
AcDbLinetypeTableRecord
  2
JWW_CENTER1
 70
     0
  3
-----  --  ----------  --  -----
 72
    65
 73
     4
 40
6.773333333333333
 49
4.233333333333333
 74
     0
 49
-0.8466666666666667
 74
     0
 49
0.8466666666666667
 74
     0
 49
-0.8466666666666667
 74
     0
  0
LTYPE
  5
70
330
5
100
AcDbSymbolTableRecord
100
AcDbLinetypeTableRecord
  2
JWW_DASHED3
 70
     0
  3
---  ------  ------  ------  ---
 72
    65
 73
     2
 40
3.386666666666667
 49
2.54
 74
     0
 49
-0.8466666666666667
 74
     0
  0
LTYPE
  5
71
330
5
100
AcDbSymbolTableRecord
100
AcDbLinetypeTableRecord
  2
JWW_CENTER2
 70
     0
  3
-------------  --  -------------
 72
    65
 73
     4
 40
13.54666666666667
 49
11.00666666666667
 74
     0
 49
-0.8466666666666667
 74
     0
 49
0.8466666666666667
 74
     0
 49
-0.8466666666666667
 74
     0
  0
ENDTAB
  0
TABLE
  2
LAYER
  5
2
330
0
100
AcDbSymbolTable
 70
     6
  0
LAYER
  5
10
330
2
100
AcDbSymbolTableRecord
100
AcDbLayerTableRecord
  2
0
 70
     0
 62
     7
  6
Continuous
370
    -3
390
F
  0
LAYER
  5
72
330
2
100
AcDbSymbolTableRecord
100
AcDbLayerTableRecord
  2
F-5ﾚｲﾔ
 70
     0
 62
     7
  6
Continuous
370
    -3
390
F
  0
LAYER
  5
73
330
2
100
AcDbSymbolTableRecord
100
AcDbLayerTableRecord
  2
E-2
 70
     0
 62
     7
  6
Continuous
370
    -3
390
F
  0
LAYER
  5
74
330
2
100
AcDbSymbolTableRecord
100
AcDbLayerTableRecord
  2
E-1
 70
     0
 62
     7
  6
Continuous
370
    -3
390
F
  0
LAYER
  5
75
330
2
100
AcDbSymbolTableRecord
100
AcDbLayerTableRecord
  2
E-4
 70
     0
 62
     7
  6
Continuous
370
    -3
390
F
  0
LAYER
  5
76
330
2
100
AcDbSymbolTableRecord
100
AcDbLayerTableRecord
  2
E-5
 70
     0
 62
     7
  6
Continuous
370
    -3
390
F
  0
ENDTAB
  0
TABLE
  2
STYLE
  5
3
330
0
100
AcDbSymbolTable
 70
     2
  0
STYLE
  5
11
330
3
100
AcDbSymbolTableRecord
100
AcDbTextStyleTableRecord
  2
Standard
 70
     0
 40
0.0
 41
1.0
 50
0.0
 71
     0
 42
2.5
  3
txt
  4

  0
STYLE
  5
6E
330
3
100
AcDbSymbolTableRecord
100
AcDbTextStyleTableRecord
  2
ＭＳ ゴシック
 70
     0
 40
1.0
 41
1.0
 50
0.0
 71
     0
 42
2.5
  3

  4

1001
ACAD
1000
MS Gothic
1071
    32817
  0
ENDTAB
  0
TABLE
  2
VIEW
  5
6
330
0
100
AcDbSymbolTable
 70
     0
  0
ENDTAB
  0
TABLE
  2
UCS
  5
7
330
0
100
AcDbSymbolTable
 70
     0
  0
ENDTAB
  0
TABLE
  2
APPID
  5
9
330
0
100
AcDbSymbolTable
 70
     2
  0
APPID
  5
12
330
9
100
AcDbSymbolTableRecord
100
AcDbRegAppTableRecord
  2
ACAD
 70
     0
  0
APPID
  5
3EC
330
9
100
AcDbSymbolTableRecord
100
AcDbRegAppTableRecord
  2
ACAD_MLEADERVER
 70
     0
  0
ENDTAB
  0
TABLE
  2
DIMSTYLE
  5
A
330
0
100
AcDbSymbolTable
 70
     1
100
AcDbDimStyleTable
  0
DIMSTYLE
105
27
330
A
100
AcDbSymbolTableRecord
100
AcDbDimStyleTableRecord
  2
ISO-25
 70
     0
 41
2.5
 42
0.625
 43
3.75
 44
1.25
 73
     0
 74
     0
 77
     1
 78
     8
140
2.5
141
2.5
143
0.03937007874016
147
0.625
171
     3
172
     1
178
     0
271
     2
272
     2
274
     3
278
    44
283
     0
284
     8
340
11
  0
ENDTAB
  0
TABLE
  2
BLOCK_RECORD
  5
1
330
0
100
AcDbSymbolTable
 70
     1
  0
BLOCK_RECORD
  5
1F
330
1
100
AcDbSymbolTableRecord
100
AcDbBlockTableRecord
  2
*Model_Space
340
22
  0
BLOCK_RECORD
  5
1B
330
1
100
AcDbSymbolTableRecord
100
AcDbBlockTableRecord
  2
*Paper_Space
340
1E
  0
BLOCK_RECORD
  5
23
330
1
100
AcDbSymbolTableRecord
100
AcDbBlockTableRecord
  2
*Paper_Space0
340
26
  0
ENDTAB
  0
ENDSEC
  0
SECTION
  2
BLOCKS
  0
BLOCK
  5
20
330
1F
100
AcDbEntity
  8
0
100
AcDbBlockBegin
  2
*Model_Space
 70
     0
 10
0.0
 20
0.0
 30
0.0
  3
*Model_Space
  1

  0
ENDBLK
  5
21
330
1F
100
AcDbEntity
  8
0
100
AcDbBlockEnd
  0
BLOCK
  5
1C
330
1B
100
AcDbEntity
 67
     1
  8
0
100
AcDbBlockBegin
  2
*Paper_Space
 70
     0
 10
0.0
 20
0.0
 30
0.0
  3
*Paper_Space
  1

  0
ENDBLK
  5
1D
330
1B
100
AcDbEntity
 67
     1
  8
0
100
AcDbBlockEnd
  0
BLOCK
  5
24
330
23
100
AcDbEntity
  8
0
100
AcDbBlockBegin
  2
*Paper_Space0
 70
     0
 10
0.0
 20
0.0
 30
0.0
  3
*Paper_Space0
  1

  0
ENDBLK
  5
25
330
23
100
AcDbEntity
  8
0
100
AcDbBlockEnd
  0
ENDSEC
  0
SECTION
  2
ENTITIES
  0
TEXT
  5
77
330
1F
100
AcDbEntity
  8
F-5ﾚｲﾔ
  6
Continuous
 62
     2
370
     9
100
AcDbText
 10
-470.5001752698743
 20
-682.8316433452651
 30
0.0
 40
15.24
  1
スチール製グレーチング　枠付正方形型　細目プレーンタイプ　集水桝用　ＱＳＣ　５５４４Ⅰ
 41
0.7744186046511626
  7
ＭＳ ゴシック
100
AcDbText
  0
LINE
  5
78
330
1F
100
AcDbEntity
  8
E-2
  6
Continuous
 62
     3
370
     9
100
AcDbLine
 10
-134.9647340605983
 20
-118.2351429377411
 30
0.0
 11
-734.964727462203
 21
-118.2351429377411
 31
0.0
  0
LINE
  5
79
330
1F
100
AcDbEntity
  8
E-2
  6
Continuous
 62
     3
370
     9
100
AcDbLine
 10
-134.9647340605983
 20
-113.7352023232984
 30
0.0
 11
-734.964727462203
 21
-113.7352023232984
 31
0.0
  0
LINE
  5
7A
330
1F
100
AcDbEntity
  8
E-2
  6
Continuous
 62
     3
370
     9
100
AcDbLine
 10
-134.9647340605983
 20
481.764873558247
 30
0.0
 11
-134.9647340605983
 21
-118.2351429377411
 31
0.0
  0
LINE
  5
7B
330
1F
100
AcDbEntity
  8
E-2
  6
Continuous
 62
     3
370
     9
100
AcDbLine
 10
-734.964727462203
 20
477.2641906243366
 30
0.0
 11
-134.9647340605983
 21
477.2641906243366
 31
0.0
  0
LINE
  5
7C
330
1F
100
AcDbEntity
  8
E-2
  6
Continuous
 62
     3
370
     9
100
AcDbLine
 10
-734.964727462203
 20
481.764873558247
 30
0.0
 11
-134.9647340605983
 21
481.764873558247
 31
0.0
  0
LINE
  5
7D
330
1F
100
AcDbEntity
  8
E-2
  6
Continuous
 62
     3
370
     9
100
AcDbLine
 10
-134.9647340605983
 20
428.7649783077723
 30
0.0
 11
-734.964727462203
 21
428.7649783077723
 31
0.0
  0
LINE
  5
7E
330
1F
100
AcDbEntity
  8
E-2
  6
Continuous
 62
     3
370
     9
100
AcDbLine
 10
-134.9647340605983
 20
434.7651465668516
 30
0.0
 11
-734.964727462203
 21
434.7651465668516
 31
0.0
  0
LINE
  5
7F
330
1F
100
AcDbEntity
  8
E-2
  6
Continuous
 62
     3
370
     9
100
AcDbLine
 10
-139.9645649767195
 20
334.7653115267333
 30
0.0
 11
-139.9645649767195
 21
428.7649783077723
 31
0.0
  0
LINE
  5
80
330
1F
100
AcDbEntity
  8
E-2
  6
Continuous
 62
     3
370
     9
100
AcDbLine
 10
-139.9645649767195
 20
434.7651465668516
 30
0.0
 11
-139.9645649767195
 21
477.2641906243366
 31
0.0
  0
LINE
  5
81
330
1F
100
AcDbEntity
  8
E-2
  6
Continuous
 62
     3
370
     9
100
AcDbLine
 10
-139.9645649767195
 20
234.7652290467924
 30
0.0
 11
-139.9645649767195
 21
328.7651432676541
 31
0.0
  0
LINE
  5
82
330
1F
100
AcDbEntity
  8
E-2
  6
Continuous
 62
     3
370
     9
100
AcDbLine
 10
-134.9647340605983
 20
234.7654764866151
 30
0.0
 11
-734.964727462203
 21
234.7654764866151
 31
0.0
  0
LINE
  5
83
330
1F
100
AcDbEntity
  8
E-2
  6
Continuous
 62
     3
370
     9
100
AcDbLine
 10
-134.9647340605983
 20
228.765060787713
 30
0.0
 11
-734.964727462203
 21
228.765060787713
 31
0.0
  0
LINE
  5
84
330
1F
100
AcDbEntity
  8
E-2
  6
Continuous
 62
     3
370
     9
100
AcDbLine
 10
-139.9645649767195
 20
134.7651465668515
 30
0.0
 11
-139.9645649767195
 21
228.765060787713
 31
0.0
  0
LINE
  5
85
330
1F
100
AcDbEntity
  8
E-2
  6
Continuous
 62
     3
370
     9
100
AcDbLine
 10
-134.9647340605983
 20
328.7651432676541
 30
0.0
 11
-734.964727462203
 21
328.7651432676541
 31
0.0
  0
LINE
  5
86
330
1F
100
AcDbEntity
  8
E-2
  6
Continuous
 62
     3
370
     9
100
AcDbLine
 10
-134.9647340605983
 20
334.7650640869109
 30
0.0
 11
-734.964727462203
 21
334.7650640869109
 31
0.0
  0
LINE
  5
87
330
1F
100
AcDbEntity
  8
E-2
  6
Continuous
 62
     3
370
     9
100
AcDbLine
 10
-134.9647340605983
 20
134.7653940066741
 30
0.0
 11
-734.964727462203
 21
134.7653940066741
 31
0.0
  0
LINE
  5
88
330
1F
100
AcDbEntity
  8
E-2
  6
Continuous
 62
     3
370
     9
100
AcDbLine
 10
-134.9647340605983
 20
128.7652257475948
 30
0.0
 11
-734.964727462203
 21
128.7652257475948
 31
0.0
  0
LINE
  5
89
330
1F
100
AcDbEntity
  8
E-2
  6
Continuous
 62
     3
370
     9
100
AcDbLine
 10
-134.9647340605983
 20
34.76539400667406
 30
0.0
 11
-734.964727462203
 21
34.76539400667406
 31
0.0
  0
LINE
  5
8A
330
1F
100
AcDbEntity
  8
E-2
  6
Continuous
 62
     3
370
     9
100
AcDbLine
 10
-134.9647340605983
 20
28.76522574759477
 30
0.0
 11
-734.964727462203
 21
28.76522574759477
 31
0.0
  0
LINE
  5
8B
330
1F
100
AcDbEntity
  8
E-2
  6
Continuous
 62
     3
370
     9
100
AcDbLine
 10
-134.9647340605983
 20
-65.23460599332594
 30
0.0
 11
-734.964727462203
 21
-65.23460599332594
 31
0.0
  0
LINE
  5
8C
330
1F
100
AcDbEntity
  8
E-2
  6
Continuous
 62
     3
370
     9
100
AcDbLine
 10
-134.9647340605983
 20
-71.23477425240523
 30
0.0
 11
-734.964727462203
 21
-71.23477425240523
 31
0.0
  0
LINE
  5
8D
330
1F
100
AcDbEntity
  8
E-2
  6
Continuous
 62
     3
370
     9
100
AcDbLine
 10
-139.9645649767195
 20
34.76539400667406
 30
0.0
 11
-139.9645649767195
 21
128.7652257475948
 31
0.0
  0
LINE
  5
8E
330
1F
100
AcDbEntity
  8
E-2
  6
Continuous
 62
     3
370
     9
100
AcDbLine
 10
-139.9645649767195
 20
-113.7352023232984
 30
0.0
 11
-139.9645649767195
 21
-71.23477425240523
 31
0.0
  0
LINE
  5
8F
330
1F
100
AcDbEntity
  8
E-2
  6
Continuous
 62
     3
370
     9
100
AcDbLine
 10
-139.9645649767195
 20
-65.23460599332594
 30
0.0
 11
-139.9645649767195
 21
28.76522574759477
 31
0.0
  0
LINE
  5
90
330
1F
100
AcDbEntity
  8
E-2
  6
Continuous
 62
     3
370
     9
100
AcDbLine
 10
-729.9645872463037
 20
-65.23460599332594
 30
0.0
 11
-729.9645872463037
 21
28.76522574759477
 31
0.0
  0
LINE
  5
91
330
1F
100
AcDbEntity
  8
E-2
  6
Continuous
 62
     3
370
     9
100
AcDbLine
 10
-729.9645872463037
 20
-113.7352023232984
 30
0.0
 11
-729.9645872463037
 21
-71.23477425240523
 31
0.0
  0
LINE
  5
92
330
1F
100
AcDbEntity
  8
E-2
  6
Continuous
 62
     3
370
     9
100
AcDbLine
 10
-729.9645872463037
 20
34.76539400667406
 30
0.0
 11
-729.9645872463037
 21
128.7652257475948
 31
0.0
  0
LINE
  5
93
330
1F
100
AcDbEntity
  8
E-2
  6
Continuous
 62
     3
370
     9
100
AcDbLine
 10
-729.9645872463037
 20
134.7651465668515
 30
0.0
 11
-729.9645872463037
 21
228.765060787713
 31
0.0
  0
LINE
  5
94
330
1F
100
AcDbEntity
  8
E-2
  6
Continuous
 62
     3
370
     9
100
AcDbLine
 10
-729.9645872463037
 20
234.7652290467924
 30
0.0
 11
-729.9645872463037
 21
328.7651432676541
 31
0.0
  0
LINE
  5
95
330
1F
100
AcDbEntity
  8
E-2
  6
Continuous
 62
     3
370
     9
100
AcDbLine
 10
-729.9645872463037
 20
434.7651465668516
 30
0.0
 11
-729.9645872463037
 21
477.2641906243366
 31
0.0
  0
LINE
  5
96
330
1F
100
AcDbEntity
  8
E-2
  6
Continuous
 62
     3
370
     9
100
AcDbLine
 10
-729.9645872463037
 20
334.7653115267333
 30
0.0
 11
-729.9645872463037
 21
428.7649783077723
 31
0.0
  0
LINE
  5
97
330
1F
100
AcDbEntity
  8
E-1
  6
Continuous
 62
     2
370
     9
100
AcDbLine
 10
-489.9647884973593
 20
502.3651163791932
 30
0.0
 11
-489.9647884973593
 21
496.2654773114144
 31
0.0
  0
LINE
  5
98
330
1F
100
AcDbEntity
  8
E-1
  6
Continuous
 62
     2
370
     9
100
AcDbLine
 10
-389.9648297373298
 20
512.3651493711695
 30
0.0
 11
-479.964755505383
 21
512.3651493711695
 31
0.0
  0
LINE
  5
99
330
1F
100
AcDbEntity
  8
E-1
  6
Continuous
 62
     2
370
     9
100
AcDbLine
 10
-379.9647967453535
 20
502.3651163791932
 30
0.0
 11
-379.9647967453535
 21
496.2654773114144
 31
0.0
  0
LINE
  5
9A
330
1F
100
AcDbEntity
  8
E-1
  6
Continuous
 62
     2
370
     9
100
AcDbLine
 10
-388.9649254140611
 20
502.3651163791932
 30
0.0
 11
-388.9649254140611
 21
496.2654773114144
 31
0.0
  0
LINE
  5
9B
330
1F
100
AcDbEntity
  8
E-1
  6
Continuous
 62
     2
370
     9
100
AcDbLine
 10
-479.964755505383
 20
503.3650207024618
 30
0.0
 11
-389.9648297373298
 21
503.3650207024618
 31
0.0
  0
LINE
  5
9C
330
1F
100
AcDbEntity
  8
E-1
  6
Continuous
 62
     2
370
     9
100
AcDbLine
 10
-480.9650309883855
 20
502.3651163791932
 30
0.0
 11
-480.9650309883855
 21
496.2654773114144
 31
0.0
  0
LINE
  5
9D
330
1F
100
AcDbEntity
  8
E-1
  6
JWW_CENTER1
 62
     2
370
     9
100
AcDbLine
 10
-485.464971602828
 20
488.1581115227743
 30
0.0
 11
-485.464971602828
 21
503.7554807425801
 31
0.0
  0
LINE
  5
9E
330
1F
100
AcDbEntity
  8
E-1
  6
JWW_CENTER1
 62
     2
370
     9
100
AcDbLine
 10
-477.3020555740063
 20
496.2654773114144
 30
0.0
 11
-493.7090478934742
 21
496.2654773114144
 31
0.0
  0
LINE
  5
9F
330
1F
100
AcDbEntity
  8
E-1
  6
JWW_CENTER1
 62
     2
370
     9
100
AcDbLine
 10
-384.4646136398848
 20
488.1581115227743
 30
0.0
 11
-384.4646136398848
 21
503.7554807425801
 31
0.0
  0
LINE
  5
A0
330
1F
100
AcDbEntity
  8
E-1
  6
JWW_CENTER1
 62
     2
370
     9
100
AcDbLine
 10
-376.3020687707968
 20
496.2654773114144
 30
0.0
 11
-392.7089373703535
 21
496.2654773114144
 31
0.0
  0
CIRCLE
  5
A1
330
1F
100
AcDbEntity
  8
E-1
  6
Continuous
 62
     2
370
     9
100
AcDbCircle
 10
-485.464971602828
 20
496.2654773114144
 30
0.0
 40
4.500000057993709
  0
CIRCLE
  5
A2
330
1F
100
AcDbEntity
  8
E-1
  6
Continuous
 62
     2
370
     9
100
AcDbCircle
 10
-384.4651085195298
 20
496.2654773114144
 30
0.0
 40
4.500000057993709
  0
ARC
  5
A3
330
1F
100
AcDbEntity
  8
E-1
  6
Continuous
 62
     2
370
     9
100
AcDbCircle
 10
-479.964755505383
 20
502.3651163791932
 30
0.0
 40
9.9999991623131
100
AcDbArc
 50
90.0
 51
180.0
  0
ARC
  5
A4
330
1F
100
AcDbEntity
  8
E-1
  6
Continuous
 62
     2
370
     9
100
AcDbCircle
 10
-389.9648297373298
 20
502.3651163791932
 30
0.0
 40
9.9999991623131
100
AcDbArc
 50
0.0
 51
90.0
  0
ARC
  5
A5
330
1F
100
AcDbEntity
  8
E-1
  6
Continuous
 62
     2
370
     9
100
AcDbCircle
 10
-389.9648297373298
 20
502.3651163791932
 30
0.0
 40
0.9999999524773778
100
AcDbArc
 50
0.0
 51
90.0
  0
ARC
  5
A6
330
1F
100
AcDbEntity
  8
E-1
  6
Continuous
 62
     2
370
     9
100
AcDbCircle
 10
-479.964755505383
 20
502.3651163791932
 30
0.0
 40
0.9999999524773778
100
AcDbArc
 50
90.0
 51
180.0
  0
LWPOLYLINE
  5
A7
330
1F
100
AcDbEntity
  8
E-4
  6
Continuous
 62
     7
370
     9
100
AcDbPolyline
 90
        4
 70
     1
 43
1.0
 10
-434.4647926213563
 20
551.7650418173265
 42
0.4142135623731
 10
-434.9647926213563
 20
552.2650418173265
 42
0.4142135623731
 10
-435.4647926213563
 20
551.7650418173265
 42
0.4142135623731
 10
-434.9647926213563
 20
551.2650418173266
 42
0.4142135623731
  0
LINE
  5
A8
330
1F
100
AcDbEntity
  8
E-4
  6
Continuous
 62
     7
370
     9
100
AcDbLine
 10
-434.9647926213563
 20
553.2650418173266
 30
0.0
 11
-434.9647926213563
 21
522.3651493711695
 31
0.0
  0
LINE
  5
A9
330
1F
100
AcDbEntity
  8
E-1
  6
Continuous
 62
     2
370
     9
100
AcDbLine
 10
-489.9647884973593
 20
-138.8357338240374
 30
0.0
 11
-489.9647884973593
 21
-132.7355998766134
 31
0.0
  0
LINE
  5
AA
330
1F
100
AcDbEntity
  8
E-1
  6
Continuous
 62
     2
370
     9
100
AcDbLine
 10
-389.9648297373298
 20
-148.8352719363687
 30
0.0
 11
-479.964755505383
 21
-148.8352719363687
 31
0.0
  0
LINE
  5
AB
330
1F
100
AcDbEntity
  8
E-1
  6
Continuous
 62
     2
370
     9
100
AcDbLine
 10
-379.9647967453535
 20
-138.8357338240374
 30
0.0
 11
-379.9647967453535
 21
-132.7355998766134
 31
0.0
  0
LINE
  5
AC
330
1F
100
AcDbEntity
  8
E-1
  6
Continuous
 62
     2
370
     9
100
AcDbLine
 10
-388.9649254140611
 20
-138.8357338240374
 30
0.0
 11
-388.9649254140611
 21
-132.7355998766134
 31
0.0
  0
LINE
  5
AD
330
1F
100
AcDbEntity
  8
E-1
  6
Continuous
 62
     2
370
     9
100
AcDbLine
 10
-479.964755505383
 20
-139.8356381473062
 30
0.0
 11
-389.9648297373298
 21
-139.8356381473062
 31
0.0
  0
LINE
  5
AE
330
1F
100
AcDbEntity
  8
E-1
  6
Continuous
 62
     2
370
     9
100
AcDbLine
 10
-480.9650309883855
 20
-138.8357338240374
 30
0.0
 11
-480.9650309883855
 21
-132.7355998766134
 31
0.0
  0
LINE
  5
AF
330
1F
100
AcDbEntity
  8
E-1
  6
JWW_CENTER1
 62
     2
370
     9
100
AcDbLine
 10
-485.464971602828
 20
-124.6282340879732
 30
0.0
 11
-485.464971602828
 21
-140.225108428134
 31
0.0
  0
LINE
  5
B0
330
1F
100
AcDbEntity
  8
E-1
  6
JWW_CENTER1
 62
     2
370
     9
100
AcDbLine
 10
-477.3020555740063
 20
-132.7355998766134
 30
0.0
 11
-493.7090478934742
 21
-132.7355998766134
 31
0.0
  0
LINE
  5
B1
330
1F
100
AcDbEntity
  8
E-1
  6
JWW_CENTER1
 62
     2
370
     9
100
AcDbLine
 10
-384.4646136398848
 20
-124.6282340879732
 30
0.0
 11
-384.4646136398848
 21
-140.225108428134
 31
0.0
  0
LINE
  5
B2
330
1F
100
AcDbEntity
  8
E-1
  6
JWW_CENTER1
 62
     2
370
     9
100
AcDbLine
 10
-376.3020687707968
 20
-132.7355998766134
 30
0.0
 11
-392.7089373703535
 21
-132.7355998766134
 31
0.0
  0
CIRCLE
  5
B3
330
1F
100
AcDbEntity
  8
E-1
  6
Continuous
 62
     2
370
     9
100
AcDbCircle
 10
-485.464971602828
 20
-132.7355998766134
 30
0.0
 40
4.500000057993709
  0
CIRCLE
  5
B4
330
1F
100
AcDbEntity
  8
E-1
  6
Continuous
 62
     2
370
     9
100
AcDbCircle
 10
-384.4651085195298
 20
-132.7355998766134
 30
0.0
 40
4.500000057993709
  0
ARC
  5
B5
330
1F
100
AcDbEntity
  8
E-1
  6
Continuous
 62
     2
370
     9
100
AcDbCircle
 10
-479.964755505383
 20
-138.8357338240374
 30
0.0
 40
9.9999991623131
100
AcDbArc
 50
180.0
 51
270.0
  0
ARC
  5
B6
330
1F
100
AcDbEntity
  8
E-1
  6
Continuous
 62
     2
370
     9
100
AcDbCircle
 10
-389.9648297373298
 20
-138.8357338240374
 30
0.0
 40
9.9999991623131
100
AcDbArc
 50
270.0
 51
0.0
  0
ARC
  5
B7
330
1F
100
AcDbEntity
  8
E-1
  6
Continuous
 62
     2
370
     9
100
AcDbCircle
 10
-389.9648297373298
 20
-138.8357338240374
 30
0.0
 40
0.9999999524773778
100
AcDbArc
 50
270.0
 51
0.0
  0
ARC
  5
B8
330
1F
100
AcDbEntity
  8
E-1
  6
Continuous
 62
     2
370
     9
100
AcDbCircle
 10
-479.964755505383
 20
-138.8357338240374
 30
0.0
 40
0.9999999524773778
100
AcDbArc
 50
180.0
 51
270.0
  0
LWPOLYLINE
  5
B9
330
1F
100
AcDbEntity
  8
E-4
  6
Continuous
 62
     7
370
     9
100
AcDbPolyline
 90
        4
 70
     1
 43
1.0
 10
-124.4648132413416
 20
551.7650418173265
 42
0.4142135623731
 10
-124.9648132413416
 20
552.2650418173265
 42
0.4142135623731
 10
-125.4648132413416
 20
551.7650418173265
 42
0.4142135623731
 10
-124.9648132413416
 20
551.2650418173266
 42
0.4142135623731
  0
LINE
  5
BA
330
1F
100
AcDbEntity
  8
E-4
  6
Continuous
 62
     7
370
     9
100
AcDbLine
 10
-124.9648132413416
 20
553.2650418173266
 30
0.0
 11
-124.9648132413416
 21
501.7650418173265
 31
0.0
  0
LWPOLYLINE
  5
BB
330
1F
100
AcDbEntity
  8
E-4
  6
Continuous
 62
     7
370
     9
100
AcDbPolyline
 90
        4
 70
     1
 43
1.0
 10
-184.4648256133327
 20
-188.2346695028805
 42
0.4142135623731
 10
-184.9648256133327
 20
-187.7346695028805
 42
0.4142135623731
 10
-185.4648256133327
 20
-188.2346695028805
 42
0.4142135623731
 10
-184.9648256133327
 20
-188.7346695028805
 42
0.4142135623731
  0
LINE
  5
BC
330
1F
100
AcDbEntity
  8
E-4
  6
Continuous
 62
     7
370
     9
100
AcDbLine
 10
-184.9648256133327
 20
-189.7346695028803
 30
0.0
 11
-184.9648256133327
 21
-78.23546131031279
 31
0.0
  0
LWPOLYLINE
  5
BD
330
1F
100
AcDbEntity
  8
E-4
  6
Continuous
 62
     7
370
     9
100
AcDbPolyline
 90
        4
 70
     1
 43
1.0
 10
-134.4647340605984
 20
-228.2346695028805
 42
0.4142135623731
 10
-134.9647340605984
 20
-227.7346695028805
 42
0.4142135623731
 10
-135.4647340605984
 20
-228.2346695028805
 42
0.4142135623731
 10
-134.9647340605984
 20
-228.7346695028805
 42
0.4142135623731
  0
LINE
  5
BE
330
1F
100
AcDbEntity
  8
E-4
  6
Continuous
 62
     7
370
     9
100
AcDbLine
 10
-134.9647340605984
 20
-229.7346695028803
 30
0.0
 11
-134.9647340605984
 21
-128.2351429377411
 31
0.0
  0
LINE
  5
BF
330
1F
100
AcDbEntity
  8
E-4
  6
Continuous
 62
     7
370
     9
100
AcDbLine
 10
-134.9647340605984
 20
-228.2346695028805
 30
0.0
 11
-130.9647340605983
 21
-228.2346695028805
 31
0.0
  0
LWPOLYLINE
  5
C0
330
1F
100
AcDbEntity
  8
E-4
  6
Continuous
 62
     7
370
     9
100
AcDbPolyline
 90
        4
 70
     1
 43
1.0
 10
-130.4647340605983
 20
-228.2346695028805
 42
0.4142135623731
 10
-130.9647340605983
 20
-227.7346695028805
 42
0.4142135623731
 10
-131.4647340605984
 20
-228.2346695028805
 42
0.4142135623731
 10
-130.9647340605983
 20
-228.7346695028805
 42
0.4142135623731
  0
LINE
  5
C1
330
1F
100
AcDbEntity
  8
E-4
  6
Continuous
 62
     7
370
     9
100
AcDbLine
 10
-130.9647340605983
 20
-229.7346695028803
 30
0.0
 11
-130.9647340605983
 21
-132.2346249637124
 31
0.0
  0
LINE
  5
C2
330
1F
100
AcDbEntity
  8
E-4
  6
Continuous
 62
     7
370
     9
100
AcDbLine
 10
-130.9647340605983
 20
-228.2346695028805
 30
0.0
 11
-124.9648132413416
 21
-228.2346695028805
 31
0.0
  0
LWPOLYLINE
  5
C3
330
1F
100
AcDbEntity
  8
E-4
  6
Continuous
 62
     7
370
     9
100
AcDbPolyline
 90
        4
 70
     1
 43
1.0
 10
-124.4648132413416
 20
-228.2346695028805
 42
0.4142135623731
 10
-124.9648132413416
 20
-227.7346695028805
 42
0.4142135623731
 10
-125.4648132413416
 20
-228.2346695028805
 42
0.4142135623731
 10
-124.9648132413416
 20
-228.7346695028805
 42
0.4142135623731
  0
LWPOLYLINE
  5
C4
330
1F
100
AcDbEntity
  8
E-4
  6
Continuous
 62
     7
370
     9
100
AcDbPolyline
 90
        4
 70
     1
 43
1.0
 10
-124.4648132413416
 20
-268.2346695028805
 42
0.4142135623731
 10
-124.9648132413416
 20
-267.7346695028805
 42
0.4142135623731
 10
-125.4648132413416
 20
-268.2346695028805
 42
0.4142135623731
 10
-124.9648132413416
 20
-268.7346695028805
 42
0.4142135623731
  0
LINE
  5
C5
330
1F
100
AcDbEntity
  8
E-4
  6
Continuous
 62
     7
370
     9
100
AcDbLine
 10
-124.9648132413416
 20
-269.7346695028803
 30
0.0
 11
-124.9648132413416
 21
-138.2346695028805
 31
0.0
  0
TEXT
  5
C6
330
1F
100
AcDbEntity
  8
E-4
  6
Continuous
 62
     2
370
   211
100
AcDbText
 10
-117.96477365097
 20
-222.4146695028805
 30
0.0
 40
15.24
  1
6
 41
0.9999999999999998
  7
ＭＳ ゴシック
100
AcDbText
  0
TEXT
  5
C7
330
1F
100
AcDbEntity
  8
E-4
  6
Continuous
 62
     2
370
   211
100
AcDbText
 10
-152.9647340605984
 20
-222.4146695028805
 30
0.0
 40
15.24
  1
4
 41
0.9999999999999998
  7
ＭＳ ゴシック
100
AcDbText
  0
LINE
  5
C8
330
1F
100
AcDbEntity
  8
E-4
  6
Continuous
 62
     7
370
     9
100
AcDbLine
 10
-124.9648132413416
 20
-228.2346695028805
 30
0.0
 11
-107.96477365097
 21
-228.2346695028805
 31
0.0
  0
LINE
  5
C9
330
1F
100
AcDbEntity
  8
E-1
  6
Continuous
 62
     2
370
     9
100
AcDbLine
 10
-124.9648132413416
 20
491.7650418173265
 30
0.0
 11
-124.9648132413416
 21
-128.2346695028805
 31
0.0
  0
LINE
  5
CA
330
1F
100
AcDbEntity
  8
E-1
  6
Continuous
 62
     2
370
     9
100
AcDbLine
 10
-130.9647340605983
 20
485.7648735582472
 30
0.0
 11
-130.9647340605983
 21
-122.2346249637124
 31
0.0
  0
LINE
  5
CB
330
1F
100
AcDbEntity
  8
E-1
  6
JWW_DASHED3
 62
     2
370
     9
100
AcDbLine
 10
-184.9648256133327
 20
431.7658336247591
 30
0.0
 11
-184.9648256133327
 21
-68.23546131031279
 31
0.0
  0
LWPOLYLINE
  5
CC
330
1F
100
AcDbEntity
  8
E-4
  6
Continuous
 62
     7
370
     9
100
AcDbPolyline
 90
        4
 70
     1
 43
1.0
 10
-744.4647720013712
 20
551.7650418173265
 42
0.4142135623731
 10
-744.9647720013712
 20
552.2650418173265
 42
0.4142135623731
 10
-745.4647720013712
 20
551.7650418173265
 42
0.4142135623731
 10
-744.9647720013712
 20
551.2650418173266
 42
0.4142135623731
  0
LINE
  5
CD
330
1F
100
AcDbEntity
  8
E-4
  6
Continuous
 62
     7
370
     9
100
AcDbLine
 10
-744.9647720013712
 20
553.2650418173266
 30
0.0
 11
-744.9647720013712
 21
501.7650418173265
 31
0.0
  0
LWPOLYLINE
  5
CE
330
1F
100
AcDbEntity
  8
E-4
  6
Continuous
 62
     7
370
     9
100
AcDbPolyline
 90
        4
 70
     1
 43
1.0
 10
-684.4646977694243
 20
-188.2346695028805
 42
0.4142135623731
 10
-684.9646977694243
 20
-187.7346695028805
 42
0.4142135623731
 10
-685.4646977694243
 20
-188.2346695028805
 42
0.4142135623731
 10
-684.9646977694243
 20
-188.7346695028805
 42
0.4142135623731
  0
LINE
  5
CF
330
1F
100
AcDbEntity
  8
E-4
  6
Continuous
 62
     7
370
     9
100
AcDbLine
 10
-684.9646977694243
 20
-189.7346695028803
 30
0.0
 11
-684.9646977694243
 21
-78.23546131031279
 31
0.0
  0
LINE
  5
D0
330
1F
100
AcDbEntity
  8
E-4
  6
Continuous
 62
     7
370
     9
100
AcDbLine
 10
-744.9647720013712
 20
-228.2346695028805
 30
0.0
 11
-738.964727462203
 21
-228.2346695028805
 31
0.0
  0
LWPOLYLINE
  5
D1
330
1F
100
AcDbEntity
  8
E-4
  6
Continuous
 62
     7
370
     9
100
AcDbPolyline
 90
        4
 70
     1
 43
1.0
 10
-744.4647720013712
 20
-228.2346695028805
 42
0.4142135623731
 10
-744.9647720013712
 20
-227.7346695028805
 42
0.4142135623731
 10
-745.4647720013712
 20
-228.2346695028805
 42
0.4142135623731
 10
-744.9647720013712
 20
-228.7346695028805
 42
0.4142135623731
  0
LWPOLYLINE
  5
D2
330
1F
100
AcDbEntity
  8
E-4
  6
Continuous
 62
     7
370
     9
100
AcDbPolyline
 90
        4
 70
     1
 43
1.0
 10
-738.464727462203
 20
-228.2346695028805
 42
0.4142135623731
 10
-738.964727462203
 20
-227.7346695028805
 42
0.4142135623731
 10
-739.464727462203
 20
-228.2346695028805
 42
0.4142135623731
 10
-738.964727462203
 20
-228.7346695028805
 42
0.4142135623731
  0
LINE
  5
D3
330
1F
100
AcDbEntity
  8
E-4
  6
Continuous
 62
     7
370
     9
100
AcDbLine
 10
-738.964727462203
 20
-229.7346695028803
 30
0.0
 11
-738.964727462203
 21
-132.2346249637124
 31
0.0
  0
LINE
  5
D4
330
1F
100
AcDbEntity
  8
E-4
  6
Continuous
 62
     7
370
     9
100
AcDbLine
 10
-738.964727462203
 20
-228.2346695028805
 30
0.0
 11
-734.964727462203
 21
-228.2346695028805
 31
0.0
  0
LWPOLYLINE
  5
D5
330
1F
100
AcDbEntity
  8
E-4
  6
Continuous
 62
     7
370
     9
100
AcDbPolyline
 90
        4
 70
     1
 43
1.0
 10
-734.464727462203
 20
-228.2346695028805
 42
0.4142135623731
 10
-734.964727462203
 20
-227.7346695028805
 42
0.4142135623731
 10
-735.4647274622029
 20
-228.2346695028805
 42
0.4142135623731
 10
-734.964727462203
 20
-228.7346695028805
 42
0.4142135623731
  0
LINE
  5
D6
330
1F
100
AcDbEntity
  8
E-4
  6
Continuous
 62
     7
370
     9
100
AcDbLine
 10
-734.964727462203
 20
-229.7346695028803
 30
0.0
 11
-734.964727462203
 21
-128.2351429377411
 31
0.0
  0
LWPOLYLINE
  5
D7
330
1F
100
AcDbEntity
  8
E-4
  6
Continuous
 62
     7
370
     9
100
AcDbPolyline
 90
        4
 70
     1
 43
1.0
 10
-744.4647720013712
 20
-268.2346695028805
 42
0.4142135623731
 10
-744.9647720013712
 20
-267.7346695028805
 42
0.4142135623731
 10
-745.4647720013712
 20
-268.2346695028805
 42
0.4142135623731
 10
-744.9647720013712
 20
-268.7346695028805
 42
0.4142135623731
  0
LINE
  5
D8
330
1F
100
AcDbEntity
  8
E-4
  6
Continuous
 62
     7
370
     9
100
AcDbLine
 10
-744.9647720013712
 20
-269.7346695028803
 30
0.0
 11
-744.9647720013712
 21
-138.2346695028805
 31
0.0
  0
TEXT
  5
D9
330
1F
100
AcDbEntity
  8
E-4
  6
Continuous
 62
     2
370
   211
100
AcDbText
 10
-726.9647274622031
 20
-222.4146695028805
 30
0.0
 40
15.24
  1
4
 41
0.9999999999999998
  7
ＭＳ ゴシック
100
AcDbText
  0
LINE
  5
DA
330
1F
100
AcDbEntity
  8
E-4
  6
Continuous
 62
     7
370
     9
100
AcDbLine
 10
-744.9647720013712
 20
-228.2346695028805
 30
0.0
 11
-761.9647497317872
 21
-228.2346695028805
 31
0.0
  0
LINE
  5
DB
330
1F
100
AcDbEntity
  8
E-1
  6
Continuous
 62
     2
370
     9
100
AcDbLine
 10
-744.9647720013712
 20
-128.2346695028805
 30
0.0
 11
-744.9647720013712
 21
491.7650418173265
 31
0.0
  0
LINE
  5
DC
330
1F
100
AcDbEntity
  8
E-1
  6
Continuous
 62
     2
370
     9
100
AcDbLine
 10
-738.964727462203
 20
-122.2346249637124
 30
0.0
 11
-738.964727462203
 21
485.7648735582472
 31
0.0
  0
LINE
  5
DD
330
1F
100
AcDbEntity
  8
E-1
  6
JWW_DASHED3
 62
     2
370
     9
100
AcDbLine
 10
-684.9646977694243
 20
-68.23546131031279
 30
0.0
 11
-684.9646977694243
 21
431.7658336247591
 31
0.0
  0
LINE
  5
DE
330
1F
100
AcDbEntity
  8
E-1
  6
Continuous
 62
     2
370
     9
100
AcDbLine
 10
-124.9648132413416
 20
491.7650418173265
 30
0.0
 11
-744.9647720013712
 21
491.7650418173265
 31
0.0
  0
LINE
  5
DF
330
1F
100
AcDbEntity
  8
E-1
  6
Continuous
 62
     2
370
     9
100
AcDbLine
 10
-130.9647340605983
 20
485.7648735582472
 30
0.0
 11
-738.964727462203
 21
485.7648735582472
 31
0.0
  0
LINE
  5
E0
330
1F
100
AcDbEntity
  8
E-1
  6
JWW_DASHED3
 62
     2
370
     9
100
AcDbLine
 10
-184.9648256133327
 20
431.7658336247591
 30
0.0
 11
-684.9646977694243
 21
431.7658336247591
 31
0.0
  0
LINE
  5
E1
330
1F
100
AcDbEntity
  8
E-1
  6
Continuous
 62
     2
370
     9
100
AcDbLine
 10
-130.9647340605983
 20
-122.2346249637124
 30
0.0
 11
-738.964727462203
 21
-122.2346249637124
 31
0.0
  0
LINE
  5
E2
330
1F
100
AcDbEntity
  8
E-1
  6
Continuous
 62
     2
370
     9
100
AcDbLine
 10
-124.9648132413416
 20
-128.2346695028805
 30
0.0
 11
-744.9647720013712
 21
-128.2346695028805
 31
0.0
  0
LINE
  5
E3
330
1F
100
AcDbEntity
  8
E-1
  6
JWW_DASHED3
 62
     2
370
     9
100
AcDbLine
 10
-184.9648256133327
 20
-68.23546131031279
 30
0.0
 11
-684.9646977694243
 21
-68.23546131031279
 31
0.0
  0
LINE
  5
E4
330
1F
100
AcDbEntity
  8
E-4
  6
Continuous
 62
     7
370
     9
100
AcDbLine
 10
-744.9647720013712
 20
551.7650418173265
 30
0.0
 11
-434.9647926213563
 21
551.7650418173265
 31
0.0
  0
TEXT
  5
E5
330
1F
100
AcDbEntity
  8
E-4
  6
Continuous
 62
     2
370
   211
100
AcDbText
 10
-606.2147823113637
 20
557.5850418173267
 30
0.0
 40
15.24
  1
310
 41
1.083333333333333
  7
ＭＳ ゴシック
100
AcDbText
  0
LINE
  5
E6
330
1F
100
AcDbEntity
  8
E-4
  6
Continuous
 62
     7
370
     9
100
AcDbLine
 10
-434.9647926213563
 20
551.7650418173265
 30
0.0
 11
-124.9648132413416
 21
551.7650418173265
 31
0.0
  0
TEXT
  5
E7
330
1F
100
AcDbEntity
  8
E-4
  6
Continuous
 62
     2
370
   211
100
AcDbText
 10
-296.214802931349
 20
557.5850418173267
 30
0.0
 40
15.24
  1
310
 41
1.083333333333333
  7
ＭＳ ゴシック
100
AcDbText
  0
LINE
  5
E8
330
1F
100
AcDbEntity
  8
E-4
  6
Continuous
 62
     7
370
     9
100
AcDbLine
 10
-684.9646977694243
 20
-188.2346695028805
 30
0.0
 11
-184.9648256133327
 21
-188.2346695028805
 31
0.0
  0
TEXT
  5
E9
330
1F
100
AcDbEntity
  8
E-4
  6
Continuous
 62
     2
370
   211
100
AcDbText
 10
-451.2147616913786
 20
-182.4146695028805
 30
0.0
 40
15.24
  1
500
 41
1.083333333333333
  7
ＭＳ ゴシック
100
AcDbText
  0
LINE
  5
EA
330
1F
100
AcDbEntity
  8
E-4
  6
Continuous
 62
     7
370
     9
100
AcDbLine
 10
-734.964727462203
 20
-228.2346695028805
 30
0.0
 11
-134.9647340605984
 21
-228.2346695028805
 31
0.0
  0
TEXT
  5
EB
330
1F
100
AcDbEntity
  8
E-4
  6
Continuous
 62
     2
370
   211
100
AcDbText
 10
-451.2147307614007
 20
-222.4146695028805
 30
0.0
 40
15.24
  1
600
 41
1.083333333333333
  7
ＭＳ ゴシック
100
AcDbText
  0
LINE
  5
EC
330
1F
100
AcDbEntity
  8
E-4
  6
Continuous
 62
     7
370
     9
100
AcDbLine
 10
-744.9647720013712
 20
-268.2346695028805
 30
0.0
 11
-124.9648132413416
 21
-268.2346695028805
 31
0.0
  0
TEXT
  5
ED
330
1F
100
AcDbEntity
  8
E-4
  6
Continuous
 62
     2
370
   211
100
AcDbText
 10
-451.2147926213566
 20
-262.4146695028805
 30
0.0
 40
15.24
  1
620
 41
1.083333333333333
  7
ＭＳ ゴシック
100
AcDbText
  0
LINE
  5
EE
330
1F
100
AcDbEntity
  8
E-2
  6
Continuous
 62
     3
370
     9
100
AcDbLine
 10
-734.964727462203
 20
481.764873558247
 30
0.0
 11
-734.964727462203
 21
-118.2351429377411
 31
0.0
  0
LINE
  5
EF
330
1F
100
AcDbEntity
  8
E-2
  6
Continuous
 62
     3
370
     9
100
AcDbLine
 10
-714.9645872463037
 20
-65.23460599332594
 30
0.0
 11
-714.9645872463037
 21
28.76522574759477
 31
0.0
  0
LINE
  5
F0
330
1F
100
AcDbEntity
  8
E-2
  6
Continuous
 62
     3
370
     9
100
AcDbLine
 10
-714.9645872463037
 20
-113.7352023232984
 30
0.0
 11
-714.9645872463037
 21
-71.23477425240523
 31
0.0
  0
LINE
  5
F1
330
1F
100
AcDbEntity
  8
E-2
  6
Continuous
 62
     3
370
     9
100
AcDbLine
 10
-719.9643253724912
 20
-65.23460599332594
 30
0.0
 11
-719.9643253724912
 21
28.76522574759477
 31
0.0
  0
LINE
  5
F2
330
1F
100
AcDbEntity
  8
E-2
  6
Continuous
 62
     3
370
     9
100
AcDbLine
 10
-719.9643253724912
 20
-113.7352023232984
 30
0.0
 11
-719.9643253724912
 21
-71.23477425240523
 31
0.0
  0
LINE
  5
F3
330
1F
100
AcDbEntity
  8
E-2
  6
Continuous
 62
     3
370
     9
100
AcDbLine
 10
-714.9645872463037
 20
34.76539400667406
 30
0.0
 11
-714.9645872463037
 21
128.7652257475948
 31
0.0
  0
LINE
  5
F4
330
1F
100
AcDbEntity
  8
E-2
  6
Continuous
 62
     3
370
     9
100
AcDbLine
 10
-719.9643253724912
 20
34.76539400667406
 30
0.0
 11
-719.9643253724912
 21
128.7652257475948
 31
0.0
  0
LINE
  5
F5
330
1F
100
AcDbEntity
  8
E-2
  6
Continuous
 62
     3
370
     9
100
AcDbLine
 10
-714.9645872463037
 20
134.7651465668515
 30
0.0
 11
-714.9645872463037
 21
228.765060787713
 31
0.0
  0
LINE
  5
F6
330
1F
100
AcDbEntity
  8
E-2
  6
Continuous
 62
     3
370
     9
100
AcDbLine
 10
-719.9643253724912
 20
134.7651465668515
 30
0.0
 11
-719.9643253724912
 21
228.765060787713
 31
0.0
  0
LINE
  5
F7
330
1F
100
AcDbEntity
  8
E-2
  6
Continuous
 62
     3
370
     9
100
AcDbLine
 10
-714.9645872463037
 20
234.7652290467924
 30
0.0
 11
-714.9645872463037
 21
328.7651432676541
 31
0.0
  0
LINE
  5
F8
330
1F
100
AcDbEntity
  8
E-2
  6
Continuous
 62
     3
370
     9
100
AcDbLine
 10
-719.9643253724912
 20
234.7652290467924
 30
0.0
 11
-719.9643253724912
 21
328.7651432676541
 31
0.0
  0
LINE
  5
F9
330
1F
100
AcDbEntity
  8
E-2
  6
Continuous
 62
     3
370
     9
100
AcDbLine
 10
-714.9645872463037
 20
434.7651465668516
 30
0.0
 11
-714.9645872463037
 21
477.2641906243366
 31
0.0
  0
LINE
  5
FA
330
1F
100
AcDbEntity
  8
E-2
  6
Continuous
 62
     3
370
     9
100
AcDbLine
 10
-719.9643253724912
 20
434.7651465668516
 30
0.0
 11
-719.9643253724912
 21
477.2641906243366
 31
0.0
  0
LINE
  5
FB
330
1F
100
AcDbEntity
  8
E-2
  6
Continuous
 62
     3
370
     9
100
AcDbLine
 10
-714.9645872463037
 20
334.7653115267333
 30
0.0
 11
-714.9645872463037
 21
428.7649783077723
 31
0.0
  0
LINE
  5
FC
330
1F
100
AcDbEntity
  8
E-2
  6
Continuous
 62
     3
370
     9
100
AcDbLine
 10
-719.9643253724912
 20
334.7653115267333
 30
0.0
 11
-719.9643253724912
 21
428.7649783077723
 31
0.0
  0
LINE
  5
FD
330
1F
100
AcDbEntity
  8
E-2
  6
Continuous
 62
     3
370
     9
100
AcDbLine
 10
-699.9645872463037
 20
-65.23460599332594
 30
0.0
 11
-699.9645872463037
 21
28.76522574759477
 31
0.0
  0
LINE
  5
FE
330
1F
100
AcDbEntity
  8
E-2
  6
Continuous
 62
     3
370
     9
100
AcDbLine
 10
-699.9645872463037
 20
-113.7352023232984
 30
0.0
 11
-699.9645872463037
 21
-71.23477425240523
 31
0.0
  0
LINE
  5
FF
330
1F
100
AcDbEntity
  8
E-2
  6
Continuous
 62
     3
370
     9
100
AcDbLine
 10
-704.9643253724912
 20
-65.23460599332594
 30
0.0
 11
-704.9643253724912
 21
28.76522574759477
 31
0.0
  0
LINE
  5
100
330
1F
100
AcDbEntity
  8
E-2
  6
Continuous
 62
     3
370
     9
100
AcDbLine
 10
-704.9643253724912
 20
-113.7352023232984
 30
0.0
 11
-704.9643253724912
 21
-71.23477425240523
 31
0.0
  0
LINE
  5
101
330
1F
100
AcDbEntity
  8
E-2
  6
Continuous
 62
     3
370
     9
100
AcDbLine
 10
-699.9645872463037
 20
34.76539400667406
 30
0.0
 11
-699.9645872463037
 21
128.7652257475948
 31
0.0
  0
LINE
  5
102
330
1F
100
AcDbEntity
  8
E-2
  6
Continuous
 62
     3
370
     9
100
AcDbLine
 10
-704.9643253724912
 20
34.76539400667406
 30
0.0
 11
-704.9643253724912
 21
128.7652257475948
 31
0.0
  0
LINE
  5
103
330
1F
100
AcDbEntity
  8
E-2
  6
Continuous
 62
     3
370
     9
100
AcDbLine
 10
-699.9645872463037
 20
134.7651465668515
 30
0.0
 11
-699.9645872463037
 21
228.765060787713
 31
0.0
  0
LINE
  5
104
330
1F
100
AcDbEntity
  8
E-2
  6
Continuous
 62
     3
370
     9
100
AcDbLine
 10
-704.9643253724912
 20
134.7651465668515
 30
0.0
 11
-704.9643253724912
 21
228.765060787713
 31
0.0
  0
LINE
  5
105
330
1F
100
AcDbEntity
  8
E-2
  6
Continuous
 62
     3
370
     9
100
AcDbLine
 10
-699.9645872463037
 20
234.7652290467924
 30
0.0
 11
-699.9645872463037
 21
328.7651432676541
 31
0.0
  0
LINE
  5
106
330
1F
100
AcDbEntity
  8
E-2
  6
Continuous
 62
     3
370
     9
100
AcDbLine
 10
-704.9643253724912
 20
234.7652290467924
 30
0.0
 11
-704.9643253724912
 21
328.7651432676541
 31
0.0
  0
LINE
  5
107
330
1F
100
AcDbEntity
  8
E-2
  6
Continuous
 62
     3
370
     9
100
AcDbLine
 10
-699.9645872463037
 20
434.7651465668516
 30
0.0
 11
-699.9645872463037
 21
477.2641906243366
 31
0.0
  0
LINE
  5
108
330
1F
100
AcDbEntity
  8
E-2
  6
Continuous
 62
     3
370
     9
100
AcDbLine
 10
-704.9643253724912
 20
434.7651465668516
 30
0.0
 11
-704.9643253724912
 21
477.2641906243366
 31
0.0
  0
LINE
  5
109
330
1F
100
AcDbEntity
  8
E-2
  6
Continuous
 62
     3
370
     9
100
AcDbLine
 10
-699.9645872463037
 20
334.7653115267333
 30
0.0
 11
-699.9645872463037
 21
428.7649783077723
 31
0.0
  0
LINE
  5
10A
330
1F
100
AcDbEntity
  8
E-2
  6
Continuous
 62
     3
370
     9
100
AcDbLine
 10
-704.9643253724912
 20
334.7653115267333
 30
0.0
 11
-704.9643253724912
 21
428.7649783077723
 31
0.0
  0
LINE
  5
10B
330
1F
100
AcDbEntity
  8
E-2
  6
Continuous
 62
     3
370
     9
100
AcDbLine
 10
-684.9645872463037
 20
-65.23460599332594
 30
0.0
 11
-684.9645872463037
 21
28.76522574759477
 31
0.0
  0
LINE
  5
10C
330
1F
100
AcDbEntity
  8
E-2
  6
Continuous
 62
     3
370
     9
100
AcDbLine
 10
-684.9645872463037
 20
-113.7352023232984
 30
0.0
 11
-684.9645872463037
 21
-71.23477425240523
 31
0.0
  0
LINE
  5
10D
330
1F
100
AcDbEntity
  8
E-2
  6
Continuous
 62
     3
370
     9
100
AcDbLine
 10
-689.9643253724912
 20
-65.23460599332594
 30
0.0
 11
-689.9643253724912
 21
28.76522574759477
 31
0.0
  0
LINE
  5
10E
330
1F
100
AcDbEntity
  8
E-2
  6
Continuous
 62
     3
370
     9
100
AcDbLine
 10
-689.9643253724912
 20
-113.7352023232984
 30
0.0
 11
-689.9643253724912
 21
-71.23477425240523
 31
0.0
  0
LINE
  5
10F
330
1F
100
AcDbEntity
  8
E-2
  6
Continuous
 62
     3
370
     9
100
AcDbLine
 10
-684.9645872463037
 20
34.76539400667406
 30
0.0
 11
-684.9645872463037
 21
128.7652257475948
 31
0.0
  0
LINE
  5
110
330
1F
100
AcDbEntity
  8
E-2
  6
Continuous
 62
     3
370
     9
100
AcDbLine
 10
-689.9643253724912
 20
34.76539400667406
 30
0.0
 11
-689.9643253724912
 21
128.7652257475948
 31
0.0
  0
LINE
  5
111
330
1F
100
AcDbEntity
  8
E-2
  6
Continuous
 62
     3
370
     9
100
AcDbLine
 10
-684.9645872463037
 20
134.7651465668515
 30
0.0
 11
-684.9645872463037
 21
228.765060787713
 31
0.0
  0
LINE
  5
112
330
1F
100
AcDbEntity
  8
E-2
  6
Continuous
 62
     3
370
     9
100
AcDbLine
 10
-689.9643253724912
 20
134.7651465668515
 30
0.0
 11
-689.9643253724912
 21
228.765060787713
 31
0.0
  0
LINE
  5
113
330
1F
100
AcDbEntity
  8
E-2
  6
Continuous
 62
     3
370
     9
100
AcDbLine
 10
-684.9645872463037
 20
234.7652290467924
 30
0.0
 11
-684.9645872463037
 21
328.7651432676541
 31
0.0
  0
LINE
  5
114
330
1F
100
AcDbEntity
  8
E-2
  6
Continuous
 62
     3
370
     9
100
AcDbLine
 10
-689.9643253724912
 20
234.7652290467924
 30
0.0
 11
-689.9643253724912
 21
328.7651432676541
 31
0.0
  0
LINE
  5
115
330
1F
100
AcDbEntity
  8
E-2
  6
Continuous
 62
     3
370
     9
100
AcDbLine
 10
-684.9645872463037
 20
434.7651465668516
 30
0.0
 11
-684.9645872463037
 21
477.2641906243366
 31
0.0
  0
LINE
  5
116
330
1F
100
AcDbEntity
  8
E-2
  6
Continuous
 62
     3
370
     9
100
AcDbLine
 10
-689.9643253724912
 20
434.7651465668516
 30
0.0
 11
-689.9643253724912
 21
477.2641906243366
 31
0.0
  0
LINE
  5
117
330
1F
100
AcDbEntity
  8
E-2
  6
Continuous
 62
     3
370
     9
100
AcDbLine
 10
-684.9645872463037
 20
334.7653115267333
 30
0.0
 11
-684.9645872463037
 21
428.7649783077723
 31
0.0
  0
LINE
  5
118
330
1F
100
AcDbEntity
  8
E-2
  6
Continuous
 62
     3
370
     9
100
AcDbLine
 10
-689.9643253724912
 20
334.7653115267333
 30
0.0
 11
-689.9643253724912
 21
428.7649783077723
 31
0.0
  0
LINE
  5
119
330
1F
100
AcDbEntity
  8
E-2
  6
Continuous
 62
     3
370
     9
100
AcDbLine
 10
-669.9645872463037
 20
-65.23460599332594
 30
0.0
 11
-669.9645872463037
 21
28.76522574759477
 31
0.0
  0
LINE
  5
11A
330
1F
100
AcDbEntity
  8
E-2
  6
Continuous
 62
     3
370
     9
100
AcDbLine
 10
-669.9645872463037
 20
-113.7352023232984
 30
0.0
 11
-669.9645872463037
 21
-71.23477425240523
 31
0.0
  0
LINE
  5
11B
330
1F
100
AcDbEntity
  8
E-2
  6
Continuous
 62
     3
370
     9
100
AcDbLine
 10
-674.9643253724912
 20
-65.23460599332594
 30
0.0
 11
-674.9643253724912
 21
28.76522574759477
 31
0.0
  0
LINE
  5
11C
330
1F
100
AcDbEntity
  8
E-2
  6
Continuous
 62
     3
370
     9
100
AcDbLine
 10
-674.9643253724912
 20
-113.7352023232984
 30
0.0
 11
-674.9643253724912
 21
-71.23477425240523
 31
0.0
  0
LINE
  5
11D
330
1F
100
AcDbEntity
  8
E-2
  6
Continuous
 62
     3
370
     9
100
AcDbLine
 10
-669.9645872463037
 20
34.76539400667406
 30
0.0
 11
-669.9645872463037
 21
128.7652257475948
 31
0.0
  0
LINE
  5
11E
330
1F
100
AcDbEntity
  8
E-2
  6
Continuous
 62
     3
370
     9
100
AcDbLine
 10
-674.9643253724912
 20
34.76539400667406
 30
0.0
 11
-674.9643253724912
 21
128.7652257475948
 31
0.0
  0
LINE
  5
11F
330
1F
100
AcDbEntity
  8
E-2
  6
Continuous
 62
     3
370
     9
100
AcDbLine
 10
-669.9645872463037
 20
134.7651465668515
 30
0.0
 11
-669.9645872463037
 21
228.765060787713
 31
0.0
  0
LINE
  5
120
330
1F
100
AcDbEntity
  8
E-2
  6
Continuous
 62
     3
370
     9
100
AcDbLine
 10
-674.9643253724912
 20
134.7651465668515
 30
0.0
 11
-674.9643253724912
 21
228.765060787713
 31
0.0
  0
LINE
  5
121
330
1F
100
AcDbEntity
  8
E-2
  6
Continuous
 62
     3
370
     9
100
AcDbLine
 10
-669.9645872463037
 20
234.7652290467924
 30
0.0
 11
-669.9645872463037
 21
328.7651432676541
 31
0.0
  0
LINE
  5
122
330
1F
100
AcDbEntity
  8
E-2
  6
Continuous
 62
     3
370
     9
100
AcDbLine
 10
-674.9643253724912
 20
234.7652290467924
 30
0.0
 11
-674.9643253724912
 21
328.7651432676541
 31
0.0
  0
LINE
  5
123
330
1F
100
AcDbEntity
  8
E-2
  6
Continuous
 62
     3
370
     9
100
AcDbLine
 10
-669.9645872463037
 20
434.7651465668516
 30
0.0
 11
-669.9645872463037
 21
477.2641906243366
 31
0.0
  0
LINE
  5
124
330
1F
100
AcDbEntity
  8
E-2
  6
Continuous
 62
     3
370
     9
100
AcDbLine
 10
-674.9643253724912
 20
434.7651465668516
 30
0.0
 11
-674.9643253724912
 21
477.2641906243366
 31
0.0
  0
LINE
  5
125
330
1F
100
AcDbEntity
  8
E-2
  6
Continuous
 62
     3
370
     9
100
AcDbLine
 10
-669.9645872463037
 20
334.7653115267333
 30
0.0
 11
-669.9645872463037
 21
428.7649783077723
 31
0.0
  0
LINE
  5
126
330
1F
100
AcDbEntity
  8
E-2
  6
Continuous
 62
     3
370
     9
100
AcDbLine
 10
-674.9643253724912
 20
334.7653115267333
 30
0.0
 11
-674.9643253724912
 21
428.7649783077723
 31
0.0
  0
LINE
  5
127
330
1F
100
AcDbEntity
  8
E-2
  6
Continuous
 62
     3
370
     9
100
AcDbLine
 10
-654.9645872463037
 20
-65.23460599332594
 30
0.0
 11
-654.9645872463037
 21
28.76522574759477
 31
0.0
  0
LINE
  5
128
330
1F
100
AcDbEntity
  8
E-2
  6
Continuous
 62
     3
370
     9
100
AcDbLine
 10
-654.9645872463037
 20
-113.7352023232984
 30
0.0
 11
-654.9645872463037
 21
-71.23477425240523
 31
0.0
  0
LINE
  5
129
330
1F
100
AcDbEntity
  8
E-2
  6
Continuous
 62
     3
370
     9
100
AcDbLine
 10
-659.9643253724912
 20
-65.23460599332594
 30
0.0
 11
-659.9643253724912
 21
28.76522574759477
 31
0.0
  0
LINE
  5
12A
330
1F
100
AcDbEntity
  8
E-2
  6
Continuous
 62
     3
370
     9
100
AcDbLine
 10
-659.9643253724912
 20
-113.7352023232984
 30
0.0
 11
-659.9643253724912
 21
-71.23477425240523
 31
0.0
  0
LINE
  5
12B
330
1F
100
AcDbEntity
  8
E-2
  6
Continuous
 62
     3
370
     9
100
AcDbLine
 10
-654.9645872463037
 20
34.76539400667406
 30
0.0
 11
-654.9645872463037
 21
128.7652257475948
 31
0.0
  0
LINE
  5
12C
330
1F
100
AcDbEntity
  8
E-2
  6
Continuous
 62
     3
370
     9
100
AcDbLine
 10
-659.9643253724912
 20
34.76539400667406
 30
0.0
 11
-659.9643253724912
 21
128.7652257475948
 31
0.0
  0
LINE
  5
12D
330
1F
100
AcDbEntity
  8
E-2
  6
Continuous
 62
     3
370
     9
100
AcDbLine
 10
-654.9645872463037
 20
134.7651465668515
 30
0.0
 11
-654.9645872463037
 21
228.765060787713
 31
0.0
  0
LINE
  5
12E
330
1F
100
AcDbEntity
  8
E-2
  6
Continuous
 62
     3
370
     9
100
AcDbLine
 10
-659.9643253724912
 20
134.7651465668515
 30
0.0
 11
-659.9643253724912
 21
228.765060787713
 31
0.0
  0
LINE
  5
12F
330
1F
100
AcDbEntity
  8
E-2
  6
Continuous
 62
     3
370
     9
100
AcDbLine
 10
-654.9645872463037
 20
234.7652290467924
 30
0.0
 11
-654.9645872463037
 21
328.7651432676541
 31
0.0
  0
LINE
  5
130
330
1F
100
AcDbEntity
  8
E-2
  6
Continuous
 62
     3
370
     9
100
AcDbLine
 10
-659.9643253724912
 20
234.7652290467924
 30
0.0
 11
-659.9643253724912
 21
328.7651432676541
 31
0.0
  0
LINE
  5
131
330
1F
100
AcDbEntity
  8
E-2
  6
Continuous
 62
     3
370
     9
100
AcDbLine
 10
-654.9645872463037
 20
434.7651465668516
 30
0.0
 11
-654.9645872463037
 21
477.2641906243366
 31
0.0
  0
LINE
  5
132
330
1F
100
AcDbEntity
  8
E-2
  6
Continuous
 62
     3
370
     9
100
AcDbLine
 10
-659.9643253724912
 20
434.7651465668516
 30
0.0
 11
-659.9643253724912
 21
477.2641906243366
 31
0.0
  0
LINE
  5
133
330
1F
100
AcDbEntity
  8
E-2
  6
Continuous
 62
     3
370
     9
100
AcDbLine
 10
-654.9645872463037
 20
334.7653115267333
 30
0.0
 11
-654.9645872463037
 21
428.7649783077723
 31
0.0
  0
LINE
  5
134
330
1F
100
AcDbEntity
  8
E-2
  6
Continuous
 62
     3
370
     9
100
AcDbLine
 10
-659.9643253724912
 20
334.7653115267333
 30
0.0
 11
-659.9643253724912
 21
428.7649783077723
 31
0.0
  0
LINE
  5
135
330
1F
100
AcDbEntity
  8
E-2
  6
Continuous
 62
     3
370
     9
100
AcDbLine
 10
-639.9645872463036
 20
-65.23460599332594
 30
0.0
 11
-639.9645872463036
 21
28.76522574759477
 31
0.0
  0
LINE
  5
136
330
1F
100
AcDbEntity
  8
E-2
  6
Continuous
 62
     3
370
     9
100
AcDbLine
 10
-639.9645872463036
 20
-113.7352023232984
 30
0.0
 11
-639.9645872463036
 21
-71.23477425240523
 31
0.0
  0
LINE
  5
137
330
1F
100
AcDbEntity
  8
E-2
  6
Continuous
 62
     3
370
     9
100
AcDbLine
 10
-644.9643253724912
 20
-65.23460599332594
 30
0.0
 11
-644.9643253724912
 21
28.76522574759477
 31
0.0
  0
LINE
  5
138
330
1F
100
AcDbEntity
  8
E-2
  6
Continuous
 62
     3
370
     9
100
AcDbLine
 10
-644.9643253724912
 20
-113.7352023232984
 30
0.0
 11
-644.9643253724912
 21
-71.23477425240523
 31
0.0
  0
LINE
  5
139
330
1F
100
AcDbEntity
  8
E-2
  6
Continuous
 62
     3
370
     9
100
AcDbLine
 10
-639.9645872463036
 20
34.76539400667406
 30
0.0
 11
-639.9645872463036
 21
128.7652257475948
 31
0.0
  0
LINE
  5
13A
330
1F
100
AcDbEntity
  8
E-2
  6
Continuous
 62
     3
370
     9
100
AcDbLine
 10
-644.9643253724912
 20
34.76539400667406
 30
0.0
 11
-644.9643253724912
 21
128.7652257475948
 31
0.0
  0
LINE
  5
13B
330
1F
100
AcDbEntity
  8
E-2
  6
Continuous
 62
     3
370
     9
100
AcDbLine
 10
-639.9645872463036
 20
134.7651465668515
 30
0.0
 11
-639.9645872463036
 21
228.765060787713
 31
0.0
  0
LINE
  5
13C
330
1F
100
AcDbEntity
  8
E-2
  6
Continuous
 62
     3
370
     9
100
AcDbLine
 10
-644.9643253724912
 20
134.7651465668515
 30
0.0
 11
-644.9643253724912
 21
228.765060787713
 31
0.0
  0
LINE
  5
13D
330
1F
100
AcDbEntity
  8
E-2
  6
Continuous
 62
     3
370
     9
100
AcDbLine
 10
-639.9645872463036
 20
234.7652290467924
 30
0.0
 11
-639.9645872463036
 21
328.7651432676541
 31
0.0
  0
LINE
  5
13E
330
1F
100
AcDbEntity
  8
E-2
  6
Continuous
 62
     3
370
     9
100
AcDbLine
 10
-644.9643253724912
 20
234.7652290467924
 30
0.0
 11
-644.9643253724912
 21
328.7651432676541
 31
0.0
  0
LINE
  5
13F
330
1F
100
AcDbEntity
  8
E-2
  6
Continuous
 62
     3
370
     9
100
AcDbLine
 10
-639.9645872463036
 20
434.7651465668516
 30
0.0
 11
-639.9645872463036
 21
477.2641906243366
 31
0.0
  0
LINE
  5
140
330
1F
100
AcDbEntity
  8
E-2
  6
Continuous
 62
     3
370
     9
100
AcDbLine
 10
-644.9643253724912
 20
434.7651465668516
 30
0.0
 11
-644.9643253724912
 21
477.2641906243366
 31
0.0
  0
LINE
  5
141
330
1F
100
AcDbEntity
  8
E-2
  6
Continuous
 62
     3
370
     9
100
AcDbLine
 10
-639.9645872463036
 20
334.7653115267333
 30
0.0
 11
-639.9645872463036
 21
428.7649783077723
 31
0.0
  0
LINE
  5
142
330
1F
100
AcDbEntity
  8
E-2
  6
Continuous
 62
     3
370
     9
100
AcDbLine
 10
-644.9643253724912
 20
334.7653115267333
 30
0.0
 11
-644.9643253724912
 21
428.7649783077723
 31
0.0
  0
LINE
  5
143
330
1F
100
AcDbEntity
  8
E-2
  6
Continuous
 62
     3
370
     9
100
AcDbLine
 10
-624.9645872463036
 20
-65.23460599332594
 30
0.0
 11
-624.9645872463036
 21
28.76522574759477
 31
0.0
  0
LINE
  5
144
330
1F
100
AcDbEntity
  8
E-2
  6
Continuous
 62
     3
370
     9
100
AcDbLine
 10
-624.9645872463036
 20
-113.7352023232984
 30
0.0
 11
-624.9645872463036
 21
-71.23477425240523
 31
0.0
  0
LINE
  5
145
330
1F
100
AcDbEntity
  8
E-2
  6
Continuous
 62
     3
370
     9
100
AcDbLine
 10
-629.9643253724913
 20
-65.23460599332594
 30
0.0
 11
-629.9643253724913
 21
28.76522574759477
 31
0.0
  0
LINE
  5
146
330
1F
100
AcDbEntity
  8
E-2
  6
Continuous
 62
     3
370
     9
100
AcDbLine
 10
-629.9643253724913
 20
-113.7352023232984
 30
0.0
 11
-629.9643253724913
 21
-71.23477425240523
 31
0.0
  0
LINE
  5
147
330
1F
100
AcDbEntity
  8
E-2
  6
Continuous
 62
     3
370
     9
100
AcDbLine
 10
-624.9645872463036
 20
34.76539400667406
 30
0.0
 11
-624.9645872463036
 21
128.7652257475948
 31
0.0
  0
LINE
  5
148
330
1F
100
AcDbEntity
  8
E-2
  6
Continuous
 62
     3
370
     9
100
AcDbLine
 10
-629.9643253724913
 20
34.76539400667406
 30
0.0
 11
-629.9643253724913
 21
128.7652257475948
 31
0.0
  0
LINE
  5
149
330
1F
100
AcDbEntity
  8
E-2
  6
Continuous
 62
     3
370
     9
100
AcDbLine
 10
-624.9645872463036
 20
134.7651465668515
 30
0.0
 11
-624.9645872463036
 21
228.765060787713
 31
0.0
  0
LINE
  5
14A
330
1F
100
AcDbEntity
  8
E-2
  6
Continuous
 62
     3
370
     9
100
AcDbLine
 10
-629.9643253724913
 20
134.7651465668515
 30
0.0
 11
-629.9643253724913
 21
228.765060787713
 31
0.0
  0
LINE
  5
14B
330
1F
100
AcDbEntity
  8
E-2
  6
Continuous
 62
     3
370
     9
100
AcDbLine
 10
-624.9645872463036
 20
234.7652290467924
 30
0.0
 11
-624.9645872463036
 21
328.7651432676541
 31
0.0
  0
LINE
  5
14C
330
1F
100
AcDbEntity
  8
E-2
  6
Continuous
 62
     3
370
     9
100
AcDbLine
 10
-629.9643253724913
 20
234.7652290467924
 30
0.0
 11
-629.9643253724913
 21
328.7651432676541
 31
0.0
  0
LINE
  5
14D
330
1F
100
AcDbEntity
  8
E-2
  6
Continuous
 62
     3
370
     9
100
AcDbLine
 10
-624.9645872463036
 20
434.7651465668516
 30
0.0
 11
-624.9645872463036
 21
477.2641906243366
 31
0.0
  0
LINE
  5
14E
330
1F
100
AcDbEntity
  8
E-2
  6
Continuous
 62
     3
370
     9
100
AcDbLine
 10
-629.9643253724913
 20
434.7651465668516
 30
0.0
 11
-629.9643253724913
 21
477.2641906243366
 31
0.0
  0
LINE
  5
14F
330
1F
100
AcDbEntity
  8
E-2
  6
Continuous
 62
     3
370
     9
100
AcDbLine
 10
-624.9645872463036
 20
334.7653115267333
 30
0.0
 11
-624.9645872463036
 21
428.7649783077723
 31
0.0
  0
LINE
  5
150
330
1F
100
AcDbEntity
  8
E-2
  6
Continuous
 62
     3
370
     9
100
AcDbLine
 10
-629.9643253724913
 20
334.7653115267333
 30
0.0
 11
-629.9643253724913
 21
428.7649783077723
 31
0.0
  0
LINE
  5
151
330
1F
100
AcDbEntity
  8
E-2
  6
Continuous
 62
     3
370
     9
100
AcDbLine
 10
-609.9645872463036
 20
-65.23460599332594
 30
0.0
 11
-609.9645872463036
 21
28.76522574759477
 31
0.0
  0
LINE
  5
152
330
1F
100
AcDbEntity
  8
E-2
  6
Continuous
 62
     3
370
     9
100
AcDbLine
 10
-609.9645872463036
 20
-113.7352023232984
 30
0.0
 11
-609.9645872463036
 21
-71.23477425240523
 31
0.0
  0
LINE
  5
153
330
1F
100
AcDbEntity
  8
E-2
  6
Continuous
 62
     3
370
     9
100
AcDbLine
 10
-614.9643253724913
 20
-65.23460599332594
 30
0.0
 11
-614.9643253724913
 21
28.76522574759477
 31
0.0
  0
LINE
  5
154
330
1F
100
AcDbEntity
  8
E-2
  6
Continuous
 62
     3
370
     9
100
AcDbLine
 10
-614.9643253724913
 20
-113.7352023232984
 30
0.0
 11
-614.9643253724913
 21
-71.23477425240523
 31
0.0
  0
LINE
  5
155
330
1F
100
AcDbEntity
  8
E-2
  6
Continuous
 62
     3
370
     9
100
AcDbLine
 10
-609.9645872463036
 20
34.76539400667406
 30
0.0
 11
-609.9645872463036
 21
128.7652257475948
 31
0.0
  0
LINE
  5
156
330
1F
100
AcDbEntity
  8
E-2
  6
Continuous
 62
     3
370
     9
100
AcDbLine
 10
-614.9643253724913
 20
34.76539400667406
 30
0.0
 11
-614.9643253724913
 21
128.7652257475948
 31
0.0
  0
LINE
  5
157
330
1F
100
AcDbEntity
  8
E-2
  6
Continuous
 62
     3
370
     9
100
AcDbLine
 10
-609.9645872463036
 20
134.7651465668515
 30
0.0
 11
-609.9645872463036
 21
228.765060787713
 31
0.0
  0
LINE
  5
158
330
1F
100
AcDbEntity
  8
E-2
  6
Continuous
 62
     3
370
     9
100
AcDbLine
 10
-614.9643253724913
 20
134.7651465668515
 30
0.0
 11
-614.9643253724913
 21
228.765060787713
 31
0.0
  0
LINE
  5
159
330
1F
100
AcDbEntity
  8
E-2
  6
Continuous
 62
     3
370
     9
100
AcDbLine
 10
-609.9645872463036
 20
234.7652290467924
 30
0.0
 11
-609.9645872463036
 21
328.7651432676541
 31
0.0
  0
LINE
  5
15A
330
1F
100
AcDbEntity
  8
E-2
  6
Continuous
 62
     3
370
     9
100
AcDbLine
 10
-614.9643253724913
 20
234.7652290467924
 30
0.0
 11
-614.9643253724913
 21
328.7651432676541
 31
0.0
  0
LINE
  5
15B
330
1F
100
AcDbEntity
  8
E-2
  6
Continuous
 62
     3
370
     9
100
AcDbLine
 10
-609.9645872463036
 20
434.7651465668516
 30
0.0
 11
-609.9645872463036
 21
477.2641906243366
 31
0.0
  0
LINE
  5
15C
330
1F
100
AcDbEntity
  8
E-2
  6
Continuous
 62
     3
370
     9
100
AcDbLine
 10
-614.9643253724913
 20
434.7651465668516
 30
0.0
 11
-614.9643253724913
 21
477.2641906243366
 31
0.0
  0
LINE
  5
15D
330
1F
100
AcDbEntity
  8
E-2
  6
Continuous
 62
     3
370
     9
100
AcDbLine
 10
-609.9645872463036
 20
334.7653115267333
 30
0.0
 11
-609.9645872463036
 21
428.7649783077723
 31
0.0
  0
LINE
  5
15E
330
1F
100
AcDbEntity
  8
E-2
  6
Continuous
 62
     3
370
     9
100
AcDbLine
 10
-614.9643253724913
 20
334.7653115267333
 30
0.0
 11
-614.9643253724913
 21
428.7649783077723
 31
0.0
  0
LINE
  5
15F
330
1F
100
AcDbEntity
  8
E-2
  6
Continuous
 62
     3
370
     9
100
AcDbLine
 10
-594.9645872463036
 20
-65.23460599332594
 30
0.0
 11
-594.9645872463036
 21
28.76522574759477
 31
0.0
  0
LINE
  5
160
330
1F
100
AcDbEntity
  8
E-2
  6
Continuous
 62
     3
370
     9
100
AcDbLine
 10
-594.9645872463036
 20
-113.7352023232984
 30
0.0
 11
-594.9645872463036
 21
-71.23477425240523
 31
0.0
  0
LINE
  5
161
330
1F
100
AcDbEntity
  8
E-2
  6
Continuous
 62
     3
370
     9
100
AcDbLine
 10
-599.9643253724913
 20
-65.23460599332594
 30
0.0
 11
-599.9643253724913
 21
28.76522574759477
 31
0.0
  0
LINE
  5
162
330
1F
100
AcDbEntity
  8
E-2
  6
Continuous
 62
     3
370
     9
100
AcDbLine
 10
-599.9643253724913
 20
-113.7352023232984
 30
0.0
 11
-599.9643253724913
 21
-71.23477425240523
 31
0.0
  0
LINE
  5
163
330
1F
100
AcDbEntity
  8
E-2
  6
Continuous
 62
     3
370
     9
100
AcDbLine
 10
-594.9645872463036
 20
34.76539400667406
 30
0.0
 11
-594.9645872463036
 21
128.7652257475948
 31
0.0
  0
LINE
  5
164
330
1F
100
AcDbEntity
  8
E-2
  6
Continuous
 62
     3
370
     9
100
AcDbLine
 10
-599.9643253724913
 20
34.76539400667406
 30
0.0
 11
-599.9643253724913
 21
128.7652257475948
 31
0.0
  0
LINE
  5
165
330
1F
100
AcDbEntity
  8
E-2
  6
Continuous
 62
     3
370
     9
100
AcDbLine
 10
-594.9645872463036
 20
134.7651465668515
 30
0.0
 11
-594.9645872463036
 21
228.765060787713
 31
0.0
  0
LINE
  5
166
330
1F
100
AcDbEntity
  8
E-2
  6
Continuous
 62
     3
370
     9
100
AcDbLine
 10
-599.9643253724913
 20
134.7651465668515
 30
0.0
 11
-599.9643253724913
 21
228.765060787713
 31
0.0
  0
LINE
  5
167
330
1F
100
AcDbEntity
  8
E-2
  6
Continuous
 62
     3
370
     9
100
AcDbLine
 10
-594.9645872463036
 20
234.7652290467924
 30
0.0
 11
-594.9645872463036
 21
328.7651432676541
 31
0.0
  0
LINE
  5
168
330
1F
100
AcDbEntity
  8
E-2
  6
Continuous
 62
     3
370
     9
100
AcDbLine
 10
-599.9643253724913
 20
234.7652290467924
 30
0.0
 11
-599.9643253724913
 21
328.7651432676541
 31
0.0
  0
LINE
  5
169
330
1F
100
AcDbEntity
  8
E-2
  6
Continuous
 62
     3
370
     9
100
AcDbLine
 10
-594.9645872463036
 20
434.7651465668516
 30
0.0
 11
-594.9645872463036
 21
477.2641906243366
 31
0.0
  0
LINE
  5
16A
330
1F
100
AcDbEntity
  8
E-2
  6
Continuous
 62
     3
370
     9
100
AcDbLine
 10
-599.9643253724913
 20
434.7651465668516
 30
0.0
 11
-599.9643253724913
 21
477.2641906243366
 31
0.0
  0
LINE
  5
16B
330
1F
100
AcDbEntity
  8
E-2
  6
Continuous
 62
     3
370
     9
100
AcDbLine
 10
-594.9645872463036
 20
334.7653115267333
 30
0.0
 11
-594.9645872463036
 21
428.7649783077723
 31
0.0
  0
LINE
  5
16C
330
1F
100
AcDbEntity
  8
E-2
  6
Continuous
 62
     3
370
     9
100
AcDbLine
 10
-599.9643253724913
 20
334.7653115267333
 30
0.0
 11
-599.9643253724913
 21
428.7649783077723
 31
0.0
  0
LINE
  5
16D
330
1F
100
AcDbEntity
  8
E-2
  6
Continuous
 62
     3
370
     9
100
AcDbLine
 10
-579.9645872463036
 20
-65.23460599332594
 30
0.0
 11
-579.9645872463036
 21
28.76522574759477
 31
0.0
  0
LINE
  5
16E
330
1F
100
AcDbEntity
  8
E-2
  6
Continuous
 62
     3
370
     9
100
AcDbLine
 10
-579.9645872463036
 20
-113.7352023232984
 30
0.0
 11
-579.9645872463036
 21
-71.23477425240523
 31
0.0
  0
LINE
  5
16F
330
1F
100
AcDbEntity
  8
E-2
  6
Continuous
 62
     3
370
     9
100
AcDbLine
 10
-584.9643253724913
 20
-65.23460599332594
 30
0.0
 11
-584.9643253724913
 21
28.76522574759477
 31
0.0
  0
LINE
  5
170
330
1F
100
AcDbEntity
  8
E-2
  6
Continuous
 62
     3
370
     9
100
AcDbLine
 10
-584.9643253724913
 20
-113.7352023232984
 30
0.0
 11
-584.9643253724913
 21
-71.23477425240523
 31
0.0
  0
LINE
  5
171
330
1F
100
AcDbEntity
  8
E-2
  6
Continuous
 62
     3
370
     9
100
AcDbLine
 10
-579.9645872463036
 20
34.76539400667406
 30
0.0
 11
-579.9645872463036
 21
128.7652257475948
 31
0.0
  0
LINE
  5
172
330
1F
100
AcDbEntity
  8
E-2
  6
Continuous
 62
     3
370
     9
100
AcDbLine
 10
-584.9643253724913
 20
34.76539400667406
 30
0.0
 11
-584.9643253724913
 21
128.7652257475948
 31
0.0
  0
LINE
  5
173
330
1F
100
AcDbEntity
  8
E-2
  6
Continuous
 62
     3
370
     9
100
AcDbLine
 10
-579.9645872463036
 20
134.7651465668515
 30
0.0
 11
-579.9645872463036
 21
228.765060787713
 31
0.0
  0
LINE
  5
174
330
1F
100
AcDbEntity
  8
E-2
  6
Continuous
 62
     3
370
     9
100
AcDbLine
 10
-584.9643253724913
 20
134.7651465668515
 30
0.0
 11
-584.9643253724913
 21
228.765060787713
 31
0.0
  0
LINE
  5
175
330
1F
100
AcDbEntity
  8
E-2
  6
Continuous
 62
     3
370
     9
100
AcDbLine
 10
-579.9645872463036
 20
234.7652290467924
 30
0.0
 11
-579.9645872463036
 21
328.7651432676541
 31
0.0
  0
LINE
  5
176
330
1F
100
AcDbEntity
  8
E-2
  6
Continuous
 62
     3
370
     9
100
AcDbLine
 10
-584.9643253724913
 20
234.7652290467924
 30
0.0
 11
-584.9643253724913
 21
328.7651432676541
 31
0.0
  0
LINE
  5
177
330
1F
100
AcDbEntity
  8
E-2
  6
Continuous
 62
     3
370
     9
100
AcDbLine
 10
-579.9645872463036
 20
434.7651465668516
 30
0.0
 11
-579.9645872463036
 21
477.2641906243366
 31
0.0
  0
LINE
  5
178
330
1F
100
AcDbEntity
  8
E-2
  6
Continuous
 62
     3
370
     9
100
AcDbLine
 10
-584.9643253724913
 20
434.7651465668516
 30
0.0
 11
-584.9643253724913
 21
477.2641906243366
 31
0.0
  0
LINE
  5
179
330
1F
100
AcDbEntity
  8
E-2
  6
Continuous
 62
     3
370
     9
100
AcDbLine
 10
-579.9645872463036
 20
334.7653115267333
 30
0.0
 11
-579.9645872463036
 21
428.7649783077723
 31
0.0
  0
LINE
  5
17A
330
1F
100
AcDbEntity
  8
E-2
  6
Continuous
 62
     3
370
     9
100
AcDbLine
 10
-584.9643253724913
 20
334.7653115267333
 30
0.0
 11
-584.9643253724913
 21
428.7649783077723
 31
0.0
  0
LINE
  5
17B
330
1F
100
AcDbEntity
  8
E-2
  6
Continuous
 62
     3
370
     9
100
AcDbLine
 10
-564.9645872463036
 20
-65.23460599332594
 30
0.0
 11
-564.9645872463036
 21
28.76522574759477
 31
0.0
  0
LINE
  5
17C
330
1F
100
AcDbEntity
  8
E-2
  6
Continuous
 62
     3
370
     9
100
AcDbLine
 10
-564.9645872463036
 20
-113.7352023232984
 30
0.0
 11
-564.9645872463036
 21
-71.23477425240523
 31
0.0
  0
LINE
  5
17D
330
1F
100
AcDbEntity
  8
E-2
  6
Continuous
 62
     3
370
     9
100
AcDbLine
 10
-569.9643253724913
 20
-65.23460599332594
 30
0.0
 11
-569.9643253724913
 21
28.76522574759477
 31
0.0
  0
LINE
  5
17E
330
1F
100
AcDbEntity
  8
E-2
  6
Continuous
 62
     3
370
     9
100
AcDbLine
 10
-569.9643253724913
 20
-113.7352023232984
 30
0.0
 11
-569.9643253724913
 21
-71.23477425240523
 31
0.0
  0
LINE
  5
17F
330
1F
100
AcDbEntity
  8
E-2
  6
Continuous
 62
     3
370
     9
100
AcDbLine
 10
-564.9645872463036
 20
34.76539400667406
 30
0.0
 11
-564.9645872463036
 21
128.7652257475948
 31
0.0
  0
LINE
  5
180
330
1F
100
AcDbEntity
  8
E-2
  6
Continuous
 62
     3
370
     9
100
AcDbLine
 10
-569.9643253724913
 20
34.76539400667406
 30
0.0
 11
-569.9643253724913
 21
128.7652257475948
 31
0.0
  0
LINE
  5
181
330
1F
100
AcDbEntity
  8
E-2
  6
Continuous
 62
     3
370
     9
100
AcDbLine
 10
-564.9645872463036
 20
134.7651465668515
 30
0.0
 11
-564.9645872463036
 21
228.765060787713
 31
0.0
  0
LINE
  5
182
330
1F
100
AcDbEntity
  8
E-2
  6
Continuous
 62
     3
370
     9
100
AcDbLine
 10
-569.9643253724913
 20
134.7651465668515
 30
0.0
 11
-569.9643253724913
 21
228.765060787713
 31
0.0
  0
LINE
  5
183
330
1F
100
AcDbEntity
  8
E-2
  6
Continuous
 62
     3
370
     9
100
AcDbLine
 10
-564.9645872463036
 20
234.7652290467924
 30
0.0
 11
-564.9645872463036
 21
328.7651432676541
 31
0.0
  0
LINE
  5
184
330
1F
100
AcDbEntity
  8
E-2
  6
Continuous
 62
     3
370
     9
100
AcDbLine
 10
-569.9643253724913
 20
234.7652290467924
 30
0.0
 11
-569.9643253724913
 21
328.7651432676541
 31
0.0
  0
LINE
  5
185
330
1F
100
AcDbEntity
  8
E-2
  6
Continuous
 62
     3
370
     9
100
AcDbLine
 10
-564.9645872463036
 20
434.7651465668516
 30
0.0
 11
-564.9645872463036
 21
477.2641906243366
 31
0.0
  0
LINE
  5
186
330
1F
100
AcDbEntity
  8
E-2
  6
Continuous
 62
     3
370
     9
100
AcDbLine
 10
-569.9643253724913
 20
434.7651465668516
 30
0.0
 11
-569.9643253724913
 21
477.2641906243366
 31
0.0
  0
LINE
  5
187
330
1F
100
AcDbEntity
  8
E-2
  6
Continuous
 62
     3
370
     9
100
AcDbLine
 10
-564.9645872463036
 20
334.7653115267333
 30
0.0
 11
-564.9645872463036
 21
428.7649783077723
 31
0.0
  0
LINE
  5
188
330
1F
100
AcDbEntity
  8
E-2
  6
Continuous
 62
     3
370
     9
100
AcDbLine
 10
-569.9643253724913
 20
334.7653115267333
 30
0.0
 11
-569.9643253724913
 21
428.7649783077723
 31
0.0
  0
LINE
  5
189
330
1F
100
AcDbEntity
  8
E-2
  6
Continuous
 62
     3
370
     9
100
AcDbLine
 10
-549.9645872463036
 20
-65.23460599332594
 30
0.0
 11
-549.9645872463036
 21
28.76522574759477
 31
0.0
  0
LINE
  5
18A
330
1F
100
AcDbEntity
  8
E-2
  6
Continuous
 62
     3
370
     9
100
AcDbLine
 10
-549.9645872463036
 20
-113.7352023232984
 30
0.0
 11
-549.9645872463036
 21
-71.23477425240523
 31
0.0
  0
LINE
  5
18B
330
1F
100
AcDbEntity
  8
E-2
  6
Continuous
 62
     3
370
     9
100
AcDbLine
 10
-554.9643253724913
 20
-65.23460599332594
 30
0.0
 11
-554.9643253724913
 21
28.76522574759477
 31
0.0
  0
LINE
  5
18C
330
1F
100
AcDbEntity
  8
E-2
  6
Continuous
 62
     3
370
     9
100
AcDbLine
 10
-554.9643253724913
 20
-113.7352023232984
 30
0.0
 11
-554.9643253724913
 21
-71.23477425240523
 31
0.0
  0
LINE
  5
18D
330
1F
100
AcDbEntity
  8
E-2
  6
Continuous
 62
     3
370
     9
100
AcDbLine
 10
-549.9645872463036
 20
34.76539400667406
 30
0.0
 11
-549.9645872463036
 21
128.7652257475948
 31
0.0
  0
LINE
  5
18E
330
1F
100
AcDbEntity
  8
E-2
  6
Continuous
 62
     3
370
     9
100
AcDbLine
 10
-554.9643253724913
 20
34.76539400667406
 30
0.0
 11
-554.9643253724913
 21
128.7652257475948
 31
0.0
  0
LINE
  5
18F
330
1F
100
AcDbEntity
  8
E-2
  6
Continuous
 62
     3
370
     9
100
AcDbLine
 10
-549.9645872463036
 20
134.7651465668515
 30
0.0
 11
-549.9645872463036
 21
228.765060787713
 31
0.0
  0
LINE
  5
190
330
1F
100
AcDbEntity
  8
E-2
  6
Continuous
 62
     3
370
     9
100
AcDbLine
 10
-554.9643253724913
 20
134.7651465668515
 30
0.0
 11
-554.9643253724913
 21
228.765060787713
 31
0.0
  0
LINE
  5
191
330
1F
100
AcDbEntity
  8
E-2
  6
Continuous
 62
     3
370
     9
100
AcDbLine
 10
-549.9645872463036
 20
234.7652290467924
 30
0.0
 11
-549.9645872463036
 21
328.7651432676541
 31
0.0
  0
LINE
  5
192
330
1F
100
AcDbEntity
  8
E-2
  6
Continuous
 62
     3
370
     9
100
AcDbLine
 10
-554.9643253724913
 20
234.7652290467924
 30
0.0
 11
-554.9643253724913
 21
328.7651432676541
 31
0.0
  0
LINE
  5
193
330
1F
100
AcDbEntity
  8
E-2
  6
Continuous
 62
     3
370
     9
100
AcDbLine
 10
-549.9645872463036
 20
434.7651465668516
 30
0.0
 11
-549.9645872463036
 21
477.2641906243366
 31
0.0
  0
LINE
  5
194
330
1F
100
AcDbEntity
  8
E-2
  6
Continuous
 62
     3
370
     9
100
AcDbLine
 10
-554.9643253724913
 20
434.7651465668516
 30
0.0
 11
-554.9643253724913
 21
477.2641906243366
 31
0.0
  0
LINE
  5
195
330
1F
100
AcDbEntity
  8
E-2
  6
Continuous
 62
     3
370
     9
100
AcDbLine
 10
-549.9645872463036
 20
334.7653115267333
 30
0.0
 11
-549.9645872463036
 21
428.7649783077723
 31
0.0
  0
LINE
  5
196
330
1F
100
AcDbEntity
  8
E-2
  6
Continuous
 62
     3
370
     9
100
AcDbLine
 10
-554.9643253724913
 20
334.7653115267333
 30
0.0
 11
-554.9643253724913
 21
428.7649783077723
 31
0.0
  0
LINE
  5
197
330
1F
100
AcDbEntity
  8
E-2
  6
Continuous
 62
     3
370
     9
100
AcDbLine
 10
-534.9645872463036
 20
-65.23460599332594
 30
0.0
 11
-534.9645872463036
 21
28.76522574759477
 31
0.0
  0
LINE
  5
198
330
1F
100
AcDbEntity
  8
E-2
  6
Continuous
 62
     3
370
     9
100
AcDbLine
 10
-534.9645872463036
 20
-113.7352023232984
 30
0.0
 11
-534.9645872463036
 21
-71.23477425240523
 31
0.0
  0
LINE
  5
199
330
1F
100
AcDbEntity
  8
E-2
  6
Continuous
 62
     3
370
     9
100
AcDbLine
 10
-539.9643253724913
 20
-65.23460599332594
 30
0.0
 11
-539.9643253724913
 21
28.76522574759477
 31
0.0
  0
LINE
  5
19A
330
1F
100
AcDbEntity
  8
E-2
  6
Continuous
 62
     3
370
     9
100
AcDbLine
 10
-539.9643253724913
 20
-113.7352023232984
 30
0.0
 11
-539.9643253724913
 21
-71.23477425240523
 31
0.0
  0
LINE
  5
19B
330
1F
100
AcDbEntity
  8
E-2
  6
Continuous
 62
     3
370
     9
100
AcDbLine
 10
-534.9645872463036
 20
34.76539400667406
 30
0.0
 11
-534.9645872463036
 21
128.7652257475948
 31
0.0
  0
LINE
  5
19C
330
1F
100
AcDbEntity
  8
E-2
  6
Continuous
 62
     3
370
     9
100
AcDbLine
 10
-539.9643253724913
 20
34.76539400667406
 30
0.0
 11
-539.9643253724913
 21
128.7652257475948
 31
0.0
  0
LINE
  5
19D
330
1F
100
AcDbEntity
  8
E-2
  6
Continuous
 62
     3
370
     9
100
AcDbLine
 10
-534.9645872463036
 20
134.7651465668515
 30
0.0
 11
-534.9645872463036
 21
228.765060787713
 31
0.0
  0
LINE
  5
19E
330
1F
100
AcDbEntity
  8
E-2
  6
Continuous
 62
     3
370
     9
100
AcDbLine
 10
-539.9643253724913
 20
134.7651465668515
 30
0.0
 11
-539.9643253724913
 21
228.765060787713
 31
0.0
  0
LINE
  5
19F
330
1F
100
AcDbEntity
  8
E-2
  6
Continuous
 62
     3
370
     9
100
AcDbLine
 10
-534.9645872463036
 20
234.7652290467924
 30
0.0
 11
-534.9645872463036
 21
328.7651432676541
 31
0.0
  0
LINE
  5
1A0
330
1F
100
AcDbEntity
  8
E-2
  6
Continuous
 62
     3
370
     9
100
AcDbLine
 10
-539.9643253724913
 20
234.7652290467924
 30
0.0
 11
-539.9643253724913
 21
328.7651432676541
 31
0.0
  0
LINE
  5
1A1
330
1F
100
AcDbEntity
  8
E-2
  6
Continuous
 62
     3
370
     9
100
AcDbLine
 10
-534.9645872463036
 20
434.7651465668516
 30
0.0
 11
-534.9645872463036
 21
477.2641906243366
 31
0.0
  0
LINE
  5
1A2
330
1F
100
AcDbEntity
  8
E-2
  6
Continuous
 62
     3
370
     9
100
AcDbLine
 10
-539.9643253724913
 20
434.7651465668516
 30
0.0
 11
-539.9643253724913
 21
477.2641906243366
 31
0.0
  0
LINE
  5
1A3
330
1F
100
AcDbEntity
  8
E-2
  6
Continuous
 62
     3
370
     9
100
AcDbLine
 10
-534.9645872463036
 20
334.7653115267333
 30
0.0
 11
-534.9645872463036
 21
428.7649783077723
 31
0.0
  0
LINE
  5
1A4
330
1F
100
AcDbEntity
  8
E-2
  6
Continuous
 62
     3
370
     9
100
AcDbLine
 10
-539.9643253724913
 20
334.7653115267333
 30
0.0
 11
-539.9643253724913
 21
428.7649783077723
 31
0.0
  0
LINE
  5
1A5
330
1F
100
AcDbEntity
  8
E-2
  6
Continuous
 62
     3
370
     9
100
AcDbLine
 10
-519.9645872463036
 20
-65.23460599332594
 30
0.0
 11
-519.9645872463036
 21
28.76522574759477
 31
0.0
  0
LINE
  5
1A6
330
1F
100
AcDbEntity
  8
E-2
  6
Continuous
 62
     3
370
     9
100
AcDbLine
 10
-519.9645872463036
 20
-113.7352023232984
 30
0.0
 11
-519.9645872463036
 21
-71.23477425240523
 31
0.0
  0
LINE
  5
1A7
330
1F
100
AcDbEntity
  8
E-2
  6
Continuous
 62
     3
370
     9
100
AcDbLine
 10
-524.9643253724913
 20
-65.23460599332594
 30
0.0
 11
-524.9643253724913
 21
28.76522574759477
 31
0.0
  0
LINE
  5
1A8
330
1F
100
AcDbEntity
  8
E-2
  6
Continuous
 62
     3
370
     9
100
AcDbLine
 10
-524.9643253724913
 20
-113.7352023232984
 30
0.0
 11
-524.9643253724913
 21
-71.23477425240523
 31
0.0
  0
LINE
  5
1A9
330
1F
100
AcDbEntity
  8
E-2
  6
Continuous
 62
     3
370
     9
100
AcDbLine
 10
-519.9645872463036
 20
34.76539400667406
 30
0.0
 11
-519.9645872463036
 21
128.7652257475948
 31
0.0
  0
LINE
  5
1AA
330
1F
100
AcDbEntity
  8
E-2
  6
Continuous
 62
     3
370
     9
100
AcDbLine
 10
-524.9643253724913
 20
34.76539400667406
 30
0.0
 11
-524.9643253724913
 21
128.7652257475948
 31
0.0
  0
LINE
  5
1AB
330
1F
100
AcDbEntity
  8
E-2
  6
Continuous
 62
     3
370
     9
100
AcDbLine
 10
-519.9645872463036
 20
134.7651465668515
 30
0.0
 11
-519.9645872463036
 21
228.765060787713
 31
0.0
  0
LINE
  5
1AC
330
1F
100
AcDbEntity
  8
E-2
  6
Continuous
 62
     3
370
     9
100
AcDbLine
 10
-524.9643253724913
 20
134.7651465668515
 30
0.0
 11
-524.9643253724913
 21
228.765060787713
 31
0.0
  0
LINE
  5
1AD
330
1F
100
AcDbEntity
  8
E-2
  6
Continuous
 62
     3
370
     9
100
AcDbLine
 10
-519.9645872463036
 20
234.7652290467924
 30
0.0
 11
-519.9645872463036
 21
328.7651432676541
 31
0.0
  0
LINE
  5
1AE
330
1F
100
AcDbEntity
  8
E-2
  6
Continuous
 62
     3
370
     9
100
AcDbLine
 10
-524.9643253724913
 20
234.7652290467924
 30
0.0
 11
-524.9643253724913
 21
328.7651432676541
 31
0.0
  0
LINE
  5
1AF
330
1F
100
AcDbEntity
  8
E-2
  6
Continuous
 62
     3
370
     9
100
AcDbLine
 10
-519.9645872463036
 20
434.7651465668516
 30
0.0
 11
-519.9645872463036
 21
477.2641906243366
 31
0.0
  0
LINE
  5
1B0
330
1F
100
AcDbEntity
  8
E-2
  6
Continuous
 62
     3
370
     9
100
AcDbLine
 10
-524.9643253724913
 20
434.7651465668516
 30
0.0
 11
-524.9643253724913
 21
477.2641906243366
 31
0.0
  0
LINE
  5
1B1
330
1F
100
AcDbEntity
  8
E-2
  6
Continuous
 62
     3
370
     9
100
AcDbLine
 10
-519.9645872463036
 20
334.7653115267333
 30
0.0
 11
-519.9645872463036
 21
428.7649783077723
 31
0.0
  0
LINE
  5
1B2
330
1F
100
AcDbEntity
  8
E-2
  6
Continuous
 62
     3
370
     9
100
AcDbLine
 10
-524.9643253724913
 20
334.7653115267333
 30
0.0
 11
-524.9643253724913
 21
428.7649783077723
 31
0.0
  0
LINE
  5
1B3
330
1F
100
AcDbEntity
  8
E-2
  6
Continuous
 62
     3
370
     9
100
AcDbLine
 10
-504.9645872463037
 20
-65.23460599332594
 30
0.0
 11
-504.9645872463037
 21
28.76522574759477
 31
0.0
  0
LINE
  5
1B4
330
1F
100
AcDbEntity
  8
E-2
  6
Continuous
 62
     3
370
     9
100
AcDbLine
 10
-504.9645872463037
 20
-113.7352023232984
 30
0.0
 11
-504.9645872463037
 21
-71.23477425240523
 31
0.0
  0
LINE
  5
1B5
330
1F
100
AcDbEntity
  8
E-2
  6
Continuous
 62
     3
370
     9
100
AcDbLine
 10
-509.9643253724913
 20
-65.23460599332594
 30
0.0
 11
-509.9643253724913
 21
28.76522574759477
 31
0.0
  0
LINE
  5
1B6
330
1F
100
AcDbEntity
  8
E-2
  6
Continuous
 62
     3
370
     9
100
AcDbLine
 10
-509.9643253724913
 20
-113.7352023232984
 30
0.0
 11
-509.9643253724913
 21
-71.23477425240523
 31
0.0
  0
LINE
  5
1B7
330
1F
100
AcDbEntity
  8
E-2
  6
Continuous
 62
     3
370
     9
100
AcDbLine
 10
-504.9645872463037
 20
34.76539400667406
 30
0.0
 11
-504.9645872463037
 21
128.7652257475948
 31
0.0
  0
LINE
  5
1B8
330
1F
100
AcDbEntity
  8
E-2
  6
Continuous
 62
     3
370
     9
100
AcDbLine
 10
-509.9643253724913
 20
34.76539400667406
 30
0.0
 11
-509.9643253724913
 21
128.7652257475948
 31
0.0
  0
LINE
  5
1B9
330
1F
100
AcDbEntity
  8
E-2
  6
Continuous
 62
     3
370
     9
100
AcDbLine
 10
-504.9645872463037
 20
134.7651465668515
 30
0.0
 11
-504.9645872463037
 21
228.765060787713
 31
0.0
  0
LINE
  5
1BA
330
1F
100
AcDbEntity
  8
E-2
  6
Continuous
 62
     3
370
     9
100
AcDbLine
 10
-509.9643253724913
 20
134.7651465668515
 30
0.0
 11
-509.9643253724913
 21
228.765060787713
 31
0.0
  0
LINE
  5
1BB
330
1F
100
AcDbEntity
  8
E-2
  6
Continuous
 62
     3
370
     9
100
AcDbLine
 10
-504.9645872463037
 20
234.7652290467924
 30
0.0
 11
-504.9645872463037
 21
328.7651432676541
 31
0.0
  0
LINE
  5
1BC
330
1F
100
AcDbEntity
  8
E-2
  6
Continuous
 62
     3
370
     9
100
AcDbLine
 10
-509.9643253724913
 20
234.7652290467924
 30
0.0
 11
-509.9643253724913
 21
328.7651432676541
 31
0.0
  0
LINE
  5
1BD
330
1F
100
AcDbEntity
  8
E-2
  6
Continuous
 62
     3
370
     9
100
AcDbLine
 10
-504.9645872463037
 20
434.7651465668516
 30
0.0
 11
-504.9645872463037
 21
477.2641906243366
 31
0.0
  0
LINE
  5
1BE
330
1F
100
AcDbEntity
  8
E-2
  6
Continuous
 62
     3
370
     9
100
AcDbLine
 10
-509.9643253724913
 20
434.7651465668516
 30
0.0
 11
-509.9643253724913
 21
477.2641906243366
 31
0.0
  0
LINE
  5
1BF
330
1F
100
AcDbEntity
  8
E-2
  6
Continuous
 62
     3
370
     9
100
AcDbLine
 10
-504.9645872463037
 20
334.7653115267333
 30
0.0
 11
-504.9645872463037
 21
428.7649783077723
 31
0.0
  0
LINE
  5
1C0
330
1F
100
AcDbEntity
  8
E-2
  6
Continuous
 62
     3
370
     9
100
AcDbLine
 10
-509.9643253724913
 20
334.7653115267333
 30
0.0
 11
-509.9643253724913
 21
428.7649783077723
 31
0.0
  0
LINE
  5
1C1
330
1F
100
AcDbEntity
  8
E-2
  6
Continuous
 62
     3
370
     9
100
AcDbLine
 10
-489.9645872463036
 20
-65.23460599332594
 30
0.0
 11
-489.9645872463036
 21
28.76522574759477
 31
0.0
  0
LINE
  5
1C2
330
1F
100
AcDbEntity
  8
E-2
  6
Continuous
 62
     3
370
     9
100
AcDbLine
 10
-489.9645872463036
 20
-113.7352023232984
 30
0.0
 11
-489.9645872463036
 21
-71.23477425240523
 31
0.0
  0
LINE
  5
1C3
330
1F
100
AcDbEntity
  8
E-2
  6
Continuous
 62
     3
370
     9
100
AcDbLine
 10
-494.9643253724913
 20
-65.23460599332594
 30
0.0
 11
-494.9643253724913
 21
28.76522574759477
 31
0.0
  0
LINE
  5
1C4
330
1F
100
AcDbEntity
  8
E-2
  6
Continuous
 62
     3
370
     9
100
AcDbLine
 10
-494.9643253724913
 20
-113.7352023232984
 30
0.0
 11
-494.9643253724913
 21
-71.23477425240523
 31
0.0
  0
LINE
  5
1C5
330
1F
100
AcDbEntity
  8
E-2
  6
Continuous
 62
     3
370
     9
100
AcDbLine
 10
-489.9645872463036
 20
34.76539400667406
 30
0.0
 11
-489.9645872463036
 21
128.7652257475948
 31
0.0
  0
LINE
  5
1C6
330
1F
100
AcDbEntity
  8
E-2
  6
Continuous
 62
     3
370
     9
100
AcDbLine
 10
-494.9643253724913
 20
34.76539400667406
 30
0.0
 11
-494.9643253724913
 21
128.7652257475948
 31
0.0
  0
LINE
  5
1C7
330
1F
100
AcDbEntity
  8
E-2
  6
Continuous
 62
     3
370
     9
100
AcDbLine
 10
-489.9645872463036
 20
134.7651465668515
 30
0.0
 11
-489.9645872463036
 21
228.765060787713
 31
0.0
  0
LINE
  5
1C8
330
1F
100
AcDbEntity
  8
E-2
  6
Continuous
 62
     3
370
     9
100
AcDbLine
 10
-494.9643253724913
 20
134.7651465668515
 30
0.0
 11
-494.9643253724913
 21
228.765060787713
 31
0.0
  0
LINE
  5
1C9
330
1F
100
AcDbEntity
  8
E-2
  6
Continuous
 62
     3
370
     9
100
AcDbLine
 10
-489.9645872463036
 20
234.7652290467924
 30
0.0
 11
-489.9645872463036
 21
328.7651432676541
 31
0.0
  0
LINE
  5
1CA
330
1F
100
AcDbEntity
  8
E-2
  6
Continuous
 62
     3
370
     9
100
AcDbLine
 10
-494.9643253724913
 20
234.7652290467924
 30
0.0
 11
-494.9643253724913
 21
328.7651432676541
 31
0.0
  0
LINE
  5
1CB
330
1F
100
AcDbEntity
  8
E-2
  6
Continuous
 62
     3
370
     9
100
AcDbLine
 10
-489.9645872463036
 20
434.7651465668516
 30
0.0
 11
-489.9645872463036
 21
477.2641906243366
 31
0.0
  0
LINE
  5
1CC
330
1F
100
AcDbEntity
  8
E-2
  6
Continuous
 62
     3
370
     9
100
AcDbLine
 10
-494.9643253724913
 20
434.7651465668516
 30
0.0
 11
-494.9643253724913
 21
477.2641906243366
 31
0.0
  0
LINE
  5
1CD
330
1F
100
AcDbEntity
  8
E-2
  6
Continuous
 62
     3
370
     9
100
AcDbLine
 10
-489.9645872463036
 20
334.7653115267333
 30
0.0
 11
-489.9645872463036
 21
428.7649783077723
 31
0.0
  0
LINE
  5
1CE
330
1F
100
AcDbEntity
  8
E-2
  6
Continuous
 62
     3
370
     9
100
AcDbLine
 10
-494.9643253724913
 20
334.7653115267333
 30
0.0
 11
-494.9643253724913
 21
428.7649783077723
 31
0.0
  0
LINE
  5
1CF
330
1F
100
AcDbEntity
  8
E-2
  6
Continuous
 62
     3
370
     9
100
AcDbLine
 10
-474.9645872463036
 20
-65.23460599332594
 30
0.0
 11
-474.9645872463036
 21
28.76522574759477
 31
0.0
  0
LINE
  5
1D0
330
1F
100
AcDbEntity
  8
E-2
  6
Continuous
 62
     3
370
     9
100
AcDbLine
 10
-474.9645872463036
 20
-113.7352023232984
 30
0.0
 11
-474.9645872463036
 21
-71.23477425240523
 31
0.0
  0
LINE
  5
1D1
330
1F
100
AcDbEntity
  8
E-2
  6
Continuous
 62
     3
370
     9
100
AcDbLine
 10
-479.9643253724913
 20
-65.23460599332594
 30
0.0
 11
-479.9643253724913
 21
28.76522574759477
 31
0.0
  0
LINE
  5
1D2
330
1F
100
AcDbEntity
  8
E-2
  6
Continuous
 62
     3
370
     9
100
AcDbLine
 10
-479.9643253724913
 20
-113.7352023232984
 30
0.0
 11
-479.9643253724913
 21
-71.23477425240523
 31
0.0
  0
LINE
  5
1D3
330
1F
100
AcDbEntity
  8
E-2
  6
Continuous
 62
     3
370
     9
100
AcDbLine
 10
-474.9645872463036
 20
34.76539400667406
 30
0.0
 11
-474.9645872463036
 21
128.7652257475948
 31
0.0
  0
LINE
  5
1D4
330
1F
100
AcDbEntity
  8
E-2
  6
Continuous
 62
     3
370
     9
100
AcDbLine
 10
-479.9643253724913
 20
34.76539400667406
 30
0.0
 11
-479.9643253724913
 21
128.7652257475948
 31
0.0
  0
LINE
  5
1D5
330
1F
100
AcDbEntity
  8
E-2
  6
Continuous
 62
     3
370
     9
100
AcDbLine
 10
-474.9645872463036
 20
134.7651465668515
 30
0.0
 11
-474.9645872463036
 21
228.765060787713
 31
0.0
  0
LINE
  5
1D6
330
1F
100
AcDbEntity
  8
E-2
  6
Continuous
 62
     3
370
     9
100
AcDbLine
 10
-479.9643253724913
 20
134.7651465668515
 30
0.0
 11
-479.9643253724913
 21
228.765060787713
 31
0.0
  0
LINE
  5
1D7
330
1F
100
AcDbEntity
  8
E-2
  6
Continuous
 62
     3
370
     9
100
AcDbLine
 10
-474.9645872463036
 20
234.7652290467924
 30
0.0
 11
-474.9645872463036
 21
328.7651432676541
 31
0.0
  0
LINE
  5
1D8
330
1F
100
AcDbEntity
  8
E-2
  6
Continuous
 62
     3
370
     9
100
AcDbLine
 10
-479.9643253724913
 20
234.7652290467924
 30
0.0
 11
-479.9643253724913
 21
328.7651432676541
 31
0.0
  0
LINE
  5
1D9
330
1F
100
AcDbEntity
  8
E-2
  6
Continuous
 62
     3
370
     9
100
AcDbLine
 10
-474.9645872463036
 20
434.7651465668516
 30
0.0
 11
-474.9645872463036
 21
477.2641906243366
 31
0.0
  0
LINE
  5
1DA
330
1F
100
AcDbEntity
  8
E-2
  6
Continuous
 62
     3
370
     9
100
AcDbLine
 10
-479.9643253724913
 20
434.7651465668516
 30
0.0
 11
-479.9643253724913
 21
477.2641906243366
 31
0.0
  0
LINE
  5
1DB
330
1F
100
AcDbEntity
  8
E-2
  6
Continuous
 62
     3
370
     9
100
AcDbLine
 10
-474.9645872463036
 20
334.7653115267333
 30
0.0
 11
-474.9645872463036
 21
428.7649783077723
 31
0.0
  0
LINE
  5
1DC
330
1F
100
AcDbEntity
  8
E-2
  6
Continuous
 62
     3
370
     9
100
AcDbLine
 10
-479.9643253724913
 20
334.7653115267333
 30
0.0
 11
-479.9643253724913
 21
428.7649783077723
 31
0.0
  0
LINE
  5
1DD
330
1F
100
AcDbEntity
  8
E-2
  6
Continuous
 62
     3
370
     9
100
AcDbLine
 10
-459.9645872463036
 20
-65.23460599332594
 30
0.0
 11
-459.9645872463036
 21
28.76522574759477
 31
0.0
  0
LINE
  5
1DE
330
1F
100
AcDbEntity
  8
E-2
  6
Continuous
 62
     3
370
     9
100
AcDbLine
 10
-459.9645872463036
 20
-113.7352023232984
 30
0.0
 11
-459.9645872463036
 21
-71.23477425240523
 31
0.0
  0
LINE
  5
1DF
330
1F
100
AcDbEntity
  8
E-2
  6
Continuous
 62
     3
370
     9
100
AcDbLine
 10
-464.9643253724913
 20
-65.23460599332594
 30
0.0
 11
-464.9643253724913
 21
28.76522574759477
 31
0.0
  0
LINE
  5
1E0
330
1F
100
AcDbEntity
  8
E-2
  6
Continuous
 62
     3
370
     9
100
AcDbLine
 10
-464.9643253724913
 20
-113.7352023232984
 30
0.0
 11
-464.9643253724913
 21
-71.23477425240523
 31
0.0
  0
LINE
  5
1E1
330
1F
100
AcDbEntity
  8
E-2
  6
Continuous
 62
     3
370
     9
100
AcDbLine
 10
-459.9645872463036
 20
34.76539400667406
 30
0.0
 11
-459.9645872463036
 21
128.7652257475948
 31
0.0
  0
LINE
  5
1E2
330
1F
100
AcDbEntity
  8
E-2
  6
Continuous
 62
     3
370
     9
100
AcDbLine
 10
-464.9643253724913
 20
34.76539400667406
 30
0.0
 11
-464.9643253724913
 21
128.7652257475948
 31
0.0
  0
LINE
  5
1E3
330
1F
100
AcDbEntity
  8
E-2
  6
Continuous
 62
     3
370
     9
100
AcDbLine
 10
-459.9645872463036
 20
134.7651465668515
 30
0.0
 11
-459.9645872463036
 21
228.765060787713
 31
0.0
  0
LINE
  5
1E4
330
1F
100
AcDbEntity
  8
E-2
  6
Continuous
 62
     3
370
     9
100
AcDbLine
 10
-464.9643253724913
 20
134.7651465668515
 30
0.0
 11
-464.9643253724913
 21
228.765060787713
 31
0.0
  0
LINE
  5
1E5
330
1F
100
AcDbEntity
  8
E-2
  6
Continuous
 62
     3
370
     9
100
AcDbLine
 10
-459.9645872463036
 20
234.7652290467924
 30
0.0
 11
-459.9645872463036
 21
328.7651432676541
 31
0.0
  0
LINE
  5
1E6
330
1F
100
AcDbEntity
  8
E-2
  6
Continuous
 62
     3
370
     9
100
AcDbLine
 10
-464.9643253724913
 20
234.7652290467924
 30
0.0
 11
-464.9643253724913
 21
328.7651432676541
 31
0.0
  0
LINE
  5
1E7
330
1F
100
AcDbEntity
  8
E-2
  6
Continuous
 62
     3
370
     9
100
AcDbLine
 10
-459.9645872463036
 20
434.7651465668516
 30
0.0
 11
-459.9645872463036
 21
477.2641906243366
 31
0.0
  0
LINE
  5
1E8
330
1F
100
AcDbEntity
  8
E-2
  6
Continuous
 62
     3
370
     9
100
AcDbLine
 10
-464.9643253724913
 20
434.7651465668516
 30
0.0
 11
-464.9643253724913
 21
477.2641906243366
 31
0.0
  0
LINE
  5
1E9
330
1F
100
AcDbEntity
  8
E-2
  6
Continuous
 62
     3
370
     9
100
AcDbLine
 10
-459.9645872463036
 20
334.7653115267333
 30
0.0
 11
-459.9645872463036
 21
428.7649783077723
 31
0.0
  0
LINE
  5
1EA
330
1F
100
AcDbEntity
  8
E-2
  6
Continuous
 62
     3
370
     9
100
AcDbLine
 10
-464.9643253724913
 20
334.7653115267333
 30
0.0
 11
-464.9643253724913
 21
428.7649783077723
 31
0.0
  0
LINE
  5
1EB
330
1F
100
AcDbEntity
  8
E-2
  6
Continuous
 62
     3
370
     9
100
AcDbLine
 10
-444.9645872463036
 20
-65.23460599332594
 30
0.0
 11
-444.9645872463036
 21
28.76522574759477
 31
0.0
  0
LINE
  5
1EC
330
1F
100
AcDbEntity
  8
E-2
  6
Continuous
 62
     3
370
     9
100
AcDbLine
 10
-444.9645872463036
 20
-113.7352023232984
 30
0.0
 11
-444.9645872463036
 21
-71.23477425240523
 31
0.0
  0
LINE
  5
1ED
330
1F
100
AcDbEntity
  8
E-2
  6
Continuous
 62
     3
370
     9
100
AcDbLine
 10
-449.9643253724913
 20
-65.23460599332594
 30
0.0
 11
-449.9643253724913
 21
28.76522574759477
 31
0.0
  0
LINE
  5
1EE
330
1F
100
AcDbEntity
  8
E-2
  6
Continuous
 62
     3
370
     9
100
AcDbLine
 10
-449.9643253724913
 20
-113.7352023232984
 30
0.0
 11
-449.9643253724913
 21
-71.23477425240523
 31
0.0
  0
LINE
  5
1EF
330
1F
100
AcDbEntity
  8
E-2
  6
Continuous
 62
     3
370
     9
100
AcDbLine
 10
-444.9645872463036
 20
34.76539400667406
 30
0.0
 11
-444.9645872463036
 21
128.7652257475948
 31
0.0
  0
LINE
  5
1F0
330
1F
100
AcDbEntity
  8
E-2
  6
Continuous
 62
     3
370
     9
100
AcDbLine
 10
-449.9643253724913
 20
34.76539400667406
 30
0.0
 11
-449.9643253724913
 21
128.7652257475948
 31
0.0
  0
LINE
  5
1F1
330
1F
100
AcDbEntity
  8
E-2
  6
Continuous
 62
     3
370
     9
100
AcDbLine
 10
-444.9645872463036
 20
134.7651465668515
 30
0.0
 11
-444.9645872463036
 21
228.765060787713
 31
0.0
  0
LINE
  5
1F2
330
1F
100
AcDbEntity
  8
E-2
  6
Continuous
 62
     3
370
     9
100
AcDbLine
 10
-449.9643253724913
 20
134.7651465668515
 30
0.0
 11
-449.9643253724913
 21
228.765060787713
 31
0.0
  0
LINE
  5
1F3
330
1F
100
AcDbEntity
  8
E-2
  6
Continuous
 62
     3
370
     9
100
AcDbLine
 10
-444.9645872463036
 20
234.7652290467924
 30
0.0
 11
-444.9645872463036
 21
328.7651432676541
 31
0.0
  0
LINE
  5
1F4
330
1F
100
AcDbEntity
  8
E-2
  6
Continuous
 62
     3
370
     9
100
AcDbLine
 10
-449.9643253724913
 20
234.7652290467924
 30
0.0
 11
-449.9643253724913
 21
328.7651432676541
 31
0.0
  0
LINE
  5
1F5
330
1F
100
AcDbEntity
  8
E-2
  6
Continuous
 62
     3
370
     9
100
AcDbLine
 10
-444.9645872463036
 20
434.7651465668516
 30
0.0
 11
-444.9645872463036
 21
477.2641906243366
 31
0.0
  0
LINE
  5
1F6
330
1F
100
AcDbEntity
  8
E-2
  6
Continuous
 62
     3
370
     9
100
AcDbLine
 10
-449.9643253724913
 20
434.7651465668516
 30
0.0
 11
-449.9643253724913
 21
477.2641906243366
 31
0.0
  0
LINE
  5
1F7
330
1F
100
AcDbEntity
  8
E-2
  6
Continuous
 62
     3
370
     9
100
AcDbLine
 10
-444.9645872463036
 20
334.7653115267333
 30
0.0
 11
-444.9645872463036
 21
428.7649783077723
 31
0.0
  0
LINE
  5
1F8
330
1F
100
AcDbEntity
  8
E-2
  6
Continuous
 62
     3
370
     9
100
AcDbLine
 10
-449.9643253724913
 20
334.7653115267333
 30
0.0
 11
-449.9643253724913
 21
428.7649783077723
 31
0.0
  0
LINE
  5
1F9
330
1F
100
AcDbEntity
  8
E-2
  6
Continuous
 62
     3
370
     9
100
AcDbLine
 10
-429.9645872463036
 20
-65.23460599332594
 30
0.0
 11
-429.9645872463036
 21
28.76522574759477
 31
0.0
  0
LINE
  5
1FA
330
1F
100
AcDbEntity
  8
E-2
  6
Continuous
 62
     3
370
     9
100
AcDbLine
 10
-429.9645872463036
 20
-113.7352023232984
 30
0.0
 11
-429.9645872463036
 21
-71.23477425240523
 31
0.0
  0
LINE
  5
1FB
330
1F
100
AcDbEntity
  8
E-2
  6
Continuous
 62
     3
370
     9
100
AcDbLine
 10
-434.9643253724913
 20
-65.23460599332594
 30
0.0
 11
-434.9643253724913
 21
28.76522574759477
 31
0.0
  0
LINE
  5
1FC
330
1F
100
AcDbEntity
  8
E-2
  6
Continuous
 62
     3
370
     9
100
AcDbLine
 10
-434.9643253724913
 20
-113.7352023232984
 30
0.0
 11
-434.9643253724913
 21
-71.23477425240523
 31
0.0
  0
LINE
  5
1FD
330
1F
100
AcDbEntity
  8
E-2
  6
Continuous
 62
     3
370
     9
100
AcDbLine
 10
-429.9645872463036
 20
34.76539400667406
 30
0.0
 11
-429.9645872463036
 21
128.7652257475948
 31
0.0
  0
LINE
  5
1FE
330
1F
100
AcDbEntity
  8
E-2
  6
Continuous
 62
     3
370
     9
100
AcDbLine
 10
-434.9643253724913
 20
34.76539400667406
 30
0.0
 11
-434.9643253724913
 21
128.7652257475948
 31
0.0
  0
LINE
  5
1FF
330
1F
100
AcDbEntity
  8
E-2
  6
Continuous
 62
     3
370
     9
100
AcDbLine
 10
-429.9645872463036
 20
134.7651465668515
 30
0.0
 11
-429.9645872463036
 21
228.765060787713
 31
0.0
  0
LINE
  5
200
330
1F
100
AcDbEntity
  8
E-2
  6
Continuous
 62
     3
370
     9
100
AcDbLine
 10
-434.9643253724913
 20
134.7651465668515
 30
0.0
 11
-434.9643253724913
 21
228.765060787713
 31
0.0
  0
LINE
  5
201
330
1F
100
AcDbEntity
  8
E-2
  6
Continuous
 62
     3
370
     9
100
AcDbLine
 10
-429.9645872463036
 20
234.7652290467924
 30
0.0
 11
-429.9645872463036
 21
328.7651432676541
 31
0.0
  0
LINE
  5
202
330
1F
100
AcDbEntity
  8
E-2
  6
Continuous
 62
     3
370
     9
100
AcDbLine
 10
-434.9643253724913
 20
234.7652290467924
 30
0.0
 11
-434.9643253724913
 21
328.7651432676541
 31
0.0
  0
LINE
  5
203
330
1F
100
AcDbEntity
  8
E-2
  6
Continuous
 62
     3
370
     9
100
AcDbLine
 10
-429.9645872463036
 20
434.7651465668516
 30
0.0
 11
-429.9645872463036
 21
477.2641906243366
 31
0.0
  0
LINE
  5
204
330
1F
100
AcDbEntity
  8
E-2
  6
Continuous
 62
     3
370
     9
100
AcDbLine
 10
-434.9643253724913
 20
434.7651465668516
 30
0.0
 11
-434.9643253724913
 21
477.2641906243366
 31
0.0
  0
LINE
  5
205
330
1F
100
AcDbEntity
  8
E-2
  6
Continuous
 62
     3
370
     9
100
AcDbLine
 10
-429.9645872463036
 20
334.7653115267333
 30
0.0
 11
-429.9645872463036
 21
428.7649783077723
 31
0.0
  0
LINE
  5
206
330
1F
100
AcDbEntity
  8
E-2
  6
Continuous
 62
     3
370
     9
100
AcDbLine
 10
-434.9643253724913
 20
334.7653115267333
 30
0.0
 11
-434.9643253724913
 21
428.7649783077723
 31
0.0
  0
LINE
  5
207
330
1F
100
AcDbEntity
  8
E-2
  6
Continuous
 62
     3
370
     9
100
AcDbLine
 10
-414.9645872463036
 20
-65.23460599332594
 30
0.0
 11
-414.9645872463036
 21
28.76522574759477
 31
0.0
  0
LINE
  5
208
330
1F
100
AcDbEntity
  8
E-2
  6
Continuous
 62
     3
370
     9
100
AcDbLine
 10
-414.9645872463036
 20
-113.7352023232984
 30
0.0
 11
-414.9645872463036
 21
-71.23477425240523
 31
0.0
  0
LINE
  5
209
330
1F
100
AcDbEntity
  8
E-2
  6
Continuous
 62
     3
370
     9
100
AcDbLine
 10
-419.9643253724913
 20
-65.23460599332594
 30
0.0
 11
-419.9643253724913
 21
28.76522574759477
 31
0.0
  0
LINE
  5
20A
330
1F
100
AcDbEntity
  8
E-2
  6
Continuous
 62
     3
370
     9
100
AcDbLine
 10
-419.9643253724913
 20
-113.7352023232984
 30
0.0
 11
-419.9643253724913
 21
-71.23477425240523
 31
0.0
  0
LINE
  5
20B
330
1F
100
AcDbEntity
  8
E-2
  6
Continuous
 62
     3
370
     9
100
AcDbLine
 10
-414.9645872463036
 20
34.76539400667406
 30
0.0
 11
-414.9645872463036
 21
128.7652257475948
 31
0.0
  0
LINE
  5
20C
330
1F
100
AcDbEntity
  8
E-2
  6
Continuous
 62
     3
370
     9
100
AcDbLine
 10
-419.9643253724913
 20
34.76539400667406
 30
0.0
 11
-419.9643253724913
 21
128.7652257475948
 31
0.0
  0
LINE
  5
20D
330
1F
100
AcDbEntity
  8
E-2
  6
Continuous
 62
     3
370
     9
100
AcDbLine
 10
-414.9645872463036
 20
134.7651465668515
 30
0.0
 11
-414.9645872463036
 21
228.765060787713
 31
0.0
  0
LINE
  5
20E
330
1F
100
AcDbEntity
  8
E-2
  6
Continuous
 62
     3
370
     9
100
AcDbLine
 10
-419.9643253724913
 20
134.7651465668515
 30
0.0
 11
-419.9643253724913
 21
228.765060787713
 31
0.0
  0
LINE
  5
20F
330
1F
100
AcDbEntity
  8
E-2
  6
Continuous
 62
     3
370
     9
100
AcDbLine
 10
-414.9645872463036
 20
234.7652290467924
 30
0.0
 11
-414.9645872463036
 21
328.7651432676541
 31
0.0
  0
LINE
  5
210
330
1F
100
AcDbEntity
  8
E-2
  6
Continuous
 62
     3
370
     9
100
AcDbLine
 10
-419.9643253724913
 20
234.7652290467924
 30
0.0
 11
-419.9643253724913
 21
328.7651432676541
 31
0.0
  0
LINE
  5
211
330
1F
100
AcDbEntity
  8
E-2
  6
Continuous
 62
     3
370
     9
100
AcDbLine
 10
-414.9645872463036
 20
434.7651465668516
 30
0.0
 11
-414.9645872463036
 21
477.2641906243366
 31
0.0
  0
LINE
  5
212
330
1F
100
AcDbEntity
  8
E-2
  6
Continuous
 62
     3
370
     9
100
AcDbLine
 10
-419.9643253724913
 20
434.7651465668516
 30
0.0
 11
-419.9643253724913
 21
477.2641906243366
 31
0.0
  0
LINE
  5
213
330
1F
100
AcDbEntity
  8
E-2
  6
Continuous
 62
     3
370
     9
100
AcDbLine
 10
-414.9645872463036
 20
334.7653115267333
 30
0.0
 11
-414.9645872463036
 21
428.7649783077723
 31
0.0
  0
LINE
  5
214
330
1F
100
AcDbEntity
  8
E-2
  6
Continuous
 62
     3
370
     9
100
AcDbLine
 10
-419.9643253724913
 20
334.7653115267333
 30
0.0
 11
-419.9643253724913
 21
428.7649783077723
 31
0.0
  0
LINE
  5
215
330
1F
100
AcDbEntity
  8
E-2
  6
Continuous
 62
     3
370
     9
100
AcDbLine
 10
-399.9645872463036
 20
-65.23460599332594
 30
0.0
 11
-399.9645872463036
 21
28.76522574759477
 31
0.0
  0
LINE
  5
216
330
1F
100
AcDbEntity
  8
E-2
  6
Continuous
 62
     3
370
     9
100
AcDbLine
 10
-399.9645872463036
 20
-113.7352023232984
 30
0.0
 11
-399.9645872463036
 21
-71.23477425240523
 31
0.0
  0
LINE
  5
217
330
1F
100
AcDbEntity
  8
E-2
  6
Continuous
 62
     3
370
     9
100
AcDbLine
 10
-404.9643253724913
 20
-65.23460599332594
 30
0.0
 11
-404.9643253724913
 21
28.76522574759477
 31
0.0
  0
LINE
  5
218
330
1F
100
AcDbEntity
  8
E-2
  6
Continuous
 62
     3
370
     9
100
AcDbLine
 10
-404.9643253724913
 20
-113.7352023232984
 30
0.0
 11
-404.9643253724913
 21
-71.23477425240523
 31
0.0
  0
LINE
  5
219
330
1F
100
AcDbEntity
  8
E-2
  6
Continuous
 62
     3
370
     9
100
AcDbLine
 10
-399.9645872463036
 20
34.76539400667406
 30
0.0
 11
-399.9645872463036
 21
128.7652257475948
 31
0.0
  0
LINE
  5
21A
330
1F
100
AcDbEntity
  8
E-2
  6
Continuous
 62
     3
370
     9
100
AcDbLine
 10
-404.9643253724913
 20
34.76539400667406
 30
0.0
 11
-404.9643253724913
 21
128.7652257475948
 31
0.0
  0
LINE
  5
21B
330
1F
100
AcDbEntity
  8
E-2
  6
Continuous
 62
     3
370
     9
100
AcDbLine
 10
-399.9645872463036
 20
134.7651465668515
 30
0.0
 11
-399.9645872463036
 21
228.765060787713
 31
0.0
  0
LINE
  5
21C
330
1F
100
AcDbEntity
  8
E-2
  6
Continuous
 62
     3
370
     9
100
AcDbLine
 10
-404.9643253724913
 20
134.7651465668515
 30
0.0
 11
-404.9643253724913
 21
228.765060787713
 31
0.0
  0
LINE
  5
21D
330
1F
100
AcDbEntity
  8
E-2
  6
Continuous
 62
     3
370
     9
100
AcDbLine
 10
-399.9645872463036
 20
234.7652290467924
 30
0.0
 11
-399.9645872463036
 21
328.7651432676541
 31
0.0
  0
LINE
  5
21E
330
1F
100
AcDbEntity
  8
E-2
  6
Continuous
 62
     3
370
     9
100
AcDbLine
 10
-404.9643253724913
 20
234.7652290467924
 30
0.0
 11
-404.9643253724913
 21
328.7651432676541
 31
0.0
  0
LINE
  5
21F
330
1F
100
AcDbEntity
  8
E-2
  6
Continuous
 62
     3
370
     9
100
AcDbLine
 10
-399.9645872463036
 20
434.7651465668516
 30
0.0
 11
-399.9645872463036
 21
477.2641906243366
 31
0.0
  0
LINE
  5
220
330
1F
100
AcDbEntity
  8
E-2
  6
Continuous
 62
     3
370
     9
100
AcDbLine
 10
-404.9643253724913
 20
434.7651465668516
 30
0.0
 11
-404.9643253724913
 21
477.2641906243366
 31
0.0
  0
LINE
  5
221
330
1F
100
AcDbEntity
  8
E-2
  6
Continuous
 62
     3
370
     9
100
AcDbLine
 10
-399.9645872463036
 20
334.7653115267333
 30
0.0
 11
-399.9645872463036
 21
428.7649783077723
 31
0.0
  0
LINE
  5
222
330
1F
100
AcDbEntity
  8
E-2
  6
Continuous
 62
     3
370
     9
100
AcDbLine
 10
-404.9643253724913
 20
334.7653115267333
 30
0.0
 11
-404.9643253724913
 21
428.7649783077723
 31
0.0
  0
LINE
  5
223
330
1F
100
AcDbEntity
  8
E-2
  6
Continuous
 62
     3
370
     9
100
AcDbLine
 10
-384.9645872463036
 20
-65.23460599332594
 30
0.0
 11
-384.9645872463036
 21
28.76522574759477
 31
0.0
  0
LINE
  5
224
330
1F
100
AcDbEntity
  8
E-2
  6
Continuous
 62
     3
370
     9
100
AcDbLine
 10
-384.9645872463036
 20
-113.7352023232984
 30
0.0
 11
-384.9645872463036
 21
-71.23477425240523
 31
0.0
  0
LINE
  5
225
330
1F
100
AcDbEntity
  8
E-2
  6
Continuous
 62
     3
370
     9
100
AcDbLine
 10
-389.9643253724913
 20
-65.23460599332594
 30
0.0
 11
-389.9643253724913
 21
28.76522574759477
 31
0.0
  0
LINE
  5
226
330
1F
100
AcDbEntity
  8
E-2
  6
Continuous
 62
     3
370
     9
100
AcDbLine
 10
-389.9643253724913
 20
-113.7352023232984
 30
0.0
 11
-389.9643253724913
 21
-71.23477425240523
 31
0.0
  0
LINE
  5
227
330
1F
100
AcDbEntity
  8
E-2
  6
Continuous
 62
     3
370
     9
100
AcDbLine
 10
-384.9645872463036
 20
34.76539400667406
 30
0.0
 11
-384.9645872463036
 21
128.7652257475948
 31
0.0
  0
LINE
  5
228
330
1F
100
AcDbEntity
  8
E-2
  6
Continuous
 62
     3
370
     9
100
AcDbLine
 10
-389.9643253724913
 20
34.76539400667406
 30
0.0
 11
-389.9643253724913
 21
128.7652257475948
 31
0.0
  0
LINE
  5
229
330
1F
100
AcDbEntity
  8
E-2
  6
Continuous
 62
     3
370
     9
100
AcDbLine
 10
-384.9645872463036
 20
134.7651465668515
 30
0.0
 11
-384.9645872463036
 21
228.765060787713
 31
0.0
  0
LINE
  5
22A
330
1F
100
AcDbEntity
  8
E-2
  6
Continuous
 62
     3
370
     9
100
AcDbLine
 10
-389.9643253724913
 20
134.7651465668515
 30
0.0
 11
-389.9643253724913
 21
228.765060787713
 31
0.0
  0
LINE
  5
22B
330
1F
100
AcDbEntity
  8
E-2
  6
Continuous
 62
     3
370
     9
100
AcDbLine
 10
-384.9645872463036
 20
234.7652290467924
 30
0.0
 11
-384.9645872463036
 21
328.7651432676541
 31
0.0
  0
LINE
  5
22C
330
1F
100
AcDbEntity
  8
E-2
  6
Continuous
 62
     3
370
     9
100
AcDbLine
 10
-389.9643253724913
 20
234.7652290467924
 30
0.0
 11
-389.9643253724913
 21
328.7651432676541
 31
0.0
  0
LINE
  5
22D
330
1F
100
AcDbEntity
  8
E-2
  6
Continuous
 62
     3
370
     9
100
AcDbLine
 10
-384.9645872463036
 20
434.7651465668516
 30
0.0
 11
-384.9645872463036
 21
477.2641906243366
 31
0.0
  0
LINE
  5
22E
330
1F
100
AcDbEntity
  8
E-2
  6
Continuous
 62
     3
370
     9
100
AcDbLine
 10
-389.9643253724913
 20
434.7651465668516
 30
0.0
 11
-389.9643253724913
 21
477.2641906243366
 31
0.0
  0
LINE
  5
22F
330
1F
100
AcDbEntity
  8
E-2
  6
Continuous
 62
     3
370
     9
100
AcDbLine
 10
-384.9645872463036
 20
334.7653115267333
 30
0.0
 11
-384.9645872463036
 21
428.7649783077723
 31
0.0
  0
LINE
  5
230
330
1F
100
AcDbEntity
  8
E-2
  6
Continuous
 62
     3
370
     9
100
AcDbLine
 10
-389.9643253724913
 20
334.7653115267333
 30
0.0
 11
-389.9643253724913
 21
428.7649783077723
 31
0.0
  0
LINE
  5
231
330
1F
100
AcDbEntity
  8
E-2
  6
Continuous
 62
     3
370
     9
100
AcDbLine
 10
-369.9645872463035
 20
-65.23460599332594
 30
0.0
 11
-369.9645872463035
 21
28.76522574759477
 31
0.0
  0
LINE
  5
232
330
1F
100
AcDbEntity
  8
E-2
  6
Continuous
 62
     3
370
     9
100
AcDbLine
 10
-369.9645872463035
 20
-113.7352023232984
 30
0.0
 11
-369.9645872463035
 21
-71.23477425240523
 31
0.0
  0
LINE
  5
233
330
1F
100
AcDbEntity
  8
E-2
  6
Continuous
 62
     3
370
     9
100
AcDbLine
 10
-374.9643253724913
 20
-65.23460599332594
 30
0.0
 11
-374.9643253724913
 21
28.76522574759477
 31
0.0
  0
LINE
  5
234
330
1F
100
AcDbEntity
  8
E-2
  6
Continuous
 62
     3
370
     9
100
AcDbLine
 10
-374.9643253724913
 20
-113.7352023232984
 30
0.0
 11
-374.9643253724913
 21
-71.23477425240523
 31
0.0
  0
LINE
  5
235
330
1F
100
AcDbEntity
  8
E-2
  6
Continuous
 62
     3
370
     9
100
AcDbLine
 10
-369.9645872463035
 20
34.76539400667406
 30
0.0
 11
-369.9645872463035
 21
128.7652257475948
 31
0.0
  0
LINE
  5
236
330
1F
100
AcDbEntity
  8
E-2
  6
Continuous
 62
     3
370
     9
100
AcDbLine
 10
-374.9643253724913
 20
34.76539400667406
 30
0.0
 11
-374.9643253724913
 21
128.7652257475948
 31
0.0
  0
LINE
  5
237
330
1F
100
AcDbEntity
  8
E-2
  6
Continuous
 62
     3
370
     9
100
AcDbLine
 10
-369.9645872463035
 20
134.7651465668515
 30
0.0
 11
-369.9645872463035
 21
228.765060787713
 31
0.0
  0
LINE
  5
238
330
1F
100
AcDbEntity
  8
E-2
  6
Continuous
 62
     3
370
     9
100
AcDbLine
 10
-374.9643253724913
 20
134.7651465668515
 30
0.0
 11
-374.9643253724913
 21
228.765060787713
 31
0.0
  0
LINE
  5
239
330
1F
100
AcDbEntity
  8
E-2
  6
Continuous
 62
     3
370
     9
100
AcDbLine
 10
-369.9645872463035
 20
234.7652290467924
 30
0.0
 11
-369.9645872463035
 21
328.7651432676541
 31
0.0
  0
LINE
  5
23A
330
1F
100
AcDbEntity
  8
E-2
  6
Continuous
 62
     3
370
     9
100
AcDbLine
 10
-374.9643253724913
 20
234.7652290467924
 30
0.0
 11
-374.9643253724913
 21
328.7651432676541
 31
0.0
  0
LINE
  5
23B
330
1F
100
AcDbEntity
  8
E-2
  6
Continuous
 62
     3
370
     9
100
AcDbLine
 10
-369.9645872463035
 20
434.7651465668516
 30
0.0
 11
-369.9645872463035
 21
477.2641906243366
 31
0.0
  0
LINE
  5
23C
330
1F
100
AcDbEntity
  8
E-2
  6
Continuous
 62
     3
370
     9
100
AcDbLine
 10
-374.9643253724913
 20
434.7651465668516
 30
0.0
 11
-374.9643253724913
 21
477.2641906243366
 31
0.0
  0
LINE
  5
23D
330
1F
100
AcDbEntity
  8
E-2
  6
Continuous
 62
     3
370
     9
100
AcDbLine
 10
-369.9645872463035
 20
334.7653115267333
 30
0.0
 11
-369.9645872463035
 21
428.7649783077723
 31
0.0
  0
LINE
  5
23E
330
1F
100
AcDbEntity
  8
E-2
  6
Continuous
 62
     3
370
     9
100
AcDbLine
 10
-374.9643253724913
 20
334.7653115267333
 30
0.0
 11
-374.9643253724913
 21
428.7649783077723
 31
0.0
  0
LINE
  5
23F
330
1F
100
AcDbEntity
  8
E-2
  6
Continuous
 62
     3
370
     9
100
AcDbLine
 10
-354.9645872463035
 20
-65.23460599332594
 30
0.0
 11
-354.9645872463035
 21
28.76522574759477
 31
0.0
  0
LINE
  5
240
330
1F
100
AcDbEntity
  8
E-2
  6
Continuous
 62
     3
370
     9
100
AcDbLine
 10
-354.9645872463035
 20
-113.7352023232984
 30
0.0
 11
-354.9645872463035
 21
-71.23477425240523
 31
0.0
  0
LINE
  5
241
330
1F
100
AcDbEntity
  8
E-2
  6
Continuous
 62
     3
370
     9
100
AcDbLine
 10
-359.9643253724913
 20
-65.23460599332594
 30
0.0
 11
-359.9643253724913
 21
28.76522574759477
 31
0.0
  0
LINE
  5
242
330
1F
100
AcDbEntity
  8
E-2
  6
Continuous
 62
     3
370
     9
100
AcDbLine
 10
-359.9643253724913
 20
-113.7352023232984
 30
0.0
 11
-359.9643253724913
 21
-71.23477425240523
 31
0.0
  0
LINE
  5
243
330
1F
100
AcDbEntity
  8
E-2
  6
Continuous
 62
     3
370
     9
100
AcDbLine
 10
-354.9645872463035
 20
34.76539400667406
 30
0.0
 11
-354.9645872463035
 21
128.7652257475948
 31
0.0
  0
LINE
  5
244
330
1F
100
AcDbEntity
  8
E-2
  6
Continuous
 62
     3
370
     9
100
AcDbLine
 10
-359.9643253724913
 20
34.76539400667406
 30
0.0
 11
-359.9643253724913
 21
128.7652257475948
 31
0.0
  0
LINE
  5
245
330
1F
100
AcDbEntity
  8
E-2
  6
Continuous
 62
     3
370
     9
100
AcDbLine
 10
-354.9645872463035
 20
134.7651465668515
 30
0.0
 11
-354.9645872463035
 21
228.765060787713
 31
0.0
  0
LINE
  5
246
330
1F
100
AcDbEntity
  8
E-2
  6
Continuous
 62
     3
370
     9
100
AcDbLine
 10
-359.9643253724913
 20
134.7651465668515
 30
0.0
 11
-359.9643253724913
 21
228.765060787713
 31
0.0
  0
LINE
  5
247
330
1F
100
AcDbEntity
  8
E-2
  6
Continuous
 62
     3
370
     9
100
AcDbLine
 10
-354.9645872463035
 20
234.7652290467924
 30
0.0
 11
-354.9645872463035
 21
328.7651432676541
 31
0.0
  0
LINE
  5
248
330
1F
100
AcDbEntity
  8
E-2
  6
Continuous
 62
     3
370
     9
100
AcDbLine
 10
-359.9643253724913
 20
234.7652290467924
 30
0.0
 11
-359.9643253724913
 21
328.7651432676541
 31
0.0
  0
LINE
  5
249
330
1F
100
AcDbEntity
  8
E-2
  6
Continuous
 62
     3
370
     9
100
AcDbLine
 10
-354.9645872463035
 20
434.7651465668516
 30
0.0
 11
-354.9645872463035
 21
477.2641906243366
 31
0.0
  0
LINE
  5
24A
330
1F
100
AcDbEntity
  8
E-2
  6
Continuous
 62
     3
370
     9
100
AcDbLine
 10
-359.9643253724913
 20
434.7651465668516
 30
0.0
 11
-359.9643253724913
 21
477.2641906243366
 31
0.0
  0
LINE
  5
24B
330
1F
100
AcDbEntity
  8
E-2
  6
Continuous
 62
     3
370
     9
100
AcDbLine
 10
-354.9645872463035
 20
334.7653115267333
 30
0.0
 11
-354.9645872463035
 21
428.7649783077723
 31
0.0
  0
LINE
  5
24C
330
1F
100
AcDbEntity
  8
E-2
  6
Continuous
 62
     3
370
     9
100
AcDbLine
 10
-359.9643253724913
 20
334.7653115267333
 30
0.0
 11
-359.9643253724913
 21
428.7649783077723
 31
0.0
  0
LINE
  5
24D
330
1F
100
AcDbEntity
  8
E-2
  6
Continuous
 62
     3
370
     9
100
AcDbLine
 10
-339.9645872463035
 20
-65.23460599332594
 30
0.0
 11
-339.9645872463035
 21
28.76522574759477
 31
0.0
  0
LINE
  5
24E
330
1F
100
AcDbEntity
  8
E-2
  6
Continuous
 62
     3
370
     9
100
AcDbLine
 10
-339.9645872463035
 20
-113.7352023232984
 30
0.0
 11
-339.9645872463035
 21
-71.23477425240523
 31
0.0
  0
LINE
  5
24F
330
1F
100
AcDbEntity
  8
E-2
  6
Continuous
 62
     3
370
     9
100
AcDbLine
 10
-344.9643253724913
 20
-65.23460599332594
 30
0.0
 11
-344.9643253724913
 21
28.76522574759477
 31
0.0
  0
LINE
  5
250
330
1F
100
AcDbEntity
  8
E-2
  6
Continuous
 62
     3
370
     9
100
AcDbLine
 10
-344.9643253724913
 20
-113.7352023232984
 30
0.0
 11
-344.9643253724913
 21
-71.23477425240523
 31
0.0
  0
LINE
  5
251
330
1F
100
AcDbEntity
  8
E-2
  6
Continuous
 62
     3
370
     9
100
AcDbLine
 10
-339.9645872463035
 20
34.76539400667406
 30
0.0
 11
-339.9645872463035
 21
128.7652257475948
 31
0.0
  0
LINE
  5
252
330
1F
100
AcDbEntity
  8
E-2
  6
Continuous
 62
     3
370
     9
100
AcDbLine
 10
-344.9643253724913
 20
34.76539400667406
 30
0.0
 11
-344.9643253724913
 21
128.7652257475948
 31
0.0
  0
LINE
  5
253
330
1F
100
AcDbEntity
  8
E-2
  6
Continuous
 62
     3
370
     9
100
AcDbLine
 10
-339.9645872463035
 20
134.7651465668515
 30
0.0
 11
-339.9645872463035
 21
228.765060787713
 31
0.0
  0
LINE
  5
254
330
1F
100
AcDbEntity
  8
E-2
  6
Continuous
 62
     3
370
     9
100
AcDbLine
 10
-344.9643253724913
 20
134.7651465668515
 30
0.0
 11
-344.9643253724913
 21
228.765060787713
 31
0.0
  0
LINE
  5
255
330
1F
100
AcDbEntity
  8
E-2
  6
Continuous
 62
     3
370
     9
100
AcDbLine
 10
-339.9645872463035
 20
234.7652290467924
 30
0.0
 11
-339.9645872463035
 21
328.7651432676541
 31
0.0
  0
LINE
  5
256
330
1F
100
AcDbEntity
  8
E-2
  6
Continuous
 62
     3
370
     9
100
AcDbLine
 10
-344.9643253724913
 20
234.7652290467924
 30
0.0
 11
-344.9643253724913
 21
328.7651432676541
 31
0.0
  0
LINE
  5
257
330
1F
100
AcDbEntity
  8
E-2
  6
Continuous
 62
     3
370
     9
100
AcDbLine
 10
-339.9645872463035
 20
434.7651465668516
 30
0.0
 11
-339.9645872463035
 21
477.2641906243366
 31
0.0
  0
LINE
  5
258
330
1F
100
AcDbEntity
  8
E-2
  6
Continuous
 62
     3
370
     9
100
AcDbLine
 10
-344.9643253724913
 20
434.7651465668516
 30
0.0
 11
-344.9643253724913
 21
477.2641906243366
 31
0.0
  0
LINE
  5
259
330
1F
100
AcDbEntity
  8
E-2
  6
Continuous
 62
     3
370
     9
100
AcDbLine
 10
-339.9645872463035
 20
334.7653115267333
 30
0.0
 11
-339.9645872463035
 21
428.7649783077723
 31
0.0
  0
LINE
  5
25A
330
1F
100
AcDbEntity
  8
E-2
  6
Continuous
 62
     3
370
     9
100
AcDbLine
 10
-344.9643253724913
 20
334.7653115267333
 30
0.0
 11
-344.9643253724913
 21
428.7649783077723
 31
0.0
  0
LINE
  5
25B
330
1F
100
AcDbEntity
  8
E-2
  6
Continuous
 62
     3
370
     9
100
AcDbLine
 10
-324.9645872463035
 20
-65.23460599332594
 30
0.0
 11
-324.9645872463035
 21
28.76522574759477
 31
0.0
  0
LINE
  5
25C
330
1F
100
AcDbEntity
  8
E-2
  6
Continuous
 62
     3
370
     9
100
AcDbLine
 10
-324.9645872463035
 20
-113.7352023232984
 30
0.0
 11
-324.9645872463035
 21
-71.23477425240523
 31
0.0
  0
LINE
  5
25D
330
1F
100
AcDbEntity
  8
E-2
  6
Continuous
 62
     3
370
     9
100
AcDbLine
 10
-329.9643253724913
 20
-65.23460599332594
 30
0.0
 11
-329.9643253724913
 21
28.76522574759477
 31
0.0
  0
LINE
  5
25E
330
1F
100
AcDbEntity
  8
E-2
  6
Continuous
 62
     3
370
     9
100
AcDbLine
 10
-329.9643253724913
 20
-113.7352023232984
 30
0.0
 11
-329.9643253724913
 21
-71.23477425240523
 31
0.0
  0
LINE
  5
25F
330
1F
100
AcDbEntity
  8
E-2
  6
Continuous
 62
     3
370
     9
100
AcDbLine
 10
-324.9645872463035
 20
34.76539400667406
 30
0.0
 11
-324.9645872463035
 21
128.7652257475948
 31
0.0
  0
LINE
  5
260
330
1F
100
AcDbEntity
  8
E-2
  6
Continuous
 62
     3
370
     9
100
AcDbLine
 10
-329.9643253724913
 20
34.76539400667406
 30
0.0
 11
-329.9643253724913
 21
128.7652257475948
 31
0.0
  0
LINE
  5
261
330
1F
100
AcDbEntity
  8
E-2
  6
Continuous
 62
     3
370
     9
100
AcDbLine
 10
-324.9645872463035
 20
134.7651465668515
 30
0.0
 11
-324.9645872463035
 21
228.765060787713
 31
0.0
  0
LINE
  5
262
330
1F
100
AcDbEntity
  8
E-2
  6
Continuous
 62
     3
370
     9
100
AcDbLine
 10
-329.9643253724913
 20
134.7651465668515
 30
0.0
 11
-329.9643253724913
 21
228.765060787713
 31
0.0
  0
LINE
  5
263
330
1F
100
AcDbEntity
  8
E-2
  6
Continuous
 62
     3
370
     9
100
AcDbLine
 10
-324.9645872463035
 20
234.7652290467924
 30
0.0
 11
-324.9645872463035
 21
328.7651432676541
 31
0.0
  0
LINE
  5
264
330
1F
100
AcDbEntity
  8
E-2
  6
Continuous
 62
     3
370
     9
100
AcDbLine
 10
-329.9643253724913
 20
234.7652290467924
 30
0.0
 11
-329.9643253724913
 21
328.7651432676541
 31
0.0
  0
LINE
  5
265
330
1F
100
AcDbEntity
  8
E-2
  6
Continuous
 62
     3
370
     9
100
AcDbLine
 10
-324.9645872463035
 20
434.7651465668516
 30
0.0
 11
-324.9645872463035
 21
477.2641906243366
 31
0.0
  0
LINE
  5
266
330
1F
100
AcDbEntity
  8
E-2
  6
Continuous
 62
     3
370
     9
100
AcDbLine
 10
-329.9643253724913
 20
434.7651465668516
 30
0.0
 11
-329.9643253724913
 21
477.2641906243366
 31
0.0
  0
LINE
  5
267
330
1F
100
AcDbEntity
  8
E-2
  6
Continuous
 62
     3
370
     9
100
AcDbLine
 10
-324.9645872463035
 20
334.7653115267333
 30
0.0
 11
-324.9645872463035
 21
428.7649783077723
 31
0.0
  0
LINE
  5
268
330
1F
100
AcDbEntity
  8
E-2
  6
Continuous
 62
     3
370
     9
100
AcDbLine
 10
-329.9643253724913
 20
334.7653115267333
 30
0.0
 11
-329.9643253724913
 21
428.7649783077723
 31
0.0
  0
LINE
  5
269
330
1F
100
AcDbEntity
  8
E-2
  6
Continuous
 62
     3
370
     9
100
AcDbLine
 10
-309.9645872463035
 20
-65.23460599332594
 30
0.0
 11
-309.9645872463035
 21
28.76522574759477
 31
0.0
  0
LINE
  5
26A
330
1F
100
AcDbEntity
  8
E-2
  6
Continuous
 62
     3
370
     9
100
AcDbLine
 10
-309.9645872463035
 20
-113.7352023232984
 30
0.0
 11
-309.9645872463035
 21
-71.23477425240523
 31
0.0
  0
LINE
  5
26B
330
1F
100
AcDbEntity
  8
E-2
  6
Continuous
 62
     3
370
     9
100
AcDbLine
 10
-314.9643253724913
 20
-65.23460599332594
 30
0.0
 11
-314.9643253724913
 21
28.76522574759477
 31
0.0
  0
LINE
  5
26C
330
1F
100
AcDbEntity
  8
E-2
  6
Continuous
 62
     3
370
     9
100
AcDbLine
 10
-314.9643253724913
 20
-113.7352023232984
 30
0.0
 11
-314.9643253724913
 21
-71.23477425240523
 31
0.0
  0
LINE
  5
26D
330
1F
100
AcDbEntity
  8
E-2
  6
Continuous
 62
     3
370
     9
100
AcDbLine
 10
-309.9645872463035
 20
34.76539400667406
 30
0.0
 11
-309.9645872463035
 21
128.7652257475948
 31
0.0
  0
LINE
  5
26E
330
1F
100
AcDbEntity
  8
E-2
  6
Continuous
 62
     3
370
     9
100
AcDbLine
 10
-314.9643253724913
 20
34.76539400667406
 30
0.0
 11
-314.9643253724913
 21
128.7652257475948
 31
0.0
  0
LINE
  5
26F
330
1F
100
AcDbEntity
  8
E-2
  6
Continuous
 62
     3
370
     9
100
AcDbLine
 10
-309.9645872463035
 20
134.7651465668515
 30
0.0
 11
-309.9645872463035
 21
228.765060787713
 31
0.0
  0
LINE
  5
270
330
1F
100
AcDbEntity
  8
E-2
  6
Continuous
 62
     3
370
     9
100
AcDbLine
 10
-314.9643253724913
 20
134.7651465668515
 30
0.0
 11
-314.9643253724913
 21
228.765060787713
 31
0.0
  0
LINE
  5
271
330
1F
100
AcDbEntity
  8
E-2
  6
Continuous
 62
     3
370
     9
100
AcDbLine
 10
-309.9645872463035
 20
234.7652290467924
 30
0.0
 11
-309.9645872463035
 21
328.7651432676541
 31
0.0
  0
LINE
  5
272
330
1F
100
AcDbEntity
  8
E-2
  6
Continuous
 62
     3
370
     9
100
AcDbLine
 10
-314.9643253724913
 20
234.7652290467924
 30
0.0
 11
-314.9643253724913
 21
328.7651432676541
 31
0.0
  0
LINE
  5
273
330
1F
100
AcDbEntity
  8
E-2
  6
Continuous
 62
     3
370
     9
100
AcDbLine
 10
-309.9645872463035
 20
434.7651465668516
 30
0.0
 11
-309.9645872463035
 21
477.2641906243366
 31
0.0
  0
LINE
  5
274
330
1F
100
AcDbEntity
  8
E-2
  6
Continuous
 62
     3
370
     9
100
AcDbLine
 10
-314.9643253724913
 20
434.7651465668516
 30
0.0
 11
-314.9643253724913
 21
477.2641906243366
 31
0.0
  0
LINE
  5
275
330
1F
100
AcDbEntity
  8
E-2
  6
Continuous
 62
     3
370
     9
100
AcDbLine
 10
-309.9645872463035
 20
334.7653115267333
 30
0.0
 11
-309.9645872463035
 21
428.7649783077723
 31
0.0
  0
LINE
  5
276
330
1F
100
AcDbEntity
  8
E-2
  6
Continuous
 62
     3
370
     9
100
AcDbLine
 10
-314.9643253724913
 20
334.7653115267333
 30
0.0
 11
-314.9643253724913
 21
428.7649783077723
 31
0.0
  0
LINE
  5
277
330
1F
100
AcDbEntity
  8
E-2
  6
Continuous
 62
     3
370
     9
100
AcDbLine
 10
-294.9645872463035
 20
-65.23460599332594
 30
0.0
 11
-294.9645872463035
 21
28.76522574759477
 31
0.0
  0
LINE
  5
278
330
1F
100
AcDbEntity
  8
E-2
  6
Continuous
 62
     3
370
     9
100
AcDbLine
 10
-294.9645872463035
 20
-113.7352023232984
 30
0.0
 11
-294.9645872463035
 21
-71.23477425240523
 31
0.0
  0
LINE
  5
279
330
1F
100
AcDbEntity
  8
E-2
  6
Continuous
 62
     3
370
     9
100
AcDbLine
 10
-299.9643253724913
 20
-65.23460599332594
 30
0.0
 11
-299.9643253724913
 21
28.76522574759477
 31
0.0
  0
LINE
  5
27A
330
1F
100
AcDbEntity
  8
E-2
  6
Continuous
 62
     3
370
     9
100
AcDbLine
 10
-299.9643253724913
 20
-113.7352023232984
 30
0.0
 11
-299.9643253724913
 21
-71.23477425240523
 31
0.0
  0
LINE
  5
27B
330
1F
100
AcDbEntity
  8
E-2
  6
Continuous
 62
     3
370
     9
100
AcDbLine
 10
-294.9645872463035
 20
34.76539400667406
 30
0.0
 11
-294.9645872463035
 21
128.7652257475948
 31
0.0
  0
LINE
  5
27C
330
1F
100
AcDbEntity
  8
E-2
  6
Continuous
 62
     3
370
     9
100
AcDbLine
 10
-299.9643253724913
 20
34.76539400667406
 30
0.0
 11
-299.9643253724913
 21
128.7652257475948
 31
0.0
  0
LINE
  5
27D
330
1F
100
AcDbEntity
  8
E-2
  6
Continuous
 62
     3
370
     9
100
AcDbLine
 10
-294.9645872463035
 20
134.7651465668515
 30
0.0
 11
-294.9645872463035
 21
228.765060787713
 31
0.0
  0
LINE
  5
27E
330
1F
100
AcDbEntity
  8
E-2
  6
Continuous
 62
     3
370
     9
100
AcDbLine
 10
-299.9643253724913
 20
134.7651465668515
 30
0.0
 11
-299.9643253724913
 21
228.765060787713
 31
0.0
  0
LINE
  5
27F
330
1F
100
AcDbEntity
  8
E-2
  6
Continuous
 62
     3
370
     9
100
AcDbLine
 10
-294.9645872463035
 20
234.7652290467924
 30
0.0
 11
-294.9645872463035
 21
328.7651432676541
 31
0.0
  0
LINE
  5
280
330
1F
100
AcDbEntity
  8
E-2
  6
Continuous
 62
     3
370
     9
100
AcDbLine
 10
-299.9643253724913
 20
234.7652290467924
 30
0.0
 11
-299.9643253724913
 21
328.7651432676541
 31
0.0
  0
LINE
  5
281
330
1F
100
AcDbEntity
  8
E-2
  6
Continuous
 62
     3
370
     9
100
AcDbLine
 10
-294.9645872463035
 20
434.7651465668516
 30
0.0
 11
-294.9645872463035
 21
477.2641906243366
 31
0.0
  0
LINE
  5
282
330
1F
100
AcDbEntity
  8
E-2
  6
Continuous
 62
     3
370
     9
100
AcDbLine
 10
-299.9643253724913
 20
434.7651465668516
 30
0.0
 11
-299.9643253724913
 21
477.2641906243366
 31
0.0
  0
LINE
  5
283
330
1F
100
AcDbEntity
  8
E-2
  6
Continuous
 62
     3
370
     9
100
AcDbLine
 10
-294.9645872463035
 20
334.7653115267333
 30
0.0
 11
-294.9645872463035
 21
428.7649783077723
 31
0.0
  0
LINE
  5
284
330
1F
100
AcDbEntity
  8
E-2
  6
Continuous
 62
     3
370
     9
100
AcDbLine
 10
-299.9643253724913
 20
334.7653115267333
 30
0.0
 11
-299.9643253724913
 21
428.7649783077723
 31
0.0
  0
LINE
  5
285
330
1F
100
AcDbEntity
  8
E-2
  6
Continuous
 62
     3
370
     9
100
AcDbLine
 10
-279.9645872463035
 20
-65.23460599332594
 30
0.0
 11
-279.9645872463035
 21
28.76522574759477
 31
0.0
  0
LINE
  5
286
330
1F
100
AcDbEntity
  8
E-2
  6
Continuous
 62
     3
370
     9
100
AcDbLine
 10
-279.9645872463035
 20
-113.7352023232984
 30
0.0
 11
-279.9645872463035
 21
-71.23477425240523
 31
0.0
  0
LINE
  5
287
330
1F
100
AcDbEntity
  8
E-2
  6
Continuous
 62
     3
370
     9
100
AcDbLine
 10
-284.9643253724913
 20
-65.23460599332594
 30
0.0
 11
-284.9643253724913
 21
28.76522574759477
 31
0.0
  0
LINE
  5
288
330
1F
100
AcDbEntity
  8
E-2
  6
Continuous
 62
     3
370
     9
100
AcDbLine
 10
-284.9643253724913
 20
-113.7352023232984
 30
0.0
 11
-284.9643253724913
 21
-71.23477425240523
 31
0.0
  0
LINE
  5
289
330
1F
100
AcDbEntity
  8
E-2
  6
Continuous
 62
     3
370
     9
100
AcDbLine
 10
-279.9645872463035
 20
34.76539400667406
 30
0.0
 11
-279.9645872463035
 21
128.7652257475948
 31
0.0
  0
LINE
  5
28A
330
1F
100
AcDbEntity
  8
E-2
  6
Continuous
 62
     3
370
     9
100
AcDbLine
 10
-284.9643253724913
 20
34.76539400667406
 30
0.0
 11
-284.9643253724913
 21
128.7652257475948
 31
0.0
  0
LINE
  5
28B
330
1F
100
AcDbEntity
  8
E-2
  6
Continuous
 62
     3
370
     9
100
AcDbLine
 10
-279.9645872463035
 20
134.7651465668515
 30
0.0
 11
-279.9645872463035
 21
228.765060787713
 31
0.0
  0
LINE
  5
28C
330
1F
100
AcDbEntity
  8
E-2
  6
Continuous
 62
     3
370
     9
100
AcDbLine
 10
-284.9643253724913
 20
134.7651465668515
 30
0.0
 11
-284.9643253724913
 21
228.765060787713
 31
0.0
  0
LINE
  5
28D
330
1F
100
AcDbEntity
  8
E-2
  6
Continuous
 62
     3
370
     9
100
AcDbLine
 10
-279.9645872463035
 20
234.7652290467924
 30
0.0
 11
-279.9645872463035
 21
328.7651432676541
 31
0.0
  0
LINE
  5
28E
330
1F
100
AcDbEntity
  8
E-2
  6
Continuous
 62
     3
370
     9
100
AcDbLine
 10
-284.9643253724913
 20
234.7652290467924
 30
0.0
 11
-284.9643253724913
 21
328.7651432676541
 31
0.0
  0
LINE
  5
28F
330
1F
100
AcDbEntity
  8
E-2
  6
Continuous
 62
     3
370
     9
100
AcDbLine
 10
-279.9645872463035
 20
434.7651465668516
 30
0.0
 11
-279.9645872463035
 21
477.2641906243366
 31
0.0
  0
LINE
  5
290
330
1F
100
AcDbEntity
  8
E-2
  6
Continuous
 62
     3
370
     9
100
AcDbLine
 10
-284.9643253724913
 20
434.7651465668516
 30
0.0
 11
-284.9643253724913
 21
477.2641906243366
 31
0.0
  0
LINE
  5
291
330
1F
100
AcDbEntity
  8
E-2
  6
Continuous
 62
     3
370
     9
100
AcDbLine
 10
-279.9645872463035
 20
334.7653115267333
 30
0.0
 11
-279.9645872463035
 21
428.7649783077723
 31
0.0
  0
LINE
  5
292
330
1F
100
AcDbEntity
  8
E-2
  6
Continuous
 62
     3
370
     9
100
AcDbLine
 10
-284.9643253724913
 20
334.7653115267333
 30
0.0
 11
-284.9643253724913
 21
428.7649783077723
 31
0.0
  0
LINE
  5
293
330
1F
100
AcDbEntity
  8
E-2
  6
Continuous
 62
     3
370
     9
100
AcDbLine
 10
-264.9645872463035
 20
-65.23460599332594
 30
0.0
 11
-264.9645872463035
 21
28.76522574759477
 31
0.0
  0
LINE
  5
294
330
1F
100
AcDbEntity
  8
E-2
  6
Continuous
 62
     3
370
     9
100
AcDbLine
 10
-264.9645872463035
 20
-113.7352023232984
 30
0.0
 11
-264.9645872463035
 21
-71.23477425240523
 31
0.0
  0
LINE
  5
295
330
1F
100
AcDbEntity
  8
E-2
  6
Continuous
 62
     3
370
     9
100
AcDbLine
 10
-269.9643253724913
 20
-65.23460599332594
 30
0.0
 11
-269.9643253724913
 21
28.76522574759477
 31
0.0
  0
LINE
  5
296
330
1F
100
AcDbEntity
  8
E-2
  6
Continuous
 62
     3
370
     9
100
AcDbLine
 10
-269.9643253724913
 20
-113.7352023232984
 30
0.0
 11
-269.9643253724913
 21
-71.23477425240523
 31
0.0
  0
LINE
  5
297
330
1F
100
AcDbEntity
  8
E-2
  6
Continuous
 62
     3
370
     9
100
AcDbLine
 10
-264.9645872463035
 20
34.76539400667406
 30
0.0
 11
-264.9645872463035
 21
128.7652257475948
 31
0.0
  0
LINE
  5
298
330
1F
100
AcDbEntity
  8
E-2
  6
Continuous
 62
     3
370
     9
100
AcDbLine
 10
-269.9643253724913
 20
34.76539400667406
 30
0.0
 11
-269.9643253724913
 21
128.7652257475948
 31
0.0
  0
LINE
  5
299
330
1F
100
AcDbEntity
  8
E-2
  6
Continuous
 62
     3
370
     9
100
AcDbLine
 10
-264.9645872463035
 20
134.7651465668515
 30
0.0
 11
-264.9645872463035
 21
228.765060787713
 31
0.0
  0
LINE
  5
29A
330
1F
100
AcDbEntity
  8
E-2
  6
Continuous
 62
     3
370
     9
100
AcDbLine
 10
-269.9643253724913
 20
134.7651465668515
 30
0.0
 11
-269.9643253724913
 21
228.765060787713
 31
0.0
  0
LINE
  5
29B
330
1F
100
AcDbEntity
  8
E-2
  6
Continuous
 62
     3
370
     9
100
AcDbLine
 10
-264.9645872463035
 20
234.7652290467924
 30
0.0
 11
-264.9645872463035
 21
328.7651432676541
 31
0.0
  0
LINE
  5
29C
330
1F
100
AcDbEntity
  8
E-2
  6
Continuous
 62
     3
370
     9
100
AcDbLine
 10
-269.9643253724913
 20
234.7652290467924
 30
0.0
 11
-269.9643253724913
 21
328.7651432676541
 31
0.0
  0
LINE
  5
29D
330
1F
100
AcDbEntity
  8
E-2
  6
Continuous
 62
     3
370
     9
100
AcDbLine
 10
-264.9645872463035
 20
434.7651465668516
 30
0.0
 11
-264.9645872463035
 21
477.2641906243366
 31
0.0
  0
LINE
  5
29E
330
1F
100
AcDbEntity
  8
E-2
  6
Continuous
 62
     3
370
     9
100
AcDbLine
 10
-269.9643253724913
 20
434.7651465668516
 30
0.0
 11
-269.9643253724913
 21
477.2641906243366
 31
0.0
  0
LINE
  5
29F
330
1F
100
AcDbEntity
  8
E-2
  6
Continuous
 62
     3
370
     9
100
AcDbLine
 10
-264.9645872463035
 20
334.7653115267333
 30
0.0
 11
-264.9645872463035
 21
428.7649783077723
 31
0.0
  0
LINE
  5
2A0
330
1F
100
AcDbEntity
  8
E-2
  6
Continuous
 62
     3
370
     9
100
AcDbLine
 10
-269.9643253724913
 20
334.7653115267333
 30
0.0
 11
-269.9643253724913
 21
428.7649783077723
 31
0.0
  0
LINE
  5
2A1
330
1F
100
AcDbEntity
  8
E-2
  6
Continuous
 62
     3
370
     9
100
AcDbLine
 10
-249.9645872463035
 20
-65.23460599332594
 30
0.0
 11
-249.9645872463035
 21
28.76522574759477
 31
0.0
  0
LINE
  5
2A2
330
1F
100
AcDbEntity
  8
E-2
  6
Continuous
 62
     3
370
     9
100
AcDbLine
 10
-249.9645872463035
 20
-113.7352023232984
 30
0.0
 11
-249.9645872463035
 21
-71.23477425240523
 31
0.0
  0
LINE
  5
2A3
330
1F
100
AcDbEntity
  8
E-2
  6
Continuous
 62
     3
370
     9
100
AcDbLine
 10
-254.9643253724913
 20
-65.23460599332594
 30
0.0
 11
-254.9643253724913
 21
28.76522574759477
 31
0.0
  0
LINE
  5
2A4
330
1F
100
AcDbEntity
  8
E-2
  6
Continuous
 62
     3
370
     9
100
AcDbLine
 10
-254.9643253724913
 20
-113.7352023232984
 30
0.0
 11
-254.9643253724913
 21
-71.23477425240523
 31
0.0
  0
LINE
  5
2A5
330
1F
100
AcDbEntity
  8
E-2
  6
Continuous
 62
     3
370
     9
100
AcDbLine
 10
-249.9645872463035
 20
34.76539400667406
 30
0.0
 11
-249.9645872463035
 21
128.7652257475948
 31
0.0
  0
LINE
  5
2A6
330
1F
100
AcDbEntity
  8
E-2
  6
Continuous
 62
     3
370
     9
100
AcDbLine
 10
-254.9643253724913
 20
34.76539400667406
 30
0.0
 11
-254.9643253724913
 21
128.7652257475948
 31
0.0
  0
LINE
  5
2A7
330
1F
100
AcDbEntity
  8
E-2
  6
Continuous
 62
     3
370
     9
100
AcDbLine
 10
-249.9645872463035
 20
134.7651465668515
 30
0.0
 11
-249.9645872463035
 21
228.765060787713
 31
0.0
  0
LINE
  5
2A8
330
1F
100
AcDbEntity
  8
E-2
  6
Continuous
 62
     3
370
     9
100
AcDbLine
 10
-254.9643253724913
 20
134.7651465668515
 30
0.0
 11
-254.9643253724913
 21
228.765060787713
 31
0.0
  0
LINE
  5
2A9
330
1F
100
AcDbEntity
  8
E-2
  6
Continuous
 62
     3
370
     9
100
AcDbLine
 10
-249.9645872463035
 20
234.7652290467924
 30
0.0
 11
-249.9645872463035
 21
328.7651432676541
 31
0.0
  0
LINE
  5
2AA
330
1F
100
AcDbEntity
  8
E-2
  6
Continuous
 62
     3
370
     9
100
AcDbLine
 10
-254.9643253724913
 20
234.7652290467924
 30
0.0
 11
-254.9643253724913
 21
328.7651432676541
 31
0.0
  0
LINE
  5
2AB
330
1F
100
AcDbEntity
  8
E-2
  6
Continuous
 62
     3
370
     9
100
AcDbLine
 10
-249.9645872463035
 20
434.7651465668516
 30
0.0
 11
-249.9645872463035
 21
477.2641906243366
 31
0.0
  0
LINE
  5
2AC
330
1F
100
AcDbEntity
  8
E-2
  6
Continuous
 62
     3
370
     9
100
AcDbLine
 10
-254.9643253724913
 20
434.7651465668516
 30
0.0
 11
-254.9643253724913
 21
477.2641906243366
 31
0.0
  0
LINE
  5
2AD
330
1F
100
AcDbEntity
  8
E-2
  6
Continuous
 62
     3
370
     9
100
AcDbLine
 10
-249.9645872463035
 20
334.7653115267333
 30
0.0
 11
-249.9645872463035
 21
428.7649783077723
 31
0.0
  0
LINE
  5
2AE
330
1F
100
AcDbEntity
  8
E-2
  6
Continuous
 62
     3
370
     9
100
AcDbLine
 10
-254.9643253724913
 20
334.7653115267333
 30
0.0
 11
-254.9643253724913
 21
428.7649783077723
 31
0.0
  0
LINE
  5
2AF
330
1F
100
AcDbEntity
  8
E-2
  6
Continuous
 62
     3
370
     9
100
AcDbLine
 10
-234.9645872463035
 20
-65.23460599332594
 30
0.0
 11
-234.9645872463035
 21
28.76522574759477
 31
0.0
  0
LINE
  5
2B0
330
1F
100
AcDbEntity
  8
E-2
  6
Continuous
 62
     3
370
     9
100
AcDbLine
 10
-234.9645872463035
 20
-113.7352023232984
 30
0.0
 11
-234.9645872463035
 21
-71.23477425240523
 31
0.0
  0
LINE
  5
2B1
330
1F
100
AcDbEntity
  8
E-2
  6
Continuous
 62
     3
370
     9
100
AcDbLine
 10
-239.9643253724913
 20
-65.23460599332594
 30
0.0
 11
-239.9643253724913
 21
28.76522574759477
 31
0.0
  0
LINE
  5
2B2
330
1F
100
AcDbEntity
  8
E-2
  6
Continuous
 62
     3
370
     9
100
AcDbLine
 10
-239.9643253724913
 20
-113.7352023232984
 30
0.0
 11
-239.9643253724913
 21
-71.23477425240523
 31
0.0
  0
LINE
  5
2B3
330
1F
100
AcDbEntity
  8
E-2
  6
Continuous
 62
     3
370
     9
100
AcDbLine
 10
-234.9645872463035
 20
34.76539400667406
 30
0.0
 11
-234.9645872463035
 21
128.7652257475948
 31
0.0
  0
LINE
  5
2B4
330
1F
100
AcDbEntity
  8
E-2
  6
Continuous
 62
     3
370
     9
100
AcDbLine
 10
-239.9643253724913
 20
34.76539400667406
 30
0.0
 11
-239.9643253724913
 21
128.7652257475948
 31
0.0
  0
LINE
  5
2B5
330
1F
100
AcDbEntity
  8
E-2
  6
Continuous
 62
     3
370
     9
100
AcDbLine
 10
-234.9645872463035
 20
134.7651465668515
 30
0.0
 11
-234.9645872463035
 21
228.765060787713
 31
0.0
  0
LINE
  5
2B6
330
1F
100
AcDbEntity
  8
E-2
  6
Continuous
 62
     3
370
     9
100
AcDbLine
 10
-239.9643253724913
 20
134.7651465668515
 30
0.0
 11
-239.9643253724913
 21
228.765060787713
 31
0.0
  0
LINE
  5
2B7
330
1F
100
AcDbEntity
  8
E-2
  6
Continuous
 62
     3
370
     9
100
AcDbLine
 10
-234.9645872463035
 20
234.7652290467924
 30
0.0
 11
-234.9645872463035
 21
328.7651432676541
 31
0.0
  0
LINE
  5
2B8
330
1F
100
AcDbEntity
  8
E-2
  6
Continuous
 62
     3
370
     9
100
AcDbLine
 10
-239.9643253724913
 20
234.7652290467924
 30
0.0
 11
-239.9643253724913
 21
328.7651432676541
 31
0.0
  0
LINE
  5
2B9
330
1F
100
AcDbEntity
  8
E-2
  6
Continuous
 62
     3
370
     9
100
AcDbLine
 10
-234.9645872463035
 20
434.7651465668516
 30
0.0
 11
-234.9645872463035
 21
477.2641906243366
 31
0.0
  0
LINE
  5
2BA
330
1F
100
AcDbEntity
  8
E-2
  6
Continuous
 62
     3
370
     9
100
AcDbLine
 10
-239.9643253724913
 20
434.7651465668516
 30
0.0
 11
-239.9643253724913
 21
477.2641906243366
 31
0.0
  0
LINE
  5
2BB
330
1F
100
AcDbEntity
  8
E-2
  6
Continuous
 62
     3
370
     9
100
AcDbLine
 10
-234.9645872463035
 20
334.7653115267333
 30
0.0
 11
-234.9645872463035
 21
428.7649783077723
 31
0.0
  0
LINE
  5
2BC
330
1F
100
AcDbEntity
  8
E-2
  6
Continuous
 62
     3
370
     9
100
AcDbLine
 10
-239.9643253724913
 20
334.7653115267333
 30
0.0
 11
-239.9643253724913
 21
428.7649783077723
 31
0.0
  0
LINE
  5
2BD
330
1F
100
AcDbEntity
  8
E-2
  6
Continuous
 62
     3
370
     9
100
AcDbLine
 10
-219.9645872463035
 20
-65.23460599332594
 30
0.0
 11
-219.9645872463035
 21
28.76522574759477
 31
0.0
  0
LINE
  5
2BE
330
1F
100
AcDbEntity
  8
E-2
  6
Continuous
 62
     3
370
     9
100
AcDbLine
 10
-219.9645872463035
 20
-113.7352023232984
 30
0.0
 11
-219.9645872463035
 21
-71.23477425240523
 31
0.0
  0
LINE
  5
2BF
330
1F
100
AcDbEntity
  8
E-2
  6
Continuous
 62
     3
370
     9
100
AcDbLine
 10
-224.9643253724913
 20
-65.23460599332594
 30
0.0
 11
-224.9643253724913
 21
28.76522574759477
 31
0.0
  0
LINE
  5
2C0
330
1F
100
AcDbEntity
  8
E-2
  6
Continuous
 62
     3
370
     9
100
AcDbLine
 10
-224.9643253724913
 20
-113.7352023232984
 30
0.0
 11
-224.9643253724913
 21
-71.23477425240523
 31
0.0
  0
LINE
  5
2C1
330
1F
100
AcDbEntity
  8
E-2
  6
Continuous
 62
     3
370
     9
100
AcDbLine
 10
-219.9645872463035
 20
34.76539400667406
 30
0.0
 11
-219.9645872463035
 21
128.7652257475948
 31
0.0
  0
LINE
  5
2C2
330
1F
100
AcDbEntity
  8
E-2
  6
Continuous
 62
     3
370
     9
100
AcDbLine
 10
-224.9643253724913
 20
34.76539400667406
 30
0.0
 11
-224.9643253724913
 21
128.7652257475948
 31
0.0
  0
LINE
  5
2C3
330
1F
100
AcDbEntity
  8
E-2
  6
Continuous
 62
     3
370
     9
100
AcDbLine
 10
-219.9645872463035
 20
134.7651465668515
 30
0.0
 11
-219.9645872463035
 21
228.765060787713
 31
0.0
  0
LINE
  5
2C4
330
1F
100
AcDbEntity
  8
E-2
  6
Continuous
 62
     3
370
     9
100
AcDbLine
 10
-224.9643253724913
 20
134.7651465668515
 30
0.0
 11
-224.9643253724913
 21
228.765060787713
 31
0.0
  0
LINE
  5
2C5
330
1F
100
AcDbEntity
  8
E-2
  6
Continuous
 62
     3
370
     9
100
AcDbLine
 10
-219.9645872463035
 20
234.7652290467924
 30
0.0
 11
-219.9645872463035
 21
328.7651432676541
 31
0.0
  0
LINE
  5
2C6
330
1F
100
AcDbEntity
  8
E-2
  6
Continuous
 62
     3
370
     9
100
AcDbLine
 10
-224.9643253724913
 20
234.7652290467924
 30
0.0
 11
-224.9643253724913
 21
328.7651432676541
 31
0.0
  0
LINE
  5
2C7
330
1F
100
AcDbEntity
  8
E-2
  6
Continuous
 62
     3
370
     9
100
AcDbLine
 10
-219.9645872463035
 20
434.7651465668516
 30
0.0
 11
-219.9645872463035
 21
477.2641906243366
 31
0.0
  0
LINE
  5
2C8
330
1F
100
AcDbEntity
  8
E-2
  6
Continuous
 62
     3
370
     9
100
AcDbLine
 10
-224.9643253724913
 20
434.7651465668516
 30
0.0
 11
-224.9643253724913
 21
477.2641906243366
 31
0.0
  0
LINE
  5
2C9
330
1F
100
AcDbEntity
  8
E-2
  6
Continuous
 62
     3
370
     9
100
AcDbLine
 10
-219.9645872463035
 20
334.7653115267333
 30
0.0
 11
-219.9645872463035
 21
428.7649783077723
 31
0.0
  0
LINE
  5
2CA
330
1F
100
AcDbEntity
  8
E-2
  6
Continuous
 62
     3
370
     9
100
AcDbLine
 10
-224.9643253724913
 20
334.7653115267333
 30
0.0
 11
-224.9643253724913
 21
428.7649783077723
 31
0.0
  0
LINE
  5
2CB
330
1F
100
AcDbEntity
  8
E-2
  6
Continuous
 62
     3
370
     9
100
AcDbLine
 10
-204.9645872463035
 20
-65.23460599332594
 30
0.0
 11
-204.9645872463035
 21
28.76522574759477
 31
0.0
  0
LINE
  5
2CC
330
1F
100
AcDbEntity
  8
E-2
  6
Continuous
 62
     3
370
     9
100
AcDbLine
 10
-204.9645872463035
 20
-113.7352023232984
 30
0.0
 11
-204.9645872463035
 21
-71.23477425240523
 31
0.0
  0
LINE
  5
2CD
330
1F
100
AcDbEntity
  8
E-2
  6
Continuous
 62
     3
370
     9
100
AcDbLine
 10
-209.9643253724913
 20
-65.23460599332594
 30
0.0
 11
-209.9643253724913
 21
28.76522574759477
 31
0.0
  0
LINE
  5
2CE
330
1F
100
AcDbEntity
  8
E-2
  6
Continuous
 62
     3
370
     9
100
AcDbLine
 10
-209.9643253724913
 20
-113.7352023232984
 30
0.0
 11
-209.9643253724913
 21
-71.23477425240523
 31
0.0
  0
LINE
  5
2CF
330
1F
100
AcDbEntity
  8
E-2
  6
Continuous
 62
     3
370
     9
100
AcDbLine
 10
-204.9645872463035
 20
34.76539400667406
 30
0.0
 11
-204.9645872463035
 21
128.7652257475948
 31
0.0
  0
LINE
  5
2D0
330
1F
100
AcDbEntity
  8
E-2
  6
Continuous
 62
     3
370
     9
100
AcDbLine
 10
-209.9643253724913
 20
34.76539400667406
 30
0.0
 11
-209.9643253724913
 21
128.7652257475948
 31
0.0
  0
LINE
  5
2D1
330
1F
100
AcDbEntity
  8
E-2
  6
Continuous
 62
     3
370
     9
100
AcDbLine
 10
-204.9645872463035
 20
134.7651465668515
 30
0.0
 11
-204.9645872463035
 21
228.765060787713
 31
0.0
  0
LINE
  5
2D2
330
1F
100
AcDbEntity
  8
E-2
  6
Continuous
 62
     3
370
     9
100
AcDbLine
 10
-209.9643253724913
 20
134.7651465668515
 30
0.0
 11
-209.9643253724913
 21
228.765060787713
 31
0.0
  0
LINE
  5
2D3
330
1F
100
AcDbEntity
  8
E-2
  6
Continuous
 62
     3
370
     9
100
AcDbLine
 10
-204.9645872463035
 20
234.7652290467924
 30
0.0
 11
-204.9645872463035
 21
328.7651432676541
 31
0.0
  0
LINE
  5
2D4
330
1F
100
AcDbEntity
  8
E-2
  6
Continuous
 62
     3
370
     9
100
AcDbLine
 10
-209.9643253724913
 20
234.7652290467924
 30
0.0
 11
-209.9643253724913
 21
328.7651432676541
 31
0.0
  0
LINE
  5
2D5
330
1F
100
AcDbEntity
  8
E-2
  6
Continuous
 62
     3
370
     9
100
AcDbLine
 10
-204.9645872463035
 20
434.7651465668516
 30
0.0
 11
-204.9645872463035
 21
477.2641906243366
 31
0.0
  0
LINE
  5
2D6
330
1F
100
AcDbEntity
  8
E-2
  6
Continuous
 62
     3
370
     9
100
AcDbLine
 10
-209.9643253724913
 20
434.7651465668516
 30
0.0
 11
-209.9643253724913
 21
477.2641906243366
 31
0.0
  0
LINE
  5
2D7
330
1F
100
AcDbEntity
  8
E-2
  6
Continuous
 62
     3
370
     9
100
AcDbLine
 10
-204.9645872463035
 20
334.7653115267333
 30
0.0
 11
-204.9645872463035
 21
428.7649783077723
 31
0.0
  0
LINE
  5
2D8
330
1F
100
AcDbEntity
  8
E-2
  6
Continuous
 62
     3
370
     9
100
AcDbLine
 10
-209.9643253724913
 20
334.7653115267333
 30
0.0
 11
-209.9643253724913
 21
428.7649783077723
 31
0.0
  0
LINE
  5
2D9
330
1F
100
AcDbEntity
  8
E-2
  6
Continuous
 62
     3
370
     9
100
AcDbLine
 10
-189.9645872463035
 20
-65.23460599332594
 30
0.0
 11
-189.9645872463035
 21
28.76522574759477
 31
0.0
  0
LINE
  5
2DA
330
1F
100
AcDbEntity
  8
E-2
  6
Continuous
 62
     3
370
     9
100
AcDbLine
 10
-189.9645872463035
 20
-113.7352023232984
 30
0.0
 11
-189.9645872463035
 21
-71.23477425240523
 31
0.0
  0
LINE
  5
2DB
330
1F
100
AcDbEntity
  8
E-2
  6
Continuous
 62
     3
370
     9
100
AcDbLine
 10
-194.9643253724913
 20
-65.23460599332594
 30
0.0
 11
-194.9643253724913
 21
28.76522574759477
 31
0.0
  0
LINE
  5
2DC
330
1F
100
AcDbEntity
  8
E-2
  6
Continuous
 62
     3
370
     9
100
AcDbLine
 10
-194.9643253724913
 20
-113.7352023232984
 30
0.0
 11
-194.9643253724913
 21
-71.23477425240523
 31
0.0
  0
LINE
  5
2DD
330
1F
100
AcDbEntity
  8
E-2
  6
Continuous
 62
     3
370
     9
100
AcDbLine
 10
-189.9645872463035
 20
34.76539400667406
 30
0.0
 11
-189.9645872463035
 21
128.7652257475948
 31
0.0
  0
LINE
  5
2DE
330
1F
100
AcDbEntity
  8
E-2
  6
Continuous
 62
     3
370
     9
100
AcDbLine
 10
-194.9643253724913
 20
34.76539400667406
 30
0.0
 11
-194.9643253724913
 21
128.7652257475948
 31
0.0
  0
LINE
  5
2DF
330
1F
100
AcDbEntity
  8
E-2
  6
Continuous
 62
     3
370
     9
100
AcDbLine
 10
-189.9645872463035
 20
134.7651465668515
 30
0.0
 11
-189.9645872463035
 21
228.765060787713
 31
0.0
  0
LINE
  5
2E0
330
1F
100
AcDbEntity
  8
E-2
  6
Continuous
 62
     3
370
     9
100
AcDbLine
 10
-194.9643253724913
 20
134.7651465668515
 30
0.0
 11
-194.9643253724913
 21
228.765060787713
 31
0.0
  0
LINE
  5
2E1
330
1F
100
AcDbEntity
  8
E-2
  6
Continuous
 62
     3
370
     9
100
AcDbLine
 10
-189.9645872463035
 20
234.7652290467924
 30
0.0
 11
-189.9645872463035
 21
328.7651432676541
 31
0.0
  0
LINE
  5
2E2
330
1F
100
AcDbEntity
  8
E-2
  6
Continuous
 62
     3
370
     9
100
AcDbLine
 10
-194.9643253724913
 20
234.7652290467924
 30
0.0
 11
-194.9643253724913
 21
328.7651432676541
 31
0.0
  0
LINE
  5
2E3
330
1F
100
AcDbEntity
  8
E-2
  6
Continuous
 62
     3
370
     9
100
AcDbLine
 10
-189.9645872463035
 20
434.7651465668516
 30
0.0
 11
-189.9645872463035
 21
477.2641906243366
 31
0.0
  0
LINE
  5
2E4
330
1F
100
AcDbEntity
  8
E-2
  6
Continuous
 62
     3
370
     9
100
AcDbLine
 10
-194.9643253724913
 20
434.7651465668516
 30
0.0
 11
-194.9643253724913
 21
477.2641906243366
 31
0.0
  0
LINE
  5
2E5
330
1F
100
AcDbEntity
  8
E-2
  6
Continuous
 62
     3
370
     9
100
AcDbLine
 10
-189.9645872463035
 20
334.7653115267333
 30
0.0
 11
-189.9645872463035
 21
428.7649783077723
 31
0.0
  0
LINE
  5
2E6
330
1F
100
AcDbEntity
  8
E-2
  6
Continuous
 62
     3
370
     9
100
AcDbLine
 10
-194.9643253724913
 20
334.7653115267333
 30
0.0
 11
-194.9643253724913
 21
428.7649783077723
 31
0.0
  0
LINE
  5
2E7
330
1F
100
AcDbEntity
  8
E-2
  6
Continuous
 62
     3
370
     9
100
AcDbLine
 10
-174.9645872463035
 20
-65.23460599332594
 30
0.0
 11
-174.9645872463035
 21
28.76522574759477
 31
0.0
  0
LINE
  5
2E8
330
1F
100
AcDbEntity
  8
E-2
  6
Continuous
 62
     3
370
     9
100
AcDbLine
 10
-174.9645872463035
 20
-113.7352023232984
 30
0.0
 11
-174.9645872463035
 21
-71.23477425240523
 31
0.0
  0
LINE
  5
2E9
330
1F
100
AcDbEntity
  8
E-2
  6
Continuous
 62
     3
370
     9
100
AcDbLine
 10
-179.9643253724913
 20
-65.23460599332594
 30
0.0
 11
-179.9643253724913
 21
28.76522574759477
 31
0.0
  0
LINE
  5
2EA
330
1F
100
AcDbEntity
  8
E-2
  6
Continuous
 62
     3
370
     9
100
AcDbLine
 10
-179.9643253724913
 20
-113.7352023232984
 30
0.0
 11
-179.9643253724913
 21
-71.23477425240523
 31
0.0
  0
LINE
  5
2EB
330
1F
100
AcDbEntity
  8
E-2
  6
Continuous
 62
     3
370
     9
100
AcDbLine
 10
-174.9645872463035
 20
34.76539400667406
 30
0.0
 11
-174.9645872463035
 21
128.7652257475948
 31
0.0
  0
LINE
  5
2EC
330
1F
100
AcDbEntity
  8
E-2
  6
Continuous
 62
     3
370
     9
100
AcDbLine
 10
-179.9643253724913
 20
34.76539400667406
 30
0.0
 11
-179.9643253724913
 21
128.7652257475948
 31
0.0
  0
LINE
  5
2ED
330
1F
100
AcDbEntity
  8
E-2
  6
Continuous
 62
     3
370
     9
100
AcDbLine
 10
-174.9645872463035
 20
134.7651465668515
 30
0.0
 11
-174.9645872463035
 21
228.765060787713
 31
0.0
  0
LINE
  5
2EE
330
1F
100
AcDbEntity
  8
E-2
  6
Continuous
 62
     3
370
     9
100
AcDbLine
 10
-179.9643253724913
 20
134.7651465668515
 30
0.0
 11
-179.9643253724913
 21
228.765060787713
 31
0.0
  0
LINE
  5
2EF
330
1F
100
AcDbEntity
  8
E-2
  6
Continuous
 62
     3
370
     9
100
AcDbLine
 10
-174.9645872463035
 20
234.7652290467924
 30
0.0
 11
-174.9645872463035
 21
328.7651432676541
 31
0.0
  0
LINE
  5
2F0
330
1F
100
AcDbEntity
  8
E-2
  6
Continuous
 62
     3
370
     9
100
AcDbLine
 10
-179.9643253724913
 20
234.7652290467924
 30
0.0
 11
-179.9643253724913
 21
328.7651432676541
 31
0.0
  0
LINE
  5
2F1
330
1F
100
AcDbEntity
  8
E-2
  6
Continuous
 62
     3
370
     9
100
AcDbLine
 10
-174.9645872463035
 20
434.7651465668516
 30
0.0
 11
-174.9645872463035
 21
477.2641906243366
 31
0.0
  0
LINE
  5
2F2
330
1F
100
AcDbEntity
  8
E-2
  6
Continuous
 62
     3
370
     9
100
AcDbLine
 10
-179.9643253724913
 20
434.7651465668516
 30
0.0
 11
-179.9643253724913
 21
477.2641906243366
 31
0.0
  0
LINE
  5
2F3
330
1F
100
AcDbEntity
  8
E-2
  6
Continuous
 62
     3
370
     9
100
AcDbLine
 10
-174.9645872463035
 20
334.7653115267333
 30
0.0
 11
-174.9645872463035
 21
428.7649783077723
 31
0.0
  0
LINE
  5
2F4
330
1F
100
AcDbEntity
  8
E-2
  6
Continuous
 62
     3
370
     9
100
AcDbLine
 10
-179.9643253724913
 20
334.7653115267333
 30
0.0
 11
-179.9643253724913
 21
428.7649783077723
 31
0.0
  0
LINE
  5
2F5
330
1F
100
AcDbEntity
  8
E-2
  6
Continuous
 62
     3
370
     9
100
AcDbLine
 10
-159.9645872463035
 20
-65.23460599332594
 30
0.0
 11
-159.9645872463035
 21
28.76522574759477
 31
0.0
  0
LINE
  5
2F6
330
1F
100
AcDbEntity
  8
E-2
  6
Continuous
 62
     3
370
     9
100
AcDbLine
 10
-159.9645872463035
 20
-113.7352023232984
 30
0.0
 11
-159.9645872463035
 21
-71.23477425240523
 31
0.0
  0
LINE
  5
2F7
330
1F
100
AcDbEntity
  8
E-2
  6
Continuous
 62
     3
370
     9
100
AcDbLine
 10
-164.9643253724913
 20
-65.23460599332594
 30
0.0
 11
-164.9643253724913
 21
28.76522574759477
 31
0.0
  0
LINE
  5
2F8
330
1F
100
AcDbEntity
  8
E-2
  6
Continuous
 62
     3
370
     9
100
AcDbLine
 10
-164.9643253724913
 20
-113.7352023232984
 30
0.0
 11
-164.9643253724913
 21
-71.23477425240523
 31
0.0
  0
LINE
  5
2F9
330
1F
100
AcDbEntity
  8
E-2
  6
Continuous
 62
     3
370
     9
100
AcDbLine
 10
-159.9645872463035
 20
34.76539400667406
 30
0.0
 11
-159.9645872463035
 21
128.7652257475948
 31
0.0
  0
LINE
  5
2FA
330
1F
100
AcDbEntity
  8
E-2
  6
Continuous
 62
     3
370
     9
100
AcDbLine
 10
-164.9643253724913
 20
34.76539400667406
 30
0.0
 11
-164.9643253724913
 21
128.7652257475948
 31
0.0
  0
LINE
  5
2FB
330
1F
100
AcDbEntity
  8
E-2
  6
Continuous
 62
     3
370
     9
100
AcDbLine
 10
-159.9645872463035
 20
134.7651465668515
 30
0.0
 11
-159.9645872463035
 21
228.765060787713
 31
0.0
  0
LINE
  5
2FC
330
1F
100
AcDbEntity
  8
E-2
  6
Continuous
 62
     3
370
     9
100
AcDbLine
 10
-164.9643253724913
 20
134.7651465668515
 30
0.0
 11
-164.9643253724913
 21
228.765060787713
 31
0.0
  0
LINE
  5
2FD
330
1F
100
AcDbEntity
  8
E-2
  6
Continuous
 62
     3
370
     9
100
AcDbLine
 10
-159.9645872463035
 20
234.7652290467924
 30
0.0
 11
-159.9645872463035
 21
328.7651432676541
 31
0.0
  0
LINE
  5
2FE
330
1F
100
AcDbEntity
  8
E-2
  6
Continuous
 62
     3
370
     9
100
AcDbLine
 10
-164.9643253724913
 20
234.7652290467924
 30
0.0
 11
-164.9643253724913
 21
328.7651432676541
 31
0.0
  0
LINE
  5
2FF
330
1F
100
AcDbEntity
  8
E-2
  6
Continuous
 62
     3
370
     9
100
AcDbLine
 10
-159.9645872463035
 20
434.7651465668516
 30
0.0
 11
-159.9645872463035
 21
477.2641906243366
 31
0.0
  0
LINE
  5
300
330
1F
100
AcDbEntity
  8
E-2
  6
Continuous
 62
     3
370
     9
100
AcDbLine
 10
-164.9643253724913
 20
434.7651465668516
 30
0.0
 11
-164.9643253724913
 21
477.2641906243366
 31
0.0
  0
LINE
  5
301
330
1F
100
AcDbEntity
  8
E-2
  6
Continuous
 62
     3
370
     9
100
AcDbLine
 10
-159.9645872463035
 20
334.7653115267333
 30
0.0
 11
-159.9645872463035
 21
428.7649783077723
 31
0.0
  0
LINE
  5
302
330
1F
100
AcDbEntity
  8
E-2
  6
Continuous
 62
     3
370
     9
100
AcDbLine
 10
-164.9643253724913
 20
334.7653115267333
 30
0.0
 11
-164.9643253724913
 21
428.7649783077723
 31
0.0
  0
LINE
  5
303
330
1F
100
AcDbEntity
  8
E-2
  6
Continuous
 62
     3
370
     9
100
AcDbLine
 10
-144.9645872463035
 20
-65.23460599332594
 30
0.0
 11
-144.9645872463035
 21
28.76522574759477
 31
0.0
  0
LINE
  5
304
330
1F
100
AcDbEntity
  8
E-2
  6
Continuous
 62
     3
370
     9
100
AcDbLine
 10
-144.9645872463035
 20
-113.7352023232984
 30
0.0
 11
-144.9645872463035
 21
-71.23477425240523
 31
0.0
  0
LINE
  5
305
330
1F
100
AcDbEntity
  8
E-2
  6
Continuous
 62
     3
370
     9
100
AcDbLine
 10
-149.9643253724913
 20
-65.23460599332594
 30
0.0
 11
-149.9643253724913
 21
28.76522574759477
 31
0.0
  0
LINE
  5
306
330
1F
100
AcDbEntity
  8
E-2
  6
Continuous
 62
     3
370
     9
100
AcDbLine
 10
-149.9643253724913
 20
-113.7352023232984
 30
0.0
 11
-149.9643253724913
 21
-71.23477425240523
 31
0.0
  0
LINE
  5
307
330
1F
100
AcDbEntity
  8
E-2
  6
Continuous
 62
     3
370
     9
100
AcDbLine
 10
-144.9645872463035
 20
34.76539400667406
 30
0.0
 11
-144.9645872463035
 21
128.7652257475948
 31
0.0
  0
LINE
  5
308
330
1F
100
AcDbEntity
  8
E-2
  6
Continuous
 62
     3
370
     9
100
AcDbLine
 10
-149.9643253724913
 20
34.76539400667406
 30
0.0
 11
-149.9643253724913
 21
128.7652257475948
 31
0.0
  0
LINE
  5
309
330
1F
100
AcDbEntity
  8
E-2
  6
Continuous
 62
     3
370
     9
100
AcDbLine
 10
-144.9645872463035
 20
134.7651465668515
 30
0.0
 11
-144.9645872463035
 21
228.765060787713
 31
0.0
  0
LINE
  5
30A
330
1F
100
AcDbEntity
  8
E-2
  6
Continuous
 62
     3
370
     9
100
AcDbLine
 10
-149.9643253724913
 20
134.7651465668515
 30
0.0
 11
-149.9643253724913
 21
228.765060787713
 31
0.0
  0
LINE
  5
30B
330
1F
100
AcDbEntity
  8
E-2
  6
Continuous
 62
     3
370
     9
100
AcDbLine
 10
-144.9645872463035
 20
234.7652290467924
 30
0.0
 11
-144.9645872463035
 21
328.7651432676541
 31
0.0
  0
LINE
  5
30C
330
1F
100
AcDbEntity
  8
E-2
  6
Continuous
 62
     3
370
     9
100
AcDbLine
 10
-149.9643253724913
 20
234.7652290467924
 30
0.0
 11
-149.9643253724913
 21
328.7651432676541
 31
0.0
  0
LINE
  5
30D
330
1F
100
AcDbEntity
  8
E-2
  6
Continuous
 62
     3
370
     9
100
AcDbLine
 10
-144.9645872463035
 20
434.7651465668516
 30
0.0
 11
-144.9645872463035
 21
477.2641906243366
 31
0.0
  0
LINE
  5
30E
330
1F
100
AcDbEntity
  8
E-2
  6
Continuous
 62
     3
370
     9
100
AcDbLine
 10
-149.9643253724913
 20
434.7651465668516
 30
0.0
 11
-149.9643253724913
 21
477.2641906243366
 31
0.0
  0
LINE
  5
30F
330
1F
100
AcDbEntity
  8
E-2
  6
Continuous
 62
     3
370
     9
100
AcDbLine
 10
-144.9645872463035
 20
334.7653115267333
 30
0.0
 11
-144.9645872463035
 21
428.7649783077723
 31
0.0
  0
LINE
  5
310
330
1F
100
AcDbEntity
  8
E-2
  6
Continuous
 62
     3
370
     9
100
AcDbLine
 10
-149.9643253724913
 20
334.7653115267333
 30
0.0
 11
-149.9643253724913
 21
428.7649783077723
 31
0.0
  0
LINE
  5
311
330
1F
100
AcDbEntity
  8
E-4
  6
Continuous
 62
     7
370
     9
100
AcDbLine
 10
-672.4343165925015
 20
511.7650418173265
 30
0.0
 11
-657.4945960262932
 21
511.7650418173265
 31
0.0
  0
LWPOLYLINE
  5
312
330
1F
100
AcDbEntity
  8
E-4
  6
Continuous
 62
     7
370
     9
100
AcDbPolyline
 90
        4
 70
     1
 43
1.0
 10
-671.9343165925015
 20
511.7650418173265
 42
0.4142135623731
 10
-672.4343165925015
 20
512.2650418173265
 42
0.4142135623731
 10
-672.9343165925014
 20
511.7650418173265
 42
0.4142135623731
 10
-672.4343165925015
 20
511.2650418173266
 42
0.4142135623731
  0
LWPOLYLINE
  5
313
330
1F
100
AcDbEntity
  8
E-4
  6
Continuous
 62
     7
370
     9
100
AcDbPolyline
 90
        4
 70
     1
 43
1.0
 10
-656.9945960262932
 20
511.7650418173265
 42
0.4142135623731
 10
-657.4945960262932
 20
512.2650418173265
 42
0.4142135623731
 10
-657.9945960262932
 20
511.7650418173265
 42
0.4142135623731
 10
-657.4945960262932
 20
511.2650418173266
 42
0.4142135623731
  0
TEXT
  5
314
330
1F
100
AcDbEntity
  8
E-4
  6
Continuous
 62
     2
370
   211
100
AcDbText
 10
-675.5894563093972
 20
517.5850418173267
 30
0.0
 40
15.24
  1
15
 41
1.0625
  7
ＭＳ ゴシック
100
AcDbText
  0
LINE
  5
315
330
1F
100
AcDbEntity
  8
E-4
  6
Continuous
 62
     7
370
     9
100
AcDbLine
 10
-672.4343165925015
 20
513.2650418173266
 30
0.0
 11
-672.4343165925015
 21
461.7650418173266
 31
0.0
  0
LINE
  5
316
330
1F
100
AcDbEntity
  8
E-4
  6
Continuous
 62
     7
370
     9
100
AcDbLine
 10
-657.4945960262932
 20
513.2650418173266
 30
0.0
 11
-657.4945960262932
 21
461.7650418173266
 31
0.0
  0
LINE
  5
317
330
1F
100
AcDbEntity
  8
E-5
  6
Continuous
 62
     7
370
     9
100
AcDbLine
 10
-251.3762270311033
 20
481.764873558247
 30
0.0
 11
-202.5481852919958
 21
663.9934733127868
 31
0.0
  0
LINE
  5
318
330
1F
100
AcDbEntity
  8
E-5
  6
Continuous
 62
     7
370
     9
100
AcDbLine
 10
-202.5481852919958
 20
663.9934733127868
 30
0.0
 11
31.07806180471016
 21
663.9934733127868
 31
0.0
  0
LINE
  5
319
330
1F
100
AcDbEntity
  8
E-5
  6
Continuous
 62
     7
370
     9
100
AcDbLine
 10
-251.3762270311033
 20
481.764873558247
 30
0.0
 11
-247.3899714884512
 21
491.3885505799955
 31
0.0
  0
LINE
  5
31A
330
1F
100
AcDbEntity
  8
E-5
  6
Continuous
 62
     7
370
     9
100
AcDbLine
 10
-251.3762270311033
 20
481.764873558247
 30
0.0
 11
-250.0165452057231
 21
492.0923931554812
 31
0.0
  0
LINE
  5
31B
330
1F
100
AcDbEntity
  8
E-5
  6
Continuous
 62
     7
370
     9
100
AcDbLine
 10
-151.7337577357773
 20
597.3267516594929
 30
0.0
 11
63.17761962961875
 21
597.3267516594929
 31
0.0
  0
LINE
  5
31C
330
1F
100
AcDbEntity
  8
E-5
  6
Continuous
 62
     7
370
     9
100
AcDbLine
 10
-189.964525386348
 20
454.6478662904157
 30
0.0
 11
-151.7337577357773
 21
597.3267516594929
 31
0.0
  0
LINE
  5
31D
330
1F
100
AcDbEntity
  8
E-5
  6
Continuous
 62
     7
370
     9
100
AcDbLine
 10
-189.9645872463035
 20
454.6478662904157
 30
0.0
 11
-185.978269843696
 21
464.2715433121641
 31
0.0
  0
LINE
  5
31E
330
1F
100
AcDbEntity
  8
E-5
  6
Continuous
 62
     7
370
     9
100
AcDbLine
 10
-189.9645872463035
 20
454.6478662904157
 30
0.0
 11
-188.6049672808793
 21
464.9753858876497
 31
0.0
  0
LINE
  5
31F
330
1F
100
AcDbEntity
  8
E-5
  6
Continuous
 62
     7
370
     9
100
AcDbLine
 10
-229.964457514225
 20
434.7651420703688
 30
0.0
 11
-176.9164196561745
 21
632.743322099562
 31
0.0
  0
LINE
  5
320
330
1F
100
AcDbEntity
  8
E-5
  6
Continuous
 62
     7
370
     9
100
AcDbLine
 10
-229.964457514225
 20
434.7651420703688
 30
0.0
 11
-225.9782019715728
 21
444.3889428120286
 31
0.0
  0
LINE
  5
321
330
1F
100
AcDbEntity
  8
E-5
  6
Continuous
 62
     7
370
     9
100
AcDbLine
 10
-229.964457514225
 20
434.7651420703688
 30
0.0
 11
-228.6048994087563
 21
445.0926616676029
 31
0.0
  0
LINE
  5
322
330
1F
100
AcDbEntity
  8
E-5
  6
Continuous
 62
     7
370
     9
100
AcDbLine
 10
-176.9164196561745
 20
632.743322099562
 30
0.0
 11
26.41886295309511
 21
632.743322099562
 31
0.0
  0
TEXT
  5
323
330
1F
100
AcDbEntity
  8
E-5
  6
Continuous
 62
     7
370
     9
100
AcDbText
 10
-166.96582388427
 20
639.0249612728992
 30
0.0
 40
11.43
  1
クロスバー φ６ ＠100
 50
0.0000776836115367
 41
1.158730158730159
  7
ＭＳ ゴシック
100
AcDbText
  0
TEXT
  5
324
330
1F
100
AcDbEntity
  8
E-5
  6
Continuous
 62
     7
370
     9
100
AcDbText
 10
-200.9593102689013
 20
670.27511248614
 30
0.0
 40
11.43
  1
エンドプレート ＦＢ4.5×38
 41
1.16025641025641
  7
ＭＳ ゴシック
100
AcDbText
  0
TEXT
  5
325
330
1F
100
AcDbEntity
  8
E-5
  6
Continuous
 62
     7
370
     9
100
AcDbText
 10
-145.5723769004746
 20
603.6083908328459
 30
0.0
 40
11.43
  1
メインバー Ⅰ－４４ ＠15
 50
359.9999060071311
 41
1.159722222222222
  7
ＭＳ ゴシック
100
AcDbText
  0
LINE
  5
326
330
1F
100
AcDbEntity
  8
E-4
  6
Continuous
 62
     7
370
     9
100
AcDbLine
 10
302.1022167569236
 20
491.7652892571493
 30
0.0
 11
302.1022167569236
 21
485.7653684378926
 31
0.0
  0
LWPOLYLINE
  5
327
330
1F
100
AcDbEntity
  8
E-4
  6
Continuous
 62
     7
370
     9
100
AcDbPolyline
 90
        4
 70
     1
 43
1.0
 10
302.6022167569236
 20
491.7652892571493
 42
0.4142135623731
 10
302.1022167569236
 20
492.2652892571493
 42
0.4142135623731
 10
301.6022167569236
 20
491.7652892571493
 42
0.4142135623731
 10
302.1022167569236
 20
491.2652892571493
 42
0.4142135623731
  0
LWPOLYLINE
  5
328
330
1F
100
AcDbEntity
  8
E-4
  6
Continuous
 62
     7
370
     9
100
AcDbPolyline
 90
        4
 70
     1
 43
1.0
 10
302.6022167569236
 20
485.7653684378926
 42
0.4142135623731
 10
302.1022167569236
 20
486.2653684378926
 42
0.4142135623731
 10
301.6022167569236
 20
485.7653684378926
 42
0.4142135623731
 10
302.1022167569236
 20
485.2653684378926
 42
0.4142135623731
  0
LINE
  5
329
330
1F
100
AcDbEntity
  8
E-4
  6
Continuous
 62
     7
370
     9
100
AcDbLine
 10
300.6022167569236
 20
485.7653684378926
 30
0.0
 11
354.6022250049176
 21
485.7653684378926
 31
0.0
  0
LINE
  5
32A
330
1F
100
AcDbEntity
  8
E-4
  6
Continuous
 62
     7
370
     9
100
AcDbLine
 10
302.1022167569236
 20
485.7653684378926
 30
0.0
 11
302.1022167569236
 21
481.764873558247
 31
0.0
  0
LWPOLYLINE
  5
32B
330
1F
100
AcDbEntity
  8
E-4
  6
Continuous
 62
     7
370
     9
100
AcDbPolyline
 90
        4
 70
     1
 43
1.0
 10
302.6022167569236
 20
481.764873558247
 42
0.4142135623731
 10
302.1022167569236
 20
482.264873558247
 42
0.4142135623731
 10
301.6022167569236
 20
481.764873558247
 42
0.4142135623731
 10
302.1022167569236
 20
481.2648735582471
 42
0.4142135623731
  0
LINE
  5
32C
330
1F
100
AcDbEntity
  8
E-4
  6
Continuous
 62
     7
370
     9
100
AcDbLine
 10
300.6022167569236
 20
481.764873558247
 30
0.0
 11
352.1022167569236
 21
481.764873558247
 31
0.0
  0
LWPOLYLINE
  5
32D
330
1F
100
AcDbEntity
  8
E-4
  6
Continuous
 62
     7
370
     9
100
AcDbPolyline
 90
        4
 70
     1
 43
1.0
 10
262.6022167569236
 20
491.7652892571493
 42
0.4142135623731
 10
262.1022167569236
 20
492.2652892571493
 42
0.4142135623731
 10
261.6022167569236
 20
491.7652892571493
 42
0.4142135623731
 10
262.1022167569236
 20
491.2652892571493
 42
0.4142135623731
  0
LINE
  5
32E
330
1F
100
AcDbEntity
  8
E-4
  6
Continuous
 62
     7
370
     9
100
AcDbLine
 10
260.6022167569237
 20
491.7652892571493
 30
0.0
 11
352.1022167569236
 21
491.7652892571493
 31
0.0
  0
TEXT
  5
32F
330
1F
100
AcDbEntity
  8
E-4
  6
Continuous
 62
     2
370
   211
100
AcDbText
 10
296.2822167569236
 20
498.7653288475208
 30
0.0
 40
15.24
  1
6
 50
90.0
 41
0.9999999999999998
  7
ＭＳ ゴシック
100
AcDbText
  0
TEXT
  5
330
330
1F
100
AcDbEntity
  8
E-4
  6
Continuous
 62
     2
370
   211
100
AcDbText
 10
296.2822167569236
 20
473.7651209980698
 30
0.0
 40
15.24
  1
4
 50
90.0
 41
0.9999999999999998
  7
ＭＳ ゴシック
100
AcDbText
  0
LINE
  5
331
330
1F
100
AcDbEntity
  8
E-4
  6
Continuous
 62
     7
370
     9
100
AcDbLine
 10
302.1022167569236
 20
491.7652892571493
 30
0.0
 11
302.1022167569236
 21
508.7653288475208
 31
0.0
  0
LWPOLYLINE
  5
332
330
1F
100
AcDbEntity
  8
E-4
  6
Continuous
 62
     7
370
     9
100
AcDbPolyline
 90
        4
 70
     1
 43
1.0
 10
362.6022167569236
 20
-228.2346695028805
 42
0.4142135623731
 10
362.1022167569236
 20
-227.7346695028805
 42
0.4142135623731
 10
361.6022167569236
 20
-228.2346695028805
 42
0.4142135623731
 10
362.1022167569236
 20
-228.7346695028805
 42
0.4142135623731
  0
LINE
  5
333
330
1F
100
AcDbEntity
  8
E-4
  6
Continuous
 62
     7
370
     9
100
AcDbLine
 10
362.1022167569236
 20
-229.7346695028803
 30
0.0
 11
362.1022167569236
 21
-138.2346695028805
 31
0.0
  0
LWPOLYLINE
  5
334
330
1F
100
AcDbEntity
  8
E-4
  6
Continuous
 62
     7
370
     9
100
AcDbPolyline
 90
        4
 70
     1
 43
1.0
 10
362.6022167569236
 20
-188.2346695028805
 42
0.4142135623731
 10
362.1022167569236
 20
-187.7346695028805
 42
0.4142135623731
 10
361.6022167569236
 20
-188.2346695028805
 42
0.4142135623731
 10
362.1022167569236
 20
-188.7346695028805
 42
0.4142135623731
  0
LWPOLYLINE
  5
335
330
1F
100
AcDbEntity
  8
E-4
  6
Continuous
 62
     7
370
     9
100
AcDbPolyline
 90
        4
 70
     1
 43
1.0
 10
302.6022167569236
 20
-118.2351429377411
 42
0.4142135623731
 10
302.1022167569236
 20
-117.7351429377411
 42
0.4142135623731
 10
301.6022167569236
 20
-118.2351429377411
 42
0.4142135623731
 10
302.1022167569236
 20
-118.7351429377411
 42
0.4142135623731
  0
LINE
  5
336
330
1F
100
AcDbEntity
  8
E-4
  6
Continuous
 62
     7
370
     9
100
AcDbLine
 10
300.6022167569236
 20
-118.2351429377411
 30
0.0
 11
352.1022167569236
 21
-118.2351429377411
 31
0.0
  0
LINE
  5
337
330
1F
100
AcDbEntity
  8
E-4
  6
Continuous
 62
     7
370
     9
100
AcDbLine
 10
302.1022167569236
 20
-118.2351429377411
 30
0.0
 11
302.1022167569236
 21
-122.2347566577585
 31
0.0
  0
LWPOLYLINE
  5
338
330
1F
100
AcDbEntity
  8
E-4
  6
Continuous
 62
     7
370
     9
100
AcDbPolyline
 90
        4
 70
     1
 43
1.0
 10
302.6022167569236
 20
-122.2347566577585
 42
0.4142135623731
 10
302.1022167569236
 20
-121.7347566577585
 42
0.4142135623731
 10
301.6022167569236
 20
-122.2347566577585
 42
0.4142135623731
 10
302.1022167569236
 20
-122.7347566577585
 42
0.4142135623731
  0
LINE
  5
339
330
1F
100
AcDbEntity
  8
E-4
  6
Continuous
 62
     7
370
     9
100
AcDbLine
 10
300.6022167569236
 20
-122.2347566577585
 30
0.0
 11
354.6022250049176
 21
-122.2347566577585
 31
0.0
  0
LINE
  5
33A
330
1F
100
AcDbEntity
  8
E-4
  6
Continuous
 62
     7
370
     9
100
AcDbLine
 10
302.1022167569236
 20
-122.2347566577585
 30
0.0
 11
302.1022167569236
 21
-128.2346792973733
 31
0.0
  0
LWPOLYLINE
  5
33B
330
1F
100
AcDbEntity
  8
E-4
  6
Continuous
 62
     7
370
     9
100
AcDbPolyline
 90
        4
 70
     1
 43
1.0
 10
302.6022167569236
 20
-128.2346792973733
 42
0.4142135623731
 10
302.1022167569236
 20
-127.7346792973733
 42
0.4142135623731
 10
301.6022167569236
 20
-128.2346792973733
 42
0.4142135623731
 10
302.1022167569236
 20
-128.7346792973733
 42
0.4142135623731
  0
LWPOLYLINE
  5
33C
330
1F
100
AcDbEntity
  8
E-4
  6
Continuous
 62
     7
370
     9
100
AcDbPolyline
 90
        4
 70
     1
 43
1.0
 10
262.6022167569236
 20
-128.2346695028805
 42
0.4142135623731
 10
262.1022167569236
 20
-127.7346695028805
 42
0.4142135623731
 10
261.6022167569236
 20
-128.2346695028805
 42
0.4142135623731
 10
262.1022167569236
 20
-128.7346695028805
 42
0.4142135623731
  0
LINE
  5
33D
330
1F
100
AcDbEntity
  8
E-4
  6
Continuous
 62
     7
370
     9
100
AcDbLine
 10
260.6022167569236
 20
-128.2346695028805
 30
0.0
 11
352.1022167569236
 21
-128.2346695028805
 31
0.0
  0
TEXT
  5
33E
330
1F
100
AcDbEntity
  8
E-4
  6
Continuous
 62
     2
370
   211
100
AcDbText
 10
296.2822167569236
 20
-145.2347179775659
 30
0.0
 40
15.24
  1
6
 50
90.0
 41
0.9999999999999998
  7
ＭＳ ゴシック
100
AcDbText
  0
LINE
  5
33F
330
1F
100
AcDbEntity
  8
E-4
  6
Continuous
 62
     7
370
     9
100
AcDbLine
 10
302.1022167569236
 20
-128.2346792973733
 30
0.0
 11
302.1022167569236
 21
-145.2347179775659
 31
0.0
  0
TEXT
  5
340
330
1F
100
AcDbEntity
  8
E-4
  6
Continuous
 62
     2
370
   211
100
AcDbText
 10
296.2822167569236
 20
-120.2349497977498
 30
0.0
 40
15.24
  1
4
 50
90.0
 41
0.9999999999999998
  7
ＭＳ ゴシック
100
AcDbText
  0
LINE
  5
341
330
1F
100
AcDbEntity
  8
E-4
  6
Continuous
 62
     7
370
     9
100
AcDbLine
 10
302.1022167569236
 20
481.764873558247
 30
0.0
 11
302.1022167569236
 21
-118.2351429377411
 31
0.0
  0
TEXT
  5
342
330
1F
100
AcDbEntity
  8
E-4
  6
Continuous
 62
     2
370
   211
100
AcDbText
 10
296.2822167569236
 20
165.514865310253
 30
0.0
 40
15.24
  1
600
 50
90.0
 41
1.083333333333333
  7
ＭＳ ゴシック
100
AcDbText
  0
LINE
  5
343
330
1F
100
AcDbEntity
  8
E-4
  6
Continuous
 62
     7
370
     9
100
AcDbLine
 10
262.1022167569236
 20
491.7652892571493
 30
0.0
 11
262.1022167569236
 21
-128.2346695028805
 31
0.0
  0
TEXT
  5
344
330
1F
100
AcDbEntity
  8
E-4
  6
Continuous
 62
     2
370
   211
100
AcDbText
 10
256.2822167569236
 20
165.5153098771343
 30
0.0
 40
15.24
  1
620
 50
90.0
 41
1.083333333333333
  7
ＭＳ ゴシック
100
AcDbText
  0
LINE
  5
345
330
1F
100
AcDbEntity
  8
E-5
  6
Continuous
 62
     7
370
     9
100
AcDbLine
 10
362.1022167569236
 20
491.7652892571493
 30
0.0
 11
355.7608289824304
 21
500.0292844535176
 31
0.0
  0
LINE
  5
346
330
1F
100
AcDbEntity
  8
E-5
  6
Continuous
 62
     7
370
     9
100
AcDbLine
 10
362.1022167569236
 20
491.7652892571493
 30
0.0
 11
358.1159612142715
 21
501.3889662788977
 31
0.0
  0
LINE
  5
347
330
1F
100
AcDbEntity
  8
E-5
  6
Continuous
 62
     7
370
     9
100
AcDbLine
 10
203.4086143761843
 20
547.3271343664187
 30
0.0
 11
330.023571618583
 21
547.3271343664187
 31
0.0
  0
LINE
  5
348
330
1F
100
AcDbEntity
  8
E-5
  6
Continuous
 62
     7
370
     9
100
AcDbLine
 10
362.1022167569236
 20
491.7652892571493
 30
0.0
 11
330.023571618583
 21
547.3271343664187
 31
0.0
  0
TEXT
  5
349
330
1F
100
AcDbEntity
  8
E-5
  6
Continuous
 62
     7
370
     9
100
AcDbText
 10
196.3303301898986
 20
527.5701861242312
 30
0.0
 40
11.43
  1
（四方受四方枠）
 41
1.145833333333333
  7
ＭＳ ゴシック
100
AcDbText
  0
LINE
  5
34A
330
1F
100
AcDbEntity
  8
E-1
  6
Continuous
 62
     2
370
     9
100
AcDbLine
 10
362.1022167569236
 20
488.2652529659753
 30
0.0
 11
362.1022167569236
 21
491.7652892571493
 31
0.0
  0
LINE
  5
34B
330
1F
100
AcDbEntity
  8
E-1
  6
Continuous
 62
     2
370
     9
100
AcDbLine
 10
408.6021474737734
 20
431.7652397691849
 30
0.0
 11
412.102183764947
 21
431.7652397691849
 31
0.0
  0
LINE
  5
34C
330
1F
100
AcDbEntity
  8
E-1
  6
Continuous
 62
     2
370
     9
100
AcDbLine
 10
402.1021012850064
 20
485.7651209980701
 30
0.0
 11
364.6022002609356
 21
485.7651209980701
 31
0.0
  0
LINE
  5
34D
330
1F
100
AcDbEntity
  8
E-1
  6
Continuous
 62
     2
370
     9
100
AcDbLine
 10
412.102183764947
 20
491.7652892571493
 30
0.0
 11
362.1022167569236
 21
491.7652892571493
 31
0.0
  0
LINE
  5
34E
330
1F
100
AcDbEntity
  8
E-1
  6
Continuous
 62
     2
370
     9
100
AcDbLine
 10
387.1022002609356
 20
491.7652892571493
 30
0.0
 11
387.1022002609356
 21
500.765318949928
 31
0.0
  0
LINE
  5
34F
330
1F
100
AcDbEntity
  8
E-1
  6
Continuous
 62
     2
370
     9
100
AcDbLine
 10
400.9172109503359
 20
500.765318949928
 30
0.0
 11
387.1022002609356
 21
500.765318949928
 31
0.0
  0
LINE
  5
350
330
1F
100
AcDbEntity
  8
E-1
  6
Continuous
 62
     2
370
     9
100
AcDbLine
 10
405.5760079309101
 20
492.3784451376392
 30
0.0
 11
463.7667279478017
 21
507.9707170970985
 31
0.0
  0
LINE
  5
351
330
1F
100
AcDbEntity
  8
E-1
  6
Continuous
 62
     2
370
     9
100
AcDbLine
 10
403.2466094406231
 20
501.0717484262794
 30
0.0
 11
461.4373294575147
 21
516.6638719218453
 31
0.0
  0
LINE
  5
352
330
1F
100
AcDbEntity
  8
E-1
  6
JWW_CENTER2
 62
     2
370
     9
100
AcDbLine
 10
400.9172109503359
 20
496.2652298715919
 30
0.0
 11
383.297219132346
 21
496.2652298715919
 31
0.0
  0
LINE
  5
353
330
1F
100
AcDbEntity
  8
E-1
  6
JWW_CENTER2
 62
     2
370
     9
100
AcDbLine
 10
404.4111602218731
 20
496.7250225500125
 30
0.0
 11
469.5779016703528
 21
514.1864549296578
 31
0.0
  0
LINE
  5
354
330
1F
100
AcDbEntity
  8
E-1
  6
Continuous
 62
     2
370
     9
100
AcDbLine
 10
406.1021639697614
 20
481.7650583133149
 30
0.0
 11
406.1021639697614
 21
434.265074809303
 31
0.0
  0
ARC
  5
355
330
1F
100
AcDbEntity
  8
E-1
  6
Continuous
 62
     2
370
     9
100
AcDbCircle
 10
364.6022002609356
 20
488.2652529659753
 30
0.0
 40
2.500000032218727
100
AcDbArc
 50
180.0
 51
270.0
  0
ARC
  5
356
330
1F
100
AcDbEntity
  8
E-1
  6
Continuous
 62
     2
370
     9
100
AcDbCircle
 10
408.6021474737734
 20
434.265074809303
 30
0.0
 40
2.500000032218727
100
AcDbArc
 50
180.0
 51
270.0
  0
ARC
  5
357
330
1F
100
AcDbEntity
  8
E-1
  6
Continuous
 62
     2
370
     9
100
AcDbCircle
 10
402.1021012850064
 20
481.7650583133149
 30
0.0
 40
4.000000051549963
100
AcDbArc
 50
0.0
 51
90.0
  0
ARC
  5
358
330
1F
100
AcDbEntity
  8
E-1
  6
Continuous
 62
     2
370
     9
100
AcDbCircle
 10
400.9172109503359
 20
509.7652001788131
 30
0.0
 40
18.00000023197483
100
AcDbArc
 50
270.0
 51
285.0
  0
ARC
  5
359
330
1F
100
AcDbEntity
  8
E-1
  6
Continuous
 62
     2
370
     9
100
AcDbCircle
 10
462.6021771665517
 20
512.317294509472
 30
0.0
 40
4.500000057993709
100
AcDbArc
 50
285.0001373291016
 51
104.9999084472656
  0
ARC
  5
35A
330
1F
100
AcDbEntity
  8
E-1
  6
JWW_CENTER2
 62
     2
370
     9
100
AcDbCircle
 10
400.9172109503359
 20
509.7650517149195
 30
0.0
 40
13.50000162382384
100
AcDbArc
 50
270.0
 51
284.9999542236328
  0
ARC
  5
35B
330
1F
100
AcDbEntity
  8
E-1
  6
Continuous
 62
     2
370
     9
100
AcDbCircle
 10
400.9172109503359
 20
509.7652001788131
 30
0.0
 40
9.000000115987417
100
AcDbArc
 50
270.0
 51
285.0000152587891
  0
LINE
  5
35C
330
1F
100
AcDbEntity
  8
E-1
  6
Continuous
 62
     2
370
     9
100
AcDbLine
 10
412.102183764947
 20
491.7652892571493
 30
0.0
 11
412.102183764947
 21
431.7652397691849
 31
0.0
  0
LINE
  5
35D
330
1F
100
AcDbEntity
  8
E-4
  6
Continuous
 62
     7
370
     9
100
AcDbLine
 10
472.102183764947
 20
491.7652892571493
 30
0.0
 11
472.102183764947
 21
431.7654624650251
 31
0.0
  0
LWPOLYLINE
  5
35E
330
1F
100
AcDbEntity
  8
E-4
  6
Continuous
 62
     7
370
     9
100
AcDbPolyline
 90
        4
 70
     1
 43
1.0
 10
472.602183764947
 20
491.7652892571493
 42
0.4142135623731
 10
472.102183764947
 20
492.2652892571493
 42
0.4142135623731
 10
471.602183764947
 20
491.7652892571493
 42
0.4142135623731
 10
472.102183764947
 20
491.2652892571493
 42
0.4142135623731
  0
LWPOLYLINE
  5
35F
330
1F
100
AcDbEntity
  8
E-4
  6
Continuous
 62
     7
370
     9
100
AcDbPolyline
 90
        4
 70
     1
 43
1.0
 10
472.602183764947
 20
431.7654624650251
 42
0.4142135623731
 10
472.102183764947
 20
432.265462465025
 42
0.4142135623731
 10
471.602183764947
 20
431.7654624650251
 42
0.4142135623731
 10
472.102183764947
 20
431.2654624650251
 42
0.4142135623731
  0
LINE
  5
360
330
1F
100
AcDbEntity
  8
E-4
  6
Continuous
 62
     7
370
     9
100
AcDbLine
 10
473.602183764947
 20
491.7652892571493
 30
0.0
 11
422.102183764947
 21
491.7652892571493
 31
0.0
  0
LINE
  5
361
330
1F
100
AcDbEntity
  8
E-4
  6
Continuous
 62
     7
370
     9
100
AcDbLine
 10
473.602183764947
 20
431.7654624650251
 30
0.0
 11
422.102183764947
 21
431.7654624650251
 31
0.0
  0
TEXT
  5
362
330
1F
100
AcDbEntity
  8
E-4
  6
Continuous
 62
     2
370
   211
100
AcDbText
 10
466.282183764947
 20
451.1403758610873
 30
0.0
 40
15.24
  1
60
 50
90.0
 41
1.0625
  7
ＭＳ ゴシック
100
AcDbText
  0
LWPOLYLINE
  5
363
330
1F
100
AcDbEntity
  8
E-4
  6
Continuous
 62
     7
370
     9
100
AcDbPolyline
 90
        4
 70
     1
 43
1.0
 10
472.602183764947
 20
-68.23484271075628
 42
0.4142135623731
 10
472.102183764947
 20
-67.73484271075628
 42
0.4142135623731
 10
471.602183764947
 20
-68.23484271075628
 42
0.4142135623731
 10
472.102183764947
 20
-68.73484271075628
 42
0.4142135623731
  0
LINE
  5
364
330
1F
100
AcDbEntity
  8
E-4
  6
Continuous
 62
     7
370
     9
100
AcDbLine
 10
473.602183764947
 20
-68.23484271075628
 30
0.0
 11
422.102183764947
 21
-68.23484271075628
 31
0.0
  0
LINE
  5
365
330
1F
100
AcDbEntity
  8
E-4
  6
Continuous
 62
     7
370
     9
100
AcDbLine
 10
472.102183764947
 20
-68.23484271075628
 30
0.0
 11
472.102183764947
 21
-128.2346695028805
 31
0.0
  0
LWPOLYLINE
  5
366
330
1F
100
AcDbEntity
  8
E-4
  6
Continuous
 62
     7
370
     9
100
AcDbPolyline
 90
        4
 70
     1
 43
1.0
 10
472.602183764947
 20
-128.2346695028805
 42
0.4142135623731
 10
472.102183764947
 20
-127.7346695028805
 42
0.4142135623731
 10
471.602183764947
 20
-128.2346695028805
 42
0.4142135623731
 10
472.102183764947
 20
-128.7346695028805
 42
0.4142135623731
  0
LINE
  5
367
330
1F
100
AcDbEntity
  8
E-4
  6
Continuous
 62
     7
370
     9
100
AcDbLine
 10
473.602183764947
 20
-128.2346695028805
 30
0.0
 11
422.102183764947
 21
-128.2346695028805
 31
0.0
  0
TEXT
  5
368
330
1F
100
AcDbEntity
  8
E-4
  6
Continuous
 62
     2
370
   211
100
AcDbText
 10
466.282183764947
 20
-108.8597561068185
 30
0.0
 40
15.24
  1
60
 50
90.0
 41
1.0625
  7
ＭＳ ゴシック
100
AcDbText
  0
LINE
  5
369
330
1F
100
AcDbEntity
  8
E-4
  6
Continuous
 62
     7
370
     9
100
AcDbLine
 10
472.102183764947
 20
431.7654624650251
 30
0.0
 11
472.102183764947
 21
-68.23484271075628
 31
0.0
  0
TEXT
  5
36A
330
1F
100
AcDbEntity
  8
E-4
  6
Continuous
 62
     2
370
   211
100
AcDbText
 10
466.282183764947
 20
165.5153098771343
 30
0.0
 40
15.24
  1
500
 50
90.0
 41
1.083333333333333
  7
ＭＳ ゴシック
100
AcDbText
  0
LINE
  5
36B
330
1F
100
AcDbEntity
  8
E-2
  6
Continuous
 62
     3
370
     9
100
AcDbLine
 10
362.1022002287169
 20
477.2649329438046
 30
0.0
 11
406.1021474415546
 21
477.2649329438046
 31
0.0
  0
LINE
  5
36C
330
1F
100
AcDbEntity
  8
E-2
  6
Continuous
 62
     3
370
     9
100
AcDbLine
 10
362.1022002287169
 20
481.764873558247
 30
0.0
 11
400.102127646369
 21
481.764873558247
 31
0.0
  0
LINE
  5
36D
330
1F
100
AcDbEntity
  8
E-2
  6
Continuous
 62
     3
370
     9
100
AcDbLine
 10
400.102127646369
 20
481.764873558247
 30
0.0
 11
400.102127646369
 21
477.2649329438046
 31
0.0
  0
LINE
  5
36E
330
1F
100
AcDbEntity
  8
E-2
  6
Continuous
 62
     3
370
     9
100
AcDbLine
 10
371.102081457602
 20
477.2649329438046
 30
0.0
 11
371.102081457602
 21
-113.7352023232985
 31
0.0
  0
LINE
  5
36F
330
1F
100
AcDbEntity
  8
E-2
  6
Continuous
 62
     3
370
     9
100
AcDbLine
 10
370.1021771343335
 20
477.2649329438046
 30
0.0
 11
370.1021771343335
 21
-113.7352023232985
 31
0.0
  0
LINE
  5
370
330
1F
100
AcDbEntity
  8
E-2
  6
Continuous
 62
     3
370
     9
100
AcDbLine
 10
362.1022002287169
 20
-113.7352023232985
 30
0.0
 11
406.1021474415546
 21
-113.7352023232985
 31
0.0
  0
LINE
  5
371
330
1F
100
AcDbEntity
  8
E-2
  6
Continuous
 62
     3
370
     9
100
AcDbLine
 10
400.102127646369
 20
-113.7352023232985
 30
0.0
 11
400.102127646369
 21
-118.2351429377411
 31
0.0
  0
LINE
  5
372
330
1F
100
AcDbEntity
  8
E-2
  6
Continuous
 62
     3
370
     9
100
AcDbLine
 10
362.1022002287169
 20
-118.2351429377411
 30
0.0
 11
400.102127646369
 21
-118.2351429377411
 31
0.0
  0
LINE
  5
373
330
1F
100
AcDbEntity
  8
E-2
  6
Continuous
 62
     3
370
     9
100
AcDbLine
 10
406.1021474415546
 20
477.2649329438046
 30
0.0
 11
406.1021474415546
 21
-113.7352023232985
 31
0.0
  0
LINE
  5
374
330
1F
100
AcDbEntity
  8
E-2
  6
Continuous
 62
     3
370
     9
100
AcDbLine
 10
362.1022002287169
 20
481.764873558247
 30
0.0
 11
362.1022002287169
 21
-118.2351429377411
 31
0.0
  0
LINE
  5
375
330
1F
100
AcDbEntity
  8
E-2
  6
Continuous
 62
     3
370
     9
100
AcDbLine
 10
398.1021705359382
 20
477.2649329438046
 30
0.0
 11
398.1021705359382
 21
-113.7352023232985
 31
0.0
  0
LINE
  5
376
330
1F
100
AcDbEntity
  8
E-2
  6
Continuous
 62
     3
370
     9
100
AcDbLine
 10
397.102117748776
 20
477.2649329438046
 30
0.0
 11
397.102117748776
 21
-113.7352023232985
 31
0.0
  0
LINE
  5
377
330
1F
100
AcDbEntity
  8
E-2
  6
JWW_CENTER1
 62
     3
370
     9
100
AcDbLine
 10
352.1022002287169
 20
181.764865310253
 30
0.0
 11
410.1020286704398
 21
181.764865310253
 31
0.0
  0
CIRCLE
  5
378
330
1F
100
AcDbEntity
  8
E-2
  6
Continuous
 62
     3
370
     9
100
AcDbCircle
 10
365.1022101263096
 20
431.7648721835815
 30
0.0
 40
3.000000038662472
  0
CIRCLE
  5
379
330
1F
100
AcDbEntity
  8
E-2
  6
Continuous
 62
     3
370
     9
100
AcDbCircle
 10
365.1022101263096
 20
331.7648639355873
 30
0.0
 40
3.000000038662472
  0
CIRCLE
  5
37A
330
1F
100
AcDbEntity
  8
E-2
  6
Continuous
 62
     3
370
     9
100
AcDbCircle
 10
365.1022101263096
 20
231.7648556875933
 30
0.0
 40
3.000000038662472
  0
CIRCLE
  5
37B
330
1F
100
AcDbEntity
  8
E-2
  6
Continuous
 62
     3
370
     9
100
AcDbCircle
 10
365.1022101263096
 20
131.7649216715459
 30
0.0
 40
3.000000038662472
  0
CIRCLE
  5
37C
330
1F
100
AcDbEntity
  8
E-2
  6
Continuous
 62
     3
370
     9
100
AcDbCircle
 10
365.1022101263096
 20
31.76483919160516
 30
0.0
 40
3.000000038662472
  0
CIRCLE
  5
37D
330
1F
100
AcDbEntity
  8
E-2
  6
Continuous
 62
     3
370
     9
100
AcDbCircle
 10
365.1022101263096
 20
-68.23516080839485
 30
0.0
 40
3.000000038662472
  0
LINE
  5
37E
330
1F
100
AcDbEntity
  8
E-1
  6
Continuous
 62
     2
370
     9
100
AcDbLine
 10
362.1022167569236
 20
-124.7355223454691
 30
0.0
 11
362.1022167569236
 21
-128.2355586366432
 31
0.0
  0
LINE
  5
37F
330
1F
100
AcDbEntity
  8
E-1
  6
Continuous
 62
     2
370
     9
100
AcDbLine
 10
408.6021474737734
 20
-68.23550914867873
 30
0.0
 11
412.102183764947
 21
-68.23550914867873
 31
0.0
  0
LINE
  5
380
330
1F
100
AcDbEntity
  8
E-1
  6
Continuous
 62
     2
370
     9
100
AcDbLine
 10
402.1021012850064
 20
-122.2353903775639
 30
0.0
 11
364.6022002609356
 21
-122.2353903775639
 31
0.0
  0
LINE
  5
381
330
1F
100
AcDbEntity
  8
E-1
  6
Continuous
 62
     2
370
     9
100
AcDbLine
 10
412.102183764947
 20
-128.2355586366432
 30
0.0
 11
362.1022167569236
 21
-128.2355586366432
 31
0.0
  0
LINE
  5
382
330
1F
100
AcDbEntity
  8
E-1
  6
Continuous
 62
     2
370
     9
100
AcDbLine
 10
387.1022002609356
 20
-128.2355586366432
 30
0.0
 11
387.1022002609356
 21
-137.2355883294218
 31
0.0
  0
LINE
  5
383
330
1F
100
AcDbEntity
  8
E-1
  6
Continuous
 62
     2
370
     9
100
AcDbLine
 10
400.9172109503359
 20
-137.2355883294218
 30
0.0
 11
387.1022002609356
 21
-137.2355883294218
 31
0.0
  0
LINE
  5
384
330
1F
100
AcDbEntity
  8
E-1
  6
Continuous
 62
     2
370
     9
100
AcDbLine
 10
405.5760079309101
 20
-128.848714517133
 30
0.0
 11
463.7667279478017
 21
-144.4409864765924
 31
0.0
  0
LINE
  5
385
330
1F
100
AcDbEntity
  8
E-1
  6
Continuous
 62
     2
370
     9
100
AcDbLine
 10
403.2466094406231
 20
-137.5420178057732
 30
0.0
 11
461.4373294575147
 21
-153.1341413013391
 31
0.0
  0
LINE
  5
386
330
1F
100
AcDbEntity
  8
E-1
  6
JWW_CENTER2
 62
     2
370
     9
100
AcDbLine
 10
400.9172109503359
 20
-132.7354992510857
 30
0.0
 11
383.297219132346
 21
-132.7354992510857
 31
0.0
  0
LINE
  5
387
330
1F
100
AcDbEntity
  8
E-1
  6
JWW_CENTER2
 62
     2
370
     9
100
AcDbLine
 10
404.4111602218731
 20
-133.1952919295063
 30
0.0
 11
469.5779016703528
 21
-150.6567243091516
 31
0.0
  0
LINE
  5
388
330
1F
100
AcDbEntity
  8
E-1
  6
Continuous
 62
     2
370
     9
100
AcDbLine
 10
406.1021639697614
 20
-118.2353276928087
 30
0.0
 11
406.1021639697614
 21
-70.73534418879682
 31
0.0
  0
ARC
  5
389
330
1F
100
AcDbEntity
  8
E-1
  6
Continuous
 62
     2
370
     9
100
AcDbCircle
 10
364.6022002609356
 20
-124.7355223454691
 30
0.0
 40
2.500000032218727
100
AcDbArc
 50
90.0
 51
180.0
  0
ARC
  5
38A
330
1F
100
AcDbEntity
  8
E-1
  6
Continuous
 62
     2
370
     9
100
AcDbCircle
 10
408.6021474737734
 20
-70.73534418879682
 30
0.0
 40
2.500000032218727
100
AcDbArc
 50
90.0
 51
180.0
  0
ARC
  5
38B
330
1F
100
AcDbEntity
  8
E-1
  6
Continuous
 62
     2
370
     9
100
AcDbCircle
 10
402.1021012850064
 20
-118.2353276928087
 30
0.0
 40
4.000000051549963
100
AcDbArc
 50
270.0
 51
0.0
  0
ARC
  5
38C
330
1F
100
AcDbEntity
  8
E-1
  6
Continuous
 62
     2
370
     9
100
AcDbCircle
 10
400.9172109503359
 20
-146.235469558307
 30
0.0
 40
18.00000023197483
100
AcDbArc
 50
75.0
 51
90.0
  0
ARC
  5
38D
330
1F
100
AcDbEntity
  8
E-1
  6
Continuous
 62
     2
370
     9
100
AcDbCircle
 10
462.6021771665517
 20
-148.7875638889658
 30
0.0
 40
4.500000057993709
100
AcDbArc
 50
255.0000915527344
 51
74.99986267089845
  0
ARC
  5
38E
330
1F
100
AcDbEntity
  8
E-1
  6
JWW_CENTER2
 62
     2
370
     9
100
AcDbCircle
 10
400.9172109503359
 20
-146.2353210944133
 30
0.0
 40
13.50000162382384
100
AcDbArc
 50
75.00004577636717
 51
90.0
  0
ARC
  5
38F
330
1F
100
AcDbEntity
  8
E-1
  6
Continuous
 62
     2
370
     9
100
AcDbCircle
 10
400.9172109503359
 20
-146.235469558307
 30
0.0
 40
9.000000115987417
100
AcDbArc
 50
74.99998474121094
 51
90.0
  0
LINE
  5
390
330
1F
100
AcDbEntity
  8
E-1
  6
Continuous
 62
     2
370
     9
100
AcDbLine
 10
412.102183764947
 20
-128.2355586366432
 30
0.0
 11
412.102183764947
 21
-68.23550914867873
 31
0.0
  0
LINE
  5
391
330
1F
100
AcDbEntity
  8
E-5
  6
Continuous
 62
     7
370
     9
100
AcDbLine
 10
432.3419694490689
 20
508.8678101740624
 30
0.0
 11
436.328224991721
 21
518.491610915722
 31
0.0
  0
LINE
  5
392
330
1F
100
AcDbEntity
  8
E-5
  6
Continuous
 62
     7
370
     9
100
AcDbLine
 10
432.3419694490689
 20
508.8678101740624
 30
0.0
 11
454.5462293730554
 21
547.3267632066847
 31
0.0
  0
LINE
  5
393
330
1F
100
AcDbEntity
  8
E-5
  6
Continuous
 62
     7
370
     9
100
AcDbLine
 10
432.3419694490689
 20
508.8678101740624
 30
0.0
 11
438.6833572235622
 21
517.1319290903419
 31
0.0
  0
LINE
  5
394
330
1F
100
AcDbEntity
  8
E-5
  6
Continuous
 62
     7
370
     9
100
AcDbLine
 10
454.5462293730554
 20
547.3267632066847
 30
0.0
 11
585.4845789164465
 21
547.3267632066847
 31
0.0
  0
TEXT
  5
395
330
1F
100
AcDbEntity
  8
E-5
  6
Continuous
 62
     7
370
     9
100
AcDbText
 10
201.4174784954305
 20
555.7558088807771
 30
0.0
 40
11.43
  1
受枠：Ｌ－４４
 41
1.142857142857143
  7
ＭＳ ゴシック
100
AcDbText
  0
LWPOLYLINE
  5
396
330
1F
100
AcDbEntity
  8
E-4
  6
Continuous
 62
     7
370
     9
100
AcDbPolyline
 90
        4
 70
     1
 43
1.0
 10
412.602183764947
 20
-228.2346695028805
 42
0.4142135623731
 10
412.102183764947
 20
-227.7346695028805
 42
0.4142135623731
 10
411.602183764947
 20
-228.2346695028805
 42
0.4142135623731
 10
412.102183764947
 20
-228.7346695028805
 42
0.4142135623731
  0
LINE
  5
397
330
1F
100
AcDbEntity
  8
E-4
  6
Continuous
 62
     7
370
     9
100
AcDbLine
 10
412.102183764947
 20
-229.7346695028803
 30
0.0
 11
412.102183764947
 21
-138.2346695028805
 31
0.0
  0
LWPOLYLINE
  5
398
330
1F
100
AcDbEntity
  8
E-4
  6
Continuous
 62
     7
370
     9
100
AcDbPolyline
 90
        4
 70
     1
 43
1.0
 10
406.6021474415546
 20
-188.2346695028805
 42
0.4142135623731
 10
406.1021474415546
 20
-187.7346695028805
 42
0.4142135623731
 10
405.6021474415547
 20
-188.2346695028805
 42
0.4142135623731
 10
406.1021474415546
 20
-188.7346695028805
 42
0.4142135623731
  0
LINE
  5
399
330
1F
100
AcDbEntity
  8
E-4
  6
Continuous
 62
     7
370
     9
100
AcDbLine
 10
406.1021474415546
 20
-189.7346695028803
 30
0.0
 11
406.1021474415546
 21
-126.2346958964613
 31
0.0
  0
LINE
  5
39A
330
1F
100
AcDbEntity
  8
E-4
  6
Continuous
 62
     7
370
     9
100
AcDbLine
 10
362.1022167569236
 20
-228.2346695028805
 30
0.0
 11
412.102183764947
 21
-228.2346695028805
 31
0.0
  0
TEXT
  5
39B
330
1F
100
AcDbEntity
  8
E-4
  6
Continuous
 62
     2
370
   211
100
AcDbText
 10
376.4772002609353
 20
-222.4146695028805
 30
0.0
 40
15.24
  1
50
 41
1.0625
  7
ＭＳ ゴシック
100
AcDbText
  0
LINE
  5
39C
330
1F
100
AcDbEntity
  8
E-4
  6
Continuous
 62
     7
370
     9
100
AcDbLine
 10
362.1022167569236
 20
-188.2346695028805
 30
0.0
 11
406.1021474415546
 21
-188.2346695028805
 31
0.0
  0
TEXT
  5
39D
330
1F
100
AcDbEntity
  8
E-4
  6
Continuous
 62
     2
370
   211
100
AcDbText
 10
373.4771820992391
 20
-182.4146695028805
 30
0.0
 40
15.24
  1
44
 41
1.0625
  7
ＭＳ ゴシック
100
AcDbText
  0
TEXT
  5
39E
330
1F
100
AcDbEntity
  8
E-5
  6
Continuous
 62
     7
370
     9
100
AcDbText
 10
461.0756837847426
 20
554.554735981706
 30
0.0
 40
11.43
  1
アンカー：φ９
 41
1.142857142857143
  7
ＭＳ ゴシック
100
AcDbText
  0
TEXT
  5
39F
330
1F
100
AcDbEntity
  8
E-4
  6
Continuous
 62
     2
370
     9
100
AcDbText
 10
312.9673627161939
 20
-442.0336748903166
 30
0.0
 40
15.24
  1
処理：溶融亜鉛めっき
 41
1.1125
  7
ＭＳ ゴシック
100
AcDbText
  0
TEXT
  5
3A0
330
1F
100
AcDbEntity
  8
E-4
  6
Continuous
 62
     2
370
     9
100
AcDbText
 10
312.9673508355988
 20
-414.5331511426896
 30
0.0
 40
15.24
  1
材質：ＳＳ４００
 50
359.9999900160142
 41
1.109374999999999
  7
ＭＳ ゴシック
100
AcDbText
  0
TEXT
  5
3A1
330
1F
100
AcDbEntity
  8
E-4
  6
Continuous
 62
     2
370
     9
100
AcDbText
 10
310.7177511967152
 20
-502.0339810970972
 30
0.0
 40
15.24
  1
材質：ＳＳ４００
 41
1.109375
  7
ＭＳ ゴシック
100
AcDbText
  0
LINE
  5
3A2
330
1F
100
AcDbEntity
  8
E-4
  6
Continuous
 62
     2
370
     9
100
AcDbLine
 10
229.1113924881532
 20
-335.3940298509903
 30
0.0
 11
229.1113924881532
 21
-310.3936999312266
 31
0.0
  0
LINE
  5
3A3
330
1F
100
AcDbEntity
  8
E-4
  6
Continuous
 62
     2
370
     9
100
AcDbLine
 10
229.1113924881532
 20
-310.3936999312266
 30
0.0
 11
341.6111450483307
 21
-310.3936999312266
 31
0.0
  0
LINE
  5
3A4
330
1F
100
AcDbEntity
  8
E-4
  6
Continuous
 62
     2
370
     9
100
AcDbLine
 10
341.6111450483307
 20
-310.3936999312266
 30
0.0
 11
341.6111450483307
 21
-335.3940298509903
 31
0.0
  0
LINE
  5
3A5
330
1F
100
AcDbEntity
  8
E-4
  6
Continuous
 62
     2
370
     9
100
AcDbLine
 10
341.6111450483307
 20
-335.3940298509903
 30
0.0
 11
229.1113924881532
 21
-335.3940298509903
 31
0.0
  0
TEXT
  5
3A6
330
1F
100
AcDbEntity
  8
E-4
  6
Continuous
 62
     2
370
     9
100
AcDbText
 10
252.8612687682419
 20
-330.0738648911084
 30
0.0
 40
15.24
  1
仕　様
 41
1.083333333333333
  7
ＭＳ ゴシック
100
AcDbText
  0
TEXT
  5
3A7
330
1F
100
AcDbEntity
  8
E-4
  6
Continuous
 62
     2
370
     9
100
AcDbText
 10
285.361268768242
 20
-359.5342068859354
 30
0.0
 40
15.24
  1
スチール製グレーチング　枠付正方形型　細目プレーンタイプ
 41
1.120535714285714
  7
ＭＳ ゴシック
100
AcDbText
  0
TEXT
  5
3A8
330
1F
100
AcDbEntity
  8
E-4
  6
Continuous
 62
     2
370
     9
100
AcDbText
 10
285.3612440242597
 20
-474.5339831590958
 30
0.0
 40
15.24
  1
スチール製受枠　Ｌ－４４（四方受四方枠）
 41
1.11875
  7
ＭＳ ゴシック
100
AcDbText
  0
TEXT
  5
3A9
330
1F
100
AcDbEntity
  8
E-4
  6
Continuous
 62
     2
370
     9
100
AcDbText
 10
285.3612687682419
 20
-387.0347306335601
 30
0.0
 40
15.24
  1
集水桝用　ＱＳＣ　５５４４Ⅰ
 41
1.116071428571429
  7
ＭＳ ゴシック
100
AcDbText
  0
TEXT
  5
3AA
330
1F
100
AcDbEntity
  8
E-4
  6
Continuous
 62
     2
370
     9
100
AcDbText
 10
310.7177635687063
 20
-529.5339481051205
 30
0.0
 40
15.24
  1
処理：樹脂系塗装
 41
1.109375
  7
ＭＳ ゴシック
100
AcDbText
  0
TEXT
  5
3AB
330
1F
100
AcDbEntity
  8
F-5ﾚｲﾔ
  6
Continuous
 62
     2
370
     9
100
AcDbText
 10
452.499991752006
 20
-678.6399980534734
 30
0.0
 40
15.24
  1
１：５
 41
1.083333333333333
  7
ＭＳ ゴシック
100
AcDbText
  0
TEXT
  5
3AC
330
1F
100
AcDbEntity
  8
E-4
  6
Continuous
 62
     2
370
   211
100
AcDbText
 10
-760.5664281478408
 20
-222.6529242602977
 30
0.0
 40
15.24
  1
6
 41
0.9999999999999998
  7
ＭＳ ゴシック
100
AcDbText
  0
ENDSEC
  0
SECTION
  2
OBJECTS
  0
DICTIONARY
  5
C
330
0
100
AcDbDictionary
281
     1
  3
ACAD_DETAILVIEWSTYLE
350
3F2
  3
ACAD_GROUP
350
D
  3
ACAD_LAYOUT
350
1A
  3
ACAD_MATERIAL
350
43
  3
ACAD_MLEADERSTYLE
350
6B
  3
ACAD_MLINESTYLE
350
17
  3
ACAD_PLOTSETTINGS
350
19
  3
ACAD_PLOTSTYLENAME
350
E
  3
ACAD_SCALELIST
350
47
  3
ACAD_SECTIONVIEWSTYLE
350
3F3
  3
ACAD_TABLESTYLE
350
69
  3
ACAD_VISUALSTYLE
350
2A
  3
ACDB_RECOMPOSE_DATA
350
3EF
  3
AcDbVariableDictionary
350
3AF
  0
DICTIONARY
  5
3AD
330
8
100
AcDbDictionary
280
     1
281
     1
  3
ACAD_XREC_ROUNDTRIP
360
3AE
  0
DICTIONARY
  5
3F2
102
{ACAD_REACTORS
330
C
102
}
330
C
100
AcDbDictionary
281
     1
  0
DICTIONARY
  5
D
102
{ACAD_REACTORS
330
C
102
}
330
C
100
AcDbDictionary
281
     1
  0
DICTIONARY
  5
1A
102
{ACAD_REACTORS
330
C
102
}
330
C
100
AcDbDictionary
281
     1
  3
Layout1
350
1E
  3
Layout2
350
26
  3
Model
350
22
  0
DICTIONARY
  5
43
102
{ACAD_REACTORS
330
C
102
}
330
C
100
AcDbDictionary
281
     1
  3
ByBlock
350
45
  3
ByLayer
350
44
  3
Global
350
46
  0
DICTIONARY
  5
6B
102
{ACAD_REACTORS
330
C
102
}
330
C
100
AcDbDictionary
281
     1
  3
Standard
350
6C
  0
DICTIONARY
  5
17
102
{ACAD_REACTORS
330
C
102
}
330
C
100
AcDbDictionary
281
     1
  3
Standard
350
18
  0
DICTIONARY
  5
19
102
{ACAD_REACTORS
330
C
102
}
330
C
100
AcDbDictionary
281
     1
  0
ACDBDICTIONARYWDFLT
  5
E
102
{ACAD_REACTORS
330
C
102
}
330
C
100
AcDbDictionary
281
     1
  3
Normal
350
F
100
AcDbDictionaryWithDefault
340
F
  0
DICTIONARY
  5
47
102
{ACAD_REACTORS
330
C
102
}
330
C
100
AcDbDictionary
281
     1
  3
A0
350
48
  3
A1
350
49
  3
A2
350
4A
  3
A3
350
4B
  3
A4
350
4C
  3
A5
350
4D
  3
A6
350
4E
  3
A7
350
4F
  3
A8
350
50
  3
A9
350
51
  3
B0
350
52
  3
B1
350
53
  3
B2
350
54
  3
B3
350
55
  3
B4
350
56
  3
B5
350
57
  3
B6
350
58
  3
B7
350
59
  3
B8
350
5A
  3
B9
350
5B
  3
C0
350
5C
  3
C1
350
5D
  3
C2
350
5E
  3
C3
350
5F
  3
C4
350
60
  3
C5
350
61
  3
C6
350
62
  3
C7
350
63
  3
C8
350
64
  3
C9
350
65
  3
D0
350
66
  3
D1
350
67
  3
D2
350
68
  0
DICTIONARY
  5
3F3
102
{ACAD_REACTORS
330
C
102
}
330
C
100
AcDbDictionary
281
     1
  0
DICTIONARY
  5
69
102
{ACAD_REACTORS
330
C
102
}
330
C
100
AcDbDictionary
281
     1
  3
Standard
350
6A
  0
DICTIONARY
  5
2A
102
{ACAD_REACTORS
330
C
102
}
330
C
100
AcDbDictionary
281
     1
  3
2dWireframe
350
2F
  3
Basic
350
32
  3
Brighten
350
36
  3
ColorChange
350
3A
  3
Conceptual
350
34
  3
Dim
350
35
  3
EdgeColorOff
350
3D
  3
Facepattern
350
39
  3
Flat
350
2B
  3
FlatWithEdges
350
2C
  3
Gouraud
350
2D
  3
GouraudWithEdges
350
2E
  3
Hidden
350
31
  3
JitterOff
350
3B
  3
Linepattern
350
38
  3
OverhangOff
350
3C
  3
Realistic
350
33
  3
Shaded
350
42
  3
Shaded with edges
350
41
  3
Shades of Gray
350
3E
  3
Sketchy
350
3F
  3
Thicken
350
37
  3
Wireframe
350
30
  3
X-Ray
350
40
  0
XRECORD
  5
3EF
102
{ACAD_REACTORS
330
C
102
}
330
C
100
AcDbXrecord
280
     1
 90
        1
330
6A
  0
DICTIONARY
  5
3AF
102
{ACAD_REACTORS
330
C
102
}
330
C
100
AcDbDictionary
281
     1
  3
CANNOSCALE
350
3B0
  3
CENTEREXE
350
3F4
  3
CENTERLTYPEFILE
350
3F5
  3
CMLEADERSTYLE
350
3F1
  3
CTABLESTYLE
350
3F0
  3
MSLTSCALE
350
3B1
  3
XCLIPFRAME
350
3B2
  0
XRECORD
  5
3AE
102
{ACAD_REACTORS
330
3AD
102
}
330
3AD
100
AcDbXrecord
280
     1
102
VTR_0.000_0.000_1.000_1.000_VISUALSTYLE
340
2F
102
VTR_0.000_0.000_1.000_1.000_GRIDDISPLAY
 70
     3
102
VTR_0.000_0.000_1.000_1.000_GRIDMAJOR
 70
     5
102
VTR_0.000_0.000_1.000_1.000_DEFAULTLIGHTING
280
     1
102
VTR_0.000_0.000_1.000_1.000_DEFAULTLIGHTINGTYPE
 70
     1
102
VTR_0.000_0.000_1.000_1.000_BRIGHTNESS
141
0.0
102
VTR_0.000_0.000_1.000_1.000_CONTRAST
142
0.0
  0
LAYOUT
  5
1E
102
{ACAD_REACTORS
330
1A
102
}
330
1A
100
AcDbPlotSettings
  1

  2
none_device
  4

  6

 40
0.0
 41
0.0
 42
0.0
 43
0.0
 44
0.0
 45
0.0
 46
0.0
 47
0.0
 48
0.0
 49
0.0
140
0.0
141
0.0
142
1.0
143
1.0
 70
   688
 72
     1
 73
     0
 74
     5
  7

 75
    16
 76
     0
 77
     5
 78
   300
147
1.0
148
0.0
149
0.0
100
AcDbLayout
  1
Layout1
 70
     1
 71
     1
 10
0.0
 20
0.0
 11
420.0
 21
297.0
 12
0.0
 22
0.0
 32
0.0
 14
1.000000000000000E+20
 24
1.000000000000000E+20
 34
1.000000000000000E+20
 15
-1.000000000000000E+20
 25
-1.000000000000000E+20
 35
-1.000000000000000E+20
146
0.0
 13
0.0
 23
0.0
 33
0.0
 16
1.0
 26
0.0
 36
0.0
 17
0.0
 27
1.0
 37
0.0
 76
     0
330
1B
  0
LAYOUT
  5
26
102
{ACAD_REACTORS
330
1A
102
}
330
1A
100
AcDbPlotSettings
  1

  2
none_device
  4

  6

 40
0.0
 41
0.0
 42
0.0
 43
0.0
 44
0.0
 45
0.0
 46
0.0
 47
0.0
 48
0.0
 49
0.0
140
0.0
141
0.0
142
1.0
143
1.0
 70
   688
 72
     1
 73
     0
 74
     5
  7

 75
    16
 76
     0
 77
     5
 78
   300
147
1.0
148
0.0
149
0.0
100
AcDbLayout
  1
Layout2
 70
     1
 71
     2
 10
0.0
 20
0.0
 11
0.0
 21
0.0
 12
0.0
 22
0.0
 32
0.0
 14
0.0
 24
0.0
 34
0.0
 15
0.0
 25
0.0
 35
0.0
146
0.0
 13
0.0
 23
0.0
 33
0.0
 16
1.0
 26
0.0
 36
0.0
 17
0.0
 27
1.0
 37
0.0
 76
     0
330
23
  0
LAYOUT
  5
22
102
{ACAD_REACTORS
330
1A
102
}
330
1A
100
AcDbPlotSettings
  1

  2
none_device
  4
Letter_(8.50_x_11.00_Inches)
  6

 40
6.35
 41
6.35
 42
6.35000508
 43
6.35000508
 44
215.9
 45
279.4
 46
0.0
 47
0.0
 48
0.0
 49
0.0
140
0.0
141
0.0
142
1.0
143
1.0
 70
  1712
 72
     1
 73
     0
 74
     0
  7

 75
     0
 76
     0
 77
     5
 78
   300
147
1.0
148
0.0
149
0.0
100
AcDbLayout
  1
Model
 70
     1
 71
     0
 10
-1050.0
 20
-742.5
 11
1050.0
 21
742.5
 12
0.0
 22
0.0
 32
0.0
 14
-1050.0
 24
-742.5
 34
0.0
 15
1050.0
 25
742.5
 35
0.0
146
0.0
 13
0.0
 23
0.0
 33
0.0
 16
1.0
 26
0.0
 36
0.0
 17
0.0
 27
1.0
 37
0.0
 76
     0
330
1F
331
29
  0
MATERIAL
  5
45
102
{ACAD_REACTORS
330
43
102
}
102
{ACAD_XDICTIONARY
360
3E5
102
}
330
43
100
AcDbMaterial
  1
ByBlock
  0
MATERIAL
  5
44
102
{ACAD_REACTORS
330
43
102
}
102
{ACAD_XDICTIONARY
360
3E3
102
}
330
43
100
AcDbMaterial
  1
ByLayer
  0
MATERIAL
  5
46
102
{ACAD_REACTORS
330
43
102
}
102
{ACAD_XDICTIONARY
360
3E7
102
}
330
43
100
AcDbMaterial
  1
Global
  0
MLEADERSTYLE
  5
6C
102
{ACAD_REACTORS
330
6B
102
}
102
{ACAD_XDICTIONARY
360
3ED
102
}
330
6B
100
AcDbMLeaderStyle
170
     2
171
     1
172
     0
 90
        2
 40
0.0
 41
0.0
173
     1
 91
-1056964608
340
14
 92
       -2
290
     1
 42
2.0
291
     1
 43
8.0
  3
Standard
341
0
 44
4.0
300

342
11
174
     1
178
     6
175
     1
176
     0
 93
-1056964608
 45
4.0
292
     0
297
     0
 46
4.0
343
0
 94
-1056964608
 47
1.0
 49
1.0
140
1.0
293
     1
141
0.0
294
     1
177
     0
142
1.0
295
     0
296
     0
143
3.75
1001
ACAD_MLEADERVER
1070
     2
  0
MLINESTYLE
  5
18
102
{ACAD_REACTORS
330
17
102
}
330
17
100
AcDbMlineStyle
  2
Standard
 70
     0
  3

 62
   256
 51
90.0
 52
90.0
 71
     2
 49
0.5
 62
   256
  6
BYLAYER
 49
-0.5
 62
   256
  6
BYLAYER
  0
ACDBPLACEHOLDER
  5
F
102
{ACAD_REACTORS
330
E
102
}
330
E
  0
SCALE
  5
48
102
{ACAD_REACTORS
330
47
102
}
330
47
100
AcDbScale
 70
     0
300
1:1
140
1.0
141
1.0
290
     1
  0
SCALE
  5
49
102
{ACAD_REACTORS
330
47
102
}
330
47
100
AcDbScale
 70
     0
300
1:2
140
1.0
141
2.0
290
     0
  0
SCALE
  5
4A
102
{ACAD_REACTORS
330
47
102
}
330
47
100
AcDbScale
 70
     0
300
1:4
140
1.0
141
4.0
290
     0
  0
SCALE
  5
4B
102
{ACAD_REACTORS
330
47
102
}
330
47
100
AcDbScale
 70
     0
300
1:5
140
1.0
141
5.0
290
     0
  0
SCALE
  5
4C
102
{ACAD_REACTORS
330
47
102
}
330
47
100
AcDbScale
 70
     0
300
1:8
140
1.0
141
8.0
290
     0
  0
SCALE
  5
4D
102
{ACAD_REACTORS
330
47
102
}
330
47
100
AcDbScale
 70
     0
300
1:10
140
1.0
141
10.0
290
     0
  0
SCALE
  5
4E
102
{ACAD_REACTORS
330
47
102
}
330
47
100
AcDbScale
 70
     0
300
1:16
140
1.0
141
16.0
290
     0
  0
SCALE
  5
4F
102
{ACAD_REACTORS
330
47
102
}
330
47
100
AcDbScale
 70
     0
300
1:20
140
1.0
141
20.0
290
     0
  0
SCALE
  5
50
102
{ACAD_REACTORS
330
47
102
}
330
47
100
AcDbScale
 70
     0
300
1:30
140
1.0
141
30.0
290
     0
  0
SCALE
  5
51
102
{ACAD_REACTORS
330
47
102
}
330
47
100
AcDbScale
 70
     0
300
1:40
140
1.0
141
40.0
290
     0
  0
SCALE
  5
52
102
{ACAD_REACTORS
330
47
102
}
330
47
100
AcDbScale
 70
     0
300
1:50
140
1.0
141
50.0
290
     0
  0
SCALE
  5
53
102
{ACAD_REACTORS
330
47
102
}
330
47
100
AcDbScale
 70
     0
300
1:100
140
1.0
141
100.0
290
     0
  0
SCALE
  5
54
102
{ACAD_REACTORS
330
47
102
}
330
47
100
AcDbScale
 70
     0
300
2:1
140
2.0
141
1.0
290
     0
  0
SCALE
  5
55
102
{ACAD_REACTORS
330
47
102
}
330
47
100
AcDbScale
 70
     0
300
4:1
140
4.0
141
1.0
290
     0
  0
SCALE
  5
56
102
{ACAD_REACTORS
330
47
102
}
330
47
100
AcDbScale
 70
     0
300
8:1
140
8.0
141
1.0
290
     0
  0
SCALE
  5
57
102
{ACAD_REACTORS
330
47
102
}
330
47
100
AcDbScale
 70
     0
300
10:1
140
10.0
141
1.0
290
     0
  0
SCALE
  5
58
102
{ACAD_REACTORS
330
47
102
}
330
47
100
AcDbScale
 70
     0
300
100:1
140
100.0
141
1.0
290
     0
  0
SCALE
  5
59
102
{ACAD_REACTORS
330
47
102
}
330
47
100
AcDbScale
 70
     0
300
1/128" = 1'-0"
140
0.0078125
141
12.0
290
     0
  0
SCALE
  5
5A
102
{ACAD_REACTORS
330
47
102
}
330
47
100
AcDbScale
 70
     0
300
1/64" = 1'-0"
140
0.015625
141
12.0
290
     0
  0
SCALE
  5
5B
102
{ACAD_REACTORS
330
47
102
}
330
47
100
AcDbScale
 70
     0
300
1/32" = 1'-0"
140
0.03125
141
12.0
290
     0
  0
SCALE
  5
5C
102
{ACAD_REACTORS
330
47
102
}
330
47
100
AcDbScale
 70
     0
300
1/16" = 1'-0"
140
0.0625
141
12.0
290
     0
  0
SCALE
  5
5D
102
{ACAD_REACTORS
330
47
102
}
330
47
100
AcDbScale
 70
     0
300
3/32" = 1'-0"
140
0.09375
141
12.0
290
     0
  0
SCALE
  5
5E
102
{ACAD_REACTORS
330
47
102
}
330
47
100
AcDbScale
 70
     0
300
1/8" = 1'-0"
140
0.125
141
12.0
290
     0
  0
SCALE
  5
5F
102
{ACAD_REACTORS
330
47
102
}
330
47
100
AcDbScale
 70
     0
300
3/16" = 1'-0"
140
0.1875
141
12.0
290
     0
  0
SCALE
  5
60
102
{ACAD_REACTORS
330
47
102
}
330
47
100
AcDbScale
 70
     0
300
1/4" = 1'-0"
140
0.25
141
12.0
290
     0
  0
SCALE
  5
61
102
{ACAD_REACTORS
330
47
102
}
330
47
100
AcDbScale
 70
     0
300
3/8" = 1'-0"
140
0.375
141
12.0
290
     0
  0
SCALE
  5
62
102
{ACAD_REACTORS
330
47
102
}
330
47
100
AcDbScale
 70
     0
300
1/2" = 1'-0"
140
0.5
141
12.0
290
     0
  0
SCALE
  5
63
102
{ACAD_REACTORS
330
47
102
}
330
47
100
AcDbScale
 70
     0
300
3/4" = 1'-0"
140
0.75
141
12.0
290
     0
  0
SCALE
  5
64
102
{ACAD_REACTORS
330
47
102
}
330
47
100
AcDbScale
 70
     0
300
1" = 1'-0"
140
1.0
141
12.0
290
     0
  0
SCALE
  5
65
102
{ACAD_REACTORS
330
47
102
}
330
47
100
AcDbScale
 70
     0
300
1-1/2" = 1'-0"
140
1.5
141
12.0
290
     0
  0
SCALE
  5
66
102
{ACAD_REACTORS
330
47
102
}
330
47
100
AcDbScale
 70
     0
300
3" = 1'-0"
140
3.0
141
12.0
290
     0
  0
SCALE
  5
67
102
{ACAD_REACTORS
330
47
102
}
330
47
100
AcDbScale
 70
     0
300
6" = 1'-0"
140
6.0
141
12.0
290
     0
  0
SCALE
  5
68
102
{ACAD_REACTORS
330
47
102
}
330
47
100
AcDbScale
 70
     0
300
1'-0" = 1'-0"
140
12.0
141
12.0
290
     0
  0
TABLESTYLE
  5
6A
102
{ACAD_REACTORS
330
69
102
}
102
{ACAD_XDICTIONARY
360
3E9
102
}
330
69
100
AcDbTableStyle
  3
Standard
 70
     0
 71
     0
 40
0.06
 41
0.06
280
     0
281
     0
  7
Standard
140
4.5
170
     2
 62
     0
 63
   257
283
     0
274
    -2
284
     1
 64
     0
275
    -2
285
     1
 65
     0
276
    -2
286
     1
 66
     0
277
    -2
287
     1
 67
     0
278
    -2
288
     1
 68
     0
279
    -2
289
     1
 69
     0
  7
Standard
140
6.0
170
     5
 62
     0
 63
   257
283
     0
274
    -2
284
     1
 64
     0
275
    -2
285
     1
 65
     0
276
    -2
286
     1
 66
     0
277
    -2
287
     1
 67
     0
278
    -2
288
     1
 68
     0
279
    -2
289
     1
 69
     0
  7
Standard
140
4.5
170
     5
 62
     0
 63
   257
283
     0
274
    -2
284
     1
 64
     0
275
    -2
285
     1
 65
     0
276
    -2
286
     1
 66
     0
277
    -2
287
     1
 67
     0
278
    -2
288
     1
 68
     0
279
    -2
289
     1
 69
     0
  0
VISUALSTYLE
  5
2F
102
{ACAD_REACTORS
330
2A
102
}
102
{ACAD_XDICTIONARY
360
3BB
102
}
330
2A
100
AcDbVisualStyle
  2
2dWireframe
 70
     4
 71
     0
 72
     2
 73
     0
 90
        0
 40
0.6
 41
30.0
 62
     5
 63
     7
421
 16777215
 74
     1
 91
        4
 64
     7
 65
   257
 75
     1
175
     1
 42
1.0
 92
        0
 66
   257
 43
1.0
 76
     1
 77
     6
 78
     2
 67
     7
 79
     5
170
     0
171
     0
290
     0
174
     0
 93
        1
 44
0.0
173
     0
291
     0
 45
0.0
1001
ACAD
1000
AcDbSavedByObjectVersion
1070
     0
  0
VISUALSTYLE
  5
32
102
{ACAD_REACTORS
330
2A
102
}
102
{ACAD_XDICTIONARY
360
3C1
102
}
330
2A
100
AcDbVisualStyle
  2
Basic
 70
     7
 71
     1
 72
     0
 73
     1
 90
        0
 40
0.6
 41
30.0
 62
     5
 63
     7
421
 16777215
 74
     0
 91
        4
 64
     7
 65
   257
 75
     1
175
     1
 42
1.0
 92
        8
 66
     7
 43
1.0
 76
     1
 77
     6
 78
     2
 67
     7
 79
     5
170
     0
171
     0
290
     0
174
     0
 93
        1
 44
0.0
173
     0
291
     1
 45
0.0
1001
ACAD
1000
AcDbSavedByObjectVersion
1070
     0
  0
VISUALSTYLE
  5
36
102
{ACAD_REACTORS
330
2A
102
}
102
{ACAD_XDICTIONARY
360
3C9
102
}
330
2A
100
AcDbVisualStyle
  2
Brighten
 70
    12
 71
     2
 72
     2
 73
     0
 90
        0
 40
0.6
 41
30.0
 62
     5
 63
     7
421
 16777215
 74
     1
 91
        4
 64
     7
 65
   257
 75
     1
175
     1
 42
1.0
 92
        8
 66
     7
 43
1.0
 76
     1
 77
     6
 78
     2
 67
     7
 79
     5
170
     0
171
     0
290
     0
174
     0
 93
        1
 44
50.0
173
     0
291
     1
 45
0.0
1001
ACAD
1000
AcDbSavedByObjectVersion
1070
     0
  0
VISUALSTYLE
  5
3A
102
{ACAD_REACTORS
330
2A
102
}
102
{ACAD_XDICTIONARY
360
3D1
102
}
330
2A
100
AcDbVisualStyle
  2
ColorChange
 70
    16
 71
     2
 72
     2
 73
     3
 90
        0
 40
0.6
 41
30.0
 62
     5
 63
     8
421
  8421504
 74
     1
 91
        4
 64
     7
 65
   257
 75
     1
175
     1
 42
1.0
 92
        8
 66
     8
424
  8421504
 43
1.0
 76
     1
 77
     6
 78
     2
 67
     7
 79
     5
170
     0
171
     0
290
     0
174
     0
 93
        1
 44
0.0
173
     0
291
     1
 45
0.0
1001
ACAD
1000
AcDbSavedByObjectVersion
1070
     0
  0
VISUALSTYLE
  5
34
102
{ACAD_REACTORS
330
2A
102
}
102
{ACAD_XDICTIONARY
360
3C5
102
}
330
2A
100
AcDbVisualStyle
  2
Conceptual
 70
     9
 71
     3
 72
     2
 73
     0
 90
        0
 40
0.6
 41
30.0
 62
     5
 63
     7
421
 16777215
 74
     2
 91
        2
 64
     7
 65
   257
 75
     1
175
     1
 42
179.0
 92
        8
 66
     7
 43
1.0
 76
     1
 77
     6
 78
     2
 67
     7
 79
     3
170
     0
171
     0
290
     0
174
     0
 93
        1
 44
0.0
173
     0
291
     0
 45
0.0
1001
ACAD
1000
AcDbSavedByObjectVersion
1070
     0
  0
VISUALSTYLE
  5
35
102
{ACAD_REACTORS
330
2A
102
}
102
{ACAD_XDICTIONARY
360
3C7
102
}
330
2A
100
AcDbVisualStyle
  2
Dim
 70
    11
 71
     2
 72
     2
 73
     0
 90
        0
 40
0.6
 41
30.0
 62
     5
 63
     7
421
 16777215
 74
     1
 91
        4
 64
     7
 65
   257
 75
     1
175
     1
 42
1.0
 92
        8
 66
     7
 43
1.0
 76
     1
 77
     6
 78
     2
 67
     7
 79
     5
170
     0
171
     0
290
     0
174
     0
 93
        1
 44
-50.0
173
     0
291
     1
 45
0.0
1001
ACAD
1000
AcDbSavedByObjectVersion
1070
     0
  0
VISUALSTYLE
  5
3D
102
{ACAD_REACTORS
330
2A
102
}
102
{ACAD_XDICTIONARY
360
3D7
102
}
330
2A
100
AcDbVisualStyle
  2
EdgeColorOff
 70
    22
 71
     2
 72
     2
 73
     0
 90
        0
 40
0.6
 41
30.0
 62
     5
 63
     7
421
 16777215
 74
     1
 91
        4
 64
     7
 65
   257
 75
     1
175
     1
 42
1.0
 92
        8
 66
     7
 43
1.0
 76
     1
 77
     6
 78
     2
 67
     7
 79
     5
170
     0
171
     0
290
     0
174
     0
 93
        1
 44
0.0
173
     0
291
     1
 45
0.0
1001
ACAD
1000
AcDbSavedByObjectVersion
1070
     0
  0
VISUALSTYLE
  5
39
102
{ACAD_REACTORS
330
2A
102
}
102
{ACAD_XDICTIONARY
360
3CF
102
}
330
2A
100
AcDbVisualStyle
  2
Facepattern
 70
    15
 71
     2
 72
     2
 73
     0
 90
        0
 40
0.6
 41
30.0
 62
     5
 63
     7
421
 16777215
 74
     1
 91
        4
 64
     7
 65
   257
 75
     1
175
     1
 42
1.0
 92
        8
 66
     7
 43
1.0
 76
     1
 77
     6
 78
     2
 67
     7
 79
     5
170
     0
171
     0
290
     0
174
     0
 93
        1
 44
0.0
173
     0
291
     1
 45
0.0
1001
ACAD
1000
AcDbSavedByObjectVersion
1070
     0
  0
VISUALSTYLE
  5
2B
102
{ACAD_REACTORS
330
2A
102
}
102
{ACAD_XDICTIONARY
360
3B3
102
}
330
2A
100
AcDbVisualStyle
  2
Flat
 70
     0
 71
     2
 72
     1
 73
     1
 90
        2
 40
0.6
 41
30.0
 62
     5
 63
     7
421
 16777215
 74
     0
 91
        0
 64
     7
 65
   257
 75
     1
175
     1
 42
1.0
 92
        8
 66
     7
 43
1.0
 76
     1
 77
     6
 78
     2
 67
     7
 79
     5
170
     0
171
     0
290
     0
174
     0
 93
       13
 44
0.0
173
     0
291
     1
 45
0.0
1001
ACAD
1000
AcDbSavedByObjectVersion
1070
     0
  0
VISUALSTYLE
  5
2C
102
{ACAD_REACTORS
330
2A
102
}
102
{ACAD_XDICTIONARY
360
3B5
102
}
330
2A
100
AcDbVisualStyle
  2
FlatWithEdges
 70
     1
 71
     2
 72
     1
 73
     1
 90
        2
 40
0.6
 41
30.0
 62
     5
 63
     7
421
 16777215
 74
     1
 91
        0
 64
     7
 65
   257
 75
     1
175
     1
 42
1.0
 92
        0
 66
   257
 43
1.0
 76
     1
 77
     6
 78
     2
 67
     7
 79
     5
170
     0
171
     0
290
     0
174
     0
 93
       13
 44
0.0
173
     0
291
     1
 45
0.0
1001
ACAD
1000
AcDbSavedByObjectVersion
1070
     0
  0
VISUALSTYLE
  5
2D
102
{ACAD_REACTORS
330
2A
102
}
102
{ACAD_XDICTIONARY
360
3B7
102
}
330
2A
100
AcDbVisualStyle
  2
Gouraud
 70
     2
 71
     2
 72
     2
 73
     1
 90
        2
 40
0.6
 41
30.0
 62
     5
 63
     7
421
 16777215
 74
     0
 91
        0
 64
     7
 65
   257
 75
     1
175
     1
 42
1.0
 92
        0
 66
     7
 43
1.0
 76
     1
 77
     6
 78
     2
 67
     7
 79
     5
170
     0
171
     0
290
     0
174
     0
 93
       13
 44
0.0
173
     0
291
     1
 45
0.0
1001
ACAD
1000
AcDbSavedByObjectVersion
1070
     0
  0
VISUALSTYLE
  5
2E
102
{ACAD_REACTORS
330
2A
102
}
102
{ACAD_XDICTIONARY
360
3B9
102
}
330
2A
100
AcDbVisualStyle
  2
GouraudWithEdges
 70
     3
 71
     2
 72
     2
 73
     1
 90
        2
 40
0.6
 41
30.0
 62
     5
 63
     7
421
 16777215
 74
     1
 91
        0
 64
     7
 65
   257
 75
     1
175
     1
 42
1.0
 92
        0
 66
   257
 43
1.0
 76
     1
 77
     6
 78
     2
 67
     7
 79
     5
170
     0
171
     0
290
     0
174
     0
 93
       13
 44
0.0
173
     0
291
     1
 45
0.0
1001
ACAD
1000
AcDbSavedByObjectVersion
1070
     0
  0
VISUALSTYLE
  5
31
102
{ACAD_REACTORS
330
2A
102
}
102
{ACAD_XDICTIONARY
360
3BF
102
}
330
2A
100
AcDbVisualStyle
  2
Hidden
 70
     6
 71
     1
 72
     2
 73
     2
 90
        0
 40
0.6
 41
30.0
 62
     5
 63
     7
421
 16777215
 74
     2
 91
        2
 64
     7
 65
   257
 75
     2
175
     1
 42
40.0
 92
        0
 66
   257
 43
1.0
 76
     1
 77
     6
 78
     2
 67
     7
 79
     3
170
     0
171
     0
290
     0
174
     0
 93
        1
 44
0.0
173
     0
291
     0
 45
0.0
1001
ACAD
1000
AcDbSavedByObjectVersion
1070
     0
  0
VISUALSTYLE
  5
3B
102
{ACAD_REACTORS
330
2A
102
}
102
{ACAD_XDICTIONARY
360
3D3
102
}
330
2A
100
AcDbVisualStyle
  2
JitterOff
 70
    20
 71
     2
 72
     2
 73
     0
 90
        0
 40
0.6
 41
30.0
 62
     5
 63
     7
421
 16777215
 74
     1
 91
        4
 64
     7
 65
   257
 75
     1
175
     1
 42
1.0
 92
       10
 66
     7
 43
1.0
 76
     1
 77
     6
 78
     2
 67
     7
 79
     5
170
     0
171
     0
290
     0
174
     0
 93
        1
 44
0.0
173
     0
291
     1
 45
0.0
1001
ACAD
1000
AcDbSavedByObjectVersion
1070
     0
  0
VISUALSTYLE
  5
38
102
{ACAD_REACTORS
330
2A
102
}
102
{ACAD_XDICTIONARY
360
3CD
102
}
330
2A
100
AcDbVisualStyle
  2
Linepattern
 70
    14
 71
     2
 72
     2
 73
     0
 90
        0
 40
0.6
 41
30.0
 62
     5
 63
     7
421
 16777215
 74
     1
 91
        4
 64
     7
 65
   257
 75
     7
175
     7
 42
1.0
 92
        8
 66
     7
 43
1.0
 76
     1
 77
     6
 78
     2
 67
     7
 79
     5
170
     0
171
     0
290
     0
174
     0
 93
        1
 44
0.0
173
     0
291
     1
 45
0.0
1001
ACAD
1000
AcDbSavedByObjectVersion
1070
     0
  0
VISUALSTYLE
  5
3C
102
{ACAD_REACTORS
330
2A
102
}
102
{ACAD_XDICTIONARY
360
3D5
102
}
330
2A
100
AcDbVisualStyle
  2
OverhangOff
 70
    21
 71
     2
 72
     2
 73
     0
 90
        0
 40
0.6
 41
30.0
 62
     5
 63
     7
421
 16777215
 74
     1
 91
        4
 64
     7
 65
   257
 75
     1
175
     1
 42
1.0
 92
        9
 66
     7
 43
1.0
 76
     1
 77
     6
 78
     2
 67
     7
 79
     5
170
     0
171
     0
290
     0
174
     0
 93
        1
 44
0.0
173
     0
291
     1
 45
0.0
1001
ACAD
1000
AcDbSavedByObjectVersion
1070
     0
  0
VISUALSTYLE
  5
33
102
{ACAD_REACTORS
330
2A
102
}
102
{ACAD_XDICTIONARY
360
3C3
102
}
330
2A
100
AcDbVisualStyle
  2
Realistic
 70
     8
 71
     2
 72
     3
 73
     0
 90
        2
 40
0.6
 41
30.0
 62
     5
 63
     7
421
 16777215
 74
     0
 91
        0
 64
     7
 65
   257
 75
     1
175
     1
 42
1.0
 92
        8
 66
   257
 43
1.0
 76
     1
 77
     6
 78
     2
 67
     7
 79
     3
170
     0
171
     0
290
     0
174
     0
 93
       13
 44
0.0
173
     0
291
     0
 45
0.0
1001
ACAD
1000
AcDbSavedByObjectVersion
1070
     0
  0
VISUALSTYLE
  5
42
102
{ACAD_REACTORS
330
2A
102
}
102
{ACAD_XDICTIONARY
360
3E1
102
}
330
2A
100
AcDbVisualStyle
  2
Shaded
 70
    27
 71
     2
 72
     2
 73
     1
 90
        2
 40
0.6
 41
30.0
 62
     5
 63
     7
421
 16777215
 74
     0
 91
        4
 64
     7
 65
   257
 75
     1
175
     1
 42
1.0
 92
        8
 66
   257
 43
1.0
 76
     1
 77
     6
 78
     2
 67
     8
425
  7895160
 79
     3
170
     0
171
     0
290
     0
174
     0
 93
        5
 44
0.0
173
     0
291
     0
 45
0.0
1001
ACAD
1000
AcDbSavedByObjectVersion
1070
     0
  0
VISUALSTYLE
  5
41
102
{ACAD_REACTORS
330
2A
102
}
102
{ACAD_XDICTIONARY
360
3DF
102
}
330
2A
100
AcDbVisualStyle
  2
Shaded with edges
 70
    26
 71
     2
 72
     2
 73
     1
 90
        2
 40
0.6
 41
30.0
 62
     5
 63
     7
421
 16777215
 74
     1
 91
       10
 64
     7
 65
   257
 75
     2
175
     1
 42
1.0
 92
        8
 66
   257
 43
1.0
 76
     1
 77
     6
 78
     2
 67
     7
 79
     3
170
     0
171
     0
290
     0
174
     0
 93
        5
 44
0.0
173
     0
291
     0
 45
0.0
1001
ACAD
1000
AcDbSavedByObjectVersion
1070
     0
  0
VISUALSTYLE
  5
3E
102
{ACAD_REACTORS
330
2A
102
}
102
{ACAD_XDICTIONARY
360
3D9
102
}
330
2A
100
AcDbVisualStyle
  2
Shades of Gray
 70
    23
 71
     2
 72
     2
 73
     3
 90
        0
 40
0.6
 41
30.0
 62
     5
 63
     7
421
 16777215
 74
     2
 91
        2
 64
     7
 65
     7
 75
     1
175
     1
 42
40.0
 92
        8
 66
     7
 43
1.0
 76
     1
 77
     6
 78
     2
 67
     7
 79
     3
170
     0
171
     0
290
     0
174
     0
 93
        1
 44
0.0
173
     0
291
     0
 45
0.0
1001
ACAD
1000
AcDbSavedByObjectVersion
1070
     0
  0
VISUALSTYLE
  5
3F
102
{ACAD_REACTORS
330
2A
102
}
102
{ACAD_XDICTIONARY
360
3DB
102
}
330
2A
100
AcDbVisualStyle
  2
Sketchy
 70
    24
 71
     1
 72
     2
 73
     2
 90
        0
 40
0.6
 41
30.0
 62
     5
 63
     7
421
 16777215
 74
     2
 91
        2
 64
     7
 65
     7
 75
     1
175
     1
 42
40.0
 92
       11
 66
     7
 43
1.0
 76
     1
 77
     6
 78
     2
 67
     7
 79
     6
170
     0
171
     0
290
     0
174
     0
 93
        1
 44
0.0
173
     0
291
     0
 45
0.0
1001
ACAD
1000
AcDbSavedByObjectVersion
1070
     0
  0
VISUALSTYLE
  5
37
102
{ACAD_REACTORS
330
2A
102
}
102
{ACAD_XDICTIONARY
360
3CB
102
}
330
2A
100
AcDbVisualStyle
  2
Thicken
 70
    13
 71
     2
 72
     2
 73
     0
 90
        0
 40
0.6
 41
30.0
 62
     5
 63
     7
421
 16777215
 74
     1
 91
        4
 64
     7
 65
   257
 75
     1
175
     1
 42
1.0
 92
       12
 66
     7
 43
1.0
 76
     1
 77
     6
 78
     2
 67
     7
 79
     5
170
     0
171
     0
290
     0
174
     0
 93
        1
 44
0.0
173
     0
291
     1
 45
0.0
1001
ACAD
1000
AcDbSavedByObjectVersion
1070
     0
  0
VISUALSTYLE
  5
30
102
{ACAD_REACTORS
330
2A
102
}
102
{ACAD_XDICTIONARY
360
3BD
102
}
330
2A
100
AcDbVisualStyle
  2
Wireframe
 70
     5
 71
     0
 72
     2
 73
     0
 90
        0
 40
0.6
 41
30.0
 62
     5
 63
     7
421
 16777215
 74
     1
 91
        4
 64
     7
 65
   257
 75
     1
175
     1
 42
1.0
 92
        0
 66
   257
 43
1.0
 76
     1
 77
     6
 78
     2
 67
     7
 79
     3
170
     0
171
     0
290
     0
174
     0
 93
        1
 44
0.0
173
     0
291
     0
 45
0.0
1001
ACAD
1000
AcDbSavedByObjectVersion
1070
     0
  0
VISUALSTYLE
  5
40
102
{ACAD_REACTORS
330
2A
102
}
102
{ACAD_XDICTIONARY
360
3DD
102
}
330
2A
100
AcDbVisualStyle
  2
X-Ray
 70
    25
 71
     2
 72
     2
 73
     1
 90
        1
 40
0.5
 41
30.0
 62
     5
 63
     7
421
 16777215
 74
     1
 91
        0
 64
     7
 65
   257
 75
     1
175
     1
 42
1.0
 92
        8
 66
     7
 43
1.0
 76
     1
 77
     6
 78
     2
 67
     7
 79
     3
170
     0
171
     0
290
     0
174
     0
 93
       13
 44
0.0
173
     0
291
     0
 45
0.0
1001
ACAD
1000
AcDbSavedByObjectVersion
1070
     0
  0
DICTIONARYVAR
  5
3B0
102
{ACAD_REACTORS
330
3AF
102
}
330
3AF
100
DictionaryVariables
280
     0
  1
1:1
  0
DICTIONARYVAR
  5
3F4
102
{ACAD_REACTORS
330
3AF
102
}
330
3AF
100
DictionaryVariables
280
     0
  1
3.500000
  0
DICTIONARYVAR
  5
3F5
102
{ACAD_REACTORS
330
3AF
102
}
330
3AF
100
DictionaryVariables
280
     0
  1
acadiso.lin
  0
DICTIONARYVAR
  5
3F1
102
{ACAD_REACTORS
330
3AF
102
}
330
3AF
100
DictionaryVariables
280
     0
  1
Standard
  0
DICTIONARYVAR
  5
3F0
102
{ACAD_REACTORS
330
3AF
102
}
330
3AF
100
DictionaryVariables
280
     0
  1
Standard
  0
DICTIONARYVAR
  5
3B1
102
{ACAD_REACTORS
330
3AF
102
}
330
3AF
100
DictionaryVariables
280
     0
  1
1
  0
DICTIONARYVAR
  5
3B2
102
{ACAD_REACTORS
330
3AF
102
}
330
3AF
100
DictionaryVariables
280
     0
  1
2
  0
DICTIONARY
  5
3E5
330
45
100
AcDbDictionary
280
     1
281
     1
  3
ACAD_XREC_ROUNDTRIP
360
3E6
  0
DICTIONARY
  5
3E3
330
44
100
AcDbDictionary
280
     1
281
     1
  3
ACAD_XREC_ROUNDTRIP
360
3E4
  0
DICTIONARY
  5
3E7
330
46
100
AcDbDictionary
280
     1
281
     1
  3
ACAD_XREC_ROUNDTRIP
360
3E8
  0
DICTIONARY
  5
3ED
330
6C
100
AcDbDictionary
280
     1
281
     1
  3
ACAD_XREC_ROUNDTRIP
360
3EE
  0
DICTIONARY
  5
3E9
330
6A
100
AcDbDictionary
280
     1
281
     1
  3
ACAD_ROUNDTRIP_2008_TABLESTYLE_CELLSTYLEMAP
360
3EB
  3
ACAD_XREC_ROUNDTRIP
360
3EA
  0
DICTIONARY
  5
3BB
330
2F
100
AcDbDictionary
280
     1
281
     1
  3
ACAD_XREC_ROUNDTRIP
360
3BC
  0
DICTIONARY
  5
3C1
330
32
100
AcDbDictionary
280
     1
281
     1
  3
ACAD_XREC_ROUNDTRIP
360
3C2
  0
DICTIONARY
  5
3C9
330
36
100
AcDbDictionary
280
     1
281
     1
  3
ACAD_XREC_ROUNDTRIP
360
3CA
  0
DICTIONARY
  5
3D1
330
3A
100
AcDbDictionary
280
     1
281
     1
  3
ACAD_XREC_ROUNDTRIP
360
3D2
  0
DICTIONARY
  5
3C5
330
34
100
AcDbDictionary
280
     1
281
     1
  3
ACAD_XREC_ROUNDTRIP
360
3C6
  0
DICTIONARY
  5
3C7
330
35
100
AcDbDictionary
280
     1
281
     1
  3
ACAD_XREC_ROUNDTRIP
360
3C8
  0
DICTIONARY
  5
3D7
330
3D
100
AcDbDictionary
280
     1
281
     1
  3
ACAD_XREC_ROUNDTRIP
360
3D8
  0
DICTIONARY
  5
3CF
330
39
100
AcDbDictionary
280
     1
281
     1
  3
ACAD_XREC_ROUNDTRIP
360
3D0
  0
DICTIONARY
  5
3B3
330
2B
100
AcDbDictionary
280
     1
281
     1
  3
ACAD_XREC_ROUNDTRIP
360
3B4
  0
DICTIONARY
  5
3B5
330
2C
100
AcDbDictionary
280
     1
281
     1
  3
ACAD_XREC_ROUNDTRIP
360
3B6
  0
DICTIONARY
  5
3B7
330
2D
100
AcDbDictionary
280
     1
281
     1
  3
ACAD_XREC_ROUNDTRIP
360
3B8
  0
DICTIONARY
  5
3B9
330
2E
100
AcDbDictionary
280
     1
281
     1
  3
ACAD_XREC_ROUNDTRIP
360
3BA
  0
DICTIONARY
  5
3BF
330
31
100
AcDbDictionary
280
     1
281
     1
  3
ACAD_XREC_ROUNDTRIP
360
3C0
  0
DICTIONARY
  5
3D3
330
3B
100
AcDbDictionary
280
     1
281
     1
  3
ACAD_XREC_ROUNDTRIP
360
3D4
  0
DICTIONARY
  5
3CD
330
38
100
AcDbDictionary
280
     1
281
     1
  3
ACAD_XREC_ROUNDTRIP
360
3CE
  0
DICTIONARY
  5
3D5
330
3C
100
AcDbDictionary
280
     1
281
     1
  3
ACAD_XREC_ROUNDTRIP
360
3D6
  0
DICTIONARY
  5
3C3
330
33
100
AcDbDictionary
280
     1
281
     1
  3
ACAD_XREC_ROUNDTRIP
360
3C4
  0
DICTIONARY
  5
3E1
330
42
100
AcDbDictionary
280
     1
281
     1
  3
ACAD_XREC_ROUNDTRIP
360
3E2
  0
DICTIONARY
  5
3DF
330
41
100
AcDbDictionary
280
     1
281
     1
  3
ACAD_XREC_ROUNDTRIP
360
3E0
  0
DICTIONARY
  5
3D9
330
3E
100
AcDbDictionary
280
     1
281
     1
  3
ACAD_XREC_ROUNDTRIP
360
3DA
  0
DICTIONARY
  5
3DB
330
3F
100
AcDbDictionary
280
     1
281
     1
  3
ACAD_XREC_ROUNDTRIP
360
3DC
  0
DICTIONARY
  5
3CB
330
37
100
AcDbDictionary
280
     1
281
     1
  3
ACAD_XREC_ROUNDTRIP
360
3CC
  0
DICTIONARY
  5
3BD
330
30
100
AcDbDictionary
280
     1
281
     1
  3
ACAD_XREC_ROUNDTRIP
360
3BE
  0
DICTIONARY
  5
3DD
330
40
100
AcDbDictionary
280
     1
281
     1
  3
ACAD_XREC_ROUNDTRIP
360
3DE
  0
XRECORD
  5
3E6
102
{ACAD_REACTORS
330
3E5
102
}
330
3E5
100
AcDbXrecord
280
     1
102
MATERIAL
148
0.0
149
0.0
149
0.0
 93
        0
 94
      127
282
     0
 72
     1
 77
     1
171
     1
175
     1
179
     1
273
     0
  0
XRECORD
  5
3E4
102
{ACAD_REACTORS
330
3E3
102
}
330
3E3
100
AcDbXrecord
280
     1
102
MATERIAL
148
0.0
149
0.0
149
0.0
 93
        0
 94
      127
282
     0
 72
     1
 77
     1
171
     1
175
     1
179
     1
273
     0
  0
XRECORD
  5
3E8
102
{ACAD_REACTORS
330
3E7
102
}
330
3E7
100
AcDbXrecord
280
     1
102
MATERIAL
148
0.0
149
0.0
149
0.0
 93
        0
 94
      127
282
     0
 72
     1
 77
     1
171
     1
175
     1
179
     1
273
     0
  0
XRECORD
  5
3EE
102
{ACAD_REACTORS
330
3ED
102
}
330
3ED
100
AcDbXrecord
280
     1
102
ACAD_ROUNDTRIP_2010_MLEADER_STYLE
  0
CELLSTYLEMAP
  5
3EB
102
{ACAD_REACTORS
330
3E9
102
}
330
3E9
100
AcDbCellStyleMap
 90
        3
300
CELLSTYLE
  1
TABLEFORMAT_BEGIN
 90
        5
170
     1
 91
        0
 92
    32768
 62
   257
 93
        1
300
CONTENTFORMAT
  1
CONTENTFORMAT_BEGIN
 90
        0
 91
        0
 92
        4
 93
        0
300

 40
0.0
140
1.0
 94
        5
 62
     0
340
11
144
6.0
309
CONTENTFORMAT_END
171
     1
301
MARGIN
  1
CELLMARGIN_BEGIN
 40
1.5
 40
1.5
 40
1.5
 40
1.5
 40
1.5
 40
1.5
309
CELLMARGIN_END
 94
        6
 95
        1
302
GRIDFORMAT
  1
GRIDFORMAT_BEGIN
 90
        0
 91
        1
 62
     0
 92
       -2
340
14
 93
        0
 40
0.045
309
GRIDFORMAT_END
 95
        2
302
GRIDFORMAT
  1
GRIDFORMAT_BEGIN
 90
        0
 91
        1
 62
     0
 92
       -2
340
14
 93
        0
 40
0.045
309
GRIDFORMAT_END
 95
        4
302
GRIDFORMAT
  1
GRIDFORMAT_BEGIN
 90
        0
 91
        1
 62
     0
 92
       -2
340
14
 93
        0
 40
0.045
309
GRIDFORMAT_END
 95
        8
302
GRIDFORMAT
  1
GRIDFORMAT_BEGIN
 90
        0
 91
        1
 62
     0
 92
       -2
340
14
 93
        0
 40
0.045
309
GRIDFORMAT_END
 95
       16
302
GRIDFORMAT
  1
GRIDFORMAT_BEGIN
 90
        0
 91
        1
 62
     0
 92
       -2
340
14
 93
        0
 40
0.045
309
GRIDFORMAT_END
 95
       32
302
GRIDFORMAT
  1
GRIDFORMAT_BEGIN
 90
        0
 91
        1
 62
     0
 92
       -2
340
14
 93
        0
 40
0.045
309
GRIDFORMAT_END
309
TABLEFORMAT_END
  1
CELLSTYLE_BEGIN
 90
        1
 91
        1
300
_TITLE
309
CELLSTYLE_END
300
CELLSTYLE
  1
TABLEFORMAT_BEGIN
 90
        5
170
     1
 91
        0
 92
        0
 62
   257
 93
        1
300
CONTENTFORMAT
  1
CONTENTFORMAT_BEGIN
 90
        0
 91
        0
 92
        4
 93
        0
300

 40
0.0
140
1.0
 94
        5
 62
     0
340
11
144
4.5
309
CONTENTFORMAT_END
171
     1
301
MARGIN
  1
CELLMARGIN_BEGIN
 40
1.5
 40
1.5
 40
1.5
 40
1.5
 40
1.5
 40
1.5
309
CELLMARGIN_END
 94
        6
 95
        1
302
GRIDFORMAT
  1
GRIDFORMAT_BEGIN
 90
        0
 91
        1
 62
     0
 92
       -2
340
14
 93
        0
 40
0.045
309
GRIDFORMAT_END
 95
        2
302
GRIDFORMAT
  1
GRIDFORMAT_BEGIN
 90
        0
 91
        1
 62
     0
 92
       -2
340
14
 93
        0
 40
0.045
309
GRIDFORMAT_END
 95
        4
302
GRIDFORMAT
  1
GRIDFORMAT_BEGIN
 90
        0
 91
        1
 62
     0
 92
       -2
340
14
 93
        0
 40
0.045
309
GRIDFORMAT_END
 95
        8
302
GRIDFORMAT
  1
GRIDFORMAT_BEGIN
 90
        0
 91
        1
 62
     0
 92
       -2
340
14
 93
        0
 40
0.045
309
GRIDFORMAT_END
 95
       16
302
GRIDFORMAT
  1
GRIDFORMAT_BEGIN
 90
        0
 91
        1
 62
     0
 92
       -2
340
14
 93
        0
 40
0.045
309
GRIDFORMAT_END
 95
       32
302
GRIDFORMAT
  1
GRIDFORMAT_BEGIN
 90
        0
 91
        1
 62
     0
 92
       -2
340
14
 93
        0
 40
0.045
309
GRIDFORMAT_END
309
TABLEFORMAT_END
  1
CELLSTYLE_BEGIN
 90
        2
 91
        1
300
_HEADER
309
CELLSTYLE_END
300
CELLSTYLE
  1
TABLEFORMAT_BEGIN
 90
        5
170
     1
 91
        0
 92
        0
 62
   257
 93
        1
300
CONTENTFORMAT
  1
CONTENTFORMAT_BEGIN
 90
        0
 91
        0
 92
        4
 93
        0
300

 40
0.0
140
1.0
 94
        2
 62
     0
340
11
144
4.5
309
CONTENTFORMAT_END
171
     1
301
MARGIN
  1
CELLMARGIN_BEGIN
 40
1.5
 40
1.5
 40
1.5
 40
1.5
 40
1.5
 40
1.5
309
CELLMARGIN_END
 94
        6
 95
        1
302
GRIDFORMAT
  1
GRIDFORMAT_BEGIN
 90
        0
 91
        1
 62
     0
 92
       -2
340
14
 93
        0
 40
0.045
309
GRIDFORMAT_END
 95
        2
302
GRIDFORMAT
  1
GRIDFORMAT_BEGIN
 90
        0
 91
        1
 62
     0
 92
       -2
340
14
 93
        0
 40
0.045
309
GRIDFORMAT_END
 95
        4
302
GRIDFORMAT
  1
GRIDFORMAT_BEGIN
 90
        0
 91
        1
 62
     0
 92
       -2
340
14
 93
        0
 40
0.045
309
GRIDFORMAT_END
 95
        8
302
GRIDFORMAT
  1
GRIDFORMAT_BEGIN
 90
        0
 91
        1
 62
     0
 92
       -2
340
14
 93
        0
 40
0.045
309
GRIDFORMAT_END
 95
       16
302
GRIDFORMAT
  1
GRIDFORMAT_BEGIN
 90
        0
 91
        1
 62
     0
 92
       -2
340
14
 93
        0
 40
0.045
309
GRIDFORMAT_END
 95
       32
302
GRIDFORMAT
  1
GRIDFORMAT_BEGIN
 90
        0
 91
        1
 62
     0
 92
       -2
340
14
 93
        0
 40
0.045
309
GRIDFORMAT_END
309
TABLEFORMAT_END
  1
CELLSTYLE_BEGIN
 90
        3
 91
        2
300
_DATA
309
CELLSTYLE_END
  0
XRECORD
  5
3EA
102
{ACAD_REACTORS
330
3E9
102
}
330
3E9
100
AcDbXrecord
280
     1
102
ACAD_ROUNDTRIP_PRE2007_TABLESTYLE
 90
        4
 91
        0
  1

 92
        4
 93
        0
  2

 94
        4
 95
        0
  3

  0
XRECORD
  5
3BC
102
{ACAD_REACTORS
330
3BB
102
}
330
3BB
100
AcDbXrecord
280
     1
102
RTVSPropertyOp0
 70
     1
102
RTVSPropertyOp1
 70
     1
102
RTVSPropertyOp2
 70
     1
102
RTVSPropertyOp3
 70
     1
102
RTVSPropertyOp4
 70
     1
102
RTVSPropertyOp5
 70
     1
102
RTVSPropertyOp6
 70
     1
102
RTVSPropertyOp7
 70
     1
102
RTVSPropertyOp8
 70
     1
102
RTVSPropertyOp9
 70
     1
102
RTVSPropertyOp10
 70
     1
102
RTVSPropertyOp11
 70
     1
102
RTVSPropertyOp12
 70
     1
102
RTVSPropertyOp13
 70
     1
102
RTVSPropertyOp14
 70
     1
102
RTVSPropertyOp15
 70
     1
102
RTVSPropertyOp16
 70
     1
102
RTVSPropertyOp17
 70
     1
102
RTVSPropertyOp18
 70
     1
102
RTVSPropertyOp19
 70
     1
102
RTVSPropertyOp20
 70
     1
102
RTVSPropertyOp21
 70
     1
102
RTVSPropertyOp22
 70
     1
102
RTVSPropertyOp23
 70
     1
102
RTVSPropertyOp24
 70
     1
102
RTVSPropertyOp25
 70
     1
102
RTVSPropertyOp26
 70
     1
102
RTVSPropertyOp27
 70
     1
102
RTVSPropertyOp28
 70
     1
102
RTVSPropertyOp29
 70
     1
102
RTVSPropertyOp30
 70
     1
102
RTVSPropertyOp31
 70
     1
102
RTVSPropertyOp32
 70
     1
102
RTVSPropertyOp33
 70
     1
102
RTVSPropertyOp34
 70
     1
102
RTVSPropertyOp35
 70
     1
102
RTVSPropertyOp36
 70
     1
102
RTVSPropertyOp37
 70
     1
102
RTVSPropertyOp38
 70
     1
102
RTVSPropertyOp39
 70
     1
102
RTVSPropertyOp40
 70
     1
102
RTVSPropertyOp41
 70
     1
102
RTVSPropertyOp42
 70
     1
102
RTVSPropertyOp43
 70
     1
102
RTVSPropertyOp44
 70
     1
102
RTVSPropertyOp45
 70
     1
102
RTVSPropertyOp46
 70
     1
102
RTVSPropertyOp47
 70
     1
102
RTVSPropertyOp48
 70
     1
102
RTVSPropertyOp49
 70
     1
102
RTVSPropertyOp50
 70
     1
102
RTVSPropertyOp51
 70
     0
102
RTVSPropertyOp52
 70
     0
102
RTVSPropertyOp53
 70
     1
102
RTVSPropertyOp54
 70
     1
102
RTVSPropertyOp55
 70
     1
102
RTVSPropertyOp56
 70
     1
102
RTVSPropertyOp57
 70
     1
102
RTVSPost2010Prop28
280
     1
102
RTVSPost2010PropOp28
 70
     1
102
RTVSPost2010Prop29
280
     1
102
RTVSPost2010PropOp29
 70
     1
102
RTVSPost2010Prop30
280
     0
102
RTVSPost2010PropOp30
 70
     1
102
RTVSPost2010Prop31
280
     0
102
RTVSPost2010PropOp31
 70
     1
102
RTVSPost2010Prop32
280
     0
102
RTVSPost2010PropOp32
 70
     1
102
RTVSPost2010Prop33
280
     0
102
RTVSPost2010PropOp33
 70
     1
102
RTVSPost2010Prop34
280
     0
102
RTVSPost2010PropOp34
 70
     1
102
RTVSPost2010Prop35
280
     0
102
RTVSPost2010PropOp35
 70
     1
102
RTVSPost2010Prop36
280
     0
102
RTVSPost2010PropOp36
 70
     1
102
RTVSPost2010Prop37
 90
       50
102
RTVSPost2010PropOp37
 70
     1
102
RTVSPost2010Prop38
140
0.0
102
RTVSPost2010PropOp38
 70
     1
102
RTVSPost2010Prop39
140
1.0
102
RTVSPost2010PropOp39
 70
     1
102
RTVSPost2010Prop40
 90
        0
102
RTVSPost2010PropOp40
 70
     1
102
RTVSPost2010Prop41ColorIndex
 90
       18
102
RTVSPost2010Prop41ColorRGB
 90
        0
102
RTVSPost2010PropOp41
 70
     1
102
RTVSPost2010Prop42
 90
       50
102
RTVSPost2010PropOp42
 70
     1
102
RTVSPost2010Prop43
 90
        3
102
RTVSPost2010PropOp43
 70
     1
102
RTVSPost2010Prop44ColorIndex
 90
        5
102
RTVSPost2010Prop44ColorRGB
 90
      255
102
RTVSPost2010PropOp44
 70
     1
102
RTVSPost2010Prop45
280
     0
102
RTVSPost2010PropOp45
 70
     1
102
RTVSPost2010Prop46
 90
       50
102
RTVSPost2010PropOp46
 70
     1
102
RTVSPost2010Prop47
 90
       50
102
RTVSPost2010PropOp47
 70
     1
102
RTVSPost2010Prop48
 90
       50
102
RTVSPost2010PropOp48
 70
     1
102
RTVSPost2010Prop49
280
     0
102
RTVSPost2010PropOp49
 70
     1
102
RTVSPost2010Prop50
 90
       50
102
RTVSPost2010PropOp50
 70
     1
102
RTVSPost2010Prop51ColorIndex
 90
      256
102
RTVSPost2010Prop51ColorRGB
 90
-16777216
102
RTVSPost2010PropOp51
 70
     0
102
RTVSPost2010Prop52
140
1.0
102
RTVSPost2010PropOp52
 70
     0
102
RTVSPost2010Prop53
 90
        2
102
RTVSPost2010PropOp53
 70
     1
102
RTVSPost2010Prop54
  1
strokes_ogs.tif
102
RTVSPost2010PropOp54
 70
     1
102
RTVSPost2010Prop55
280
     0
102
RTVSPost2010PropOp55
 70
     1
102
RTVSPost2010Prop56
140
1.0
102
RTVSPost2010PropOp56
 70
     1
102
RTVSPost2010Prop57
140
1.0
102
RTVSPost2010PropOp57
 70
     1
  0
XRECORD
  5
3C2
102
{ACAD_REACTORS
330
3C1
102
}
330
3C1
100
AcDbXrecord
280
     1
102
RTVSPropertyOp0
 70
     1
102
RTVSPropertyOp1
 70
     1
102
RTVSPropertyOp2
 70
     1
102
RTVSPropertyOp3
 70
     1
102
RTVSPropertyOp4
 70
     1
102
RTVSPropertyOp5
 70
     1
102
RTVSPropertyOp6
 70
     1
102
RTVSPropertyOp7
 70
     1
102
RTVSPropertyOp8
 70
     1
102
RTVSPropertyOp9
 70
     1
102
RTVSPropertyOp10
 70
     1
102
RTVSPropertyOp11
 70
     1
102
RTVSPropertyOp12
 70
     1
102
RTVSPropertyOp13
 70
     1
102
RTVSPropertyOp14
 70
     1
102
RTVSPropertyOp15
 70
     1
102
RTVSPropertyOp16
 70
     1
102
RTVSPropertyOp17
 70
     1
102
RTVSPropertyOp18
 70
     1
102
RTVSPropertyOp19
 70
     1
102
RTVSPropertyOp20
 70
     1
102
RTVSPropertyOp21
 70
     1
102
RTVSPropertyOp22
 70
     1
102
RTVSPropertyOp23
 70
     1
102
RTVSPropertyOp24
 70
     1
102
RTVSPropertyOp25
 70
     1
102
RTVSPropertyOp26
 70
     1
102
RTVSPropertyOp27
 70
     1
102
RTVSPropertyOp28
 70
     1
102
RTVSPropertyOp29
 70
     1
102
RTVSPropertyOp30
 70
     1
102
RTVSPropertyOp31
 70
     1
102
RTVSPropertyOp32
 70
     1
102
RTVSPropertyOp33
 70
     1
102
RTVSPropertyOp34
 70
     1
102
RTVSPropertyOp35
 70
     1
102
RTVSPropertyOp36
 70
     1
102
RTVSPropertyOp37
 70
     1
102
RTVSPropertyOp38
 70
     1
102
RTVSPropertyOp39
 70
     1
102
RTVSPropertyOp40
 70
     1
102
RTVSPropertyOp41
 70
     1
102
RTVSPropertyOp42
 70
     1
102
RTVSPropertyOp43
 70
     1
102
RTVSPropertyOp44
 70
     1
102
RTVSPropertyOp45
 70
     1
102
RTVSPropertyOp46
 70
     1
102
RTVSPropertyOp47
 70
     1
102
RTVSPropertyOp48
 70
     1
102
RTVSPropertyOp49
 70
     1
102
RTVSPropertyOp50
 70
     1
102
RTVSPropertyOp51
 70
     0
102
RTVSPropertyOp52
 70
     0
102
RTVSPropertyOp53
 70
     1
102
RTVSPropertyOp54
 70
     1
102
RTVSPropertyOp55
 70
     1
102
RTVSPropertyOp56
 70
     1
102
RTVSPropertyOp57
 70
     1
102
RTVSPost2010Prop28
280
     0
102
RTVSPost2010PropOp28
 70
     1
102
RTVSPost2010Prop29
280
     1
102
RTVSPost2010PropOp29
 70
     1
102
RTVSPost2010Prop30
280
     1
102
RTVSPost2010PropOp30
 70
     1
102
RTVSPost2010Prop31
280
     0
102
RTVSPost2010PropOp31
 70
     1
102
RTVSPost2010Prop32
280
     0
102
RTVSPost2010PropOp32
 70
     1
102
RTVSPost2010Prop33
280
     0
102
RTVSPost2010PropOp33
 70
     1
102
RTVSPost2010Prop34
280
     0
102
RTVSPost2010PropOp34
 70
     1
102
RTVSPost2010Prop35
280
     0
102
RTVSPost2010PropOp35
 70
     1
102
RTVSPost2010Prop36
280
     0
102
RTVSPost2010PropOp36
 70
     1
102
RTVSPost2010Prop37
 90
       50
102
RTVSPost2010PropOp37
 70
     1
102
RTVSPost2010Prop38
140
0.0
102
RTVSPost2010PropOp38
 70
     1
102
RTVSPost2010Prop39
140
1.0
102
RTVSPost2010PropOp39
 70
     1
102
RTVSPost2010Prop40
 90
        0
102
RTVSPost2010PropOp40
 70
     1
102
RTVSPost2010Prop41ColorIndex
 90
       18
102
RTVSPost2010Prop41ColorRGB
 90
        0
102
RTVSPost2010PropOp41
 70
     1
102
RTVSPost2010Prop42
 90
       50
102
RTVSPost2010PropOp42
 70
     1
102
RTVSPost2010Prop43
 90
        3
102
RTVSPost2010PropOp43
 70
     1
102
RTVSPost2010Prop44ColorIndex
 90
        5
102
RTVSPost2010Prop44ColorRGB
 90
      255
102
RTVSPost2010PropOp44
 70
     1
102
RTVSPost2010Prop45
280
     0
102
RTVSPost2010PropOp45
 70
     1
102
RTVSPost2010Prop46
 90
       50
102
RTVSPost2010PropOp46
 70
     1
102
RTVSPost2010Prop47
 90
       50
102
RTVSPost2010PropOp47
 70
     1
102
RTVSPost2010Prop48
 90
       50
102
RTVSPost2010PropOp48
 70
     1
102
RTVSPost2010Prop49
280
     0
102
RTVSPost2010PropOp49
 70
     1
102
RTVSPost2010Prop50
 90
       50
102
RTVSPost2010PropOp50
 70
     1
102
RTVSPost2010Prop51ColorIndex
 90
      256
102
RTVSPost2010Prop51ColorRGB
 90
-16777216
102
RTVSPost2010PropOp51
 70
     0
102
RTVSPost2010Prop52
140
1.0
102
RTVSPost2010PropOp52
 70
     0
102
RTVSPost2010Prop53
 90
        2
102
RTVSPost2010PropOp53
 70
     1
102
RTVSPost2010Prop54
  1
strokes_ogs.tif
102
RTVSPost2010PropOp54
 70
     1
102
RTVSPost2010Prop55
280
     0
102
RTVSPost2010PropOp55
 70
     1
102
RTVSPost2010Prop56
140
1.0
102
RTVSPost2010PropOp56
 70
     1
102
RTVSPost2010Prop57
140
1.0
102
RTVSPost2010PropOp57
 70
     1
  0
XRECORD
  5
3CA
102
{ACAD_REACTORS
330
3C9
102
}
330
3C9
100
AcDbXrecord
280
     1
102
RTVSPropertyOp0
 70
     1
102
RTVSPropertyOp1
 70
     1
102
RTVSPropertyOp2
 70
     1
102
RTVSPropertyOp3
 70
     1
102
RTVSPropertyOp4
 70
     1
102
RTVSPropertyOp5
 70
     1
102
RTVSPropertyOp6
 70
     1
102
RTVSPropertyOp7
 70
     1
102
RTVSPropertyOp8
 70
     1
102
RTVSPropertyOp9
 70
     1
102
RTVSPropertyOp10
 70
     1
102
RTVSPropertyOp11
 70
     1
102
RTVSPropertyOp12
 70
     1
102
RTVSPropertyOp13
 70
     1
102
RTVSPropertyOp14
 70
     1
102
RTVSPropertyOp15
 70
     1
102
RTVSPropertyOp16
 70
     1
102
RTVSPropertyOp17
 70
     1
102
RTVSPropertyOp18
 70
     1
102
RTVSPropertyOp19
 70
     1
102
RTVSPropertyOp20
 70
     1
102
RTVSPropertyOp21
 70
     1
102
RTVSPropertyOp22
 70
     1
102
RTVSPropertyOp23
 70
     1
102
RTVSPropertyOp24
 70
     1
102
RTVSPropertyOp25
 70
     1
102
RTVSPropertyOp26
 70
     1
102
RTVSPropertyOp27
 70
     1
102
RTVSPropertyOp28
 70
     1
102
RTVSPropertyOp29
 70
     1
102
RTVSPropertyOp30
 70
     1
102
RTVSPropertyOp31
 70
     1
102
RTVSPropertyOp32
 70
     1
102
RTVSPropertyOp33
 70
     1
102
RTVSPropertyOp34
 70
     1
102
RTVSPropertyOp35
 70
     1
102
RTVSPropertyOp36
 70
     1
102
RTVSPropertyOp37
 70
     1
102
RTVSPropertyOp38
 70
     1
102
RTVSPropertyOp39
 70
     1
102
RTVSPropertyOp40
 70
     1
102
RTVSPropertyOp41
 70
     1
102
RTVSPropertyOp42
 70
     1
102
RTVSPropertyOp43
 70
     1
102
RTVSPropertyOp44
 70
     1
102
RTVSPropertyOp45
 70
     1
102
RTVSPropertyOp46
 70
     1
102
RTVSPropertyOp47
 70
     1
102
RTVSPropertyOp48
 70
     1
102
RTVSPropertyOp49
 70
     1
102
RTVSPropertyOp50
 70
     1
102
RTVSPropertyOp51
 70
     0
102
RTVSPropertyOp52
 70
     0
102
RTVSPropertyOp53
 70
     1
102
RTVSPropertyOp54
 70
     1
102
RTVSPropertyOp55
 70
     1
102
RTVSPropertyOp56
 70
     1
102
RTVSPropertyOp57
 70
     1
102
RTVSPost2010Prop28
280
     0
102
RTVSPost2010PropOp28
 70
     1
102
RTVSPost2010Prop29
280
     1
102
RTVSPost2010PropOp29
 70
     1
102
RTVSPost2010Prop30
280
     1
102
RTVSPost2010PropOp30
 70
     1
102
RTVSPost2010Prop31
280
     0
102
RTVSPost2010PropOp31
 70
     1
102
RTVSPost2010Prop32
280
     0
102
RTVSPost2010PropOp32
 70
     1
102
RTVSPost2010Prop33
280
     0
102
RTVSPost2010PropOp33
 70
     1
102
RTVSPost2010Prop34
280
     0
102
RTVSPost2010PropOp34
 70
     1
102
RTVSPost2010Prop35
280
     0
102
RTVSPost2010PropOp35
 70
     1
102
RTVSPost2010Prop36
280
     0
102
RTVSPost2010PropOp36
 70
     1
102
RTVSPost2010Prop37
 90
       50
102
RTVSPost2010PropOp37
 70
     1
102
RTVSPost2010Prop38
140
0.0
102
RTVSPost2010PropOp38
 70
     1
102
RTVSPost2010Prop39
140
1.0
102
RTVSPost2010PropOp39
 70
     1
102
RTVSPost2010Prop40
 90
        0
102
RTVSPost2010PropOp40
 70
     1
102
RTVSPost2010Prop41ColorIndex
 90
       18
102
RTVSPost2010Prop41ColorRGB
 90
        0
102
RTVSPost2010PropOp41
 70
     1
102
RTVSPost2010Prop42
 90
       50
102
RTVSPost2010PropOp42
 70
     1
102
RTVSPost2010Prop43
 90
        3
102
RTVSPost2010PropOp43
 70
     1
102
RTVSPost2010Prop44ColorIndex
 90
        5
102
RTVSPost2010Prop44ColorRGB
 90
      255
102
RTVSPost2010PropOp44
 70
     1
102
RTVSPost2010Prop45
280
     0
102
RTVSPost2010PropOp45
 70
     1
102
RTVSPost2010Prop46
 90
       50
102
RTVSPost2010PropOp46
 70
     1
102
RTVSPost2010Prop47
 90
       50
102
RTVSPost2010PropOp47
 70
     1
102
RTVSPost2010Prop48
 90
       50
102
RTVSPost2010PropOp48
 70
     1
102
RTVSPost2010Prop49
280
     0
102
RTVSPost2010PropOp49
 70
     1
102
RTVSPost2010Prop50
 90
       50
102
RTVSPost2010PropOp50
 70
     1
102
RTVSPost2010Prop51ColorIndex
 90
      256
102
RTVSPost2010Prop51ColorRGB
 90
-16777216
102
RTVSPost2010PropOp51
 70
     0
102
RTVSPost2010Prop52
140
1.0
102
RTVSPost2010PropOp52
 70
     0
102
RTVSPost2010Prop53
 90
        2
102
RTVSPost2010PropOp53
 70
     1
102
RTVSPost2010Prop54
  1
strokes_ogs.tif
102
RTVSPost2010PropOp54
 70
     1
102
RTVSPost2010Prop55
280
     0
102
RTVSPost2010PropOp55
 70
     1
102
RTVSPost2010Prop56
140
1.0
102
RTVSPost2010PropOp56
 70
     1
102
RTVSPost2010Prop57
140
1.0
102
RTVSPost2010PropOp57
 70
     1
  0
XRECORD
  5
3D2
102
{ACAD_REACTORS
330
3D1
102
}
330
3D1
100
AcDbXrecord
280
     1
102
RTVSPropertyOp0
 70
     1
102
RTVSPropertyOp1
 70
     1
102
RTVSPropertyOp2
 70
     1
102
RTVSPropertyOp3
 70
     1
102
RTVSPropertyOp4
 70
     1
102
RTVSPropertyOp5
 70
     1
102
RTVSPropertyOp6
 70
     1
102
RTVSPropertyOp7
 70
     1
102
RTVSPropertyOp8
 70
     1
102
RTVSPropertyOp9
 70
     1
102
RTVSPropertyOp10
 70
     1
102
RTVSPropertyOp11
 70
     1
102
RTVSPropertyOp12
 70
     1
102
RTVSPropertyOp13
 70
     1
102
RTVSPropertyOp14
 70
     1
102
RTVSPropertyOp15
 70
     1
102
RTVSPropertyOp16
 70
     1
102
RTVSPropertyOp17
 70
     1
102
RTVSPropertyOp18
 70
     1
102
RTVSPropertyOp19
 70
     1
102
RTVSPropertyOp20
 70
     1
102
RTVSPropertyOp21
 70
     1
102
RTVSPropertyOp22
 70
     1
102
RTVSPropertyOp23
 70
     1
102
RTVSPropertyOp24
 70
     1
102
RTVSPropertyOp25
 70
     1
102
RTVSPropertyOp26
 70
     1
102
RTVSPropertyOp27
 70
     1
102
RTVSPropertyOp28
 70
     1
102
RTVSPropertyOp29
 70
     1
102
RTVSPropertyOp30
 70
     1
102
RTVSPropertyOp31
 70
     1
102
RTVSPropertyOp32
 70
     1
102
RTVSPropertyOp33
 70
     1
102
RTVSPropertyOp34
 70
     1
102
RTVSPropertyOp35
 70
     1
102
RTVSPropertyOp36
 70
     1
102
RTVSPropertyOp37
 70
     1
102
RTVSPropertyOp38
 70
     1
102
RTVSPropertyOp39
 70
     1
102
RTVSPropertyOp40
 70
     1
102
RTVSPropertyOp41
 70
     1
102
RTVSPropertyOp42
 70
     1
102
RTVSPropertyOp43
 70
     1
102
RTVSPropertyOp44
 70
     1
102
RTVSPropertyOp45
 70
     1
102
RTVSPropertyOp46
 70
     1
102
RTVSPropertyOp47
 70
     1
102
RTVSPropertyOp48
 70
     1
102
RTVSPropertyOp49
 70
     1
102
RTVSPropertyOp50
 70
     1
102
RTVSPropertyOp51
 70
     0
102
RTVSPropertyOp52
 70
     0
102
RTVSPropertyOp53
 70
     1
102
RTVSPropertyOp54
 70
     1
102
RTVSPropertyOp55
 70
     1
102
RTVSPropertyOp56
 70
     1
102
RTVSPropertyOp57
 70
     1
102
RTVSPost2010Prop28
280
     0
102
RTVSPost2010PropOp28
 70
     1
102
RTVSPost2010Prop29
280
     1
102
RTVSPost2010PropOp29
 70
     1
102
RTVSPost2010Prop30
280
     1
102
RTVSPost2010PropOp30
 70
     1
102
RTVSPost2010Prop31
280
     0
102
RTVSPost2010PropOp31
 70
     1
102
RTVSPost2010Prop32
280
     0
102
RTVSPost2010PropOp32
 70
     1
102
RTVSPost2010Prop33
280
     0
102
RTVSPost2010PropOp33
 70
     1
102
RTVSPost2010Prop34
280
     0
102
RTVSPost2010PropOp34
 70
     1
102
RTVSPost2010Prop35
280
     0
102
RTVSPost2010PropOp35
 70
     1
102
RTVSPost2010Prop36
280
     0
102
RTVSPost2010PropOp36
 70
     1
102
RTVSPost2010Prop37
 90
       50
102
RTVSPost2010PropOp37
 70
     1
102
RTVSPost2010Prop38
140
0.0
102
RTVSPost2010PropOp38
 70
     1
102
RTVSPost2010Prop39
140
1.0
102
RTVSPost2010PropOp39
 70
     1
102
RTVSPost2010Prop40
 90
        0
102
RTVSPost2010PropOp40
 70
     1
102
RTVSPost2010Prop41ColorIndex
 90
       18
102
RTVSPost2010Prop41ColorRGB
 90
        0
102
RTVSPost2010PropOp41
 70
     1
102
RTVSPost2010Prop42
 90
       50
102
RTVSPost2010PropOp42
 70
     1
102
RTVSPost2010Prop43
 90
        3
102
RTVSPost2010PropOp43
 70
     1
102
RTVSPost2010Prop44ColorIndex
 90
        5
102
RTVSPost2010Prop44ColorRGB
 90
      255
102
RTVSPost2010PropOp44
 70
     1
102
RTVSPost2010Prop45
280
     0
102
RTVSPost2010PropOp45
 70
     1
102
RTVSPost2010Prop46
 90
       50
102
RTVSPost2010PropOp46
 70
     1
102
RTVSPost2010Prop47
 90
       50
102
RTVSPost2010PropOp47
 70
     1
102
RTVSPost2010Prop48
 90
       50
102
RTVSPost2010PropOp48
 70
     1
102
RTVSPost2010Prop49
280
     0
102
RTVSPost2010PropOp49
 70
     1
102
RTVSPost2010Prop50
 90
       50
102
RTVSPost2010PropOp50
 70
     1
102
RTVSPost2010Prop51ColorIndex
 90
      256
102
RTVSPost2010Prop51ColorRGB
 90
-16777216
102
RTVSPost2010PropOp51
 70
     0
102
RTVSPost2010Prop52
140
1.0
102
RTVSPost2010PropOp52
 70
     0
102
RTVSPost2010Prop53
 90
        2
102
RTVSPost2010PropOp53
 70
     1
102
RTVSPost2010Prop54
  1
strokes_ogs.tif
102
RTVSPost2010PropOp54
 70
     1
102
RTVSPost2010Prop55
280
     0
102
RTVSPost2010PropOp55
 70
     1
102
RTVSPost2010Prop56
140
1.0
102
RTVSPost2010PropOp56
 70
     1
102
RTVSPost2010Prop57
140
1.0
102
RTVSPost2010PropOp57
 70
     1
  0
XRECORD
  5
3C6
102
{ACAD_REACTORS
330
3C5
102
}
330
3C5
100
AcDbXrecord
280
     1
102
RTVSPropertyOp0
 70
     1
102
RTVSPropertyOp1
 70
     1
102
RTVSPropertyOp2
 70
     1
102
RTVSPropertyOp3
 70
     1
102
RTVSPropertyOp4
 70
     1
102
RTVSPropertyOp5
 70
     1
102
RTVSPropertyOp6
 70
     1
102
RTVSPropertyOp7
 70
     1
102
RTVSPropertyOp8
 70
     1
102
RTVSPropertyOp9
 70
     1
102
RTVSPropertyOp10
 70
     1
102
RTVSPropertyOp11
 70
     1
102
RTVSPropertyOp12
 70
     1
102
RTVSPropertyOp13
 70
     1
102
RTVSPropertyOp14
 70
     1
102
RTVSPropertyOp15
 70
     1
102
RTVSPropertyOp16
 70
     1
102
RTVSPropertyOp17
 70
     1
102
RTVSPropertyOp18
 70
     1
102
RTVSPropertyOp19
 70
     1
102
RTVSPropertyOp20
 70
     1
102
RTVSPropertyOp21
 70
     1
102
RTVSPropertyOp22
 70
     1
102
RTVSPropertyOp23
 70
     1
102
RTVSPropertyOp24
 70
     1
102
RTVSPropertyOp25
 70
     1
102
RTVSPropertyOp26
 70
     1
102
RTVSPropertyOp27
 70
     1
102
RTVSPropertyOp28
 70
     1
102
RTVSPropertyOp29
 70
     1
102
RTVSPropertyOp30
 70
     1
102
RTVSPropertyOp31
 70
     1
102
RTVSPropertyOp32
 70
     1
102
RTVSPropertyOp33
 70
     1
102
RTVSPropertyOp34
 70
     1
102
RTVSPropertyOp35
 70
     1
102
RTVSPropertyOp36
 70
     1
102
RTVSPropertyOp37
 70
     1
102
RTVSPropertyOp38
 70
     1
102
RTVSPropertyOp39
 70
     1
102
RTVSPropertyOp40
 70
     1
102
RTVSPropertyOp41
 70
     1
102
RTVSPropertyOp42
 70
     1
102
RTVSPropertyOp43
 70
     1
102
RTVSPropertyOp44
 70
     1
102
RTVSPropertyOp45
 70
     1
102
RTVSPropertyOp46
 70
     1
102
RTVSPropertyOp47
 70
     1
102
RTVSPropertyOp48
 70
     1
102
RTVSPropertyOp49
 70
     1
102
RTVSPropertyOp50
 70
     1
102
RTVSPropertyOp51
 70
     0
102
RTVSPropertyOp52
 70
     0
102
RTVSPropertyOp53
 70
     1
102
RTVSPropertyOp54
 70
     1
102
RTVSPropertyOp55
 70
     1
102
RTVSPropertyOp56
 70
     1
102
RTVSPropertyOp57
 70
     1
102
RTVSPost2010Prop28
280
     0
102
RTVSPost2010PropOp28
 70
     1
102
RTVSPost2010Prop29
280
     1
102
RTVSPost2010PropOp29
 70
     1
102
RTVSPost2010Prop30
280
     1
102
RTVSPost2010PropOp30
 70
     1
102
RTVSPost2010Prop31
280
     0
102
RTVSPost2010PropOp31
 70
     1
102
RTVSPost2010Prop32
280
     0
102
RTVSPost2010PropOp32
 70
     1
102
RTVSPost2010Prop33
280
     0
102
RTVSPost2010PropOp33
 70
     1
102
RTVSPost2010Prop34
280
     0
102
RTVSPost2010PropOp34
 70
     1
102
RTVSPost2010Prop35
280
     0
102
RTVSPost2010PropOp35
 70
     1
102
RTVSPost2010Prop36
280
     0
102
RTVSPost2010PropOp36
 70
     1
102
RTVSPost2010Prop37
 90
       50
102
RTVSPost2010PropOp37
 70
     1
102
RTVSPost2010Prop38
140
0.0
102
RTVSPost2010PropOp38
 70
     1
102
RTVSPost2010Prop39
140
1.0
102
RTVSPost2010PropOp39
 70
     1
102
RTVSPost2010Prop40
 90
        0
102
RTVSPost2010PropOp40
 70
     1
102
RTVSPost2010Prop41ColorIndex
 90
       18
102
RTVSPost2010Prop41ColorRGB
 90
        0
102
RTVSPost2010PropOp41
 70
     1
102
RTVSPost2010Prop42
 90
       50
102
RTVSPost2010PropOp42
 70
     1
102
RTVSPost2010Prop43
 90
        3
102
RTVSPost2010PropOp43
 70
     1
102
RTVSPost2010Prop44ColorIndex
 90
        5
102
RTVSPost2010Prop44ColorRGB
 90
      255
102
RTVSPost2010PropOp44
 70
     1
102
RTVSPost2010Prop45
280
     0
102
RTVSPost2010PropOp45
 70
     1
102
RTVSPost2010Prop46
 90
       50
102
RTVSPost2010PropOp46
 70
     1
102
RTVSPost2010Prop47
 90
       50
102
RTVSPost2010PropOp47
 70
     1
102
RTVSPost2010Prop48
 90
       50
102
RTVSPost2010PropOp48
 70
     1
102
RTVSPost2010Prop49
280
     0
102
RTVSPost2010PropOp49
 70
     1
102
RTVSPost2010Prop50
 90
       50
102
RTVSPost2010PropOp50
 70
     1
102
RTVSPost2010Prop51ColorIndex
 90
      256
102
RTVSPost2010Prop51ColorRGB
 90
-16777216
102
RTVSPost2010PropOp51
 70
     0
102
RTVSPost2010Prop52
140
1.0
102
RTVSPost2010PropOp52
 70
     0
102
RTVSPost2010Prop53
 90
        2
102
RTVSPost2010PropOp53
 70
     1
102
RTVSPost2010Prop54
  1
strokes_ogs.tif
102
RTVSPost2010PropOp54
 70
     1
102
RTVSPost2010Prop55
280
     0
102
RTVSPost2010PropOp55
 70
     1
102
RTVSPost2010Prop56
140
1.0
102
RTVSPost2010PropOp56
 70
     1
102
RTVSPost2010Prop57
140
1.0
102
RTVSPost2010PropOp57
 70
     1
  0
XRECORD
  5
3C8
102
{ACAD_REACTORS
330
3C7
102
}
330
3C7
100
AcDbXrecord
280
     1
102
RTVSPropertyOp0
 70
     1
102
RTVSPropertyOp1
 70
     1
102
RTVSPropertyOp2
 70
     1
102
RTVSPropertyOp3
 70
     1
102
RTVSPropertyOp4
 70
     1
102
RTVSPropertyOp5
 70
     1
102
RTVSPropertyOp6
 70
     1
102
RTVSPropertyOp7
 70
     1
102
RTVSPropertyOp8
 70
     1
102
RTVSPropertyOp9
 70
     1
102
RTVSPropertyOp10
 70
     1
102
RTVSPropertyOp11
 70
     1
102
RTVSPropertyOp12
 70
     1
102
RTVSPropertyOp13
 70
     1
102
RTVSPropertyOp14
 70
     1
102
RTVSPropertyOp15
 70
     1
102
RTVSPropertyOp16
 70
     1
102
RTVSPropertyOp17
 70
     1
102
RTVSPropertyOp18
 70
     1
102
RTVSPropertyOp19
 70
     1
102
RTVSPropertyOp20
 70
     1
102
RTVSPropertyOp21
 70
     1
102
RTVSPropertyOp22
 70
     1
102
RTVSPropertyOp23
 70
     1
102
RTVSPropertyOp24
 70
     1
102
RTVSPropertyOp25
 70
     1
102
RTVSPropertyOp26
 70
     1
102
RTVSPropertyOp27
 70
     1
102
RTVSPropertyOp28
 70
     1
102
RTVSPropertyOp29
 70
     1
102
RTVSPropertyOp30
 70
     1
102
RTVSPropertyOp31
 70
     1
102
RTVSPropertyOp32
 70
     1
102
RTVSPropertyOp33
 70
     1
102
RTVSPropertyOp34
 70
     1
102
RTVSPropertyOp35
 70
     1
102
RTVSPropertyOp36
 70
     1
102
RTVSPropertyOp37
 70
     1
102
RTVSPropertyOp38
 70
     1
102
RTVSPropertyOp39
 70
     1
102
RTVSPropertyOp40
 70
     1
102
RTVSPropertyOp41
 70
     1
102
RTVSPropertyOp42
 70
     1
102
RTVSPropertyOp43
 70
     1
102
RTVSPropertyOp44
 70
     1
102
RTVSPropertyOp45
 70
     1
102
RTVSPropertyOp46
 70
     1
102
RTVSPropertyOp47
 70
     1
102
RTVSPropertyOp48
 70
     1
102
RTVSPropertyOp49
 70
     1
102
RTVSPropertyOp50
 70
     1
102
RTVSPropertyOp51
 70
     0
102
RTVSPropertyOp52
 70
     0
102
RTVSPropertyOp53
 70
     1
102
RTVSPropertyOp54
 70
     1
102
RTVSPropertyOp55
 70
     1
102
RTVSPropertyOp56
 70
     1
102
RTVSPropertyOp57
 70
     1
102
RTVSPost2010Prop28
280
     0
102
RTVSPost2010PropOp28
 70
     1
102
RTVSPost2010Prop29
280
     1
102
RTVSPost2010PropOp29
 70
     1
102
RTVSPost2010Prop30
280
     1
102
RTVSPost2010PropOp30
 70
     1
102
RTVSPost2010Prop31
280
     0
102
RTVSPost2010PropOp31
 70
     1
102
RTVSPost2010Prop32
280
     0
102
RTVSPost2010PropOp32
 70
     1
102
RTVSPost2010Prop33
280
     0
102
RTVSPost2010PropOp33
 70
     1
102
RTVSPost2010Prop34
280
     0
102
RTVSPost2010PropOp34
 70
     1
102
RTVSPost2010Prop35
280
     0
102
RTVSPost2010PropOp35
 70
     1
102
RTVSPost2010Prop36
280
     0
102
RTVSPost2010PropOp36
 70
     1
102
RTVSPost2010Prop37
 90
       50
102
RTVSPost2010PropOp37
 70
     1
102
RTVSPost2010Prop38
140
0.0
102
RTVSPost2010PropOp38
 70
     1
102
RTVSPost2010Prop39
140
1.0
102
RTVSPost2010PropOp39
 70
     1
102
RTVSPost2010Prop40
 90
        0
102
RTVSPost2010PropOp40
 70
     1
102
RTVSPost2010Prop41ColorIndex
 90
       18
102
RTVSPost2010Prop41ColorRGB
 90
        0
102
RTVSPost2010PropOp41
 70
     1
102
RTVSPost2010Prop42
 90
       50
102
RTVSPost2010PropOp42
 70
     1
102
RTVSPost2010Prop43
 90
        3
102
RTVSPost2010PropOp43
 70
     1
102
RTVSPost2010Prop44ColorIndex
 90
        5
102
RTVSPost2010Prop44ColorRGB
 90
      255
102
RTVSPost2010PropOp44
 70
     1
102
RTVSPost2010Prop45
280
     0
102
RTVSPost2010PropOp45
 70
     1
102
RTVSPost2010Prop46
 90
       50
102
RTVSPost2010PropOp46
 70
     1
102
RTVSPost2010Prop47
 90
       50
102
RTVSPost2010PropOp47
 70
     1
102
RTVSPost2010Prop48
 90
       50
102
RTVSPost2010PropOp48
 70
     1
102
RTVSPost2010Prop49
280
     0
102
RTVSPost2010PropOp49
 70
     1
102
RTVSPost2010Prop50
 90
       50
102
RTVSPost2010PropOp50
 70
     1
102
RTVSPost2010Prop51ColorIndex
 90
      256
102
RTVSPost2010Prop51ColorRGB
 90
-16777216
102
RTVSPost2010PropOp51
 70
     0
102
RTVSPost2010Prop52
140
1.0
102
RTVSPost2010PropOp52
 70
     0
102
RTVSPost2010Prop53
 90
        2
102
RTVSPost2010PropOp53
 70
     1
102
RTVSPost2010Prop54
  1
strokes_ogs.tif
102
RTVSPost2010PropOp54
 70
     1
102
RTVSPost2010Prop55
280
     0
102
RTVSPost2010PropOp55
 70
     1
102
RTVSPost2010Prop56
140
1.0
102
RTVSPost2010PropOp56
 70
     1
102
RTVSPost2010Prop57
140
1.0
102
RTVSPost2010PropOp57
 70
     1
  0
XRECORD
  5
3D8
102
{ACAD_REACTORS
330
3D7
102
}
330
3D7
100
AcDbXrecord
280
     1
102
RTVSPropertyOp0
 70
     0
102
RTVSPropertyOp1
 70
     0
102
RTVSPropertyOp2
 70
     0
102
RTVSPropertyOp3
 70
     0
102
RTVSPropertyOp4
 70
     0
102
RTVSPropertyOp5
 70
     0
102
RTVSPropertyOp6
 70
     0
102
RTVSPropertyOp7
 70
     0
102
RTVSPropertyOp8
 70
     0
102
RTVSPropertyOp9
 70
     0
102
RTVSPropertyOp10
 70
     0
102
RTVSPropertyOp11
 70
     0
102
RTVSPropertyOp12
 70
     0
102
RTVSPropertyOp13
 70
     0
102
RTVSPropertyOp14
 70
     2
102
RTVSPropertyOp15
 70
     0
102
RTVSPropertyOp16
 70
     0
102
RTVSPropertyOp17
 70
     0
102
RTVSPropertyOp18
 70
     0
102
RTVSPropertyOp19
 70
     0
102
RTVSPropertyOp20
 70
     0
102
RTVSPropertyOp21
 70
     0
102
RTVSPropertyOp22
 70
     0
102
RTVSPropertyOp23
 70
     0
102
RTVSPropertyOp24
 70
     0
102
RTVSPropertyOp25
 70
     0
102
RTVSPropertyOp26
 70
     0
102
RTVSPropertyOp27
 70
     0
102
RTVSPropertyOp28
 70
     0
102
RTVSPropertyOp29
 70
     0
102
RTVSPropertyOp30
 70
     0
102
RTVSPropertyOp31
 70
     0
102
RTVSPropertyOp32
 70
     0
102
RTVSPropertyOp33
 70
     0
102
RTVSPropertyOp34
 70
     0
102
RTVSPropertyOp35
 70
     0
102
RTVSPropertyOp36
 70
     0
102
RTVSPropertyOp37
 70
     0
102
RTVSPropertyOp38
 70
     0
102
RTVSPropertyOp39
 70
     0
102
RTVSPropertyOp40
 70
     0
102
RTVSPropertyOp41
 70
     0
102
RTVSPropertyOp42
 70
     0
102
RTVSPropertyOp43
 70
     0
102
RTVSPropertyOp44
 70
     0
102
RTVSPropertyOp45
 70
     0
102
RTVSPropertyOp46
 70
     0
102
RTVSPropertyOp47
 70
     0
102
RTVSPropertyOp48
 70
     0
102
RTVSPropertyOp49
 70
     0
102
RTVSPropertyOp50
 70
     0
102
RTVSPropertyOp51
 70
     0
102
RTVSPropertyOp52
 70
     0
102
RTVSPropertyOp53
 70
     0
102
RTVSPropertyOp54
 70
     0
102
RTVSPropertyOp55
 70
     0
102
RTVSPropertyOp56
 70
     0
102
RTVSPropertyOp57
 70
     0
102
RTVSPost2010Prop28
280
     0
102
RTVSPost2010PropOp28
 70
     0
102
RTVSPost2010Prop29
280
     1
102
RTVSPost2010PropOp29
 70
     0
102
RTVSPost2010Prop30
280
     1
102
RTVSPost2010PropOp30
 70
     0
102
RTVSPost2010Prop31
280
     0
102
RTVSPost2010PropOp31
 70
     0
102
RTVSPost2010Prop32
280
     0
102
RTVSPost2010PropOp32
 70
     0
102
RTVSPost2010Prop33
280
     0
102
RTVSPost2010PropOp33
 70
     0
102
RTVSPost2010Prop34
280
     0
102
RTVSPost2010PropOp34
 70
     0
102
RTVSPost2010Prop35
280
     0
102
RTVSPost2010PropOp35
 70
     0
102
RTVSPost2010Prop36
280
     0
102
RTVSPost2010PropOp36
 70
     0
102
RTVSPost2010Prop37
 90
       50
102
RTVSPost2010PropOp37
 70
     0
102
RTVSPost2010Prop38
140
0.0
102
RTVSPost2010PropOp38
 70
     0
102
RTVSPost2010Prop39
140
1.0
102
RTVSPost2010PropOp39
 70
     0
102
RTVSPost2010Prop40
 90
        0
102
RTVSPost2010PropOp40
 70
     0
102
RTVSPost2010Prop41ColorIndex
 90
       18
102
RTVSPost2010Prop41ColorRGB
 90
        0
102
RTVSPost2010PropOp41
 70
     0
102
RTVSPost2010Prop42
 90
       50
102
RTVSPost2010PropOp42
 70
     0
102
RTVSPost2010Prop43
 90
        3
102
RTVSPost2010PropOp43
 70
     0
102
RTVSPost2010Prop44ColorIndex
 90
        5
102
RTVSPost2010Prop44ColorRGB
 90
      255
102
RTVSPost2010PropOp44
 70
     0
102
RTVSPost2010Prop45
280
     0
102
RTVSPost2010PropOp45
 70
     0
102
RTVSPost2010Prop46
 90
       50
102
RTVSPost2010PropOp46
 70
     0
102
RTVSPost2010Prop47
 90
       50
102
RTVSPost2010PropOp47
 70
     0
102
RTVSPost2010Prop48
 90
       50
102
RTVSPost2010PropOp48
 70
     0
102
RTVSPost2010Prop49
280
     0
102
RTVSPost2010PropOp49
 70
     0
102
RTVSPost2010Prop50
 90
       50
102
RTVSPost2010PropOp50
 70
     0
102
RTVSPost2010Prop51ColorIndex
 90
      256
102
RTVSPost2010Prop51ColorRGB
 90
-16777216
102
RTVSPost2010PropOp51
 70
     0
102
RTVSPost2010Prop52
140
1.0
102
RTVSPost2010PropOp52
 70
     0
102
RTVSPost2010Prop53
 90
        2
102
RTVSPost2010PropOp53
 70
     0
102
RTVSPost2010Prop54
  1
strokes_ogs.tif
102
RTVSPost2010PropOp54
 70
     0
102
RTVSPost2010Prop55
280
     0
102
RTVSPost2010PropOp55
 70
     0
102
RTVSPost2010Prop56
140
1.0
102
RTVSPost2010PropOp56
 70
     0
102
RTVSPost2010Prop57
140
1.0
102
RTVSPost2010PropOp57
 70
     0
  0
XRECORD
  5
3D0
102
{ACAD_REACTORS
330
3CF
102
}
330
3CF
100
AcDbXrecord
280
     1
102
RTVSPropertyOp0
 70
     1
102
RTVSPropertyOp1
 70
     1
102
RTVSPropertyOp2
 70
     1
102
RTVSPropertyOp3
 70
     1
102
RTVSPropertyOp4
 70
     1
102
RTVSPropertyOp5
 70
     1
102
RTVSPropertyOp6
 70
     1
102
RTVSPropertyOp7
 70
     1
102
RTVSPropertyOp8
 70
     1
102
RTVSPropertyOp9
 70
     1
102
RTVSPropertyOp10
 70
     1
102
RTVSPropertyOp11
 70
     1
102
RTVSPropertyOp12
 70
     1
102
RTVSPropertyOp13
 70
     1
102
RTVSPropertyOp14
 70
     1
102
RTVSPropertyOp15
 70
     1
102
RTVSPropertyOp16
 70
     1
102
RTVSPropertyOp17
 70
     1
102
RTVSPropertyOp18
 70
     1
102
RTVSPropertyOp19
 70
     1
102
RTVSPropertyOp20
 70
     1
102
RTVSPropertyOp21
 70
     1
102
RTVSPropertyOp22
 70
     1
102
RTVSPropertyOp23
 70
     1
102
RTVSPropertyOp24
 70
     1
102
RTVSPropertyOp25
 70
     1
102
RTVSPropertyOp26
 70
     1
102
RTVSPropertyOp27
 70
     1
102
RTVSPropertyOp28
 70
     1
102
RTVSPropertyOp29
 70
     1
102
RTVSPropertyOp30
 70
     1
102
RTVSPropertyOp31
 70
     1
102
RTVSPropertyOp32
 70
     1
102
RTVSPropertyOp33
 70
     1
102
RTVSPropertyOp34
 70
     1
102
RTVSPropertyOp35
 70
     1
102
RTVSPropertyOp36
 70
     1
102
RTVSPropertyOp37
 70
     1
102
RTVSPropertyOp38
 70
     1
102
RTVSPropertyOp39
 70
     1
102
RTVSPropertyOp40
 70
     1
102
RTVSPropertyOp41
 70
     1
102
RTVSPropertyOp42
 70
     1
102
RTVSPropertyOp43
 70
     1
102
RTVSPropertyOp44
 70
     1
102
RTVSPropertyOp45
 70
     1
102
RTVSPropertyOp46
 70
     1
102
RTVSPropertyOp47
 70
     1
102
RTVSPropertyOp48
 70
     1
102
RTVSPropertyOp49
 70
     1
102
RTVSPropertyOp50
 70
     1
102
RTVSPropertyOp51
 70
     0
102
RTVSPropertyOp52
 70
     0
102
RTVSPropertyOp53
 70
     1
102
RTVSPropertyOp54
 70
     1
102
RTVSPropertyOp55
 70
     1
102
RTVSPropertyOp56
 70
     1
102
RTVSPropertyOp57
 70
     1
102
RTVSPost2010Prop28
280
     0
102
RTVSPost2010PropOp28
 70
     1
102
RTVSPost2010Prop29
280
     1
102
RTVSPost2010PropOp29
 70
     1
102
RTVSPost2010Prop30
280
     1
102
RTVSPost2010PropOp30
 70
     1
102
RTVSPost2010Prop31
280
     0
102
RTVSPost2010PropOp31
 70
     1
102
RTVSPost2010Prop32
280
     0
102
RTVSPost2010PropOp32
 70
     1
102
RTVSPost2010Prop33
280
     0
102
RTVSPost2010PropOp33
 70
     1
102
RTVSPost2010Prop34
280
     0
102
RTVSPost2010PropOp34
 70
     1
102
RTVSPost2010Prop35
280
     0
102
RTVSPost2010PropOp35
 70
     1
102
RTVSPost2010Prop36
280
     0
102
RTVSPost2010PropOp36
 70
     1
102
RTVSPost2010Prop37
 90
       50
102
RTVSPost2010PropOp37
 70
     1
102
RTVSPost2010Prop38
140
0.0
102
RTVSPost2010PropOp38
 70
     1
102
RTVSPost2010Prop39
140
1.0
102
RTVSPost2010PropOp39
 70
     1
102
RTVSPost2010Prop40
 90
        0
102
RTVSPost2010PropOp40
 70
     1
102
RTVSPost2010Prop41ColorIndex
 90
       18
102
RTVSPost2010Prop41ColorRGB
 90
        0
102
RTVSPost2010PropOp41
 70
     1
102
RTVSPost2010Prop42
 90
       50
102
RTVSPost2010PropOp42
 70
     1
102
RTVSPost2010Prop43
 90
        3
102
RTVSPost2010PropOp43
 70
     1
102
RTVSPost2010Prop44ColorIndex
 90
        5
102
RTVSPost2010Prop44ColorRGB
 90
      255
102
RTVSPost2010PropOp44
 70
     1
102
RTVSPost2010Prop45
280
     0
102
RTVSPost2010PropOp45
 70
     1
102
RTVSPost2010Prop46
 90
       50
102
RTVSPost2010PropOp46
 70
     1
102
RTVSPost2010Prop47
 90
       50
102
RTVSPost2010PropOp47
 70
     1
102
RTVSPost2010Prop48
 90
       50
102
RTVSPost2010PropOp48
 70
     1
102
RTVSPost2010Prop49
280
     0
102
RTVSPost2010PropOp49
 70
     1
102
RTVSPost2010Prop50
 90
       50
102
RTVSPost2010PropOp50
 70
     1
102
RTVSPost2010Prop51ColorIndex
 90
      256
102
RTVSPost2010Prop51ColorRGB
 90
-16777216
102
RTVSPost2010PropOp51
 70
     0
102
RTVSPost2010Prop52
140
1.0
102
RTVSPost2010PropOp52
 70
     0
102
RTVSPost2010Prop53
 90
        2
102
RTVSPost2010PropOp53
 70
     1
102
RTVSPost2010Prop54
  1
strokes_ogs.tif
102
RTVSPost2010PropOp54
 70
     1
102
RTVSPost2010Prop55
280
     0
102
RTVSPost2010PropOp55
 70
     1
102
RTVSPost2010Prop56
140
1.0
102
RTVSPost2010PropOp56
 70
     1
102
RTVSPost2010Prop57
140
1.0
102
RTVSPost2010PropOp57
 70
     1
  0
XRECORD
  5
3B4
102
{ACAD_REACTORS
330
3B3
102
}
330
3B3
100
AcDbXrecord
280
     1
102
RTVSPropertyOp0
 70
     1
102
RTVSPropertyOp1
 70
     1
102
RTVSPropertyOp2
 70
     1
102
RTVSPropertyOp3
 70
     1
102
RTVSPropertyOp4
 70
     1
102
RTVSPropertyOp5
 70
     1
102
RTVSPropertyOp6
 70
     1
102
RTVSPropertyOp7
 70
     1
102
RTVSPropertyOp8
 70
     1
102
RTVSPropertyOp9
 70
     1
102
RTVSPropertyOp10
 70
     1
102
RTVSPropertyOp11
 70
     1
102
RTVSPropertyOp12
 70
     1
102
RTVSPropertyOp13
 70
     1
102
RTVSPropertyOp14
 70
     1
102
RTVSPropertyOp15
 70
     1
102
RTVSPropertyOp16
 70
     1
102
RTVSPropertyOp17
 70
     1
102
RTVSPropertyOp18
 70
     1
102
RTVSPropertyOp19
 70
     1
102
RTVSPropertyOp20
 70
     1
102
RTVSPropertyOp21
 70
     1
102
RTVSPropertyOp22
 70
     1
102
RTVSPropertyOp23
 70
     1
102
RTVSPropertyOp24
 70
     1
102
RTVSPropertyOp25
 70
     1
102
RTVSPropertyOp26
 70
     1
102
RTVSPropertyOp27
 70
     1
102
RTVSPropertyOp28
 70
     1
102
RTVSPropertyOp29
 70
     1
102
RTVSPropertyOp30
 70
     1
102
RTVSPropertyOp31
 70
     1
102
RTVSPropertyOp32
 70
     1
102
RTVSPropertyOp33
 70
     1
102
RTVSPropertyOp34
 70
     1
102
RTVSPropertyOp35
 70
     1
102
RTVSPropertyOp36
 70
     1
102
RTVSPropertyOp37
 70
     1
102
RTVSPropertyOp38
 70
     1
102
RTVSPropertyOp39
 70
     1
102
RTVSPropertyOp40
 70
     1
102
RTVSPropertyOp41
 70
     1
102
RTVSPropertyOp42
 70
     1
102
RTVSPropertyOp43
 70
     1
102
RTVSPropertyOp44
 70
     1
102
RTVSPropertyOp45
 70
     1
102
RTVSPropertyOp46
 70
     1
102
RTVSPropertyOp47
 70
     1
102
RTVSPropertyOp48
 70
     1
102
RTVSPropertyOp49
 70
     1
102
RTVSPropertyOp50
 70
     1
102
RTVSPropertyOp51
 70
     0
102
RTVSPropertyOp52
 70
     0
102
RTVSPropertyOp53
 70
     1
102
RTVSPropertyOp54
 70
     1
102
RTVSPropertyOp55
 70
     1
102
RTVSPropertyOp56
 70
     1
102
RTVSPropertyOp57
 70
     1
102
RTVSPost2010Prop28
280
     0
102
RTVSPost2010PropOp28
 70
     1
102
RTVSPost2010Prop29
280
     1
102
RTVSPost2010PropOp29
 70
     1
102
RTVSPost2010Prop30
280
     1
102
RTVSPost2010PropOp30
 70
     1
102
RTVSPost2010Prop31
280
     0
102
RTVSPost2010PropOp31
 70
     1
102
RTVSPost2010Prop32
280
     0
102
RTVSPost2010PropOp32
 70
     1
102
RTVSPost2010Prop33
280
     0
102
RTVSPost2010PropOp33
 70
     1
102
RTVSPost2010Prop34
280
     0
102
RTVSPost2010PropOp34
 70
     1
102
RTVSPost2010Prop35
280
     0
102
RTVSPost2010PropOp35
 70
     1
102
RTVSPost2010Prop36
280
     0
102
RTVSPost2010PropOp36
 70
     1
102
RTVSPost2010Prop37
 90
       50
102
RTVSPost2010PropOp37
 70
     1
102
RTVSPost2010Prop38
140
0.0
102
RTVSPost2010PropOp38
 70
     1
102
RTVSPost2010Prop39
140
1.0
102
RTVSPost2010PropOp39
 70
     1
102
RTVSPost2010Prop40
 90
        0
102
RTVSPost2010PropOp40
 70
     1
102
RTVSPost2010Prop41ColorIndex
 90
       18
102
RTVSPost2010Prop41ColorRGB
 90
        0
102
RTVSPost2010PropOp41
 70
     1
102
RTVSPost2010Prop42
 90
       50
102
RTVSPost2010PropOp42
 70
     1
102
RTVSPost2010Prop43
 90
        3
102
RTVSPost2010PropOp43
 70
     1
102
RTVSPost2010Prop44ColorIndex
 90
        5
102
RTVSPost2010Prop44ColorRGB
 90
      255
102
RTVSPost2010PropOp44
 70
     1
102
RTVSPost2010Prop45
280
     0
102
RTVSPost2010PropOp45
 70
     1
102
RTVSPost2010Prop46
 90
       50
102
RTVSPost2010PropOp46
 70
     1
102
RTVSPost2010Prop47
 90
       50
102
RTVSPost2010PropOp47
 70
     1
102
RTVSPost2010Prop48
 90
       50
102
RTVSPost2010PropOp48
 70
     1
102
RTVSPost2010Prop49
280
     0
102
RTVSPost2010PropOp49
 70
     1
102
RTVSPost2010Prop50
 90
       50
102
RTVSPost2010PropOp50
 70
     1
102
RTVSPost2010Prop51ColorIndex
 90
      256
102
RTVSPost2010Prop51ColorRGB
 90
-16777216
102
RTVSPost2010PropOp51
 70
     0
102
RTVSPost2010Prop52
140
1.0
102
RTVSPost2010PropOp52
 70
     0
102
RTVSPost2010Prop53
 90
        2
102
RTVSPost2010PropOp53
 70
     1
102
RTVSPost2010Prop54
  1
strokes_ogs.tif
102
RTVSPost2010PropOp54
 70
     1
102
RTVSPost2010Prop55
280
     0
102
RTVSPost2010PropOp55
 70
     1
102
RTVSPost2010Prop56
140
1.0
102
RTVSPost2010PropOp56
 70
     1
102
RTVSPost2010Prop57
140
1.0
102
RTVSPost2010PropOp57
 70
     1
  0
XRECORD
  5
3B6
102
{ACAD_REACTORS
330
3B5
102
}
330
3B5
100
AcDbXrecord
280
     1
102
RTVSPropertyOp0
 70
     1
102
RTVSPropertyOp1
 70
     1
102
RTVSPropertyOp2
 70
     1
102
RTVSPropertyOp3
 70
     1
102
RTVSPropertyOp4
 70
     1
102
RTVSPropertyOp5
 70
     1
102
RTVSPropertyOp6
 70
     1
102
RTVSPropertyOp7
 70
     1
102
RTVSPropertyOp8
 70
     1
102
RTVSPropertyOp9
 70
     1
102
RTVSPropertyOp10
 70
     1
102
RTVSPropertyOp11
 70
     1
102
RTVSPropertyOp12
 70
     1
102
RTVSPropertyOp13
 70
     1
102
RTVSPropertyOp14
 70
     1
102
RTVSPropertyOp15
 70
     1
102
RTVSPropertyOp16
 70
     1
102
RTVSPropertyOp17
 70
     1
102
RTVSPropertyOp18
 70
     1
102
RTVSPropertyOp19
 70
     1
102
RTVSPropertyOp20
 70
     1
102
RTVSPropertyOp21
 70
     1
102
RTVSPropertyOp22
 70
     1
102
RTVSPropertyOp23
 70
     1
102
RTVSPropertyOp24
 70
     1
102
RTVSPropertyOp25
 70
     1
102
RTVSPropertyOp26
 70
     1
102
RTVSPropertyOp27
 70
     1
102
RTVSPropertyOp28
 70
     1
102
RTVSPropertyOp29
 70
     1
102
RTVSPropertyOp30
 70
     1
102
RTVSPropertyOp31
 70
     1
102
RTVSPropertyOp32
 70
     1
102
RTVSPropertyOp33
 70
     1
102
RTVSPropertyOp34
 70
     1
102
RTVSPropertyOp35
 70
     1
102
RTVSPropertyOp36
 70
     1
102
RTVSPropertyOp37
 70
     1
102
RTVSPropertyOp38
 70
     1
102
RTVSPropertyOp39
 70
     1
102
RTVSPropertyOp40
 70
     1
102
RTVSPropertyOp41
 70
     1
102
RTVSPropertyOp42
 70
     1
102
RTVSPropertyOp43
 70
     1
102
RTVSPropertyOp44
 70
     1
102
RTVSPropertyOp45
 70
     1
102
RTVSPropertyOp46
 70
     1
102
RTVSPropertyOp47
 70
     1
102
RTVSPropertyOp48
 70
     1
102
RTVSPropertyOp49
 70
     1
102
RTVSPropertyOp50
 70
     1
102
RTVSPropertyOp51
 70
     0
102
RTVSPropertyOp52
 70
     0
102
RTVSPropertyOp53
 70
     1
102
RTVSPropertyOp54
 70
     1
102
RTVSPropertyOp55
 70
     1
102
RTVSPropertyOp56
 70
     1
102
RTVSPropertyOp57
 70
     1
102
RTVSPost2010Prop28
280
     0
102
RTVSPost2010PropOp28
 70
     1
102
RTVSPost2010Prop29
280
     1
102
RTVSPost2010PropOp29
 70
     1
102
RTVSPost2010Prop30
280
     1
102
RTVSPost2010PropOp30
 70
     1
102
RTVSPost2010Prop31
280
     0
102
RTVSPost2010PropOp31
 70
     1
102
RTVSPost2010Prop32
280
     0
102
RTVSPost2010PropOp32
 70
     1
102
RTVSPost2010Prop33
280
     0
102
RTVSPost2010PropOp33
 70
     1
102
RTVSPost2010Prop34
280
     0
102
RTVSPost2010PropOp34
 70
     1
102
RTVSPost2010Prop35
280
     0
102
RTVSPost2010PropOp35
 70
     1
102
RTVSPost2010Prop36
280
     0
102
RTVSPost2010PropOp36
 70
     1
102
RTVSPost2010Prop37
 90
       50
102
RTVSPost2010PropOp37
 70
     1
102
RTVSPost2010Prop38
140
0.0
102
RTVSPost2010PropOp38
 70
     1
102
RTVSPost2010Prop39
140
1.0
102
RTVSPost2010PropOp39
 70
     1
102
RTVSPost2010Prop40
 90
        0
102
RTVSPost2010PropOp40
 70
     1
102
RTVSPost2010Prop41ColorIndex
 90
       18
102
RTVSPost2010Prop41ColorRGB
 90
        0
102
RTVSPost2010PropOp41
 70
     1
102
RTVSPost2010Prop42
 90
       50
102
RTVSPost2010PropOp42
 70
     1
102
RTVSPost2010Prop43
 90
        3
102
RTVSPost2010PropOp43
 70
     1
102
RTVSPost2010Prop44ColorIndex
 90
        5
102
RTVSPost2010Prop44ColorRGB
 90
      255
102
RTVSPost2010PropOp44
 70
     1
102
RTVSPost2010Prop45
280
     0
102
RTVSPost2010PropOp45
 70
     1
102
RTVSPost2010Prop46
 90
       50
102
RTVSPost2010PropOp46
 70
     1
102
RTVSPost2010Prop47
 90
       50
102
RTVSPost2010PropOp47
 70
     1
102
RTVSPost2010Prop48
 90
       50
102
RTVSPost2010PropOp48
 70
     1
102
RTVSPost2010Prop49
280
     0
102
RTVSPost2010PropOp49
 70
     1
102
RTVSPost2010Prop50
 90
       50
102
RTVSPost2010PropOp50
 70
     1
102
RTVSPost2010Prop51ColorIndex
 90
      256
102
RTVSPost2010Prop51ColorRGB
 90
-16777216
102
RTVSPost2010PropOp51
 70
     0
102
RTVSPost2010Prop52
140
1.0
102
RTVSPost2010PropOp52
 70
     0
102
RTVSPost2010Prop53
 90
        2
102
RTVSPost2010PropOp53
 70
     1
102
RTVSPost2010Prop54
  1
strokes_ogs.tif
102
RTVSPost2010PropOp54
 70
     1
102
RTVSPost2010Prop55
280
     0
102
RTVSPost2010PropOp55
 70
     1
102
RTVSPost2010Prop56
140
1.0
102
RTVSPost2010PropOp56
 70
     1
102
RTVSPost2010Prop57
140
1.0
102
RTVSPost2010PropOp57
 70
     1
  0
XRECORD
  5
3B8
102
{ACAD_REACTORS
330
3B7
102
}
330
3B7
100
AcDbXrecord
280
     1
102
RTVSPropertyOp0
 70
     1
102
RTVSPropertyOp1
 70
     1
102
RTVSPropertyOp2
 70
     1
102
RTVSPropertyOp3
 70
     1
102
RTVSPropertyOp4
 70
     1
102
RTVSPropertyOp5
 70
     1
102
RTVSPropertyOp6
 70
     1
102
RTVSPropertyOp7
 70
     1
102
RTVSPropertyOp8
 70
     1
102
RTVSPropertyOp9
 70
     1
102
RTVSPropertyOp10
 70
     1
102
RTVSPropertyOp11
 70
     1
102
RTVSPropertyOp12
 70
     1
102
RTVSPropertyOp13
 70
     1
102
RTVSPropertyOp14
 70
     1
102
RTVSPropertyOp15
 70
     1
102
RTVSPropertyOp16
 70
     1
102
RTVSPropertyOp17
 70
     1
102
RTVSPropertyOp18
 70
     1
102
RTVSPropertyOp19
 70
     1
102
RTVSPropertyOp20
 70
     1
102
RTVSPropertyOp21
 70
     1
102
RTVSPropertyOp22
 70
     1
102
RTVSPropertyOp23
 70
     1
102
RTVSPropertyOp24
 70
     1
102
RTVSPropertyOp25
 70
     1
102
RTVSPropertyOp26
 70
     1
102
RTVSPropertyOp27
 70
     1
102
RTVSPropertyOp28
 70
     1
102
RTVSPropertyOp29
 70
     1
102
RTVSPropertyOp30
 70
     1
102
RTVSPropertyOp31
 70
     1
102
RTVSPropertyOp32
 70
     1
102
RTVSPropertyOp33
 70
     1
102
RTVSPropertyOp34
 70
     1
102
RTVSPropertyOp35
 70
     1
102
RTVSPropertyOp36
 70
     1
102
RTVSPropertyOp37
 70
     1
102
RTVSPropertyOp38
 70
     1
102
RTVSPropertyOp39
 70
     1
102
RTVSPropertyOp40
 70
     1
102
RTVSPropertyOp41
 70
     1
102
RTVSPropertyOp42
 70
     1
102
RTVSPropertyOp43
 70
     1
102
RTVSPropertyOp44
 70
     1
102
RTVSPropertyOp45
 70
     1
102
RTVSPropertyOp46
 70
     1
102
RTVSPropertyOp47
 70
     1
102
RTVSPropertyOp48
 70
     1
102
RTVSPropertyOp49
 70
     1
102
RTVSPropertyOp50
 70
     1
102
RTVSPropertyOp51
 70
     0
102
RTVSPropertyOp52
 70
     0
102
RTVSPropertyOp53
 70
     1
102
RTVSPropertyOp54
 70
     1
102
RTVSPropertyOp55
 70
     1
102
RTVSPropertyOp56
 70
     1
102
RTVSPropertyOp57
 70
     1
102
RTVSPost2010Prop28
280
     0
102
RTVSPost2010PropOp28
 70
     1
102
RTVSPost2010Prop29
280
     1
102
RTVSPost2010PropOp29
 70
     1
102
RTVSPost2010Prop30
280
     1
102
RTVSPost2010PropOp30
 70
     1
102
RTVSPost2010Prop31
280
     0
102
RTVSPost2010PropOp31
 70
     1
102
RTVSPost2010Prop32
280
     0
102
RTVSPost2010PropOp32
 70
     1
102
RTVSPost2010Prop33
280
     0
102
RTVSPost2010PropOp33
 70
     1
102
RTVSPost2010Prop34
280
     0
102
RTVSPost2010PropOp34
 70
     1
102
RTVSPost2010Prop35
280
     0
102
RTVSPost2010PropOp35
 70
     1
102
RTVSPost2010Prop36
280
     0
102
RTVSPost2010PropOp36
 70
     1
102
RTVSPost2010Prop37
 90
       50
102
RTVSPost2010PropOp37
 70
     1
102
RTVSPost2010Prop38
140
0.0
102
RTVSPost2010PropOp38
 70
     1
102
RTVSPost2010Prop39
140
1.0
102
RTVSPost2010PropOp39
 70
     1
102
RTVSPost2010Prop40
 90
        0
102
RTVSPost2010PropOp40
 70
     1
102
RTVSPost2010Prop41ColorIndex
 90
       18
102
RTVSPost2010Prop41ColorRGB
 90
        0
102
RTVSPost2010PropOp41
 70
     1
102
RTVSPost2010Prop42
 90
       50
102
RTVSPost2010PropOp42
 70
     1
102
RTVSPost2010Prop43
 90
        3
102
RTVSPost2010PropOp43
 70
     1
102
RTVSPost2010Prop44ColorIndex
 90
        5
102
RTVSPost2010Prop44ColorRGB
 90
      255
102
RTVSPost2010PropOp44
 70
     1
102
RTVSPost2010Prop45
280
     0
102
RTVSPost2010PropOp45
 70
     1
102
RTVSPost2010Prop46
 90
       50
102
RTVSPost2010PropOp46
 70
     1
102
RTVSPost2010Prop47
 90
       50
102
RTVSPost2010PropOp47
 70
     1
102
RTVSPost2010Prop48
 90
       50
102
RTVSPost2010PropOp48
 70
     1
102
RTVSPost2010Prop49
280
     0
102
RTVSPost2010PropOp49
 70
     1
102
RTVSPost2010Prop50
 90
       50
102
RTVSPost2010PropOp50
 70
     1
102
RTVSPost2010Prop51ColorIndex
 90
      256
102
RTVSPost2010Prop51ColorRGB
 90
-16777216
102
RTVSPost2010PropOp51
 70
     0
102
RTVSPost2010Prop52
140
1.0
102
RTVSPost2010PropOp52
 70
     0
102
RTVSPost2010Prop53
 90
        2
102
RTVSPost2010PropOp53
 70
     1
102
RTVSPost2010Prop54
  1
strokes_ogs.tif
102
RTVSPost2010PropOp54
 70
     1
102
RTVSPost2010Prop55
280
     0
102
RTVSPost2010PropOp55
 70
     1
102
RTVSPost2010Prop56
140
1.0
102
RTVSPost2010PropOp56
 70
     1
102
RTVSPost2010Prop57
140
1.0
102
RTVSPost2010PropOp57
 70
     1
  0
XRECORD
  5
3BA
102
{ACAD_REACTORS
330
3B9
102
}
330
3B9
100
AcDbXrecord
280
     1
102
RTVSPropertyOp0
 70
     1
102
RTVSPropertyOp1
 70
     1
102
RTVSPropertyOp2
 70
     1
102
RTVSPropertyOp3
 70
     1
102
RTVSPropertyOp4
 70
     1
102
RTVSPropertyOp5
 70
     1
102
RTVSPropertyOp6
 70
     1
102
RTVSPropertyOp7
 70
     1
102
RTVSPropertyOp8
 70
     1
102
RTVSPropertyOp9
 70
     1
102
RTVSPropertyOp10
 70
     1
102
RTVSPropertyOp11
 70
     1
102
RTVSPropertyOp12
 70
     1
102
RTVSPropertyOp13
 70
     1
102
RTVSPropertyOp14
 70
     1
102
RTVSPropertyOp15
 70
     1
102
RTVSPropertyOp16
 70
     1
102
RTVSPropertyOp17
 70
     1
102
RTVSPropertyOp18
 70
     1
102
RTVSPropertyOp19
 70
     1
102
RTVSPropertyOp20
 70
     1
102
RTVSPropertyOp21
 70
     1
102
RTVSPropertyOp22
 70
     1
102
RTVSPropertyOp23
 70
     1
102
RTVSPropertyOp24
 70
     1
102
RTVSPropertyOp25
 70
     1
102
RTVSPropertyOp26
 70
     1
102
RTVSPropertyOp27
 70
     1
102
RTVSPropertyOp28
 70
     1
102
RTVSPropertyOp29
 70
     1
102
RTVSPropertyOp30
 70
     1
102
RTVSPropertyOp31
 70
     1
102
RTVSPropertyOp32
 70
     1
102
RTVSPropertyOp33
 70
     1
102
RTVSPropertyOp34
 70
     1
102
RTVSPropertyOp35
 70
     1
102
RTVSPropertyOp36
 70
     1
102
RTVSPropertyOp37
 70
     1
102
RTVSPropertyOp38
 70
     1
102
RTVSPropertyOp39
 70
     1
102
RTVSPropertyOp40
 70
     1
102
RTVSPropertyOp41
 70
     1
102
RTVSPropertyOp42
 70
     1
102
RTVSPropertyOp43
 70
     1
102
RTVSPropertyOp44
 70
     1
102
RTVSPropertyOp45
 70
     1
102
RTVSPropertyOp46
 70
     1
102
RTVSPropertyOp47
 70
     1
102
RTVSPropertyOp48
 70
     1
102
RTVSPropertyOp49
 70
     1
102
RTVSPropertyOp50
 70
     1
102
RTVSPropertyOp51
 70
     0
102
RTVSPropertyOp52
 70
     0
102
RTVSPropertyOp53
 70
     1
102
RTVSPropertyOp54
 70
     1
102
RTVSPropertyOp55
 70
     1
102
RTVSPropertyOp56
 70
     1
102
RTVSPropertyOp57
 70
     1
102
RTVSPost2010Prop28
280
     0
102
RTVSPost2010PropOp28
 70
     1
102
RTVSPost2010Prop29
280
     1
102
RTVSPost2010PropOp29
 70
     1
102
RTVSPost2010Prop30
280
     1
102
RTVSPost2010PropOp30
 70
     1
102
RTVSPost2010Prop31
280
     0
102
RTVSPost2010PropOp31
 70
     1
102
RTVSPost2010Prop32
280
     0
102
RTVSPost2010PropOp32
 70
     1
102
RTVSPost2010Prop33
280
     0
102
RTVSPost2010PropOp33
 70
     1
102
RTVSPost2010Prop34
280
     0
102
RTVSPost2010PropOp34
 70
     1
102
RTVSPost2010Prop35
280
     0
102
RTVSPost2010PropOp35
 70
     1
102
RTVSPost2010Prop36
280
     0
102
RTVSPost2010PropOp36
 70
     1
102
RTVSPost2010Prop37
 90
       50
102
RTVSPost2010PropOp37
 70
     1
102
RTVSPost2010Prop38
140
0.0
102
RTVSPost2010PropOp38
 70
     1
102
RTVSPost2010Prop39
140
1.0
102
RTVSPost2010PropOp39
 70
     1
102
RTVSPost2010Prop40
 90
        0
102
RTVSPost2010PropOp40
 70
     1
102
RTVSPost2010Prop41ColorIndex
 90
       18
102
RTVSPost2010Prop41ColorRGB
 90
        0
102
RTVSPost2010PropOp41
 70
     1
102
RTVSPost2010Prop42
 90
       50
102
RTVSPost2010PropOp42
 70
     1
102
RTVSPost2010Prop43
 90
        3
102
RTVSPost2010PropOp43
 70
     1
102
RTVSPost2010Prop44ColorIndex
 90
        5
102
RTVSPost2010Prop44ColorRGB
 90
      255
102
RTVSPost2010PropOp44
 70
     1
102
RTVSPost2010Prop45
280
     0
102
RTVSPost2010PropOp45
 70
     1
102
RTVSPost2010Prop46
 90
       50
102
RTVSPost2010PropOp46
 70
     1
102
RTVSPost2010Prop47
 90
       50
102
RTVSPost2010PropOp47
 70
     1
102
RTVSPost2010Prop48
 90
       50
102
RTVSPost2010PropOp48
 70
     1
102
RTVSPost2010Prop49
280
     0
102
RTVSPost2010PropOp49
 70
     1
102
RTVSPost2010Prop50
 90
       50
102
RTVSPost2010PropOp50
 70
     1
102
RTVSPost2010Prop51ColorIndex
 90
      256
102
RTVSPost2010Prop51ColorRGB
 90
-16777216
102
RTVSPost2010PropOp51
 70
     0
102
RTVSPost2010Prop52
140
1.0
102
RTVSPost2010PropOp52
 70
     0
102
RTVSPost2010Prop53
 90
        2
102
RTVSPost2010PropOp53
 70
     1
102
RTVSPost2010Prop54
  1
strokes_ogs.tif
102
RTVSPost2010PropOp54
 70
     1
102
RTVSPost2010Prop55
280
     0
102
RTVSPost2010PropOp55
 70
     1
102
RTVSPost2010Prop56
140
1.0
102
RTVSPost2010PropOp56
 70
     1
102
RTVSPost2010Prop57
140
1.0
102
RTVSPost2010PropOp57
 70
     1
  0
XRECORD
  5
3C0
102
{ACAD_REACTORS
330
3BF
102
}
330
3BF
100
AcDbXrecord
280
     1
102
RTVSPropertyOp0
 70
     1
102
RTVSPropertyOp1
 70
     1
102
RTVSPropertyOp2
 70
     1
102
RTVSPropertyOp3
 70
     1
102
RTVSPropertyOp4
 70
     1
102
RTVSPropertyOp5
 70
     1
102
RTVSPropertyOp6
 70
     1
102
RTVSPropertyOp7
 70
     1
102
RTVSPropertyOp8
 70
     1
102
RTVSPropertyOp9
 70
     1
102
RTVSPropertyOp10
 70
     1
102
RTVSPropertyOp11
 70
     1
102
RTVSPropertyOp12
 70
     1
102
RTVSPropertyOp13
 70
     1
102
RTVSPropertyOp14
 70
     1
102
RTVSPropertyOp15
 70
     1
102
RTVSPropertyOp16
 70
     1
102
RTVSPropertyOp17
 70
     1
102
RTVSPropertyOp18
 70
     1
102
RTVSPropertyOp19
 70
     1
102
RTVSPropertyOp20
 70
     1
102
RTVSPropertyOp21
 70
     1
102
RTVSPropertyOp22
 70
     1
102
RTVSPropertyOp23
 70
     1
102
RTVSPropertyOp24
 70
     1
102
RTVSPropertyOp25
 70
     1
102
RTVSPropertyOp26
 70
     1
102
RTVSPropertyOp27
 70
     1
102
RTVSPropertyOp28
 70
     1
102
RTVSPropertyOp29
 70
     1
102
RTVSPropertyOp30
 70
     1
102
RTVSPropertyOp31
 70
     1
102
RTVSPropertyOp32
 70
     1
102
RTVSPropertyOp33
 70
     1
102
RTVSPropertyOp34
 70
     1
102
RTVSPropertyOp35
 70
     1
102
RTVSPropertyOp36
 70
     1
102
RTVSPropertyOp37
 70
     1
102
RTVSPropertyOp38
 70
     1
102
RTVSPropertyOp39
 70
     1
102
RTVSPropertyOp40
 70
     1
102
RTVSPropertyOp41
 70
     1
102
RTVSPropertyOp42
 70
     1
102
RTVSPropertyOp43
 70
     1
102
RTVSPropertyOp44
 70
     1
102
RTVSPropertyOp45
 70
     1
102
RTVSPropertyOp46
 70
     1
102
RTVSPropertyOp47
 70
     1
102
RTVSPropertyOp48
 70
     1
102
RTVSPropertyOp49
 70
     1
102
RTVSPropertyOp50
 70
     1
102
RTVSPropertyOp51
 70
     0
102
RTVSPropertyOp52
 70
     0
102
RTVSPropertyOp53
 70
     1
102
RTVSPropertyOp54
 70
     1
102
RTVSPropertyOp55
 70
     1
102
RTVSPropertyOp56
 70
     1
102
RTVSPropertyOp57
 70
     1
102
RTVSPost2010Prop28
280
     0
102
RTVSPost2010PropOp28
 70
     1
102
RTVSPost2010Prop29
280
     1
102
RTVSPost2010PropOp29
 70
     1
102
RTVSPost2010Prop30
280
     1
102
RTVSPost2010PropOp30
 70
     1
102
RTVSPost2010Prop31
280
     0
102
RTVSPost2010PropOp31
 70
     1
102
RTVSPost2010Prop32
280
     0
102
RTVSPost2010PropOp32
 70
     1
102
RTVSPost2010Prop33
280
     0
102
RTVSPost2010PropOp33
 70
     1
102
RTVSPost2010Prop34
280
     0
102
RTVSPost2010PropOp34
 70
     1
102
RTVSPost2010Prop35
280
     0
102
RTVSPost2010PropOp35
 70
     1
102
RTVSPost2010Prop36
280
     0
102
RTVSPost2010PropOp36
 70
     1
102
RTVSPost2010Prop37
 90
       50
102
RTVSPost2010PropOp37
 70
     1
102
RTVSPost2010Prop38
140
0.0
102
RTVSPost2010PropOp38
 70
     1
102
RTVSPost2010Prop39
140
1.0
102
RTVSPost2010PropOp39
 70
     1
102
RTVSPost2010Prop40
 90
        0
102
RTVSPost2010PropOp40
 70
     1
102
RTVSPost2010Prop41ColorIndex
 90
       18
102
RTVSPost2010Prop41ColorRGB
 90
        0
102
RTVSPost2010PropOp41
 70
     1
102
RTVSPost2010Prop42
 90
       50
102
RTVSPost2010PropOp42
 70
     1
102
RTVSPost2010Prop43
 90
        3
102
RTVSPost2010PropOp43
 70
     1
102
RTVSPost2010Prop44ColorIndex
 90
        5
102
RTVSPost2010Prop44ColorRGB
 90
      255
102
RTVSPost2010PropOp44
 70
     1
102
RTVSPost2010Prop45
280
     0
102
RTVSPost2010PropOp45
 70
     1
102
RTVSPost2010Prop46
 90
       50
102
RTVSPost2010PropOp46
 70
     1
102
RTVSPost2010Prop47
 90
       50
102
RTVSPost2010PropOp47
 70
     1
102
RTVSPost2010Prop48
 90
       50
102
RTVSPost2010PropOp48
 70
     1
102
RTVSPost2010Prop49
280
     0
102
RTVSPost2010PropOp49
 70
     1
102
RTVSPost2010Prop50
 90
       50
102
RTVSPost2010PropOp50
 70
     1
102
RTVSPost2010Prop51ColorIndex
 90
      256
102
RTVSPost2010Prop51ColorRGB
 90
-16777216
102
RTVSPost2010PropOp51
 70
     0
102
RTVSPost2010Prop52
140
1.0
102
RTVSPost2010PropOp52
 70
     0
102
RTVSPost2010Prop53
 90
        2
102
RTVSPost2010PropOp53
 70
     1
102
RTVSPost2010Prop54
  1
strokes_ogs.tif
102
RTVSPost2010PropOp54
 70
     1
102
RTVSPost2010Prop55
280
     0
102
RTVSPost2010PropOp55
 70
     1
102
RTVSPost2010Prop56
140
1.0
102
RTVSPost2010PropOp56
 70
     1
102
RTVSPost2010Prop57
140
1.0
102
RTVSPost2010PropOp57
 70
     1
  0
XRECORD
  5
3D4
102
{ACAD_REACTORS
330
3D3
102
}
330
3D3
100
AcDbXrecord
280
     1
102
RTVSPropertyOp0
 70
     0
102
RTVSPropertyOp1
 70
     0
102
RTVSPropertyOp2
 70
     0
102
RTVSPropertyOp3
 70
     0
102
RTVSPropertyOp4
 70
     0
102
RTVSPropertyOp5
 70
     0
102
RTVSPropertyOp6
 70
     0
102
RTVSPropertyOp7
 70
     0
102
RTVSPropertyOp8
 70
     0
102
RTVSPropertyOp9
 70
     0
102
RTVSPropertyOp10
 70
     0
102
RTVSPropertyOp11
 70
     0
102
RTVSPropertyOp12
 70
     0
102
RTVSPropertyOp13
 70
     0
102
RTVSPropertyOp14
 70
     2
102
RTVSPropertyOp15
 70
     0
102
RTVSPropertyOp16
 70
     0
102
RTVSPropertyOp17
 70
     0
102
RTVSPropertyOp18
 70
     0
102
RTVSPropertyOp19
 70
     0
102
RTVSPropertyOp20
 70
     0
102
RTVSPropertyOp21
 70
     0
102
RTVSPropertyOp22
 70
     0
102
RTVSPropertyOp23
 70
     0
102
RTVSPropertyOp24
 70
     0
102
RTVSPropertyOp25
 70
     0
102
RTVSPropertyOp26
 70
     0
102
RTVSPropertyOp27
 70
     0
102
RTVSPropertyOp28
 70
     0
102
RTVSPropertyOp29
 70
     0
102
RTVSPropertyOp30
 70
     0
102
RTVSPropertyOp31
 70
     0
102
RTVSPropertyOp32
 70
     0
102
RTVSPropertyOp33
 70
     0
102
RTVSPropertyOp34
 70
     0
102
RTVSPropertyOp35
 70
     0
102
RTVSPropertyOp36
 70
     0
102
RTVSPropertyOp37
 70
     0
102
RTVSPropertyOp38
 70
     0
102
RTVSPropertyOp39
 70
     0
102
RTVSPropertyOp40
 70
     0
102
RTVSPropertyOp41
 70
     0
102
RTVSPropertyOp42
 70
     0
102
RTVSPropertyOp43
 70
     0
102
RTVSPropertyOp44
 70
     0
102
RTVSPropertyOp45
 70
     0
102
RTVSPropertyOp46
 70
     0
102
RTVSPropertyOp47
 70
     0
102
RTVSPropertyOp48
 70
     0
102
RTVSPropertyOp49
 70
     0
102
RTVSPropertyOp50
 70
     0
102
RTVSPropertyOp51
 70
     0
102
RTVSPropertyOp52
 70
     0
102
RTVSPropertyOp53
 70
     0
102
RTVSPropertyOp54
 70
     0
102
RTVSPropertyOp55
 70
     0
102
RTVSPropertyOp56
 70
     0
102
RTVSPropertyOp57
 70
     0
102
RTVSPost2010Prop28
280
     0
102
RTVSPost2010PropOp28
 70
     0
102
RTVSPost2010Prop29
280
     1
102
RTVSPost2010PropOp29
 70
     0
102
RTVSPost2010Prop30
280
     1
102
RTVSPost2010PropOp30
 70
     0
102
RTVSPost2010Prop31
280
     0
102
RTVSPost2010PropOp31
 70
     0
102
RTVSPost2010Prop32
280
     0
102
RTVSPost2010PropOp32
 70
     0
102
RTVSPost2010Prop33
280
     0
102
RTVSPost2010PropOp33
 70
     0
102
RTVSPost2010Prop34
280
     0
102
RTVSPost2010PropOp34
 70
     0
102
RTVSPost2010Prop35
280
     0
102
RTVSPost2010PropOp35
 70
     0
102
RTVSPost2010Prop36
280
     0
102
RTVSPost2010PropOp36
 70
     0
102
RTVSPost2010Prop37
 90
       50
102
RTVSPost2010PropOp37
 70
     0
102
RTVSPost2010Prop38
140
0.0
102
RTVSPost2010PropOp38
 70
     0
102
RTVSPost2010Prop39
140
1.0
102
RTVSPost2010PropOp39
 70
     0
102
RTVSPost2010Prop40
 90
        0
102
RTVSPost2010PropOp40
 70
     0
102
RTVSPost2010Prop41ColorIndex
 90
       18
102
RTVSPost2010Prop41ColorRGB
 90
        0
102
RTVSPost2010PropOp41
 70
     0
102
RTVSPost2010Prop42
 90
       50
102
RTVSPost2010PropOp42
 70
     0
102
RTVSPost2010Prop43
 90
        3
102
RTVSPost2010PropOp43
 70
     0
102
RTVSPost2010Prop44ColorIndex
 90
        5
102
RTVSPost2010Prop44ColorRGB
 90
      255
102
RTVSPost2010PropOp44
 70
     0
102
RTVSPost2010Prop45
280
     0
102
RTVSPost2010PropOp45
 70
     0
102
RTVSPost2010Prop46
 90
       50
102
RTVSPost2010PropOp46
 70
     0
102
RTVSPost2010Prop47
 90
       50
102
RTVSPost2010PropOp47
 70
     0
102
RTVSPost2010Prop48
 90
       50
102
RTVSPost2010PropOp48
 70
     0
102
RTVSPost2010Prop49
280
     0
102
RTVSPost2010PropOp49
 70
     0
102
RTVSPost2010Prop50
 90
       50
102
RTVSPost2010PropOp50
 70
     0
102
RTVSPost2010Prop51ColorIndex
 90
      256
102
RTVSPost2010Prop51ColorRGB
 90
-16777216
102
RTVSPost2010PropOp51
 70
     0
102
RTVSPost2010Prop52
140
1.0
102
RTVSPost2010PropOp52
 70
     0
102
RTVSPost2010Prop53
 90
        2
102
RTVSPost2010PropOp53
 70
     0
102
RTVSPost2010Prop54
  1
strokes_ogs.tif
102
RTVSPost2010PropOp54
 70
     0
102
RTVSPost2010Prop55
280
     0
102
RTVSPost2010PropOp55
 70
     0
102
RTVSPost2010Prop56
140
1.0
102
RTVSPost2010PropOp56
 70
     0
102
RTVSPost2010Prop57
140
1.0
102
RTVSPost2010PropOp57
 70
     0
  0
XRECORD
  5
3CE
102
{ACAD_REACTORS
330
3CD
102
}
330
3CD
100
AcDbXrecord
280
     1
102
RTVSPropertyOp0
 70
     1
102
RTVSPropertyOp1
 70
     1
102
RTVSPropertyOp2
 70
     1
102
RTVSPropertyOp3
 70
     1
102
RTVSPropertyOp4
 70
     1
102
RTVSPropertyOp5
 70
     1
102
RTVSPropertyOp6
 70
     1
102
RTVSPropertyOp7
 70
     1
102
RTVSPropertyOp8
 70
     1
102
RTVSPropertyOp9
 70
     1
102
RTVSPropertyOp10
 70
     1
102
RTVSPropertyOp11
 70
     1
102
RTVSPropertyOp12
 70
     1
102
RTVSPropertyOp13
 70
     1
102
RTVSPropertyOp14
 70
     1
102
RTVSPropertyOp15
 70
     1
102
RTVSPropertyOp16
 70
     1
102
RTVSPropertyOp17
 70
     1
102
RTVSPropertyOp18
 70
     1
102
RTVSPropertyOp19
 70
     1
102
RTVSPropertyOp20
 70
     1
102
RTVSPropertyOp21
 70
     1
102
RTVSPropertyOp22
 70
     1
102
RTVSPropertyOp23
 70
     1
102
RTVSPropertyOp24
 70
     1
102
RTVSPropertyOp25
 70
     1
102
RTVSPropertyOp26
 70
     1
102
RTVSPropertyOp27
 70
     1
102
RTVSPropertyOp28
 70
     1
102
RTVSPropertyOp29
 70
     1
102
RTVSPropertyOp30
 70
     1
102
RTVSPropertyOp31
 70
     1
102
RTVSPropertyOp32
 70
     1
102
RTVSPropertyOp33
 70
     1
102
RTVSPropertyOp34
 70
     1
102
RTVSPropertyOp35
 70
     1
102
RTVSPropertyOp36
 70
     1
102
RTVSPropertyOp37
 70
     1
102
RTVSPropertyOp38
 70
     1
102
RTVSPropertyOp39
 70
     1
102
RTVSPropertyOp40
 70
     1
102
RTVSPropertyOp41
 70
     1
102
RTVSPropertyOp42
 70
     1
102
RTVSPropertyOp43
 70
     1
102
RTVSPropertyOp44
 70
     1
102
RTVSPropertyOp45
 70
     1
102
RTVSPropertyOp46
 70
     1
102
RTVSPropertyOp47
 70
     1
102
RTVSPropertyOp48
 70
     1
102
RTVSPropertyOp49
 70
     1
102
RTVSPropertyOp50
 70
     1
102
RTVSPropertyOp51
 70
     0
102
RTVSPropertyOp52
 70
     0
102
RTVSPropertyOp53
 70
     1
102
RTVSPropertyOp54
 70
     1
102
RTVSPropertyOp55
 70
     1
102
RTVSPropertyOp56
 70
     1
102
RTVSPropertyOp57
 70
     1
102
RTVSPost2010Prop28
280
     0
102
RTVSPost2010PropOp28
 70
     1
102
RTVSPost2010Prop29
280
     1
102
RTVSPost2010PropOp29
 70
     1
102
RTVSPost2010Prop30
280
     1
102
RTVSPost2010PropOp30
 70
     1
102
RTVSPost2010Prop31
280
     0
102
RTVSPost2010PropOp31
 70
     1
102
RTVSPost2010Prop32
280
     0
102
RTVSPost2010PropOp32
 70
     1
102
RTVSPost2010Prop33
280
     0
102
RTVSPost2010PropOp33
 70
     1
102
RTVSPost2010Prop34
280
     0
102
RTVSPost2010PropOp34
 70
     1
102
RTVSPost2010Prop35
280
     0
102
RTVSPost2010PropOp35
 70
     1
102
RTVSPost2010Prop36
280
     0
102
RTVSPost2010PropOp36
 70
     1
102
RTVSPost2010Prop37
 90
       50
102
RTVSPost2010PropOp37
 70
     1
102
RTVSPost2010Prop38
140
0.0
102
RTVSPost2010PropOp38
 70
     1
102
RTVSPost2010Prop39
140
1.0
102
RTVSPost2010PropOp39
 70
     1
102
RTVSPost2010Prop40
 90
        0
102
RTVSPost2010PropOp40
 70
     1
102
RTVSPost2010Prop41ColorIndex
 90
       18
102
RTVSPost2010Prop41ColorRGB
 90
        0
102
RTVSPost2010PropOp41
 70
     1
102
RTVSPost2010Prop42
 90
       50
102
RTVSPost2010PropOp42
 70
     1
102
RTVSPost2010Prop43
 90
        3
102
RTVSPost2010PropOp43
 70
     1
102
RTVSPost2010Prop44ColorIndex
 90
        5
102
RTVSPost2010Prop44ColorRGB
 90
      255
102
RTVSPost2010PropOp44
 70
     1
102
RTVSPost2010Prop45
280
     0
102
RTVSPost2010PropOp45
 70
     1
102
RTVSPost2010Prop46
 90
       50
102
RTVSPost2010PropOp46
 70
     1
102
RTVSPost2010Prop47
 90
       50
102
RTVSPost2010PropOp47
 70
     1
102
RTVSPost2010Prop48
 90
       50
102
RTVSPost2010PropOp48
 70
     1
102
RTVSPost2010Prop49
280
     0
102
RTVSPost2010PropOp49
 70
     1
102
RTVSPost2010Prop50
 90
       50
102
RTVSPost2010PropOp50
 70
     1
102
RTVSPost2010Prop51ColorIndex
 90
      256
102
RTVSPost2010Prop51ColorRGB
 90
-16777216
102
RTVSPost2010PropOp51
 70
     0
102
RTVSPost2010Prop52
140
1.0
102
RTVSPost2010PropOp52
 70
     0
102
RTVSPost2010Prop53
 90
        2
102
RTVSPost2010PropOp53
 70
     1
102
RTVSPost2010Prop54
  1
strokes_ogs.tif
102
RTVSPost2010PropOp54
 70
     1
102
RTVSPost2010Prop55
280
     0
102
RTVSPost2010PropOp55
 70
     1
102
RTVSPost2010Prop56
140
1.0
102
RTVSPost2010PropOp56
 70
     1
102
RTVSPost2010Prop57
140
1.0
102
RTVSPost2010PropOp57
 70
     1
  0
XRECORD
  5
3D6
102
{ACAD_REACTORS
330
3D5
102
}
330
3D5
100
AcDbXrecord
280
     1
102
RTVSPropertyOp0
 70
     0
102
RTVSPropertyOp1
 70
     0
102
RTVSPropertyOp2
 70
     0
102
RTVSPropertyOp3
 70
     0
102
RTVSPropertyOp4
 70
     0
102
RTVSPropertyOp5
 70
     0
102
RTVSPropertyOp6
 70
     0
102
RTVSPropertyOp7
 70
     0
102
RTVSPropertyOp8
 70
     0
102
RTVSPropertyOp9
 70
     0
102
RTVSPropertyOp10
 70
     0
102
RTVSPropertyOp11
 70
     0
102
RTVSPropertyOp12
 70
     0
102
RTVSPropertyOp13
 70
     0
102
RTVSPropertyOp14
 70
     2
102
RTVSPropertyOp15
 70
     0
102
RTVSPropertyOp16
 70
     0
102
RTVSPropertyOp17
 70
     0
102
RTVSPropertyOp18
 70
     0
102
RTVSPropertyOp19
 70
     0
102
RTVSPropertyOp20
 70
     0
102
RTVSPropertyOp21
 70
     0
102
RTVSPropertyOp22
 70
     0
102
RTVSPropertyOp23
 70
     0
102
RTVSPropertyOp24
 70
     0
102
RTVSPropertyOp25
 70
     0
102
RTVSPropertyOp26
 70
     0
102
RTVSPropertyOp27
 70
     0
102
RTVSPropertyOp28
 70
     0
102
RTVSPropertyOp29
 70
     0
102
RTVSPropertyOp30
 70
     0
102
RTVSPropertyOp31
 70
     0
102
RTVSPropertyOp32
 70
     0
102
RTVSPropertyOp33
 70
     0
102
RTVSPropertyOp34
 70
     0
102
RTVSPropertyOp35
 70
     0
102
RTVSPropertyOp36
 70
     0
102
RTVSPropertyOp37
 70
     0
102
RTVSPropertyOp38
 70
     0
102
RTVSPropertyOp39
 70
     0
102
RTVSPropertyOp40
 70
     0
102
RTVSPropertyOp41
 70
     0
102
RTVSPropertyOp42
 70
     0
102
RTVSPropertyOp43
 70
     0
102
RTVSPropertyOp44
 70
     0
102
RTVSPropertyOp45
 70
     0
102
RTVSPropertyOp46
 70
     0
102
RTVSPropertyOp47
 70
     0
102
RTVSPropertyOp48
 70
     0
102
RTVSPropertyOp49
 70
     0
102
RTVSPropertyOp50
 70
     0
102
RTVSPropertyOp51
 70
     0
102
RTVSPropertyOp52
 70
     0
102
RTVSPropertyOp53
 70
     0
102
RTVSPropertyOp54
 70
     0
102
RTVSPropertyOp55
 70
     0
102
RTVSPropertyOp56
 70
     0
102
RTVSPropertyOp57
 70
     0
102
RTVSPost2010Prop28
280
     0
102
RTVSPost2010PropOp28
 70
     0
102
RTVSPost2010Prop29
280
     1
102
RTVSPost2010PropOp29
 70
     0
102
RTVSPost2010Prop30
280
     1
102
RTVSPost2010PropOp30
 70
     0
102
RTVSPost2010Prop31
280
     0
102
RTVSPost2010PropOp31
 70
     0
102
RTVSPost2010Prop32
280
     0
102
RTVSPost2010PropOp32
 70
     0
102
RTVSPost2010Prop33
280
     0
102
RTVSPost2010PropOp33
 70
     0
102
RTVSPost2010Prop34
280
     0
102
RTVSPost2010PropOp34
 70
     0
102
RTVSPost2010Prop35
280
     0
102
RTVSPost2010PropOp35
 70
     0
102
RTVSPost2010Prop36
280
     0
102
RTVSPost2010PropOp36
 70
     0
102
RTVSPost2010Prop37
 90
       50
102
RTVSPost2010PropOp37
 70
     0
102
RTVSPost2010Prop38
140
0.0
102
RTVSPost2010PropOp38
 70
     0
102
RTVSPost2010Prop39
140
1.0
102
RTVSPost2010PropOp39
 70
     0
102
RTVSPost2010Prop40
 90
        0
102
RTVSPost2010PropOp40
 70
     0
102
RTVSPost2010Prop41ColorIndex
 90
       18
102
RTVSPost2010Prop41ColorRGB
 90
        0
102
RTVSPost2010PropOp41
 70
     0
102
RTVSPost2010Prop42
 90
       50
102
RTVSPost2010PropOp42
 70
     0
102
RTVSPost2010Prop43
 90
        3
102
RTVSPost2010PropOp43
 70
     0
102
RTVSPost2010Prop44ColorIndex
 90
        5
102
RTVSPost2010Prop44ColorRGB
 90
      255
102
RTVSPost2010PropOp44
 70
     0
102
RTVSPost2010Prop45
280
     0
102
RTVSPost2010PropOp45
 70
     0
102
RTVSPost2010Prop46
 90
       50
102
RTVSPost2010PropOp46
 70
     0
102
RTVSPost2010Prop47
 90
       50
102
RTVSPost2010PropOp47
 70
     0
102
RTVSPost2010Prop48
 90
       50
102
RTVSPost2010PropOp48
 70
     0
102
RTVSPost2010Prop49
280
     0
102
RTVSPost2010PropOp49
 70
     0
102
RTVSPost2010Prop50
 90
       50
102
RTVSPost2010PropOp50
 70
     0
102
RTVSPost2010Prop51ColorIndex
 90
      256
102
RTVSPost2010Prop51ColorRGB
 90
-16777216
102
RTVSPost2010PropOp51
 70
     0
102
RTVSPost2010Prop52
140
1.0
102
RTVSPost2010PropOp52
 70
     0
102
RTVSPost2010Prop53
 90
        2
102
RTVSPost2010PropOp53
 70
     0
102
RTVSPost2010Prop54
  1
strokes_ogs.tif
102
RTVSPost2010PropOp54
 70
     0
102
RTVSPost2010Prop55
280
     0
102
RTVSPost2010PropOp55
 70
     0
102
RTVSPost2010Prop56
140
1.0
102
RTVSPost2010PropOp56
 70
     0
102
RTVSPost2010Prop57
140
1.0
102
RTVSPost2010PropOp57
 70
     0
  0
XRECORD
  5
3C4
102
{ACAD_REACTORS
330
3C3
102
}
330
3C3
100
AcDbXrecord
280
     1
102
RTVSPropertyOp0
 70
     1
102
RTVSPropertyOp1
 70
     1
102
RTVSPropertyOp2
 70
     1
102
RTVSPropertyOp3
 70
     1
102
RTVSPropertyOp4
 70
     1
102
RTVSPropertyOp5
 70
     1
102
RTVSPropertyOp6
 70
     1
102
RTVSPropertyOp7
 70
     1
102
RTVSPropertyOp8
 70
     1
102
RTVSPropertyOp9
 70
     1
102
RTVSPropertyOp10
 70
     1
102
RTVSPropertyOp11
 70
     1
102
RTVSPropertyOp12
 70
     1
102
RTVSPropertyOp13
 70
     1
102
RTVSPropertyOp14
 70
     1
102
RTVSPropertyOp15
 70
     1
102
RTVSPropertyOp16
 70
     1
102
RTVSPropertyOp17
 70
     1
102
RTVSPropertyOp18
 70
     1
102
RTVSPropertyOp19
 70
     1
102
RTVSPropertyOp20
 70
     1
102
RTVSPropertyOp21
 70
     1
102
RTVSPropertyOp22
 70
     1
102
RTVSPropertyOp23
 70
     1
102
RTVSPropertyOp24
 70
     1
102
RTVSPropertyOp25
 70
     1
102
RTVSPropertyOp26
 70
     1
102
RTVSPropertyOp27
 70
     1
102
RTVSPropertyOp28
 70
     1
102
RTVSPropertyOp29
 70
     1
102
RTVSPropertyOp30
 70
     1
102
RTVSPropertyOp31
 70
     1
102
RTVSPropertyOp32
 70
     1
102
RTVSPropertyOp33
 70
     1
102
RTVSPropertyOp34
 70
     1
102
RTVSPropertyOp35
 70
     1
102
RTVSPropertyOp36
 70
     1
102
RTVSPropertyOp37
 70
     1
102
RTVSPropertyOp38
 70
     1
102
RTVSPropertyOp39
 70
     1
102
RTVSPropertyOp40
 70
     1
102
RTVSPropertyOp41
 70
     1
102
RTVSPropertyOp42
 70
     1
102
RTVSPropertyOp43
 70
     1
102
RTVSPropertyOp44
 70
     1
102
RTVSPropertyOp45
 70
     1
102
RTVSPropertyOp46
 70
     1
102
RTVSPropertyOp47
 70
     1
102
RTVSPropertyOp48
 70
     1
102
RTVSPropertyOp49
 70
     1
102
RTVSPropertyOp50
 70
     1
102
RTVSPropertyOp51
 70
     0
102
RTVSPropertyOp52
 70
     0
102
RTVSPropertyOp53
 70
     1
102
RTVSPropertyOp54
 70
     1
102
RTVSPropertyOp55
 70
     1
102
RTVSPropertyOp56
 70
     1
102
RTVSPropertyOp57
 70
     1
102
RTVSPost2010Prop28
280
     0
102
RTVSPost2010PropOp28
 70
     1
102
RTVSPost2010Prop29
280
     1
102
RTVSPost2010PropOp29
 70
     1
102
RTVSPost2010Prop30
280
     1
102
RTVSPost2010PropOp30
 70
     1
102
RTVSPost2010Prop31
280
     0
102
RTVSPost2010PropOp31
 70
     1
102
RTVSPost2010Prop32
280
     0
102
RTVSPost2010PropOp32
 70
     1
102
RTVSPost2010Prop33
280
     0
102
RTVSPost2010PropOp33
 70
     1
102
RTVSPost2010Prop34
280
     0
102
RTVSPost2010PropOp34
 70
     1
102
RTVSPost2010Prop35
280
     0
102
RTVSPost2010PropOp35
 70
     1
102
RTVSPost2010Prop36
280
     0
102
RTVSPost2010PropOp36
 70
     1
102
RTVSPost2010Prop37
 90
       50
102
RTVSPost2010PropOp37
 70
     1
102
RTVSPost2010Prop38
140
0.0
102
RTVSPost2010PropOp38
 70
     1
102
RTVSPost2010Prop39
140
1.0
102
RTVSPost2010PropOp39
 70
     1
102
RTVSPost2010Prop40
 90
        0
102
RTVSPost2010PropOp40
 70
     1
102
RTVSPost2010Prop41ColorIndex
 90
       18
102
RTVSPost2010Prop41ColorRGB
 90
        0
102
RTVSPost2010PropOp41
 70
     1
102
RTVSPost2010Prop42
 90
       50
102
RTVSPost2010PropOp42
 70
     1
102
RTVSPost2010Prop43
 90
        3
102
RTVSPost2010PropOp43
 70
     1
102
RTVSPost2010Prop44ColorIndex
 90
        5
102
RTVSPost2010Prop44ColorRGB
 90
      255
102
RTVSPost2010PropOp44
 70
     1
102
RTVSPost2010Prop45
280
     0
102
RTVSPost2010PropOp45
 70
     1
102
RTVSPost2010Prop46
 90
       50
102
RTVSPost2010PropOp46
 70
     1
102
RTVSPost2010Prop47
 90
       50
102
RTVSPost2010PropOp47
 70
     1
102
RTVSPost2010Prop48
 90
       50
102
RTVSPost2010PropOp48
 70
     1
102
RTVSPost2010Prop49
280
     0
102
RTVSPost2010PropOp49
 70
     1
102
RTVSPost2010Prop50
 90
       50
102
RTVSPost2010PropOp50
 70
     1
102
RTVSPost2010Prop51ColorIndex
 90
      256
102
RTVSPost2010Prop51ColorRGB
 90
-16777216
102
RTVSPost2010PropOp51
 70
     0
102
RTVSPost2010Prop52
140
1.0
102
RTVSPost2010PropOp52
 70
     0
102
RTVSPost2010Prop53
 90
        2
102
RTVSPost2010PropOp53
 70
     1
102
RTVSPost2010Prop54
  1
strokes_ogs.tif
102
RTVSPost2010PropOp54
 70
     1
102
RTVSPost2010Prop55
280
     0
102
RTVSPost2010PropOp55
 70
     1
102
RTVSPost2010Prop56
140
1.0
102
RTVSPost2010PropOp56
 70
     1
102
RTVSPost2010Prop57
140
1.0
102
RTVSPost2010PropOp57
 70
     1
  0
XRECORD
  5
3E2
102
{ACAD_REACTORS
330
3E1
102
}
330
3E1
100
AcDbXrecord
280
     1
102
RTVSPropertyOp0
 70
     1
102
RTVSPropertyOp1
 70
     1
102
RTVSPropertyOp2
 70
     1
102
RTVSPropertyOp3
 70
     1
102
RTVSPropertyOp4
 70
     1
102
RTVSPropertyOp5
 70
     1
102
RTVSPropertyOp6
 70
     1
102
RTVSPropertyOp7
 70
     1
102
RTVSPropertyOp8
 70
     1
102
RTVSPropertyOp9
 70
     1
102
RTVSPropertyOp10
 70
     1
102
RTVSPropertyOp11
 70
     1
102
RTVSPropertyOp12
 70
     1
102
RTVSPropertyOp13
 70
     1
102
RTVSPropertyOp14
 70
     1
102
RTVSPropertyOp15
 70
     1
102
RTVSPropertyOp16
 70
     1
102
RTVSPropertyOp17
 70
     1
102
RTVSPropertyOp18
 70
     1
102
RTVSPropertyOp19
 70
     1
102
RTVSPropertyOp20
 70
     1
102
RTVSPropertyOp21
 70
     1
102
RTVSPropertyOp22
 70
     1
102
RTVSPropertyOp23
 70
     1
102
RTVSPropertyOp24
 70
     1
102
RTVSPropertyOp25
 70
     1
102
RTVSPropertyOp26
 70
     1
102
RTVSPropertyOp27
 70
     1
102
RTVSPropertyOp28
 70
     1
102
RTVSPropertyOp29
 70
     1
102
RTVSPropertyOp30
 70
     1
102
RTVSPropertyOp31
 70
     1
102
RTVSPropertyOp32
 70
     1
102
RTVSPropertyOp33
 70
     1
102
RTVSPropertyOp34
 70
     1
102
RTVSPropertyOp35
 70
     1
102
RTVSPropertyOp36
 70
     1
102
RTVSPropertyOp37
 70
     1
102
RTVSPropertyOp38
 70
     1
102
RTVSPropertyOp39
 70
     1
102
RTVSPropertyOp40
 70
     1
102
RTVSPropertyOp41
 70
     1
102
RTVSPropertyOp42
 70
     1
102
RTVSPropertyOp43
 70
     1
102
RTVSPropertyOp44
 70
     1
102
RTVSPropertyOp45
 70
     1
102
RTVSPropertyOp46
 70
     1
102
RTVSPropertyOp47
 70
     1
102
RTVSPropertyOp48
 70
     1
102
RTVSPropertyOp49
 70
     1
102
RTVSPropertyOp50
 70
     1
102
RTVSPropertyOp51
 70
     0
102
RTVSPropertyOp52
 70
     0
102
RTVSPropertyOp53
 70
     1
102
RTVSPropertyOp54
 70
     1
102
RTVSPropertyOp55
 70
     1
102
RTVSPropertyOp56
 70
     1
102
RTVSPropertyOp57
 70
     1
102
RTVSPost2010Prop28
280
     0
102
RTVSPost2010PropOp28
 70
     1
102
RTVSPost2010Prop29
280
     1
102
RTVSPost2010PropOp29
 70
     1
102
RTVSPost2010Prop30
280
     1
102
RTVSPost2010PropOp30
 70
     1
102
RTVSPost2010Prop31
280
     0
102
RTVSPost2010PropOp31
 70
     1
102
RTVSPost2010Prop32
280
     0
102
RTVSPost2010PropOp32
 70
     1
102
RTVSPost2010Prop33
280
     0
102
RTVSPost2010PropOp33
 70
     1
102
RTVSPost2010Prop34
280
     0
102
RTVSPost2010PropOp34
 70
     1
102
RTVSPost2010Prop35
280
     0
102
RTVSPost2010PropOp35
 70
     1
102
RTVSPost2010Prop36
280
     0
102
RTVSPost2010PropOp36
 70
     1
102
RTVSPost2010Prop37
 90
       50
102
RTVSPost2010PropOp37
 70
     1
102
RTVSPost2010Prop38
140
0.0
102
RTVSPost2010PropOp38
 70
     1
102
RTVSPost2010Prop39
140
1.0
102
RTVSPost2010PropOp39
 70
     1
102
RTVSPost2010Prop40
 90
        0
102
RTVSPost2010PropOp40
 70
     1
102
RTVSPost2010Prop41ColorIndex
 90
       18
102
RTVSPost2010Prop41ColorRGB
 90
        0
102
RTVSPost2010PropOp41
 70
     1
102
RTVSPost2010Prop42
 90
       50
102
RTVSPost2010PropOp42
 70
     1
102
RTVSPost2010Prop43
 90
        3
102
RTVSPost2010PropOp43
 70
     1
102
RTVSPost2010Prop44ColorIndex
 90
        5
102
RTVSPost2010Prop44ColorRGB
 90
      255
102
RTVSPost2010PropOp44
 70
     1
102
RTVSPost2010Prop45
280
     0
102
RTVSPost2010PropOp45
 70
     1
102
RTVSPost2010Prop46
 90
       50
102
RTVSPost2010PropOp46
 70
     1
102
RTVSPost2010Prop47
 90
       50
102
RTVSPost2010PropOp47
 70
     1
102
RTVSPost2010Prop48
 90
       50
102
RTVSPost2010PropOp48
 70
     1
102
RTVSPost2010Prop49
280
     0
102
RTVSPost2010PropOp49
 70
     1
102
RTVSPost2010Prop50
 90
       50
102
RTVSPost2010PropOp50
 70
     1
102
RTVSPost2010Prop51ColorIndex
 90
      256
102
RTVSPost2010Prop51ColorRGB
 90
-16777216
102
RTVSPost2010PropOp51
 70
     0
102
RTVSPost2010Prop52
140
1.0
102
RTVSPost2010PropOp52
 70
     0
102
RTVSPost2010Prop53
 90
        2
102
RTVSPost2010PropOp53
 70
     1
102
RTVSPost2010Prop54
  1
strokes_ogs.tif
102
RTVSPost2010PropOp54
 70
     1
102
RTVSPost2010Prop55
280
     0
102
RTVSPost2010PropOp55
 70
     1
102
RTVSPost2010Prop56
140
1.0
102
RTVSPost2010PropOp56
 70
     1
102
RTVSPost2010Prop57
140
1.0
102
RTVSPost2010PropOp57
 70
     1
  0
XRECORD
  5
3E0
102
{ACAD_REACTORS
330
3DF
102
}
330
3DF
100
AcDbXrecord
280
     1
102
RTVSPropertyOp0
 70
     1
102
RTVSPropertyOp1
 70
     1
102
RTVSPropertyOp2
 70
     1
102
RTVSPropertyOp3
 70
     1
102
RTVSPropertyOp4
 70
     1
102
RTVSPropertyOp5
 70
     1
102
RTVSPropertyOp6
 70
     1
102
RTVSPropertyOp7
 70
     1
102
RTVSPropertyOp8
 70
     1
102
RTVSPropertyOp9
 70
     1
102
RTVSPropertyOp10
 70
     1
102
RTVSPropertyOp11
 70
     1
102
RTVSPropertyOp12
 70
     1
102
RTVSPropertyOp13
 70
     1
102
RTVSPropertyOp14
 70
     1
102
RTVSPropertyOp15
 70
     1
102
RTVSPropertyOp16
 70
     1
102
RTVSPropertyOp17
 70
     1
102
RTVSPropertyOp18
 70
     1
102
RTVSPropertyOp19
 70
     1
102
RTVSPropertyOp20
 70
     1
102
RTVSPropertyOp21
 70
     1
102
RTVSPropertyOp22
 70
     1
102
RTVSPropertyOp23
 70
     1
102
RTVSPropertyOp24
 70
     1
102
RTVSPropertyOp25
 70
     1
102
RTVSPropertyOp26
 70
     1
102
RTVSPropertyOp27
 70
     1
102
RTVSPropertyOp28
 70
     1
102
RTVSPropertyOp29
 70
     1
102
RTVSPropertyOp30
 70
     1
102
RTVSPropertyOp31
 70
     1
102
RTVSPropertyOp32
 70
     1
102
RTVSPropertyOp33
 70
     1
102
RTVSPropertyOp34
 70
     1
102
RTVSPropertyOp35
 70
     1
102
RTVSPropertyOp36
 70
     1
102
RTVSPropertyOp37
 70
     1
102
RTVSPropertyOp38
 70
     1
102
RTVSPropertyOp39
 70
     1
102
RTVSPropertyOp40
 70
     1
102
RTVSPropertyOp41
 70
     1
102
RTVSPropertyOp42
 70
     1
102
RTVSPropertyOp43
 70
     1
102
RTVSPropertyOp44
 70
     1
102
RTVSPropertyOp45
 70
     1
102
RTVSPropertyOp46
 70
     1
102
RTVSPropertyOp47
 70
     1
102
RTVSPropertyOp48
 70
     1
102
RTVSPropertyOp49
 70
     1
102
RTVSPropertyOp50
 70
     1
102
RTVSPropertyOp51
 70
     0
102
RTVSPropertyOp52
 70
     0
102
RTVSPropertyOp53
 70
     1
102
RTVSPropertyOp54
 70
     1
102
RTVSPropertyOp55
 70
     1
102
RTVSPropertyOp56
 70
     1
102
RTVSPropertyOp57
 70
     1
102
RTVSPost2010Prop28
280
     0
102
RTVSPost2010PropOp28
 70
     1
102
RTVSPost2010Prop29
280
     1
102
RTVSPost2010PropOp29
 70
     1
102
RTVSPost2010Prop30
280
     1
102
RTVSPost2010PropOp30
 70
     1
102
RTVSPost2010Prop31
280
     0
102
RTVSPost2010PropOp31
 70
     1
102
RTVSPost2010Prop32
280
     0
102
RTVSPost2010PropOp32
 70
     1
102
RTVSPost2010Prop33
280
     0
102
RTVSPost2010PropOp33
 70
     1
102
RTVSPost2010Prop34
280
     0
102
RTVSPost2010PropOp34
 70
     1
102
RTVSPost2010Prop35
280
     0
102
RTVSPost2010PropOp35
 70
     1
102
RTVSPost2010Prop36
280
     0
102
RTVSPost2010PropOp36
 70
     1
102
RTVSPost2010Prop37
 90
       50
102
RTVSPost2010PropOp37
 70
     1
102
RTVSPost2010Prop38
140
0.0
102
RTVSPost2010PropOp38
 70
     1
102
RTVSPost2010Prop39
140
1.0
102
RTVSPost2010PropOp39
 70
     1
102
RTVSPost2010Prop40
 90
        0
102
RTVSPost2010PropOp40
 70
     1
102
RTVSPost2010Prop41ColorIndex
 90
       18
102
RTVSPost2010Prop41ColorRGB
 90
        0
102
RTVSPost2010PropOp41
 70
     1
102
RTVSPost2010Prop42
 90
       50
102
RTVSPost2010PropOp42
 70
     1
102
RTVSPost2010Prop43
 90
        3
102
RTVSPost2010PropOp43
 70
     1
102
RTVSPost2010Prop44ColorIndex
 90
        5
102
RTVSPost2010Prop44ColorRGB
 90
      255
102
RTVSPost2010PropOp44
 70
     1
102
RTVSPost2010Prop45
280
     0
102
RTVSPost2010PropOp45
 70
     1
102
RTVSPost2010Prop46
 90
       50
102
RTVSPost2010PropOp46
 70
     1
102
RTVSPost2010Prop47
 90
       50
102
RTVSPost2010PropOp47
 70
     1
102
RTVSPost2010Prop48
 90
       50
102
RTVSPost2010PropOp48
 70
     1
102
RTVSPost2010Prop49
280
     0
102
RTVSPost2010PropOp49
 70
     1
102
RTVSPost2010Prop50
 90
       50
102
RTVSPost2010PropOp50
 70
     1
102
RTVSPost2010Prop51ColorIndex
 90
      256
102
RTVSPost2010Prop51ColorRGB
 90
-16777216
102
RTVSPost2010PropOp51
 70
     0
102
RTVSPost2010Prop52
140
1.0
102
RTVSPost2010PropOp52
 70
     0
102
RTVSPost2010Prop53
 90
        2
102
RTVSPost2010PropOp53
 70
     1
102
RTVSPost2010Prop54
  1
strokes_ogs.tif
102
RTVSPost2010PropOp54
 70
     1
102
RTVSPost2010Prop55
280
     0
102
RTVSPost2010PropOp55
 70
     1
102
RTVSPost2010Prop56
140
1.0
102
RTVSPost2010PropOp56
 70
     1
102
RTVSPost2010Prop57
140
1.0
102
RTVSPost2010PropOp57
 70
     1
  0
XRECORD
  5
3DA
102
{ACAD_REACTORS
330
3D9
102
}
330
3D9
100
AcDbXrecord
280
     1
102
RTVSPropertyOp0
 70
     1
102
RTVSPropertyOp1
 70
     1
102
RTVSPropertyOp2
 70
     1
102
RTVSPropertyOp3
 70
     1
102
RTVSPropertyOp4
 70
     1
102
RTVSPropertyOp5
 70
     1
102
RTVSPropertyOp6
 70
     1
102
RTVSPropertyOp7
 70
     1
102
RTVSPropertyOp8
 70
     1
102
RTVSPropertyOp9
 70
     1
102
RTVSPropertyOp10
 70
     1
102
RTVSPropertyOp11
 70
     1
102
RTVSPropertyOp12
 70
     1
102
RTVSPropertyOp13
 70
     1
102
RTVSPropertyOp14
 70
     1
102
RTVSPropertyOp15
 70
     1
102
RTVSPropertyOp16
 70
     1
102
RTVSPropertyOp17
 70
     1
102
RTVSPropertyOp18
 70
     1
102
RTVSPropertyOp19
 70
     1
102
RTVSPropertyOp20
 70
     1
102
RTVSPropertyOp21
 70
     1
102
RTVSPropertyOp22
 70
     1
102
RTVSPropertyOp23
 70
     1
102
RTVSPropertyOp24
 70
     1
102
RTVSPropertyOp25
 70
     1
102
RTVSPropertyOp26
 70
     1
102
RTVSPropertyOp27
 70
     1
102
RTVSPropertyOp28
 70
     1
102
RTVSPropertyOp29
 70
     1
102
RTVSPropertyOp30
 70
     1
102
RTVSPropertyOp31
 70
     1
102
RTVSPropertyOp32
 70
     1
102
RTVSPropertyOp33
 70
     1
102
RTVSPropertyOp34
 70
     1
102
RTVSPropertyOp35
 70
     1
102
RTVSPropertyOp36
 70
     1
102
RTVSPropertyOp37
 70
     1
102
RTVSPropertyOp38
 70
     1
102
RTVSPropertyOp39
 70
     1
102
RTVSPropertyOp40
 70
     1
102
RTVSPropertyOp41
 70
     1
102
RTVSPropertyOp42
 70
     1
102
RTVSPropertyOp43
 70
     1
102
RTVSPropertyOp44
 70
     1
102
RTVSPropertyOp45
 70
     1
102
RTVSPropertyOp46
 70
     1
102
RTVSPropertyOp47
 70
     1
102
RTVSPropertyOp48
 70
     1
102
RTVSPropertyOp49
 70
     1
102
RTVSPropertyOp50
 70
     1
102
RTVSPropertyOp51
 70
     0
102
RTVSPropertyOp52
 70
     0
102
RTVSPropertyOp53
 70
     1
102
RTVSPropertyOp54
 70
     1
102
RTVSPropertyOp55
 70
     1
102
RTVSPropertyOp56
 70
     1
102
RTVSPropertyOp57
 70
     1
102
RTVSPost2010Prop28
280
     0
102
RTVSPost2010PropOp28
 70
     1
102
RTVSPost2010Prop29
280
     1
102
RTVSPost2010PropOp29
 70
     1
102
RTVSPost2010Prop30
280
     1
102
RTVSPost2010PropOp30
 70
     1
102
RTVSPost2010Prop31
280
     0
102
RTVSPost2010PropOp31
 70
     1
102
RTVSPost2010Prop32
280
     0
102
RTVSPost2010PropOp32
 70
     1
102
RTVSPost2010Prop33
280
     0
102
RTVSPost2010PropOp33
 70
     1
102
RTVSPost2010Prop34
280
     0
102
RTVSPost2010PropOp34
 70
     1
102
RTVSPost2010Prop35
280
     0
102
RTVSPost2010PropOp35
 70
     1
102
RTVSPost2010Prop36
280
     0
102
RTVSPost2010PropOp36
 70
     1
102
RTVSPost2010Prop37
 90
       50
102
RTVSPost2010PropOp37
 70
     1
102
RTVSPost2010Prop38
140
0.0
102
RTVSPost2010PropOp38
 70
     1
102
RTVSPost2010Prop39
140
1.0
102
RTVSPost2010PropOp39
 70
     1
102
RTVSPost2010Prop40
 90
        0
102
RTVSPost2010PropOp40
 70
     1
102
RTVSPost2010Prop41ColorIndex
 90
       18
102
RTVSPost2010Prop41ColorRGB
 90
        0
102
RTVSPost2010PropOp41
 70
     1
102
RTVSPost2010Prop42
 90
       50
102
RTVSPost2010PropOp42
 70
     1
102
RTVSPost2010Prop43
 90
        3
102
RTVSPost2010PropOp43
 70
     1
102
RTVSPost2010Prop44ColorIndex
 90
        5
102
RTVSPost2010Prop44ColorRGB
 90
      255
102
RTVSPost2010PropOp44
 70
     1
102
RTVSPost2010Prop45
280
     0
102
RTVSPost2010PropOp45
 70
     1
102
RTVSPost2010Prop46
 90
       50
102
RTVSPost2010PropOp46
 70
     1
102
RTVSPost2010Prop47
 90
       50
102
RTVSPost2010PropOp47
 70
     1
102
RTVSPost2010Prop48
 90
       50
102
RTVSPost2010PropOp48
 70
     1
102
RTVSPost2010Prop49
280
     0
102
RTVSPost2010PropOp49
 70
     1
102
RTVSPost2010Prop50
 90
       50
102
RTVSPost2010PropOp50
 70
     1
102
RTVSPost2010Prop51ColorIndex
 90
      256
102
RTVSPost2010Prop51ColorRGB
 90
-16777216
102
RTVSPost2010PropOp51
 70
     0
102
RTVSPost2010Prop52
140
1.0
102
RTVSPost2010PropOp52
 70
     0
102
RTVSPost2010Prop53
 90
        2
102
RTVSPost2010PropOp53
 70
     1
102
RTVSPost2010Prop54
  1
strokes_ogs.tif
102
RTVSPost2010PropOp54
 70
     1
102
RTVSPost2010Prop55
280
     0
102
RTVSPost2010PropOp55
 70
     1
102
RTVSPost2010Prop56
140
1.0
102
RTVSPost2010PropOp56
 70
     1
102
RTVSPost2010Prop57
140
1.0
102
RTVSPost2010PropOp57
 70
     1
  0
XRECORD
  5
3DC
102
{ACAD_REACTORS
330
3DB
102
}
330
3DB
100
AcDbXrecord
280
     1
102
RTVSPropertyOp0
 70
     1
102
RTVSPropertyOp1
 70
     1
102
RTVSPropertyOp2
 70
     1
102
RTVSPropertyOp3
 70
     1
102
RTVSPropertyOp4
 70
     1
102
RTVSPropertyOp5
 70
     1
102
RTVSPropertyOp6
 70
     1
102
RTVSPropertyOp7
 70
     1
102
RTVSPropertyOp8
 70
     1
102
RTVSPropertyOp9
 70
     1
102
RTVSPropertyOp10
 70
     1
102
RTVSPropertyOp11
 70
     1
102
RTVSPropertyOp12
 70
     1
102
RTVSPropertyOp13
 70
     1
102
RTVSPropertyOp14
 70
     1
102
RTVSPropertyOp15
 70
     1
102
RTVSPropertyOp16
 70
     1
102
RTVSPropertyOp17
 70
     1
102
RTVSPropertyOp18
 70
     1
102
RTVSPropertyOp19
 70
     1
102
RTVSPropertyOp20
 70
     1
102
RTVSPropertyOp21
 70
     1
102
RTVSPropertyOp22
 70
     1
102
RTVSPropertyOp23
 70
     1
102
RTVSPropertyOp24
 70
     1
102
RTVSPropertyOp25
 70
     1
102
RTVSPropertyOp26
 70
     1
102
RTVSPropertyOp27
 70
     1
102
RTVSPropertyOp28
 70
     1
102
RTVSPropertyOp29
 70
     1
102
RTVSPropertyOp30
 70
     1
102
RTVSPropertyOp31
 70
     1
102
RTVSPropertyOp32
 70
     1
102
RTVSPropertyOp33
 70
     1
102
RTVSPropertyOp34
 70
     1
102
RTVSPropertyOp35
 70
     1
102
RTVSPropertyOp36
 70
     1
102
RTVSPropertyOp37
 70
     1
102
RTVSPropertyOp38
 70
     1
102
RTVSPropertyOp39
 70
     1
102
RTVSPropertyOp40
 70
     1
102
RTVSPropertyOp41
 70
     1
102
RTVSPropertyOp42
 70
     1
102
RTVSPropertyOp43
 70
     1
102
RTVSPropertyOp44
 70
     1
102
RTVSPropertyOp45
 70
     1
102
RTVSPropertyOp46
 70
     1
102
RTVSPropertyOp47
 70
     1
102
RTVSPropertyOp48
 70
     1
102
RTVSPropertyOp49
 70
     1
102
RTVSPropertyOp50
 70
     1
102
RTVSPropertyOp51
 70
     0
102
RTVSPropertyOp52
 70
     0
102
RTVSPropertyOp53
 70
     1
102
RTVSPropertyOp54
 70
     1
102
RTVSPropertyOp55
 70
     1
102
RTVSPropertyOp56
 70
     1
102
RTVSPropertyOp57
 70
     1
102
RTVSPost2010Prop28
280
     0
102
RTVSPost2010PropOp28
 70
     1
102
RTVSPost2010Prop29
280
     1
102
RTVSPost2010PropOp29
 70
     1
102
RTVSPost2010Prop30
280
     1
102
RTVSPost2010PropOp30
 70
     1
102
RTVSPost2010Prop31
280
     0
102
RTVSPost2010PropOp31
 70
     1
102
RTVSPost2010Prop32
280
     0
102
RTVSPost2010PropOp32
 70
     1
102
RTVSPost2010Prop33
280
     0
102
RTVSPost2010PropOp33
 70
     1
102
RTVSPost2010Prop34
280
     0
102
RTVSPost2010PropOp34
 70
     1
102
RTVSPost2010Prop35
280
     0
102
RTVSPost2010PropOp35
 70
     1
102
RTVSPost2010Prop36
280
     0
102
RTVSPost2010PropOp36
 70
     1
102
RTVSPost2010Prop37
 90
       50
102
RTVSPost2010PropOp37
 70
     1
102
RTVSPost2010Prop38
140
0.0
102
RTVSPost2010PropOp38
 70
     1
102
RTVSPost2010Prop39
140
1.0
102
RTVSPost2010PropOp39
 70
     1
102
RTVSPost2010Prop40
 90
        0
102
RTVSPost2010PropOp40
 70
     1
102
RTVSPost2010Prop41ColorIndex
 90
       18
102
RTVSPost2010Prop41ColorRGB
 90
        0
102
RTVSPost2010PropOp41
 70
     1
102
RTVSPost2010Prop42
 90
       50
102
RTVSPost2010PropOp42
 70
     1
102
RTVSPost2010Prop43
 90
        3
102
RTVSPost2010PropOp43
 70
     1
102
RTVSPost2010Prop44ColorIndex
 90
        5
102
RTVSPost2010Prop44ColorRGB
 90
      255
102
RTVSPost2010PropOp44
 70
     1
102
RTVSPost2010Prop45
280
     0
102
RTVSPost2010PropOp45
 70
     1
102
RTVSPost2010Prop46
 90
       50
102
RTVSPost2010PropOp46
 70
     1
102
RTVSPost2010Prop47
 90
       50
102
RTVSPost2010PropOp47
 70
     1
102
RTVSPost2010Prop48
 90
       50
102
RTVSPost2010PropOp48
 70
     1
102
RTVSPost2010Prop49
280
     0
102
RTVSPost2010PropOp49
 70
     1
102
RTVSPost2010Prop50
 90
       50
102
RTVSPost2010PropOp50
 70
     1
102
RTVSPost2010Prop51ColorIndex
 90
      256
102
RTVSPost2010Prop51ColorRGB
 90
-16777216
102
RTVSPost2010PropOp51
 70
     0
102
RTVSPost2010Prop52
140
1.0
102
RTVSPost2010PropOp52
 70
     0
102
RTVSPost2010Prop53
 90
        2
102
RTVSPost2010PropOp53
 70
     1
102
RTVSPost2010Prop54
  1
strokes_ogs.tif
102
RTVSPost2010PropOp54
 70
     1
102
RTVSPost2010Prop55
280
     0
102
RTVSPost2010PropOp55
 70
     1
102
RTVSPost2010Prop56
140
1.0
102
RTVSPost2010PropOp56
 70
     1
102
RTVSPost2010Prop57
140
1.0
102
RTVSPost2010PropOp57
 70
     1
  0
XRECORD
  5
3CC
102
{ACAD_REACTORS
330
3CB
102
}
330
3CB
100
AcDbXrecord
280
     1
102
RTVSPropertyOp0
 70
     1
102
RTVSPropertyOp1
 70
     1
102
RTVSPropertyOp2
 70
     1
102
RTVSPropertyOp3
 70
     1
102
RTVSPropertyOp4
 70
     1
102
RTVSPropertyOp5
 70
     1
102
RTVSPropertyOp6
 70
     1
102
RTVSPropertyOp7
 70
     1
102
RTVSPropertyOp8
 70
     1
102
RTVSPropertyOp9
 70
     1
102
RTVSPropertyOp10
 70
     1
102
RTVSPropertyOp11
 70
     1
102
RTVSPropertyOp12
 70
     1
102
RTVSPropertyOp13
 70
     1
102
RTVSPropertyOp14
 70
     1
102
RTVSPropertyOp15
 70
     1
102
RTVSPropertyOp16
 70
     1
102
RTVSPropertyOp17
 70
     1
102
RTVSPropertyOp18
 70
     1
102
RTVSPropertyOp19
 70
     1
102
RTVSPropertyOp20
 70
     1
102
RTVSPropertyOp21
 70
     1
102
RTVSPropertyOp22
 70
     1
102
RTVSPropertyOp23
 70
     1
102
RTVSPropertyOp24
 70
     1
102
RTVSPropertyOp25
 70
     1
102
RTVSPropertyOp26
 70
     1
102
RTVSPropertyOp27
 70
     1
102
RTVSPropertyOp28
 70
     1
102
RTVSPropertyOp29
 70
     1
102
RTVSPropertyOp30
 70
     1
102
RTVSPropertyOp31
 70
     1
102
RTVSPropertyOp32
 70
     1
102
RTVSPropertyOp33
 70
     1
102
RTVSPropertyOp34
 70
     1
102
RTVSPropertyOp35
 70
     1
102
RTVSPropertyOp36
 70
     1
102
RTVSPropertyOp37
 70
     1
102
RTVSPropertyOp38
 70
     1
102
RTVSPropertyOp39
 70
     1
102
RTVSPropertyOp40
 70
     1
102
RTVSPropertyOp41
 70
     1
102
RTVSPropertyOp42
 70
     1
102
RTVSPropertyOp43
 70
     1
102
RTVSPropertyOp44
 70
     1
102
RTVSPropertyOp45
 70
     1
102
RTVSPropertyOp46
 70
     1
102
RTVSPropertyOp47
 70
     1
102
RTVSPropertyOp48
 70
     1
102
RTVSPropertyOp49
 70
     1
102
RTVSPropertyOp50
 70
     1
102
RTVSPropertyOp51
 70
     0
102
RTVSPropertyOp52
 70
     0
102
RTVSPropertyOp53
 70
     1
102
RTVSPropertyOp54
 70
     1
102
RTVSPropertyOp55
 70
     1
102
RTVSPropertyOp56
 70
     1
102
RTVSPropertyOp57
 70
     1
102
RTVSPost2010Prop28
280
     0
102
RTVSPost2010PropOp28
 70
     1
102
RTVSPost2010Prop29
280
     1
102
RTVSPost2010PropOp29
 70
     1
102
RTVSPost2010Prop30
280
     1
102
RTVSPost2010PropOp30
 70
     1
102
RTVSPost2010Prop31
280
     0
102
RTVSPost2010PropOp31
 70
     1
102
RTVSPost2010Prop32
280
     0
102
RTVSPost2010PropOp32
 70
     1
102
RTVSPost2010Prop33
280
     0
102
RTVSPost2010PropOp33
 70
     1
102
RTVSPost2010Prop34
280
     0
102
RTVSPost2010PropOp34
 70
     1
102
RTVSPost2010Prop35
280
     0
102
RTVSPost2010PropOp35
 70
     1
102
RTVSPost2010Prop36
280
     0
102
RTVSPost2010PropOp36
 70
     1
102
RTVSPost2010Prop37
 90
       50
102
RTVSPost2010PropOp37
 70
     1
102
RTVSPost2010Prop38
140
0.0
102
RTVSPost2010PropOp38
 70
     1
102
RTVSPost2010Prop39
140
1.0
102
RTVSPost2010PropOp39
 70
     1
102
RTVSPost2010Prop40
 90
        0
102
RTVSPost2010PropOp40
 70
     1
102
RTVSPost2010Prop41ColorIndex
 90
       18
102
RTVSPost2010Prop41ColorRGB
 90
        0
102
RTVSPost2010PropOp41
 70
     1
102
RTVSPost2010Prop42
 90
       50
102
RTVSPost2010PropOp42
 70
     1
102
RTVSPost2010Prop43
 90
        3
102
RTVSPost2010PropOp43
 70
     1
102
RTVSPost2010Prop44ColorIndex
 90
        5
102
RTVSPost2010Prop44ColorRGB
 90
      255
102
RTVSPost2010PropOp44
 70
     1
102
RTVSPost2010Prop45
280
     0
102
RTVSPost2010PropOp45
 70
     1
102
RTVSPost2010Prop46
 90
       50
102
RTVSPost2010PropOp46
 70
     1
102
RTVSPost2010Prop47
 90
       50
102
RTVSPost2010PropOp47
 70
     1
102
RTVSPost2010Prop48
 90
       50
102
RTVSPost2010PropOp48
 70
     1
102
RTVSPost2010Prop49
280
     0
102
RTVSPost2010PropOp49
 70
     1
102
RTVSPost2010Prop50
 90
       50
102
RTVSPost2010PropOp50
 70
     1
102
RTVSPost2010Prop51ColorIndex
 90
      256
102
RTVSPost2010Prop51ColorRGB
 90
-16777216
102
RTVSPost2010PropOp51
 70
     0
102
RTVSPost2010Prop52
140
1.0
102
RTVSPost2010PropOp52
 70
     0
102
RTVSPost2010Prop53
 90
        2
102
RTVSPost2010PropOp53
 70
     1
102
RTVSPost2010Prop54
  1
strokes_ogs.tif
102
RTVSPost2010PropOp54
 70
     1
102
RTVSPost2010Prop55
280
     0
102
RTVSPost2010PropOp55
 70
     1
102
RTVSPost2010Prop56
140
1.0
102
RTVSPost2010PropOp56
 70
     1
102
RTVSPost2010Prop57
140
1.0
102
RTVSPost2010PropOp57
 70
     1
  0
XRECORD
  5
3BE
102
{ACAD_REACTORS
330
3BD
102
}
330
3BD
100
AcDbXrecord
280
     1
102
RTVSPropertyOp0
 70
     1
102
RTVSPropertyOp1
 70
     1
102
RTVSPropertyOp2
 70
     1
102
RTVSPropertyOp3
 70
     1
102
RTVSPropertyOp4
 70
     1
102
RTVSPropertyOp5
 70
     1
102
RTVSPropertyOp6
 70
     1
102
RTVSPropertyOp7
 70
     1
102
RTVSPropertyOp8
 70
     1
102
RTVSPropertyOp9
 70
     1
102
RTVSPropertyOp10
 70
     1
102
RTVSPropertyOp11
 70
     1
102
RTVSPropertyOp12
 70
     1
102
RTVSPropertyOp13
 70
     1
102
RTVSPropertyOp14
 70
     1
102
RTVSPropertyOp15
 70
     1
102
RTVSPropertyOp16
 70
     1
102
RTVSPropertyOp17
 70
     1
102
RTVSPropertyOp18
 70
     1
102
RTVSPropertyOp19
 70
     1
102
RTVSPropertyOp20
 70
     1
102
RTVSPropertyOp21
 70
     1
102
RTVSPropertyOp22
 70
     1
102
RTVSPropertyOp23
 70
     1
102
RTVSPropertyOp24
 70
     1
102
RTVSPropertyOp25
 70
     1
102
RTVSPropertyOp26
 70
     1
102
RTVSPropertyOp27
 70
     1
102
RTVSPropertyOp28
 70
     1
102
RTVSPropertyOp29
 70
     1
102
RTVSPropertyOp30
 70
     1
102
RTVSPropertyOp31
 70
     1
102
RTVSPropertyOp32
 70
     1
102
RTVSPropertyOp33
 70
     1
102
RTVSPropertyOp34
 70
     1
102
RTVSPropertyOp35
 70
     1
102
RTVSPropertyOp36
 70
     1
102
RTVSPropertyOp37
 70
     1
102
RTVSPropertyOp38
 70
     1
102
RTVSPropertyOp39
 70
     1
102
RTVSPropertyOp40
 70
     1
102
RTVSPropertyOp41
 70
     1
102
RTVSPropertyOp42
 70
     1
102
RTVSPropertyOp43
 70
     1
102
RTVSPropertyOp44
 70
     1
102
RTVSPropertyOp45
 70
     1
102
RTVSPropertyOp46
 70
     1
102
RTVSPropertyOp47
 70
     1
102
RTVSPropertyOp48
 70
     1
102
RTVSPropertyOp49
 70
     1
102
RTVSPropertyOp50
 70
     1
102
RTVSPropertyOp51
 70
     0
102
RTVSPropertyOp52
 70
     0
102
RTVSPropertyOp53
 70
     1
102
RTVSPropertyOp54
 70
     1
102
RTVSPropertyOp55
 70
     1
102
RTVSPropertyOp56
 70
     1
102
RTVSPropertyOp57
 70
     1
102
RTVSPost2010Prop28
280
     0
102
RTVSPost2010PropOp28
 70
     1
102
RTVSPost2010Prop29
280
     1
102
RTVSPost2010PropOp29
 70
     1
102
RTVSPost2010Prop30
280
     1
102
RTVSPost2010PropOp30
 70
     1
102
RTVSPost2010Prop31
280
     0
102
RTVSPost2010PropOp31
 70
     1
102
RTVSPost2010Prop32
280
     0
102
RTVSPost2010PropOp32
 70
     1
102
RTVSPost2010Prop33
280
     0
102
RTVSPost2010PropOp33
 70
     1
102
RTVSPost2010Prop34
280
     0
102
RTVSPost2010PropOp34
 70
     1
102
RTVSPost2010Prop35
280
     0
102
RTVSPost2010PropOp35
 70
     1
102
RTVSPost2010Prop36
280
     0
102
RTVSPost2010PropOp36
 70
     1
102
RTVSPost2010Prop37
 90
       50
102
RTVSPost2010PropOp37
 70
     1
102
RTVSPost2010Prop38
140
0.0
102
RTVSPost2010PropOp38
 70
     1
102
RTVSPost2010Prop39
140
1.0
102
RTVSPost2010PropOp39
 70
     1
102
RTVSPost2010Prop40
 90
        0
102
RTVSPost2010PropOp40
 70
     1
102
RTVSPost2010Prop41ColorIndex
 90
       18
102
RTVSPost2010Prop41ColorRGB
 90
        0
102
RTVSPost2010PropOp41
 70
     1
102
RTVSPost2010Prop42
 90
       50
102
RTVSPost2010PropOp42
 70
     1
102
RTVSPost2010Prop43
 90
        3
102
RTVSPost2010PropOp43
 70
     1
102
RTVSPost2010Prop44ColorIndex
 90
        5
102
RTVSPost2010Prop44ColorRGB
 90
      255
102
RTVSPost2010PropOp44
 70
     1
102
RTVSPost2010Prop45
280
     0
102
RTVSPost2010PropOp45
 70
     1
102
RTVSPost2010Prop46
 90
       50
102
RTVSPost2010PropOp46
 70
     1
102
RTVSPost2010Prop47
 90
       50
102
RTVSPost2010PropOp47
 70
     1
102
RTVSPost2010Prop48
 90
       50
102
RTVSPost2010PropOp48
 70
     1
102
RTVSPost2010Prop49
280
     0
102
RTVSPost2010PropOp49
 70
     1
102
RTVSPost2010Prop50
 90
       50
102
RTVSPost2010PropOp50
 70
     1
102
RTVSPost2010Prop51ColorIndex
 90
      256
102
RTVSPost2010Prop51ColorRGB
 90
-16777216
102
RTVSPost2010PropOp51
 70
     0
102
RTVSPost2010Prop52
140
1.0
102
RTVSPost2010PropOp52
 70
     0
102
RTVSPost2010Prop53
 90
        2
102
RTVSPost2010PropOp53
 70
     1
102
RTVSPost2010Prop54
  1
strokes_ogs.tif
102
RTVSPost2010PropOp54
 70
     1
102
RTVSPost2010Prop55
280
     0
102
RTVSPost2010PropOp55
 70
     1
102
RTVSPost2010Prop56
140
1.0
102
RTVSPost2010PropOp56
 70
     1
102
RTVSPost2010Prop57
140
1.0
102
RTVSPost2010PropOp57
 70
     1
  0
XRECORD
  5
3DE
102
{ACAD_REACTORS
330
3DD
102
}
330
3DD
100
AcDbXrecord
280
     1
102
RTVSPropertyOp0
 70
     1
102
RTVSPropertyOp1
 70
     1
102
RTVSPropertyOp2
 70
     1
102
RTVSPropertyOp3
 70
     1
102
RTVSPropertyOp4
 70
     1
102
RTVSPropertyOp5
 70
     1
102
RTVSPropertyOp6
 70
     1
102
RTVSPropertyOp7
 70
     1
102
RTVSPropertyOp8
 70
     1
102
RTVSPropertyOp9
 70
     1
102
RTVSPropertyOp10
 70
     1
102
RTVSPropertyOp11
 70
     1
102
RTVSPropertyOp12
 70
     1
102
RTVSPropertyOp13
 70
     1
102
RTVSPropertyOp14
 70
     1
102
RTVSPropertyOp15
 70
     1
102
RTVSPropertyOp16
 70
     1
102
RTVSPropertyOp17
 70
     1
102
RTVSPropertyOp18
 70
     1
102
RTVSPropertyOp19
 70
     1
102
RTVSPropertyOp20
 70
     1
102
RTVSPropertyOp21
 70
     1
102
RTVSPropertyOp22
 70
     1
102
RTVSPropertyOp23
 70
     1
102
RTVSPropertyOp24
 70
     1
102
RTVSPropertyOp25
 70
     1
102
RTVSPropertyOp26
 70
     1
102
RTVSPropertyOp27
 70
     1
102
RTVSPropertyOp28
 70
     1
102
RTVSPropertyOp29
 70
     1
102
RTVSPropertyOp30
 70
     1
102
RTVSPropertyOp31
 70
     1
102
RTVSPropertyOp32
 70
     1
102
RTVSPropertyOp33
 70
     1
102
RTVSPropertyOp34
 70
     1
102
RTVSPropertyOp35
 70
     1
102
RTVSPropertyOp36
 70
     1
102
RTVSPropertyOp37
 70
     1
102
RTVSPropertyOp38
 70
     1
102
RTVSPropertyOp39
 70
     1
102
RTVSPropertyOp40
 70
     1
102
RTVSPropertyOp41
 70
     1
102
RTVSPropertyOp42
 70
     1
102
RTVSPropertyOp43
 70
     1
102
RTVSPropertyOp44
 70
     1
102
RTVSPropertyOp45
 70
     1
102
RTVSPropertyOp46
 70
     1
102
RTVSPropertyOp47
 70
     1
102
RTVSPropertyOp48
 70
     1
102
RTVSPropertyOp49
 70
     1
102
RTVSPropertyOp50
 70
     1
102
RTVSPropertyOp51
 70
     0
102
RTVSPropertyOp52
 70
     0
102
RTVSPropertyOp53
 70
     1
102
RTVSPropertyOp54
 70
     1
102
RTVSPropertyOp55
 70
     1
102
RTVSPropertyOp56
 70
     1
102
RTVSPropertyOp57
 70
     1
102
RTVSPost2010Prop28
280
     0
102
RTVSPost2010PropOp28
 70
     1
102
RTVSPost2010Prop29
280
     1
102
RTVSPost2010PropOp29
 70
     1
102
RTVSPost2010Prop30
280
     1
102
RTVSPost2010PropOp30
 70
     1
102
RTVSPost2010Prop31
280
     0
102
RTVSPost2010PropOp31
 70
     1
102
RTVSPost2010Prop32
280
     0
102
RTVSPost2010PropOp32
 70
     1
102
RTVSPost2010Prop33
280
     0
102
RTVSPost2010PropOp33
 70
     1
102
RTVSPost2010Prop34
280
     0
102
RTVSPost2010PropOp34
 70
     1
102
RTVSPost2010Prop35
280
     0
102
RTVSPost2010PropOp35
 70
     1
102
RTVSPost2010Prop36
280
     0
102
RTVSPost2010PropOp36
 70
     1
102
RTVSPost2010Prop37
 90
       50
102
RTVSPost2010PropOp37
 70
     1
102
RTVSPost2010Prop38
140
0.0
102
RTVSPost2010PropOp38
 70
     1
102
RTVSPost2010Prop39
140
1.0
102
RTVSPost2010PropOp39
 70
     1
102
RTVSPost2010Prop40
 90
        0
102
RTVSPost2010PropOp40
 70
     1
102
RTVSPost2010Prop41ColorIndex
 90
       18
102
RTVSPost2010Prop41ColorRGB
 90
        0
102
RTVSPost2010PropOp41
 70
     1
102
RTVSPost2010Prop42
 90
       50
102
RTVSPost2010PropOp42
 70
     1
102
RTVSPost2010Prop43
 90
        3
102
RTVSPost2010PropOp43
 70
     1
102
RTVSPost2010Prop44ColorIndex
 90
        5
102
RTVSPost2010Prop44ColorRGB
 90
      255
102
RTVSPost2010PropOp44
 70
     1
102
RTVSPost2010Prop45
280
     0
102
RTVSPost2010PropOp45
 70
     1
102
RTVSPost2010Prop46
 90
       50
102
RTVSPost2010PropOp46
 70
     1
102
RTVSPost2010Prop47
 90
       50
102
RTVSPost2010PropOp47
 70
     1
102
RTVSPost2010Prop48
 90
       50
102
RTVSPost2010PropOp48
 70
     1
102
RTVSPost2010Prop49
280
     0
102
RTVSPost2010PropOp49
 70
     1
102
RTVSPost2010Prop50
 90
       50
102
RTVSPost2010PropOp50
 70
     1
102
RTVSPost2010Prop51ColorIndex
 90
      256
102
RTVSPost2010Prop51ColorRGB
 90
-16777216
102
RTVSPost2010PropOp51
 70
     0
102
RTVSPost2010Prop52
140
1.0
102
RTVSPost2010PropOp52
 70
     0
102
RTVSPost2010Prop53
 90
        2
102
RTVSPost2010PropOp53
 70
     1
102
RTVSPost2010Prop54
  1
strokes_ogs.tif
102
RTVSPost2010PropOp54
 70
     1
102
RTVSPost2010Prop55
280
     0
102
RTVSPost2010PropOp55
 70
     1
102
RTVSPost2010Prop56
140
1.0
102
RTVSPost2010PropOp56
 70
     1
102
RTVSPost2010Prop57
140
1.0
102
RTVSPost2010PropOp57
 70
     1
  0
ENDSEC
  0
EOF
