  0
SECTION
  2
HEADER
  9
$ACADVER
  1
AC1018
  9
$ACADMAINTVER
 70
     0
  9
$DWGCODEPAGE
  3
ANSI_932
  9
$INSBASE
 10
0.0
 20
0.0
 30
0.0
  9
$EXTMIN
 10
-1260.0
 20
-891.0
 30
0.0
  9
$EXTMAX
 10
1260.0
 20
891.0
 30
0.0
  9
$LIMMIN
 10
-1260.0
 20
-891.0
  9
$LIMMAX
 10
1260.0
 20
891.0
  9
$ORTHOMODE
 70
     0
  9
$REGENMODE
 70
     1
  9
$FILLMODE
 70
     1
  9
$QTEXTMODE
 70
     0
  9
$MIRRTEXT
 70
     1
  9
$LTSCALE
 40
6.0
  9
$ATTMODE
 70
     1
  9
$TEXTSIZE
 40
2.5
  9
$TRACEWID
 40
1.0
  9
$TEXTSTYLE
  7
Standard
  9
$CLAYER
  8
0
  9
$CELTYPE
  6
ByLayer
  9
$CECOLOR
 62
   256
  9
$CELTSCALE
 40
1.0
  9
$DISPSILH
 70
     0
  9
$DIMSCALE
 40
1.0
  9
$DIMASZ
 40
2.5
  9
$DIMEXO
 40
0.625
  9
$DIMDLI
 40
3.75
  9
$DIMRND
 40
0.0
  9
$DIMDLE
 40
0.0
  9
$DIMEXE
 40
1.25
  9
$DIMTP
 40
0.0
  9
$DIMTM
 40
0.0
  9
$DIMTXT
 40
2.5
  9
$DIMCEN
 40
2.5
  9
$DIMTSZ
 40
0.0
  9
$DIMTOL
 70
     0
  9
$DIMLIM
 70
     0
  9
$DIMTIH
 70
     0
  9
$DIMTOH
 70
     0
  9
$DIMSE1
 70
     0
  9
$DIMSE2
 70
     0
  9
$DIMTAD
 70
     1
  9
$DIMZIN
 70
     8
  9
$DIMBLK
  1

  9
$DIMASO
 70
     1
  9
$DIMSHO
 70
     1
  9
$DIMPOST
  1

  9
$DIMAPOST
  1

  9
$DIMALT
 70
     0
  9
$DIMALTD
 70
     3
  9
$DIMALTF
 40
0.03937007874016
  9
$DIMLFAC
 40
1.0
  9
$DIMTOFL
 70
     1
  9
$DIMTVP
 40
0.0
  9
$DIMTIX
 70
     0
  9
$DIMSOXD
 70
     0
  9
$DIMSAH
 70
     0
  9
$DIMBLK1
  1

  9
$DIMBLK2
  1

  9
$DIMSTYLE
  2
ISO-25
  9
$DIMCLRD
 70
     0
  9
$DIMCLRE
 70
     0
  9
$DIMCLRT
 70
     0
  9
$DIMTFAC
 40
1.0
  9
$DIMGAP
 40
0.625
  9
$DIMJUST
 70
     0
  9
$DIMSD1
 70
     0
  9
$DIMSD2
 70
     0
  9
$DIMTOLJ
 70
     0
  9
$DIMTZIN
 70
     8
  9
$DIMALTZ
 70
     0
  9
$DIMALTTZ
 70
     0
  9
$DIMUPT
 70
     0
  9
$DIMDEC
 70
     2
  9
$DIMTDEC
 70
     2
  9
$DIMALTU
 70
     2
  9
$DIMALTTD
 70
     3
  9
$DIMTXSTY
  7
Standard
  9
$DIMAUNIT
 70
     0
  9
$DIMADEC
 70
     0
  9
$DIMALTRND
 40
0.0
  9
$DIMAZIN
 70
     0
  9
$DIMDSEP
 70
    44
  9
$DIMATFIT
 70
     3
  9
$DIMFRAC
 70
     0
  9
$DIMLDRBLK
  1

  9
$DIMLUNIT
 70
     2
  9
$DIMLWD
 70
    -2
  9
$DIMLWE
 70
    -2
  9
$DIMTMOVE
 70
     0
  9
$LUNITS
 70
     2
  9
$LUPREC
 70
     4
  9
$SKETCHINC
 40
1.0
  9
$FILLETRAD
 40
10.0
  9
$AUNITS
 70
     0
  9
$AUPREC
 70
     0
  9
$MENU
  1
.
  9
$ELEVATION
 40
0.0
  9
$PELEVATION
 40
0.0
  9
$THICKNESS
 40
0.0
  9
$LIMCHECK
 70
     0
  9
$CHAMFERA
 40
0.0
  9
$CHAMFERB
 40
0.0
  9
$CHAMFERC
 40
0.0
  9
$CHAMFERD
 40
0.0
  9
$SKPOLY
 70
     0
  9
$TDCREATE
 40
2459489.482575706
  9
$TDUCREATE
 40
2459489.107575706
  9
$TDUPDATE
 40
2459489.482575845
  9
$TDUUPDATE
 40
2459489.107575845
  9
$TDINDWG
 40
0.0000000116
  9
$TDUSRTIMER
 40
0.0000000116
  9
$USRTIMER
 70
     1
  9
$ANGBASE
 50
0.0
  9
$ANGDIR
 70
     0
  9
$PDMODE
 70
     0
  9
$PDSIZE
 40
0.0
  9
$PLINEWID
 40
0.0
  9
$SPLFRAME
 70
     0
  9
$SPLINETYPE
 70
     6
  9
$SPLINESEGS
 70
     8
  9
$HANDSEED
  5
402
  9
$SURFTAB1
 70
     6
  9
$SURFTAB2
 70
     6
  9
$SURFTYPE
 70
     6
  9
$SURFU
 70
     6
  9
$SURFV
 70
     6
  9
$UCSBASE
  2

  9
$UCSNAME
  2

  9
$UCSORG
 10
0.0
 20
0.0
 30
0.0
  9
$UCSXDIR
 10
1.0
 20
0.0
 30
0.0
  9
$UCSYDIR
 10
0.0
 20
1.0
 30
0.0
  9
$UCSORTHOREF
  2

  9
$UCSORTHOVIEW
 70
     0
  9
$UCSORGTOP
 10
0.0
 20
0.0
 30
0.0
  9
$UCSORGBOTTOM
 10
0.0
 20
0.0
 30
0.0
  9
$UCSORGLEFT
 10
0.0
 20
0.0
 30
0.0
  9
$UCSORGRIGHT
 10
0.0
 20
0.0
 30
0.0
  9
$UCSORGFRONT
 10
0.0
 20
0.0
 30
0.0
  9
$UCSORGBACK
 10
0.0
 20
0.0
 30
0.0
  9
$PUCSBASE
  2

  9
$PUCSNAME
  2

  9
$PUCSORG
 10
0.0
 20
0.0
 30
0.0
  9
$PUCSXDIR
 10
1.0
 20
0.0
 30
0.0
  9
$PUCSYDIR
 10
0.0
 20
1.0
 30
0.0
  9
$PUCSORTHOREF
  2

  9
$PUCSORTHOVIEW
 70
     0
  9
$PUCSORGTOP
 10
0.0
 20
0.0
 30
0.0
  9
$PUCSORGBOTTOM
 10
0.0
 20
0.0
 30
0.0
  9
$PUCSORGLEFT
 10
0.0
 20
0.0
 30
0.0
  9
$PUCSORGRIGHT
 10
0.0
 20
0.0
 30
0.0
  9
$PUCSORGFRONT
 10
0.0
 20
0.0
 30
0.0
  9
$PUCSORGBACK
 10
0.0
 20
0.0
 30
0.0
  9
$USERI1
 70
     0
  9
$USERI2
 70
     0
  9
$USERI3
 70
     0
  9
$USERI4
 70
     0
  9
$USERI5
 70
     0
  9
$USERR1
 40
0.0
  9
$USERR2
 40
0.0
  9
$USERR3
 40
0.0
  9
$USERR4
 40
0.0
  9
$USERR5
 40
0.0
  9
$WORLDVIEW
 70
     1
  9
$SHADEDGE
 70
     3
  9
$SHADEDIF
 70
    70
  9
$TILEMODE
 70
     1
  9
$MAXACTVP
 70
    64
  9
$PINSBASE
 10
0.0
 20
0.0
 30
0.0
  9
$PLIMCHECK
 70
     0
  9
$PEXTMIN
 10
1.000000000000000E+20
 20
1.000000000000000E+20
 30
1.000000000000000E+20
  9
$PEXTMAX
 10
-1.000000000000000E+20
 20
-1.000000000000000E+20
 30
-1.000000000000000E+20
  9
$PLIMMIN
 10
0.0
 20
0.0
  9
$PLIMMAX
 10
420.0
 20
297.0
  9
$UNITMODE
 70
     0
  9
$VISRETAIN
 70
     1
  9
$PLINEGEN
 70
     0
  9
$PSLTSCALE
 70
     1
  9
$TREEDEPTH
 70
  3020
  9
$CMLSTYLE
  2
Standard
  9
$CMLJUST
 70
     0
  9
$CMLSCALE
 40
20.0
  9
$PROXYGRAPHICS
 70
     1
  9
$MEASUREMENT
 70
     1
  9
$CELWEIGHT
370
    -1
  9
$ENDCAPS
280
     0
  9
$JOINSTYLE
280
     0
  9
$LWDISPLAY
290
     0
  9
$INSUNITS
 70
     4
  9
$HYPERLINKBASE
  1

  9
$STYLESHEET
  1

  9
$XEDIT
290
     1
  9
$CEPSNTYPE
380
     0
  9
$PSTYLEMODE
290
     1
  9
$FINGERPRINTGUID
  2
{5EF5BE10-BE3C-47B9-AA9C-84B784474AA2}
  9
$VERSIONGUID
  2
{FAEB1C32-E019-11D5-929B-00C0DF256EC4}
  9
$EXTNAMES
290
     1
  9
$PSVPSCALE
 40
0.0
  9
$OLESTARTUP
290
     0
  9
$SORTENTS
280
   127
  9
$INDEXCTL
280
     0
  9
$HIDETEXT
280
     1
  9
$XCLIPFRAME
290
     0
  9
$HALOGAP
280
     0
  9
$OBSCOLOR
 70
   257
  9
$OBSLTYPE
280
     0
  9
$INTERSECTIONDISPLAY
280
     0
  9
$INTERSECTIONCOLOR
 70
   257
  9
$DIMASSOC
280
     2
  9
$PROJECTNAME
  1

  0
ENDSEC
  0
SECTION
  2
CLASSES
  0
CLASS
  1
ACDBDICTIONARYWDFLT
  2
AcDbDictionaryWithDefault
  3
ObjectDBX Classes
 90
        0
 91
        4
280
     0
281
     0
  0
CLASS
  1
VISUALSTYLE
  2
AcDbVisualStyle
  3
ObjectDBX Classes
 90
     4095
 91
        4
280
     0
281
     0
  0
CLASS
  1
MATERIAL
  2
AcDbMaterial
  3
ObjectDBX Classes
 90
     1153
 91
        4
280
     0
281
     0
  0
CLASS
  1
SCALE
  2
AcDbScale
  3
ObjectDBX Classes
 90
     1153
 91
        4
280
     0
281
     0
  0
CLASS
  1
TABLESTYLE
  2
AcDbTableStyle
  3
ObjectDBX Classes
 90
     4095
 91
        4
280
     0
281
     0
  0
CLASS
  1
MLEADERSTYLE
  2
AcDbMLeaderStyle
  3
ACDB_MLEADERSTYLE_CLASS
 90
     4095
 91
        4
280
     0
281
     0
  0
CLASS
  1
SUN
  2
AcDbSun
  3
SCENEOE
 90
     1153
 91
        4
280
     0
281
     0
  0
CLASS
  1
DICTIONARYVAR
  2
AcDbDictionaryVar
  3
ObjectDBX Classes
 90
        0
 91
        4
280
     0
281
     0
  0
CLASS
  1
CELLSTYLEMAP
  2
AcDbCellStyleMap
  3
ObjectDBX Classes
 90
     1152
 91
        4
280
     0
281
     0
  0
ENDSEC
  0
SECTION
  2
TABLES
  0
TABLE
  2
VPORT
  5
8
102
{ACAD_XDICTIONARY
360
3B9
102
}
330
0
100
AcDbSymbolTable
 70
     1
  0
VPORT
  5
29
330
8
100
AcDbSymbolTableRecord
100
AcDbViewportTableRecord
  2
*Active
 70
     0
 10
0.0
 20
0.0
 11
1.0
 21
1.0
 12
0.0
 22
0.0
 13
0.0
 23
0.0
 14
10.0
 24
10.0
 15
10.0
 25
10.0
 16
0.0
 26
0.0
 36
1.0
 17
0.0
 27
0.0
 37
0.0
 40
1960.2
 41
1.414141414141414
 42
50.0
 43
0.0
 44
0.0
 50
0.0
 51
0.0
 71
     0
 72
 10000
 73
     1
 74
     3
 75
     0
 76
     0
 77
     0
 78
     0
281
     0
 65
     1
110
0.0
120
0.0
130
0.0
111
1.0
121
0.0
131
0.0
112
0.0
122
1.0
132
0.0
 79
     0
146
0.0
  0
ENDTAB
  0
TABLE
  2
LTYPE
  5
5
330
0
100
AcDbSymbolTable
 70
     4
  0
LTYPE
  5
14
330
5
100
AcDbSymbolTableRecord
100
AcDbLinetypeTableRecord
  2
ByBlock
 70
     0
  3

 72
    65
 73
     0
 40
0.0
  0
LTYPE
  5
15
330
5
100
AcDbSymbolTableRecord
100
AcDbLinetypeTableRecord
  2
ByLayer
 70
     0
  3

 72
    65
 73
     0
 40
0.0
  0
LTYPE
  5
16
330
5
100
AcDbSymbolTableRecord
100
AcDbLinetypeTableRecord
  2
Continuous
 70
     0
  3
Solid line
 72
    65
 73
     0
 40
0.0
  0
LTYPE
  5
6F
330
5
100
AcDbSymbolTableRecord
100
AcDbLinetypeTableRecord
  2
JWW_CENTER1
 70
     0
  3
-----  --  ----------  --  -----
 72
    65
 73
     4
 40
6.773333333333333
 49
4.233333333333333
 74
     0
 49
-0.8466666666666667
 74
     0
 49
0.8466666666666667
 74
     0
 49
-0.8466666666666667
 74
     0
  0
LTYPE
  5
70
330
5
100
AcDbSymbolTableRecord
100
AcDbLinetypeTableRecord
  2
JWW_DASHED3
 70
     0
  3
---  ------  ------  ------  ---
 72
    65
 73
     2
 40
3.386666666666667
 49
2.54
 74
     0
 49
-0.8466666666666667
 74
     0
  0
LTYPE
  5
71
330
5
100
AcDbSymbolTableRecord
100
AcDbLinetypeTableRecord
  2
JWW_CENTER2
 70
     0
  3
-------------  --  -------------
 72
    65
 73
     4
 40
13.54666666666667
 49
11.00666666666667
 74
     0
 49
-0.8466666666666667
 74
     0
 49
0.8466666666666667
 74
     0
 49
-0.8466666666666667
 74
     0
  0
ENDTAB
  0
TABLE
  2
LAYER
  5
2
330
0
100
AcDbSymbolTable
 70
     7
  0
LAYER
  5
10
330
2
100
AcDbSymbolTableRecord
100
AcDbLayerTableRecord
  2
0
 70
     0
 62
     7
  6
Continuous
370
    -3
390
F
  0
LAYER
  5
72
330
2
100
AcDbSymbolTableRecord
100
AcDbLayerTableRecord
  2
F-5ﾚｲﾔ
 70
     0
 62
     7
  6
Continuous
370
    -3
390
F
  0
LAYER
  5
73
330
2
100
AcDbSymbolTableRecord
100
AcDbLayerTableRecord
  2
A-5
 70
     0
 62
     7
  6
Continuous
370
    -3
390
F
  0
LAYER
  5
74
330
2
100
AcDbSymbolTableRecord
100
AcDbLayerTableRecord
  2
A-1
 70
     0
 62
     7
  6
Continuous
370
    -3
390
F
  0
LAYER
  5
75
330
2
100
AcDbSymbolTableRecord
100
AcDbLayerTableRecord
  2
A-2
 70
     0
 62
     7
  6
Continuous
370
    -3
390
F
  0
LAYER
  5
76
330
2
100
AcDbSymbolTableRecord
100
AcDbLayerTableRecord
  2
A-9
 70
     0
 62
     7
  6
Continuous
370
    -3
390
F
  0
LAYER
  5
77
330
2
100
AcDbSymbolTableRecord
100
AcDbLayerTableRecord
  2
A-4
 70
     0
 62
     7
  6
Continuous
370
    -3
390
F
  0
ENDTAB
  0
TABLE
  2
STYLE
  5
3
330
0
100
AcDbSymbolTable
 70
     2
  0
STYLE
  5
11
330
3
100
AcDbSymbolTableRecord
100
AcDbTextStyleTableRecord
  2
Standard
 70
     0
 40
0.0
 41
1.0
 50
0.0
 71
     0
 42
2.5
  3
txt
  4

  0
STYLE
  5
6E
330
3
100
AcDbSymbolTableRecord
100
AcDbTextStyleTableRecord
  2
ＭＳ ゴシック
 70
     0
 40
1.0
 41
1.0
 50
0.0
 71
     0
 42
2.5
  3

  4

1001
ACAD
1000
MS Gothic
1071
    32817
  0
ENDTAB
  0
TABLE
  2
VIEW
  5
6
330
0
100
AcDbSymbolTable
 70
     0
  0
ENDTAB
  0
TABLE
  2
UCS
  5
7
330
0
100
AcDbSymbolTable
 70
     0
  0
ENDTAB
  0
TABLE
  2
APPID
  5
9
330
0
100
AcDbSymbolTable
 70
     2
  0
APPID
  5
12
330
9
100
AcDbSymbolTableRecord
100
AcDbRegAppTableRecord
  2
ACAD
 70
     0
  0
APPID
  5
3F8
330
9
100
AcDbSymbolTableRecord
100
AcDbRegAppTableRecord
  2
ACAD_MLEADERVER
 70
     0
  0
ENDTAB
  0
TABLE
  2
DIMSTYLE
  5
A
330
0
100
AcDbSymbolTable
 70
     1
100
AcDbDimStyleTable
  0
DIMSTYLE
105
27
330
A
100
AcDbSymbolTableRecord
100
AcDbDimStyleTableRecord
  2
ISO-25
 70
     0
 41
2.5
 42
0.625
 43
3.75
 44
1.25
 73
     0
 74
     0
 77
     1
 78
     8
140
2.5
141
2.5
143
0.03937007874016
147
0.625
171
     3
172
     1
178
     0
271
     2
272
     2
274
     3
278
    44
283
     0
284
     8
340
11
  0
ENDTAB
  0
TABLE
  2
BLOCK_RECORD
  5
1
330
0
100
AcDbSymbolTable
 70
     1
  0
BLOCK_RECORD
  5
1F
330
1
100
AcDbSymbolTableRecord
100
AcDbBlockTableRecord
  2
*Model_Space
340
22
  0
BLOCK_RECORD
  5
1B
330
1
100
AcDbSymbolTableRecord
100
AcDbBlockTableRecord
  2
*Paper_Space
340
1E
  0
BLOCK_RECORD
  5
23
330
1
100
AcDbSymbolTableRecord
100
AcDbBlockTableRecord
  2
*Paper_Space0
340
26
  0
ENDTAB
  0
ENDSEC
  0
SECTION
  2
BLOCKS
  0
BLOCK
  5
20
330
1F
100
AcDbEntity
  8
0
100
AcDbBlockBegin
  2
*Model_Space
 70
     0
 10
0.0
 20
0.0
 30
0.0
  3
*Model_Space
  1

  0
ENDBLK
  5
21
330
1F
100
AcDbEntity
  8
0
100
AcDbBlockEnd
  0
BLOCK
  5
1C
330
1B
100
AcDbEntity
 67
     1
  8
0
100
AcDbBlockBegin
  2
*Paper_Space
 70
     0
 10
0.0
 20
0.0
 30
0.0
  3
*Paper_Space
  1

  0
ENDBLK
  5
1D
330
1B
100
AcDbEntity
 67
     1
  8
0
100
AcDbBlockEnd
  0
BLOCK
  5
24
330
23
100
AcDbEntity
  8
0
100
AcDbBlockBegin
  2
*Paper_Space0
 70
     0
 10
0.0
 20
0.0
 30
0.0
  3
*Paper_Space0
  1

  0
ENDBLK
  5
25
330
23
100
AcDbEntity
  8
0
100
AcDbBlockEnd
  0
ENDSEC
  0
SECTION
  2
ENTITIES
  0
LINE
  5
78
330
1F
100
AcDbEntity
  8
F-5ﾚｲﾔ
  6
Continuous
 62
     2
370
     9
100
AcDbLine
 10
250.7462372650972
 20
-346.7880422231314
 30
0.0
 11
250.7462372650972
 21
-316.7876463194151
 31
0.0
  0
LINE
  5
79
330
1F
100
AcDbEntity
  8
F-5ﾚｲﾔ
  6
Continuous
 62
     2
370
     9
100
AcDbLine
 10
250.7462372650972
 20
-316.7876463194151
 30
0.0
 11
385.7462372650972
 21
-316.7876463194151
 31
0.0
  0
LINE
  5
7A
330
1F
100
AcDbEntity
  8
F-5ﾚｲﾔ
  6
Continuous
 62
     2
370
     9
100
AcDbLine
 10
385.7462372650972
 20
-316.7876463194151
 30
0.0
 11
385.7462372650972
 21
-346.7880422231314
 31
0.0
  0
LINE
  5
7B
330
1F
100
AcDbEntity
  8
F-5ﾚｲﾔ
  6
Continuous
 62
     2
370
     9
100
AcDbLine
 10
385.7462372650972
 20
-346.7880422231314
 30
0.0
 11
250.7462372650972
 21
-346.7880422231314
 31
0.0
  0
TEXT
  5
7C
330
1F
100
AcDbEntity
  8
F-5ﾚｲﾔ
  6
Continuous
 62
     2
370
     9
100
AcDbText
 10
279.2463857289908
 20
-340.4038838616448
 30
0.0
 40
18.288
  1
仕　様
 41
1.083333333333333
  7
ＭＳ ゴシック
100
AcDbText
  0
TEXT
  5
7D
330
1F
100
AcDbEntity
  8
F-5ﾚｲﾔ
  6
Continuous
 62
     2
370
     9
100
AcDbText
 10
347.8273661845439
 20
-477.1556093420079
 30
0.0
 40
18.288
  1
処理：溶融亜鉛めっき
 41
1.1125
  7
ＭＳ ゴシック
100
AcDbText
  0
TEXT
  5
7E
330
1F
100
AcDbEntity
  8
F-5ﾚｲﾔ
  6
Continuous
 62
     2
370
     9
100
AcDbText
 10
347.8273513381545
 20
-444.1549066129117
 30
0.0
 40
18.288
  1
材質：ＳＳ４００
 41
1.109375
  7
ＭＳ ゴシック
100
AcDbText
  0
TEXT
  5
7F
330
1F
100
AcDbEntity
  8
F-5ﾚｲﾔ
  6
Continuous
 62
     3
370
     9
100
AcDbText
 10
312.0008313978042
 20
-652.9231479294235
 30
0.0
 40
22.86
  1
※脱着ピン付
 41
1.083333333333333
  7
ＭＳ ゴシック
100
AcDbText
  0
TEXT
  5
80
330
1F
100
AcDbEntity
  8
F-5ﾚｲﾔ
  6
Continuous
 62
     2
370
     9
100
AcDbText
 10
347.8272177206505
 20
-582.1566980772277
 30
0.0
 40
18.288
  1
処理：樹脂系塗装
 41
1.109375
  7
ＭＳ ゴシック
100
AcDbText
  0
TEXT
  5
81
330
1F
100
AcDbEntity
  8
F-5ﾚｲﾔ
  6
Continuous
 62
     2
370
     9
100
AcDbText
 10
347.8272325670399
 20
-549.1567376675991
 30
0.0
 40
18.288
  1
材質：ＳＳ４００
 41
1.109375
  7
ＭＳ ゴシック
100
AcDbText
  0
TEXT
  5
82
330
1F
100
AcDbEntity
  8
F-5ﾚｲﾔ
  6
Continuous
 62
     2
370
     9
100
AcDbText
 10
312.0009501689187
 20
-516.1566287940773
 30
0.0
 40
18.288
  1
スチール製受枠　Ｌ－３２（二方受四方枠）
 41
1.11875
  7
ＭＳ ゴシック
100
AcDbText
  0
TEXT
  5
83
330
1F
100
AcDbEntity
  8
F-5ﾚｲﾔ
  6
Continuous
 62
     2
370
     9
100
AcDbText
 10
312.0000593855578
 20
-411.1568762338999
 30
0.0
 40
18.288
  1
集水桝用　ＱＳＦ　６４３２
 41
1.115384615384615
  7
ＭＳ ゴシック
100
AcDbText
  0
TEXT
  5
84
330
1F
100
AcDbEntity
  8
F-5ﾚｲﾔ
  6
Continuous
 62
     2
370
     9
100
AcDbText
 10
311.9999406144427
 20
-378.1561735048036
 30
0.0
 40
18.288
  1
スチール製グレーチング　１１０°開閉式　細目プレーンタイプ
 41
1.120689655172414
  7
ＭＳ ゴシック
100
AcDbText
  0
TEXT
  5
85
330
1F
100
AcDbEntity
  8
F-5ﾚｲﾔ
  6
Continuous
 62
     3
370
     9
100
AcDbText
 10
415.7462372650972
 20
-342.5580422231313
 30
0.0
 40
22.86
  1
※適用荷重：Ｔ－２
 41
1.088888888888889
  7
ＭＳ ゴシック
100
AcDbText
  0
LINE
  5
86
330
1F
100
AcDbEntity
  8
A-5
  6
Continuous
 62
     7
370
     9
100
AcDbLine
 10
-702.586812199773
 20
-273.2006204965951
 30
0.0
 11
-695.6985329292918
 21
-289.8304323763461
 31
0.0
  0
TEXT
  5
87
330
1F
100
AcDbEntity
  8
F-5ﾚｲﾔ
  6
Continuous
 62
     2
370
     9
100
AcDbText
 10
-47.4000593855572
 20
-822.9141028360818
 30
0.0
 40
18.288
  1
集水桝用　ＱＳＦ ６４３２
 41
0.8980000000000001
  7
ＭＳ ゴシック
100
AcDbText
  0
LINE
  5
88
330
1F
100
AcDbEntity
  8
A-1
  6
Continuous
 62
     2
370
     9
100
AcDbLine
 10
-589.0873718261719
 20
-255.8015182082715
 30
0.0
 11
-589.0873718261719
 21
-249.7012605409362
 31
0.0
  0
LINE
  5
89
330
1F
100
AcDbEntity
  8
A-1
  6
Continuous
 62
     2
370
     9
100
AcDbLine
 10
-489.0873512061867
 20
-265.8010563206028
 30
0.0
 11
-579.0874006941511
 21
-265.8010563206028
 31
0.0
  0
LINE
  5
8A
330
1F
100
AcDbEntity
  8
A-1
  6
Continuous
 62
     2
370
     9
100
AcDbLine
 10
-479.0873182142104
 20
-255.8015182082715
 30
0.0
 11
-479.0873182142104
 21
-249.7012605409362
 31
0.0
  0
LINE
  5
8B
330
1F
100
AcDbEntity
  8
A-1
  6
Continuous
 62
     2
370
     9
100
AcDbLine
 10
-488.087446882918
 20
-255.8015182082715
 30
0.0
 11
-488.087446882918
 21
-249.7012605409362
 31
0.0
  0
LINE
  5
8C
330
1F
100
AcDbEntity
  8
A-1
  6
Continuous
 62
     2
370
     9
100
AcDbLine
 10
-579.0874006941511
 20
-256.8012988116289
 30
0.0
 11
-489.0873512061867
 21
-256.8012988116289
 31
0.0
  0
LINE
  5
8D
330
1F
100
AcDbEntity
  8
A-1
  6
Continuous
 62
     2
370
     9
100
AcDbLine
 10
-580.0874905972867
 20
-255.8015182082715
 30
0.0
 11
-580.0874905972867
 21
-249.7012605409362
 31
0.0
  0
LINE
  5
8E
330
1F
100
AcDbEntity
  8
A-1
  6
JWW_CENTER1
 62
     2
370
     9
100
AcDbLine
 10
-584.587493071685
 20
-243.0938130971547
 30
0.0
 11
-584.587493071685
 21
-257.1907690924565
 31
0.0
  0
LINE
  5
8F
330
1F
100
AcDbEntity
  8
A-1
  6
JWW_CENTER1
 62
     2
370
     9
100
AcDbLine
 10
-576.4247626227302
 20
-249.7012605409362
 30
0.0
 11
-592.8316312222867
 21
-249.7012605409362
 31
0.0
  0
LINE
  5
90
330
1F
100
AcDbEntity
  8
A-1
  6
JWW_CENTER1
 62
     2
370
     9
100
AcDbLine
 10
-483.587258828653
 20
-243.0938130971547
 30
0.0
 11
-483.587258828653
 21
-257.1907690924565
 31
0.0
  0
LINE
  5
91
330
1F
100
AcDbEntity
  8
A-1
  6
JWW_CENTER1
 62
     2
370
     9
100
AcDbLine
 10
-475.4245283796981
 20
-249.7012605409362
 30
0.0
 11
-491.8312113993877
 21
-249.7012605409362
 31
0.0
  0
LINE
  5
92
330
1F
100
AcDbEntity
  8
A-1
  6
Continuous
 62
     2
370
     9
100
AcDbLine
 10
-589.0873718261719
 20
485.3994289088894
 30
0.0
 11
-589.0873718261719
 21
479.299789841111
 31
0.0
  0
LINE
  5
93
330
1F
100
AcDbEntity
  8
A-1
  6
Continuous
 62
     2
370
     9
100
AcDbLine
 10
-489.0873512061867
 20
495.3995856207772
 30
0.0
 11
-579.0874006941511
 21
495.3995856207772
 31
0.0
  0
LINE
  5
94
330
1F
100
AcDbEntity
  8
A-1
  6
Continuous
 62
     2
370
     9
100
AcDbLine
 10
-479.0873182142104
 20
485.3994289088894
 30
0.0
 11
-479.0873182142104
 21
479.299789841111
 31
0.0
  0
LINE
  5
95
330
1F
100
AcDbEntity
  8
A-1
  6
Continuous
 62
     2
370
     9
100
AcDbLine
 10
-488.087446882918
 20
485.3994289088894
 30
0.0
 11
-488.087446882918
 21
479.299789841111
 31
0.0
  0
LINE
  5
96
330
1F
100
AcDbEntity
  8
A-1
  6
Continuous
 62
     2
370
     9
100
AcDbLine
 10
-579.0874006941511
 20
486.3993332321581
 30
0.0
 11
-489.0873512061867
 21
486.3993332321581
 31
0.0
  0
LINE
  5
97
330
1F
100
AcDbEntity
  8
A-1
  6
Continuous
 62
     2
370
     9
100
AcDbLine
 10
-580.0874905972867
 20
485.3994289088894
 30
0.0
 11
-580.0874905972867
 21
479.299789841111
 31
0.0
  0
LINE
  5
98
330
1F
100
AcDbEntity
  8
A-1
  6
JWW_CENTER1
 62
     2
370
     9
100
AcDbLine
 10
-584.587493071685
 20
469.6925675675678
 30
0.0
 11
-584.587493071685
 21
486.7897932722763
 31
0.0
  0
LINE
  5
99
330
1F
100
AcDbEntity
  8
A-1
  6
JWW_CENTER1
 62
     2
370
     9
100
AcDbLine
 10
-576.4247626227302
 20
479.299789841111
 30
0.0
 11
-592.8316312222867
 21
479.299789841111
 31
0.0
  0
LINE
  5
9A
330
1F
100
AcDbEntity
  8
A-1
  6
JWW_CENTER1
 62
     2
370
     9
100
AcDbLine
 10
-483.587258828653
 20
469.6925675675678
 30
0.0
 11
-483.587258828653
 21
486.7897932722763
 31
0.0
  0
LINE
  5
9B
330
1F
100
AcDbEntity
  8
A-1
  6
JWW_CENTER1
 62
     2
370
     9
100
AcDbLine
 10
-475.4245283796981
 20
479.299789841111
 30
0.0
 11
-491.8312113993877
 21
479.299789841111
 31
0.0
  0
LINE
  5
9C
330
1F
100
AcDbEntity
  8
A-2
  6
Continuous
 62
     3
370
     9
100
AcDbLine
 10
-338.5873990445524
 20
-230.70041842074
 30
0.0
 11
-731.5873780121675
 21
-230.70041842074
 31
0.0
  0
LINE
  5
9D
330
1F
100
AcDbEntity
  8
A-2
  6
Continuous
 62
     3
370
     9
100
AcDbLine
 10
-731.5873780121675
 20
217.2993089830553
 30
0.0
 11
-338.5873990445524
 21
217.2993089830553
 31
0.0
  0
LINE
  5
9E
330
1F
100
AcDbEntity
  8
A-2
  6
Continuous
 62
     3
370
     9
100
AcDbLine
 10
-731.5873780121675
 20
212.2994780669344
 30
0.0
 11
-338.5873990445524
 21
212.2994780669344
 31
0.0
  0
LINE
  5
9F
330
1F
100
AcDbEntity
  8
A-2
  6
Continuous
 62
     3
370
     9
100
AcDbLine
 10
-731.5873780121675
 20
-182.7007425669075
 30
0.0
 11
-338.5873990445524
 21
-182.7007425669075
 31
0.0
  0
LINE
  5
A0
330
1F
100
AcDbEntity
  8
A-2
  6
Continuous
 62
     3
370
     9
100
AcDbLine
 10
-731.5873780121675
 20
-187.7004497631175
 30
0.0
 11
-338.5873990445524
 21
-187.7004497631175
 31
0.0
  0
LINE
  5
A1
330
1F
100
AcDbEntity
  8
A-2
  6
Continuous
 62
     3
370
     9
100
AcDbLine
 10
-728.5868917929159
 20
117.2992883630703
 30
0.0
 11
-728.5868917929159
 21
212.2994780669344
 31
0.0
  0
LINE
  5
A2
330
1F
100
AcDbEntity
  8
A-2
  6
Continuous
 62
     3
370
     9
100
AcDbLine
 10
-341.5863696948902
 20
212.2994780669344
 30
0.0
 11
-341.5863696948902
 21
117.2992883630703
 31
0.0
  0
LINE
  5
A3
330
1F
100
AcDbEntity
  8
A-2
  6
Continuous
 62
     3
370
     9
100
AcDbLine
 10
-467.2269707757073
 20
212.2994780669344
 30
0.0
 11
-467.2269707757073
 21
117.2992883630703
 31
0.0
  0
LINE
  5
A4
330
1F
100
AcDbEntity
  8
A-2
  6
Continuous
 62
     3
370
     9
100
AcDbLine
 10
-464.2275052457243
 20
212.2994780669344
 30
0.0
 11
-464.2275052457243
 21
117.2992883630703
 31
0.0
  0
LINE
  5
A5
330
1F
100
AcDbEntity
  8
A-2
  6
Continuous
 62
     3
370
     9
100
AcDbLine
 10
-479.8070587983002
 20
212.2994780669344
 30
0.0
 11
-479.8070587983002
 21
117.2992883630703
 31
0.0
  0
LINE
  5
A6
330
1F
100
AcDbEntity
  8
A-2
  6
Continuous
 62
     3
370
     9
100
AcDbLine
 10
-476.8073458284945
 20
212.2994780669344
 30
0.0
 11
-476.8073458284945
 21
117.2992883630703
 31
0.0
  0
LINE
  5
A7
330
1F
100
AcDbEntity
  8
A-2
  6
Continuous
 62
     3
370
     9
100
AcDbLine
 10
-492.3869612410263
 20
212.2994780669344
 30
0.0
 11
-492.3869612410263
 21
117.2992883630703
 31
0.0
  0
LINE
  5
A8
330
1F
100
AcDbEntity
  8
A-2
  6
Continuous
 62
     3
370
     9
100
AcDbLine
 10
-489.3874338510875
 20
212.2994780669344
 30
0.0
 11
-489.3874338510875
 21
117.2992883630703
 31
0.0
  0
LINE
  5
A9
330
1F
100
AcDbEntity
  8
A-2
  6
Continuous
 62
     3
370
     9
100
AcDbLine
 10
-504.9668636837522
 20
212.2994780669344
 30
0.0
 11
-504.9668636837522
 21
117.2992883630703
 31
0.0
  0
LINE
  5
AA
330
1F
100
AcDbEntity
  8
A-2
  6
Continuous
 62
     3
370
     9
100
AcDbLine
 10
-501.9672744338578
 20
212.2994780669344
 30
0.0
 11
-501.9672744338578
 21
117.2992883630703
 31
0.0
  0
LINE
  5
AB
330
1F
100
AcDbEntity
  8
A-2
  6
Continuous
 62
     3
370
     9
100
AcDbLine
 10
-517.5468898463894
 20
212.2994780669344
 30
0.0
 11
-517.5468898463894
 21
117.2992883630703
 31
0.0
  0
LINE
  5
AC
330
1F
100
AcDbEntity
  8
A-2
  6
Continuous
 62
     3
370
     9
100
AcDbLine
 10
-514.5472387365393
 20
212.2994780669344
 30
0.0
 11
-514.5472387365393
 21
117.2992883630703
 31
0.0
  0
LINE
  5
AD
330
1F
100
AcDbEntity
  8
A-2
  6
Continuous
 62
     3
370
     9
100
AcDbLine
 10
-530.1268541490709
 20
212.2994780669344
 30
0.0
 11
-530.1268541490709
 21
117.2992883630703
 31
0.0
  0
LINE
  5
AE
330
1F
100
AcDbEntity
  8
A-2
  6
Continuous
 62
     3
370
     9
100
AcDbLine
 10
-527.127203039221
 20
212.2994780669344
 30
0.0
 11
-527.127203039221
 21
117.2992883630703
 31
0.0
  0
LINE
  5
AF
330
1F
100
AcDbEntity
  8
A-2
  6
Continuous
 62
     3
370
     9
100
AcDbLine
 10
-542.706756591797
 20
212.2994780669344
 30
0.0
 11
-542.706756591797
 21
117.2992883630703
 31
0.0
  0
LINE
  5
B0
330
1F
100
AcDbEntity
  8
A-2
  6
Continuous
 62
     3
370
     9
100
AcDbLine
 10
-539.7072292018581
 20
212.2994780669344
 30
0.0
 11
-539.7072292018581
 21
117.2992883630703
 31
0.0
  0
LINE
  5
B1
330
1F
100
AcDbEntity
  8
A-2
  6
Continuous
 62
     3
370
     9
100
AcDbLine
 10
-555.2875869338577
 20
212.2994780669344
 30
0.0
 11
-555.2875869338577
 21
117.2992883630703
 31
0.0
  0
LINE
  5
B2
330
1F
100
AcDbEntity
  8
A-2
  6
Continuous
 62
     3
370
     9
100
AcDbLine
 10
-552.2871935045398
 20
212.2994780669344
 30
0.0
 11
-552.2871935045398
 21
117.2992883630703
 31
0.0
  0
LINE
  5
B3
330
1F
100
AcDbEntity
  8
A-2
  6
Continuous
 62
     3
370
     9
100
AcDbLine
 10
-567.8676749564506
 20
212.2994780669344
 30
0.0
 11
-567.8676749564506
 21
117.2992883630703
 31
0.0
  0
LINE
  5
B4
330
1F
100
AcDbEntity
  8
A-2
  6
Continuous
 62
     3
370
     9
100
AcDbLine
 10
-564.8669722273543
 20
212.2994780669344
 30
0.0
 11
-564.8669722273543
 21
117.2992883630703
 31
0.0
  0
LINE
  5
B5
330
1F
100
AcDbEntity
  8
A-2
  6
Continuous
 62
     3
370
     9
100
AcDbLine
 10
-580.4475773991766
 20
212.2994780669344
 30
0.0
 11
-580.4475773991766
 21
117.2992883630703
 31
0.0
  0
LINE
  5
B6
330
1F
100
AcDbEntity
  8
A-2
  6
Continuous
 62
     3
370
     9
100
AcDbLine
 10
-577.4470602499472
 20
212.2994780669344
 30
0.0
 11
-577.4470602499472
 21
117.2992883630703
 31
0.0
  0
LINE
  5
B7
330
1F
100
AcDbEntity
  8
A-2
  6
Continuous
 62
     3
370
     9
100
AcDbLine
 10
-593.0276035618139
 20
212.2994780669344
 30
0.0
 11
-593.0276035618139
 21
117.2992883630703
 31
0.0
  0
LINE
  5
B8
330
1F
100
AcDbEntity
  8
A-2
  6
Continuous
 62
     3
370
     9
100
AcDbLine
 10
-590.0268389727619
 20
212.2994780669344
 30
0.0
 11
-590.0268389727619
 21
117.2992883630703
 31
0.0
  0
LINE
  5
B9
330
1F
100
AcDbEntity
  8
A-2
  6
Continuous
 62
     3
370
     9
100
AcDbLine
 10
-605.6073822846284
 20
212.2994780669344
 30
0.0
 11
-605.6073822846284
 21
117.2992883630703
 31
0.0
  0
LINE
  5
BA
330
1F
100
AcDbEntity
  8
A-2
  6
Continuous
 62
     3
370
     9
100
AcDbLine
 10
-602.6069269953548
 20
212.2994780669344
 30
0.0
 11
-602.6069269953548
 21
117.2992883630703
 31
0.0
  0
LINE
  5
BB
330
1F
100
AcDbEntity
  8
A-2
  6
Continuous
 62
     3
370
     9
100
AcDbLine
 10
-618.18734658731
 20
212.2994780669344
 30
0.0
 11
-618.18734658731
 21
117.2992883630703
 31
0.0
  0
LINE
  5
BC
330
1F
100
AcDbEntity
  8
A-2
  6
Continuous
 62
     3
370
     9
100
AcDbLine
 10
-615.1868912980364
 20
212.2994780669344
 30
0.0
 11
-615.1868912980364
 21
117.2992883630703
 31
0.0
  0
LINE
  5
BD
330
1F
100
AcDbEntity
  8
A-2
  6
Continuous
 62
     3
370
     9
100
AcDbLine
 10
-630.7673108899916
 20
212.2994780669344
 30
0.0
 11
-630.7673108899916
 21
117.2992883630703
 31
0.0
  0
LINE
  5
BE
330
1F
100
AcDbEntity
  8
A-2
  6
Continuous
 62
     3
370
     9
100
AcDbLine
 10
-627.7669793206292
 20
212.2994780669344
 30
0.0
 11
-627.7669793206292
 21
117.2992883630703
 31
0.0
  0
LINE
  5
BF
330
1F
100
AcDbEntity
  8
A-2
  6
Continuous
 62
     3
370
     9
100
AcDbLine
 10
-643.3472751926732
 20
212.2994780669344
 30
0.0
 11
-643.3472751926732
 21
117.2992883630703
 31
0.0
  0
LINE
  5
C0
330
1F
100
AcDbEntity
  8
A-2
  6
Continuous
 62
     3
370
     9
100
AcDbLine
 10
-640.3468199033996
 20
212.2994780669344
 30
0.0
 11
-640.3468199033996
 21
117.2992883630703
 31
0.0
  0
LINE
  5
C1
330
1F
100
AcDbEntity
  8
A-2
  6
Continuous
 62
     3
370
     9
100
AcDbLine
 10
-655.927363215266
 20
212.2994780669344
 30
0.0
 11
-655.927363215266
 21
117.2992883630703
 31
0.0
  0
LINE
  5
C2
330
1F
100
AcDbEntity
  8
A-2
  6
Continuous
 62
     3
370
     9
100
AcDbLine
 10
-652.9277739653717
 20
212.2994780669344
 30
0.0
 11
-652.9277739653717
 21
117.2992883630703
 31
0.0
  0
LINE
  5
C3
330
1F
100
AcDbEntity
  8
A-2
  6
Continuous
 62
     3
370
     9
100
AcDbLine
 10
-668.5073275179477
 20
212.2994780669344
 30
0.0
 11
-668.5073275179477
 21
117.2992883630703
 31
0.0
  0
LINE
  5
C4
330
1F
100
AcDbEntity
  8
A-2
  6
Continuous
 62
     3
370
     9
100
AcDbLine
 10
-665.5077382680532
 20
212.2994780669344
 30
0.0
 11
-665.5077382680532
 21
117.2992883630703
 31
0.0
  0
LINE
  5
C5
330
1F
100
AcDbEntity
  8
A-2
  6
Continuous
 62
     3
370
     9
100
AcDbLine
 10
-681.0871371707401
 20
212.2994780669344
 30
0.0
 11
-681.0871371707401
 21
117.2992883630703
 31
0.0
  0
LINE
  5
C6
330
1F
100
AcDbEntity
  8
A-2
  6
Continuous
 62
     3
370
     9
100
AcDbLine
 10
-678.0875479208456
 20
212.2994780669344
 30
0.0
 11
-678.0875479208456
 21
117.2992883630703
 31
0.0
  0
LINE
  5
C7
330
1F
100
AcDbEntity
  8
A-2
  6
Continuous
 62
     3
370
     9
100
AcDbLine
 10
-693.6671014734218
 20
212.2994780669344
 30
0.0
 11
-693.6671014734218
 21
117.2992883630703
 31
0.0
  0
LINE
  5
C8
330
1F
100
AcDbEntity
  8
A-2
  6
Continuous
 62
     3
370
     9
100
AcDbLine
 10
-690.6675122235274
 20
212.2994780669344
 30
0.0
 11
-690.6675122235274
 21
117.2992883630703
 31
0.0
  0
LINE
  5
C9
330
1F
100
AcDbEntity
  8
A-2
  6
Continuous
 62
     3
370
     9
100
AcDbLine
 10
-706.2471894960146
 20
212.2994780669344
 30
0.0
 11
-706.2471894960146
 21
117.2992883630703
 31
0.0
  0
LINE
  5
CA
330
1F
100
AcDbEntity
  8
A-2
  6
Continuous
 62
     3
370
     9
100
AcDbLine
 10
-703.2473528062975
 20
212.2994780669344
 30
0.0
 11
-703.2473528062975
 21
117.2992883630703
 31
0.0
  0
LINE
  5
CB
330
1F
100
AcDbEntity
  8
A-2
  6
Continuous
 62
     3
370
     9
100
AcDbLine
 10
-718.8271537986961
 20
212.2994780669344
 30
0.0
 11
-718.8271537986961
 21
117.2992883630703
 31
0.0
  0
LINE
  5
CC
330
1F
100
AcDbEntity
  8
A-2
  6
Continuous
 62
     3
370
     9
100
AcDbLine
 10
-715.8273171089792
 20
212.2994780669344
 30
0.0
 11
-715.8273171089792
 21
117.2992883630703
 31
0.0
  0
LINE
  5
CD
330
1F
100
AcDbEntity
  8
A-2
  6
Continuous
 62
     3
370
     9
100
AcDbLine
 10
-731.5873780121675
 20
312.2989419473188
 30
0.0
 11
-338.5873990445524
 21
312.2989419473188
 31
0.0
  0
LINE
  5
CE
330
1F
100
AcDbEntity
  8
A-2
  6
Continuous
 62
     3
370
     9
100
AcDbLine
 10
-728.5868917929159
 20
312.2989419473188
 30
0.0
 11
-728.5868917929159
 21
217.2993089830553
 31
0.0
  0
LINE
  5
CF
330
1F
100
AcDbEntity
  8
A-2
  6
Continuous
 62
     3
370
     9
100
AcDbLine
 10
-341.5863696948902
 20
217.2993089830553
 30
0.0
 11
-341.5863696948902
 21
312.2989419473188
 31
0.0
  0
LINE
  5
D0
330
1F
100
AcDbEntity
  8
A-2
  6
Continuous
 62
     3
370
     9
100
AcDbLine
 10
-467.2269707757073
 20
217.2993089830553
 30
0.0
 11
-467.2269707757073
 21
312.2989419473188
 31
0.0
  0
LINE
  5
D1
330
1F
100
AcDbEntity
  8
A-2
  6
Continuous
 62
     3
370
     9
100
AcDbLine
 10
-464.2275052457243
 20
217.2993089830553
 30
0.0
 11
-464.2275052457243
 21
312.2989419473188
 31
0.0
  0
LINE
  5
D2
330
1F
100
AcDbEntity
  8
A-2
  6
Continuous
 62
     3
370
     9
100
AcDbLine
 10
-479.8070587983002
 20
217.2993089830553
 30
0.0
 11
-479.8070587983002
 21
312.2989419473188
 31
0.0
  0
LINE
  5
D3
330
1F
100
AcDbEntity
  8
A-2
  6
Continuous
 62
     3
370
     9
100
AcDbLine
 10
-476.8073458284945
 20
217.2993089830553
 30
0.0
 11
-476.8073458284945
 21
312.2989419473188
 31
0.0
  0
LINE
  5
D4
330
1F
100
AcDbEntity
  8
A-2
  6
Continuous
 62
     3
370
     9
100
AcDbLine
 10
-492.3869612410263
 20
217.2993089830553
 30
0.0
 11
-492.3869612410263
 21
312.2989419473188
 31
0.0
  0
LINE
  5
D5
330
1F
100
AcDbEntity
  8
A-2
  6
Continuous
 62
     3
370
     9
100
AcDbLine
 10
-489.3874338510875
 20
217.2993089830553
 30
0.0
 11
-489.3874338510875
 21
312.2989419473188
 31
0.0
  0
LINE
  5
D6
330
1F
100
AcDbEntity
  8
A-2
  6
Continuous
 62
     3
370
     9
100
AcDbLine
 10
-504.9668636837522
 20
217.2993089830553
 30
0.0
 11
-504.9668636837522
 21
312.2989419473188
 31
0.0
  0
LINE
  5
D7
330
1F
100
AcDbEntity
  8
A-2
  6
Continuous
 62
     3
370
     9
100
AcDbLine
 10
-501.9672744338578
 20
217.2993089830553
 30
0.0
 11
-501.9672744338578
 21
312.2989419473188
 31
0.0
  0
LINE
  5
D8
330
1F
100
AcDbEntity
  8
A-2
  6
Continuous
 62
     3
370
     9
100
AcDbLine
 10
-517.5468898463894
 20
217.2993089830553
 30
0.0
 11
-517.5468898463894
 21
312.2989419473188
 31
0.0
  0
LINE
  5
D9
330
1F
100
AcDbEntity
  8
A-2
  6
Continuous
 62
     3
370
     9
100
AcDbLine
 10
-514.5472387365393
 20
217.2993089830553
 30
0.0
 11
-514.5472387365393
 21
312.2989419473188
 31
0.0
  0
LINE
  5
DA
330
1F
100
AcDbEntity
  8
A-2
  6
Continuous
 62
     3
370
     9
100
AcDbLine
 10
-530.1268541490709
 20
217.2993089830553
 30
0.0
 11
-530.1268541490709
 21
312.2989419473188
 31
0.0
  0
LINE
  5
DB
330
1F
100
AcDbEntity
  8
A-2
  6
Continuous
 62
     3
370
     9
100
AcDbLine
 10
-527.127203039221
 20
217.2993089830553
 30
0.0
 11
-527.127203039221
 21
312.2989419473188
 31
0.0
  0
LINE
  5
DC
330
1F
100
AcDbEntity
  8
A-2
  6
Continuous
 62
     3
370
     9
100
AcDbLine
 10
-542.706756591797
 20
217.2993089830553
 30
0.0
 11
-542.706756591797
 21
312.2989419473188
 31
0.0
  0
LINE
  5
DD
330
1F
100
AcDbEntity
  8
A-2
  6
Continuous
 62
     3
370
     9
100
AcDbLine
 10
-539.7072292018581
 20
217.2993089830553
 30
0.0
 11
-539.7072292018581
 21
312.2989419473188
 31
0.0
  0
LINE
  5
DE
330
1F
100
AcDbEntity
  8
A-2
  6
Continuous
 62
     3
370
     9
100
AcDbLine
 10
-555.2875869338577
 20
217.2993089830553
 30
0.0
 11
-555.2875869338577
 21
312.2989419473188
 31
0.0
  0
LINE
  5
DF
330
1F
100
AcDbEntity
  8
A-2
  6
Continuous
 62
     3
370
     9
100
AcDbLine
 10
-552.2871935045398
 20
217.2993089830553
 30
0.0
 11
-552.2871935045398
 21
312.2989419473188
 31
0.0
  0
LINE
  5
E0
330
1F
100
AcDbEntity
  8
A-2
  6
Continuous
 62
     3
370
     9
100
AcDbLine
 10
-567.8676749564506
 20
217.2993089830553
 30
0.0
 11
-567.8676749564506
 21
312.2989419473188
 31
0.0
  0
LINE
  5
E1
330
1F
100
AcDbEntity
  8
A-2
  6
Continuous
 62
     3
370
     9
100
AcDbLine
 10
-564.8669722273543
 20
217.2993089830553
 30
0.0
 11
-564.8669722273543
 21
312.2989419473188
 31
0.0
  0
LINE
  5
E2
330
1F
100
AcDbEntity
  8
A-2
  6
Continuous
 62
     3
370
     9
100
AcDbLine
 10
-580.4475773991766
 20
217.2993089830553
 30
0.0
 11
-580.4475773991766
 21
312.2989419473188
 31
0.0
  0
LINE
  5
E3
330
1F
100
AcDbEntity
  8
A-2
  6
Continuous
 62
     3
370
     9
100
AcDbLine
 10
-577.4470602499472
 20
217.2993089830553
 30
0.0
 11
-577.4470602499472
 21
312.2989419473188
 31
0.0
  0
LINE
  5
E4
330
1F
100
AcDbEntity
  8
A-2
  6
Continuous
 62
     3
370
     9
100
AcDbLine
 10
-593.0276035618139
 20
217.2993089830553
 30
0.0
 11
-593.0276035618139
 21
312.2989419473188
 31
0.0
  0
LINE
  5
E5
330
1F
100
AcDbEntity
  8
A-2
  6
Continuous
 62
     3
370
     9
100
AcDbLine
 10
-590.0268389727619
 20
217.2993089830553
 30
0.0
 11
-590.0268389727619
 21
312.2989419473188
 31
0.0
  0
LINE
  5
E6
330
1F
100
AcDbEntity
  8
A-2
  6
Continuous
 62
     3
370
     9
100
AcDbLine
 10
-605.6073822846284
 20
217.2993089830553
 30
0.0
 11
-605.6073822846284
 21
312.2989419473188
 31
0.0
  0
LINE
  5
E7
330
1F
100
AcDbEntity
  8
A-2
  6
Continuous
 62
     3
370
     9
100
AcDbLine
 10
-602.6069269953548
 20
217.2993089830553
 30
0.0
 11
-602.6069269953548
 21
312.2989419473188
 31
0.0
  0
LINE
  5
E8
330
1F
100
AcDbEntity
  8
A-2
  6
Continuous
 62
     3
370
     9
100
AcDbLine
 10
-618.18734658731
 20
217.2993089830553
 30
0.0
 11
-618.18734658731
 21
312.2989419473188
 31
0.0
  0
LINE
  5
E9
330
1F
100
AcDbEntity
  8
A-2
  6
Continuous
 62
     3
370
     9
100
AcDbLine
 10
-615.1868912980364
 20
217.2993089830553
 30
0.0
 11
-615.1868912980364
 21
312.2989419473188
 31
0.0
  0
LINE
  5
EA
330
1F
100
AcDbEntity
  8
A-2
  6
Continuous
 62
     3
370
     9
100
AcDbLine
 10
-630.7673108899916
 20
217.2993089830553
 30
0.0
 11
-630.7673108899916
 21
312.2989419473188
 31
0.0
  0
LINE
  5
EB
330
1F
100
AcDbEntity
  8
A-2
  6
Continuous
 62
     3
370
     9
100
AcDbLine
 10
-627.7669793206292
 20
217.2993089830553
 30
0.0
 11
-627.7669793206292
 21
312.2989419473188
 31
0.0
  0
LINE
  5
EC
330
1F
100
AcDbEntity
  8
A-2
  6
Continuous
 62
     3
370
     9
100
AcDbLine
 10
-643.3472751926732
 20
217.2993089830553
 30
0.0
 11
-643.3472751926732
 21
312.2989419473188
 31
0.0
  0
LINE
  5
ED
330
1F
100
AcDbEntity
  8
A-2
  6
Continuous
 62
     3
370
     9
100
AcDbLine
 10
-640.3468199033996
 20
217.2993089830553
 30
0.0
 11
-640.3468199033996
 21
312.2989419473188
 31
0.0
  0
LINE
  5
EE
330
1F
100
AcDbEntity
  8
A-2
  6
Continuous
 62
     3
370
     9
100
AcDbLine
 10
-655.927363215266
 20
217.2993089830553
 30
0.0
 11
-655.927363215266
 21
312.2989419473188
 31
0.0
  0
LINE
  5
EF
330
1F
100
AcDbEntity
  8
A-2
  6
Continuous
 62
     3
370
     9
100
AcDbLine
 10
-652.9277739653717
 20
217.2993089830553
 30
0.0
 11
-652.9277739653717
 21
312.2989419473188
 31
0.0
  0
LINE
  5
F0
330
1F
100
AcDbEntity
  8
A-2
  6
Continuous
 62
     3
370
     9
100
AcDbLine
 10
-668.5073275179477
 20
217.2993089830553
 30
0.0
 11
-668.5073275179477
 21
312.2989419473188
 31
0.0
  0
LINE
  5
F1
330
1F
100
AcDbEntity
  8
A-2
  6
Continuous
 62
     3
370
     9
100
AcDbLine
 10
-665.5077382680532
 20
217.2993089830553
 30
0.0
 11
-665.5077382680532
 21
312.2989419473188
 31
0.0
  0
LINE
  5
F2
330
1F
100
AcDbEntity
  8
A-2
  6
Continuous
 62
     3
370
     9
100
AcDbLine
 10
-681.0871371707401
 20
217.2993089830553
 30
0.0
 11
-681.0871371707401
 21
312.2989419473188
 31
0.0
  0
LINE
  5
F3
330
1F
100
AcDbEntity
  8
A-2
  6
Continuous
 62
     3
370
     9
100
AcDbLine
 10
-678.0875479208456
 20
217.2993089830553
 30
0.0
 11
-678.0875479208456
 21
312.2989419473188
 31
0.0
  0
LINE
  5
F4
330
1F
100
AcDbEntity
  8
A-2
  6
Continuous
 62
     3
370
     9
100
AcDbLine
 10
-693.6671014734218
 20
217.2993089830553
 30
0.0
 11
-693.6671014734218
 21
312.2989419473188
 31
0.0
  0
LINE
  5
F5
330
1F
100
AcDbEntity
  8
A-2
  6
Continuous
 62
     3
370
     9
100
AcDbLine
 10
-690.6675122235274
 20
217.2993089830553
 30
0.0
 11
-690.6675122235274
 21
312.2989419473188
 31
0.0
  0
LINE
  5
F6
330
1F
100
AcDbEntity
  8
A-2
  6
Continuous
 62
     3
370
     9
100
AcDbLine
 10
-706.2471894960146
 20
217.2993089830553
 30
0.0
 11
-706.2471894960146
 21
312.2989419473188
 31
0.0
  0
LINE
  5
F7
330
1F
100
AcDbEntity
  8
A-2
  6
Continuous
 62
     3
370
     9
100
AcDbLine
 10
-703.2473528062975
 20
217.2993089830553
 30
0.0
 11
-703.2473528062975
 21
312.2989419473188
 31
0.0
  0
LINE
  5
F8
330
1F
100
AcDbEntity
  8
A-2
  6
Continuous
 62
     3
370
     9
100
AcDbLine
 10
-718.8271537986961
 20
217.2993089830553
 30
0.0
 11
-718.8271537986961
 21
312.2989419473188
 31
0.0
  0
LINE
  5
F9
330
1F
100
AcDbEntity
  8
A-2
  6
Continuous
 62
     3
370
     9
100
AcDbLine
 10
-715.8273171089792
 20
217.2993089830553
 30
0.0
 11
-715.8273171089792
 21
312.2989419473188
 31
0.0
  0
LINE
  5
FA
330
1F
100
AcDbEntity
  8
A-2
  6
Continuous
 62
     3
370
     9
100
AcDbLine
 10
-731.5873780121675
 20
317.2992058831294
 30
0.0
 11
-338.5873990445524
 21
317.2992058831294
 31
0.0
  0
LINE
  5
FB
330
1F
100
AcDbEntity
  8
A-2
  6
Continuous
 62
     3
370
     9
100
AcDbLine
 10
-731.5873780121675
 20
412.2993955869935
 30
0.0
 11
-338.5873990445524
 21
412.2993955869935
 31
0.0
  0
LINE
  5
FC
330
1F
100
AcDbEntity
  8
A-2
  6
Continuous
 62
     3
370
     9
100
AcDbLine
 10
-731.5873780121675
 20
417.2992883630703
 30
0.0
 11
-338.5873990445524
 21
417.2992883630703
 31
0.0
  0
LINE
  5
FD
330
1F
100
AcDbEntity
  8
A-2
  6
Continuous
 62
     3
370
     9
100
AcDbLine
 10
-728.5868917929159
 20
412.2993955869935
 30
0.0
 11
-728.5868917929159
 21
317.2997007627747
 31
0.0
  0
LINE
  5
FE
330
1F
100
AcDbEntity
  8
A-2
  6
Continuous
 62
     3
370
     9
100
AcDbLine
 10
-341.5863696948902
 20
317.2997007627747
 30
0.0
 11
-341.5863696948902
 21
412.2993955869935
 31
0.0
  0
LINE
  5
FF
330
1F
100
AcDbEntity
  8
A-2
  6
Continuous
 62
     3
370
     9
100
AcDbLine
 10
-467.2269707757073
 20
317.2997007627747
 30
0.0
 11
-467.2269707757073
 21
412.2993955869935
 31
0.0
  0
LINE
  5
100
330
1F
100
AcDbEntity
  8
A-2
  6
Continuous
 62
     3
370
     9
100
AcDbLine
 10
-464.2275052457243
 20
317.2997007627747
 30
0.0
 11
-464.2275052457243
 21
412.2993955869935
 31
0.0
  0
LINE
  5
101
330
1F
100
AcDbEntity
  8
A-2
  6
Continuous
 62
     3
370
     9
100
AcDbLine
 10
-479.8070587983002
 20
317.2997007627747
 30
0.0
 11
-479.8070587983002
 21
412.2993955869935
 31
0.0
  0
LINE
  5
102
330
1F
100
AcDbEntity
  8
A-2
  6
Continuous
 62
     3
370
     9
100
AcDbLine
 10
-476.8073458284945
 20
317.2997007627747
 30
0.0
 11
-476.8073458284945
 21
412.2993955869935
 31
0.0
  0
LINE
  5
103
330
1F
100
AcDbEntity
  8
A-2
  6
Continuous
 62
     3
370
     9
100
AcDbLine
 10
-492.3869612410263
 20
317.2997007627747
 30
0.0
 11
-492.3869612410263
 21
412.2993955869935
 31
0.0
  0
LINE
  5
104
330
1F
100
AcDbEntity
  8
A-2
  6
Continuous
 62
     3
370
     9
100
AcDbLine
 10
-489.3874338510875
 20
317.2997007627747
 30
0.0
 11
-489.3874338510875
 21
412.2993955869935
 31
0.0
  0
LINE
  5
105
330
1F
100
AcDbEntity
  8
A-2
  6
Continuous
 62
     3
370
     9
100
AcDbLine
 10
-504.9668636837522
 20
317.2997007627747
 30
0.0
 11
-504.9668636837522
 21
412.2993955869935
 31
0.0
  0
LINE
  5
106
330
1F
100
AcDbEntity
  8
A-2
  6
Continuous
 62
     3
370
     9
100
AcDbLine
 10
-501.9672744338578
 20
317.2997007627747
 30
0.0
 11
-501.9672744338578
 21
412.2993955869935
 31
0.0
  0
LINE
  5
107
330
1F
100
AcDbEntity
  8
A-2
  6
Continuous
 62
     3
370
     9
100
AcDbLine
 10
-517.5468898463894
 20
317.2997007627747
 30
0.0
 11
-517.5468898463894
 21
412.2993955869935
 31
0.0
  0
LINE
  5
108
330
1F
100
AcDbEntity
  8
A-2
  6
Continuous
 62
     3
370
     9
100
AcDbLine
 10
-514.5472387365393
 20
317.2997007627747
 30
0.0
 11
-514.5472387365393
 21
412.2993955869935
 31
0.0
  0
LINE
  5
109
330
1F
100
AcDbEntity
  8
A-2
  6
Continuous
 62
     3
370
     9
100
AcDbLine
 10
-530.1268541490709
 20
317.2997007627747
 30
0.0
 11
-530.1268541490709
 21
412.2993955869935
 31
0.0
  0
LINE
  5
10A
330
1F
100
AcDbEntity
  8
A-2
  6
Continuous
 62
     3
370
     9
100
AcDbLine
 10
-527.127203039221
 20
317.2997007627747
 30
0.0
 11
-527.127203039221
 21
412.2993955869935
 31
0.0
  0
LINE
  5
10B
330
1F
100
AcDbEntity
  8
A-2
  6
Continuous
 62
     3
370
     9
100
AcDbLine
 10
-542.706756591797
 20
317.2997007627747
 30
0.0
 11
-542.706756591797
 21
412.2993955869935
 31
0.0
  0
LINE
  5
10C
330
1F
100
AcDbEntity
  8
A-2
  6
Continuous
 62
     3
370
     9
100
AcDbLine
 10
-539.7072292018581
 20
317.2997007627747
 30
0.0
 11
-539.7072292018581
 21
412.2993955869935
 31
0.0
  0
LINE
  5
10D
330
1F
100
AcDbEntity
  8
A-2
  6
Continuous
 62
     3
370
     9
100
AcDbLine
 10
-555.2875869338577
 20
317.2997007627747
 30
0.0
 11
-555.2875869338577
 21
412.2993955869935
 31
0.0
  0
LINE
  5
10E
330
1F
100
AcDbEntity
  8
A-2
  6
Continuous
 62
     3
370
     9
100
AcDbLine
 10
-552.2871935045398
 20
317.2997007627747
 30
0.0
 11
-552.2871935045398
 21
412.2993955869935
 31
0.0
  0
LINE
  5
10F
330
1F
100
AcDbEntity
  8
A-2
  6
Continuous
 62
     3
370
     9
100
AcDbLine
 10
-567.8676749564506
 20
317.2997007627747
 30
0.0
 11
-567.8676749564506
 21
412.2993955869935
 31
0.0
  0
LINE
  5
110
330
1F
100
AcDbEntity
  8
A-2
  6
Continuous
 62
     3
370
     9
100
AcDbLine
 10
-564.8669722273543
 20
317.2997007627747
 30
0.0
 11
-564.8669722273543
 21
412.2993955869935
 31
0.0
  0
LINE
  5
111
330
1F
100
AcDbEntity
  8
A-2
  6
Continuous
 62
     3
370
     9
100
AcDbLine
 10
-580.4475773991766
 20
317.2997007627747
 30
0.0
 11
-580.4475773991766
 21
412.2993955869935
 31
0.0
  0
LINE
  5
112
330
1F
100
AcDbEntity
  8
A-2
  6
Continuous
 62
     3
370
     9
100
AcDbLine
 10
-577.4470602499472
 20
317.2997007627747
 30
0.0
 11
-577.4470602499472
 21
412.2993955869935
 31
0.0
  0
LINE
  5
113
330
1F
100
AcDbEntity
  8
A-2
  6
Continuous
 62
     3
370
     9
100
AcDbLine
 10
-593.0276035618139
 20
317.2997007627747
 30
0.0
 11
-593.0276035618139
 21
412.2993955869935
 31
0.0
  0
LINE
  5
114
330
1F
100
AcDbEntity
  8
A-2
  6
Continuous
 62
     3
370
     9
100
AcDbLine
 10
-590.0268389727619
 20
317.2997007627747
 30
0.0
 11
-590.0268389727619
 21
412.2993955869935
 31
0.0
  0
LINE
  5
115
330
1F
100
AcDbEntity
  8
A-2
  6
Continuous
 62
     3
370
     9
100
AcDbLine
 10
-605.6073822846284
 20
317.2997007627747
 30
0.0
 11
-605.6073822846284
 21
412.2993955869935
 31
0.0
  0
LINE
  5
116
330
1F
100
AcDbEntity
  8
A-2
  6
Continuous
 62
     3
370
     9
100
AcDbLine
 10
-602.6069269953548
 20
317.2997007627747
 30
0.0
 11
-602.6069269953548
 21
412.2993955869935
 31
0.0
  0
LINE
  5
117
330
1F
100
AcDbEntity
  8
A-2
  6
Continuous
 62
     3
370
     9
100
AcDbLine
 10
-618.18734658731
 20
317.2997007627747
 30
0.0
 11
-618.18734658731
 21
412.2993955869935
 31
0.0
  0
LINE
  5
118
330
1F
100
AcDbEntity
  8
A-2
  6
Continuous
 62
     3
370
     9
100
AcDbLine
 10
-615.1868912980364
 20
317.2997007627747
 30
0.0
 11
-615.1868912980364
 21
412.2993955869935
 31
0.0
  0
LINE
  5
119
330
1F
100
AcDbEntity
  8
A-2
  6
Continuous
 62
     3
370
     9
100
AcDbLine
 10
-630.7673108899916
 20
317.2997007627747
 30
0.0
 11
-630.7673108899916
 21
412.2993955869935
 31
0.0
  0
LINE
  5
11A
330
1F
100
AcDbEntity
  8
A-2
  6
Continuous
 62
     3
370
     9
100
AcDbLine
 10
-627.7669793206292
 20
317.2997007627747
 30
0.0
 11
-627.7669793206292
 21
412.2993955869935
 31
0.0
  0
LINE
  5
11B
330
1F
100
AcDbEntity
  8
A-2
  6
Continuous
 62
     3
370
     9
100
AcDbLine
 10
-643.3472751926732
 20
317.2997007627747
 30
0.0
 11
-643.3472751926732
 21
412.2993955869935
 31
0.0
  0
LINE
  5
11C
330
1F
100
AcDbEntity
  8
A-2
  6
Continuous
 62
     3
370
     9
100
AcDbLine
 10
-640.3468199033996
 20
317.2997007627747
 30
0.0
 11
-640.3468199033996
 21
412.2993955869935
 31
0.0
  0
LINE
  5
11D
330
1F
100
AcDbEntity
  8
A-2
  6
Continuous
 62
     3
370
     9
100
AcDbLine
 10
-655.927363215266
 20
317.2997007627747
 30
0.0
 11
-655.927363215266
 21
412.2993955869935
 31
0.0
  0
LINE
  5
11E
330
1F
100
AcDbEntity
  8
A-2
  6
Continuous
 62
     3
370
     9
100
AcDbLine
 10
-652.9277739653717
 20
317.2997007627747
 30
0.0
 11
-652.9277739653717
 21
412.2993955869935
 31
0.0
  0
LINE
  5
11F
330
1F
100
AcDbEntity
  8
A-2
  6
Continuous
 62
     3
370
     9
100
AcDbLine
 10
-668.5073275179477
 20
317.2997007627747
 30
0.0
 11
-668.5073275179477
 21
412.2993955869935
 31
0.0
  0
LINE
  5
120
330
1F
100
AcDbEntity
  8
A-2
  6
Continuous
 62
     3
370
     9
100
AcDbLine
 10
-665.5077382680532
 20
317.2997007627747
 30
0.0
 11
-665.5077382680532
 21
412.2993955869935
 31
0.0
  0
LINE
  5
121
330
1F
100
AcDbEntity
  8
A-2
  6
Continuous
 62
     3
370
     9
100
AcDbLine
 10
-681.0871371707401
 20
317.2997007627747
 30
0.0
 11
-681.0871371707401
 21
412.2993955869935
 31
0.0
  0
LINE
  5
122
330
1F
100
AcDbEntity
  8
A-2
  6
Continuous
 62
     3
370
     9
100
AcDbLine
 10
-678.0875479208456
 20
317.2997007627747
 30
0.0
 11
-678.0875479208456
 21
412.2993955869935
 31
0.0
  0
LINE
  5
123
330
1F
100
AcDbEntity
  8
A-2
  6
Continuous
 62
     3
370
     9
100
AcDbLine
 10
-693.6671014734218
 20
317.2997007627747
 30
0.0
 11
-693.6671014734218
 21
412.2993955869935
 31
0.0
  0
LINE
  5
124
330
1F
100
AcDbEntity
  8
A-2
  6
Continuous
 62
     3
370
     9
100
AcDbLine
 10
-690.6675122235274
 20
317.2997007627747
 30
0.0
 11
-690.6675122235274
 21
412.2993955869935
 31
0.0
  0
LINE
  5
125
330
1F
100
AcDbEntity
  8
A-2
  6
Continuous
 62
     3
370
     9
100
AcDbLine
 10
-706.2471894960146
 20
317.2997007627747
 30
0.0
 11
-706.2471894960146
 21
412.2993955869935
 31
0.0
  0
LINE
  5
126
330
1F
100
AcDbEntity
  8
A-2
  6
Continuous
 62
     3
370
     9
100
AcDbLine
 10
-703.2473528062975
 20
317.2997007627747
 30
0.0
 11
-703.2473528062975
 21
412.2993955869935
 31
0.0
  0
LINE
  5
127
330
1F
100
AcDbEntity
  8
A-2
  6
Continuous
 62
     3
370
     9
100
AcDbLine
 10
-718.8271537986961
 20
317.2997007627747
 30
0.0
 11
-718.8271537986961
 21
412.2993955869935
 31
0.0
  0
LINE
  5
128
330
1F
100
AcDbEntity
  8
A-2
  6
Continuous
 62
     3
370
     9
100
AcDbLine
 10
-715.8273171089792
 20
317.2997007627747
 30
0.0
 11
-715.8273171089792
 21
412.2993955869935
 31
0.0
  0
LINE
  5
129
330
1F
100
AcDbEntity
  8
A-1
  6
Continuous
 62
     2
370
     9
100
AcDbLine
 10
-319.5876085436022
 20
-245.2003920271589
 30
0.0
 11
-748.5871742867135
 21
-245.2003920271589
 31
0.0
  0
LINE
  5
12A
330
1F
100
AcDbEntity
  8
A-1
  6
Continuous
 62
     2
370
     9
100
AcDbLine
 10
-742.5870988175677
 20
468.7994335277659
 30
0.0
 11
-742.5870988175677
 21
-239.2002546980573
 31
0.0
  0
LINE
  5
12B
330
1F
100
AcDbEntity
  8
A-1
  6
Continuous
 62
     2
370
     9
100
AcDbLine
 10
-748.5871742867135
 20
474.7994780669341
 30
0.0
 11
-748.5871742867135
 21
-245.2003920271589
 31
0.0
  0
LINE
  5
12C
330
1F
100
AcDbEntity
  8
A-1
  6
Continuous
 62
     2
370
     9
100
AcDbLine
 10
-325.5877768026816
 20
-239.2002546980573
 30
0.0
 11
-325.5877768026816
 21
468.7994335277659
 31
0.0
  0
LINE
  5
12D
330
1F
100
AcDbEntity
  8
A-1
  6
Continuous
 62
     2
370
     9
100
AcDbLine
 10
-319.5876085436022
 20
-245.2003920271589
 30
0.0
 11
-319.5876085436022
 21
474.7994780669341
 31
0.0
  0
LINE
  5
12E
330
1F
100
AcDbEntity
  8
A-2
  6
Continuous
 62
     4
370
     9
100
AcDbLine
 10
-728.5868917929159
 20
432.3003276103253
 30
0.0
 11
-706.2471894960146
 21
432.3003276103253
 31
0.0
  0
LINE
  5
12F
330
1F
100
AcDbEntity
  8
A-2
  6
Continuous
 62
     4
370
     9
100
AcDbLine
 10
-728.5868917929159
 20
436.8002682247678
 30
0.0
 11
-706.2471894960146
 21
436.8002682247678
 31
0.0
  0
LINE
  5
130
330
1F
100
AcDbEntity
  8
A-2
  6
Continuous
 62
     4
370
     9
100
AcDbLine
 10
-728.5868917929159
 20
-201.2012613657358
 30
0.0
 11
-706.2471894960146
 21
-201.2012613657358
 31
0.0
  0
LINE
  5
131
330
1F
100
AcDbEntity
  8
A-2
  6
Continuous
 62
     4
370
     9
100
AcDbLine
 10
-728.5868917929159
 20
-205.7012019801783
 30
0.0
 11
-706.2471894960146
 21
-205.7012019801783
 31
0.0
  0
LINE
  5
132
330
1F
100
AcDbEntity
  8
A-9
  6
Continuous
 62
     4
370
     9
100
AcDbLine
 10
-702.586812199773
 20
-273.2006204965951
 30
0.0
 11
-722.5869091137035
 21
-273.2006204965951
 31
0.0
  0
LINE
  5
133
330
1F
100
AcDbEntity
  8
A-9
  6
Continuous
 62
     4
370
     9
100
AcDbLine
 10
-702.586812199773
 20
-245.2005157470701
 30
0.0
 11
-702.586812199773
 21
-273.2006204965951
 31
0.0
  0
LINE
  5
134
330
1F
100
AcDbEntity
  8
A-9
  6
Continuous
 62
     4
370
     9
100
AcDbLine
 10
-722.5869091137035
 20
-245.2005157470701
 30
0.0
 11
-722.5869091137035
 21
-273.2006204965951
 31
0.0
  0
LINE
  5
135
330
1F
100
AcDbEntity
  8
A-9
  6
JWW_CENTER1
 62
     4
370
     9
100
AcDbLine
 10
-712.5868451917494
 20
-286.2278322786897
 30
0.0
 11
-712.5868451917494
 21
-212.3042573671081
 31
0.0
  0
LINE
  5
136
330
1F
100
AcDbEntity
  8
A-9
  6
Continuous
 62
     4
370
     9
100
AcDbLine
 10
-716.7750116296718
 20
444.7993790910053
 30
0.0
 11
-717.5868616877376
 21
445.6113528689825
 31
0.0
  0
LINE
  5
137
330
1F
100
AcDbEntity
  8
A-9
  6
Continuous
 62
     4
370
     9
100
AcDbLine
 10
-708.3988024737384
 20
444.7993790910053
 30
0.0
 11
-707.5868286957613
 21
445.6113528689825
 31
0.0
  0
LINE
  5
138
330
1F
100
AcDbEntity
  8
A-9
  6
Continuous
 62
     4
370
     9
100
AcDbLine
 10
-703.7020234803896
 20
480.4560761322847
 30
0.0
 11
-703.7020234803896
 21
474.7993543470228
 31
0.0
  0
LINE
  5
139
330
1F
100
AcDbEntity
  8
A-9
  6
Continuous
 62
     4
370
     9
100
AcDbLine
 10
-721.4720380628431
 20
480.4560761322847
 30
0.0
 11
-721.4720380628431
 21
474.7993543470228
 31
0.0
  0
LINE
  5
13A
330
1F
100
AcDbEntity
  8
A-9
  6
Continuous
 62
     4
370
     9
100
AcDbLine
 10
-719.5293880153347
 20
481.1992616395694
 30
0.0
 11
-705.6444260880754
 21
481.1992616395694
 31
0.0
  0
LINE
  5
13B
330
1F
100
AcDbEntity
  8
A-9
  6
Continuous
 62
     4
370
     9
100
AcDbLine
 10
-708.3988024737384
 20
444.7993790910053
 30
0.0
 11
-716.7750116296718
 21
444.7993790910053
 31
0.0
  0
LINE
  5
13C
330
1F
100
AcDbEntity
  8
A-9
  6
JWW_CENTER1
 62
     4
370
     9
100
AcDbLine
 10
-712.5868451917494
 20
485.8981438714106
 30
0.0
 11
-712.5868451917494
 21
441.2661858635981
 31
0.0
  0
LINE
  5
13D
330
1F
100
AcDbEntity
  8
A-1
  6
Continuous
 62
     2
370
     9
100
AcDbLine
 10
-748.5871742867135
 20
474.7994780669341
 30
0.0
 11
-319.5876085436022
 21
474.7994780669341
 31
0.0
  0
LINE
  5
13E
330
1F
100
AcDbEntity
  8
A-1
  6
JWW_DASHED3
 62
     2
370
     9
100
AcDbLine
 10
-325.5877768026816
 20
-185.2011219746356
 30
0.0
 11
-742.5870988175677
 21
-185.2011219746356
 31
0.0
  0
LINE
  5
13F
330
1F
100
AcDbEntity
  8
A-1
  6
JWW_DASHED3
 62
     2
370
     9
100
AcDbLine
 10
-742.5870988175677
 20
414.8001461544553
 30
0.0
 11
-325.5877768026816
 21
414.8001461544553
 31
0.0
  0
LINE
  5
140
330
1F
100
AcDbEntity
  8
A-1
  6
Continuous
 62
     2
370
     9
100
AcDbLine
 10
-319.5876085436022
 20
-239.2002546980573
 30
0.0
 11
-748.5871742867135
 21
-239.2002546980573
 31
0.0
  0
LINE
  5
141
330
1F
100
AcDbEntity
  8
A-1
  6
Continuous
 62
     2
370
     9
100
AcDbLine
 10
-748.5871742867135
 20
468.7994335277659
 30
0.0
 11
-319.5876085436022
 21
468.7994335277659
 31
0.0
  0
LINE
  5
142
330
1F
100
AcDbEntity
  8
A-2
  6
Continuous
 62
     3
370
     9
100
AcDbLine
 10
-731.5873780121675
 20
117.2992883630703
 30
0.0
 11
-338.5873990445524
 21
117.2992883630703
 31
0.0
  0
LINE
  5
143
330
1F
100
AcDbEntity
  8
A-2
  6
Continuous
 62
     3
370
     9
100
AcDbLine
 10
-731.5873780121675
 20
112.2994574469491
 30
0.0
 11
-338.5873990445524
 21
112.2994574469491
 31
0.0
  0
LINE
  5
144
330
1F
100
AcDbEntity
  8
A-2
  6
Continuous
 62
     3
370
     9
100
AcDbLine
 10
-731.5873780121675
 20
-235.2005136850717
 30
0.0
 11
-731.5873780121675
 21
464.7996925147806
 31
0.0
  0
LINE
  5
145
330
1F
100
AcDbEntity
  8
A-2
  6
Continuous
 62
     3
370
     9
100
AcDbLine
 10
-718.8271537986961
 20
417.2992883630703
 30
0.0
 11
-718.8271537986961
 21
432.3003276103253
 31
0.0
  0
LINE
  5
146
330
1F
100
AcDbEntity
  8
A-2
  6
Continuous
 62
     3
370
     9
100
AcDbLine
 10
-715.8273171089792
 20
417.2992883630703
 30
0.0
 11
-715.8273171089792
 21
432.3003276103253
 31
0.0
  0
LINE
  5
147
330
1F
100
AcDbEntity
  8
A-2
  6
Continuous
 62
     3
370
     9
100
AcDbLine
 10
-338.5873990445524
 20
-235.2005136850717
 30
0.0
 11
-731.5873780121675
 21
-235.2005136850717
 31
0.0
  0
LINE
  5
148
330
1F
100
AcDbEntity
  8
A-2
  6
Continuous
 62
     3
370
     9
100
AcDbLine
 10
-728.5868917929159
 20
-230.70041842074
 30
0.0
 11
-728.5868917929159
 21
-187.7004497631175
 31
0.0
  0
LINE
  5
149
330
1F
100
AcDbEntity
  8
A-2
  6
Continuous
 62
     3
370
     9
100
AcDbLine
 10
-341.5863696948902
 20
-187.7004497631175
 30
0.0
 11
-341.5863696948902
 21
-230.70041842074
 31
0.0
  0
LINE
  5
14A
330
1F
100
AcDbEntity
  8
A-2
  6
Continuous
 62
     3
370
     9
100
AcDbLine
 10
-467.2269707757073
 20
-187.7004497631175
 30
0.0
 11
-467.2269707757073
 21
-230.70041842074
 31
0.0
  0
LINE
  5
14B
330
1F
100
AcDbEntity
  8
A-2
  6
Continuous
 62
     3
370
     9
100
AcDbLine
 10
-464.2275052457243
 20
-187.7004497631175
 30
0.0
 11
-464.2275052457243
 21
-230.70041842074
 31
0.0
  0
LINE
  5
14C
330
1F
100
AcDbEntity
  8
A-2
  6
Continuous
 62
     3
370
     9
100
AcDbLine
 10
-479.8070587983002
 20
-187.7004497631175
 30
0.0
 11
-479.8070587983002
 21
-230.70041842074
 31
0.0
  0
LINE
  5
14D
330
1F
100
AcDbEntity
  8
A-2
  6
Continuous
 62
     3
370
     9
100
AcDbLine
 10
-476.8073458284945
 20
-187.7004497631175
 30
0.0
 11
-476.8073458284945
 21
-230.70041842074
 31
0.0
  0
LINE
  5
14E
330
1F
100
AcDbEntity
  8
A-2
  6
Continuous
 62
     3
370
     9
100
AcDbLine
 10
-492.3869612410263
 20
-187.7004497631175
 30
0.0
 11
-492.3869612410263
 21
-230.70041842074
 31
0.0
  0
LINE
  5
14F
330
1F
100
AcDbEntity
  8
A-2
  6
Continuous
 62
     3
370
     9
100
AcDbLine
 10
-489.3874338510875
 20
-187.7004497631175
 30
0.0
 11
-489.3874338510875
 21
-230.70041842074
 31
0.0
  0
LINE
  5
150
330
1F
100
AcDbEntity
  8
A-2
  6
Continuous
 62
     3
370
     9
100
AcDbLine
 10
-504.9668636837522
 20
-187.7004497631175
 30
0.0
 11
-504.9668636837522
 21
-230.70041842074
 31
0.0
  0
LINE
  5
151
330
1F
100
AcDbEntity
  8
A-2
  6
Continuous
 62
     3
370
     9
100
AcDbLine
 10
-501.9672744338578
 20
-187.7004497631175
 30
0.0
 11
-501.9672744338578
 21
-230.70041842074
 31
0.0
  0
LINE
  5
152
330
1F
100
AcDbEntity
  8
A-2
  6
Continuous
 62
     3
370
     9
100
AcDbLine
 10
-517.5468898463894
 20
-187.7004497631175
 30
0.0
 11
-517.5468898463894
 21
-230.70041842074
 31
0.0
  0
LINE
  5
153
330
1F
100
AcDbEntity
  8
A-2
  6
Continuous
 62
     3
370
     9
100
AcDbLine
 10
-514.5472387365393
 20
-187.7004497631175
 30
0.0
 11
-514.5472387365393
 21
-230.70041842074
 31
0.0
  0
LINE
  5
154
330
1F
100
AcDbEntity
  8
A-2
  6
Continuous
 62
     3
370
     9
100
AcDbLine
 10
-530.1268541490709
 20
-187.7004497631175
 30
0.0
 11
-530.1268541490709
 21
-230.70041842074
 31
0.0
  0
LINE
  5
155
330
1F
100
AcDbEntity
  8
A-2
  6
Continuous
 62
     3
370
     9
100
AcDbLine
 10
-527.127203039221
 20
-187.7004497631175
 30
0.0
 11
-527.127203039221
 21
-230.70041842074
 31
0.0
  0
LINE
  5
156
330
1F
100
AcDbEntity
  8
A-2
  6
Continuous
 62
     3
370
     9
100
AcDbLine
 10
-542.706756591797
 20
-187.7004497631175
 30
0.0
 11
-542.706756591797
 21
-230.70041842074
 31
0.0
  0
LINE
  5
157
330
1F
100
AcDbEntity
  8
A-2
  6
Continuous
 62
     3
370
     9
100
AcDbLine
 10
-539.7072292018581
 20
-187.7004497631175
 30
0.0
 11
-539.7072292018581
 21
-230.70041842074
 31
0.0
  0
LINE
  5
158
330
1F
100
AcDbEntity
  8
A-2
  6
Continuous
 62
     3
370
     9
100
AcDbLine
 10
-555.2875869338577
 20
-187.7004497631175
 30
0.0
 11
-555.2875869338577
 21
-230.70041842074
 31
0.0
  0
LINE
  5
159
330
1F
100
AcDbEntity
  8
A-2
  6
Continuous
 62
     3
370
     9
100
AcDbLine
 10
-552.2871935045398
 20
-187.7004497631175
 30
0.0
 11
-552.2871935045398
 21
-230.70041842074
 31
0.0
  0
LINE
  5
15A
330
1F
100
AcDbEntity
  8
A-2
  6
Continuous
 62
     3
370
     9
100
AcDbLine
 10
-567.8676749564506
 20
-187.7004497631175
 30
0.0
 11
-567.8676749564506
 21
-230.70041842074
 31
0.0
  0
LINE
  5
15B
330
1F
100
AcDbEntity
  8
A-2
  6
Continuous
 62
     3
370
     9
100
AcDbLine
 10
-564.8669722273543
 20
-187.7004497631175
 30
0.0
 11
-564.8669722273543
 21
-230.70041842074
 31
0.0
  0
LINE
  5
15C
330
1F
100
AcDbEntity
  8
A-2
  6
Continuous
 62
     3
370
     9
100
AcDbLine
 10
-580.4475773991766
 20
-187.7004497631175
 30
0.0
 11
-580.4475773991766
 21
-230.70041842074
 31
0.0
  0
LINE
  5
15D
330
1F
100
AcDbEntity
  8
A-2
  6
Continuous
 62
     3
370
     9
100
AcDbLine
 10
-577.4470602499472
 20
-187.7004497631175
 30
0.0
 11
-577.4470602499472
 21
-230.70041842074
 31
0.0
  0
LINE
  5
15E
330
1F
100
AcDbEntity
  8
A-2
  6
Continuous
 62
     3
370
     9
100
AcDbLine
 10
-593.0276035618139
 20
-187.7004497631175
 30
0.0
 11
-593.0276035618139
 21
-230.70041842074
 31
0.0
  0
LINE
  5
15F
330
1F
100
AcDbEntity
  8
A-2
  6
Continuous
 62
     3
370
     9
100
AcDbLine
 10
-590.0268389727619
 20
-187.7004497631175
 30
0.0
 11
-590.0268389727619
 21
-230.70041842074
 31
0.0
  0
LINE
  5
160
330
1F
100
AcDbEntity
  8
A-2
  6
Continuous
 62
     3
370
     9
100
AcDbLine
 10
-605.6073822846284
 20
-187.7004497631175
 30
0.0
 11
-605.6073822846284
 21
-230.70041842074
 31
0.0
  0
LINE
  5
161
330
1F
100
AcDbEntity
  8
A-2
  6
Continuous
 62
     3
370
     9
100
AcDbLine
 10
-602.6069269953548
 20
-187.7004497631175
 30
0.0
 11
-602.6069269953548
 21
-230.70041842074
 31
0.0
  0
LINE
  5
162
330
1F
100
AcDbEntity
  8
A-2
  6
Continuous
 62
     3
370
     9
100
AcDbLine
 10
-618.18734658731
 20
-187.7004497631175
 30
0.0
 11
-618.18734658731
 21
-230.70041842074
 31
0.0
  0
LINE
  5
163
330
1F
100
AcDbEntity
  8
A-2
  6
Continuous
 62
     3
370
     9
100
AcDbLine
 10
-615.1868912980364
 20
-187.7004497631175
 30
0.0
 11
-615.1868912980364
 21
-230.70041842074
 31
0.0
  0
LINE
  5
164
330
1F
100
AcDbEntity
  8
A-2
  6
Continuous
 62
     3
370
     9
100
AcDbLine
 10
-630.7673108899916
 20
-187.7004497631175
 30
0.0
 11
-630.7673108899916
 21
-230.70041842074
 31
0.0
  0
LINE
  5
165
330
1F
100
AcDbEntity
  8
A-2
  6
Continuous
 62
     3
370
     9
100
AcDbLine
 10
-627.7669793206292
 20
-187.7004497631175
 30
0.0
 11
-627.7669793206292
 21
-230.70041842074
 31
0.0
  0
LINE
  5
166
330
1F
100
AcDbEntity
  8
A-2
  6
Continuous
 62
     3
370
     9
100
AcDbLine
 10
-643.3472751926732
 20
-187.7004497631175
 30
0.0
 11
-643.3472751926732
 21
-230.70041842074
 31
0.0
  0
LINE
  5
167
330
1F
100
AcDbEntity
  8
A-2
  6
Continuous
 62
     3
370
     9
100
AcDbLine
 10
-640.3468199033996
 20
-187.7004497631175
 30
0.0
 11
-640.3468199033996
 21
-230.70041842074
 31
0.0
  0
LINE
  5
168
330
1F
100
AcDbEntity
  8
A-2
  6
Continuous
 62
     3
370
     9
100
AcDbLine
 10
-655.927363215266
 20
-187.7004497631175
 30
0.0
 11
-655.927363215266
 21
-230.70041842074
 31
0.0
  0
LINE
  5
169
330
1F
100
AcDbEntity
  8
A-2
  6
Continuous
 62
     3
370
     9
100
AcDbLine
 10
-652.9277739653717
 20
-187.7004497631175
 30
0.0
 11
-652.9277739653717
 21
-230.70041842074
 31
0.0
  0
LINE
  5
16A
330
1F
100
AcDbEntity
  8
A-2
  6
Continuous
 62
     3
370
     9
100
AcDbLine
 10
-668.5073275179477
 20
-187.7004497631175
 30
0.0
 11
-668.5073275179477
 21
-230.70041842074
 31
0.0
  0
LINE
  5
16B
330
1F
100
AcDbEntity
  8
A-2
  6
Continuous
 62
     3
370
     9
100
AcDbLine
 10
-665.5077382680532
 20
-187.7004497631175
 30
0.0
 11
-665.5077382680532
 21
-230.70041842074
 31
0.0
  0
LINE
  5
16C
330
1F
100
AcDbEntity
  8
A-2
  6
Continuous
 62
     3
370
     9
100
AcDbLine
 10
-681.0871371707401
 20
-187.7004497631175
 30
0.0
 11
-681.0871371707401
 21
-230.70041842074
 31
0.0
  0
LINE
  5
16D
330
1F
100
AcDbEntity
  8
A-2
  6
Continuous
 62
     3
370
     9
100
AcDbLine
 10
-678.0875479208456
 20
-187.7004497631175
 30
0.0
 11
-678.0875479208456
 21
-230.70041842074
 31
0.0
  0
LINE
  5
16E
330
1F
100
AcDbEntity
  8
A-2
  6
Continuous
 62
     3
370
     9
100
AcDbLine
 10
-693.6671014734218
 20
-187.7004497631175
 30
0.0
 11
-693.6671014734218
 21
-230.70041842074
 31
0.0
  0
LINE
  5
16F
330
1F
100
AcDbEntity
  8
A-2
  6
Continuous
 62
     3
370
     9
100
AcDbLine
 10
-690.6675122235274
 20
-187.7004497631175
 30
0.0
 11
-690.6675122235274
 21
-230.70041842074
 31
0.0
  0
LINE
  5
170
330
1F
100
AcDbEntity
  8
A-2
  6
Continuous
 62
     3
370
     9
100
AcDbLine
 10
-706.2471894960146
 20
-187.7004497631175
 30
0.0
 11
-706.2471894960146
 21
-230.70041842074
 31
0.0
  0
LINE
  5
171
330
1F
100
AcDbEntity
  8
A-2
  6
Continuous
 62
     3
370
     9
100
AcDbLine
 10
-703.2473528062975
 20
-187.7004497631175
 30
0.0
 11
-703.2473528062975
 21
-230.70041842074
 31
0.0
  0
LINE
  5
172
330
1F
100
AcDbEntity
  8
A-2
  6
Continuous
 62
     3
370
     9
100
AcDbLine
 10
-718.8271537986961
 20
-187.7004497631175
 30
0.0
 11
-718.8271537986961
 21
-201.2012613657358
 31
0.0
  0
LINE
  5
173
330
1F
100
AcDbEntity
  8
A-2
  6
Continuous
 62
     3
370
     9
100
AcDbLine
 10
-715.8273171089792
 20
-187.7004497631175
 30
0.0
 11
-715.8273171089792
 21
-201.2012613657358
 31
0.0
  0
LINE
  5
174
330
1F
100
AcDbEntity
  8
A-2
  6
Continuous
 62
     3
370
     9
100
AcDbLine
 10
-731.5873470821897
 20
-235.2005136850717
 30
0.0
 11
-731.5873470821897
 21
464.7996925147806
 31
0.0
  0
LINE
  5
175
330
1F
100
AcDbEntity
  8
A-2
  6
Continuous
 62
     3
370
     9
100
AcDbLine
 10
-731.5873780121675
 20
17.29926774308501
 30
0.0
 11
-338.5873990445524
 21
17.29926774308501
 31
0.0
  0
LINE
  5
176
330
1F
100
AcDbEntity
  8
A-2
  6
Continuous
 62
     3
370
     9
100
AcDbLine
 10
-731.5873780121675
 20
12.29943682696376
 30
0.0
 11
-338.5873990445524
 21
12.29943682696376
 31
0.0
  0
LINE
  5
177
330
1F
100
AcDbEntity
  8
A-2
  6
Continuous
 62
     3
370
     9
100
AcDbLine
 10
-728.5868917929159
 20
17.29926774308501
 30
0.0
 11
-728.5868917929159
 21
112.2994574469491
 31
0.0
  0
LINE
  5
178
330
1F
100
AcDbEntity
  8
A-2
  6
Continuous
 62
     3
370
     9
100
AcDbLine
 10
-341.5863696948902
 20
112.2994574469491
 30
0.0
 11
-341.5863696948902
 21
17.29926774308501
 31
0.0
  0
LINE
  5
179
330
1F
100
AcDbEntity
  8
A-2
  6
Continuous
 62
     3
370
     9
100
AcDbLine
 10
-467.2269707757073
 20
112.2994574469491
 30
0.0
 11
-467.2269707757073
 21
17.29926774308501
 31
0.0
  0
LINE
  5
17A
330
1F
100
AcDbEntity
  8
A-2
  6
Continuous
 62
     3
370
     9
100
AcDbLine
 10
-464.2275052457243
 20
112.2994574469491
 30
0.0
 11
-464.2275052457243
 21
17.29926774308501
 31
0.0
  0
LINE
  5
17B
330
1F
100
AcDbEntity
  8
A-2
  6
Continuous
 62
     3
370
     9
100
AcDbLine
 10
-479.8070587983002
 20
112.2994574469491
 30
0.0
 11
-479.8070587983002
 21
17.29926774308501
 31
0.0
  0
LINE
  5
17C
330
1F
100
AcDbEntity
  8
A-2
  6
Continuous
 62
     3
370
     9
100
AcDbLine
 10
-476.8073458284945
 20
112.2994574469491
 30
0.0
 11
-476.8073458284945
 21
17.29926774308501
 31
0.0
  0
LINE
  5
17D
330
1F
100
AcDbEntity
  8
A-2
  6
Continuous
 62
     3
370
     9
100
AcDbLine
 10
-492.3869612410263
 20
112.2994574469491
 30
0.0
 11
-492.3869612410263
 21
17.29926774308501
 31
0.0
  0
LINE
  5
17E
330
1F
100
AcDbEntity
  8
A-2
  6
Continuous
 62
     3
370
     9
100
AcDbLine
 10
-489.3874338510875
 20
112.2994574469491
 30
0.0
 11
-489.3874338510875
 21
17.29926774308501
 31
0.0
  0
LINE
  5
17F
330
1F
100
AcDbEntity
  8
A-2
  6
Continuous
 62
     3
370
     9
100
AcDbLine
 10
-504.9668636837522
 20
112.2994574469491
 30
0.0
 11
-504.9668636837522
 21
17.29926774308501
 31
0.0
  0
LINE
  5
180
330
1F
100
AcDbEntity
  8
A-2
  6
Continuous
 62
     3
370
     9
100
AcDbLine
 10
-501.9672744338578
 20
112.2994574469491
 30
0.0
 11
-501.9672744338578
 21
17.29926774308501
 31
0.0
  0
LINE
  5
181
330
1F
100
AcDbEntity
  8
A-2
  6
Continuous
 62
     3
370
     9
100
AcDbLine
 10
-517.5468898463894
 20
112.2994574469491
 30
0.0
 11
-517.5468898463894
 21
17.29926774308501
 31
0.0
  0
LINE
  5
182
330
1F
100
AcDbEntity
  8
A-2
  6
Continuous
 62
     3
370
     9
100
AcDbLine
 10
-514.5472387365393
 20
112.2994574469491
 30
0.0
 11
-514.5472387365393
 21
17.29926774308501
 31
0.0
  0
LINE
  5
183
330
1F
100
AcDbEntity
  8
A-2
  6
Continuous
 62
     3
370
     9
100
AcDbLine
 10
-530.1268541490709
 20
112.2994574469491
 30
0.0
 11
-530.1268541490709
 21
17.29926774308501
 31
0.0
  0
LINE
  5
184
330
1F
100
AcDbEntity
  8
A-2
  6
Continuous
 62
     3
370
     9
100
AcDbLine
 10
-527.127203039221
 20
112.2994574469491
 30
0.0
 11
-527.127203039221
 21
17.29926774308501
 31
0.0
  0
LINE
  5
185
330
1F
100
AcDbEntity
  8
A-2
  6
Continuous
 62
     3
370
     9
100
AcDbLine
 10
-542.706756591797
 20
112.2994574469491
 30
0.0
 11
-542.706756591797
 21
17.29926774308501
 31
0.0
  0
LINE
  5
186
330
1F
100
AcDbEntity
  8
A-2
  6
Continuous
 62
     3
370
     9
100
AcDbLine
 10
-539.7072292018581
 20
112.2994574469491
 30
0.0
 11
-539.7072292018581
 21
17.29926774308501
 31
0.0
  0
LINE
  5
187
330
1F
100
AcDbEntity
  8
A-2
  6
Continuous
 62
     3
370
     9
100
AcDbLine
 10
-555.2875869338577
 20
112.2994574469491
 30
0.0
 11
-555.2875869338577
 21
17.29926774308501
 31
0.0
  0
LINE
  5
188
330
1F
100
AcDbEntity
  8
A-2
  6
Continuous
 62
     3
370
     9
100
AcDbLine
 10
-552.2871935045398
 20
112.2994574469491
 30
0.0
 11
-552.2871935045398
 21
17.29926774308501
 31
0.0
  0
LINE
  5
189
330
1F
100
AcDbEntity
  8
A-2
  6
Continuous
 62
     3
370
     9
100
AcDbLine
 10
-567.8676749564506
 20
112.2994574469491
 30
0.0
 11
-567.8676749564506
 21
17.29926774308501
 31
0.0
  0
LINE
  5
18A
330
1F
100
AcDbEntity
  8
A-2
  6
Continuous
 62
     3
370
     9
100
AcDbLine
 10
-564.8669722273543
 20
112.2994574469491
 30
0.0
 11
-564.8669722273543
 21
17.29926774308501
 31
0.0
  0
LINE
  5
18B
330
1F
100
AcDbEntity
  8
A-2
  6
Continuous
 62
     3
370
     9
100
AcDbLine
 10
-580.4475773991766
 20
112.2994574469491
 30
0.0
 11
-580.4475773991766
 21
17.29926774308501
 31
0.0
  0
LINE
  5
18C
330
1F
100
AcDbEntity
  8
A-2
  6
Continuous
 62
     3
370
     9
100
AcDbLine
 10
-577.4470602499472
 20
112.2994574469491
 30
0.0
 11
-577.4470602499472
 21
17.29926774308501
 31
0.0
  0
LINE
  5
18D
330
1F
100
AcDbEntity
  8
A-2
  6
Continuous
 62
     3
370
     9
100
AcDbLine
 10
-593.0276035618139
 20
112.2994574469491
 30
0.0
 11
-593.0276035618139
 21
17.29926774308501
 31
0.0
  0
LINE
  5
18E
330
1F
100
AcDbEntity
  8
A-2
  6
Continuous
 62
     3
370
     9
100
AcDbLine
 10
-590.0268389727619
 20
112.2994574469491
 30
0.0
 11
-590.0268389727619
 21
17.29926774308501
 31
0.0
  0
LINE
  5
18F
330
1F
100
AcDbEntity
  8
A-2
  6
Continuous
 62
     3
370
     9
100
AcDbLine
 10
-605.6073822846284
 20
112.2994574469491
 30
0.0
 11
-605.6073822846284
 21
17.29926774308501
 31
0.0
  0
LINE
  5
190
330
1F
100
AcDbEntity
  8
A-2
  6
Continuous
 62
     3
370
     9
100
AcDbLine
 10
-602.6069269953548
 20
112.2994574469491
 30
0.0
 11
-602.6069269953548
 21
17.29926774308501
 31
0.0
  0
LINE
  5
191
330
1F
100
AcDbEntity
  8
A-2
  6
Continuous
 62
     3
370
     9
100
AcDbLine
 10
-618.18734658731
 20
112.2994574469491
 30
0.0
 11
-618.18734658731
 21
17.29926774308501
 31
0.0
  0
LINE
  5
192
330
1F
100
AcDbEntity
  8
A-2
  6
Continuous
 62
     3
370
     9
100
AcDbLine
 10
-615.1868912980364
 20
112.2994574469491
 30
0.0
 11
-615.1868912980364
 21
17.29926774308501
 31
0.0
  0
LINE
  5
193
330
1F
100
AcDbEntity
  8
A-2
  6
Continuous
 62
     3
370
     9
100
AcDbLine
 10
-630.7673108899916
 20
112.2994574469491
 30
0.0
 11
-630.7673108899916
 21
17.29926774308501
 31
0.0
  0
LINE
  5
194
330
1F
100
AcDbEntity
  8
A-2
  6
Continuous
 62
     3
370
     9
100
AcDbLine
 10
-627.7669793206292
 20
112.2994574469491
 30
0.0
 11
-627.7669793206292
 21
17.29926774308501
 31
0.0
  0
LINE
  5
195
330
1F
100
AcDbEntity
  8
A-2
  6
Continuous
 62
     3
370
     9
100
AcDbLine
 10
-643.3472751926732
 20
112.2994574469491
 30
0.0
 11
-643.3472751926732
 21
17.29926774308501
 31
0.0
  0
LINE
  5
196
330
1F
100
AcDbEntity
  8
A-2
  6
Continuous
 62
     3
370
     9
100
AcDbLine
 10
-640.3468199033996
 20
112.2994574469491
 30
0.0
 11
-640.3468199033996
 21
17.29926774308501
 31
0.0
  0
LINE
  5
197
330
1F
100
AcDbEntity
  8
A-2
  6
Continuous
 62
     3
370
     9
100
AcDbLine
 10
-655.927363215266
 20
112.2994574469491
 30
0.0
 11
-655.927363215266
 21
17.29926774308501
 31
0.0
  0
LINE
  5
198
330
1F
100
AcDbEntity
  8
A-2
  6
Continuous
 62
     3
370
     9
100
AcDbLine
 10
-652.9277739653717
 20
112.2994574469491
 30
0.0
 11
-652.9277739653717
 21
17.29926774308501
 31
0.0
  0
LINE
  5
199
330
1F
100
AcDbEntity
  8
A-2
  6
Continuous
 62
     3
370
     9
100
AcDbLine
 10
-668.5073275179477
 20
112.2994574469491
 30
0.0
 11
-668.5073275179477
 21
17.29926774308501
 31
0.0
  0
LINE
  5
19A
330
1F
100
AcDbEntity
  8
A-2
  6
Continuous
 62
     3
370
     9
100
AcDbLine
 10
-665.5077382680532
 20
112.2994574469491
 30
0.0
 11
-665.5077382680532
 21
17.29926774308501
 31
0.0
  0
LINE
  5
19B
330
1F
100
AcDbEntity
  8
A-2
  6
Continuous
 62
     3
370
     9
100
AcDbLine
 10
-681.0871371707401
 20
112.2994574469491
 30
0.0
 11
-681.0871371707401
 21
17.29926774308501
 31
0.0
  0
LINE
  5
19C
330
1F
100
AcDbEntity
  8
A-2
  6
Continuous
 62
     3
370
     9
100
AcDbLine
 10
-678.0875479208456
 20
112.2994574469491
 30
0.0
 11
-678.0875479208456
 21
17.29926774308501
 31
0.0
  0
LINE
  5
19D
330
1F
100
AcDbEntity
  8
A-2
  6
Continuous
 62
     3
370
     9
100
AcDbLine
 10
-693.6671014734218
 20
112.2994574469491
 30
0.0
 11
-693.6671014734218
 21
17.29926774308501
 31
0.0
  0
LINE
  5
19E
330
1F
100
AcDbEntity
  8
A-2
  6
Continuous
 62
     3
370
     9
100
AcDbLine
 10
-690.6675122235274
 20
112.2994574469491
 30
0.0
 11
-690.6675122235274
 21
17.29926774308501
 31
0.0
  0
LINE
  5
19F
330
1F
100
AcDbEntity
  8
A-2
  6
Continuous
 62
     3
370
     9
100
AcDbLine
 10
-706.2471894960146
 20
112.2994574469491
 30
0.0
 11
-706.2471894960146
 21
17.29926774308501
 31
0.0
  0
LINE
  5
1A0
330
1F
100
AcDbEntity
  8
A-2
  6
Continuous
 62
     3
370
     9
100
AcDbLine
 10
-703.2473528062975
 20
112.2994574469491
 30
0.0
 11
-703.2473528062975
 21
17.29926774308501
 31
0.0
  0
LINE
  5
1A1
330
1F
100
AcDbEntity
  8
A-2
  6
Continuous
 62
     3
370
     9
100
AcDbLine
 10
-718.8271537986961
 20
112.2994574469491
 30
0.0
 11
-718.8271537986961
 21
17.29926774308501
 31
0.0
  0
LINE
  5
1A2
330
1F
100
AcDbEntity
  8
A-2
  6
Continuous
 62
     3
370
     9
100
AcDbLine
 10
-715.8273171089792
 20
112.2994574469491
 30
0.0
 11
-715.8273171089792
 21
17.29926774308501
 31
0.0
  0
LINE
  5
1A3
330
1F
100
AcDbEntity
  8
A-9
  6
Continuous
 62
     4
370
     9
100
AcDbLine
 10
-717.5868616877376
 20
474.7993543470228
 30
0.0
 11
-717.5868616877376
 21
480.4560761322847
 31
0.0
  0
LINE
  5
1A4
330
1F
100
AcDbEntity
  8
A-9
  6
Continuous
 62
     4
370
     9
100
AcDbLine
 10
-707.5868286957613
 20
474.7993543470228
 30
0.0
 11
-707.5868286957613
 21
480.4560761322847
 31
0.0
  0
LINE
  5
1A5
330
1F
100
AcDbEntity
  8
A-9
  6
Continuous
 62
     4
370
     9
100
AcDbLine
 10
-717.5868616877376
 20
464.7996925147806
 30
0.0
 11
-717.5868616877376
 21
468.7993098078547
 31
0.0
  0
LINE
  5
1A6
330
1F
100
AcDbEntity
  8
A-9
  6
Continuous
 62
     4
370
     9
100
AcDbLine
 10
-707.5868286957613
 20
464.7996925147806
 30
0.0
 11
-707.5868286957613
 21
468.7993098078547
 31
0.0
  0
LINE
  5
1A7
330
1F
100
AcDbEntity
  8
A-9
  6
Continuous
 62
     4
370
     9
100
AcDbLine
 10
-718.0868138493719
 20
-239.2003784179686
 30
0.0
 11
-718.0868138493719
 21
-235.2005136850717
 31
0.0
  0
LINE
  5
1A8
330
1F
100
AcDbEntity
  8
A-9
  6
Continuous
 62
     4
370
     9
100
AcDbLine
 10
-707.0868765341269
 20
-239.2003784179686
 30
0.0
 11
-707.0868765341269
 21
-235.2005136850717
 31
0.0
  0
LINE
  5
1A9
330
1F
100
AcDbEntity
  8
A-9
  6
Continuous
 62
     4
370
     9
100
AcDbLine
 10
-707.0868765341269
 20
-230.70041842074
 30
0.0
 11
-707.0868765341269
 21
-220.2005569870406
 31
0.0
  0
LINE
  5
1AA
330
1F
100
AcDbEntity
  8
A-2
  6
Continuous
 62
     3
370
     9
100
AcDbLine
 10
-731.5873780121675
 20
464.7996925147806
 30
0.0
 11
-338.5873990445524
 21
464.7996925147806
 31
0.0
  0
LINE
  5
1AB
330
1F
100
AcDbEntity
  8
A-2
  6
Continuous
 62
     3
370
     9
100
AcDbLine
 10
-338.5873990445524
 20
-235.2005136850717
 30
0.0
 11
-338.5873990445524
 21
464.7996925147806
 31
0.0
  0
LINE
  5
1AC
330
1F
100
AcDbEntity
  8
A-2
  6
Continuous
 62
     3
370
     9
100
AcDbLine
 10
-454.647130192937
 20
212.2994780669344
 30
0.0
 11
-454.647130192937
 21
117.2992883630703
 31
0.0
  0
LINE
  5
1AD
330
1F
100
AcDbEntity
  8
A-2
  6
Continuous
 62
     3
370
     9
100
AcDbLine
 10
-451.647664662954
 20
212.2994780669344
 30
0.0
 11
-451.647664662954
 21
117.2992883630703
 31
0.0
  0
LINE
  5
1AE
330
1F
100
AcDbEntity
  8
A-2
  6
Continuous
 62
     3
370
     9
100
AcDbLine
 10
-454.647130192937
 20
217.2993089830553
 30
0.0
 11
-454.647130192937
 21
312.2989419473188
 31
0.0
  0
LINE
  5
1AF
330
1F
100
AcDbEntity
  8
A-2
  6
Continuous
 62
     3
370
     9
100
AcDbLine
 10
-451.647664662954
 20
217.2993089830553
 30
0.0
 11
-451.647664662954
 21
312.2989419473188
 31
0.0
  0
LINE
  5
1B0
330
1F
100
AcDbEntity
  8
A-2
  6
Continuous
 62
     3
370
     9
100
AcDbLine
 10
-454.647130192937
 20
317.2997007627747
 30
0.0
 11
-454.647130192937
 21
412.2993955869935
 31
0.0
  0
LINE
  5
1B1
330
1F
100
AcDbEntity
  8
A-2
  6
Continuous
 62
     3
370
     9
100
AcDbLine
 10
-451.647664662954
 20
317.2997007627747
 30
0.0
 11
-451.647664662954
 21
412.2993955869935
 31
0.0
  0
LINE
  5
1B2
330
1F
100
AcDbEntity
  8
A-2
  6
Continuous
 62
     3
370
     9
100
AcDbLine
 10
-454.647130192937
 20
-187.7004497631175
 30
0.0
 11
-454.647130192937
 21
-230.7004493507178
 31
0.0
  0
LINE
  5
1B3
330
1F
100
AcDbEntity
  8
A-2
  6
Continuous
 62
     3
370
     9
100
AcDbLine
 10
-451.647664662954
 20
-187.7004497631175
 30
0.0
 11
-451.647664662954
 21
-230.7004493507178
 31
0.0
  0
LINE
  5
1B4
330
1F
100
AcDbEntity
  8
A-2
  6
Continuous
 62
     3
370
     9
100
AcDbLine
 10
-454.647130192937
 20
112.2994574469491
 30
0.0
 11
-454.647130192937
 21
17.29926774308501
 31
0.0
  0
LINE
  5
1B5
330
1F
100
AcDbEntity
  8
A-2
  6
Continuous
 62
     3
370
     9
100
AcDbLine
 10
-451.647664662954
 20
112.2994574469491
 30
0.0
 11
-451.647664662954
 21
17.29926774308501
 31
0.0
  0
LINE
  5
1B6
330
1F
100
AcDbEntity
  8
A-2
  6
Continuous
 62
     3
370
     9
100
AcDbLine
 10
-442.0672896101669
 20
212.2994780669344
 30
0.0
 11
-442.0672896101669
 21
117.2992883630703
 31
0.0
  0
LINE
  5
1B7
330
1F
100
AcDbEntity
  8
A-2
  6
Continuous
 62
     3
370
     9
100
AcDbLine
 10
-439.0678240801836
 20
212.2994780669344
 30
0.0
 11
-439.0678240801836
 21
117.2992883630703
 31
0.0
  0
LINE
  5
1B8
330
1F
100
AcDbEntity
  8
A-2
  6
Continuous
 62
     3
370
     9
100
AcDbLine
 10
-442.0672896101669
 20
217.2993089830553
 30
0.0
 11
-442.0672896101669
 21
312.2989419473188
 31
0.0
  0
LINE
  5
1B9
330
1F
100
AcDbEntity
  8
A-2
  6
Continuous
 62
     3
370
     9
100
AcDbLine
 10
-439.0678240801836
 20
217.2993089830553
 30
0.0
 11
-439.0678240801836
 21
312.2989419473188
 31
0.0
  0
LINE
  5
1BA
330
1F
100
AcDbEntity
  8
A-2
  6
Continuous
 62
     3
370
     9
100
AcDbLine
 10
-442.0672896101669
 20
317.2997007627747
 30
0.0
 11
-442.0672896101669
 21
412.2993955869935
 31
0.0
  0
LINE
  5
1BB
330
1F
100
AcDbEntity
  8
A-2
  6
Continuous
 62
     3
370
     9
100
AcDbLine
 10
-439.0678240801836
 20
317.2997007627747
 30
0.0
 11
-439.0678240801836
 21
412.2993955869935
 31
0.0
  0
LINE
  5
1BC
330
1F
100
AcDbEntity
  8
A-2
  6
Continuous
 62
     3
370
     9
100
AcDbLine
 10
-442.0672896101669
 20
-187.7004497631175
 30
0.0
 11
-442.0672896101669
 21
-230.7004493507178
 31
0.0
  0
LINE
  5
1BD
330
1F
100
AcDbEntity
  8
A-2
  6
Continuous
 62
     3
370
     9
100
AcDbLine
 10
-439.0678240801836
 20
-187.7004497631175
 30
0.0
 11
-439.0678240801836
 21
-230.7004493507178
 31
0.0
  0
LINE
  5
1BE
330
1F
100
AcDbEntity
  8
A-2
  6
Continuous
 62
     3
370
     9
100
AcDbLine
 10
-442.0672896101669
 20
112.2994574469491
 30
0.0
 11
-442.0672896101669
 21
17.29926774308501
 31
0.0
  0
LINE
  5
1BF
330
1F
100
AcDbEntity
  8
A-2
  6
Continuous
 62
     3
370
     9
100
AcDbLine
 10
-439.0678240801836
 20
112.2994574469491
 30
0.0
 11
-439.0678240801836
 21
17.29926774308501
 31
0.0
  0
LINE
  5
1C0
330
1F
100
AcDbEntity
  8
A-2
  6
Continuous
 62
     3
370
     9
100
AcDbLine
 10
-429.4874490273966
 20
212.2994780669344
 30
0.0
 11
-429.4874490273966
 21
117.2992883630703
 31
0.0
  0
LINE
  5
1C1
330
1F
100
AcDbEntity
  8
A-2
  6
Continuous
 62
     3
370
     9
100
AcDbLine
 10
-426.4879834974136
 20
212.2994780669344
 30
0.0
 11
-426.4879834974136
 21
117.2992883630703
 31
0.0
  0
LINE
  5
1C2
330
1F
100
AcDbEntity
  8
A-2
  6
Continuous
 62
     3
370
     9
100
AcDbLine
 10
-429.4874490273966
 20
217.2993089830553
 30
0.0
 11
-429.4874490273966
 21
312.2989419473188
 31
0.0
  0
LINE
  5
1C3
330
1F
100
AcDbEntity
  8
A-2
  6
Continuous
 62
     3
370
     9
100
AcDbLine
 10
-426.4879834974136
 20
217.2993089830553
 30
0.0
 11
-426.4879834974136
 21
312.2989419473188
 31
0.0
  0
LINE
  5
1C4
330
1F
100
AcDbEntity
  8
A-2
  6
Continuous
 62
     3
370
     9
100
AcDbLine
 10
-429.4874490273966
 20
317.2997007627747
 30
0.0
 11
-429.4874490273966
 21
412.2993955869935
 31
0.0
  0
LINE
  5
1C5
330
1F
100
AcDbEntity
  8
A-2
  6
Continuous
 62
     3
370
     9
100
AcDbLine
 10
-426.4879834974136
 20
317.2997007627747
 30
0.0
 11
-426.4879834974136
 21
412.2993955869935
 31
0.0
  0
LINE
  5
1C6
330
1F
100
AcDbEntity
  8
A-2
  6
Continuous
 62
     3
370
     9
100
AcDbLine
 10
-429.4874490273966
 20
-187.7004497631175
 30
0.0
 11
-429.4874490273966
 21
-230.7004493507178
 31
0.0
  0
LINE
  5
1C7
330
1F
100
AcDbEntity
  8
A-2
  6
Continuous
 62
     3
370
     9
100
AcDbLine
 10
-426.4879834974136
 20
-187.7004497631175
 30
0.0
 11
-426.4879834974136
 21
-230.7004493507178
 31
0.0
  0
LINE
  5
1C8
330
1F
100
AcDbEntity
  8
A-2
  6
Continuous
 62
     3
370
     9
100
AcDbLine
 10
-429.4874490273966
 20
112.2994574469491
 30
0.0
 11
-429.4874490273966
 21
17.29926774308501
 31
0.0
  0
LINE
  5
1C9
330
1F
100
AcDbEntity
  8
A-2
  6
Continuous
 62
     3
370
     9
100
AcDbLine
 10
-426.4879834974136
 20
112.2994574469491
 30
0.0
 11
-426.4879834974136
 21
17.29926774308501
 31
0.0
  0
LINE
  5
1CA
330
1F
100
AcDbEntity
  8
A-2
  6
Continuous
 62
     3
370
     9
100
AcDbLine
 10
-416.9076084446262
 20
212.2994780669344
 30
0.0
 11
-416.9076084446262
 21
117.2992883630703
 31
0.0
  0
LINE
  5
1CB
330
1F
100
AcDbEntity
  8
A-2
  6
Continuous
 62
     3
370
     9
100
AcDbLine
 10
-413.9081429146432
 20
212.2994780669344
 30
0.0
 11
-413.9081429146432
 21
117.2992883630703
 31
0.0
  0
LINE
  5
1CC
330
1F
100
AcDbEntity
  8
A-2
  6
Continuous
 62
     3
370
     9
100
AcDbLine
 10
-416.9076084446262
 20
217.2993089830553
 30
0.0
 11
-416.9076084446262
 21
312.2989419473188
 31
0.0
  0
LINE
  5
1CD
330
1F
100
AcDbEntity
  8
A-2
  6
Continuous
 62
     3
370
     9
100
AcDbLine
 10
-413.9081429146432
 20
217.2993089830553
 30
0.0
 11
-413.9081429146432
 21
312.2989419473188
 31
0.0
  0
LINE
  5
1CE
330
1F
100
AcDbEntity
  8
A-2
  6
Continuous
 62
     3
370
     9
100
AcDbLine
 10
-416.9076084446262
 20
317.2997007627747
 30
0.0
 11
-416.9076084446262
 21
412.2993955869935
 31
0.0
  0
LINE
  5
1CF
330
1F
100
AcDbEntity
  8
A-2
  6
Continuous
 62
     3
370
     9
100
AcDbLine
 10
-413.9081429146432
 20
317.2997007627747
 30
0.0
 11
-413.9081429146432
 21
412.2993955869935
 31
0.0
  0
LINE
  5
1D0
330
1F
100
AcDbEntity
  8
A-2
  6
Continuous
 62
     3
370
     9
100
AcDbLine
 10
-416.9076084446262
 20
-187.7004497631175
 30
0.0
 11
-416.9076084446262
 21
-230.7004493507178
 31
0.0
  0
LINE
  5
1D1
330
1F
100
AcDbEntity
  8
A-2
  6
Continuous
 62
     3
370
     9
100
AcDbLine
 10
-413.9081429146432
 20
-187.7004497631175
 30
0.0
 11
-413.9081429146432
 21
-230.7004493507178
 31
0.0
  0
LINE
  5
1D2
330
1F
100
AcDbEntity
  8
A-2
  6
Continuous
 62
     3
370
     9
100
AcDbLine
 10
-416.9076084446262
 20
112.2994574469491
 30
0.0
 11
-416.9076084446262
 21
17.29926774308501
 31
0.0
  0
LINE
  5
1D3
330
1F
100
AcDbEntity
  8
A-2
  6
Continuous
 62
     3
370
     9
100
AcDbLine
 10
-413.9081429146432
 20
112.2994574469491
 30
0.0
 11
-413.9081429146432
 21
17.29926774308501
 31
0.0
  0
LINE
  5
1D4
330
1F
100
AcDbEntity
  8
A-2
  6
Continuous
 62
     3
370
     9
100
AcDbLine
 10
-404.3277678618561
 20
212.2994780669344
 30
0.0
 11
-404.3277678618561
 21
117.2992883630703
 31
0.0
  0
LINE
  5
1D5
330
1F
100
AcDbEntity
  8
A-2
  6
Continuous
 62
     3
370
     9
100
AcDbLine
 10
-401.3283023318729
 20
212.2994780669344
 30
0.0
 11
-401.3283023318729
 21
117.2992883630703
 31
0.0
  0
LINE
  5
1D6
330
1F
100
AcDbEntity
  8
A-2
  6
Continuous
 62
     3
370
     9
100
AcDbLine
 10
-404.3277678618561
 20
217.2993089830553
 30
0.0
 11
-404.3277678618561
 21
312.2989419473188
 31
0.0
  0
LINE
  5
1D7
330
1F
100
AcDbEntity
  8
A-2
  6
Continuous
 62
     3
370
     9
100
AcDbLine
 10
-401.3283023318729
 20
217.2993089830553
 30
0.0
 11
-401.3283023318729
 21
312.2989419473188
 31
0.0
  0
LINE
  5
1D8
330
1F
100
AcDbEntity
  8
A-2
  6
Continuous
 62
     3
370
     9
100
AcDbLine
 10
-404.3277678618561
 20
317.2997007627747
 30
0.0
 11
-404.3277678618561
 21
412.2993955869935
 31
0.0
  0
LINE
  5
1D9
330
1F
100
AcDbEntity
  8
A-2
  6
Continuous
 62
     3
370
     9
100
AcDbLine
 10
-401.3283023318729
 20
317.2997007627747
 30
0.0
 11
-401.3283023318729
 21
412.2993955869935
 31
0.0
  0
LINE
  5
1DA
330
1F
100
AcDbEntity
  8
A-2
  6
Continuous
 62
     3
370
     9
100
AcDbLine
 10
-404.3277678618561
 20
-187.7004497631175
 30
0.0
 11
-404.3277678618561
 21
-230.7004493507178
 31
0.0
  0
LINE
  5
1DB
330
1F
100
AcDbEntity
  8
A-2
  6
Continuous
 62
     3
370
     9
100
AcDbLine
 10
-401.3283023318729
 20
-187.7004497631175
 30
0.0
 11
-401.3283023318729
 21
-230.7004493507178
 31
0.0
  0
LINE
  5
1DC
330
1F
100
AcDbEntity
  8
A-2
  6
Continuous
 62
     3
370
     9
100
AcDbLine
 10
-404.3277678618561
 20
112.2994574469491
 30
0.0
 11
-404.3277678618561
 21
17.29926774308501
 31
0.0
  0
LINE
  5
1DD
330
1F
100
AcDbEntity
  8
A-2
  6
Continuous
 62
     3
370
     9
100
AcDbLine
 10
-401.3283023318729
 20
112.2994574469491
 30
0.0
 11
-401.3283023318729
 21
17.29926774308501
 31
0.0
  0
LINE
  5
1DE
330
1F
100
AcDbEntity
  8
A-2
  6
Continuous
 62
     3
370
     9
100
AcDbLine
 10
-391.7479272790858
 20
212.2994780669344
 30
0.0
 11
-391.7479272790858
 21
117.2992883630703
 31
0.0
  0
LINE
  5
1DF
330
1F
100
AcDbEntity
  8
A-2
  6
Continuous
 62
     3
370
     9
100
AcDbLine
 10
-388.7484617491027
 20
212.2994780669344
 30
0.0
 11
-388.7484617491027
 21
117.2992883630703
 31
0.0
  0
LINE
  5
1E0
330
1F
100
AcDbEntity
  8
A-2
  6
Continuous
 62
     3
370
     9
100
AcDbLine
 10
-391.7479272790858
 20
217.2993089830553
 30
0.0
 11
-391.7479272790858
 21
312.2989419473188
 31
0.0
  0
LINE
  5
1E1
330
1F
100
AcDbEntity
  8
A-2
  6
Continuous
 62
     3
370
     9
100
AcDbLine
 10
-388.7484617491027
 20
217.2993089830553
 30
0.0
 11
-388.7484617491027
 21
312.2989419473188
 31
0.0
  0
LINE
  5
1E2
330
1F
100
AcDbEntity
  8
A-2
  6
Continuous
 62
     3
370
     9
100
AcDbLine
 10
-391.7479272790858
 20
317.2997007627747
 30
0.0
 11
-391.7479272790858
 21
412.2993955869935
 31
0.0
  0
LINE
  5
1E3
330
1F
100
AcDbEntity
  8
A-2
  6
Continuous
 62
     3
370
     9
100
AcDbLine
 10
-388.7484617491027
 20
317.2997007627747
 30
0.0
 11
-388.7484617491027
 21
412.2993955869935
 31
0.0
  0
LINE
  5
1E4
330
1F
100
AcDbEntity
  8
A-2
  6
Continuous
 62
     3
370
     9
100
AcDbLine
 10
-391.7479272790858
 20
-187.7004497631175
 30
0.0
 11
-391.7479272790858
 21
-230.7004493507178
 31
0.0
  0
LINE
  5
1E5
330
1F
100
AcDbEntity
  8
A-2
  6
Continuous
 62
     3
370
     9
100
AcDbLine
 10
-388.7484617491027
 20
-187.7004497631175
 30
0.0
 11
-388.7484617491027
 21
-230.7004493507178
 31
0.0
  0
LINE
  5
1E6
330
1F
100
AcDbEntity
  8
A-2
  6
Continuous
 62
     3
370
     9
100
AcDbLine
 10
-391.7479272790858
 20
112.2994574469491
 30
0.0
 11
-391.7479272790858
 21
17.29926774308501
 31
0.0
  0
LINE
  5
1E7
330
1F
100
AcDbEntity
  8
A-2
  6
Continuous
 62
     3
370
     9
100
AcDbLine
 10
-388.7484617491027
 20
112.2994574469491
 30
0.0
 11
-388.7484617491027
 21
17.29926774308501
 31
0.0
  0
LINE
  5
1E8
330
1F
100
AcDbEntity
  8
A-2
  6
Continuous
 62
     3
370
     9
100
AcDbLine
 10
-379.1680866963155
 20
212.2994780669344
 30
0.0
 11
-379.1680866963155
 21
117.2992883630703
 31
0.0
  0
LINE
  5
1E9
330
1F
100
AcDbEntity
  8
A-2
  6
Continuous
 62
     3
370
     9
100
AcDbLine
 10
-376.1686211663324
 20
212.2994780669344
 30
0.0
 11
-376.1686211663324
 21
117.2992883630703
 31
0.0
  0
LINE
  5
1EA
330
1F
100
AcDbEntity
  8
A-2
  6
Continuous
 62
     3
370
     9
100
AcDbLine
 10
-379.1680866963155
 20
217.2993089830553
 30
0.0
 11
-379.1680866963155
 21
312.2989419473188
 31
0.0
  0
LINE
  5
1EB
330
1F
100
AcDbEntity
  8
A-2
  6
Continuous
 62
     3
370
     9
100
AcDbLine
 10
-376.1686211663324
 20
217.2993089830553
 30
0.0
 11
-376.1686211663324
 21
312.2989419473188
 31
0.0
  0
LINE
  5
1EC
330
1F
100
AcDbEntity
  8
A-2
  6
Continuous
 62
     3
370
     9
100
AcDbLine
 10
-379.1680866963155
 20
317.2997007627747
 30
0.0
 11
-379.1680866963155
 21
412.2993955869935
 31
0.0
  0
LINE
  5
1ED
330
1F
100
AcDbEntity
  8
A-2
  6
Continuous
 62
     3
370
     9
100
AcDbLine
 10
-376.1686211663324
 20
317.2997007627747
 30
0.0
 11
-376.1686211663324
 21
412.2993955869935
 31
0.0
  0
LINE
  5
1EE
330
1F
100
AcDbEntity
  8
A-2
  6
Continuous
 62
     3
370
     9
100
AcDbLine
 10
-379.1680866963155
 20
-187.7004497631175
 30
0.0
 11
-379.1680866963155
 21
-230.7004493507178
 31
0.0
  0
LINE
  5
1EF
330
1F
100
AcDbEntity
  8
A-2
  6
Continuous
 62
     3
370
     9
100
AcDbLine
 10
-376.1686211663324
 20
-187.7004497631175
 30
0.0
 11
-376.1686211663324
 21
-230.7004493507178
 31
0.0
  0
LINE
  5
1F0
330
1F
100
AcDbEntity
  8
A-2
  6
Continuous
 62
     3
370
     9
100
AcDbLine
 10
-379.1680866963155
 20
112.2994574469491
 30
0.0
 11
-379.1680866963155
 21
17.29926774308501
 31
0.0
  0
LINE
  5
1F1
330
1F
100
AcDbEntity
  8
A-2
  6
Continuous
 62
     3
370
     9
100
AcDbLine
 10
-376.1686211663324
 20
112.2994574469491
 30
0.0
 11
-376.1686211663324
 21
17.29926774308501
 31
0.0
  0
LINE
  5
1F2
330
1F
100
AcDbEntity
  8
A-2
  6
Continuous
 62
     3
370
     9
100
AcDbLine
 10
-366.5882461135452
 20
212.2994780669344
 30
0.0
 11
-366.5882461135452
 21
117.2992883630703
 31
0.0
  0
LINE
  5
1F3
330
1F
100
AcDbEntity
  8
A-2
  6
Continuous
 62
     3
370
     9
100
AcDbLine
 10
-363.5887805835621
 20
212.2994780669344
 30
0.0
 11
-363.5887805835621
 21
117.2992883630703
 31
0.0
  0
LINE
  5
1F4
330
1F
100
AcDbEntity
  8
A-2
  6
Continuous
 62
     3
370
     9
100
AcDbLine
 10
-366.5882461135452
 20
217.2993089830553
 30
0.0
 11
-366.5882461135452
 21
312.2989419473188
 31
0.0
  0
LINE
  5
1F5
330
1F
100
AcDbEntity
  8
A-2
  6
Continuous
 62
     3
370
     9
100
AcDbLine
 10
-363.5887805835621
 20
217.2993089830553
 30
0.0
 11
-363.5887805835621
 21
312.2989419473188
 31
0.0
  0
LINE
  5
1F6
330
1F
100
AcDbEntity
  8
A-2
  6
Continuous
 62
     3
370
     9
100
AcDbLine
 10
-366.5882461135452
 20
317.2997007627747
 30
0.0
 11
-366.5882461135452
 21
412.2993955869935
 31
0.0
  0
LINE
  5
1F7
330
1F
100
AcDbEntity
  8
A-2
  6
Continuous
 62
     3
370
     9
100
AcDbLine
 10
-363.5887805835621
 20
317.2997007627747
 30
0.0
 11
-363.5887805835621
 21
412.2993955869935
 31
0.0
  0
LINE
  5
1F8
330
1F
100
AcDbEntity
  8
A-2
  6
Continuous
 62
     3
370
     9
100
AcDbLine
 10
-366.5882461135452
 20
-187.7004497631175
 30
0.0
 11
-366.5882461135452
 21
-230.7004493507178
 31
0.0
  0
LINE
  5
1F9
330
1F
100
AcDbEntity
  8
A-2
  6
Continuous
 62
     3
370
     9
100
AcDbLine
 10
-363.5887805835621
 20
-187.7004497631175
 30
0.0
 11
-363.5887805835621
 21
-230.7004493507178
 31
0.0
  0
LINE
  5
1FA
330
1F
100
AcDbEntity
  8
A-2
  6
Continuous
 62
     3
370
     9
100
AcDbLine
 10
-366.5882461135452
 20
112.2994574469491
 30
0.0
 11
-366.5882461135452
 21
17.29926774308501
 31
0.0
  0
LINE
  5
1FB
330
1F
100
AcDbEntity
  8
A-2
  6
Continuous
 62
     3
370
     9
100
AcDbLine
 10
-363.5887805835621
 20
112.2994574469491
 30
0.0
 11
-363.5887805835621
 21
17.29926774308501
 31
0.0
  0
LINE
  5
1FC
330
1F
100
AcDbEntity
  8
A-2
  6
Continuous
 62
     3
370
     9
100
AcDbLine
 10
-354.008405530775
 20
212.2994780669344
 30
0.0
 11
-354.008405530775
 21
117.2992883630703
 31
0.0
  0
LINE
  5
1FD
330
1F
100
AcDbEntity
  8
A-2
  6
Continuous
 62
     3
370
     9
100
AcDbLine
 10
-351.0089400007919
 20
212.2994780669344
 30
0.0
 11
-351.0089400007919
 21
117.2992883630703
 31
0.0
  0
LINE
  5
1FE
330
1F
100
AcDbEntity
  8
A-2
  6
Continuous
 62
     3
370
     9
100
AcDbLine
 10
-354.008405530775
 20
217.2993089830553
 30
0.0
 11
-354.008405530775
 21
312.2989419473188
 31
0.0
  0
LINE
  5
1FF
330
1F
100
AcDbEntity
  8
A-2
  6
Continuous
 62
     3
370
     9
100
AcDbLine
 10
-351.0089400007919
 20
217.2993089830553
 30
0.0
 11
-351.0089400007919
 21
312.2989419473188
 31
0.0
  0
LINE
  5
200
330
1F
100
AcDbEntity
  8
A-2
  6
Continuous
 62
     3
370
     9
100
AcDbLine
 10
-354.008405530775
 20
317.2997007627747
 30
0.0
 11
-354.008405530775
 21
412.2993955869935
 31
0.0
  0
LINE
  5
201
330
1F
100
AcDbEntity
  8
A-2
  6
Continuous
 62
     3
370
     9
100
AcDbLine
 10
-351.0089400007919
 20
317.2997007627747
 30
0.0
 11
-351.0089400007919
 21
412.2993955869935
 31
0.0
  0
LINE
  5
202
330
1F
100
AcDbEntity
  8
A-2
  6
Continuous
 62
     3
370
     9
100
AcDbLine
 10
-354.008405530775
 20
-187.7004497631175
 30
0.0
 11
-354.008405530775
 21
-230.7004493507178
 31
0.0
  0
LINE
  5
203
330
1F
100
AcDbEntity
  8
A-2
  6
Continuous
 62
     3
370
     9
100
AcDbLine
 10
-351.0089400007919
 20
-187.7004497631175
 30
0.0
 11
-351.0089400007919
 21
-230.7004493507178
 31
0.0
  0
LINE
  5
204
330
1F
100
AcDbEntity
  8
A-2
  6
Continuous
 62
     3
370
     9
100
AcDbLine
 10
-354.008405530775
 20
112.2994574469491
 30
0.0
 11
-354.008405530775
 21
17.29926774308501
 31
0.0
  0
LINE
  5
205
330
1F
100
AcDbEntity
  8
A-2
  6
Continuous
 62
     3
370
     9
100
AcDbLine
 10
-351.0089400007919
 20
112.2994574469491
 30
0.0
 11
-351.0089400007919
 21
17.29926774308501
 31
0.0
  0
LINE
  5
206
330
1F
100
AcDbEntity
  8
A-2
  6
Continuous
 62
     3
370
     9
100
AcDbLine
 10
-731.5873780121675
 20
-82.70075287690014
 30
0.0
 11
-338.5873990445524
 21
-82.70075287690014
 31
0.0
  0
LINE
  5
207
330
1F
100
AcDbEntity
  8
A-2
  6
Continuous
 62
     3
370
     9
100
AcDbLine
 10
-731.5873780121675
 20
-87.7005837930214
 30
0.0
 11
-338.5873990445524
 21
-87.7005837930214
 31
0.0
  0
LINE
  5
208
330
1F
100
AcDbEntity
  8
A-2
  6
Continuous
 62
     3
370
     9
100
AcDbLine
 10
-728.5868917929159
 20
-182.7007425669075
 30
0.0
 11
-728.5868917929159
 21
-87.7005837930214
 31
0.0
  0
LINE
  5
209
330
1F
100
AcDbEntity
  8
A-2
  6
Continuous
 62
     3
370
     9
100
AcDbLine
 10
-728.5868917929159
 20
-82.70075287690014
 30
0.0
 11
-728.5868917929159
 21
12.29943682696376
 31
0.0
  0
LINE
  5
20A
330
1F
100
AcDbEntity
  8
A-2
  6
Continuous
 62
     3
370
     9
100
AcDbLine
 10
-341.5863696948902
 20
12.29943682696376
 30
0.0
 11
-341.5863696948902
 21
-82.70075287690014
 31
0.0
  0
LINE
  5
20B
330
1F
100
AcDbEntity
  8
A-2
  6
Continuous
 62
     3
370
     9
100
AcDbLine
 10
-341.5863696948902
 20
-87.7005837930214
 30
0.0
 11
-341.5863696948902
 21
-182.7007425669075
 31
0.0
  0
LINE
  5
20C
330
1F
100
AcDbEntity
  8
A-2
  6
Continuous
 62
     3
370
     9
100
AcDbLine
 10
-467.2269707757073
 20
12.29943682696376
 30
0.0
 11
-467.2269707757073
 21
-82.70075287690014
 31
0.0
  0
LINE
  5
20D
330
1F
100
AcDbEntity
  8
A-2
  6
Continuous
 62
     3
370
     9
100
AcDbLine
 10
-467.2269707757073
 20
-87.7005837930214
 30
0.0
 11
-467.2269707757073
 21
-182.7007425669075
 31
0.0
  0
LINE
  5
20E
330
1F
100
AcDbEntity
  8
A-2
  6
Continuous
 62
     3
370
     9
100
AcDbLine
 10
-464.2275052457243
 20
12.29943682696376
 30
0.0
 11
-464.2275052457243
 21
-82.70075287690014
 31
0.0
  0
LINE
  5
20F
330
1F
100
AcDbEntity
  8
A-2
  6
Continuous
 62
     3
370
     9
100
AcDbLine
 10
-464.2275052457243
 20
-87.7005837930214
 30
0.0
 11
-464.2275052457243
 21
-182.7007425669075
 31
0.0
  0
LINE
  5
210
330
1F
100
AcDbEntity
  8
A-2
  6
Continuous
 62
     3
370
     9
100
AcDbLine
 10
-479.8070587983002
 20
12.29943682696376
 30
0.0
 11
-479.8070587983002
 21
-82.70075287690014
 31
0.0
  0
LINE
  5
211
330
1F
100
AcDbEntity
  8
A-2
  6
Continuous
 62
     3
370
     9
100
AcDbLine
 10
-479.8070587983002
 20
-87.7005837930214
 30
0.0
 11
-479.8070587983002
 21
-182.7007425669075
 31
0.0
  0
LINE
  5
212
330
1F
100
AcDbEntity
  8
A-2
  6
Continuous
 62
     3
370
     9
100
AcDbLine
 10
-476.8073458284945
 20
12.29943682696376
 30
0.0
 11
-476.8073458284945
 21
-82.70075287690014
 31
0.0
  0
LINE
  5
213
330
1F
100
AcDbEntity
  8
A-2
  6
Continuous
 62
     3
370
     9
100
AcDbLine
 10
-476.8073458284945
 20
-87.7005837930214
 30
0.0
 11
-476.8073458284945
 21
-182.7007425669075
 31
0.0
  0
LINE
  5
214
330
1F
100
AcDbEntity
  8
A-2
  6
Continuous
 62
     3
370
     9
100
AcDbLine
 10
-492.3869612410263
 20
12.29943682696376
 30
0.0
 11
-492.3869612410263
 21
-82.70075287690014
 31
0.0
  0
LINE
  5
215
330
1F
100
AcDbEntity
  8
A-2
  6
Continuous
 62
     3
370
     9
100
AcDbLine
 10
-492.3869612410263
 20
-87.7005837930214
 30
0.0
 11
-492.3869612410263
 21
-182.7007425669075
 31
0.0
  0
LINE
  5
216
330
1F
100
AcDbEntity
  8
A-2
  6
Continuous
 62
     3
370
     9
100
AcDbLine
 10
-489.3874338510875
 20
12.29943682696376
 30
0.0
 11
-489.3874338510875
 21
-82.70075287690014
 31
0.0
  0
LINE
  5
217
330
1F
100
AcDbEntity
  8
A-2
  6
Continuous
 62
     3
370
     9
100
AcDbLine
 10
-489.3874338510875
 20
-87.7005837930214
 30
0.0
 11
-489.3874338510875
 21
-182.7007425669075
 31
0.0
  0
LINE
  5
218
330
1F
100
AcDbEntity
  8
A-2
  6
Continuous
 62
     3
370
     9
100
AcDbLine
 10
-504.9668636837522
 20
12.29943682696376
 30
0.0
 11
-504.9668636837522
 21
-82.70075287690014
 31
0.0
  0
LINE
  5
219
330
1F
100
AcDbEntity
  8
A-2
  6
Continuous
 62
     3
370
     9
100
AcDbLine
 10
-504.9668636837522
 20
-87.7005837930214
 30
0.0
 11
-504.9668636837522
 21
-182.7007425669075
 31
0.0
  0
LINE
  5
21A
330
1F
100
AcDbEntity
  8
A-2
  6
Continuous
 62
     3
370
     9
100
AcDbLine
 10
-501.9672744338578
 20
12.29943682696376
 30
0.0
 11
-501.9672744338578
 21
-82.70075287690014
 31
0.0
  0
LINE
  5
21B
330
1F
100
AcDbEntity
  8
A-2
  6
Continuous
 62
     3
370
     9
100
AcDbLine
 10
-501.9672744338578
 20
-87.7005837930214
 30
0.0
 11
-501.9672744338578
 21
-182.7007425669075
 31
0.0
  0
LINE
  5
21C
330
1F
100
AcDbEntity
  8
A-2
  6
Continuous
 62
     3
370
     9
100
AcDbLine
 10
-517.5468898463894
 20
12.29943682696376
 30
0.0
 11
-517.5468898463894
 21
-82.70075287690014
 31
0.0
  0
LINE
  5
21D
330
1F
100
AcDbEntity
  8
A-2
  6
Continuous
 62
     3
370
     9
100
AcDbLine
 10
-517.5468898463894
 20
-87.7005837930214
 30
0.0
 11
-517.5468898463894
 21
-182.7007425669075
 31
0.0
  0
LINE
  5
21E
330
1F
100
AcDbEntity
  8
A-2
  6
Continuous
 62
     3
370
     9
100
AcDbLine
 10
-514.5472387365393
 20
12.29943682696376
 30
0.0
 11
-514.5472387365393
 21
-82.70075287690014
 31
0.0
  0
LINE
  5
21F
330
1F
100
AcDbEntity
  8
A-2
  6
Continuous
 62
     3
370
     9
100
AcDbLine
 10
-514.5472387365393
 20
-87.7005837930214
 30
0.0
 11
-514.5472387365393
 21
-182.7007425669075
 31
0.0
  0
LINE
  5
220
330
1F
100
AcDbEntity
  8
A-2
  6
Continuous
 62
     3
370
     9
100
AcDbLine
 10
-530.1268541490709
 20
12.29943682696376
 30
0.0
 11
-530.1268541490709
 21
-82.70075287690014
 31
0.0
  0
LINE
  5
221
330
1F
100
AcDbEntity
  8
A-2
  6
Continuous
 62
     3
370
     9
100
AcDbLine
 10
-530.1268541490709
 20
-87.7005837930214
 30
0.0
 11
-530.1268541490709
 21
-182.7007425669075
 31
0.0
  0
LINE
  5
222
330
1F
100
AcDbEntity
  8
A-2
  6
Continuous
 62
     3
370
     9
100
AcDbLine
 10
-527.127203039221
 20
12.29943682696376
 30
0.0
 11
-527.127203039221
 21
-82.70075287690014
 31
0.0
  0
LINE
  5
223
330
1F
100
AcDbEntity
  8
A-2
  6
Continuous
 62
     3
370
     9
100
AcDbLine
 10
-527.127203039221
 20
-87.7005837930214
 30
0.0
 11
-527.127203039221
 21
-182.7007425669075
 31
0.0
  0
LINE
  5
224
330
1F
100
AcDbEntity
  8
A-2
  6
Continuous
 62
     3
370
     9
100
AcDbLine
 10
-542.706756591797
 20
12.29943682696376
 30
0.0
 11
-542.706756591797
 21
-82.70075287690014
 31
0.0
  0
LINE
  5
225
330
1F
100
AcDbEntity
  8
A-2
  6
Continuous
 62
     3
370
     9
100
AcDbLine
 10
-542.706756591797
 20
-87.7005837930214
 30
0.0
 11
-542.706756591797
 21
-182.7007425669075
 31
0.0
  0
LINE
  5
226
330
1F
100
AcDbEntity
  8
A-2
  6
Continuous
 62
     3
370
     9
100
AcDbLine
 10
-539.7072292018581
 20
12.29943682696376
 30
0.0
 11
-539.7072292018581
 21
-82.70075287690014
 31
0.0
  0
LINE
  5
227
330
1F
100
AcDbEntity
  8
A-2
  6
Continuous
 62
     3
370
     9
100
AcDbLine
 10
-539.7072292018581
 20
-87.7005837930214
 30
0.0
 11
-539.7072292018581
 21
-182.7007425669075
 31
0.0
  0
LINE
  5
228
330
1F
100
AcDbEntity
  8
A-2
  6
Continuous
 62
     3
370
     9
100
AcDbLine
 10
-555.2875869338577
 20
12.29943682696376
 30
0.0
 11
-555.2875869338577
 21
-82.70075287690014
 31
0.0
  0
LINE
  5
229
330
1F
100
AcDbEntity
  8
A-2
  6
Continuous
 62
     3
370
     9
100
AcDbLine
 10
-555.2875869338577
 20
-87.7005837930214
 30
0.0
 11
-555.2875869338577
 21
-182.7007425669075
 31
0.0
  0
LINE
  5
22A
330
1F
100
AcDbEntity
  8
A-2
  6
Continuous
 62
     3
370
     9
100
AcDbLine
 10
-552.2871935045398
 20
12.29943682696376
 30
0.0
 11
-552.2871935045398
 21
-82.70075287690014
 31
0.0
  0
LINE
  5
22B
330
1F
100
AcDbEntity
  8
A-2
  6
Continuous
 62
     3
370
     9
100
AcDbLine
 10
-552.2871935045398
 20
-87.7005837930214
 30
0.0
 11
-552.2871935045398
 21
-182.7007425669075
 31
0.0
  0
LINE
  5
22C
330
1F
100
AcDbEntity
  8
A-2
  6
Continuous
 62
     3
370
     9
100
AcDbLine
 10
-567.8676749564506
 20
12.29943682696376
 30
0.0
 11
-567.8676749564506
 21
-82.70075287690014
 31
0.0
  0
LINE
  5
22D
330
1F
100
AcDbEntity
  8
A-2
  6
Continuous
 62
     3
370
     9
100
AcDbLine
 10
-567.8676749564506
 20
-87.7005837930214
 30
0.0
 11
-567.8676749564506
 21
-182.7007425669075
 31
0.0
  0
LINE
  5
22E
330
1F
100
AcDbEntity
  8
A-2
  6
Continuous
 62
     3
370
     9
100
AcDbLine
 10
-564.8669722273543
 20
12.29943682696376
 30
0.0
 11
-564.8669722273543
 21
-82.70075287690014
 31
0.0
  0
LINE
  5
22F
330
1F
100
AcDbEntity
  8
A-2
  6
Continuous
 62
     3
370
     9
100
AcDbLine
 10
-564.8669722273543
 20
-87.7005837930214
 30
0.0
 11
-564.8669722273543
 21
-182.7007425669075
 31
0.0
  0
LINE
  5
230
330
1F
100
AcDbEntity
  8
A-2
  6
Continuous
 62
     3
370
     9
100
AcDbLine
 10
-580.4475773991766
 20
12.29943682696376
 30
0.0
 11
-580.4475773991766
 21
-82.70075287690014
 31
0.0
  0
LINE
  5
231
330
1F
100
AcDbEntity
  8
A-2
  6
Continuous
 62
     3
370
     9
100
AcDbLine
 10
-580.4475773991766
 20
-87.7005837930214
 30
0.0
 11
-580.4475773991766
 21
-182.7007425669075
 31
0.0
  0
LINE
  5
232
330
1F
100
AcDbEntity
  8
A-2
  6
Continuous
 62
     3
370
     9
100
AcDbLine
 10
-577.4470602499472
 20
12.29943682696376
 30
0.0
 11
-577.4470602499472
 21
-82.70075287690014
 31
0.0
  0
LINE
  5
233
330
1F
100
AcDbEntity
  8
A-2
  6
Continuous
 62
     3
370
     9
100
AcDbLine
 10
-577.4470602499472
 20
-87.7005837930214
 30
0.0
 11
-577.4470602499472
 21
-182.7007425669075
 31
0.0
  0
LINE
  5
234
330
1F
100
AcDbEntity
  8
A-2
  6
Continuous
 62
     3
370
     9
100
AcDbLine
 10
-593.0276035618139
 20
12.29943682696376
 30
0.0
 11
-593.0276035618139
 21
-82.70075287690014
 31
0.0
  0
LINE
  5
235
330
1F
100
AcDbEntity
  8
A-2
  6
Continuous
 62
     3
370
     9
100
AcDbLine
 10
-593.0276035618139
 20
-87.7005837930214
 30
0.0
 11
-593.0276035618139
 21
-182.7007425669075
 31
0.0
  0
LINE
  5
236
330
1F
100
AcDbEntity
  8
A-2
  6
Continuous
 62
     3
370
     9
100
AcDbLine
 10
-590.0268389727619
 20
12.29943682696376
 30
0.0
 11
-590.0268389727619
 21
-82.70075287690014
 31
0.0
  0
LINE
  5
237
330
1F
100
AcDbEntity
  8
A-2
  6
Continuous
 62
     3
370
     9
100
AcDbLine
 10
-590.0268389727619
 20
-87.7005837930214
 30
0.0
 11
-590.0268389727619
 21
-182.7007425669075
 31
0.0
  0
LINE
  5
238
330
1F
100
AcDbEntity
  8
A-2
  6
Continuous
 62
     3
370
     9
100
AcDbLine
 10
-605.6073822846284
 20
12.29943682696376
 30
0.0
 11
-605.6073822846284
 21
-82.70075287690014
 31
0.0
  0
LINE
  5
239
330
1F
100
AcDbEntity
  8
A-2
  6
Continuous
 62
     3
370
     9
100
AcDbLine
 10
-605.6073822846284
 20
-87.7005837930214
 30
0.0
 11
-605.6073822846284
 21
-182.7007425669075
 31
0.0
  0
LINE
  5
23A
330
1F
100
AcDbEntity
  8
A-2
  6
Continuous
 62
     3
370
     9
100
AcDbLine
 10
-602.6069269953548
 20
12.29943682696376
 30
0.0
 11
-602.6069269953548
 21
-82.70075287690014
 31
0.0
  0
LINE
  5
23B
330
1F
100
AcDbEntity
  8
A-2
  6
Continuous
 62
     3
370
     9
100
AcDbLine
 10
-602.6069269953548
 20
-87.7005837930214
 30
0.0
 11
-602.6069269953548
 21
-182.7007425669075
 31
0.0
  0
LINE
  5
23C
330
1F
100
AcDbEntity
  8
A-2
  6
Continuous
 62
     3
370
     9
100
AcDbLine
 10
-618.18734658731
 20
12.29943682696376
 30
0.0
 11
-618.18734658731
 21
-82.70075287690014
 31
0.0
  0
LINE
  5
23D
330
1F
100
AcDbEntity
  8
A-2
  6
Continuous
 62
     3
370
     9
100
AcDbLine
 10
-618.18734658731
 20
-87.7005837930214
 30
0.0
 11
-618.18734658731
 21
-182.7007425669075
 31
0.0
  0
LINE
  5
23E
330
1F
100
AcDbEntity
  8
A-2
  6
Continuous
 62
     3
370
     9
100
AcDbLine
 10
-615.1868912980364
 20
12.29943682696376
 30
0.0
 11
-615.1868912980364
 21
-82.70075287690014
 31
0.0
  0
LINE
  5
23F
330
1F
100
AcDbEntity
  8
A-2
  6
Continuous
 62
     3
370
     9
100
AcDbLine
 10
-615.1868912980364
 20
-87.7005837930214
 30
0.0
 11
-615.1868912980364
 21
-182.7007425669075
 31
0.0
  0
LINE
  5
240
330
1F
100
AcDbEntity
  8
A-2
  6
Continuous
 62
     3
370
     9
100
AcDbLine
 10
-630.7673108899916
 20
12.29943682696376
 30
0.0
 11
-630.7673108899916
 21
-82.70075287690014
 31
0.0
  0
LINE
  5
241
330
1F
100
AcDbEntity
  8
A-2
  6
Continuous
 62
     3
370
     9
100
AcDbLine
 10
-630.7673108899916
 20
-87.7005837930214
 30
0.0
 11
-630.7673108899916
 21
-182.7007425669075
 31
0.0
  0
LINE
  5
242
330
1F
100
AcDbEntity
  8
A-2
  6
Continuous
 62
     3
370
     9
100
AcDbLine
 10
-627.7669793206292
 20
12.29943682696376
 30
0.0
 11
-627.7669793206292
 21
-82.70075287690014
 31
0.0
  0
LINE
  5
243
330
1F
100
AcDbEntity
  8
A-2
  6
Continuous
 62
     3
370
     9
100
AcDbLine
 10
-627.7669793206292
 20
-87.7005837930214
 30
0.0
 11
-627.7669793206292
 21
-182.7007425669075
 31
0.0
  0
LINE
  5
244
330
1F
100
AcDbEntity
  8
A-2
  6
Continuous
 62
     3
370
     9
100
AcDbLine
 10
-643.3472751926732
 20
12.29943682696376
 30
0.0
 11
-643.3472751926732
 21
-82.70075287690014
 31
0.0
  0
LINE
  5
245
330
1F
100
AcDbEntity
  8
A-2
  6
Continuous
 62
     3
370
     9
100
AcDbLine
 10
-643.3472751926732
 20
-87.7005837930214
 30
0.0
 11
-643.3472751926732
 21
-182.7007425669075
 31
0.0
  0
LINE
  5
246
330
1F
100
AcDbEntity
  8
A-2
  6
Continuous
 62
     3
370
     9
100
AcDbLine
 10
-640.3468199033996
 20
12.29943682696376
 30
0.0
 11
-640.3468199033996
 21
-82.70075287690014
 31
0.0
  0
LINE
  5
247
330
1F
100
AcDbEntity
  8
A-2
  6
Continuous
 62
     3
370
     9
100
AcDbLine
 10
-640.3468199033996
 20
-87.7005837930214
 30
0.0
 11
-640.3468199033996
 21
-182.7007425669075
 31
0.0
  0
LINE
  5
248
330
1F
100
AcDbEntity
  8
A-2
  6
Continuous
 62
     3
370
     9
100
AcDbLine
 10
-655.927363215266
 20
12.29943682696376
 30
0.0
 11
-655.927363215266
 21
-82.70075287690014
 31
0.0
  0
LINE
  5
249
330
1F
100
AcDbEntity
  8
A-2
  6
Continuous
 62
     3
370
     9
100
AcDbLine
 10
-655.927363215266
 20
-87.7005837930214
 30
0.0
 11
-655.927363215266
 21
-182.7007425669075
 31
0.0
  0
LINE
  5
24A
330
1F
100
AcDbEntity
  8
A-2
  6
Continuous
 62
     3
370
     9
100
AcDbLine
 10
-652.9277739653717
 20
12.29943682696376
 30
0.0
 11
-652.9277739653717
 21
-82.70075287690014
 31
0.0
  0
LINE
  5
24B
330
1F
100
AcDbEntity
  8
A-2
  6
Continuous
 62
     3
370
     9
100
AcDbLine
 10
-652.9277739653717
 20
-87.7005837930214
 30
0.0
 11
-652.9277739653717
 21
-182.7007425669075
 31
0.0
  0
LINE
  5
24C
330
1F
100
AcDbEntity
  8
A-2
  6
Continuous
 62
     3
370
     9
100
AcDbLine
 10
-668.5073275179477
 20
12.29943682696376
 30
0.0
 11
-668.5073275179477
 21
-82.70075287690014
 31
0.0
  0
LINE
  5
24D
330
1F
100
AcDbEntity
  8
A-2
  6
Continuous
 62
     3
370
     9
100
AcDbLine
 10
-668.5073275179477
 20
-87.7005837930214
 30
0.0
 11
-668.5073275179477
 21
-182.7007425669075
 31
0.0
  0
LINE
  5
24E
330
1F
100
AcDbEntity
  8
A-2
  6
Continuous
 62
     3
370
     9
100
AcDbLine
 10
-665.5077382680532
 20
12.29943682696376
 30
0.0
 11
-665.5077382680532
 21
-82.70075287690014
 31
0.0
  0
LINE
  5
24F
330
1F
100
AcDbEntity
  8
A-2
  6
Continuous
 62
     3
370
     9
100
AcDbLine
 10
-665.5077382680532
 20
-87.7005837930214
 30
0.0
 11
-665.5077382680532
 21
-182.7007425669075
 31
0.0
  0
LINE
  5
250
330
1F
100
AcDbEntity
  8
A-2
  6
Continuous
 62
     3
370
     9
100
AcDbLine
 10
-681.0871371707401
 20
12.29943682696376
 30
0.0
 11
-681.0871371707401
 21
-82.70075287690014
 31
0.0
  0
LINE
  5
251
330
1F
100
AcDbEntity
  8
A-2
  6
Continuous
 62
     3
370
     9
100
AcDbLine
 10
-681.0871371707401
 20
-87.7005837930214
 30
0.0
 11
-681.0871371707401
 21
-182.7007425669075
 31
0.0
  0
LINE
  5
252
330
1F
100
AcDbEntity
  8
A-2
  6
Continuous
 62
     3
370
     9
100
AcDbLine
 10
-678.0875479208456
 20
12.29943682696376
 30
0.0
 11
-678.0875479208456
 21
-82.70075287690014
 31
0.0
  0
LINE
  5
253
330
1F
100
AcDbEntity
  8
A-2
  6
Continuous
 62
     3
370
     9
100
AcDbLine
 10
-678.0875479208456
 20
-87.7005837930214
 30
0.0
 11
-678.0875479208456
 21
-182.7007425669075
 31
0.0
  0
LINE
  5
254
330
1F
100
AcDbEntity
  8
A-2
  6
Continuous
 62
     3
370
     9
100
AcDbLine
 10
-693.6671014734218
 20
12.29943682696376
 30
0.0
 11
-693.6671014734218
 21
-82.70075287690014
 31
0.0
  0
LINE
  5
255
330
1F
100
AcDbEntity
  8
A-2
  6
Continuous
 62
     3
370
     9
100
AcDbLine
 10
-693.6671014734218
 20
-87.7005837930214
 30
0.0
 11
-693.6671014734218
 21
-182.7007425669075
 31
0.0
  0
LINE
  5
256
330
1F
100
AcDbEntity
  8
A-2
  6
Continuous
 62
     3
370
     9
100
AcDbLine
 10
-690.6675122235274
 20
12.29943682696376
 30
0.0
 11
-690.6675122235274
 21
-82.70075287690014
 31
0.0
  0
LINE
  5
257
330
1F
100
AcDbEntity
  8
A-2
  6
Continuous
 62
     3
370
     9
100
AcDbLine
 10
-690.6675122235274
 20
-87.7005837930214
 30
0.0
 11
-690.6675122235274
 21
-182.7007425669075
 31
0.0
  0
LINE
  5
258
330
1F
100
AcDbEntity
  8
A-2
  6
Continuous
 62
     3
370
     9
100
AcDbLine
 10
-706.2471894960146
 20
12.29943682696376
 30
0.0
 11
-706.2471894960146
 21
-82.70075287690014
 31
0.0
  0
LINE
  5
259
330
1F
100
AcDbEntity
  8
A-2
  6
Continuous
 62
     3
370
     9
100
AcDbLine
 10
-706.2471894960146
 20
-87.7005837930214
 30
0.0
 11
-706.2471894960146
 21
-182.7007425669075
 31
0.0
  0
LINE
  5
25A
330
1F
100
AcDbEntity
  8
A-2
  6
Continuous
 62
     3
370
     9
100
AcDbLine
 10
-703.2473528062975
 20
12.29943682696376
 30
0.0
 11
-703.2473528062975
 21
-82.70075287690014
 31
0.0
  0
LINE
  5
25B
330
1F
100
AcDbEntity
  8
A-2
  6
Continuous
 62
     3
370
     9
100
AcDbLine
 10
-703.2473528062975
 20
-87.7005837930214
 30
0.0
 11
-703.2473528062975
 21
-182.7007425669075
 31
0.0
  0
LINE
  5
25C
330
1F
100
AcDbEntity
  8
A-2
  6
Continuous
 62
     3
370
     9
100
AcDbLine
 10
-718.8271537986961
 20
12.29943682696376
 30
0.0
 11
-718.8271537986961
 21
-82.70075287690014
 31
0.0
  0
LINE
  5
25D
330
1F
100
AcDbEntity
  8
A-2
  6
Continuous
 62
     3
370
     9
100
AcDbLine
 10
-718.8271537986961
 20
-87.7005837930214
 30
0.0
 11
-718.8271537986961
 21
-182.7007425669075
 31
0.0
  0
LINE
  5
25E
330
1F
100
AcDbEntity
  8
A-2
  6
Continuous
 62
     3
370
     9
100
AcDbLine
 10
-715.8273171089792
 20
12.29943682696376
 30
0.0
 11
-715.8273171089792
 21
-82.70075287690014
 31
0.0
  0
LINE
  5
25F
330
1F
100
AcDbEntity
  8
A-2
  6
Continuous
 62
     3
370
     9
100
AcDbLine
 10
-715.8273171089792
 20
-87.7005837930214
 30
0.0
 11
-715.8273171089792
 21
-182.7007425669075
 31
0.0
  0
LINE
  5
260
330
1F
100
AcDbEntity
  8
A-2
  6
Continuous
 62
     3
370
     9
100
AcDbLine
 10
-454.647130192937
 20
12.29943682696376
 30
0.0
 11
-454.647130192937
 21
-82.70075287690014
 31
0.0
  0
LINE
  5
261
330
1F
100
AcDbEntity
  8
A-2
  6
Continuous
 62
     3
370
     9
100
AcDbLine
 10
-454.647130192937
 20
-87.7005837930214
 30
0.0
 11
-454.647130192937
 21
-182.7007425669075
 31
0.0
  0
LINE
  5
262
330
1F
100
AcDbEntity
  8
A-2
  6
Continuous
 62
     3
370
     9
100
AcDbLine
 10
-451.647664662954
 20
12.29943682696376
 30
0.0
 11
-451.647664662954
 21
-82.70075287690014
 31
0.0
  0
LINE
  5
263
330
1F
100
AcDbEntity
  8
A-2
  6
Continuous
 62
     3
370
     9
100
AcDbLine
 10
-451.647664662954
 20
-87.7005837930214
 30
0.0
 11
-451.647664662954
 21
-182.7007425669075
 31
0.0
  0
LINE
  5
264
330
1F
100
AcDbEntity
  8
A-2
  6
Continuous
 62
     3
370
     9
100
AcDbLine
 10
-442.0672896101669
 20
12.29943682696376
 30
0.0
 11
-442.0672896101669
 21
-82.70075287690014
 31
0.0
  0
LINE
  5
265
330
1F
100
AcDbEntity
  8
A-2
  6
Continuous
 62
     3
370
     9
100
AcDbLine
 10
-442.0672896101669
 20
-87.7005837930214
 30
0.0
 11
-442.0672896101669
 21
-182.7007425669075
 31
0.0
  0
LINE
  5
266
330
1F
100
AcDbEntity
  8
A-2
  6
Continuous
 62
     3
370
     9
100
AcDbLine
 10
-439.0678240801836
 20
12.29943682696376
 30
0.0
 11
-439.0678240801836
 21
-82.70075287690014
 31
0.0
  0
LINE
  5
267
330
1F
100
AcDbEntity
  8
A-2
  6
Continuous
 62
     3
370
     9
100
AcDbLine
 10
-439.0678240801836
 20
-87.7005837930214
 30
0.0
 11
-439.0678240801836
 21
-182.7007425669075
 31
0.0
  0
LINE
  5
268
330
1F
100
AcDbEntity
  8
A-2
  6
Continuous
 62
     3
370
     9
100
AcDbLine
 10
-429.4874490273966
 20
12.29943682696376
 30
0.0
 11
-429.4874490273966
 21
-82.70075287690014
 31
0.0
  0
LINE
  5
269
330
1F
100
AcDbEntity
  8
A-2
  6
Continuous
 62
     3
370
     9
100
AcDbLine
 10
-429.4874490273966
 20
-87.7005837930214
 30
0.0
 11
-429.4874490273966
 21
-182.7007425669075
 31
0.0
  0
LINE
  5
26A
330
1F
100
AcDbEntity
  8
A-2
  6
Continuous
 62
     3
370
     9
100
AcDbLine
 10
-426.4879834974136
 20
12.29943682696376
 30
0.0
 11
-426.4879834974136
 21
-82.70075287690014
 31
0.0
  0
LINE
  5
26B
330
1F
100
AcDbEntity
  8
A-2
  6
Continuous
 62
     3
370
     9
100
AcDbLine
 10
-426.4879834974136
 20
-87.7005837930214
 30
0.0
 11
-426.4879834974136
 21
-182.7007425669075
 31
0.0
  0
LINE
  5
26C
330
1F
100
AcDbEntity
  8
A-2
  6
Continuous
 62
     3
370
     9
100
AcDbLine
 10
-416.9076084446262
 20
12.29943682696376
 30
0.0
 11
-416.9076084446262
 21
-82.70075287690014
 31
0.0
  0
LINE
  5
26D
330
1F
100
AcDbEntity
  8
A-2
  6
Continuous
 62
     3
370
     9
100
AcDbLine
 10
-416.9076084446262
 20
-87.7005837930214
 30
0.0
 11
-416.9076084446262
 21
-182.7007425669075
 31
0.0
  0
LINE
  5
26E
330
1F
100
AcDbEntity
  8
A-2
  6
Continuous
 62
     3
370
     9
100
AcDbLine
 10
-413.9081429146432
 20
12.29943682696376
 30
0.0
 11
-413.9081429146432
 21
-82.70075287690014
 31
0.0
  0
LINE
  5
26F
330
1F
100
AcDbEntity
  8
A-2
  6
Continuous
 62
     3
370
     9
100
AcDbLine
 10
-413.9081429146432
 20
-87.7005837930214
 30
0.0
 11
-413.9081429146432
 21
-182.7007425669075
 31
0.0
  0
LINE
  5
270
330
1F
100
AcDbEntity
  8
A-2
  6
Continuous
 62
     3
370
     9
100
AcDbLine
 10
-404.3277678618561
 20
12.29943682696376
 30
0.0
 11
-404.3277678618561
 21
-82.70075287690014
 31
0.0
  0
LINE
  5
271
330
1F
100
AcDbEntity
  8
A-2
  6
Continuous
 62
     3
370
     9
100
AcDbLine
 10
-404.3277678618561
 20
-87.7005837930214
 30
0.0
 11
-404.3277678618561
 21
-182.7007425669075
 31
0.0
  0
LINE
  5
272
330
1F
100
AcDbEntity
  8
A-2
  6
Continuous
 62
     3
370
     9
100
AcDbLine
 10
-401.3283023318729
 20
12.29943682696376
 30
0.0
 11
-401.3283023318729
 21
-82.70075287690014
 31
0.0
  0
LINE
  5
273
330
1F
100
AcDbEntity
  8
A-2
  6
Continuous
 62
     3
370
     9
100
AcDbLine
 10
-401.3283023318729
 20
-87.7005837930214
 30
0.0
 11
-401.3283023318729
 21
-182.7007425669075
 31
0.0
  0
LINE
  5
274
330
1F
100
AcDbEntity
  8
A-2
  6
Continuous
 62
     3
370
     9
100
AcDbLine
 10
-391.7479272790858
 20
12.29943682696376
 30
0.0
 11
-391.7479272790858
 21
-82.70075287690014
 31
0.0
  0
LINE
  5
275
330
1F
100
AcDbEntity
  8
A-2
  6
Continuous
 62
     3
370
     9
100
AcDbLine
 10
-391.7479272790858
 20
-87.7005837930214
 30
0.0
 11
-391.7479272790858
 21
-182.7007425669075
 31
0.0
  0
LINE
  5
276
330
1F
100
AcDbEntity
  8
A-2
  6
Continuous
 62
     3
370
     9
100
AcDbLine
 10
-388.7484617491027
 20
12.29943682696376
 30
0.0
 11
-388.7484617491027
 21
-82.70075287690014
 31
0.0
  0
LINE
  5
277
330
1F
100
AcDbEntity
  8
A-2
  6
Continuous
 62
     3
370
     9
100
AcDbLine
 10
-388.7484617491027
 20
-87.7005837930214
 30
0.0
 11
-388.7484617491027
 21
-182.7007425669075
 31
0.0
  0
LINE
  5
278
330
1F
100
AcDbEntity
  8
A-2
  6
Continuous
 62
     3
370
     9
100
AcDbLine
 10
-379.1680866963155
 20
12.29943682696376
 30
0.0
 11
-379.1680866963155
 21
-82.70075287690014
 31
0.0
  0
LINE
  5
279
330
1F
100
AcDbEntity
  8
A-2
  6
Continuous
 62
     3
370
     9
100
AcDbLine
 10
-379.1680866963155
 20
-87.7005837930214
 30
0.0
 11
-379.1680866963155
 21
-182.7007425669075
 31
0.0
  0
LINE
  5
27A
330
1F
100
AcDbEntity
  8
A-2
  6
Continuous
 62
     3
370
     9
100
AcDbLine
 10
-376.1686211663324
 20
12.29943682696376
 30
0.0
 11
-376.1686211663324
 21
-82.70075287690014
 31
0.0
  0
LINE
  5
27B
330
1F
100
AcDbEntity
  8
A-2
  6
Continuous
 62
     3
370
     9
100
AcDbLine
 10
-376.1686211663324
 20
-87.7005837930214
 30
0.0
 11
-376.1686211663324
 21
-182.7007425669075
 31
0.0
  0
LINE
  5
27C
330
1F
100
AcDbEntity
  8
A-2
  6
Continuous
 62
     3
370
     9
100
AcDbLine
 10
-366.5882461135452
 20
12.29943682696376
 30
0.0
 11
-366.5882461135452
 21
-82.70075287690014
 31
0.0
  0
LINE
  5
27D
330
1F
100
AcDbEntity
  8
A-2
  6
Continuous
 62
     3
370
     9
100
AcDbLine
 10
-366.5882461135452
 20
-87.7005837930214
 30
0.0
 11
-366.5882461135452
 21
-182.7007425669075
 31
0.0
  0
LINE
  5
27E
330
1F
100
AcDbEntity
  8
A-2
  6
Continuous
 62
     3
370
     9
100
AcDbLine
 10
-363.5887805835621
 20
12.29943682696376
 30
0.0
 11
-363.5887805835621
 21
-82.70075287690014
 31
0.0
  0
LINE
  5
27F
330
1F
100
AcDbEntity
  8
A-2
  6
Continuous
 62
     3
370
     9
100
AcDbLine
 10
-363.5887805835621
 20
-87.7005837930214
 30
0.0
 11
-363.5887805835621
 21
-182.7007425669075
 31
0.0
  0
LINE
  5
280
330
1F
100
AcDbEntity
  8
A-2
  6
Continuous
 62
     3
370
     9
100
AcDbLine
 10
-354.008405530775
 20
12.29943682696376
 30
0.0
 11
-354.008405530775
 21
-82.70075287690014
 31
0.0
  0
LINE
  5
281
330
1F
100
AcDbEntity
  8
A-2
  6
Continuous
 62
     3
370
     9
100
AcDbLine
 10
-354.008405530775
 20
-87.7005837930214
 30
0.0
 11
-354.008405530775
 21
-182.7007425669075
 31
0.0
  0
LINE
  5
282
330
1F
100
AcDbEntity
  8
A-2
  6
Continuous
 62
     3
370
     9
100
AcDbLine
 10
-351.0089400007919
 20
12.29943682696376
 30
0.0
 11
-351.0089400007919
 21
-82.70075287690014
 31
0.0
  0
LINE
  5
283
330
1F
100
AcDbEntity
  8
A-2
  6
Continuous
 62
     3
370
     9
100
AcDbLine
 10
-351.0089400007919
 20
-87.7005837930214
 30
0.0
 11
-351.0089400007919
 21
-182.7007425669075
 31
0.0
  0
LINE
  5
284
330
1F
100
AcDbEntity
  8
A-2
  6
Continuous
 62
     3
370
     9
100
AcDbLine
 10
-731.5873780121675
 20
460.2997519003378
 30
0.0
 11
-338.5873990445524
 21
460.2997519003378
 31
0.0
  0
LINE
  5
285
330
1F
100
AcDbEntity
  8
A-2
  6
Continuous
 62
     3
370
     9
100
AcDbLine
 10
-341.5863696948902
 20
417.2992883630703
 30
0.0
 11
-341.5863696948902
 21
460.2997519003378
 31
0.0
  0
LINE
  5
286
330
1F
100
AcDbEntity
  8
A-2
  6
Continuous
 62
     3
370
     9
100
AcDbLine
 10
-467.2269707757073
 20
417.2992883630703
 30
0.0
 11
-467.2269707757073
 21
460.2997519003378
 31
0.0
  0
LINE
  5
287
330
1F
100
AcDbEntity
  8
A-2
  6
Continuous
 62
     3
370
     9
100
AcDbLine
 10
-464.2275052457243
 20
417.2992883630703
 30
0.0
 11
-464.2275052457243
 21
460.2997519003378
 31
0.0
  0
LINE
  5
288
330
1F
100
AcDbEntity
  8
A-2
  6
Continuous
 62
     3
370
     9
100
AcDbLine
 10
-479.8070587983002
 20
417.2992883630703
 30
0.0
 11
-479.8070587983002
 21
460.2997519003378
 31
0.0
  0
LINE
  5
289
330
1F
100
AcDbEntity
  8
A-2
  6
Continuous
 62
     3
370
     9
100
AcDbLine
 10
-476.8073458284945
 20
417.2992883630703
 30
0.0
 11
-476.8073458284945
 21
460.2997519003378
 31
0.0
  0
LINE
  5
28A
330
1F
100
AcDbEntity
  8
A-2
  6
Continuous
 62
     3
370
     9
100
AcDbLine
 10
-492.3869612410263
 20
417.2992883630703
 30
0.0
 11
-492.3869612410263
 21
460.2997519003378
 31
0.0
  0
LINE
  5
28B
330
1F
100
AcDbEntity
  8
A-2
  6
Continuous
 62
     3
370
     9
100
AcDbLine
 10
-489.3874338510875
 20
417.2992883630703
 30
0.0
 11
-489.3874338510875
 21
460.2997519003378
 31
0.0
  0
LINE
  5
28C
330
1F
100
AcDbEntity
  8
A-2
  6
Continuous
 62
     3
370
     9
100
AcDbLine
 10
-504.9668636837522
 20
417.2992883630703
 30
0.0
 11
-504.9668636837522
 21
460.2997519003378
 31
0.0
  0
LINE
  5
28D
330
1F
100
AcDbEntity
  8
A-2
  6
Continuous
 62
     3
370
     9
100
AcDbLine
 10
-501.9672744338578
 20
417.2992883630703
 30
0.0
 11
-501.9672744338578
 21
460.2997519003378
 31
0.0
  0
LINE
  5
28E
330
1F
100
AcDbEntity
  8
A-2
  6
Continuous
 62
     3
370
     9
100
AcDbLine
 10
-517.5468898463894
 20
417.2992883630703
 30
0.0
 11
-517.5468898463894
 21
460.2997519003378
 31
0.0
  0
LINE
  5
28F
330
1F
100
AcDbEntity
  8
A-2
  6
Continuous
 62
     3
370
     9
100
AcDbLine
 10
-514.5472387365393
 20
417.2992883630703
 30
0.0
 11
-514.5472387365393
 21
460.2997519003378
 31
0.0
  0
LINE
  5
290
330
1F
100
AcDbEntity
  8
A-2
  6
Continuous
 62
     3
370
     9
100
AcDbLine
 10
-530.1268541490709
 20
417.2992883630703
 30
0.0
 11
-530.1268541490709
 21
460.2997519003378
 31
0.0
  0
LINE
  5
291
330
1F
100
AcDbEntity
  8
A-2
  6
Continuous
 62
     3
370
     9
100
AcDbLine
 10
-527.127203039221
 20
417.2992883630703
 30
0.0
 11
-527.127203039221
 21
460.2997519003378
 31
0.0
  0
LINE
  5
292
330
1F
100
AcDbEntity
  8
A-2
  6
Continuous
 62
     3
370
     9
100
AcDbLine
 10
-542.706756591797
 20
417.2992883630703
 30
0.0
 11
-542.706756591797
 21
460.2997519003378
 31
0.0
  0
LINE
  5
293
330
1F
100
AcDbEntity
  8
A-2
  6
Continuous
 62
     3
370
     9
100
AcDbLine
 10
-539.7072292018581
 20
417.2992883630703
 30
0.0
 11
-539.7072292018581
 21
460.2997519003378
 31
0.0
  0
LINE
  5
294
330
1F
100
AcDbEntity
  8
A-2
  6
Continuous
 62
     3
370
     9
100
AcDbLine
 10
-555.2875869338577
 20
417.2992883630703
 30
0.0
 11
-555.2875869338577
 21
460.2997519003378
 31
0.0
  0
LINE
  5
295
330
1F
100
AcDbEntity
  8
A-2
  6
Continuous
 62
     3
370
     9
100
AcDbLine
 10
-552.2871935045398
 20
417.2992883630703
 30
0.0
 11
-552.2871935045398
 21
460.2997519003378
 31
0.0
  0
LINE
  5
296
330
1F
100
AcDbEntity
  8
A-2
  6
Continuous
 62
     3
370
     9
100
AcDbLine
 10
-567.8676749564506
 20
417.2992883630703
 30
0.0
 11
-567.8676749564506
 21
460.2997519003378
 31
0.0
  0
LINE
  5
297
330
1F
100
AcDbEntity
  8
A-2
  6
Continuous
 62
     3
370
     9
100
AcDbLine
 10
-564.8669722273543
 20
417.2992883630703
 30
0.0
 11
-564.8669722273543
 21
460.2997519003378
 31
0.0
  0
LINE
  5
298
330
1F
100
AcDbEntity
  8
A-2
  6
Continuous
 62
     3
370
     9
100
AcDbLine
 10
-580.4475773991766
 20
417.2992883630703
 30
0.0
 11
-580.4475773991766
 21
460.2997519003378
 31
0.0
  0
LINE
  5
299
330
1F
100
AcDbEntity
  8
A-2
  6
Continuous
 62
     3
370
     9
100
AcDbLine
 10
-577.4470602499472
 20
417.2992883630703
 30
0.0
 11
-577.4470602499472
 21
460.2997519003378
 31
0.0
  0
LINE
  5
29A
330
1F
100
AcDbEntity
  8
A-2
  6
Continuous
 62
     3
370
     9
100
AcDbLine
 10
-593.0276035618139
 20
417.2992883630703
 30
0.0
 11
-593.0276035618139
 21
460.2997519003378
 31
0.0
  0
LINE
  5
29B
330
1F
100
AcDbEntity
  8
A-2
  6
Continuous
 62
     3
370
     9
100
AcDbLine
 10
-590.0268389727619
 20
417.2992883630703
 30
0.0
 11
-590.0268389727619
 21
460.2997519003378
 31
0.0
  0
LINE
  5
29C
330
1F
100
AcDbEntity
  8
A-2
  6
Continuous
 62
     3
370
     9
100
AcDbLine
 10
-605.6073822846284
 20
417.2992883630703
 30
0.0
 11
-605.6073822846284
 21
460.2997519003378
 31
0.0
  0
LINE
  5
29D
330
1F
100
AcDbEntity
  8
A-2
  6
Continuous
 62
     3
370
     9
100
AcDbLine
 10
-602.6069269953548
 20
417.2992883630703
 30
0.0
 11
-602.6069269953548
 21
460.2997519003378
 31
0.0
  0
LINE
  5
29E
330
1F
100
AcDbEntity
  8
A-2
  6
Continuous
 62
     3
370
     9
100
AcDbLine
 10
-618.18734658731
 20
417.2992883630703
 30
0.0
 11
-618.18734658731
 21
460.2997519003378
 31
0.0
  0
LINE
  5
29F
330
1F
100
AcDbEntity
  8
A-2
  6
Continuous
 62
     3
370
     9
100
AcDbLine
 10
-615.1868912980364
 20
417.2992883630703
 30
0.0
 11
-615.1868912980364
 21
460.2997519003378
 31
0.0
  0
LINE
  5
2A0
330
1F
100
AcDbEntity
  8
A-2
  6
Continuous
 62
     3
370
     9
100
AcDbLine
 10
-630.7673108899916
 20
417.2992883630703
 30
0.0
 11
-630.7673108899916
 21
460.2997519003378
 31
0.0
  0
LINE
  5
2A1
330
1F
100
AcDbEntity
  8
A-2
  6
Continuous
 62
     3
370
     9
100
AcDbLine
 10
-627.7669793206292
 20
417.2992883630703
 30
0.0
 11
-627.7669793206292
 21
460.2997519003378
 31
0.0
  0
LINE
  5
2A2
330
1F
100
AcDbEntity
  8
A-2
  6
Continuous
 62
     3
370
     9
100
AcDbLine
 10
-643.3472751926732
 20
417.2992883630703
 30
0.0
 11
-643.3472751926732
 21
460.2997519003378
 31
0.0
  0
LINE
  5
2A3
330
1F
100
AcDbEntity
  8
A-2
  6
Continuous
 62
     3
370
     9
100
AcDbLine
 10
-640.3468199033996
 20
417.2992883630703
 30
0.0
 11
-640.3468199033996
 21
460.2997519003378
 31
0.0
  0
LINE
  5
2A4
330
1F
100
AcDbEntity
  8
A-2
  6
Continuous
 62
     3
370
     9
100
AcDbLine
 10
-655.927363215266
 20
417.2992883630703
 30
0.0
 11
-655.927363215266
 21
460.2997519003378
 31
0.0
  0
LINE
  5
2A5
330
1F
100
AcDbEntity
  8
A-2
  6
Continuous
 62
     3
370
     9
100
AcDbLine
 10
-652.9277739653717
 20
417.2992883630703
 30
0.0
 11
-652.9277739653717
 21
460.2997519003378
 31
0.0
  0
LINE
  5
2A6
330
1F
100
AcDbEntity
  8
A-2
  6
Continuous
 62
     3
370
     9
100
AcDbLine
 10
-668.5073275179477
 20
417.2992883630703
 30
0.0
 11
-668.5073275179477
 21
460.2997519003378
 31
0.0
  0
LINE
  5
2A7
330
1F
100
AcDbEntity
  8
A-2
  6
Continuous
 62
     3
370
     9
100
AcDbLine
 10
-665.5077382680532
 20
417.2992883630703
 30
0.0
 11
-665.5077382680532
 21
460.2997519003378
 31
0.0
  0
LINE
  5
2A8
330
1F
100
AcDbEntity
  8
A-2
  6
Continuous
 62
     3
370
     9
100
AcDbLine
 10
-681.0871371707401
 20
417.2992883630703
 30
0.0
 11
-681.0871371707401
 21
460.2997519003378
 31
0.0
  0
LINE
  5
2A9
330
1F
100
AcDbEntity
  8
A-2
  6
Continuous
 62
     3
370
     9
100
AcDbLine
 10
-678.0875479208456
 20
417.2992883630703
 30
0.0
 11
-678.0875479208456
 21
460.2997519003378
 31
0.0
  0
LINE
  5
2AA
330
1F
100
AcDbEntity
  8
A-2
  6
Continuous
 62
     3
370
     9
100
AcDbLine
 10
-693.6671014734218
 20
417.2992883630703
 30
0.0
 11
-693.6671014734218
 21
460.2997519003378
 31
0.0
  0
LINE
  5
2AB
330
1F
100
AcDbEntity
  8
A-2
  6
Continuous
 62
     3
370
     9
100
AcDbLine
 10
-690.6675122235274
 20
417.2992883630703
 30
0.0
 11
-690.6675122235274
 21
460.2997519003378
 31
0.0
  0
LINE
  5
2AC
330
1F
100
AcDbEntity
  8
A-2
  6
Continuous
 62
     3
370
     9
100
AcDbLine
 10
-728.5868917929159
 20
460.2997519003378
 30
0.0
 11
-728.5868917929159
 21
417.2992883630703
 31
0.0
  0
LINE
  5
2AD
330
1F
100
AcDbEntity
  8
A-2
  6
Continuous
 62
     3
370
     9
100
AcDbLine
 10
-706.2471894960146
 20
417.2992883630703
 30
0.0
 11
-706.2471894960146
 21
460.2997519003378
 31
0.0
  0
LINE
  5
2AE
330
1F
100
AcDbEntity
  8
A-2
  6
Continuous
 62
     3
370
     9
100
AcDbLine
 10
-703.2473528062975
 20
417.2992883630703
 30
0.0
 11
-703.2473528062975
 21
460.2997519003378
 31
0.0
  0
LINE
  5
2AF
330
1F
100
AcDbEntity
  8
A-9
  6
Continuous
 62
     4
370
     9
100
AcDbLine
 10
-717.5868616877376
 20
445.6113528689825
 30
0.0
 11
-717.5868616877376
 21
460.2997519003378
 31
0.0
  0
LINE
  5
2B0
330
1F
100
AcDbEntity
  8
A-9
  6
Continuous
 62
     4
370
     9
100
AcDbLine
 10
-707.5868286957613
 20
445.6113528689825
 30
0.0
 11
-707.5868286957613
 21
460.2997519003378
 31
0.0
  0
LINE
  5
2B1
330
1F
100
AcDbEntity
  8
A-2
  6
Continuous
 62
     3
370
     9
100
AcDbLine
 10
-454.647130192937
 20
417.2992883630703
 30
0.0
 11
-454.647130192937
 21
460.2997519003378
 31
0.0
  0
LINE
  5
2B2
330
1F
100
AcDbEntity
  8
A-2
  6
Continuous
 62
     3
370
     9
100
AcDbLine
 10
-451.647664662954
 20
417.2992883630703
 30
0.0
 11
-451.647664662954
 21
460.2997519003378
 31
0.0
  0
LINE
  5
2B3
330
1F
100
AcDbEntity
  8
A-2
  6
Continuous
 62
     3
370
     9
100
AcDbLine
 10
-442.0672896101669
 20
417.2992883630703
 30
0.0
 11
-442.0672896101669
 21
460.2997519003378
 31
0.0
  0
LINE
  5
2B4
330
1F
100
AcDbEntity
  8
A-2
  6
Continuous
 62
     3
370
     9
100
AcDbLine
 10
-439.0678240801836
 20
417.2992883630703
 30
0.0
 11
-439.0678240801836
 21
460.2997519003378
 31
0.0
  0
LINE
  5
2B5
330
1F
100
AcDbEntity
  8
A-2
  6
Continuous
 62
     3
370
     9
100
AcDbLine
 10
-429.4874490273966
 20
417.2992883630703
 30
0.0
 11
-429.4874490273966
 21
460.2997519003378
 31
0.0
  0
LINE
  5
2B6
330
1F
100
AcDbEntity
  8
A-2
  6
Continuous
 62
     3
370
     9
100
AcDbLine
 10
-426.4879834974136
 20
417.2992883630703
 30
0.0
 11
-426.4879834974136
 21
460.2997519003378
 31
0.0
  0
LINE
  5
2B7
330
1F
100
AcDbEntity
  8
A-2
  6
Continuous
 62
     3
370
     9
100
AcDbLine
 10
-416.9076084446262
 20
417.2992883630703
 30
0.0
 11
-416.9076084446262
 21
460.2997519003378
 31
0.0
  0
LINE
  5
2B8
330
1F
100
AcDbEntity
  8
A-2
  6
Continuous
 62
     3
370
     9
100
AcDbLine
 10
-413.9081429146432
 20
417.2992883630703
 30
0.0
 11
-413.9081429146432
 21
460.2997519003378
 31
0.0
  0
LINE
  5
2B9
330
1F
100
AcDbEntity
  8
A-2
  6
Continuous
 62
     3
370
     9
100
AcDbLine
 10
-404.3277678618561
 20
417.2992883630703
 30
0.0
 11
-404.3277678618561
 21
460.2997519003378
 31
0.0
  0
LINE
  5
2BA
330
1F
100
AcDbEntity
  8
A-2
  6
Continuous
 62
     3
370
     9
100
AcDbLine
 10
-401.3283023318729
 20
417.2992883630703
 30
0.0
 11
-401.3283023318729
 21
460.2997519003378
 31
0.0
  0
LINE
  5
2BB
330
1F
100
AcDbEntity
  8
A-2
  6
Continuous
 62
     3
370
     9
100
AcDbLine
 10
-391.7479272790858
 20
417.2992883630703
 30
0.0
 11
-391.7479272790858
 21
460.2997519003378
 31
0.0
  0
LINE
  5
2BC
330
1F
100
AcDbEntity
  8
A-2
  6
Continuous
 62
     3
370
     9
100
AcDbLine
 10
-388.7484617491027
 20
417.2992883630703
 30
0.0
 11
-388.7484617491027
 21
460.2997519003378
 31
0.0
  0
LINE
  5
2BD
330
1F
100
AcDbEntity
  8
A-2
  6
Continuous
 62
     3
370
     9
100
AcDbLine
 10
-379.1680866963155
 20
417.2992883630703
 30
0.0
 11
-379.1680866963155
 21
460.2997519003378
 31
0.0
  0
LINE
  5
2BE
330
1F
100
AcDbEntity
  8
A-2
  6
Continuous
 62
     3
370
     9
100
AcDbLine
 10
-376.1686211663324
 20
417.2992883630703
 30
0.0
 11
-376.1686211663324
 21
460.2997519003378
 31
0.0
  0
LINE
  5
2BF
330
1F
100
AcDbEntity
  8
A-2
  6
Continuous
 62
     3
370
     9
100
AcDbLine
 10
-366.5882461135452
 20
417.2992883630703
 30
0.0
 11
-366.5882461135452
 21
460.2997519003378
 31
0.0
  0
LINE
  5
2C0
330
1F
100
AcDbEntity
  8
A-2
  6
Continuous
 62
     3
370
     9
100
AcDbLine
 10
-363.5887805835621
 20
417.2992883630703
 30
0.0
 11
-363.5887805835621
 21
460.2997519003378
 31
0.0
  0
LINE
  5
2C1
330
1F
100
AcDbEntity
  8
A-2
  6
Continuous
 62
     3
370
     9
100
AcDbLine
 10
-354.008405530775
 20
417.2992883630703
 30
0.0
 11
-354.008405530775
 21
460.2997519003378
 31
0.0
  0
LINE
  5
2C2
330
1F
100
AcDbEntity
  8
A-2
  6
Continuous
 62
     3
370
     9
100
AcDbLine
 10
-351.0089400007919
 20
417.2992883630703
 30
0.0
 11
-351.0089400007919
 21
460.2997519003378
 31
0.0
  0
LINE
  5
2C3
330
1F
100
AcDbEntity
  8
A-9
  6
Continuous
 62
     4
370
     9
100
AcDbLine
 10
-707.0868765341269
 20
-220.2005569870406
 30
0.0
 11
-718.0868138493719
 21
-220.2005569870406
 31
0.0
  0
LINE
  5
2C4
330
1F
100
AcDbEntity
  8
A-9
  6
Continuous
 62
     4
370
     9
100
AcDbLine
 10
-718.0868138493719
 20
-230.70041842074
 30
0.0
 11
-718.0868138493719
 21
-220.2005569870406
 31
0.0
  0
CIRCLE
  5
2C5
330
1F
100
AcDbEntity
  8
A-1
  6
Continuous
 62
     2
370
     9
100
AcDbCircle
 10
-584.587493071685
 20
-249.7012605409362
 30
0.0
 40
4.499999574712805
  0
CIRCLE
  5
2C6
330
1F
100
AcDbEntity
  8
A-1
  6
Continuous
 62
     2
370
     9
100
AcDbCircle
 10
-483.5878155682539
 20
-249.7012605409362
 30
0.0
 40
4.499999574712805
  0
ARC
  5
2C7
330
1F
100
AcDbEntity
  8
A-1
  6
Continuous
 62
     2
370
     9
100
AcDbCircle
 10
-579.0874006941511
 20
-255.8015182082715
 30
0.0
 40
9.999998195751294
100
AcDbArc
 50
180.0
 51
270.0
  0
ARC
  5
2C8
330
1F
100
AcDbEntity
  8
A-1
  6
Continuous
 62
     2
370
     9
100
AcDbCircle
 10
-489.0873512061867
 20
-255.8015182082715
 30
0.0
 40
9.999998195751294
100
AcDbArc
 50
270.0
 51
0.0
  0
ARC
  5
2C9
330
1F
100
AcDbEntity
  8
A-1
  6
Continuous
 62
     2
370
     9
100
AcDbCircle
 10
-489.0873512061867
 20
-255.8015182082715
 30
0.0
 40
0.9999998920672648
100
AcDbArc
 50
270.0
 51
0.0
  0
ARC
  5
2CA
330
1F
100
AcDbEntity
  8
A-1
  6
Continuous
 62
     2
370
     9
100
AcDbCircle
 10
-579.0874006941511
 20
-255.8015182082715
 30
0.0
 40
0.9999998920672648
100
AcDbArc
 50
180.0
 51
270.0
  0
CIRCLE
  5
2CB
330
1F
100
AcDbEntity
  8
A-1
  6
Continuous
 62
     2
370
     9
100
AcDbCircle
 10
-584.587493071685
 20
479.299789841111
 30
0.0
 40
4.499999574712805
  0
CIRCLE
  5
2CC
330
1F
100
AcDbEntity
  8
A-1
  6
Continuous
 62
     2
370
     9
100
AcDbCircle
 10
-483.5878155682539
 20
479.299789841111
 30
0.0
 40
4.499999574712805
  0
ARC
  5
2CD
330
1F
100
AcDbEntity
  8
A-1
  6
Continuous
 62
     2
370
     9
100
AcDbCircle
 10
-579.0874006941511
 20
485.3994289088894
 30
0.0
 40
9.999998195751294
100
AcDbArc
 50
90.0
 51
180.0
  0
ARC
  5
2CE
330
1F
100
AcDbEntity
  8
A-1
  6
Continuous
 62
     2
370
     9
100
AcDbCircle
 10
-489.0873512061867
 20
485.3994289088894
 30
0.0
 40
9.999998195751294
100
AcDbArc
 50
0.0
 51
90.0
  0
ARC
  5
2CF
330
1F
100
AcDbEntity
  8
A-1
  6
Continuous
 62
     2
370
     9
100
AcDbCircle
 10
-489.0873512061867
 20
485.3994289088894
 30
0.0
 40
0.9999998920672648
100
AcDbArc
 50
0.0
 51
90.0
  0
ARC
  5
2D0
330
1F
100
AcDbEntity
  8
A-1
  6
Continuous
 62
     2
370
     9
100
AcDbCircle
 10
-579.0874006941511
 20
485.3994289088894
 30
0.0
 40
0.9999998920672648
100
AcDbArc
 50
90.0
 51
180.0
  0
ARC
  5
2D1
330
1F
100
AcDbEntity
  8
A-9
  6
Continuous
 62
     4
370
     9
100
AcDbCircle
 10
-705.6444260880754
 20
478.2893693253803
 30
0.0
 40
2.909999844190237
100
AcDbArc
 50
48.12370300292969
 51
131.8761138916015
  0
ARC
  5
2D2
330
1F
100
AcDbEntity
  8
A-9
  6
Continuous
 62
     4
370
     9
100
AcDbCircle
 10
-719.5293880153347
 20
478.2893693253803
 30
0.0
 40
2.909999844190237
100
AcDbArc
 50
48.12388610839845
 51
131.8762969970703
  0
ARC
  5
2D3
330
1F
100
AcDbEntity
  8
A-9
  6
Continuous
 62
     4
370
     9
100
AcDbCircle
 10
-712.5868451917494
 20
464.0092460013725
 30
0.0
 40
17.19013162561365
100
AcDbArc
 50
73.09028625488283
 51
106.9097137451172
  0
LINE
  5
2D4
330
1F
100
AcDbEntity
  8
A-1
  6
Continuous
 62
     2
370
     9
100
AcDbLine
 10
135.5674537452492
 20
471.2994417757603
 30
0.0
 11
135.5674537452492
 21
474.7994780669341
 31
0.0
  0
LINE
  5
2D5
330
1F
100
AcDbEntity
  8
A-1
  6
Continuous
 62
     2
370
     9
100
AcDbLine
 10
170.0676170555322
 20
414.7995275548988
 30
0.0
 11
173.5676533467061
 21
414.7995275548988
 31
0.0
  0
LINE
  5
2D6
330
1F
100
AcDbEntity
  8
A-1
  6
Continuous
 62
     2
370
     9
100
AcDbLine
 10
167.5678562473607
 20
464.7991976351353
 30
0.0
 11
167.5678562473607
 21
417.2991646431591
 31
0.0
  0
LINE
  5
2D7
330
1F
100
AcDbEntity
  8
A-1
  6
Continuous
 62
     2
370
     9
100
AcDbLine
 10
173.5676533467061
 20
474.7994780669341
 30
0.0
 11
173.5676533467061
 21
414.7995275548988
 31
0.0
  0
LINE
  5
2D8
330
1F
100
AcDbEntity
  8
A-1
  6
Continuous
 62
     2
370
     9
100
AcDbLine
 10
173.5676533467061
 20
474.7994780669341
 30
0.0
 11
135.5674537452492
 21
474.7994780669341
 31
0.0
  0
LINE
  5
2D9
330
1F
100
AcDbEntity
  8
A-1
  6
Continuous
 62
     2
370
     9
100
AcDbLine
 10
153.567463642842
 20
474.7994780669341
 30
0.0
 11
153.567463642842
 21
483.7993592958194
 31
0.0
  0
LINE
  5
2DA
330
1F
100
AcDbEntity
  8
A-1
  6
Continuous
 62
     2
370
     9
100
AcDbLine
 10
167.3827712600295
 20
483.7993592958194
 30
0.0
 11
153.567463642842
 21
483.7993592958194
 31
0.0
  0
LINE
  5
2DB
330
1F
100
AcDbEntity
  8
A-1
  6
Continuous
 62
     2
370
     9
100
AcDbLine
 10
172.0413208007813
 20
475.4128813872466
 30
0.0
 11
230.2323624894426
 21
491.0050543707772
 31
0.0
  0
LINE
  5
2DC
330
1F
100
AcDbEntity
  8
A-1
  6
Continuous
 62
     2
370
     9
100
AcDbLine
 10
169.7120460304055
 20
484.1063083957985
 30
0.0
 11
227.9029639991554
 21
499.6982339395059
 31
0.0
  0
LINE
  5
2DD
330
1F
100
AcDbEntity
  8
A-1
  6
JWW_CENTER1
 62
     2
370
     9
100
AcDbLine
 10
170.8766215556377
 20
479.7596567514781
 30
0.0
 11
236.0433630041173
 21
497.2207427153716
 31
0.0
  0
LINE
  5
2DE
330
1F
100
AcDbEntity
  8
A-1
  6
Continuous
 62
     2
370
     9
100
AcDbLine
 10
135.5674537452492
 20
-241.7005413158519
 30
0.0
 11
135.5674537452492
 21
-245.2003920271589
 31
0.0
  0
LINE
  5
2DF
330
1F
100
AcDbEntity
  8
A-1
  6
Continuous
 62
     2
370
     9
100
AcDbLine
 10
170.0676170555322
 20
-185.2006889549459
 30
0.0
 11
173.5676533467061
 21
-185.2006889549459
 31
0.0
  0
LINE
  5
2E0
330
1F
100
AcDbEntity
  8
A-1
  6
Continuous
 62
     2
370
     9
100
AcDbLine
 10
173.5676533467061
 20
-245.2003920271589
 30
0.0
 11
173.5676533467061
 21
-185.2006889549459
 31
0.0
  0
LINE
  5
2E1
330
1F
100
AcDbEntity
  8
A-1
  6
Continuous
 62
     2
370
     9
100
AcDbLine
 10
173.5676533467061
 20
-245.2003920271589
 30
0.0
 11
135.5674537452492
 21
-245.2003920271589
 31
0.0
  0
LINE
  5
2E2
330
1F
100
AcDbEntity
  8
A-1
  6
Continuous
 62
     2
370
     9
100
AcDbLine
 10
153.567463642842
 20
-245.2003920271589
 30
0.0
 11
153.567463642842
 21
-254.2002732560441
 31
0.0
  0
LINE
  5
2E3
330
1F
100
AcDbEntity
  8
A-1
  6
Continuous
 62
     2
370
     9
100
AcDbLine
 10
167.3827712600295
 20
-254.2002732560441
 30
0.0
 11
153.567463642842
 21
-254.2002732560441
 31
0.0
  0
LINE
  5
2E4
330
1F
100
AcDbEntity
  8
A-1
  6
Continuous
 62
     2
370
     9
100
AcDbLine
 10
172.0413208007813
 20
-245.813857207427
 30
0.0
 11
230.2323624894426
 21
-261.4061539108687
 31
0.0
  0
LINE
  5
2E5
330
1F
100
AcDbEntity
  8
A-1
  6
Continuous
 62
     2
370
     9
100
AcDbLine
 10
169.7120460304055
 20
-254.5073460759342
 30
0.0
 11
227.9029639991554
 21
-270.099271619642
 31
0.0
  0
LINE
  5
2E6
330
1F
100
AcDbEntity
  8
A-1
  6
JWW_CENTER1
 62
     2
370
     9
100
AcDbLine
 10
167.382523820207
 20
-249.7005182214684
 30
0.0
 11
149.7628289300044
 21
-249.7005182214684
 31
0.0
  0
LINE
  5
2E7
330
1F
100
AcDbEntity
  8
A-1
  6
JWW_CENTER1
 62
     2
370
     9
100
AcDbLine
 10
170.8766215556377
 20
-250.1605707117028
 30
0.0
 11
236.0433630041173
 21
-267.621718535552
 31
0.0
  0
LINE
  5
2E8
330
1F
100
AcDbEntity
  8
A-2
  6
Continuous
 62
     3
370
     9
100
AcDbLine
 10
135.5674537452492
 20
-235.2004208951381
 30
0.0
 11
140.5674702412374
 21
-235.2004208951381
 31
0.0
  0
LINE
  5
2E9
330
1F
100
AcDbEntity
  8
A-2
  6
Continuous
 62
     3
370
     9
100
AcDbLine
 10
135.5674537452492
 20
-230.7003565607844
 30
0.0
 11
140.5674702412374
 21
-230.7003565607844
 31
0.0
  0
LINE
  5
2EA
330
1F
100
AcDbEntity
  8
A-1
  6
Continuous
 62
     2
370
     9
100
AcDbLine
 10
163.567744074641
 20
-239.2004093479466
 30
0.0
 11
150.5673795133023
 21
-239.2004093479466
 31
0.0
  0
LINE
  5
2EB
330
1F
100
AcDbEntity
  8
A-1
  6
Continuous
 62
     2
370
     9
100
AcDbLine
 10
140.5674702412374
 20
-239.2004093479466
 30
0.0
 11
138.0675857131546
 21
-239.2004093479466
 31
0.0
  0
LINE
  5
2EC
330
1F
100
AcDbEntity
  8
A-9
  6
Continuous
 62
     4
370
     9
100
AcDbLine
 10
149.7554057353252
 20
444.7993790910053
 30
0.0
 11
150.5675032332138
 21
445.6114765888938
 31
0.0
  0
LINE
  5
2ED
330
1F
100
AcDbEntity
  8
A-9
  6
Continuous
 62
     4
370
     9
100
AcDbLine
 10
141.3795677391259
 20
444.7993790910053
 30
0.0
 11
140.5674702412374
 21
445.6114765888938
 31
0.0
  0
LINE
  5
2EE
330
1F
100
AcDbEntity
  8
A-9
  6
Continuous
 62
     4
370
     9
100
AcDbLine
 10
136.6824175860431
 20
480.4561998521959
 30
0.0
 11
136.6824175860431
 21
474.7994780669341
 31
0.0
  0
LINE
  5
2EF
330
1F
100
AcDbEntity
  8
A-9
  6
Continuous
 62
     4
370
     9
100
AcDbLine
 10
152.5099058408995
 20
481.1993853594806
 30
0.0
 11
138.6250676335516
 21
481.1993853594806
 31
0.0
  0
LINE
  5
2F0
330
1F
100
AcDbEntity
  8
A-9
  6
JWW_CENTER2
 62
     4
370
     9
100
AcDbLine
 10
145.5674867372256
 20
486.9396180848819
 30
0.0
 11
145.5674867372256
 21
441.2663095835094
 31
0.0
  0
LINE
  5
2F1
330
1F
100
AcDbEntity
  8
A-9
  6
Continuous
 62
     4
370
     9
100
AcDbLine
 10
140.5674702412374
 20
474.7994780669341
 30
0.0
 11
140.5674702412374
 21
480.4561998521959
 31
0.0
  0
LINE
  5
2F2
330
1F
100
AcDbEntity
  8
A-9
  6
Continuous
 62
     4
370
     9
100
AcDbLine
 10
150.5675032332138
 20
474.7994780669341
 30
0.0
 11
150.5675032332138
 21
480.4561998521959
 31
0.0
  0
LINE
  5
2F3
330
1F
100
AcDbEntity
  8
A-9
  6
Continuous
 62
     4
370
     9
100
AcDbLine
 10
141.3795677391259
 20
444.7993790910053
 30
0.0
 11
149.7554057353252
 21
444.7993790910053
 31
0.0
  0
LINE
  5
2F4
330
1F
100
AcDbEntity
  8
A-9
  6
Continuous
 62
     4
370
     9
100
AcDbLine
 10
140.5674702412374
 20
445.6114765888938
 30
0.0
 11
140.5674702412374
 21
474.7994780669341
 31
0.0
  0
LINE
  5
2F5
330
1F
100
AcDbEntity
  8
A-9
  6
Continuous
 62
     4
370
     9
100
AcDbLine
 10
150.5675032332138
 20
445.6114765888938
 30
0.0
 11
150.5675032332138
 21
474.7994780669341
 31
0.0
  0
LINE
  5
2F6
330
1F
100
AcDbEntity
  8
A-2
  6
Continuous
 62
     3
370
     9
100
AcDbLine
 10
135.5674537452492
 20
464.7991976351353
 30
0.0
 11
140.5674702412374
 21
464.7991976351353
 31
0.0
  0
LINE
  5
2F7
330
1F
100
AcDbEntity
  8
A-2
  6
Continuous
 62
     3
370
     9
100
AcDbLine
 10
135.5674537452492
 20
460.2993807406041
 30
0.0
 11
140.5674702412374
 21
460.2993807406041
 31
0.0
  0
LINE
  5
2F8
330
1F
100
AcDbEntity
  8
A-1
  6
Continuous
 62
     2
370
     9
100
AcDbLine
 10
163.567744074641
 20
468.7993098078547
 30
0.0
 11
150.5675032332138
 21
468.7993098078547
 31
0.0
  0
LINE
  5
2F9
330
1F
100
AcDbEntity
  8
A-1
  6
Continuous
 62
     2
370
     9
100
AcDbLine
 10
140.5674702412374
 20
468.7993098078547
 30
0.0
 11
138.0675857131546
 21
468.7993098078547
 31
0.0
  0
LINE
  5
2FA
330
1F
100
AcDbEntity
  8
A-1
  6
JWW_CENTER1
 62
     2
370
     9
100
AcDbLine
 10
167.382523820207
 20
479.2994186813769
 30
0.0
 11
152.2693943332982
 21
479.2994186813769
 31
0.0
  0
LINE
  5
2FB
330
1F
100
AcDbEntity
  8
A-2
  6
Continuous
 62
     4
370
     9
100
AcDbLine
 10
135.5674537452492
 20
435.2994219805744
 30
0.0
 11
167.5676088075381
 21
435.2994219805744
 31
0.0
  0
LINE
  5
2FC
330
1F
100
AcDbEntity
  8
A-2
  6
Continuous
 62
     4
370
     9
100
AcDbLine
 10
135.5674537452492
 20
430.7994813661319
 30
0.0
 11
167.5676088075381
 21
430.7994813661319
 31
0.0
  0
LINE
  5
2FD
330
1F
100
AcDbEntity
  8
A-2
  6
Continuous
 62
     4
370
     9
100
AcDbLine
 10
135.5674537452492
 20
-205.7003978007547
 30
0.0
 11
167.5676088075381
 21
-205.7003978007547
 31
0.0
  0
LINE
  5
2FE
330
1F
100
AcDbEntity
  8
A-2
  6
Continuous
 62
     4
370
     9
100
AcDbLine
 10
135.5674537452492
 20
-201.2004571863122
 30
0.0
 11
167.5676088075381
 21
-201.2004571863122
 31
0.0
  0
LINE
  5
2FF
330
1F
100
AcDbEntity
  8
A-2
  6
Continuous
 62
     3
370
     9
100
AcDbLine
 10
150.5675032332138
 20
460.2993807406041
 30
0.0
 11
167.5676088075381
 21
460.2993807406041
 31
0.0
  0
LINE
  5
300
330
1F
100
AcDbEntity
  8
A-2
  6
Continuous
 62
     3
370
     9
100
AcDbLine
 10
135.5674537452492
 20
464.7991976351353
 30
0.0
 11
135.5674537452492
 21
-235.2004208951381
 31
0.0
  0
LINE
  5
301
330
1F
100
AcDbEntity
  8
A-2
  6
Continuous
 62
     3
370
     9
100
AcDbLine
 10
167.5676088075381
 20
-230.7003565607844
 30
0.0
 11
167.5676088075381
 21
113.2997947899072
 31
0.0
  0
LINE
  5
302
330
1F
100
AcDbEntity
  8
A-2
  6
Continuous
 62
     3
370
     9
100
AcDbLine
 10
150.5673795133023
 20
-230.7003565607844
 30
0.0
 11
167.5676088075381
 21
-230.7003565607844
 31
0.0
  0
LINE
  5
303
330
1F
100
AcDbEntity
  8
A-9
  6
Continuous
 62
     4
370
     9
100
AcDbLine
 10
135.567330025338
 20
-245.2003920271589
 30
0.0
 11
135.567330025338
 21
-273.2004658467059
 31
0.0
  0
LINE
  5
304
330
1F
100
AcDbEntity
  8
A-9
  6
Continuous
 62
     4
370
     9
100
AcDbLine
 10
135.567330025338
 20
-273.2004658467059
 30
0.0
 11
155.5673960092905
 21
-273.2004658467059
 31
0.0
  0
LINE
  5
305
330
1F
100
AcDbEntity
  8
A-9
  6
Continuous
 62
     4
370
     9
100
AcDbLine
 10
150.5673795133023
 20
-220.2004023371516
 30
0.0
 11
140.5673465213261
 21
-220.2004023371516
 31
0.0
  0
LINE
  5
306
330
1F
100
AcDbEntity
  8
A-9
  6
JWW_CENTER1
 62
     4
370
     9
100
AcDbLine
 10
145.5674867372256
 20
-214.2700121080553
 30
0.0
 11
145.5674867372256
 21
-278.6324504130594
 31
0.0
  0
LINE
  5
307
330
1F
100
AcDbEntity
  8
A-9
  6
Continuous
 62
     4
370
     9
100
AcDbLine
 10
140.5673465213261
 20
-245.2003920271589
 30
0.0
 11
140.5673465213261
 21
-220.2004023371516
 31
0.0
  0
LINE
  5
308
330
1F
100
AcDbEntity
  8
A-9
  6
Continuous
 62
     4
370
     9
100
AcDbLine
 10
150.5673795133023
 20
-245.2003920271589
 30
0.0
 11
150.5673795133023
 21
-220.2004023371516
 31
0.0
  0
LINE
  5
309
330
1F
100
AcDbEntity
  8
A-9
  6
Continuous
 62
     4
370
     9
100
AcDbLine
 10
155.5673960092905
 20
-254.2004897658887
 30
0.0
 11
155.5673960092905
 21
-273.2004658467059
 31
0.0
  0
LINE
  5
30A
330
1F
100
AcDbEntity
  8
A-2
  6
Continuous
 62
     3
370
     9
100
AcDbLine
 10
150.5673795133023
 20
-235.2004208951381
 30
0.0
 11
167.5678562473607
 21
-235.2004208951381
 31
0.0
  0
LINE
  5
30B
330
1F
100
AcDbEntity
  8
A-1
  6
Continuous
 62
     2
370
     9
100
AcDbLine
 10
167.5678562473607
 20
-235.2004208951381
 30
0.0
 11
167.5678562473607
 21
-187.7002641832505
 31
0.0
  0
LINE
  5
30C
330
1F
100
AcDbEntity
  8
A-2
  6
Continuous
 62
     3
370
     9
100
AcDbLine
 10
150.5675032332138
 20
464.7991976351353
 30
0.0
 11
167.5676088075381
 21
464.7991976351353
 31
0.0
  0
LINE
  5
30D
330
1F
100
AcDbEntity
  8
A-2
  6
Continuous
 62
     3
370
     9
100
AcDbLine
 10
167.5676088075381
 20
464.7991976351353
 30
0.0
 11
167.5676088075381
 21
113.2997947899072
 31
0.0
  0
CIRCLE
  5
30E
330
1F
100
AcDbEntity
  8
A-2
  6
Continuous
 62
     3
370
     9
100
AcDbCircle
 10
138.0675857131546
 20
414.7995275548988
 30
0.0
 40
2.500000032218727
  0
ARC
  5
30F
330
1F
100
AcDbEntity
  8
A-1
  6
Continuous
 62
     2
370
     9
100
AcDbCircle
 10
138.0675857131546
 20
471.2994417757603
 30
0.0
 40
2.500000032218727
100
AcDbArc
 50
180.0
 51
270.0
  0
ARC
  5
310
330
1F
100
AcDbEntity
  8
A-1
  6
Continuous
 62
     2
370
     9
100
AcDbCircle
 10
170.0676170555322
 20
417.2991646431591
 30
0.0
 40
2.500000032218727
100
AcDbArc
 50
180.0
 51
270.0
  0
ARC
  5
311
330
1F
100
AcDbEntity
  8
A-1
  6
Continuous
 62
     2
370
     9
100
AcDbCircle
 10
163.567744074641
 20
464.7991976351353
 30
0.0
 40
3.999999809909511
100
AcDbArc
 50
0.0
 51
90.0
  0
ARC
  5
312
330
1F
100
AcDbEntity
  8
A-1
  6
Continuous
 62
     2
370
     9
100
AcDbCircle
 10
167.382523820207
 20
492.7992405247047
 30
0.0
 40
18.00000023197483
100
AcDbArc
 50
270.0
 51
285.0
  0
ARC
  5
313
330
1F
100
AcDbEntity
  8
A-1
  6
Continuous
 62
     2
370
     9
100
AcDbCircle
 10
229.0677869642103
 20
495.3515822951859
 30
0.0
 40
4.500000057993709
100
AcDbArc
 50
285.0001373291016
 51
104.9999084472657
  0
ARC
  5
314
330
1F
100
AcDbEntity
  8
A-1
  6
JWW_CENTER1
 62
     2
370
     9
100
AcDbCircle
 10
167.382523820207
 20
492.7992405247047
 30
0.0
 40
13.50000259038564
100
AcDbArc
 50
270.0
 51
284.9999542236328
  0
ARC
  5
315
330
1F
100
AcDbEntity
  8
A-1
  6
Continuous
 62
     2
370
     9
100
AcDbCircle
 10
167.3827712600295
 20
492.7992405247047
 30
0.0
 40
9.000000115987417
100
AcDbArc
 50
270.0
 51
285.0000152587891
  0
CIRCLE
  5
316
330
1F
100
AcDbEntity
  8
A-2
  6
Continuous
 62
     3
370
     9
100
AcDbCircle
 10
138.0675857131546
 20
314.7995687948694
 30
0.0
 40
2.500000032218727
  0
CIRCLE
  5
317
330
1F
100
AcDbEntity
  8
A-2
  6
Continuous
 62
     3
370
     9
100
AcDbCircle
 10
138.0675857131546
 20
214.7996100348397
 30
0.0
 40
2.500000032218727
  0
CIRCLE
  5
318
330
1F
100
AcDbEntity
  8
A-2
  6
Continuous
 62
     3
370
     9
100
AcDbCircle
 10
138.0675857131546
 20
114.7995894148544
 30
0.0
 40
2.500000032218727
  0
ARC
  5
319
330
1F
100
AcDbEntity
  8
A-1
  6
Continuous
 62
     2
370
     9
100
AcDbCircle
 10
138.0675857131546
 20
-241.7005413158519
 30
0.0
 40
2.500000032218727
100
AcDbArc
 50
90.0
 51
180.0
  0
ARC
  5
31A
330
1F
100
AcDbEntity
  8
A-1
  6
Continuous
 62
     2
370
     9
100
AcDbCircle
 10
170.0676170555322
 20
-187.7002641832505
 30
0.0
 40
2.500000032218727
100
AcDbArc
 50
90.0
 51
180.0
  0
ARC
  5
31B
330
1F
100
AcDbEntity
  8
A-1
  6
Continuous
 62
     2
370
     9
100
AcDbCircle
 10
163.567744074641
 20
-235.2003590351825
 30
0.0
 40
3.999999809909511
100
AcDbArc
 50
270.0
 51
0.0
  0
ARC
  5
31C
330
1F
100
AcDbEntity
  8
A-1
  6
Continuous
 62
     2
370
     9
100
AcDbCircle
 10
167.382523820207
 20
-263.2002782048405
 30
0.0
 40
18.00000023197483
100
AcDbArc
 50
75.0
 51
89.99999999999999
  0
ARC
  5
31D
330
1F
100
AcDbEntity
  8
A-1
  6
Continuous
 62
     2
370
     9
100
AcDbCircle
 10
229.0677869642103
 20
-265.7527436952331
 30
0.0
 40
4.500000057993709
100
AcDbArc
 50
255.0000915527343
 51
74.99986267089842
  0
ARC
  5
31E
330
1F
100
AcDbEntity
  8
A-1
  6
JWW_CENTER1
 62
     2
370
     9
100
AcDbCircle
 10
167.382523820207
 20
-263.2002782048405
 30
0.0
 40
13.50000259038564
100
AcDbArc
 50
75.00004577636717
 51
90.0
  0
ARC
  5
31F
330
1F
100
AcDbEntity
  8
A-1
  6
Continuous
 62
     2
370
     9
100
AcDbCircle
 10
167.3827712600295
 20
-263.2002782048405
 30
0.0
 40
9.000000115987417
100
AcDbArc
 50
74.99998474121094
 51
90.00000000000001
  0
CIRCLE
  5
320
330
1F
100
AcDbEntity
  8
A-2
  6
Continuous
 62
     3
370
     9
100
AcDbCircle
 10
138.0675857131546
 20
14.80037297429283
 30
0.0
 40
2.500000032218727
  0
ARC
  5
321
330
1F
100
AcDbEntity
  8
A-9
  6
Continuous
 62
     4
370
     9
100
AcDbCircle
 10
138.6250676335516
 20
478.2894930452916
 30
0.0
 40
2.909999844190237
100
AcDbArc
 50
48.12388610839844
 51
131.8762969970703
  0
ARC
  5
322
330
1F
100
AcDbEntity
  8
A-9
  6
Continuous
 62
     4
370
     9
100
AcDbCircle
 10
145.5674867372256
 20
464.0093697212841
 30
0.0
 40
17.19013162561365
100
AcDbArc
 50
73.09028625488281
 51
106.9097137451172
  0
ARC
  5
323
330
1F
100
AcDbEntity
  8
A-9
  6
Continuous
 62
     4
370
     9
100
AcDbCircle
 10
152.5099058408995
 20
478.2894930452916
 30
0.0
 40
2.909999844190237
100
AcDbArc
 50
68.6871337890625
 51
131.8761138916015
  0
CIRCLE
  5
324
330
1F
100
AcDbEntity
  8
A-2
  6
Continuous
 62
     3
370
     9
100
AcDbCircle
 10
138.0675857131546
 20
-185.1996373356998
 30
0.0
 40
2.500000032218727
  0
CIRCLE
  5
325
330
1F
100
AcDbEntity
  8
A-2
  6
Continuous
 62
     3
370
     9
100
AcDbCircle
 10
138.0675857131546
 20
-85.1996476456925
 30
0.0
 40
2.500000032218727
  0
LINE
  5
326
330
1F
100
AcDbEntity
  8
A-5
  6
Continuous
 62
     7
370
     9
100
AcDbLine
 10
-579.7667157972184
 20
-491.3587361928579
 30
0.0
 11
-423.1319633690086
 21
-491.3587361928579
 31
0.0
  0
TEXT
  5
327
330
1F
100
AcDbEntity
  8
A-5
  6
Continuous
 62
     7
370
     9
100
AcDbText
 10
-573.1739588557065
 20
-478.739147035341
 30
0.0
 40
13.716
  1
ボックス φ２０
 41
1.144444444444444
  7
ＭＳ ゴシック
100
AcDbText
  0
LINE
  5
328
330
1F
100
AcDbEntity
  8
A-5
  6
Continuous
 62
     7
370
     9
100
AcDbLine
 10
-702.586812199773
 20
-273.2006204965951
 30
0.0
 11
-579.7667157972184
 21
-491.3587361928579
 31
0.0
  0
LINE
  5
329
330
1F
100
AcDbEntity
  8
A-5
  6
Continuous
 62
     7
370
     9
100
AcDbLine
 10
-702.586812199773
 20
-273.2006204965951
 30
0.0
 11
-691.6291376062343
 21
-287.4809170284788
 31
0.0
  0
LINE
  5
32A
330
1F
100
AcDbEntity
  8
A-5
  6
Continuous
 62
     7
370
     9
100
AcDbLine
 10
-718.0868138493719
 20
-224.1005468522334
 30
0.0
 11
-790.6868455216694
 21
-151.5004780639627
 31
0.0
  0
LINE
  5
32B
330
1F
100
AcDbEntity
  8
A-5
  6
Continuous
 62
     7
370
     9
100
AcDbLine
 10
-790.6868455216694
 20
-151.5004780639627
 30
0.0
 11
-951.9352526278179
 21
-151.5004780639627
 31
0.0
  0
TEXT
  5
32C
330
1F
100
AcDbEntity
  8
A-5
  6
Continuous
 62
     7
370
     9
100
AcDbText
 10
-945.1868455216694
 20
-142.411360295804
 30
0.0
 40
13.716
  1
脱着ピン φ１１
 41
1.144444444444443
  7
ＭＳ ゴシック
100
AcDbText
  0
LINE
  5
32D
330
1F
100
AcDbEntity
  8
A-5
  6
Continuous
 62
     7
370
     9
100
AcDbLine
 10
-718.0868138493719
 20
-224.1005468522334
 30
0.0
 11
-729.0444884429106
 21
-209.8202503203499
 31
0.0
  0
LINE
  5
32E
330
1F
100
AcDbEntity
  8
A-5
  6
Continuous
 62
     7
370
     9
100
AcDbLine
 10
-718.0868138493719
 20
-224.1005468522334
 30
0.0
 11
-732.367110381255
 21
-213.1428722586944
 31
0.0
  0
LINE
  5
32F
330
1F
100
AcDbEntity
  8
A-5
  6
Continuous
 62
     7
370
     9
100
AcDbLine
 10
-712.4605492778126
 20
481.1993776269862
 30
0.0
 11
-805.4369534163263
 21
642.2393507055333
 31
0.0
  0
LINE
  5
330
330
1F
100
AcDbEntity
  8
A-5
  6
Continuous
 62
     7
370
     9
100
AcDbLine
 10
-805.4369534163263
 20
642.2393507055333
 30
0.0
 11
-1050.797468701509
 21
642.2393507055333
 31
0.0
  0
TEXT
  5
331
330
1F
100
AcDbEntity
  8
A-5
  6
Continuous
 62
     7
370
     9
100
AcDbText
 10
-1043.936953416326
 20
651.1350200203563
 30
0.0
 40
13.716
  1
六角頭ピン φ１０×３０
 41
1.152173913043478
  7
ＭＳ ゴシック
100
AcDbText
  0
LINE
  5
332
330
1F
100
AcDbEntity
  8
A-5
  6
Continuous
 62
     7
370
     9
100
AcDbLine
 10
-712.4605492778126
 20
481.1993776269862
 30
0.0
 11
-723.4182981032982
 21
495.479822622763
 31
0.0
  0
LINE
  5
333
330
1F
100
AcDbEntity
  8
A-5
  6
Continuous
 62
     7
370
     9
100
AcDbLine
 10
-712.4605492778126
 20
481.1993776269862
 30
0.0
 11
-719.3488285482938
 21
497.8292637386837
 31
0.0
  0
LINE
  5
334
330
1F
100
AcDbEntity
  8
A-5
  6
Continuous
 62
     7
370
     9
100
AcDbLine
 10
-388.3703860721072
 20
464.7996925147808
 30
0.0
 11
-327.9113604571364
 21
688.5871878959042
 31
0.0
  0
LINE
  5
335
330
1F
100
AcDbEntity
  8
A-5
  6
Continuous
 62
     7
370
     9
100
AcDbLine
 10
-327.9113604571364
 20
688.5871878959042
 30
0.0
 11
-56.20446364944021
 21
688.5871878959042
 31
0.0
  0
LINE
  5
336
330
1F
100
AcDbEntity
  8
A-5
  6
Continuous
 62
     7
370
     9
100
AcDbLine
 10
-319.9704721811652
 20
640.5328402132604
 30
0.0
 11
-99.81008828652867
 21
640.5328402132604
 31
0.0
  0
LINE
  5
337
330
1F
100
AcDbEntity
  8
A-5
  6
Continuous
 62
     7
370
     9
100
AcDbLine
 10
-381.2022397500741
 20
417.29928836307
 30
0.0
 11
-319.9704721811652
 21
640.5328402132604
 31
0.0
  0
TEXT
  5
338
330
1F
100
AcDbEntity
  8
A-5
  6
Continuous
 62
     7
370
     9
100
AcDbText
 10
-318.8100882865286
 20
645.555680400127
 30
0.0
 40
13.716
  1
クロスバー φ５ ＠100
 41
1.158730158730158
  7
ＭＳ ゴシック
100
AcDbText
  0
TEXT
  5
339
330
1F
100
AcDbEntity
  8
A-5
  6
Continuous
 62
     7
370
     9
100
AcDbText
 10
-327.7044636494402
 20
695.2827707717486
 30
0.0
 40
13.716
  1
エンドプレート ＦＢ4.5×32
 41
1.160256410256409
  7
ＭＳ ゴシック
100
AcDbText
  0
LINE
  5
33A
330
1F
100
AcDbEntity
  8
A-5
  6
Continuous
 62
     7
370
     9
100
AcDbLine
 10
-388.3703860721072
 20
464.7996925147808
 30
0.0
 11
-386.3818014943494
 21
479.6672925691643
 31
0.0
  0
LINE
  5
33B
330
1F
100
AcDbEntity
  8
A-5
  6
Continuous
 62
     7
370
     9
100
AcDbLine
 10
-388.3703860721072
 20
464.7996925147808
 30
0.0
 11
-382.6015428216492
 21
478.6460078207257
 31
0.0
  0
LINE
  5
33C
330
1F
100
AcDbEntity
  8
A-5
  6
Continuous
 62
     7
370
     9
100
AcDbLine
 10
-381.2022397500741
 20
417.29928836307
 30
0.0
 11
-379.156476004042
 21
432.1591285605762
 31
0.0
  0
LINE
  5
33D
330
1F
100
AcDbEntity
  8
A-5
  6
Continuous
 62
     7
370
     9
100
AcDbLine
 10
-381.2022397500741
 20
417.29928836307
 30
0.0
 11
-375.3801740630012
 21
431.1233091651163
 31
0.0
  0
LINE
  5
33E
330
1F
100
AcDbEntity
  8
A-5
  6
Continuous
 62
     7
370
     9
100
AcDbLine
 10
-319.5876085436022
 20
384.66365834829
 30
0.0
 11
-313.8473564935429
 21
398.5218511021014
 31
0.0
  0
LINE
  5
33F
330
1F
100
AcDbEntity
  8
A-5
  6
Continuous
 62
     7
370
     9
100
AcDbLine
 10
-319.5876085436022
 20
384.66365834829
 30
0.0
 11
-317.6297150544293
 21
399.5353311891326
 31
0.0
  0
LINE
  5
340
330
1F
100
AcDbEntity
  8
A-5
  6
Continuous
 62
     7
370
     9
100
AcDbLine
 10
-319.5876085436022
 20
384.66365834829
 30
0.0
 11
-283.5846904222566
 21
519.0283561018169
 31
0.0
  0
LINE
  5
341
330
1F
100
AcDbEntity
  8
A-5
  6
Continuous
 62
     7
370
     9
100
AcDbLine
 10
-283.5846904222566
 20
519.0283561018169
 30
0.0
 11
-189.8168549598411
 21
519.0283561018169
 31
0.0
  0
TEXT
  5
342
330
1F
100
AcDbEntity
  8
A-5
  6
Continuous
 62
     7
370
     9
100
AcDbText
 10
-282.8168549598411
 20
527.5754321945111
 30
0.0
 40
13.716
  1
ＦＢ6×32
 41
1.148148148148149
  7
ＭＳ ゴシック
100
AcDbText
  0
LINE
  5
343
330
1F
100
AcDbEntity
  8
A-5
  6
Continuous
 62
     7
370
     9
100
AcDbLine
 10
-351.0089400007919
 20
443.521162235554
 30
0.0
 11
-309.815591348184
 21
595.9335442620358
 31
0.0
  0
LINE
  5
344
330
1F
100
AcDbEntity
  8
A-5
  6
Continuous
 62
     7
370
     9
100
AcDbLine
 10
-351.0089400007919
 20
443.521162235554
 30
0.0
 11
-349.0187905294738
 21
458.3885528970592
 31
0.0
  0
LINE
  5
345
330
1F
100
AcDbEntity
  8
A-5
  6
Continuous
 62
     7
370
     9
100
AcDbLine
 10
-351.0089400007919
 20
443.521162235554
 30
0.0
 11
-345.2386393740933
 21
457.366870259253
 31
0.0
  0
LINE
  5
346
330
1F
100
AcDbEntity
  8
A-5
  6
Continuous
 62
     7
370
     9
100
AcDbLine
 10
-309.815591348184
 20
595.9335442620358
 30
0.0
 11
-23.40532045106629
 21
595.9335442620358
 31
0.0
  0
TEXT
  5
347
330
1F
100
AcDbEntity
  8
A-5
  6
Continuous
 62
     7
370
     9
100
AcDbText
 10
-305.4053204510663
 20
604.8373790910055
 30
0.0
 40
13.716
  1
メインバー ＦＢ3×32 ＠12.5
 41
1.160493827160494
  7
ＭＳ ゴシック
100
AcDbText
  0
LINE
  5
348
330
1F
100
AcDbEntity
  8
A-5
  6
Continuous
 62
     7
370
     9
100
AcDbLine
 10
135.5674537452492
 20
473.0494599213471
 30
0.0
 11
130.7839108406856
 21
484.5979540777381
 31
0.0
  0
LINE
  5
349
330
1F
100
AcDbEntity
  8
A-5
  6
Continuous
 62
     7
370
     9
100
AcDbLine
 10
135.5674537452492
 20
473.0494599213471
 30
0.0
 11
127.9579358826402
 21
482.9663766749875
 31
0.0
  0
LINE
  5
34A
330
1F
100
AcDbEntity
  8
A-5
  6
Continuous
 62
     7
370
     9
100
AcDbLine
 10
96.14744276207179
 20
541.3269217791336
 30
0.0
 11
135.5674537452492
 21
473.0494599213471
 31
0.0
  0
LINE
  5
34B
330
1F
100
AcDbEntity
  8
A-5
  6
Continuous
 62
     7
370
     9
100
AcDbLine
 10
-41.35255723792818
 20
541.3269217791336
 30
0.0
 11
96.14744276207179
 21
541.3269217791336
 31
0.0
  0
TEXT
  5
34C
330
1F
100
AcDbEntity
  8
A-5
  6
Continuous
 62
     7
370
     9
100
AcDbText
 10
-55.10255723792821
 20
519.9942585744251
 30
0.0
 40
13.716
  1
（二方受四方枠）
 41
1.145833333333333
  7
ＭＳ ゴシック
100
AcDbText
  0
TEXT
  5
34D
330
1F
100
AcDbEntity
  8
A-5
  6
Continuous
 62
     7
370
     9
100
AcDbText
 10
-44.60255723792812
 20
548.0256026015577
 30
0.0
 40
13.716
  1
受枠：Ｌ－３２
 41
1.142857142857143
  7
ＭＳ ゴシック
100
AcDbText
  0
LINE
  5
34E
330
1F
100
AcDbEntity
  8
A-5
  6
Continuous
 62
     7
370
     9
100
AcDbLine
 10
198.8075050147802
 20
491.902271167652
 30
0.0
 11
206.7185520481418
 21
504.646411792652
 31
0.0
  0
LINE
  5
34F
330
1F
100
AcDbEntity
  8
A-5
  6
Continuous
 62
     7
370
     9
100
AcDbLine
 10
198.8075050147802
 20
491.902271167652
 30
0.0
 11
209.747512404983
 21
502.1646893475507
 31
0.0
  0
LINE
  5
350
330
1F
100
AcDbEntity
  8
A-5
  6
Continuous
 62
     7
370
     9
100
AcDbLine
 10
198.8075050147802
 20
491.902271167652
 30
0.0
 11
239.3049501163955
 21
541.3271073590007
 31
0.0
  0
LINE
  5
351
330
1F
100
AcDbEntity
  8
A-5
  6
Continuous
 62
     7
370
     9
100
AcDbLine
 10
239.3049501163955
 20
541.3271073590007
 30
0.0
 11
379.6065957561755
 21
541.3271073590007
 31
0.0
  0
TEXT
  5
352
330
1F
100
AcDbEntity
  8
A-5
  6
Continuous
 62
     7
370
     9
100
AcDbText
 10
237.6296983876158
 20
548.5176688560445
 30
0.0
 40
13.716
  1
アンカー　φ９
 41
1.142857142857143
  7
ＭＳ ゴシック
100
AcDbText
  0
LINE
  5
353
330
1F
100
AcDbEntity
  8
A-4
  6
Continuous
 62
     7
370
     9
100
AcDbLine
 10
-748.5871742867135
 20
-417.200392027159
 30
0.0
 11
-319.5876085436022
 21
-417.200392027159
 31
0.0
  0
LWPOLYLINE
  5
354
330
1F
100
AcDbEntity
  8
A-4
  6
Continuous
 62
     7
370
     9
100
AcDbPolyline
 90
        4
 70
     1
 43
1.2
 10
-747.9871742867135
 20
-417.200392027159
 42
0.4142135623731
 10
-748.5871742867135
 20
-416.6003920271589
 42
0.4142135623731
 10
-749.1871742867135
 20
-417.200392027159
 42
0.4142135623731
 10
-748.5871742867135
 20
-417.8003920271589
 42
0.4142135623731
  0
LWPOLYLINE
  5
355
330
1F
100
AcDbEntity
  8
A-4
  6
Continuous
 62
     7
370
     9
100
AcDbPolyline
 90
        4
 70
     1
 43
1.2
 10
-318.9876085436022
 20
-417.200392027159
 42
0.4142135623731
 10
-319.5876085436022
 20
-416.6003920271589
 42
0.4142135623731
 10
-320.1876085436022
 20
-417.200392027159
 42
0.4142135623731
 10
-319.5876085436022
 20
-417.8003920271589
 42
0.4142135623731
  0
LINE
  5
356
330
1F
100
AcDbEntity
  8
A-4
  6
Continuous
 62
     7
370
     9
100
AcDbLine
 10
-748.5871742867135
 20
-419.0003920271589
 30
0.0
 11
-748.5871742867135
 21
-257.2003920271589
 31
0.0
  0
LINE
  5
357
330
1F
100
AcDbEntity
  8
A-4
  6
Continuous
 62
     7
370
     9
100
AcDbLine
 10
-319.5876085436022
 20
-419.0003920271589
 30
0.0
 11
-319.5876085436022
 21
-257.2003920271589
 31
0.0
  0
TEXT
  5
358
330
1F
100
AcDbEntity
  8
A-4
  6
Continuous
 62
     2
370
   211
100
AcDbText
 10
-553.5873914151578
 20
-410.2163920271589
 30
0.0
 40
18.288
  1
429
 41
1.083333333333333
  7
ＭＳ ゴシック
100
AcDbText
  0
LINE
  5
359
330
1F
100
AcDbEntity
  8
A-4
  6
Continuous
 62
     7
370
     9
100
AcDbLine
 10
-748.5871742867135
 20
-367.2003920271589
 30
0.0
 11
-742.5870988175677
 21
-367.2003920271589
 31
0.0
  0
LWPOLYLINE
  5
35A
330
1F
100
AcDbEntity
  8
A-4
  6
Continuous
 62
     7
370
     9
100
AcDbPolyline
 90
        4
 70
     1
 43
1.2
 10
-747.9871742867135
 20
-367.2003920271589
 42
0.4142135623731
 10
-748.5871742867135
 20
-366.6003920271589
 42
0.4142135623731
 10
-749.1871742867135
 20
-367.2003920271589
 42
0.4142135623731
 10
-748.5871742867135
 20
-367.8003920271589
 42
0.4142135623731
  0
LWPOLYLINE
  5
35B
330
1F
100
AcDbEntity
  8
A-4
  6
Continuous
 62
     7
370
     9
100
AcDbPolyline
 90
        4
 70
     1
 43
1.2
 10
-741.9870988175677
 20
-367.2003920271589
 42
0.4142135623731
 10
-742.5870988175677
 20
-366.6003920271589
 42
0.4142135623731
 10
-743.1870988175676
 20
-367.2003920271589
 42
0.4142135623731
 10
-742.5870988175677
 20
-367.8003920271589
 42
0.4142135623731
  0
LINE
  5
35C
330
1F
100
AcDbEntity
  8
A-4
  6
Continuous
 62
     7
370
     9
100
AcDbLine
 10
-742.5870988175677
 20
-369.0003920271589
 30
0.0
 11
-742.5870988175677
 21
-251.2002546980573
 31
0.0
  0
LINE
  5
35D
330
1F
100
AcDbEntity
  8
A-4
  6
Continuous
 62
     7
370
     9
100
AcDbLine
 10
-742.5870988175677
 20
-367.2003920271589
 30
0.0
 11
-325.5877768026816
 21
-367.2003920271589
 31
0.0
  0
LWPOLYLINE
  5
35E
330
1F
100
AcDbEntity
  8
A-4
  6
Continuous
 62
     7
370
     9
100
AcDbPolyline
 90
        4
 70
     1
 43
1.2
 10
-324.9877768026815
 20
-367.2003920271589
 42
0.4142135623731
 10
-325.5877768026816
 20
-366.6003920271589
 42
0.4142135623731
 10
-326.1877768026816
 20
-367.2003920271589
 42
0.4142135623731
 10
-325.5877768026816
 20
-367.8003920271589
 42
0.4142135623731
  0
LINE
  5
35F
330
1F
100
AcDbEntity
  8
A-4
  6
Continuous
 62
     7
370
     9
100
AcDbLine
 10
-325.5877768026816
 20
-369.0003920271589
 30
0.0
 11
-325.5877768026816
 21
-251.2002546980573
 31
0.0
  0
TEXT
  5
360
330
1F
100
AcDbEntity
  8
A-4
  6
Continuous
 62
     2
370
   211
100
AcDbText
 10
-553.5874378101246
 20
-360.2163920271589
 30
0.0
 40
18.288
  1
417
 41
1.083333333333333
  7
ＭＳ ゴシック
100
AcDbText
  0
LINE
  5
361
330
1F
100
AcDbEntity
  8
A-4
  6
Continuous
 62
     7
370
     9
100
AcDbLine
 10
-325.5877768026816
 20
-367.2003920271589
 30
0.0
 11
-319.5876085436022
 21
-367.2003920271589
 31
0.0
  0
LWPOLYLINE
  5
362
330
1F
100
AcDbEntity
  8
A-4
  6
Continuous
 62
     7
370
     9
100
AcDbPolyline
 90
        4
 70
     1
 43
1.2
 10
-318.9876085436022
 20
-367.2003920271589
 42
0.4142135623731
 10
-319.5876085436022
 20
-366.6003920271589
 42
0.4142135623731
 10
-320.1876085436022
 20
-367.2003920271589
 42
0.4142135623731
 10
-319.5876085436022
 20
-367.8003920271589
 42
0.4142135623731
  0
TEXT
  5
363
330
1F
100
AcDbEntity
  8
A-4
  6
Continuous
 62
     2
370
   211
100
AcDbText
 10
-766.5871365521407
 20
-360.2163920271589
 30
0.0
 40
18.288
  1
6
  7
ＭＳ ゴシック
100
AcDbText
  0
LINE
  5
364
330
1F
100
AcDbEntity
  8
A-4
  6
Continuous
 62
     7
370
     9
100
AcDbLine
 10
-748.5871742867135
 20
-367.2003920271589
 30
0.0
 11
-766.5871365521407
 21
-367.2003920271589
 31
0.0
  0
TEXT
  5
365
330
1F
100
AcDbEntity
  8
A-4
  6
Continuous
 62
     2
370
   211
100
AcDbText
 10
-313.5876926731419
 20
-360.2163920271589
 30
0.0
 40
18.288
  1
6
  7
ＭＳ ゴシック
100
AcDbText
  0
LINE
  5
366
330
1F
100
AcDbEntity
  8
A-4
  6
Continuous
 62
     7
370
     9
100
AcDbLine
 10
-319.5876085436022
 20
-367.2003920271589
 30
0.0
 11
-301.5876926731419
 21
-367.2003920271589
 31
0.0
  0
LWPOLYLINE
  5
367
330
1F
100
AcDbEntity
  8
A-4
  6
Continuous
 62
     7
370
     9
100
AcDbPolyline
 90
        4
 70
     1
 43
1.2
 10
-324.9877768026815
 20
-317.2003920271589
 42
0.4142135623731
 10
-325.5877768026816
 20
-316.6003920271589
 42
0.4142135623731
 10
-326.1877768026816
 20
-317.2003920271589
 42
0.4142135623731
 10
-325.5877768026816
 20
-317.8003920271589
 42
0.4142135623731
  0
LINE
  5
368
330
1F
100
AcDbEntity
  8
A-4
  6
Continuous
 62
     7
370
     9
100
AcDbLine
 10
-338.5873990445524
 20
-317.2003920271589
 30
0.0
 11
-325.5877768026816
 21
-317.2003920271589
 31
0.0
  0
TEXT
  5
369
330
1F
100
AcDbEntity
  8
A-4
  6
Continuous
 62
     2
370
   211
100
AcDbText
 10
-554.5873730633712
 20
-310.2163920271589
 30
0.0
 40
18.288
  1
393
 41
1.083333333333333
  7
ＭＳ ゴシック
100
AcDbText
  0
LINE
  5
36A
330
1F
100
AcDbEntity
  8
A-4
  6
Continuous
 62
     7
370
     9
100
AcDbLine
 10
-338.5873990445524
 20
-319.0003920271589
 30
0.0
 11
-338.5873990445524
 21
-247.2005136850717
 31
0.0
  0
LWPOLYLINE
  5
36B
330
1F
100
AcDbEntity
  8
A-4
  6
Continuous
 62
     7
370
     9
100
AcDbPolyline
 90
        4
 70
     1
 43
1.2
 10
-337.9873990445524
 20
-317.2003920271589
 42
0.4142135623731
 10
-338.5873990445524
 20
-316.6003920271589
 42
0.4142135623731
 10
-339.1873990445524
 20
-317.2003920271589
 42
0.4142135623731
 10
-338.5873990445524
 20
-317.8003920271589
 42
0.4142135623731
  0
LINE
  5
36C
330
1F
100
AcDbEntity
  8
A-4
  6
Continuous
 62
     7
370
     9
100
AcDbLine
 10
-731.5873470821897
 20
-317.2003920271589
 30
0.0
 11
-338.5873990445524
 21
-317.2003920271589
 31
0.0
  0
LINE
  5
36D
330
1F
100
AcDbEntity
  8
A-4
  6
Continuous
 62
     7
370
     9
100
AcDbLine
 10
-742.5870988175677
 20
-317.2003920271589
 30
0.0
 11
-731.5873470821897
 21
-317.2003920271589
 31
0.0
  0
LWPOLYLINE
  5
36E
330
1F
100
AcDbEntity
  8
A-4
  6
Continuous
 62
     7
370
     9
100
AcDbPolyline
 90
        4
 70
     1
 43
1.2
 10
-741.9870988175677
 20
-317.2003920271589
 42
0.4142135623731
 10
-742.5870988175677
 20
-316.6003920271589
 42
0.4142135623731
 10
-743.1870988175676
 20
-317.2003920271589
 42
0.4142135623731
 10
-742.5870988175677
 20
-317.8003920271589
 42
0.4142135623731
  0
LWPOLYLINE
  5
36F
330
1F
100
AcDbEntity
  8
A-4
  6
Continuous
 62
     7
370
     9
100
AcDbPolyline
 90
        4
 70
     1
 43
1.2
 10
-730.9873470821897
 20
-317.2003920271589
 42
0.4142135623731
 10
-731.5873470821897
 20
-316.6003920271589
 42
0.4142135623731
 10
-732.1873470821897
 20
-317.2003920271589
 42
0.4142135623731
 10
-731.5873470821897
 20
-317.8003920271589
 42
0.4142135623731
  0
LINE
  5
370
330
1F
100
AcDbEntity
  8
A-4
  6
Continuous
 62
     7
370
     9
100
AcDbLine
 10
-731.5873470821897
 20
-319.0003920271589
 30
0.0
 11
-731.5873470821897
 21
-247.2005136850717
 31
0.0
  0
TEXT
  5
371
330
1F
100
AcDbEntity
  8
A-4
  6
Continuous
 62
     2
370
   211
100
AcDbText
 10
-729.8372229498787
 20
-310.2163920271589
 30
0.0
 40
18.288
  1
11
 41
1.0625
  7
ＭＳ ゴシック
100
AcDbText
  0
TEXT
  5
372
330
1F
100
AcDbEntity
  8
A-4
  6
Continuous
 62
     2
370
   211
100
AcDbText
 10
-369.837587923617
 20
-310.2163920271589
 30
0.0
 40
18.288
  1
13
 41
1.0625
  7
ＭＳ ゴシック
100
AcDbText
  0
LINE
  5
373
330
1F
100
AcDbEntity
  8
A-4
  6
Continuous
 62
     7
370
     9
100
AcDbLine
 10
135.567330025338
 20
-367.2003920271589
 30
0.0
 11
173.5676533467061
 21
-367.2003920271589
 31
0.0
  0
LWPOLYLINE
  5
374
330
1F
100
AcDbEntity
  8
A-4
  6
Continuous
 62
     7
370
     9
100
AcDbPolyline
 90
        4
 70
     1
 43
1.2
 10
136.167330025338
 20
-367.2003920271589
 42
0.4142135623731
 10
135.567330025338
 20
-366.6003920271589
 42
0.4142135623731
 10
134.967330025338
 20
-367.2003920271589
 42
0.4142135623731
 10
135.567330025338
 20
-367.8003920271589
 42
0.4142135623731
  0
LWPOLYLINE
  5
375
330
1F
100
AcDbEntity
  8
A-4
  6
Continuous
 62
     7
370
     9
100
AcDbPolyline
 90
        4
 70
     1
 43
1.2
 10
174.1676533467061
 20
-367.2003920271589
 42
0.4142135623731
 10
173.5676533467061
 20
-366.6003920271589
 42
0.4142135623731
 10
172.9676533467061
 20
-367.2003920271589
 42
0.4142135623731
 10
173.5676533467061
 20
-367.8003920271589
 42
0.4142135623731
  0
LINE
  5
376
330
1F
100
AcDbEntity
  8
A-4
  6
Continuous
 62
     7
370
     9
100
AcDbLine
 10
135.567330025338
 20
-369.0003920271589
 30
0.0
 11
135.567330025338
 21
-285.2004658467059
 31
0.0
  0
LINE
  5
377
330
1F
100
AcDbEntity
  8
A-4
  6
Continuous
 62
     7
370
     9
100
AcDbLine
 10
173.5676533467061
 20
-369.0003920271589
 30
0.0
 11
173.5676533467061
 21
-257.2003920271589
 31
0.0
  0
TEXT
  5
378
330
1F
100
AcDbEntity
  8
A-4
  6
Continuous
 62
     2
370
   211
100
AcDbText
 10
141.817491686022
 20
-360.2163920271589
 30
0.0
 40
18.288
  1
38
 41
1.0625
  7
ＭＳ ゴシック
100
AcDbText
  0
LINE
  5
379
330
1F
100
AcDbEntity
  8
A-4
  6
Continuous
 62
     7
370
     9
100
AcDbLine
 10
135.567330025338
 20
-317.2003920271589
 30
0.0
 11
167.5678562473607
 21
-317.2003920271589
 31
0.0
  0
LWPOLYLINE
  5
37A
330
1F
100
AcDbEntity
  8
A-4
  6
Continuous
 62
     7
370
     9
100
AcDbPolyline
 90
        4
 70
     1
 43
1.2
 10
136.167330025338
 20
-317.2003920271589
 42
0.4142135623731
 10
135.567330025338
 20
-316.6003920271589
 42
0.4142135623731
 10
134.967330025338
 20
-317.2003920271589
 42
0.4142135623731
 10
135.567330025338
 20
-317.8003920271589
 42
0.4142135623731
  0
LWPOLYLINE
  5
37B
330
1F
100
AcDbEntity
  8
A-4
  6
Continuous
 62
     7
370
     9
100
AcDbPolyline
 90
        4
 70
     1
 43
1.2
 10
168.1678562473607
 20
-317.2003920271589
 42
0.4142135623731
 10
167.5678562473607
 20
-316.6003920271589
 42
0.4142135623731
 10
166.9678562473607
 20
-317.2003920271589
 42
0.4142135623731
 10
167.5678562473607
 20
-317.8003920271589
 42
0.4142135623731
  0
LINE
  5
37C
330
1F
100
AcDbEntity
  8
A-4
  6
Continuous
 62
     7
370
     9
100
AcDbLine
 10
167.5678562473607
 20
-319.0003920271589
 30
0.0
 11
167.5678562473607
 21
-247.2004208951381
 31
0.0
  0
TEXT
  5
37D
330
1F
100
AcDbEntity
  8
A-4
  6
Continuous
 62
     2
370
   211
100
AcDbText
 10
138.8175931363493
 20
-310.2163920271589
 30
0.0
 40
18.288
  1
32
 41
1.0625
  7
ＭＳ ゴシック
100
AcDbText
  0
LINE
  5
37E
330
1F
100
AcDbEntity
  8
A-4
  6
Continuous
 62
     7
370
     9
100
AcDbLine
 10
73.56745374524927
 20
474.7994780669341
 30
0.0
 11
73.56745374524927
 21
468.7994417435416
 31
0.0
  0
LWPOLYLINE
  5
37F
330
1F
100
AcDbEntity
  8
A-4
  6
Continuous
 62
     7
370
     9
100
AcDbPolyline
 90
        4
 70
     1
 43
1.2
 10
74.16745374524926
 20
474.7994780669341
 42
0.4142135623731
 10
73.56745374524927
 20
475.399478066934
 42
0.4142135623731
 10
72.96745374524926
 20
474.7994780669341
 42
0.4142135623731
 10
73.56745374524927
 20
474.1994780669341
 42
0.4142135623731
  0
LWPOLYLINE
  5
380
330
1F
100
AcDbEntity
  8
A-4
  6
Continuous
 62
     7
370
     9
100
AcDbPolyline
 90
        4
 70
     1
 43
1.2
 10
74.16745374524926
 20
468.7994417435416
 42
0.4142135623731
 10
73.56745374524927
 20
469.3994417435416
 42
0.4142135623731
 10
72.96745374524926
 20
468.7994417435416
 42
0.4142135623731
 10
73.56745374524927
 20
468.1994417435416
 42
0.4142135623731
  0
LINE
  5
381
330
1F
100
AcDbEntity
  8
A-4
  6
Continuous
 62
     7
370
     9
100
AcDbLine
 10
71.76745374524928
 20
468.7994417435416
 30
0.0
 11
126.0675857131546
 21
468.7994417435416
 31
0.0
  0
LINE
  5
382
330
1F
100
AcDbEntity
  8
A-4
  6
Continuous
 62
     7
370
     9
100
AcDbLine
 10
73.56745374524927
 20
468.7994417435416
 30
0.0
 11
73.56745374524927
 21
464.7991976351353
 31
0.0
  0
LWPOLYLINE
  5
383
330
1F
100
AcDbEntity
  8
A-4
  6
Continuous
 62
     7
370
     9
100
AcDbPolyline
 90
        4
 70
     1
 43
1.2
 10
74.16745374524926
 20
464.7991976351353
 42
0.4142135623731
 10
73.56745374524927
 20
465.3991976351353
 42
0.4142135623731
 10
72.96745374524926
 20
464.7991976351353
 42
0.4142135623731
 10
73.56745374524927
 20
464.1991976351354
 42
0.4142135623731
  0
LINE
  5
384
330
1F
100
AcDbEntity
  8
A-4
  6
Continuous
 62
     7
370
     9
100
AcDbLine
 10
71.76745374524926
 20
464.7991976351353
 30
0.0
 11
123.5674537452492
 21
464.7991976351353
 31
0.0
  0
LINE
  5
385
330
1F
100
AcDbEntity
  8
A-4
  6
Continuous
 62
     7
370
     9
100
AcDbLine
 10
73.56745374524927
 20
464.7991976351353
 30
0.0
 11
73.56745374524922
 21
-235.2004208951382
 31
0.0
  0
LWPOLYLINE
  5
386
330
1F
100
AcDbEntity
  8
A-4
  6
Continuous
 62
     7
370
     9
100
AcDbPolyline
 90
        4
 70
     1
 43
1.2
 10
74.16745374524922
 20
-235.2004208951382
 42
0.4142135623731
 10
73.56745374524922
 20
-234.6004208951381
 42
0.4142135623731
 10
72.96745374524923
 20
-235.2004208951382
 42
0.4142135623731
 10
73.56745374524922
 20
-235.8004208951382
 42
0.4142135623731
  0
LINE
  5
387
330
1F
100
AcDbEntity
  8
A-4
  6
Continuous
 62
     7
370
     9
100
AcDbLine
 10
71.76745374524921
 20
-235.2004208951382
 30
0.0
 11
123.5674537452492
 21
-235.2004208951382
 31
0.0
  0
TEXT
  5
388
330
1F
100
AcDbEntity
  8
A-4
  6
Continuous
 62
     2
370
   211
100
AcDbText
 10
66.58345374524926
 20
95.29938836999857
 30
0.0
 40
18.288
  1
700
 50
90.0
 41
1.083333333333333
  7
ＭＳ ゴシック
100
AcDbText
  0
LINE
  5
389
330
1F
100
AcDbEntity
  8
A-4
  6
Continuous
 62
     7
370
     9
100
AcDbLine
 10
73.56745374524922
 20
-235.2004208951382
 30
0.0
 11
73.56745374524922
 21
-239.2004093479466
 31
0.0
  0
LWPOLYLINE
  5
38A
330
1F
100
AcDbEntity
  8
A-4
  6
Continuous
 62
     7
370
     9
100
AcDbPolyline
 90
        4
 70
     1
 43
1.2
 10
74.16745374524922
 20
-239.2004093479466
 42
0.4142135623731
 10
73.56745374524922
 20
-238.6004093479466
 42
0.4142135623731
 10
72.96745374524923
 20
-239.2004093479466
 42
0.4142135623731
 10
73.56745374524922
 20
-239.8004093479466
 42
0.4142135623731
  0
LINE
  5
38B
330
1F
100
AcDbEntity
  8
A-4
  6
Continuous
 62
     7
370
     9
100
AcDbLine
 10
71.76745374524921
 20
-239.2004093479466
 30
0.0
 11
126.0675857131546
 21
-239.2004093479466
 31
0.0
  0
LINE
  5
38C
330
1F
100
AcDbEntity
  8
A-4
  6
Continuous
 62
     7
370
     9
100
AcDbLine
 10
73.56745374524922
 20
-239.2004093479466
 30
0.0
 11
73.56745374524922
 21
-245.200392027159
 31
0.0
  0
LWPOLYLINE
  5
38D
330
1F
100
AcDbEntity
  8
A-4
  6
Continuous
 62
     7
370
     9
100
AcDbPolyline
 90
        4
 70
     1
 43
1.2
 10
74.16745374524922
 20
-245.200392027159
 42
0.4142135623731
 10
73.56745374524922
 20
-244.6003920271589
 42
0.4142135623731
 10
72.96745374524923
 20
-245.200392027159
 42
0.4142135623731
 10
73.56745374524922
 20
-245.8003920271589
 42
0.4142135623731
  0
LINE
  5
38E
330
1F
100
AcDbEntity
  8
A-4
  6
Continuous
 62
     7
370
     9
100
AcDbLine
 10
23.56745374524927
 20
474.7994780669341
 30
0.0
 11
23.56745374524923
 21
-245.2003920271589
 31
0.0
  0
LWPOLYLINE
  5
38F
330
1F
100
AcDbEntity
  8
A-4
  6
Continuous
 62
     7
370
     9
100
AcDbPolyline
 90
        4
 70
     1
 43
1.2
 10
24.16745374524927
 20
474.7994780669341
 42
0.4142135623731
 10
23.56745374524927
 20
475.399478066934
 42
0.4142135623731
 10
22.96745374524927
 20
474.7994780669341
 42
0.4142135623731
 10
23.56745374524927
 20
474.1994780669341
 42
0.4142135623731
  0
LWPOLYLINE
  5
390
330
1F
100
AcDbEntity
  8
A-4
  6
Continuous
 62
     7
370
     9
100
AcDbPolyline
 90
        4
 70
     1
 43
1.2
 10
24.16745374524923
 20
-245.2003920271589
 42
0.4142135623731
 10
23.56745374524923
 20
-244.6003920271589
 42
0.4142135623731
 10
22.96745374524923
 20
-245.2003920271589
 42
0.4142135623731
 10
23.56745374524923
 20
-245.8003920271589
 42
0.4142135623731
  0
LINE
  5
391
330
1F
100
AcDbEntity
  8
A-4
  6
Continuous
 62
     7
370
     9
100
AcDbLine
 10
21.76745374524927
 20
474.7994780669341
 30
0.0
 11
123.5674537452492
 21
474.7994780669341
 31
0.0
  0
LINE
  5
392
330
1F
100
AcDbEntity
  8
A-4
  6
Continuous
 62
     7
370
     9
100
AcDbLine
 10
21.76745374524922
 20
-245.2003920271589
 30
0.0
 11
123.5674537452492
 21
-245.2003920271589
 31
0.0
  0
TEXT
  5
393
330
1F
100
AcDbEntity
  8
A-4
  6
Continuous
 62
     2
370
   211
100
AcDbText
 10
16.58345374524924
 20
95.29954301988758
 30
0.0
 40
18.288
  1
720
 50
90.0
 41
1.083333333333333
  7
ＭＳ ゴシック
100
AcDbText
  0
TEXT
  5
394
330
1F
100
AcDbEntity
  8
A-4
  6
Continuous
 62
     2
370
   211
100
AcDbText
 10
66.58345374524922
 20
-263.2004006875528
 30
0.0
 40
18.288
  1
6
 50
90.0
  7
ＭＳ ゴシック
100
AcDbText
  0
TEXT
  5
395
330
1F
100
AcDbEntity
  8
A-4
  6
Continuous
 62
     2
370
   211
100
AcDbText
 10
66.58345374524922
 20
-238.2004151215424
 30
0.0
 40
18.288
  1
4
 50
90.0
  7
ＭＳ ゴシック
100
AcDbText
  0
LINE
  5
396
330
1F
100
AcDbEntity
  8
A-4
  6
Continuous
 62
     7
370
     9
100
AcDbLine
 10
73.56745374524922
 20
-245.200392027159
 30
0.0
 11
73.56745374524922
 21
-263.2004006875528
 31
0.0
  0
TEXT
  5
397
330
1F
100
AcDbEntity
  8
A-4
  6
Continuous
 62
     2
370
   211
100
AcDbText
 10
66.58345374524927
 20
480.7994599052378
 30
0.0
 40
18.288
  1
6
 50
90.0
  7
ＭＳ ゴシック
100
AcDbText
  0
LINE
  5
398
330
1F
100
AcDbEntity
  8
A-4
  6
Continuous
 62
     7
370
     9
100
AcDbLine
 10
73.56745374524927
 20
474.7994780669341
 30
0.0
 11
73.56745374524927
 21
492.7994599052378
 31
0.0
  0
TEXT
  5
399
330
1F
100
AcDbEntity
  8
A-4
  6
Continuous
 62
     2
370
   211
100
AcDbText
 10
66.58345374524926
 20
455.7993196893385
 30
0.0
 40
18.288
  1
4
 50
89.99999999999983
  7
ＭＳ ゴシック
100
AcDbText
  0
LINE
  5
39A
330
1F
100
AcDbEntity
  8
A-4
  6
Continuous
 62
     7
370
     9
100
AcDbLine
 10
235.5676533467062
 20
474.7994780669341
 30
0.0
 11
235.5676533467062
 21
414.7995275548988
 31
0.0
  0
LWPOLYLINE
  5
39B
330
1F
100
AcDbEntity
  8
A-4
  6
Continuous
 62
     7
370
     9
100
AcDbPolyline
 90
        4
 70
     1
 43
1.2
 10
236.1676533467062
 20
474.7994780669341
 42
0.4142135623731
 10
235.5676533467062
 20
475.399478066934
 42
0.4142135623731
 10
234.9676533467061
 20
474.7994780669341
 42
0.4142135623731
 10
235.5676533467062
 20
474.1994780669341
 42
0.4142135623731
  0
LWPOLYLINE
  5
39C
330
1F
100
AcDbEntity
  8
A-4
  6
Continuous
 62
     7
370
     9
100
AcDbPolyline
 90
        4
 70
     1
 43
1.2
 10
236.1676533467062
 20
414.7995275548988
 42
0.4142135623731
 10
235.5676533467062
 20
415.3995275548987
 42
0.4142135623731
 10
234.9676533467061
 20
414.7995275548988
 42
0.4142135623731
 10
235.5676533467062
 20
414.1995275548988
 42
0.4142135623731
  0
LINE
  5
39D
330
1F
100
AcDbEntity
  8
A-4
  6
Continuous
 62
     7
370
     9
100
AcDbLine
 10
237.3676533467061
 20
474.7994780669341
 30
0.0
 11
185.5676533467061
 21
474.7994780669341
 31
0.0
  0
LINE
  5
39E
330
1F
100
AcDbEntity
  8
A-4
  6
Continuous
 62
     7
370
     9
100
AcDbLine
 10
237.3676533467061
 20
414.7995275548988
 30
0.0
 11
185.5676533467061
 21
414.7995275548988
 31
0.0
  0
TEXT
  5
39F
330
1F
100
AcDbEntity
  8
A-4
  6
Continuous
 62
     2
370
   211
100
AcDbText
 10
228.5836533467061
 20
432.0495028109164
 30
0.0
 40
18.288
  1
60
 50
90.0
 41
1.0625
  7
ＭＳ ゴシック
100
AcDbText
  0
LINE
  5
3A0
330
1F
100
AcDbEntity
  8
A-4
  6
Continuous
 62
     7
370
     9
100
AcDbLine
 10
235.5676533467062
 20
414.7995275548988
 30
0.0
 11
235.5676533467061
 21
-185.2006889549459
 31
0.0
  0
LWPOLYLINE
  5
3A1
330
1F
100
AcDbEntity
  8
A-4
  6
Continuous
 62
     7
370
     9
100
AcDbPolyline
 90
        4
 70
     1
 43
1.2
 10
236.1676533467061
 20
-185.2006889549459
 42
0.4142135623731
 10
235.5676533467061
 20
-184.6006889549459
 42
0.4142135623731
 10
234.9676533467061
 20
-185.2006889549459
 42
0.4142135623731
 10
235.5676533467061
 20
-185.8006889549459
 42
0.4142135623731
  0
LINE
  5
3A2
330
1F
100
AcDbEntity
  8
A-4
  6
Continuous
 62
     7
370
     9
100
AcDbLine
 10
237.3676533467061
 20
-185.2006889549459
 30
0.0
 11
185.5676533467061
 21
-185.2006889549459
 31
0.0
  0
TEXT
  5
3A3
330
1F
100
AcDbEntity
  8
A-4
  6
Continuous
 62
     2
370
   211
100
AcDbText
 10
228.5836533467061
 20
95.29941929997642
 30
0.0
 40
18.288
  1
600
 50
90.0
 41
1.083333333333333
  7
ＭＳ ゴシック
100
AcDbText
  0
LINE
  5
3A4
330
1F
100
AcDbEntity
  8
A-4
  6
Continuous
 62
     7
370
     9
100
AcDbLine
 10
235.5676533467061
 20
-185.2006889549459
 30
0.0
 11
235.5676533467061
 21
-245.2003920271589
 31
0.0
  0
LWPOLYLINE
  5
3A5
330
1F
100
AcDbEntity
  8
A-4
  6
Continuous
 62
     7
370
     9
100
AcDbPolyline
 90
        4
 70
     1
 43
1.2
 10
236.1676533467061
 20
-245.2003920271589
 42
0.4142135623731
 10
235.5676533467061
 20
-244.6003920271589
 42
0.4142135623731
 10
234.9676533467061
 20
-245.2003920271589
 42
0.4142135623731
 10
235.5676533467061
 20
-245.8003920271589
 42
0.4142135623731
  0
LINE
  5
3A6
330
1F
100
AcDbEntity
  8
A-4
  6
Continuous
 62
     7
370
     9
100
AcDbLine
 10
237.3676533467061
 20
-245.2003920271589
 30
0.0
 11
185.5676533467061
 21
-245.2003920271589
 31
0.0
  0
TEXT
  5
3A7
330
1F
100
AcDbEntity
  8
A-4
  6
Continuous
 62
     2
370
   211
100
AcDbText
 10
228.5836533467061
 20
-227.9505404910524
 30
0.0
 40
18.288
  1
60
 50
90.0
 41
1.0625
  7
ＭＳ ゴシック
100
AcDbText
  0
LINE
  5
3A8
330
1F
100
AcDbEntity
  8
A-4
  6
Continuous
 62
     7
370
     9
100
AcDbLine
 10
-748.5871742867135
 20
536.7994780669341
 30
0.0
 11
-534.087375950169
 21
536.7994780669341
 31
0.0
  0
LWPOLYLINE
  5
3A9
330
1F
100
AcDbEntity
  8
A-4
  6
Continuous
 62
     7
370
     9
100
AcDbPolyline
 90
        4
 70
     1
 43
1.2
 10
-747.9871742867135
 20
536.7994780669341
 42
0.4142135623731
 10
-748.5871742867135
 20
537.399478066934
 42
0.4142135623731
 10
-749.1871742867135
 20
536.7994780669341
 42
0.4142135623731
 10
-748.5871742867135
 20
536.199478066934
 42
0.4142135623731
  0
LWPOLYLINE
  5
3AA
330
1F
100
AcDbEntity
  8
A-4
  6
Continuous
 62
     7
370
     9
100
AcDbPolyline
 90
        4
 70
     1
 43
1.2
 10
-533.4873759501689
 20
536.7994780669341
 42
0.4142135623731
 10
-534.087375950169
 20
537.399478066934
 42
0.4142135623731
 10
-534.6873759501689
 20
536.7994780669341
 42
0.4142135623731
 10
-534.087375950169
 20
536.199478066934
 42
0.4142135623731
  0
LINE
  5
3AB
330
1F
100
AcDbEntity
  8
A-4
  6
Continuous
 62
     7
370
     9
100
AcDbLine
 10
-748.5871742867135
 20
538.599478066934
 30
0.0
 11
-748.5871742867135
 21
486.7994780669341
 31
0.0
  0
LINE
  5
3AC
330
1F
100
AcDbEntity
  8
A-4
  6
Continuous
 62
     7
370
     9
100
AcDbLine
 10
-534.087375950169
 20
538.599478066934
 30
0.0
 11
-534.087375950169
 21
507.3995856207772
 31
0.0
  0
TEXT
  5
3AD
330
1F
100
AcDbEntity
  8
A-4
  6
Continuous
 62
     2
370
   211
100
AcDbText
 10
-674.3372751184413
 20
543.783478066934
 30
0.0
 40
18.288
  1
214.5
 41
1.1
  7
ＭＳ ゴシック
100
AcDbText
  0
LINE
  5
3AE
330
1F
100
AcDbEntity
  8
A-4
  6
Continuous
 62
     7
370
     9
100
AcDbLine
 10
-534.087375950169
 20
536.7994780669341
 30
0.0
 11
-319.5876085436022
 21
536.7994780669341
 31
0.0
  0
LWPOLYLINE
  5
3AF
330
1F
100
AcDbEntity
  8
A-4
  6
Continuous
 62
     7
370
     9
100
AcDbPolyline
 90
        4
 70
     1
 43
1.2
 10
-318.9876085436022
 20
536.7994780669341
 42
0.4142135623731
 10
-319.5876085436022
 20
537.399478066934
 42
0.4142135623731
 10
-320.1876085436022
 20
536.7994780669341
 42
0.4142135623731
 10
-319.5876085436022
 20
536.199478066934
 42
0.4142135623731
  0
LINE
  5
3B0
330
1F
100
AcDbEntity
  8
A-4
  6
Continuous
 62
     7
370
     9
100
AcDbLine
 10
-319.5876085436022
 20
538.599478066934
 30
0.0
 11
-319.5876085436022
 21
486.7994780669341
 31
0.0
  0
TEXT
  5
3B1
330
1F
100
AcDbEntity
  8
A-4
  6
Continuous
 62
     2
370
   211
100
AcDbText
 10
-459.8374922468855
 20
543.783478066934
 30
0.0
 40
18.288
  1
214.5
 41
1.1
  7
ＭＳ ゴシック
100
AcDbText
  0
LINE
  5
3B2
330
1F
100
AcDbEntity
  8
A-4
  6
Continuous
 62
     7
370
     9
100
AcDbLine
 10
-692.1673068484745
 20
496.7994780669341
 30
0.0
 11
-679.5873425457929
 21
496.7994780669341
 31
0.0
  0
LWPOLYLINE
  5
3B3
330
1F
100
AcDbEntity
  8
A-4
  6
Continuous
 62
     7
370
     9
100
AcDbPolyline
 90
        4
 70
     1
 43
1.2
 10
-691.5673068484746
 20
496.7994780669341
 42
0.4142135623731
 10
-692.1673068484745
 20
497.3994780669341
 42
0.4142135623731
 10
-692.7673068484745
 20
496.7994780669341
 42
0.4142135623731
 10
-692.1673068484745
 20
496.1994780669341
 42
0.4142135623731
  0
LWPOLYLINE
  5
3B4
330
1F
100
AcDbEntity
  8
A-4
  6
Continuous
 62
     7
370
     9
100
AcDbPolyline
 90
        4
 70
     1
 43
1.2
 10
-678.9873425457929
 20
496.7994780669341
 42
0.4142135623731
 10
-679.5873425457929
 20
497.3994780669341
 42
0.4142135623731
 10
-680.1873425457928
 20
496.7994780669341
 42
0.4142135623731
 10
-679.5873425457929
 20
496.1994780669341
 42
0.4142135623731
  0
TEXT
  5
3B5
330
1F
100
AcDbEntity
  8
A-4
  6
Continuous
 62
     2
370
   211
100
AcDbText
 10
-712.1273246971338
 20
503.7834780669341
 30
0.0
 40
18.288
  1
12.5
 41
1.09375
  7
ＭＳ ゴシック
100
AcDbText
  0
LINE
  5
3B6
330
1F
100
AcDbEntity
  8
A-4
  6
Continuous
 62
     7
370
     9
100
AcDbLine
 10
-692.1673068484745
 20
498.5994780669341
 30
0.0
 11
-692.1673068484745
 21
451.7994780669341
 31
0.0
  0
LINE
  5
3B7
330
1F
100
AcDbEntity
  8
A-4
  6
Continuous
 62
     7
370
     9
100
AcDbLine
 10
-679.5873425457929
 20
498.5994780669341
 30
0.0
 11
-679.5873425457929
 21
451.7994780669341
 31
0.0
  0
TEXT
  5
3B8
330
1F
100
AcDbEntity
  8
F-5ﾚｲﾔ
  6
Continuous
 62
     2
370
     9
100
AcDbText
 10
-491.3360907477301
 20
-795.2343512044625
 30
0.0
 40
18.288
  1
スチール製グレーチング　１１０°開閉式　細目プレーンタイプ
 41
0.8991379310344828
  7
ＭＳ ゴシック
100
AcDbText
  0
ENDSEC
  0
SECTION
  2
OBJECTS
  0
DICTIONARY
  5
C
330
0
100
AcDbDictionary
281
     1
  3
ACAD_DETAILVIEWSTYLE
350
3FE
  3
ACAD_GROUP
350
D
  3
ACAD_LAYOUT
350
1A
  3
ACAD_MATERIAL
350
43
  3
ACAD_MLEADERSTYLE
350
6B
  3
ACAD_MLINESTYLE
350
17
  3
ACAD_PLOTSETTINGS
350
19
  3
ACAD_PLOTSTYLENAME
350
E
  3
ACAD_SCALELIST
350
47
  3
ACAD_SECTIONVIEWSTYLE
350
3FF
  3
ACAD_TABLESTYLE
350
69
  3
ACAD_VISUALSTYLE
350
2A
  3
ACDB_RECOMPOSE_DATA
350
3FB
  3
AcDbVariableDictionary
350
3BB
  0
DICTIONARY
  5
3B9
330
8
100
AcDbDictionary
280
     1
281
     1
  3
ACAD_XREC_ROUNDTRIP
360
3BA
  0
DICTIONARY
  5
3FE
102
{ACAD_REACTORS
330
C
102
}
330
C
100
AcDbDictionary
281
     1
  0
DICTIONARY
  5
D
102
{ACAD_REACTORS
330
C
102
}
330
C
100
AcDbDictionary
281
     1
  0
DICTIONARY
  5
1A
102
{ACAD_REACTORS
330
C
102
}
330
C
100
AcDbDictionary
281
     1
  3
Layout1
350
1E
  3
Layout2
350
26
  3
Model
350
22
  0
DICTIONARY
  5
43
102
{ACAD_REACTORS
330
C
102
}
330
C
100
AcDbDictionary
281
     1
  3
ByBlock
350
45
  3
ByLayer
350
44
  3
Global
350
46
  0
DICTIONARY
  5
6B
102
{ACAD_REACTORS
330
C
102
}
330
C
100
AcDbDictionary
281
     1
  3
Standard
350
6C
  0
DICTIONARY
  5
17
102
{ACAD_REACTORS
330
C
102
}
330
C
100
AcDbDictionary
281
     1
  3
Standard
350
18
  0
DICTIONARY
  5
19
102
{ACAD_REACTORS
330
C
102
}
330
C
100
AcDbDictionary
281
     1
  0
ACDBDICTIONARYWDFLT
  5
E
102
{ACAD_REACTORS
330
C
102
}
330
C
100
AcDbDictionary
281
     1
  3
Normal
350
F
100
AcDbDictionaryWithDefault
340
F
  0
DICTIONARY
  5
47
102
{ACAD_REACTORS
330
C
102
}
330
C
100
AcDbDictionary
281
     1
  3
A0
350
48
  3
A1
350
49
  3
A2
350
4A
  3
A3
350
4B
  3
A4
350
4C
  3
A5
350
4D
  3
A6
350
4E
  3
A7
350
4F
  3
A8
350
50
  3
A9
350
51
  3
B0
350
52
  3
B1
350
53
  3
B2
350
54
  3
B3
350
55
  3
B4
350
56
  3
B5
350
57
  3
B6
350
58
  3
B7
350
59
  3
B8
350
5A
  3
B9
350
5B
  3
C0
350
5C
  3
C1
350
5D
  3
C2
350
5E
  3
C3
350
5F
  3
C4
350
60
  3
C5
350
61
  3
C6
350
62
  3
C7
350
63
  3
C8
350
64
  3
C9
350
65
  3
D0
350
66
  3
D1
350
67
  3
D2
350
68
  0
DICTIONARY
  5
3FF
102
{ACAD_REACTORS
330
C
102
}
330
C
100
AcDbDictionary
281
     1
  0
DICTIONARY
  5
69
102
{ACAD_REACTORS
330
C
102
}
330
C
100
AcDbDictionary
281
     1
  3
Standard
350
6A
  0
DICTIONARY
  5
2A
102
{ACAD_REACTORS
330
C
102
}
330
C
100
AcDbDictionary
281
     1
  3
2dWireframe
350
2F
  3
Basic
350
32
  3
Brighten
350
36
  3
ColorChange
350
3A
  3
Conceptual
350
34
  3
Dim
350
35
  3
EdgeColorOff
350
3D
  3
Facepattern
350
39
  3
Flat
350
2B
  3
FlatWithEdges
350
2C
  3
Gouraud
350
2D
  3
GouraudWithEdges
350
2E
  3
Hidden
350
31
  3
JitterOff
350
3B
  3
Linepattern
350
38
  3
OverhangOff
350
3C
  3
Realistic
350
33
  3
Shaded
350
42
  3
Shaded with edges
350
41
  3
Shades of Gray
350
3E
  3
Sketchy
350
3F
  3
Thicken
350
37
  3
Wireframe
350
30
  3
X-Ray
350
40
  0
XRECORD
  5
3FB
102
{ACAD_REACTORS
330
C
102
}
330
C
100
AcDbXrecord
280
     1
 90
        1
330
6A
  0
DICTIONARY
  5
3BB
102
{ACAD_REACTORS
330
C
102
}
330
C
100
AcDbDictionary
281
     1
  3
CANNOSCALE
350
3BC
  3
CENTEREXE
350
400
  3
CENTERLTYPEFILE
350
401
  3
CMLEADERSTYLE
350
3FD
  3
CTABLESTYLE
350
3FC
  3
MSLTSCALE
350
3BD
  3
XCLIPFRAME
350
3BE
  0
XRECORD
  5
3BA
102
{ACAD_REACTORS
330
3B9
102
}
330
3B9
100
AcDbXrecord
280
     1
102
VTR_0.000_0.000_1.000_1.000_VISUALSTYLE
340
2F
102
VTR_0.000_0.000_1.000_1.000_GRIDDISPLAY
 70
     3
102
VTR_0.000_0.000_1.000_1.000_GRIDMAJOR
 70
     5
102
VTR_0.000_0.000_1.000_1.000_DEFAULTLIGHTING
280
     1
102
VTR_0.000_0.000_1.000_1.000_DEFAULTLIGHTINGTYPE
 70
     1
102
VTR_0.000_0.000_1.000_1.000_BRIGHTNESS
141
0.0
102
VTR_0.000_0.000_1.000_1.000_CONTRAST
142
0.0
  0
LAYOUT
  5
1E
102
{ACAD_REACTORS
330
1A
102
}
330
1A
100
AcDbPlotSettings
  1

  2
none_device
  4

  6

 40
0.0
 41
0.0
 42
0.0
 43
0.0
 44
0.0
 45
0.0
 46
0.0
 47
0.0
 48
0.0
 49
0.0
140
0.0
141
0.0
142
1.0
143
1.0
 70
   688
 72
     1
 73
     0
 74
     5
  7

 75
    16
 76
     0
 77
     5
 78
   300
147
1.0
148
0.0
149
0.0
100
AcDbLayout
  1
Layout1
 70
     1
 71
     1
 10
0.0
 20
0.0
 11
420.0
 21
297.0
 12
0.0
 22
0.0
 32
0.0
 14
1.000000000000000E+20
 24
1.000000000000000E+20
 34
1.000000000000000E+20
 15
-1.000000000000000E+20
 25
-1.000000000000000E+20
 35
-1.000000000000000E+20
146
0.0
 13
0.0
 23
0.0
 33
0.0
 16
1.0
 26
0.0
 36
0.0
 17
0.0
 27
1.0
 37
0.0
 76
     0
330
1B
  0
LAYOUT
  5
26
102
{ACAD_REACTORS
330
1A
102
}
330
1A
100
AcDbPlotSettings
  1

  2
none_device
  4

  6

 40
0.0
 41
0.0
 42
0.0
 43
0.0
 44
0.0
 45
0.0
 46
0.0
 47
0.0
 48
0.0
 49
0.0
140
0.0
141
0.0
142
1.0
143
1.0
 70
   688
 72
     1
 73
     0
 74
     5
  7

 75
    16
 76
     0
 77
     5
 78
   300
147
1.0
148
0.0
149
0.0
100
AcDbLayout
  1
Layout2
 70
     1
 71
     2
 10
0.0
 20
0.0
 11
0.0
 21
0.0
 12
0.0
 22
0.0
 32
0.0
 14
0.0
 24
0.0
 34
0.0
 15
0.0
 25
0.0
 35
0.0
146
0.0
 13
0.0
 23
0.0
 33
0.0
 16
1.0
 26
0.0
 36
0.0
 17
0.0
 27
1.0
 37
0.0
 76
     0
330
23
  0
LAYOUT
  5
22
102
{ACAD_REACTORS
330
1A
102
}
330
1A
100
AcDbPlotSettings
  1

  2
none_device
  4
Letter_(8.50_x_11.00_Inches)
  6

 40
6.35
 41
6.35
 42
6.35000508
 43
6.35000508
 44
215.9
 45
279.4
 46
0.0
 47
0.0
 48
0.0
 49
0.0
140
0.0
141
0.0
142
1.0
143
1.0
 70
  1712
 72
     1
 73
     0
 74
     0
  7

 75
     0
 76
     0
 77
     5
 78
   300
147
1.0
148
0.0
149
0.0
100
AcDbLayout
  1
Model
 70
     1
 71
     0
 10
-1260.0
 20
-891.0
 11
1260.0
 21
891.0
 12
0.0
 22
0.0
 32
0.0
 14
-1260.0
 24
-891.0
 34
0.0
 15
1260.0
 25
891.0
 35
0.0
146
0.0
 13
0.0
 23
0.0
 33
0.0
 16
1.0
 26
0.0
 36
0.0
 17
0.0
 27
1.0
 37
0.0
 76
     0
330
1F
331
29
  0
MATERIAL
  5
45
102
{ACAD_REACTORS
330
43
102
}
102
{ACAD_XDICTIONARY
360
3F1
102
}
330
43
100
AcDbMaterial
  1
ByBlock
  0
MATERIAL
  5
44
102
{ACAD_REACTORS
330
43
102
}
102
{ACAD_XDICTIONARY
360
3EF
102
}
330
43
100
AcDbMaterial
  1
ByLayer
  0
MATERIAL
  5
46
102
{ACAD_REACTORS
330
43
102
}
102
{ACAD_XDICTIONARY
360
3F3
102
}
330
43
100
AcDbMaterial
  1
Global
  0
MLEADERSTYLE
  5
6C
102
{ACAD_REACTORS
330
6B
102
}
102
{ACAD_XDICTIONARY
360
3F9
102
}
330
6B
100
AcDbMLeaderStyle
170
     2
171
     1
172
     0
 90
        2
 40
0.0
 41
0.0
173
     1
 91
-1056964608
340
14
 92
       -2
290
     1
 42
2.0
291
     1
 43
8.0
  3
Standard
341
0
 44
4.0
300

342
11
174
     1
178
     6
175
     1
176
     0
 93
-1056964608
 45
4.0
292
     0
297
     0
 46
4.0
343
0
 94
-1056964608
 47
1.0
 49
1.0
140
1.0
293
     1
141
0.0
294
     1
177
     0
142
1.0
295
     0
296
     0
143
3.75
1001
ACAD_MLEADERVER
1070
     2
  0
MLINESTYLE
  5
18
102
{ACAD_REACTORS
330
17
102
}
330
17
100
AcDbMlineStyle
  2
Standard
 70
     0
  3

 62
   256
 51
90.0
 52
90.0
 71
     2
 49
0.5
 62
   256
  6
BYLAYER
 49
-0.5
 62
   256
  6
BYLAYER
  0
ACDBPLACEHOLDER
  5
F
102
{ACAD_REACTORS
330
E
102
}
330
E
  0
SCALE
  5
48
102
{ACAD_REACTORS
330
47
102
}
330
47
100
AcDbScale
 70
     0
300
1:1
140
1.0
141
1.0
290
     1
  0
SCALE
  5
49
102
{ACAD_REACTORS
330
47
102
}
330
47
100
AcDbScale
 70
     0
300
1:2
140
1.0
141
2.0
290
     0
  0
SCALE
  5
4A
102
{ACAD_REACTORS
330
47
102
}
330
47
100
AcDbScale
 70
     0
300
1:4
140
1.0
141
4.0
290
     0
  0
SCALE
  5
4B
102
{ACAD_REACTORS
330
47
102
}
330
47
100
AcDbScale
 70
     0
300
1:5
140
1.0
141
5.0
290
     0
  0
SCALE
  5
4C
102
{ACAD_REACTORS
330
47
102
}
330
47
100
AcDbScale
 70
     0
300
1:8
140
1.0
141
8.0
290
     0
  0
SCALE
  5
4D
102
{ACAD_REACTORS
330
47
102
}
330
47
100
AcDbScale
 70
     0
300
1:10
140
1.0
141
10.0
290
     0
  0
SCALE
  5
4E
102
{ACAD_REACTORS
330
47
102
}
330
47
100
AcDbScale
 70
     0
300
1:16
140
1.0
141
16.0
290
     0
  0
SCALE
  5
4F
102
{ACAD_REACTORS
330
47
102
}
330
47
100
AcDbScale
 70
     0
300
1:20
140
1.0
141
20.0
290
     0
  0
SCALE
  5
50
102
{ACAD_REACTORS
330
47
102
}
330
47
100
AcDbScale
 70
     0
300
1:30
140
1.0
141
30.0
290
     0
  0
SCALE
  5
51
102
{ACAD_REACTORS
330
47
102
}
330
47
100
AcDbScale
 70
     0
300
1:40
140
1.0
141
40.0
290
     0
  0
SCALE
  5
52
102
{ACAD_REACTORS
330
47
102
}
330
47
100
AcDbScale
 70
     0
300
1:50
140
1.0
141
50.0
290
     0
  0
SCALE
  5
53
102
{ACAD_REACTORS
330
47
102
}
330
47
100
AcDbScale
 70
     0
300
1:100
140
1.0
141
100.0
290
     0
  0
SCALE
  5
54
102
{ACAD_REACTORS
330
47
102
}
330
47
100
AcDbScale
 70
     0
300
2:1
140
2.0
141
1.0
290
     0
  0
SCALE
  5
55
102
{ACAD_REACTORS
330
47
102
}
330
47
100
AcDbScale
 70
     0
300
4:1
140
4.0
141
1.0
290
     0
  0
SCALE
  5
56
102
{ACAD_REACTORS
330
47
102
}
330
47
100
AcDbScale
 70
     0
300
8:1
140
8.0
141
1.0
290
     0
  0
SCALE
  5
57
102
{ACAD_REACTORS
330
47
102
}
330
47
100
AcDbScale
 70
     0
300
10:1
140
10.0
141
1.0
290
     0
  0
SCALE
  5
58
102
{ACAD_REACTORS
330
47
102
}
330
47
100
AcDbScale
 70
     0
300
100:1
140
100.0
141
1.0
290
     0
  0
SCALE
  5
59
102
{ACAD_REACTORS
330
47
102
}
330
47
100
AcDbScale
 70
     0
300
1/128" = 1'-0"
140
0.0078125
141
12.0
290
     0
  0
SCALE
  5
5A
102
{ACAD_REACTORS
330
47
102
}
330
47
100
AcDbScale
 70
     0
300
1/64" = 1'-0"
140
0.015625
141
12.0
290
     0
  0
SCALE
  5
5B
102
{ACAD_REACTORS
330
47
102
}
330
47
100
AcDbScale
 70
     0
300
1/32" = 1'-0"
140
0.03125
141
12.0
290
     0
  0
SCALE
  5
5C
102
{ACAD_REACTORS
330
47
102
}
330
47
100
AcDbScale
 70
     0
300
1/16" = 1'-0"
140
0.0625
141
12.0
290
     0
  0
SCALE
  5
5D
102
{ACAD_REACTORS
330
47
102
}
330
47
100
AcDbScale
 70
     0
300
3/32" = 1'-0"
140
0.09375
141
12.0
290
     0
  0
SCALE
  5
5E
102
{ACAD_REACTORS
330
47
102
}
330
47
100
AcDbScale
 70
     0
300
1/8" = 1'-0"
140
0.125
141
12.0
290
     0
  0
SCALE
  5
5F
102
{ACAD_REACTORS
330
47
102
}
330
47
100
AcDbScale
 70
     0
300
3/16" = 1'-0"
140
0.1875
141
12.0
290
     0
  0
SCALE
  5
60
102
{ACAD_REACTORS
330
47
102
}
330
47
100
AcDbScale
 70
     0
300
1/4" = 1'-0"
140
0.25
141
12.0
290
     0
  0
SCALE
  5
61
102
{ACAD_REACTORS
330
47
102
}
330
47
100
AcDbScale
 70
     0
300
3/8" = 1'-0"
140
0.375
141
12.0
290
     0
  0
SCALE
  5
62
102
{ACAD_REACTORS
330
47
102
}
330
47
100
AcDbScale
 70
     0
300
1/2" = 1'-0"
140
0.5
141
12.0
290
     0
  0
SCALE
  5
63
102
{ACAD_REACTORS
330
47
102
}
330
47
100
AcDbScale
 70
     0
300
3/4" = 1'-0"
140
0.75
141
12.0
290
     0
  0
SCALE
  5
64
102
{ACAD_REACTORS
330
47
102
}
330
47
100
AcDbScale
 70
     0
300
1" = 1'-0"
140
1.0
141
12.0
290
     0
  0
SCALE
  5
65
102
{ACAD_REACTORS
330
47
102
}
330
47
100
AcDbScale
 70
     0
300
1-1/2" = 1'-0"
140
1.5
141
12.0
290
     0
  0
SCALE
  5
66
102
{ACAD_REACTORS
330
47
102
}
330
47
100
AcDbScale
 70
     0
300
3" = 1'-0"
140
3.0
141
12.0
290
     0
  0
SCALE
  5
67
102
{ACAD_REACTORS
330
47
102
}
330
47
100
AcDbScale
 70
     0
300
6" = 1'-0"
140
6.0
141
12.0
290
     0
  0
SCALE
  5
68
102
{ACAD_REACTORS
330
47
102
}
330
47
100
AcDbScale
 70
     0
300
1'-0" = 1'-0"
140
12.0
141
12.0
290
     0
  0
TABLESTYLE
  5
6A
102
{ACAD_REACTORS
330
69
102
}
102
{ACAD_XDICTIONARY
360
3F5
102
}
330
69
100
AcDbTableStyle
  3
Standard
 70
     0
 71
     0
 40
0.06
 41
0.06
280
     0
281
     0
  7
Standard
140
4.5
170
     2
 62
     0
 63
   257
283
     0
274
    -2
284
     1
 64
     0
275
    -2
285
     1
 65
     0
276
    -2
286
     1
 66
     0
277
    -2
287
     1
 67
     0
278
    -2
288
     1
 68
     0
279
    -2
289
     1
 69
     0
  7
Standard
140
6.0
170
     5
 62
     0
 63
   257
283
     0
274
    -2
284
     1
 64
     0
275
    -2
285
     1
 65
     0
276
    -2
286
     1
 66
     0
277
    -2
287
     1
 67
     0
278
    -2
288
     1
 68
     0
279
    -2
289
     1
 69
     0
  7
Standard
140
4.5
170
     5
 62
     0
 63
   257
283
     0
274
    -2
284
     1
 64
     0
275
    -2
285
     1
 65
     0
276
    -2
286
     1
 66
     0
277
    -2
287
     1
 67
     0
278
    -2
288
     1
 68
     0
279
    -2
289
     1
 69
     0
  0
VISUALSTYLE
  5
2F
102
{ACAD_REACTORS
330
2A
102
}
102
{ACAD_XDICTIONARY
360
3C7
102
}
330
2A
100
AcDbVisualStyle
  2
2dWireframe
 70
     4
 71
     0
 72
     2
 73
     0
 90
        0
 40
0.6
 41
30.0
 62
     5
 63
     7
421
 16777215
 74
     1
 91
        4
 64
     7
 65
   257
 75
     1
175
     1
 42
1.0
 92
        0
 66
   257
 43
1.0
 76
     1
 77
     6
 78
     2
 67
     7
 79
     5
170
     0
171
     0
290
     0
174
     0
 93
        1
 44
0.0
173
     0
291
     0
 45
0.0
1001
ACAD
1000
AcDbSavedByObjectVersion
1070
     0
  0
VISUALSTYLE
  5
32
102
{ACAD_REACTORS
330
2A
102
}
102
{ACAD_XDICTIONARY
360
3CD
102
}
330
2A
100
AcDbVisualStyle
  2
Basic
 70
     7
 71
     1
 72
     0
 73
     1
 90
        0
 40
0.6
 41
30.0
 62
     5
 63
     7
421
 16777215
 74
     0
 91
        4
 64
     7
 65
   257
 75
     1
175
     1
 42
1.0
 92
        8
 66
     7
 43
1.0
 76
     1
 77
     6
 78
     2
 67
     7
 79
     5
170
     0
171
     0
290
     0
174
     0
 93
        1
 44
0.0
173
     0
291
     1
 45
0.0
1001
ACAD
1000
AcDbSavedByObjectVersion
1070
     0
  0
VISUALSTYLE
  5
36
102
{ACAD_REACTORS
330
2A
102
}
102
{ACAD_XDICTIONARY
360
3D5
102
}
330
2A
100
AcDbVisualStyle
  2
Brighten
 70
    12
 71
     2
 72
     2
 73
     0
 90
        0
 40
0.6
 41
30.0
 62
     5
 63
     7
421
 16777215
 74
     1
 91
        4
 64
     7
 65
   257
 75
     1
175
     1
 42
1.0
 92
        8
 66
     7
 43
1.0
 76
     1
 77
     6
 78
     2
 67
     7
 79
     5
170
     0
171
     0
290
     0
174
     0
 93
        1
 44
50.0
173
     0
291
     1
 45
0.0
1001
ACAD
1000
AcDbSavedByObjectVersion
1070
     0
  0
VISUALSTYLE
  5
3A
102
{ACAD_REACTORS
330
2A
102
}
102
{ACAD_XDICTIONARY
360
3DD
102
}
330
2A
100
AcDbVisualStyle
  2
ColorChange
 70
    16
 71
     2
 72
     2
 73
     3
 90
        0
 40
0.6
 41
30.0
 62
     5
 63
     8
421
  8421504
 74
     1
 91
        4
 64
     7
 65
   257
 75
     1
175
     1
 42
1.0
 92
        8
 66
     8
424
  8421504
 43
1.0
 76
     1
 77
     6
 78
     2
 67
     7
 79
     5
170
     0
171
     0
290
     0
174
     0
 93
        1
 44
0.0
173
     0
291
     1
 45
0.0
1001
ACAD
1000
AcDbSavedByObjectVersion
1070
     0
  0
VISUALSTYLE
  5
34
102
{ACAD_REACTORS
330
2A
102
}
102
{ACAD_XDICTIONARY
360
3D1
102
}
330
2A
100
AcDbVisualStyle
  2
Conceptual
 70
     9
 71
     3
 72
     2
 73
     0
 90
        0
 40
0.6
 41
30.0
 62
     5
 63
     7
421
 16777215
 74
     2
 91
        2
 64
     7
 65
   257
 75
     1
175
     1
 42
179.0
 92
        8
 66
     7
 43
1.0
 76
     1
 77
     6
 78
     2
 67
     7
 79
     3
170
     0
171
     0
290
     0
174
     0
 93
        1
 44
0.0
173
     0
291
     0
 45
0.0
1001
ACAD
1000
AcDbSavedByObjectVersion
1070
     0
  0
VISUALSTYLE
  5
35
102
{ACAD_REACTORS
330
2A
102
}
102
{ACAD_XDICTIONARY
360
3D3
102
}
330
2A
100
AcDbVisualStyle
  2
Dim
 70
    11
 71
     2
 72
     2
 73
     0
 90
        0
 40
0.6
 41
30.0
 62
     5
 63
     7
421
 16777215
 74
     1
 91
        4
 64
     7
 65
   257
 75
     1
175
     1
 42
1.0
 92
        8
 66
     7
 43
1.0
 76
     1
 77
     6
 78
     2
 67
     7
 79
     5
170
     0
171
     0
290
     0
174
     0
 93
        1
 44
-50.0
173
     0
291
     1
 45
0.0
1001
ACAD
1000
AcDbSavedByObjectVersion
1070
     0
  0
VISUALSTYLE
  5
3D
102
{ACAD_REACTORS
330
2A
102
}
102
{ACAD_XDICTIONARY
360
3E3
102
}
330
2A
100
AcDbVisualStyle
  2
EdgeColorOff
 70
    22
 71
     2
 72
     2
 73
     0
 90
        0
 40
0.6
 41
30.0
 62
     5
 63
     7
421
 16777215
 74
     1
 91
        4
 64
     7
 65
   257
 75
     1
175
     1
 42
1.0
 92
        8
 66
     7
 43
1.0
 76
     1
 77
     6
 78
     2
 67
     7
 79
     5
170
     0
171
     0
290
     0
174
     0
 93
        1
 44
0.0
173
     0
291
     1
 45
0.0
1001
ACAD
1000
AcDbSavedByObjectVersion
1070
     0
  0
VISUALSTYLE
  5
39
102
{ACAD_REACTORS
330
2A
102
}
102
{ACAD_XDICTIONARY
360
3DB
102
}
330
2A
100
AcDbVisualStyle
  2
Facepattern
 70
    15
 71
     2
 72
     2
 73
     0
 90
        0
 40
0.6
 41
30.0
 62
     5
 63
     7
421
 16777215
 74
     1
 91
        4
 64
     7
 65
   257
 75
     1
175
     1
 42
1.0
 92
        8
 66
     7
 43
1.0
 76
     1
 77
     6
 78
     2
 67
     7
 79
     5
170
     0
171
     0
290
     0
174
     0
 93
        1
 44
0.0
173
     0
291
     1
 45
0.0
1001
ACAD
1000
AcDbSavedByObjectVersion
1070
     0
  0
VISUALSTYLE
  5
2B
102
{ACAD_REACTORS
330
2A
102
}
102
{ACAD_XDICTIONARY
360
3BF
102
}
330
2A
100
AcDbVisualStyle
  2
Flat
 70
     0
 71
     2
 72
     1
 73
     1
 90
        2
 40
0.6
 41
30.0
 62
     5
 63
     7
421
 16777215
 74
     0
 91
        0
 64
     7
 65
   257
 75
     1
175
     1
 42
1.0
 92
        8
 66
     7
 43
1.0
 76
     1
 77
     6
 78
     2
 67
     7
 79
     5
170
     0
171
     0
290
     0
174
     0
 93
       13
 44
0.0
173
     0
291
     1
 45
0.0
1001
ACAD
1000
AcDbSavedByObjectVersion
1070
     0
  0
VISUALSTYLE
  5
2C
102
{ACAD_REACTORS
330
2A
102
}
102
{ACAD_XDICTIONARY
360
3C1
102
}
330
2A
100
AcDbVisualStyle
  2
FlatWithEdges
 70
     1
 71
     2
 72
     1
 73
     1
 90
        2
 40
0.6
 41
30.0
 62
     5
 63
     7
421
 16777215
 74
     1
 91
        0
 64
     7
 65
   257
 75
     1
175
     1
 42
1.0
 92
        0
 66
   257
 43
1.0
 76
     1
 77
     6
 78
     2
 67
     7
 79
     5
170
     0
171
     0
290
     0
174
     0
 93
       13
 44
0.0
173
     0
291
     1
 45
0.0
1001
ACAD
1000
AcDbSavedByObjectVersion
1070
     0
  0
VISUALSTYLE
  5
2D
102
{ACAD_REACTORS
330
2A
102
}
102
{ACAD_XDICTIONARY
360
3C3
102
}
330
2A
100
AcDbVisualStyle
  2
Gouraud
 70
     2
 71
     2
 72
     2
 73
     1
 90
        2
 40
0.6
 41
30.0
 62
     5
 63
     7
421
 16777215
 74
     0
 91
        0
 64
     7
 65
   257
 75
     1
175
     1
 42
1.0
 92
        0
 66
     7
 43
1.0
 76
     1
 77
     6
 78
     2
 67
     7
 79
     5
170
     0
171
     0
290
     0
174
     0
 93
       13
 44
0.0
173
     0
291
     1
 45
0.0
1001
ACAD
1000
AcDbSavedByObjectVersion
1070
     0
  0
VISUALSTYLE
  5
2E
102
{ACAD_REACTORS
330
2A
102
}
102
{ACAD_XDICTIONARY
360
3C5
102
}
330
2A
100
AcDbVisualStyle
  2
GouraudWithEdges
 70
     3
 71
     2
 72
     2
 73
     1
 90
        2
 40
0.6
 41
30.0
 62
     5
 63
     7
421
 16777215
 74
     1
 91
        0
 64
     7
 65
   257
 75
     1
175
     1
 42
1.0
 92
        0
 66
   257
 43
1.0
 76
     1
 77
     6
 78
     2
 67
     7
 79
     5
170
     0
171
     0
290
     0
174
     0
 93
       13
 44
0.0
173
     0
291
     1
 45
0.0
1001
ACAD
1000
AcDbSavedByObjectVersion
1070
     0
  0
VISUALSTYLE
  5
31
102
{ACAD_REACTORS
330
2A
102
}
102
{ACAD_XDICTIONARY
360
3CB
102
}
330
2A
100
AcDbVisualStyle
  2
Hidden
 70
     6
 71
     1
 72
     2
 73
     2
 90
        0
 40
0.6
 41
30.0
 62
     5
 63
     7
421
 16777215
 74
     2
 91
        2
 64
     7
 65
   257
 75
     2
175
     1
 42
40.0
 92
        0
 66
   257
 43
1.0
 76
     1
 77
     6
 78
     2
 67
     7
 79
     3
170
     0
171
     0
290
     0
174
     0
 93
        1
 44
0.0
173
     0
291
     0
 45
0.0
1001
ACAD
1000
AcDbSavedByObjectVersion
1070
     0
  0
VISUALSTYLE
  5
3B
102
{ACAD_REACTORS
330
2A
102
}
102
{ACAD_XDICTIONARY
360
3DF
102
}
330
2A
100
AcDbVisualStyle
  2
JitterOff
 70
    20
 71
     2
 72
     2
 73
     0
 90
        0
 40
0.6
 41
30.0
 62
     5
 63
     7
421
 16777215
 74
     1
 91
        4
 64
     7
 65
   257
 75
     1
175
     1
 42
1.0
 92
       10
 66
     7
 43
1.0
 76
     1
 77
     6
 78
     2
 67
     7
 79
     5
170
     0
171
     0
290
     0
174
     0
 93
        1
 44
0.0
173
     0
291
     1
 45
0.0
1001
ACAD
1000
AcDbSavedByObjectVersion
1070
     0
  0
VISUALSTYLE
  5
38
102
{ACAD_REACTORS
330
2A
102
}
102
{ACAD_XDICTIONARY
360
3D9
102
}
330
2A
100
AcDbVisualStyle
  2
Linepattern
 70
    14
 71
     2
 72
     2
 73
     0
 90
        0
 40
0.6
 41
30.0
 62
     5
 63
     7
421
 16777215
 74
     1
 91
        4
 64
     7
 65
   257
 75
     7
175
     7
 42
1.0
 92
        8
 66
     7
 43
1.0
 76
     1
 77
     6
 78
     2
 67
     7
 79
     5
170
     0
171
     0
290
     0
174
     0
 93
        1
 44
0.0
173
     0
291
     1
 45
0.0
1001
ACAD
1000
AcDbSavedByObjectVersion
1070
     0
  0
VISUALSTYLE
  5
3C
102
{ACAD_REACTORS
330
2A
102
}
102
{ACAD_XDICTIONARY
360
3E1
102
}
330
2A
100
AcDbVisualStyle
  2
OverhangOff
 70
    21
 71
     2
 72
     2
 73
     0
 90
        0
 40
0.6
 41
30.0
 62
     5
 63
     7
421
 16777215
 74
     1
 91
        4
 64
     7
 65
   257
 75
     1
175
     1
 42
1.0
 92
        9
 66
     7
 43
1.0
 76
     1
 77
     6
 78
     2
 67
     7
 79
     5
170
     0
171
     0
290
     0
174
     0
 93
        1
 44
0.0
173
     0
291
     1
 45
0.0
1001
ACAD
1000
AcDbSavedByObjectVersion
1070
     0
  0
VISUALSTYLE
  5
33
102
{ACAD_REACTORS
330
2A
102
}
102
{ACAD_XDICTIONARY
360
3CF
102
}
330
2A
100
AcDbVisualStyle
  2
Realistic
 70
     8
 71
     2
 72
     3
 73
     0
 90
        2
 40
0.6
 41
30.0
 62
     5
 63
     7
421
 16777215
 74
     0
 91
        0
 64
     7
 65
   257
 75
     1
175
     1
 42
1.0
 92
        8
 66
   257
 43
1.0
 76
     1
 77
     6
 78
     2
 67
     7
 79
     3
170
     0
171
     0
290
     0
174
     0
 93
       13
 44
0.0
173
     0
291
     0
 45
0.0
1001
ACAD
1000
AcDbSavedByObjectVersion
1070
     0
  0
VISUALSTYLE
  5
42
102
{ACAD_REACTORS
330
2A
102
}
102
{ACAD_XDICTIONARY
360
3ED
102
}
330
2A
100
AcDbVisualStyle
  2
Shaded
 70
    27
 71
     2
 72
     2
 73
     1
 90
        2
 40
0.6
 41
30.0
 62
     5
 63
     7
421
 16777215
 74
     0
 91
        4
 64
     7
 65
   257
 75
     1
175
     1
 42
1.0
 92
        8
 66
   257
 43
1.0
 76
     1
 77
     6
 78
     2
 67
     8
425
  7895160
 79
     3
170
     0
171
     0
290
     0
174
     0
 93
        5
 44
0.0
173
     0
291
     0
 45
0.0
1001
ACAD
1000
AcDbSavedByObjectVersion
1070
     0
  0
VISUALSTYLE
  5
41
102
{ACAD_REACTORS
330
2A
102
}
102
{ACAD_XDICTIONARY
360
3EB
102
}
330
2A
100
AcDbVisualStyle
  2
Shaded with edges
 70
    26
 71
     2
 72
     2
 73
     1
 90
        2
 40
0.6
 41
30.0
 62
     5
 63
     7
421
 16777215
 74
     1
 91
       10
 64
     7
 65
   257
 75
     2
175
     1
 42
1.0
 92
        8
 66
   257
 43
1.0
 76
     1
 77
     6
 78
     2
 67
     7
 79
     3
170
     0
171
     0
290
     0
174
     0
 93
        5
 44
0.0
173
     0
291
     0
 45
0.0
1001
ACAD
1000
AcDbSavedByObjectVersion
1070
     0
  0
VISUALSTYLE
  5
3E
102
{ACAD_REACTORS
330
2A
102
}
102
{ACAD_XDICTIONARY
360
3E5
102
}
330
2A
100
AcDbVisualStyle
  2
Shades of Gray
 70
    23
 71
     2
 72
     2
 73
     3
 90
        0
 40
0.6
 41
30.0
 62
     5
 63
     7
421
 16777215
 74
     2
 91
        2
 64
     7
 65
     7
 75
     1
175
     1
 42
40.0
 92
        8
 66
     7
 43
1.0
 76
     1
 77
     6
 78
     2
 67
     7
 79
     3
170
     0
171
     0
290
     0
174
     0
 93
        1
 44
0.0
173
     0
291
     0
 45
0.0
1001
ACAD
1000
AcDbSavedByObjectVersion
1070
     0
  0
VISUALSTYLE
  5
3F
102
{ACAD_REACTORS
330
2A
102
}
102
{ACAD_XDICTIONARY
360
3E7
102
}
330
2A
100
AcDbVisualStyle
  2
Sketchy
 70
    24
 71
     1
 72
     2
 73
     2
 90
        0
 40
0.6
 41
30.0
 62
     5
 63
     7
421
 16777215
 74
     2
 91
        2
 64
     7
 65
     7
 75
     1
175
     1
 42
40.0
 92
       11
 66
     7
 43
1.0
 76
     1
 77
     6
 78
     2
 67
     7
 79
     6
170
     0
171
     0
290
     0
174
     0
 93
        1
 44
0.0
173
     0
291
     0
 45
0.0
1001
ACAD
1000
AcDbSavedByObjectVersion
1070
     0
  0
VISUALSTYLE
  5
37
102
{ACAD_REACTORS
330
2A
102
}
102
{ACAD_XDICTIONARY
360
3D7
102
}
330
2A
100
AcDbVisualStyle
  2
Thicken
 70
    13
 71
     2
 72
     2
 73
     0
 90
        0
 40
0.6
 41
30.0
 62
     5
 63
     7
421
 16777215
 74
     1
 91
        4
 64
     7
 65
   257
 75
     1
175
     1
 42
1.0
 92
       12
 66
     7
 43
1.0
 76
     1
 77
     6
 78
     2
 67
     7
 79
     5
170
     0
171
     0
290
     0
174
     0
 93
        1
 44
0.0
173
     0
291
     1
 45
0.0
1001
ACAD
1000
AcDbSavedByObjectVersion
1070
     0
  0
VISUALSTYLE
  5
30
102
{ACAD_REACTORS
330
2A
102
}
102
{ACAD_XDICTIONARY
360
3C9
102
}
330
2A
100
AcDbVisualStyle
  2
Wireframe
 70
     5
 71
     0
 72
     2
 73
     0
 90
        0
 40
0.6
 41
30.0
 62
     5
 63
     7
421
 16777215
 74
     1
 91
        4
 64
     7
 65
   257
 75
     1
175
     1
 42
1.0
 92
        0
 66
   257
 43
1.0
 76
     1
 77
     6
 78
     2
 67
     7
 79
     3
170
     0
171
     0
290
     0
174
     0
 93
        1
 44
0.0
173
     0
291
     0
 45
0.0
1001
ACAD
1000
AcDbSavedByObjectVersion
1070
     0
  0
VISUALSTYLE
  5
40
102
{ACAD_REACTORS
330
2A
102
}
102
{ACAD_XDICTIONARY
360
3E9
102
}
330
2A
100
AcDbVisualStyle
  2
X-Ray
 70
    25
 71
     2
 72
     2
 73
     1
 90
        1
 40
0.5
 41
30.0
 62
     5
 63
     7
421
 16777215
 74
     1
 91
        0
 64
     7
 65
   257
 75
     1
175
     1
 42
1.0
 92
        8
 66
     7
 43
1.0
 76
     1
 77
     6
 78
     2
 67
     7
 79
     3
170
     0
171
     0
290
     0
174
     0
 93
       13
 44
0.0
173
     0
291
     0
 45
0.0
1001
ACAD
1000
AcDbSavedByObjectVersion
1070
     0
  0
DICTIONARYVAR
  5
3BC
102
{ACAD_REACTORS
330
3BB
102
}
330
3BB
100
DictionaryVariables
280
     0
  1
1:1
  0
DICTIONARYVAR
  5
400
102
{ACAD_REACTORS
330
3BB
102
}
330
3BB
100
DictionaryVariables
280
     0
  1
3.500000
  0
DICTIONARYVAR
  5
401
102
{ACAD_REACTORS
330
3BB
102
}
330
3BB
100
DictionaryVariables
280
     0
  1
acadiso.lin
  0
DICTIONARYVAR
  5
3FD
102
{ACAD_REACTORS
330
3BB
102
}
330
3BB
100
DictionaryVariables
280
     0
  1
Standard
  0
DICTIONARYVAR
  5
3FC
102
{ACAD_REACTORS
330
3BB
102
}
330
3BB
100
DictionaryVariables
280
     0
  1
Standard
  0
DICTIONARYVAR
  5
3BD
102
{ACAD_REACTORS
330
3BB
102
}
330
3BB
100
DictionaryVariables
280
     0
  1
1
  0
DICTIONARYVAR
  5
3BE
102
{ACAD_REACTORS
330
3BB
102
}
330
3BB
100
DictionaryVariables
280
     0
  1
2
  0
DICTIONARY
  5
3F1
330
45
100
AcDbDictionary
280
     1
281
     1
  3
ACAD_XREC_ROUNDTRIP
360
3F2
  0
DICTIONARY
  5
3EF
330
44
100
AcDbDictionary
280
     1
281
     1
  3
ACAD_XREC_ROUNDTRIP
360
3F0
  0
DICTIONARY
  5
3F3
330
46
100
AcDbDictionary
280
     1
281
     1
  3
ACAD_XREC_ROUNDTRIP
360
3F4
  0
DICTIONARY
  5
3F9
330
6C
100
AcDbDictionary
280
     1
281
     1
  3
ACAD_XREC_ROUNDTRIP
360
3FA
  0
DICTIONARY
  5
3F5
330
6A
100
AcDbDictionary
280
     1
281
     1
  3
ACAD_ROUNDTRIP_2008_TABLESTYLE_CELLSTYLEMAP
360
3F7
  3
ACAD_XREC_ROUNDTRIP
360
3F6
  0
DICTIONARY
  5
3C7
330
2F
100
AcDbDictionary
280
     1
281
     1
  3
ACAD_XREC_ROUNDTRIP
360
3C8
  0
DICTIONARY
  5
3CD
330
32
100
AcDbDictionary
280
     1
281
     1
  3
ACAD_XREC_ROUNDTRIP
360
3CE
  0
DICTIONARY
  5
3D5
330
36
100
AcDbDictionary
280
     1
281
     1
  3
ACAD_XREC_ROUNDTRIP
360
3D6
  0
DICTIONARY
  5
3DD
330
3A
100
AcDbDictionary
280
     1
281
     1
  3
ACAD_XREC_ROUNDTRIP
360
3DE
  0
DICTIONARY
  5
3D1
330
34
100
AcDbDictionary
280
     1
281
     1
  3
ACAD_XREC_ROUNDTRIP
360
3D2
  0
DICTIONARY
  5
3D3
330
35
100
AcDbDictionary
280
     1
281
     1
  3
ACAD_XREC_ROUNDTRIP
360
3D4
  0
DICTIONARY
  5
3E3
330
3D
100
AcDbDictionary
280
     1
281
     1
  3
ACAD_XREC_ROUNDTRIP
360
3E4
  0
DICTIONARY
  5
3DB
330
39
100
AcDbDictionary
280
     1
281
     1
  3
ACAD_XREC_ROUNDTRIP
360
3DC
  0
DICTIONARY
  5
3BF
330
2B
100
AcDbDictionary
280
     1
281
     1
  3
ACAD_XREC_ROUNDTRIP
360
3C0
  0
DICTIONARY
  5
3C1
330
2C
100
AcDbDictionary
280
     1
281
     1
  3
ACAD_XREC_ROUNDTRIP
360
3C2
  0
DICTIONARY
  5
3C3
330
2D
100
AcDbDictionary
280
     1
281
     1
  3
ACAD_XREC_ROUNDTRIP
360
3C4
  0
DICTIONARY
  5
3C5
330
2E
100
AcDbDictionary
280
     1
281
     1
  3
ACAD_XREC_ROUNDTRIP
360
3C6
  0
DICTIONARY
  5
3CB
330
31
100
AcDbDictionary
280
     1
281
     1
  3
ACAD_XREC_ROUNDTRIP
360
3CC
  0
DICTIONARY
  5
3DF
330
3B
100
AcDbDictionary
280
     1
281
     1
  3
ACAD_XREC_ROUNDTRIP
360
3E0
  0
DICTIONARY
  5
3D9
330
38
100
AcDbDictionary
280
     1
281
     1
  3
ACAD_XREC_ROUNDTRIP
360
3DA
  0
DICTIONARY
  5
3E1
330
3C
100
AcDbDictionary
280
     1
281
     1
  3
ACAD_XREC_ROUNDTRIP
360
3E2
  0
DICTIONARY
  5
3CF
330
33
100
AcDbDictionary
280
     1
281
     1
  3
ACAD_XREC_ROUNDTRIP
360
3D0
  0
DICTIONARY
  5
3ED
330
42
100
AcDbDictionary
280
     1
281
     1
  3
ACAD_XREC_ROUNDTRIP
360
3EE
  0
DICTIONARY
  5
3EB
330
41
100
AcDbDictionary
280
     1
281
     1
  3
ACAD_XREC_ROUNDTRIP
360
3EC
  0
DICTIONARY
  5
3E5
330
3E
100
AcDbDictionary
280
     1
281
     1
  3
ACAD_XREC_ROUNDTRIP
360
3E6
  0
DICTIONARY
  5
3E7
330
3F
100
AcDbDictionary
280
     1
281
     1
  3
ACAD_XREC_ROUNDTRIP
360
3E8
  0
DICTIONARY
  5
3D7
330
37
100
AcDbDictionary
280
     1
281
     1
  3
ACAD_XREC_ROUNDTRIP
360
3D8
  0
DICTIONARY
  5
3C9
330
30
100
AcDbDictionary
280
     1
281
     1
  3
ACAD_XREC_ROUNDTRIP
360
3CA
  0
DICTIONARY
  5
3E9
330
40
100
AcDbDictionary
280
     1
281
     1
  3
ACAD_XREC_ROUNDTRIP
360
3EA
  0
XRECORD
  5
3F2
102
{ACAD_REACTORS
330
3F1
102
}
330
3F1
100
AcDbXrecord
280
     1
102
MATERIAL
148
0.0
149
0.0
149
0.0
 93
        0
 94
      127
282
     0
 72
     1
 77
     1
171
     1
175
     1
179
     1
273
     0
  0
XRECORD
  5
3F0
102
{ACAD_REACTORS
330
3EF
102
}
330
3EF
100
AcDbXrecord
280
     1
102
MATERIAL
148
0.0
149
0.0
149
0.0
 93
        0
 94
      127
282
     0
 72
     1
 77
     1
171
     1
175
     1
179
     1
273
     0
  0
XRECORD
  5
3F4
102
{ACAD_REACTORS
330
3F3
102
}
330
3F3
100
AcDbXrecord
280
     1
102
MATERIAL
148
0.0
149
0.0
149
0.0
 93
        0
 94
      127
282
     0
 72
     1
 77
     1
171
     1
175
     1
179
     1
273
     0
  0
XRECORD
  5
3FA
102
{ACAD_REACTORS
330
3F9
102
}
330
3F9
100
AcDbXrecord
280
     1
102
ACAD_ROUNDTRIP_2010_MLEADER_STYLE
  0
CELLSTYLEMAP
  5
3F7
102
{ACAD_REACTORS
330
3F5
102
}
330
3F5
100
AcDbCellStyleMap
 90
        3
300
CELLSTYLE
  1
TABLEFORMAT_BEGIN
 90
        5
170
     1
 91
        0
 92
    32768
 62
   257
 93
        1
300
CONTENTFORMAT
  1
CONTENTFORMAT_BEGIN
 90
        0
 91
        0
 92
        4
 93
        0
300

 40
0.0
140
1.0
 94
        5
 62
     0
340
11
144
6.0
309
CONTENTFORMAT_END
171
     1
301
MARGIN
  1
CELLMARGIN_BEGIN
 40
1.5
 40
1.5
 40
1.5
 40
1.5
 40
1.5
 40
1.5
309
CELLMARGIN_END
 94
        6
 95
        1
302
GRIDFORMAT
  1
GRIDFORMAT_BEGIN
 90
        0
 91
        1
 62
     0
 92
       -2
340
14
 93
        0
 40
0.045
309
GRIDFORMAT_END
 95
        2
302
GRIDFORMAT
  1
GRIDFORMAT_BEGIN
 90
        0
 91
        1
 62
     0
 92
       -2
340
14
 93
        0
 40
0.045
309
GRIDFORMAT_END
 95
        4
302
GRIDFORMAT
  1
GRIDFORMAT_BEGIN
 90
        0
 91
        1
 62
     0
 92
       -2
340
14
 93
        0
 40
0.045
309
GRIDFORMAT_END
 95
        8
302
GRIDFORMAT
  1
GRIDFORMAT_BEGIN
 90
        0
 91
        1
 62
     0
 92
       -2
340
14
 93
        0
 40
0.045
309
GRIDFORMAT_END
 95
       16
302
GRIDFORMAT
  1
GRIDFORMAT_BEGIN
 90
        0
 91
        1
 62
     0
 92
       -2
340
14
 93
        0
 40
0.045
309
GRIDFORMAT_END
 95
       32
302
GRIDFORMAT
  1
GRIDFORMAT_BEGIN
 90
        0
 91
        1
 62
     0
 92
       -2
340
14
 93
        0
 40
0.045
309
GRIDFORMAT_END
309
TABLEFORMAT_END
  1
CELLSTYLE_BEGIN
 90
        1
 91
        1
300
_TITLE
309
CELLSTYLE_END
300
CELLSTYLE
  1
TABLEFORMAT_BEGIN
 90
        5
170
     1
 91
        0
 92
        0
 62
   257
 93
        1
300
CONTENTFORMAT
  1
CONTENTFORMAT_BEGIN
 90
        0
 91
        0
 92
        4
 93
        0
300

 40
0.0
140
1.0
 94
        5
 62
     0
340
11
144
4.5
309
CONTENTFORMAT_END
171
     1
301
MARGIN
  1
CELLMARGIN_BEGIN
 40
1.5
 40
1.5
 40
1.5
 40
1.5
 40
1.5
 40
1.5
309
CELLMARGIN_END
 94
        6
 95
        1
302
GRIDFORMAT
  1
GRIDFORMAT_BEGIN
 90
        0
 91
        1
 62
     0
 92
       -2
340
14
 93
        0
 40
0.045
309
GRIDFORMAT_END
 95
        2
302
GRIDFORMAT
  1
GRIDFORMAT_BEGIN
 90
        0
 91
        1
 62
     0
 92
       -2
340
14
 93
        0
 40
0.045
309
GRIDFORMAT_END
 95
        4
302
GRIDFORMAT
  1
GRIDFORMAT_BEGIN
 90
        0
 91
        1
 62
     0
 92
       -2
340
14
 93
        0
 40
0.045
309
GRIDFORMAT_END
 95
        8
302
GRIDFORMAT
  1
GRIDFORMAT_BEGIN
 90
        0
 91
        1
 62
     0
 92
       -2
340
14
 93
        0
 40
0.045
309
GRIDFORMAT_END
 95
       16
302
GRIDFORMAT
  1
GRIDFORMAT_BEGIN
 90
        0
 91
        1
 62
     0
 92
       -2
340
14
 93
        0
 40
0.045
309
GRIDFORMAT_END
 95
       32
302
GRIDFORMAT
  1
GRIDFORMAT_BEGIN
 90
        0
 91
        1
 62
     0
 92
       -2
340
14
 93
        0
 40
0.045
309
GRIDFORMAT_END
309
TABLEFORMAT_END
  1
CELLSTYLE_BEGIN
 90
        2
 91
        1
300
_HEADER
309
CELLSTYLE_END
300
CELLSTYLE
  1
TABLEFORMAT_BEGIN
 90
        5
170
     1
 91
        0
 92
        0
 62
   257
 93
        1
300
CONTENTFORMAT
  1
CONTENTFORMAT_BEGIN
 90
        0
 91
        0
 92
        4
 93
        0
300

 40
0.0
140
1.0
 94
        2
 62
     0
340
11
144
4.5
309
CONTENTFORMAT_END
171
     1
301
MARGIN
  1
CELLMARGIN_BEGIN
 40
1.5
 40
1.5
 40
1.5
 40
1.5
 40
1.5
 40
1.5
309
CELLMARGIN_END
 94
        6
 95
        1
302
GRIDFORMAT
  1
GRIDFORMAT_BEGIN
 90
        0
 91
        1
 62
     0
 92
       -2
340
14
 93
        0
 40
0.045
309
GRIDFORMAT_END
 95
        2
302
GRIDFORMAT
  1
GRIDFORMAT_BEGIN
 90
        0
 91
        1
 62
     0
 92
       -2
340
14
 93
        0
 40
0.045
309
GRIDFORMAT_END
 95
        4
302
GRIDFORMAT
  1
GRIDFORMAT_BEGIN
 90
        0
 91
        1
 62
     0
 92
       -2
340
14
 93
        0
 40
0.045
309
GRIDFORMAT_END
 95
        8
302
GRIDFORMAT
  1
GRIDFORMAT_BEGIN
 90
        0
 91
        1
 62
     0
 92
       -2
340
14
 93
        0
 40
0.045
309
GRIDFORMAT_END
 95
       16
302
GRIDFORMAT
  1
GRIDFORMAT_BEGIN
 90
        0
 91
        1
 62
     0
 92
       -2
340
14
 93
        0
 40
0.045
309
GRIDFORMAT_END
 95
       32
302
GRIDFORMAT
  1
GRIDFORMAT_BEGIN
 90
        0
 91
        1
 62
     0
 92
       -2
340
14
 93
        0
 40
0.045
309
GRIDFORMAT_END
309
TABLEFORMAT_END
  1
CELLSTYLE_BEGIN
 90
        3
 91
        2
300
_DATA
309
CELLSTYLE_END
  0
XRECORD
  5
3F6
102
{ACAD_REACTORS
330
3F5
102
}
330
3F5
100
AcDbXrecord
280
     1
102
ACAD_ROUNDTRIP_PRE2007_TABLESTYLE
 90
        4
 91
        0
  1

 92
        4
 93
        0
  2

 94
        4
 95
        0
  3

  0
XRECORD
  5
3C8
102
{ACAD_REACTORS
330
3C7
102
}
330
3C7
100
AcDbXrecord
280
     1
102
RTVSPropertyOp0
 70
     1
102
RTVSPropertyOp1
 70
     1
102
RTVSPropertyOp2
 70
     1
102
RTVSPropertyOp3
 70
     1
102
RTVSPropertyOp4
 70
     1
102
RTVSPropertyOp5
 70
     1
102
RTVSPropertyOp6
 70
     1
102
RTVSPropertyOp7
 70
     1
102
RTVSPropertyOp8
 70
     1
102
RTVSPropertyOp9
 70
     1
102
RTVSPropertyOp10
 70
     1
102
RTVSPropertyOp11
 70
     1
102
RTVSPropertyOp12
 70
     1
102
RTVSPropertyOp13
 70
     1
102
RTVSPropertyOp14
 70
     1
102
RTVSPropertyOp15
 70
     1
102
RTVSPropertyOp16
 70
     1
102
RTVSPropertyOp17
 70
     1
102
RTVSPropertyOp18
 70
     1
102
RTVSPropertyOp19
 70
     1
102
RTVSPropertyOp20
 70
     1
102
RTVSPropertyOp21
 70
     1
102
RTVSPropertyOp22
 70
     1
102
RTVSPropertyOp23
 70
     1
102
RTVSPropertyOp24
 70
     1
102
RTVSPropertyOp25
 70
     1
102
RTVSPropertyOp26
 70
     1
102
RTVSPropertyOp27
 70
     1
102
RTVSPropertyOp28
 70
     1
102
RTVSPropertyOp29
 70
     1
102
RTVSPropertyOp30
 70
     1
102
RTVSPropertyOp31
 70
     1
102
RTVSPropertyOp32
 70
     1
102
RTVSPropertyOp33
 70
     1
102
RTVSPropertyOp34
 70
     1
102
RTVSPropertyOp35
 70
     1
102
RTVSPropertyOp36
 70
     1
102
RTVSPropertyOp37
 70
     1
102
RTVSPropertyOp38
 70
     1
102
RTVSPropertyOp39
 70
     1
102
RTVSPropertyOp40
 70
     1
102
RTVSPropertyOp41
 70
     1
102
RTVSPropertyOp42
 70
     1
102
RTVSPropertyOp43
 70
     1
102
RTVSPropertyOp44
 70
     1
102
RTVSPropertyOp45
 70
     1
102
RTVSPropertyOp46
 70
     1
102
RTVSPropertyOp47
 70
     1
102
RTVSPropertyOp48
 70
     1
102
RTVSPropertyOp49
 70
     1
102
RTVSPropertyOp50
 70
     1
102
RTVSPropertyOp51
 70
     0
102
RTVSPropertyOp52
 70
     0
102
RTVSPropertyOp53
 70
     1
102
RTVSPropertyOp54
 70
     1
102
RTVSPropertyOp55
 70
     1
102
RTVSPropertyOp56
 70
     1
102
RTVSPropertyOp57
 70
     1
102
RTVSPost2010Prop28
280
     1
102
RTVSPost2010PropOp28
 70
     1
102
RTVSPost2010Prop29
280
     1
102
RTVSPost2010PropOp29
 70
     1
102
RTVSPost2010Prop30
280
     0
102
RTVSPost2010PropOp30
 70
     1
102
RTVSPost2010Prop31
280
     0
102
RTVSPost2010PropOp31
 70
     1
102
RTVSPost2010Prop32
280
     0
102
RTVSPost2010PropOp32
 70
     1
102
RTVSPost2010Prop33
280
     0
102
RTVSPost2010PropOp33
 70
     1
102
RTVSPost2010Prop34
280
     0
102
RTVSPost2010PropOp34
 70
     1
102
RTVSPost2010Prop35
280
     0
102
RTVSPost2010PropOp35
 70
     1
102
RTVSPost2010Prop36
280
     0
102
RTVSPost2010PropOp36
 70
     1
102
RTVSPost2010Prop37
 90
       50
102
RTVSPost2010PropOp37
 70
     1
102
RTVSPost2010Prop38
140
0.0
102
RTVSPost2010PropOp38
 70
     1
102
RTVSPost2010Prop39
140
1.0
102
RTVSPost2010PropOp39
 70
     1
102
RTVSPost2010Prop40
 90
        0
102
RTVSPost2010PropOp40
 70
     1
102
RTVSPost2010Prop41ColorIndex
 90
       18
102
RTVSPost2010Prop41ColorRGB
 90
        0
102
RTVSPost2010PropOp41
 70
     1
102
RTVSPost2010Prop42
 90
       50
102
RTVSPost2010PropOp42
 70
     1
102
RTVSPost2010Prop43
 90
        3
102
RTVSPost2010PropOp43
 70
     1
102
RTVSPost2010Prop44ColorIndex
 90
        5
102
RTVSPost2010Prop44ColorRGB
 90
      255
102
RTVSPost2010PropOp44
 70
     1
102
RTVSPost2010Prop45
280
     0
102
RTVSPost2010PropOp45
 70
     1
102
RTVSPost2010Prop46
 90
       50
102
RTVSPost2010PropOp46
 70
     1
102
RTVSPost2010Prop47
 90
       50
102
RTVSPost2010PropOp47
 70
     1
102
RTVSPost2010Prop48
 90
       50
102
RTVSPost2010PropOp48
 70
     1
102
RTVSPost2010Prop49
280
     0
102
RTVSPost2010PropOp49
 70
     1
102
RTVSPost2010Prop50
 90
       50
102
RTVSPost2010PropOp50
 70
     1
102
RTVSPost2010Prop51ColorIndex
 90
      256
102
RTVSPost2010Prop51ColorRGB
 90
-16777216
102
RTVSPost2010PropOp51
 70
     0
102
RTVSPost2010Prop52
140
1.0
102
RTVSPost2010PropOp52
 70
     0
102
RTVSPost2010Prop53
 90
        2
102
RTVSPost2010PropOp53
 70
     1
102
RTVSPost2010Prop54
  1
strokes_ogs.tif
102
RTVSPost2010PropOp54
 70
     1
102
RTVSPost2010Prop55
280
     0
102
RTVSPost2010PropOp55
 70
     1
102
RTVSPost2010Prop56
140
1.0
102
RTVSPost2010PropOp56
 70
     1
102
RTVSPost2010Prop57
140
1.0
102
RTVSPost2010PropOp57
 70
     1
  0
XRECORD
  5
3CE
102
{ACAD_REACTORS
330
3CD
102
}
330
3CD
100
AcDbXrecord
280
     1
102
RTVSPropertyOp0
 70
     1
102
RTVSPropertyOp1
 70
     1
102
RTVSPropertyOp2
 70
     1
102
RTVSPropertyOp3
 70
     1
102
RTVSPropertyOp4
 70
     1
102
RTVSPropertyOp5
 70
     1
102
RTVSPropertyOp6
 70
     1
102
RTVSPropertyOp7
 70
     1
102
RTVSPropertyOp8
 70
     1
102
RTVSPropertyOp9
 70
     1
102
RTVSPropertyOp10
 70
     1
102
RTVSPropertyOp11
 70
     1
102
RTVSPropertyOp12
 70
     1
102
RTVSPropertyOp13
 70
     1
102
RTVSPropertyOp14
 70
     1
102
RTVSPropertyOp15
 70
     1
102
RTVSPropertyOp16
 70
     1
102
RTVSPropertyOp17
 70
     1
102
RTVSPropertyOp18
 70
     1
102
RTVSPropertyOp19
 70
     1
102
RTVSPropertyOp20
 70
     1
102
RTVSPropertyOp21
 70
     1
102
RTVSPropertyOp22
 70
     1
102
RTVSPropertyOp23
 70
     1
102
RTVSPropertyOp24
 70
     1
102
RTVSPropertyOp25
 70
     1
102
RTVSPropertyOp26
 70
     1
102
RTVSPropertyOp27
 70
     1
102
RTVSPropertyOp28
 70
     1
102
RTVSPropertyOp29
 70
     1
102
RTVSPropertyOp30
 70
     1
102
RTVSPropertyOp31
 70
     1
102
RTVSPropertyOp32
 70
     1
102
RTVSPropertyOp33
 70
     1
102
RTVSPropertyOp34
 70
     1
102
RTVSPropertyOp35
 70
     1
102
RTVSPropertyOp36
 70
     1
102
RTVSPropertyOp37
 70
     1
102
RTVSPropertyOp38
 70
     1
102
RTVSPropertyOp39
 70
     1
102
RTVSPropertyOp40
 70
     1
102
RTVSPropertyOp41
 70
     1
102
RTVSPropertyOp42
 70
     1
102
RTVSPropertyOp43
 70
     1
102
RTVSPropertyOp44
 70
     1
102
RTVSPropertyOp45
 70
     1
102
RTVSPropertyOp46
 70
     1
102
RTVSPropertyOp47
 70
     1
102
RTVSPropertyOp48
 70
     1
102
RTVSPropertyOp49
 70
     1
102
RTVSPropertyOp50
 70
     1
102
RTVSPropertyOp51
 70
     0
102
RTVSPropertyOp52
 70
     0
102
RTVSPropertyOp53
 70
     1
102
RTVSPropertyOp54
 70
     1
102
RTVSPropertyOp55
 70
     1
102
RTVSPropertyOp56
 70
     1
102
RTVSPropertyOp57
 70
     1
102
RTVSPost2010Prop28
280
     0
102
RTVSPost2010PropOp28
 70
     1
102
RTVSPost2010Prop29
280
     1
102
RTVSPost2010PropOp29
 70
     1
102
RTVSPost2010Prop30
280
     1
102
RTVSPost2010PropOp30
 70
     1
102
RTVSPost2010Prop31
280
     0
102
RTVSPost2010PropOp31
 70
     1
102
RTVSPost2010Prop32
280
     0
102
RTVSPost2010PropOp32
 70
     1
102
RTVSPost2010Prop33
280
     0
102
RTVSPost2010PropOp33
 70
     1
102
RTVSPost2010Prop34
280
     0
102
RTVSPost2010PropOp34
 70
     1
102
RTVSPost2010Prop35
280
     0
102
RTVSPost2010PropOp35
 70
     1
102
RTVSPost2010Prop36
280
     0
102
RTVSPost2010PropOp36
 70
     1
102
RTVSPost2010Prop37
 90
       50
102
RTVSPost2010PropOp37
 70
     1
102
RTVSPost2010Prop38
140
0.0
102
RTVSPost2010PropOp38
 70
     1
102
RTVSPost2010Prop39
140
1.0
102
RTVSPost2010PropOp39
 70
     1
102
RTVSPost2010Prop40
 90
        0
102
RTVSPost2010PropOp40
 70
     1
102
RTVSPost2010Prop41ColorIndex
 90
       18
102
RTVSPost2010Prop41ColorRGB
 90
        0
102
RTVSPost2010PropOp41
 70
     1
102
RTVSPost2010Prop42
 90
       50
102
RTVSPost2010PropOp42
 70
     1
102
RTVSPost2010Prop43
 90
        3
102
RTVSPost2010PropOp43
 70
     1
102
RTVSPost2010Prop44ColorIndex
 90
        5
102
RTVSPost2010Prop44ColorRGB
 90
      255
102
RTVSPost2010PropOp44
 70
     1
102
RTVSPost2010Prop45
280
     0
102
RTVSPost2010PropOp45
 70
     1
102
RTVSPost2010Prop46
 90
       50
102
RTVSPost2010PropOp46
 70
     1
102
RTVSPost2010Prop47
 90
       50
102
RTVSPost2010PropOp47
 70
     1
102
RTVSPost2010Prop48
 90
       50
102
RTVSPost2010PropOp48
 70
     1
102
RTVSPost2010Prop49
280
     0
102
RTVSPost2010PropOp49
 70
     1
102
RTVSPost2010Prop50
 90
       50
102
RTVSPost2010PropOp50
 70
     1
102
RTVSPost2010Prop51ColorIndex
 90
      256
102
RTVSPost2010Prop51ColorRGB
 90
-16777216
102
RTVSPost2010PropOp51
 70
     0
102
RTVSPost2010Prop52
140
1.0
102
RTVSPost2010PropOp52
 70
     0
102
RTVSPost2010Prop53
 90
        2
102
RTVSPost2010PropOp53
 70
     1
102
RTVSPost2010Prop54
  1
strokes_ogs.tif
102
RTVSPost2010PropOp54
 70
     1
102
RTVSPost2010Prop55
280
     0
102
RTVSPost2010PropOp55
 70
     1
102
RTVSPost2010Prop56
140
1.0
102
RTVSPost2010PropOp56
 70
     1
102
RTVSPost2010Prop57
140
1.0
102
RTVSPost2010PropOp57
 70
     1
  0
XRECORD
  5
3D6
102
{ACAD_REACTORS
330
3D5
102
}
330
3D5
100
AcDbXrecord
280
     1
102
RTVSPropertyOp0
 70
     1
102
RTVSPropertyOp1
 70
     1
102
RTVSPropertyOp2
 70
     1
102
RTVSPropertyOp3
 70
     1
102
RTVSPropertyOp4
 70
     1
102
RTVSPropertyOp5
 70
     1
102
RTVSPropertyOp6
 70
     1
102
RTVSPropertyOp7
 70
     1
102
RTVSPropertyOp8
 70
     1
102
RTVSPropertyOp9
 70
     1
102
RTVSPropertyOp10
 70
     1
102
RTVSPropertyOp11
 70
     1
102
RTVSPropertyOp12
 70
     1
102
RTVSPropertyOp13
 70
     1
102
RTVSPropertyOp14
 70
     1
102
RTVSPropertyOp15
 70
     1
102
RTVSPropertyOp16
 70
     1
102
RTVSPropertyOp17
 70
     1
102
RTVSPropertyOp18
 70
     1
102
RTVSPropertyOp19
 70
     1
102
RTVSPropertyOp20
 70
     1
102
RTVSPropertyOp21
 70
     1
102
RTVSPropertyOp22
 70
     1
102
RTVSPropertyOp23
 70
     1
102
RTVSPropertyOp24
 70
     1
102
RTVSPropertyOp25
 70
     1
102
RTVSPropertyOp26
 70
     1
102
RTVSPropertyOp27
 70
     1
102
RTVSPropertyOp28
 70
     1
102
RTVSPropertyOp29
 70
     1
102
RTVSPropertyOp30
 70
     1
102
RTVSPropertyOp31
 70
     1
102
RTVSPropertyOp32
 70
     1
102
RTVSPropertyOp33
 70
     1
102
RTVSPropertyOp34
 70
     1
102
RTVSPropertyOp35
 70
     1
102
RTVSPropertyOp36
 70
     1
102
RTVSPropertyOp37
 70
     1
102
RTVSPropertyOp38
 70
     1
102
RTVSPropertyOp39
 70
     1
102
RTVSPropertyOp40
 70
     1
102
RTVSPropertyOp41
 70
     1
102
RTVSPropertyOp42
 70
     1
102
RTVSPropertyOp43
 70
     1
102
RTVSPropertyOp44
 70
     1
102
RTVSPropertyOp45
 70
     1
102
RTVSPropertyOp46
 70
     1
102
RTVSPropertyOp47
 70
     1
102
RTVSPropertyOp48
 70
     1
102
RTVSPropertyOp49
 70
     1
102
RTVSPropertyOp50
 70
     1
102
RTVSPropertyOp51
 70
     0
102
RTVSPropertyOp52
 70
     0
102
RTVSPropertyOp53
 70
     1
102
RTVSPropertyOp54
 70
     1
102
RTVSPropertyOp55
 70
     1
102
RTVSPropertyOp56
 70
     1
102
RTVSPropertyOp57
 70
     1
102
RTVSPost2010Prop28
280
     0
102
RTVSPost2010PropOp28
 70
     1
102
RTVSPost2010Prop29
280
     1
102
RTVSPost2010PropOp29
 70
     1
102
RTVSPost2010Prop30
280
     1
102
RTVSPost2010PropOp30
 70
     1
102
RTVSPost2010Prop31
280
     0
102
RTVSPost2010PropOp31
 70
     1
102
RTVSPost2010Prop32
280
     0
102
RTVSPost2010PropOp32
 70
     1
102
RTVSPost2010Prop33
280
     0
102
RTVSPost2010PropOp33
 70
     1
102
RTVSPost2010Prop34
280
     0
102
RTVSPost2010PropOp34
 70
     1
102
RTVSPost2010Prop35
280
     0
102
RTVSPost2010PropOp35
 70
     1
102
RTVSPost2010Prop36
280
     0
102
RTVSPost2010PropOp36
 70
     1
102
RTVSPost2010Prop37
 90
       50
102
RTVSPost2010PropOp37
 70
     1
102
RTVSPost2010Prop38
140
0.0
102
RTVSPost2010PropOp38
 70
     1
102
RTVSPost2010Prop39
140
1.0
102
RTVSPost2010PropOp39
 70
     1
102
RTVSPost2010Prop40
 90
        0
102
RTVSPost2010PropOp40
 70
     1
102
RTVSPost2010Prop41ColorIndex
 90
       18
102
RTVSPost2010Prop41ColorRGB
 90
        0
102
RTVSPost2010PropOp41
 70
     1
102
RTVSPost2010Prop42
 90
       50
102
RTVSPost2010PropOp42
 70
     1
102
RTVSPost2010Prop43
 90
        3
102
RTVSPost2010PropOp43
 70
     1
102
RTVSPost2010Prop44ColorIndex
 90
        5
102
RTVSPost2010Prop44ColorRGB
 90
      255
102
RTVSPost2010PropOp44
 70
     1
102
RTVSPost2010Prop45
280
     0
102
RTVSPost2010PropOp45
 70
     1
102
RTVSPost2010Prop46
 90
       50
102
RTVSPost2010PropOp46
 70
     1
102
RTVSPost2010Prop47
 90
       50
102
RTVSPost2010PropOp47
 70
     1
102
RTVSPost2010Prop48
 90
       50
102
RTVSPost2010PropOp48
 70
     1
102
RTVSPost2010Prop49
280
     0
102
RTVSPost2010PropOp49
 70
     1
102
RTVSPost2010Prop50
 90
       50
102
RTVSPost2010PropOp50
 70
     1
102
RTVSPost2010Prop51ColorIndex
 90
      256
102
RTVSPost2010Prop51ColorRGB
 90
-16777216
102
RTVSPost2010PropOp51
 70
     0
102
RTVSPost2010Prop52
140
1.0
102
RTVSPost2010PropOp52
 70
     0
102
RTVSPost2010Prop53
 90
        2
102
RTVSPost2010PropOp53
 70
     1
102
RTVSPost2010Prop54
  1
strokes_ogs.tif
102
RTVSPost2010PropOp54
 70
     1
102
RTVSPost2010Prop55
280
     0
102
RTVSPost2010PropOp55
 70
     1
102
RTVSPost2010Prop56
140
1.0
102
RTVSPost2010PropOp56
 70
     1
102
RTVSPost2010Prop57
140
1.0
102
RTVSPost2010PropOp57
 70
     1
  0
XRECORD
  5
3DE
102
{ACAD_REACTORS
330
3DD
102
}
330
3DD
100
AcDbXrecord
280
     1
102
RTVSPropertyOp0
 70
     1
102
RTVSPropertyOp1
 70
     1
102
RTVSPropertyOp2
 70
     1
102
RTVSPropertyOp3
 70
     1
102
RTVSPropertyOp4
 70
     1
102
RTVSPropertyOp5
 70
     1
102
RTVSPropertyOp6
 70
     1
102
RTVSPropertyOp7
 70
     1
102
RTVSPropertyOp8
 70
     1
102
RTVSPropertyOp9
 70
     1
102
RTVSPropertyOp10
 70
     1
102
RTVSPropertyOp11
 70
     1
102
RTVSPropertyOp12
 70
     1
102
RTVSPropertyOp13
 70
     1
102
RTVSPropertyOp14
 70
     1
102
RTVSPropertyOp15
 70
     1
102
RTVSPropertyOp16
 70
     1
102
RTVSPropertyOp17
 70
     1
102
RTVSPropertyOp18
 70
     1
102
RTVSPropertyOp19
 70
     1
102
RTVSPropertyOp20
 70
     1
102
RTVSPropertyOp21
 70
     1
102
RTVSPropertyOp22
 70
     1
102
RTVSPropertyOp23
 70
     1
102
RTVSPropertyOp24
 70
     1
102
RTVSPropertyOp25
 70
     1
102
RTVSPropertyOp26
 70
     1
102
RTVSPropertyOp27
 70
     1
102
RTVSPropertyOp28
 70
     1
102
RTVSPropertyOp29
 70
     1
102
RTVSPropertyOp30
 70
     1
102
RTVSPropertyOp31
 70
     1
102
RTVSPropertyOp32
 70
     1
102
RTVSPropertyOp33
 70
     1
102
RTVSPropertyOp34
 70
     1
102
RTVSPropertyOp35
 70
     1
102
RTVSPropertyOp36
 70
     1
102
RTVSPropertyOp37
 70
     1
102
RTVSPropertyOp38
 70
     1
102
RTVSPropertyOp39
 70
     1
102
RTVSPropertyOp40
 70
     1
102
RTVSPropertyOp41
 70
     1
102
RTVSPropertyOp42
 70
     1
102
RTVSPropertyOp43
 70
     1
102
RTVSPropertyOp44
 70
     1
102
RTVSPropertyOp45
 70
     1
102
RTVSPropertyOp46
 70
     1
102
RTVSPropertyOp47
 70
     1
102
RTVSPropertyOp48
 70
     1
102
RTVSPropertyOp49
 70
     1
102
RTVSPropertyOp50
 70
     1
102
RTVSPropertyOp51
 70
     0
102
RTVSPropertyOp52
 70
     0
102
RTVSPropertyOp53
 70
     1
102
RTVSPropertyOp54
 70
     1
102
RTVSPropertyOp55
 70
     1
102
RTVSPropertyOp56
 70
     1
102
RTVSPropertyOp57
 70
     1
102
RTVSPost2010Prop28
280
     0
102
RTVSPost2010PropOp28
 70
     1
102
RTVSPost2010Prop29
280
     1
102
RTVSPost2010PropOp29
 70
     1
102
RTVSPost2010Prop30
280
     1
102
RTVSPost2010PropOp30
 70
     1
102
RTVSPost2010Prop31
280
     0
102
RTVSPost2010PropOp31
 70
     1
102
RTVSPost2010Prop32
280
     0
102
RTVSPost2010PropOp32
 70
     1
102
RTVSPost2010Prop33
280
     0
102
RTVSPost2010PropOp33
 70
     1
102
RTVSPost2010Prop34
280
     0
102
RTVSPost2010PropOp34
 70
     1
102
RTVSPost2010Prop35
280
     0
102
RTVSPost2010PropOp35
 70
     1
102
RTVSPost2010Prop36
280
     0
102
RTVSPost2010PropOp36
 70
     1
102
RTVSPost2010Prop37
 90
       50
102
RTVSPost2010PropOp37
 70
     1
102
RTVSPost2010Prop38
140
0.0
102
RTVSPost2010PropOp38
 70
     1
102
RTVSPost2010Prop39
140
1.0
102
RTVSPost2010PropOp39
 70
     1
102
RTVSPost2010Prop40
 90
        0
102
RTVSPost2010PropOp40
 70
     1
102
RTVSPost2010Prop41ColorIndex
 90
       18
102
RTVSPost2010Prop41ColorRGB
 90
        0
102
RTVSPost2010PropOp41
 70
     1
102
RTVSPost2010Prop42
 90
       50
102
RTVSPost2010PropOp42
 70
     1
102
RTVSPost2010Prop43
 90
        3
102
RTVSPost2010PropOp43
 70
     1
102
RTVSPost2010Prop44ColorIndex
 90
        5
102
RTVSPost2010Prop44ColorRGB
 90
      255
102
RTVSPost2010PropOp44
 70
     1
102
RTVSPost2010Prop45
280
     0
102
RTVSPost2010PropOp45
 70
     1
102
RTVSPost2010Prop46
 90
       50
102
RTVSPost2010PropOp46
 70
     1
102
RTVSPost2010Prop47
 90
       50
102
RTVSPost2010PropOp47
 70
     1
102
RTVSPost2010Prop48
 90
       50
102
RTVSPost2010PropOp48
 70
     1
102
RTVSPost2010Prop49
280
     0
102
RTVSPost2010PropOp49
 70
     1
102
RTVSPost2010Prop50
 90
       50
102
RTVSPost2010PropOp50
 70
     1
102
RTVSPost2010Prop51ColorIndex
 90
      256
102
RTVSPost2010Prop51ColorRGB
 90
-16777216
102
RTVSPost2010PropOp51
 70
     0
102
RTVSPost2010Prop52
140
1.0
102
RTVSPost2010PropOp52
 70
     0
102
RTVSPost2010Prop53
 90
        2
102
RTVSPost2010PropOp53
 70
     1
102
RTVSPost2010Prop54
  1
strokes_ogs.tif
102
RTVSPost2010PropOp54
 70
     1
102
RTVSPost2010Prop55
280
     0
102
RTVSPost2010PropOp55
 70
     1
102
RTVSPost2010Prop56
140
1.0
102
RTVSPost2010PropOp56
 70
     1
102
RTVSPost2010Prop57
140
1.0
102
RTVSPost2010PropOp57
 70
     1
  0
XRECORD
  5
3D2
102
{ACAD_REACTORS
330
3D1
102
}
330
3D1
100
AcDbXrecord
280
     1
102
RTVSPropertyOp0
 70
     1
102
RTVSPropertyOp1
 70
     1
102
RTVSPropertyOp2
 70
     1
102
RTVSPropertyOp3
 70
     1
102
RTVSPropertyOp4
 70
     1
102
RTVSPropertyOp5
 70
     1
102
RTVSPropertyOp6
 70
     1
102
RTVSPropertyOp7
 70
     1
102
RTVSPropertyOp8
 70
     1
102
RTVSPropertyOp9
 70
     1
102
RTVSPropertyOp10
 70
     1
102
RTVSPropertyOp11
 70
     1
102
RTVSPropertyOp12
 70
     1
102
RTVSPropertyOp13
 70
     1
102
RTVSPropertyOp14
 70
     1
102
RTVSPropertyOp15
 70
     1
102
RTVSPropertyOp16
 70
     1
102
RTVSPropertyOp17
 70
     1
102
RTVSPropertyOp18
 70
     1
102
RTVSPropertyOp19
 70
     1
102
RTVSPropertyOp20
 70
     1
102
RTVSPropertyOp21
 70
     1
102
RTVSPropertyOp22
 70
     1
102
RTVSPropertyOp23
 70
     1
102
RTVSPropertyOp24
 70
     1
102
RTVSPropertyOp25
 70
     1
102
RTVSPropertyOp26
 70
     1
102
RTVSPropertyOp27
 70
     1
102
RTVSPropertyOp28
 70
     1
102
RTVSPropertyOp29
 70
     1
102
RTVSPropertyOp30
 70
     1
102
RTVSPropertyOp31
 70
     1
102
RTVSPropertyOp32
 70
     1
102
RTVSPropertyOp33
 70
     1
102
RTVSPropertyOp34
 70
     1
102
RTVSPropertyOp35
 70
     1
102
RTVSPropertyOp36
 70
     1
102
RTVSPropertyOp37
 70
     1
102
RTVSPropertyOp38
 70
     1
102
RTVSPropertyOp39
 70
     1
102
RTVSPropertyOp40
 70
     1
102
RTVSPropertyOp41
 70
     1
102
RTVSPropertyOp42
 70
     1
102
RTVSPropertyOp43
 70
     1
102
RTVSPropertyOp44
 70
     1
102
RTVSPropertyOp45
 70
     1
102
RTVSPropertyOp46
 70
     1
102
RTVSPropertyOp47
 70
     1
102
RTVSPropertyOp48
 70
     1
102
RTVSPropertyOp49
 70
     1
102
RTVSPropertyOp50
 70
     1
102
RTVSPropertyOp51
 70
     0
102
RTVSPropertyOp52
 70
     0
102
RTVSPropertyOp53
 70
     1
102
RTVSPropertyOp54
 70
     1
102
RTVSPropertyOp55
 70
     1
102
RTVSPropertyOp56
 70
     1
102
RTVSPropertyOp57
 70
     1
102
RTVSPost2010Prop28
280
     0
102
RTVSPost2010PropOp28
 70
     1
102
RTVSPost2010Prop29
280
     1
102
RTVSPost2010PropOp29
 70
     1
102
RTVSPost2010Prop30
280
     1
102
RTVSPost2010PropOp30
 70
     1
102
RTVSPost2010Prop31
280
     0
102
RTVSPost2010PropOp31
 70
     1
102
RTVSPost2010Prop32
280
     0
102
RTVSPost2010PropOp32
 70
     1
102
RTVSPost2010Prop33
280
     0
102
RTVSPost2010PropOp33
 70
     1
102
RTVSPost2010Prop34
280
     0
102
RTVSPost2010PropOp34
 70
     1
102
RTVSPost2010Prop35
280
     0
102
RTVSPost2010PropOp35
 70
     1
102
RTVSPost2010Prop36
280
     0
102
RTVSPost2010PropOp36
 70
     1
102
RTVSPost2010Prop37
 90
       50
102
RTVSPost2010PropOp37
 70
     1
102
RTVSPost2010Prop38
140
0.0
102
RTVSPost2010PropOp38
 70
     1
102
RTVSPost2010Prop39
140
1.0
102
RTVSPost2010PropOp39
 70
     1
102
RTVSPost2010Prop40
 90
        0
102
RTVSPost2010PropOp40
 70
     1
102
RTVSPost2010Prop41ColorIndex
 90
       18
102
RTVSPost2010Prop41ColorRGB
 90
        0
102
RTVSPost2010PropOp41
 70
     1
102
RTVSPost2010Prop42
 90
       50
102
RTVSPost2010PropOp42
 70
     1
102
RTVSPost2010Prop43
 90
        3
102
RTVSPost2010PropOp43
 70
     1
102
RTVSPost2010Prop44ColorIndex
 90
        5
102
RTVSPost2010Prop44ColorRGB
 90
      255
102
RTVSPost2010PropOp44
 70
     1
102
RTVSPost2010Prop45
280
     0
102
RTVSPost2010PropOp45
 70
     1
102
RTVSPost2010Prop46
 90
       50
102
RTVSPost2010PropOp46
 70
     1
102
RTVSPost2010Prop47
 90
       50
102
RTVSPost2010PropOp47
 70
     1
102
RTVSPost2010Prop48
 90
       50
102
RTVSPost2010PropOp48
 70
     1
102
RTVSPost2010Prop49
280
     0
102
RTVSPost2010PropOp49
 70
     1
102
RTVSPost2010Prop50
 90
       50
102
RTVSPost2010PropOp50
 70
     1
102
RTVSPost2010Prop51ColorIndex
 90
      256
102
RTVSPost2010Prop51ColorRGB
 90
-16777216
102
RTVSPost2010PropOp51
 70
     0
102
RTVSPost2010Prop52
140
1.0
102
RTVSPost2010PropOp52
 70
     0
102
RTVSPost2010Prop53
 90
        2
102
RTVSPost2010PropOp53
 70
     1
102
RTVSPost2010Prop54
  1
strokes_ogs.tif
102
RTVSPost2010PropOp54
 70
     1
102
RTVSPost2010Prop55
280
     0
102
RTVSPost2010PropOp55
 70
     1
102
RTVSPost2010Prop56
140
1.0
102
RTVSPost2010PropOp56
 70
     1
102
RTVSPost2010Prop57
140
1.0
102
RTVSPost2010PropOp57
 70
     1
  0
XRECORD
  5
3D4
102
{ACAD_REACTORS
330
3D3
102
}
330
3D3
100
AcDbXrecord
280
     1
102
RTVSPropertyOp0
 70
     1
102
RTVSPropertyOp1
 70
     1
102
RTVSPropertyOp2
 70
     1
102
RTVSPropertyOp3
 70
     1
102
RTVSPropertyOp4
 70
     1
102
RTVSPropertyOp5
 70
     1
102
RTVSPropertyOp6
 70
     1
102
RTVSPropertyOp7
 70
     1
102
RTVSPropertyOp8
 70
     1
102
RTVSPropertyOp9
 70
     1
102
RTVSPropertyOp10
 70
     1
102
RTVSPropertyOp11
 70
     1
102
RTVSPropertyOp12
 70
     1
102
RTVSPropertyOp13
 70
     1
102
RTVSPropertyOp14
 70
     1
102
RTVSPropertyOp15
 70
     1
102
RTVSPropertyOp16
 70
     1
102
RTVSPropertyOp17
 70
     1
102
RTVSPropertyOp18
 70
     1
102
RTVSPropertyOp19
 70
     1
102
RTVSPropertyOp20
 70
     1
102
RTVSPropertyOp21
 70
     1
102
RTVSPropertyOp22
 70
     1
102
RTVSPropertyOp23
 70
     1
102
RTVSPropertyOp24
 70
     1
102
RTVSPropertyOp25
 70
     1
102
RTVSPropertyOp26
 70
     1
102
RTVSPropertyOp27
 70
     1
102
RTVSPropertyOp28
 70
     1
102
RTVSPropertyOp29
 70
     1
102
RTVSPropertyOp30
 70
     1
102
RTVSPropertyOp31
 70
     1
102
RTVSPropertyOp32
 70
     1
102
RTVSPropertyOp33
 70
     1
102
RTVSPropertyOp34
 70
     1
102
RTVSPropertyOp35
 70
     1
102
RTVSPropertyOp36
 70
     1
102
RTVSPropertyOp37
 70
     1
102
RTVSPropertyOp38
 70
     1
102
RTVSPropertyOp39
 70
     1
102
RTVSPropertyOp40
 70
     1
102
RTVSPropertyOp41
 70
     1
102
RTVSPropertyOp42
 70
     1
102
RTVSPropertyOp43
 70
     1
102
RTVSPropertyOp44
 70
     1
102
RTVSPropertyOp45
 70
     1
102
RTVSPropertyOp46
 70
     1
102
RTVSPropertyOp47
 70
     1
102
RTVSPropertyOp48
 70
     1
102
RTVSPropertyOp49
 70
     1
102
RTVSPropertyOp50
 70
     1
102
RTVSPropertyOp51
 70
     0
102
RTVSPropertyOp52
 70
     0
102
RTVSPropertyOp53
 70
     1
102
RTVSPropertyOp54
 70
     1
102
RTVSPropertyOp55
 70
     1
102
RTVSPropertyOp56
 70
     1
102
RTVSPropertyOp57
 70
     1
102
RTVSPost2010Prop28
280
     0
102
RTVSPost2010PropOp28
 70
     1
102
RTVSPost2010Prop29
280
     1
102
RTVSPost2010PropOp29
 70
     1
102
RTVSPost2010Prop30
280
     1
102
RTVSPost2010PropOp30
 70
     1
102
RTVSPost2010Prop31
280
     0
102
RTVSPost2010PropOp31
 70
     1
102
RTVSPost2010Prop32
280
     0
102
RTVSPost2010PropOp32
 70
     1
102
RTVSPost2010Prop33
280
     0
102
RTVSPost2010PropOp33
 70
     1
102
RTVSPost2010Prop34
280
     0
102
RTVSPost2010PropOp34
 70
     1
102
RTVSPost2010Prop35
280
     0
102
RTVSPost2010PropOp35
 70
     1
102
RTVSPost2010Prop36
280
     0
102
RTVSPost2010PropOp36
 70
     1
102
RTVSPost2010Prop37
 90
       50
102
RTVSPost2010PropOp37
 70
     1
102
RTVSPost2010Prop38
140
0.0
102
RTVSPost2010PropOp38
 70
     1
102
RTVSPost2010Prop39
140
1.0
102
RTVSPost2010PropOp39
 70
     1
102
RTVSPost2010Prop40
 90
        0
102
RTVSPost2010PropOp40
 70
     1
102
RTVSPost2010Prop41ColorIndex
 90
       18
102
RTVSPost2010Prop41ColorRGB
 90
        0
102
RTVSPost2010PropOp41
 70
     1
102
RTVSPost2010Prop42
 90
       50
102
RTVSPost2010PropOp42
 70
     1
102
RTVSPost2010Prop43
 90
        3
102
RTVSPost2010PropOp43
 70
     1
102
RTVSPost2010Prop44ColorIndex
 90
        5
102
RTVSPost2010Prop44ColorRGB
 90
      255
102
RTVSPost2010PropOp44
 70
     1
102
RTVSPost2010Prop45
280
     0
102
RTVSPost2010PropOp45
 70
     1
102
RTVSPost2010Prop46
 90
       50
102
RTVSPost2010PropOp46
 70
     1
102
RTVSPost2010Prop47
 90
       50
102
RTVSPost2010PropOp47
 70
     1
102
RTVSPost2010Prop48
 90
       50
102
RTVSPost2010PropOp48
 70
     1
102
RTVSPost2010Prop49
280
     0
102
RTVSPost2010PropOp49
 70
     1
102
RTVSPost2010Prop50
 90
       50
102
RTVSPost2010PropOp50
 70
     1
102
RTVSPost2010Prop51ColorIndex
 90
      256
102
RTVSPost2010Prop51ColorRGB
 90
-16777216
102
RTVSPost2010PropOp51
 70
     0
102
RTVSPost2010Prop52
140
1.0
102
RTVSPost2010PropOp52
 70
     0
102
RTVSPost2010Prop53
 90
        2
102
RTVSPost2010PropOp53
 70
     1
102
RTVSPost2010Prop54
  1
strokes_ogs.tif
102
RTVSPost2010PropOp54
 70
     1
102
RTVSPost2010Prop55
280
     0
102
RTVSPost2010PropOp55
 70
     1
102
RTVSPost2010Prop56
140
1.0
102
RTVSPost2010PropOp56
 70
     1
102
RTVSPost2010Prop57
140
1.0
102
RTVSPost2010PropOp57
 70
     1
  0
XRECORD
  5
3E4
102
{ACAD_REACTORS
330
3E3
102
}
330
3E3
100
AcDbXrecord
280
     1
102
RTVSPropertyOp0
 70
     0
102
RTVSPropertyOp1
 70
     0
102
RTVSPropertyOp2
 70
     0
102
RTVSPropertyOp3
 70
     0
102
RTVSPropertyOp4
 70
     0
102
RTVSPropertyOp5
 70
     0
102
RTVSPropertyOp6
 70
     0
102
RTVSPropertyOp7
 70
     0
102
RTVSPropertyOp8
 70
     0
102
RTVSPropertyOp9
 70
     0
102
RTVSPropertyOp10
 70
     0
102
RTVSPropertyOp11
 70
     0
102
RTVSPropertyOp12
 70
     0
102
RTVSPropertyOp13
 70
     0
102
RTVSPropertyOp14
 70
     2
102
RTVSPropertyOp15
 70
     0
102
RTVSPropertyOp16
 70
     0
102
RTVSPropertyOp17
 70
     0
102
RTVSPropertyOp18
 70
     0
102
RTVSPropertyOp19
 70
     0
102
RTVSPropertyOp20
 70
     0
102
RTVSPropertyOp21
 70
     0
102
RTVSPropertyOp22
 70
     0
102
RTVSPropertyOp23
 70
     0
102
RTVSPropertyOp24
 70
     0
102
RTVSPropertyOp25
 70
     0
102
RTVSPropertyOp26
 70
     0
102
RTVSPropertyOp27
 70
     0
102
RTVSPropertyOp28
 70
     0
102
RTVSPropertyOp29
 70
     0
102
RTVSPropertyOp30
 70
     0
102
RTVSPropertyOp31
 70
     0
102
RTVSPropertyOp32
 70
     0
102
RTVSPropertyOp33
 70
     0
102
RTVSPropertyOp34
 70
     0
102
RTVSPropertyOp35
 70
     0
102
RTVSPropertyOp36
 70
     0
102
RTVSPropertyOp37
 70
     0
102
RTVSPropertyOp38
 70
     0
102
RTVSPropertyOp39
 70
     0
102
RTVSPropertyOp40
 70
     0
102
RTVSPropertyOp41
 70
     0
102
RTVSPropertyOp42
 70
     0
102
RTVSPropertyOp43
 70
     0
102
RTVSPropertyOp44
 70
     0
102
RTVSPropertyOp45
 70
     0
102
RTVSPropertyOp46
 70
     0
102
RTVSPropertyOp47
 70
     0
102
RTVSPropertyOp48
 70
     0
102
RTVSPropertyOp49
 70
     0
102
RTVSPropertyOp50
 70
     0
102
RTVSPropertyOp51
 70
     0
102
RTVSPropertyOp52
 70
     0
102
RTVSPropertyOp53
 70
     0
102
RTVSPropertyOp54
 70
     0
102
RTVSPropertyOp55
 70
     0
102
RTVSPropertyOp56
 70
     0
102
RTVSPropertyOp57
 70
     0
102
RTVSPost2010Prop28
280
     0
102
RTVSPost2010PropOp28
 70
     0
102
RTVSPost2010Prop29
280
     1
102
RTVSPost2010PropOp29
 70
     0
102
RTVSPost2010Prop30
280
     1
102
RTVSPost2010PropOp30
 70
     0
102
RTVSPost2010Prop31
280
     0
102
RTVSPost2010PropOp31
 70
     0
102
RTVSPost2010Prop32
280
     0
102
RTVSPost2010PropOp32
 70
     0
102
RTVSPost2010Prop33
280
     0
102
RTVSPost2010PropOp33
 70
     0
102
RTVSPost2010Prop34
280
     0
102
RTVSPost2010PropOp34
 70
     0
102
RTVSPost2010Prop35
280
     0
102
RTVSPost2010PropOp35
 70
     0
102
RTVSPost2010Prop36
280
     0
102
RTVSPost2010PropOp36
 70
     0
102
RTVSPost2010Prop37
 90
       50
102
RTVSPost2010PropOp37
 70
     0
102
RTVSPost2010Prop38
140
0.0
102
RTVSPost2010PropOp38
 70
     0
102
RTVSPost2010Prop39
140
1.0
102
RTVSPost2010PropOp39
 70
     0
102
RTVSPost2010Prop40
 90
        0
102
RTVSPost2010PropOp40
 70
     0
102
RTVSPost2010Prop41ColorIndex
 90
       18
102
RTVSPost2010Prop41ColorRGB
 90
        0
102
RTVSPost2010PropOp41
 70
     0
102
RTVSPost2010Prop42
 90
       50
102
RTVSPost2010PropOp42
 70
     0
102
RTVSPost2010Prop43
 90
        3
102
RTVSPost2010PropOp43
 70
     0
102
RTVSPost2010Prop44ColorIndex
 90
        5
102
RTVSPost2010Prop44ColorRGB
 90
      255
102
RTVSPost2010PropOp44
 70
     0
102
RTVSPost2010Prop45
280
     0
102
RTVSPost2010PropOp45
 70
     0
102
RTVSPost2010Prop46
 90
       50
102
RTVSPost2010PropOp46
 70
     0
102
RTVSPost2010Prop47
 90
       50
102
RTVSPost2010PropOp47
 70
     0
102
RTVSPost2010Prop48
 90
       50
102
RTVSPost2010PropOp48
 70
     0
102
RTVSPost2010Prop49
280
     0
102
RTVSPost2010PropOp49
 70
     0
102
RTVSPost2010Prop50
 90
       50
102
RTVSPost2010PropOp50
 70
     0
102
RTVSPost2010Prop51ColorIndex
 90
      256
102
RTVSPost2010Prop51ColorRGB
 90
-16777216
102
RTVSPost2010PropOp51
 70
     0
102
RTVSPost2010Prop52
140
1.0
102
RTVSPost2010PropOp52
 70
     0
102
RTVSPost2010Prop53
 90
        2
102
RTVSPost2010PropOp53
 70
     0
102
RTVSPost2010Prop54
  1
strokes_ogs.tif
102
RTVSPost2010PropOp54
 70
     0
102
RTVSPost2010Prop55
280
     0
102
RTVSPost2010PropOp55
 70
     0
102
RTVSPost2010Prop56
140
1.0
102
RTVSPost2010PropOp56
 70
     0
102
RTVSPost2010Prop57
140
1.0
102
RTVSPost2010PropOp57
 70
     0
  0
XRECORD
  5
3DC
102
{ACAD_REACTORS
330
3DB
102
}
330
3DB
100
AcDbXrecord
280
     1
102
RTVSPropertyOp0
 70
     1
102
RTVSPropertyOp1
 70
     1
102
RTVSPropertyOp2
 70
     1
102
RTVSPropertyOp3
 70
     1
102
RTVSPropertyOp4
 70
     1
102
RTVSPropertyOp5
 70
     1
102
RTVSPropertyOp6
 70
     1
102
RTVSPropertyOp7
 70
     1
102
RTVSPropertyOp8
 70
     1
102
RTVSPropertyOp9
 70
     1
102
RTVSPropertyOp10
 70
     1
102
RTVSPropertyOp11
 70
     1
102
RTVSPropertyOp12
 70
     1
102
RTVSPropertyOp13
 70
     1
102
RTVSPropertyOp14
 70
     1
102
RTVSPropertyOp15
 70
     1
102
RTVSPropertyOp16
 70
     1
102
RTVSPropertyOp17
 70
     1
102
RTVSPropertyOp18
 70
     1
102
RTVSPropertyOp19
 70
     1
102
RTVSPropertyOp20
 70
     1
102
RTVSPropertyOp21
 70
     1
102
RTVSPropertyOp22
 70
     1
102
RTVSPropertyOp23
 70
     1
102
RTVSPropertyOp24
 70
     1
102
RTVSPropertyOp25
 70
     1
102
RTVSPropertyOp26
 70
     1
102
RTVSPropertyOp27
 70
     1
102
RTVSPropertyOp28
 70
     1
102
RTVSPropertyOp29
 70
     1
102
RTVSPropertyOp30
 70
     1
102
RTVSPropertyOp31
 70
     1
102
RTVSPropertyOp32
 70
     1
102
RTVSPropertyOp33
 70
     1
102
RTVSPropertyOp34
 70
     1
102
RTVSPropertyOp35
 70
     1
102
RTVSPropertyOp36
 70
     1
102
RTVSPropertyOp37
 70
     1
102
RTVSPropertyOp38
 70
     1
102
RTVSPropertyOp39
 70
     1
102
RTVSPropertyOp40
 70
     1
102
RTVSPropertyOp41
 70
     1
102
RTVSPropertyOp42
 70
     1
102
RTVSPropertyOp43
 70
     1
102
RTVSPropertyOp44
 70
     1
102
RTVSPropertyOp45
 70
     1
102
RTVSPropertyOp46
 70
     1
102
RTVSPropertyOp47
 70
     1
102
RTVSPropertyOp48
 70
     1
102
RTVSPropertyOp49
 70
     1
102
RTVSPropertyOp50
 70
     1
102
RTVSPropertyOp51
 70
     0
102
RTVSPropertyOp52
 70
     0
102
RTVSPropertyOp53
 70
     1
102
RTVSPropertyOp54
 70
     1
102
RTVSPropertyOp55
 70
     1
102
RTVSPropertyOp56
 70
     1
102
RTVSPropertyOp57
 70
     1
102
RTVSPost2010Prop28
280
     0
102
RTVSPost2010PropOp28
 70
     1
102
RTVSPost2010Prop29
280
     1
102
RTVSPost2010PropOp29
 70
     1
102
RTVSPost2010Prop30
280
     1
102
RTVSPost2010PropOp30
 70
     1
102
RTVSPost2010Prop31
280
     0
102
RTVSPost2010PropOp31
 70
     1
102
RTVSPost2010Prop32
280
     0
102
RTVSPost2010PropOp32
 70
     1
102
RTVSPost2010Prop33
280
     0
102
RTVSPost2010PropOp33
 70
     1
102
RTVSPost2010Prop34
280
     0
102
RTVSPost2010PropOp34
 70
     1
102
RTVSPost2010Prop35
280
     0
102
RTVSPost2010PropOp35
 70
     1
102
RTVSPost2010Prop36
280
     0
102
RTVSPost2010PropOp36
 70
     1
102
RTVSPost2010Prop37
 90
       50
102
RTVSPost2010PropOp37
 70
     1
102
RTVSPost2010Prop38
140
0.0
102
RTVSPost2010PropOp38
 70
     1
102
RTVSPost2010Prop39
140
1.0
102
RTVSPost2010PropOp39
 70
     1
102
RTVSPost2010Prop40
 90
        0
102
RTVSPost2010PropOp40
 70
     1
102
RTVSPost2010Prop41ColorIndex
 90
       18
102
RTVSPost2010Prop41ColorRGB
 90
        0
102
RTVSPost2010PropOp41
 70
     1
102
RTVSPost2010Prop42
 90
       50
102
RTVSPost2010PropOp42
 70
     1
102
RTVSPost2010Prop43
 90
        3
102
RTVSPost2010PropOp43
 70
     1
102
RTVSPost2010Prop44ColorIndex
 90
        5
102
RTVSPost2010Prop44ColorRGB
 90
      255
102
RTVSPost2010PropOp44
 70
     1
102
RTVSPost2010Prop45
280
     0
102
RTVSPost2010PropOp45
 70
     1
102
RTVSPost2010Prop46
 90
       50
102
RTVSPost2010PropOp46
 70
     1
102
RTVSPost2010Prop47
 90
       50
102
RTVSPost2010PropOp47
 70
     1
102
RTVSPost2010Prop48
 90
       50
102
RTVSPost2010PropOp48
 70
     1
102
RTVSPost2010Prop49
280
     0
102
RTVSPost2010PropOp49
 70
     1
102
RTVSPost2010Prop50
 90
       50
102
RTVSPost2010PropOp50
 70
     1
102
RTVSPost2010Prop51ColorIndex
 90
      256
102
RTVSPost2010Prop51ColorRGB
 90
-16777216
102
RTVSPost2010PropOp51
 70
     0
102
RTVSPost2010Prop52
140
1.0
102
RTVSPost2010PropOp52
 70
     0
102
RTVSPost2010Prop53
 90
        2
102
RTVSPost2010PropOp53
 70
     1
102
RTVSPost2010Prop54
  1
strokes_ogs.tif
102
RTVSPost2010PropOp54
 70
     1
102
RTVSPost2010Prop55
280
     0
102
RTVSPost2010PropOp55
 70
     1
102
RTVSPost2010Prop56
140
1.0
102
RTVSPost2010PropOp56
 70
     1
102
RTVSPost2010Prop57
140
1.0
102
RTVSPost2010PropOp57
 70
     1
  0
XRECORD
  5
3C0
102
{ACAD_REACTORS
330
3BF
102
}
330
3BF
100
AcDbXrecord
280
     1
102
RTVSPropertyOp0
 70
     1
102
RTVSPropertyOp1
 70
     1
102
RTVSPropertyOp2
 70
     1
102
RTVSPropertyOp3
 70
     1
102
RTVSPropertyOp4
 70
     1
102
RTVSPropertyOp5
 70
     1
102
RTVSPropertyOp6
 70
     1
102
RTVSPropertyOp7
 70
     1
102
RTVSPropertyOp8
 70
     1
102
RTVSPropertyOp9
 70
     1
102
RTVSPropertyOp10
 70
     1
102
RTVSPropertyOp11
 70
     1
102
RTVSPropertyOp12
 70
     1
102
RTVSPropertyOp13
 70
     1
102
RTVSPropertyOp14
 70
     1
102
RTVSPropertyOp15
 70
     1
102
RTVSPropertyOp16
 70
     1
102
RTVSPropertyOp17
 70
     1
102
RTVSPropertyOp18
 70
     1
102
RTVSPropertyOp19
 70
     1
102
RTVSPropertyOp20
 70
     1
102
RTVSPropertyOp21
 70
     1
102
RTVSPropertyOp22
 70
     1
102
RTVSPropertyOp23
 70
     1
102
RTVSPropertyOp24
 70
     1
102
RTVSPropertyOp25
 70
     1
102
RTVSPropertyOp26
 70
     1
102
RTVSPropertyOp27
 70
     1
102
RTVSPropertyOp28
 70
     1
102
RTVSPropertyOp29
 70
     1
102
RTVSPropertyOp30
 70
     1
102
RTVSPropertyOp31
 70
     1
102
RTVSPropertyOp32
 70
     1
102
RTVSPropertyOp33
 70
     1
102
RTVSPropertyOp34
 70
     1
102
RTVSPropertyOp35
 70
     1
102
RTVSPropertyOp36
 70
     1
102
RTVSPropertyOp37
 70
     1
102
RTVSPropertyOp38
 70
     1
102
RTVSPropertyOp39
 70
     1
102
RTVSPropertyOp40
 70
     1
102
RTVSPropertyOp41
 70
     1
102
RTVSPropertyOp42
 70
     1
102
RTVSPropertyOp43
 70
     1
102
RTVSPropertyOp44
 70
     1
102
RTVSPropertyOp45
 70
     1
102
RTVSPropertyOp46
 70
     1
102
RTVSPropertyOp47
 70
     1
102
RTVSPropertyOp48
 70
     1
102
RTVSPropertyOp49
 70
     1
102
RTVSPropertyOp50
 70
     1
102
RTVSPropertyOp51
 70
     0
102
RTVSPropertyOp52
 70
     0
102
RTVSPropertyOp53
 70
     1
102
RTVSPropertyOp54
 70
     1
102
RTVSPropertyOp55
 70
     1
102
RTVSPropertyOp56
 70
     1
102
RTVSPropertyOp57
 70
     1
102
RTVSPost2010Prop28
280
     0
102
RTVSPost2010PropOp28
 70
     1
102
RTVSPost2010Prop29
280
     1
102
RTVSPost2010PropOp29
 70
     1
102
RTVSPost2010Prop30
280
     1
102
RTVSPost2010PropOp30
 70
     1
102
RTVSPost2010Prop31
280
     0
102
RTVSPost2010PropOp31
 70
     1
102
RTVSPost2010Prop32
280
     0
102
RTVSPost2010PropOp32
 70
     1
102
RTVSPost2010Prop33
280
     0
102
RTVSPost2010PropOp33
 70
     1
102
RTVSPost2010Prop34
280
     0
102
RTVSPost2010PropOp34
 70
     1
102
RTVSPost2010Prop35
280
     0
102
RTVSPost2010PropOp35
 70
     1
102
RTVSPost2010Prop36
280
     0
102
RTVSPost2010PropOp36
 70
     1
102
RTVSPost2010Prop37
 90
       50
102
RTVSPost2010PropOp37
 70
     1
102
RTVSPost2010Prop38
140
0.0
102
RTVSPost2010PropOp38
 70
     1
102
RTVSPost2010Prop39
140
1.0
102
RTVSPost2010PropOp39
 70
     1
102
RTVSPost2010Prop40
 90
        0
102
RTVSPost2010PropOp40
 70
     1
102
RTVSPost2010Prop41ColorIndex
 90
       18
102
RTVSPost2010Prop41ColorRGB
 90
        0
102
RTVSPost2010PropOp41
 70
     1
102
RTVSPost2010Prop42
 90
       50
102
RTVSPost2010PropOp42
 70
     1
102
RTVSPost2010Prop43
 90
        3
102
RTVSPost2010PropOp43
 70
     1
102
RTVSPost2010Prop44ColorIndex
 90
        5
102
RTVSPost2010Prop44ColorRGB
 90
      255
102
RTVSPost2010PropOp44
 70
     1
102
RTVSPost2010Prop45
280
     0
102
RTVSPost2010PropOp45
 70
     1
102
RTVSPost2010Prop46
 90
       50
102
RTVSPost2010PropOp46
 70
     1
102
RTVSPost2010Prop47
 90
       50
102
RTVSPost2010PropOp47
 70
     1
102
RTVSPost2010Prop48
 90
       50
102
RTVSPost2010PropOp48
 70
     1
102
RTVSPost2010Prop49
280
     0
102
RTVSPost2010PropOp49
 70
     1
102
RTVSPost2010Prop50
 90
       50
102
RTVSPost2010PropOp50
 70
     1
102
RTVSPost2010Prop51ColorIndex
 90
      256
102
RTVSPost2010Prop51ColorRGB
 90
-16777216
102
RTVSPost2010PropOp51
 70
     0
102
RTVSPost2010Prop52
140
1.0
102
RTVSPost2010PropOp52
 70
     0
102
RTVSPost2010Prop53
 90
        2
102
RTVSPost2010PropOp53
 70
     1
102
RTVSPost2010Prop54
  1
strokes_ogs.tif
102
RTVSPost2010PropOp54
 70
     1
102
RTVSPost2010Prop55
280
     0
102
RTVSPost2010PropOp55
 70
     1
102
RTVSPost2010Prop56
140
1.0
102
RTVSPost2010PropOp56
 70
     1
102
RTVSPost2010Prop57
140
1.0
102
RTVSPost2010PropOp57
 70
     1
  0
XRECORD
  5
3C2
102
{ACAD_REACTORS
330
3C1
102
}
330
3C1
100
AcDbXrecord
280
     1
102
RTVSPropertyOp0
 70
     1
102
RTVSPropertyOp1
 70
     1
102
RTVSPropertyOp2
 70
     1
102
RTVSPropertyOp3
 70
     1
102
RTVSPropertyOp4
 70
     1
102
RTVSPropertyOp5
 70
     1
102
RTVSPropertyOp6
 70
     1
102
RTVSPropertyOp7
 70
     1
102
RTVSPropertyOp8
 70
     1
102
RTVSPropertyOp9
 70
     1
102
RTVSPropertyOp10
 70
     1
102
RTVSPropertyOp11
 70
     1
102
RTVSPropertyOp12
 70
     1
102
RTVSPropertyOp13
 70
     1
102
RTVSPropertyOp14
 70
     1
102
RTVSPropertyOp15
 70
     1
102
RTVSPropertyOp16
 70
     1
102
RTVSPropertyOp17
 70
     1
102
RTVSPropertyOp18
 70
     1
102
RTVSPropertyOp19
 70
     1
102
RTVSPropertyOp20
 70
     1
102
RTVSPropertyOp21
 70
     1
102
RTVSPropertyOp22
 70
     1
102
RTVSPropertyOp23
 70
     1
102
RTVSPropertyOp24
 70
     1
102
RTVSPropertyOp25
 70
     1
102
RTVSPropertyOp26
 70
     1
102
RTVSPropertyOp27
 70
     1
102
RTVSPropertyOp28
 70
     1
102
RTVSPropertyOp29
 70
     1
102
RTVSPropertyOp30
 70
     1
102
RTVSPropertyOp31
 70
     1
102
RTVSPropertyOp32
 70
     1
102
RTVSPropertyOp33
 70
     1
102
RTVSPropertyOp34
 70
     1
102
RTVSPropertyOp35
 70
     1
102
RTVSPropertyOp36
 70
     1
102
RTVSPropertyOp37
 70
     1
102
RTVSPropertyOp38
 70
     1
102
RTVSPropertyOp39
 70
     1
102
RTVSPropertyOp40
 70
     1
102
RTVSPropertyOp41
 70
     1
102
RTVSPropertyOp42
 70
     1
102
RTVSPropertyOp43
 70
     1
102
RTVSPropertyOp44
 70
     1
102
RTVSPropertyOp45
 70
     1
102
RTVSPropertyOp46
 70
     1
102
RTVSPropertyOp47
 70
     1
102
RTVSPropertyOp48
 70
     1
102
RTVSPropertyOp49
 70
     1
102
RTVSPropertyOp50
 70
     1
102
RTVSPropertyOp51
 70
     0
102
RTVSPropertyOp52
 70
     0
102
RTVSPropertyOp53
 70
     1
102
RTVSPropertyOp54
 70
     1
102
RTVSPropertyOp55
 70
     1
102
RTVSPropertyOp56
 70
     1
102
RTVSPropertyOp57
 70
     1
102
RTVSPost2010Prop28
280
     0
102
RTVSPost2010PropOp28
 70
     1
102
RTVSPost2010Prop29
280
     1
102
RTVSPost2010PropOp29
 70
     1
102
RTVSPost2010Prop30
280
     1
102
RTVSPost2010PropOp30
 70
     1
102
RTVSPost2010Prop31
280
     0
102
RTVSPost2010PropOp31
 70
     1
102
RTVSPost2010Prop32
280
     0
102
RTVSPost2010PropOp32
 70
     1
102
RTVSPost2010Prop33
280
     0
102
RTVSPost2010PropOp33
 70
     1
102
RTVSPost2010Prop34
280
     0
102
RTVSPost2010PropOp34
 70
     1
102
RTVSPost2010Prop35
280
     0
102
RTVSPost2010PropOp35
 70
     1
102
RTVSPost2010Prop36
280
     0
102
RTVSPost2010PropOp36
 70
     1
102
RTVSPost2010Prop37
 90
       50
102
RTVSPost2010PropOp37
 70
     1
102
RTVSPost2010Prop38
140
0.0
102
RTVSPost2010PropOp38
 70
     1
102
RTVSPost2010Prop39
140
1.0
102
RTVSPost2010PropOp39
 70
     1
102
RTVSPost2010Prop40
 90
        0
102
RTVSPost2010PropOp40
 70
     1
102
RTVSPost2010Prop41ColorIndex
 90
       18
102
RTVSPost2010Prop41ColorRGB
 90
        0
102
RTVSPost2010PropOp41
 70
     1
102
RTVSPost2010Prop42
 90
       50
102
RTVSPost2010PropOp42
 70
     1
102
RTVSPost2010Prop43
 90
        3
102
RTVSPost2010PropOp43
 70
     1
102
RTVSPost2010Prop44ColorIndex
 90
        5
102
RTVSPost2010Prop44ColorRGB
 90
      255
102
RTVSPost2010PropOp44
 70
     1
102
RTVSPost2010Prop45
280
     0
102
RTVSPost2010PropOp45
 70
     1
102
RTVSPost2010Prop46
 90
       50
102
RTVSPost2010PropOp46
 70
     1
102
RTVSPost2010Prop47
 90
       50
102
RTVSPost2010PropOp47
 70
     1
102
RTVSPost2010Prop48
 90
       50
102
RTVSPost2010PropOp48
 70
     1
102
RTVSPost2010Prop49
280
     0
102
RTVSPost2010PropOp49
 70
     1
102
RTVSPost2010Prop50
 90
       50
102
RTVSPost2010PropOp50
 70
     1
102
RTVSPost2010Prop51ColorIndex
 90
      256
102
RTVSPost2010Prop51ColorRGB
 90
-16777216
102
RTVSPost2010PropOp51
 70
     0
102
RTVSPost2010Prop52
140
1.0
102
RTVSPost2010PropOp52
 70
     0
102
RTVSPost2010Prop53
 90
        2
102
RTVSPost2010PropOp53
 70
     1
102
RTVSPost2010Prop54
  1
strokes_ogs.tif
102
RTVSPost2010PropOp54
 70
     1
102
RTVSPost2010Prop55
280
     0
102
RTVSPost2010PropOp55
 70
     1
102
RTVSPost2010Prop56
140
1.0
102
RTVSPost2010PropOp56
 70
     1
102
RTVSPost2010Prop57
140
1.0
102
RTVSPost2010PropOp57
 70
     1
  0
XRECORD
  5
3C4
102
{ACAD_REACTORS
330
3C3
102
}
330
3C3
100
AcDbXrecord
280
     1
102
RTVSPropertyOp0
 70
     1
102
RTVSPropertyOp1
 70
     1
102
RTVSPropertyOp2
 70
     1
102
RTVSPropertyOp3
 70
     1
102
RTVSPropertyOp4
 70
     1
102
RTVSPropertyOp5
 70
     1
102
RTVSPropertyOp6
 70
     1
102
RTVSPropertyOp7
 70
     1
102
RTVSPropertyOp8
 70
     1
102
RTVSPropertyOp9
 70
     1
102
RTVSPropertyOp10
 70
     1
102
RTVSPropertyOp11
 70
     1
102
RTVSPropertyOp12
 70
     1
102
RTVSPropertyOp13
 70
     1
102
RTVSPropertyOp14
 70
     1
102
RTVSPropertyOp15
 70
     1
102
RTVSPropertyOp16
 70
     1
102
RTVSPropertyOp17
 70
     1
102
RTVSPropertyOp18
 70
     1
102
RTVSPropertyOp19
 70
     1
102
RTVSPropertyOp20
 70
     1
102
RTVSPropertyOp21
 70
     1
102
RTVSPropertyOp22
 70
     1
102
RTVSPropertyOp23
 70
     1
102
RTVSPropertyOp24
 70
     1
102
RTVSPropertyOp25
 70
     1
102
RTVSPropertyOp26
 70
     1
102
RTVSPropertyOp27
 70
     1
102
RTVSPropertyOp28
 70
     1
102
RTVSPropertyOp29
 70
     1
102
RTVSPropertyOp30
 70
     1
102
RTVSPropertyOp31
 70
     1
102
RTVSPropertyOp32
 70
     1
102
RTVSPropertyOp33
 70
     1
102
RTVSPropertyOp34
 70
     1
102
RTVSPropertyOp35
 70
     1
102
RTVSPropertyOp36
 70
     1
102
RTVSPropertyOp37
 70
     1
102
RTVSPropertyOp38
 70
     1
102
RTVSPropertyOp39
 70
     1
102
RTVSPropertyOp40
 70
     1
102
RTVSPropertyOp41
 70
     1
102
RTVSPropertyOp42
 70
     1
102
RTVSPropertyOp43
 70
     1
102
RTVSPropertyOp44
 70
     1
102
RTVSPropertyOp45
 70
     1
102
RTVSPropertyOp46
 70
     1
102
RTVSPropertyOp47
 70
     1
102
RTVSPropertyOp48
 70
     1
102
RTVSPropertyOp49
 70
     1
102
RTVSPropertyOp50
 70
     1
102
RTVSPropertyOp51
 70
     0
102
RTVSPropertyOp52
 70
     0
102
RTVSPropertyOp53
 70
     1
102
RTVSPropertyOp54
 70
     1
102
RTVSPropertyOp55
 70
     1
102
RTVSPropertyOp56
 70
     1
102
RTVSPropertyOp57
 70
     1
102
RTVSPost2010Prop28
280
     0
102
RTVSPost2010PropOp28
 70
     1
102
RTVSPost2010Prop29
280
     1
102
RTVSPost2010PropOp29
 70
     1
102
RTVSPost2010Prop30
280
     1
102
RTVSPost2010PropOp30
 70
     1
102
RTVSPost2010Prop31
280
     0
102
RTVSPost2010PropOp31
 70
     1
102
RTVSPost2010Prop32
280
     0
102
RTVSPost2010PropOp32
 70
     1
102
RTVSPost2010Prop33
280
     0
102
RTVSPost2010PropOp33
 70
     1
102
RTVSPost2010Prop34
280
     0
102
RTVSPost2010PropOp34
 70
     1
102
RTVSPost2010Prop35
280
     0
102
RTVSPost2010PropOp35
 70
     1
102
RTVSPost2010Prop36
280
     0
102
RTVSPost2010PropOp36
 70
     1
102
RTVSPost2010Prop37
 90
       50
102
RTVSPost2010PropOp37
 70
     1
102
RTVSPost2010Prop38
140
0.0
102
RTVSPost2010PropOp38
 70
     1
102
RTVSPost2010Prop39
140
1.0
102
RTVSPost2010PropOp39
 70
     1
102
RTVSPost2010Prop40
 90
        0
102
RTVSPost2010PropOp40
 70
     1
102
RTVSPost2010Prop41ColorIndex
 90
       18
102
RTVSPost2010Prop41ColorRGB
 90
        0
102
RTVSPost2010PropOp41
 70
     1
102
RTVSPost2010Prop42
 90
       50
102
RTVSPost2010PropOp42
 70
     1
102
RTVSPost2010Prop43
 90
        3
102
RTVSPost2010PropOp43
 70
     1
102
RTVSPost2010Prop44ColorIndex
 90
        5
102
RTVSPost2010Prop44ColorRGB
 90
      255
102
RTVSPost2010PropOp44
 70
     1
102
RTVSPost2010Prop45
280
     0
102
RTVSPost2010PropOp45
 70
     1
102
RTVSPost2010Prop46
 90
       50
102
RTVSPost2010PropOp46
 70
     1
102
RTVSPost2010Prop47
 90
       50
102
RTVSPost2010PropOp47
 70
     1
102
RTVSPost2010Prop48
 90
       50
102
RTVSPost2010PropOp48
 70
     1
102
RTVSPost2010Prop49
280
     0
102
RTVSPost2010PropOp49
 70
     1
102
RTVSPost2010Prop50
 90
       50
102
RTVSPost2010PropOp50
 70
     1
102
RTVSPost2010Prop51ColorIndex
 90
      256
102
RTVSPost2010Prop51ColorRGB
 90
-16777216
102
RTVSPost2010PropOp51
 70
     0
102
RTVSPost2010Prop52
140
1.0
102
RTVSPost2010PropOp52
 70
     0
102
RTVSPost2010Prop53
 90
        2
102
RTVSPost2010PropOp53
 70
     1
102
RTVSPost2010Prop54
  1
strokes_ogs.tif
102
RTVSPost2010PropOp54
 70
     1
102
RTVSPost2010Prop55
280
     0
102
RTVSPost2010PropOp55
 70
     1
102
RTVSPost2010Prop56
140
1.0
102
RTVSPost2010PropOp56
 70
     1
102
RTVSPost2010Prop57
140
1.0
102
RTVSPost2010PropOp57
 70
     1
  0
XRECORD
  5
3C6
102
{ACAD_REACTORS
330
3C5
102
}
330
3C5
100
AcDbXrecord
280
     1
102
RTVSPropertyOp0
 70
     1
102
RTVSPropertyOp1
 70
     1
102
RTVSPropertyOp2
 70
     1
102
RTVSPropertyOp3
 70
     1
102
RTVSPropertyOp4
 70
     1
102
RTVSPropertyOp5
 70
     1
102
RTVSPropertyOp6
 70
     1
102
RTVSPropertyOp7
 70
     1
102
RTVSPropertyOp8
 70
     1
102
RTVSPropertyOp9
 70
     1
102
RTVSPropertyOp10
 70
     1
102
RTVSPropertyOp11
 70
     1
102
RTVSPropertyOp12
 70
     1
102
RTVSPropertyOp13
 70
     1
102
RTVSPropertyOp14
 70
     1
102
RTVSPropertyOp15
 70
     1
102
RTVSPropertyOp16
 70
     1
102
RTVSPropertyOp17
 70
     1
102
RTVSPropertyOp18
 70
     1
102
RTVSPropertyOp19
 70
     1
102
RTVSPropertyOp20
 70
     1
102
RTVSPropertyOp21
 70
     1
102
RTVSPropertyOp22
 70
     1
102
RTVSPropertyOp23
 70
     1
102
RTVSPropertyOp24
 70
     1
102
RTVSPropertyOp25
 70
     1
102
RTVSPropertyOp26
 70
     1
102
RTVSPropertyOp27
 70
     1
102
RTVSPropertyOp28
 70
     1
102
RTVSPropertyOp29
 70
     1
102
RTVSPropertyOp30
 70
     1
102
RTVSPropertyOp31
 70
     1
102
RTVSPropertyOp32
 70
     1
102
RTVSPropertyOp33
 70
     1
102
RTVSPropertyOp34
 70
     1
102
RTVSPropertyOp35
 70
     1
102
RTVSPropertyOp36
 70
     1
102
RTVSPropertyOp37
 70
     1
102
RTVSPropertyOp38
 70
     1
102
RTVSPropertyOp39
 70
     1
102
RTVSPropertyOp40
 70
     1
102
RTVSPropertyOp41
 70
     1
102
RTVSPropertyOp42
 70
     1
102
RTVSPropertyOp43
 70
     1
102
RTVSPropertyOp44
 70
     1
102
RTVSPropertyOp45
 70
     1
102
RTVSPropertyOp46
 70
     1
102
RTVSPropertyOp47
 70
     1
102
RTVSPropertyOp48
 70
     1
102
RTVSPropertyOp49
 70
     1
102
RTVSPropertyOp50
 70
     1
102
RTVSPropertyOp51
 70
     0
102
RTVSPropertyOp52
 70
     0
102
RTVSPropertyOp53
 70
     1
102
RTVSPropertyOp54
 70
     1
102
RTVSPropertyOp55
 70
     1
102
RTVSPropertyOp56
 70
     1
102
RTVSPropertyOp57
 70
     1
102
RTVSPost2010Prop28
280
     0
102
RTVSPost2010PropOp28
 70
     1
102
RTVSPost2010Prop29
280
     1
102
RTVSPost2010PropOp29
 70
     1
102
RTVSPost2010Prop30
280
     1
102
RTVSPost2010PropOp30
 70
     1
102
RTVSPost2010Prop31
280
     0
102
RTVSPost2010PropOp31
 70
     1
102
RTVSPost2010Prop32
280
     0
102
RTVSPost2010PropOp32
 70
     1
102
RTVSPost2010Prop33
280
     0
102
RTVSPost2010PropOp33
 70
     1
102
RTVSPost2010Prop34
280
     0
102
RTVSPost2010PropOp34
 70
     1
102
RTVSPost2010Prop35
280
     0
102
RTVSPost2010PropOp35
 70
     1
102
RTVSPost2010Prop36
280
     0
102
RTVSPost2010PropOp36
 70
     1
102
RTVSPost2010Prop37
 90
       50
102
RTVSPost2010PropOp37
 70
     1
102
RTVSPost2010Prop38
140
0.0
102
RTVSPost2010PropOp38
 70
     1
102
RTVSPost2010Prop39
140
1.0
102
RTVSPost2010PropOp39
 70
     1
102
RTVSPost2010Prop40
 90
        0
102
RTVSPost2010PropOp40
 70
     1
102
RTVSPost2010Prop41ColorIndex
 90
       18
102
RTVSPost2010Prop41ColorRGB
 90
        0
102
RTVSPost2010PropOp41
 70
     1
102
RTVSPost2010Prop42
 90
       50
102
RTVSPost2010PropOp42
 70
     1
102
RTVSPost2010Prop43
 90
        3
102
RTVSPost2010PropOp43
 70
     1
102
RTVSPost2010Prop44ColorIndex
 90
        5
102
RTVSPost2010Prop44ColorRGB
 90
      255
102
RTVSPost2010PropOp44
 70
     1
102
RTVSPost2010Prop45
280
     0
102
RTVSPost2010PropOp45
 70
     1
102
RTVSPost2010Prop46
 90
       50
102
RTVSPost2010PropOp46
 70
     1
102
RTVSPost2010Prop47
 90
       50
102
RTVSPost2010PropOp47
 70
     1
102
RTVSPost2010Prop48
 90
       50
102
RTVSPost2010PropOp48
 70
     1
102
RTVSPost2010Prop49
280
     0
102
RTVSPost2010PropOp49
 70
     1
102
RTVSPost2010Prop50
 90
       50
102
RTVSPost2010PropOp50
 70
     1
102
RTVSPost2010Prop51ColorIndex
 90
      256
102
RTVSPost2010Prop51ColorRGB
 90
-16777216
102
RTVSPost2010PropOp51
 70
     0
102
RTVSPost2010Prop52
140
1.0
102
RTVSPost2010PropOp52
 70
     0
102
RTVSPost2010Prop53
 90
        2
102
RTVSPost2010PropOp53
 70
     1
102
RTVSPost2010Prop54
  1
strokes_ogs.tif
102
RTVSPost2010PropOp54
 70
     1
102
RTVSPost2010Prop55
280
     0
102
RTVSPost2010PropOp55
 70
     1
102
RTVSPost2010Prop56
140
1.0
102
RTVSPost2010PropOp56
 70
     1
102
RTVSPost2010Prop57
140
1.0
102
RTVSPost2010PropOp57
 70
     1
  0
XRECORD
  5
3CC
102
{ACAD_REACTORS
330
3CB
102
}
330
3CB
100
AcDbXrecord
280
     1
102
RTVSPropertyOp0
 70
     1
102
RTVSPropertyOp1
 70
     1
102
RTVSPropertyOp2
 70
     1
102
RTVSPropertyOp3
 70
     1
102
RTVSPropertyOp4
 70
     1
102
RTVSPropertyOp5
 70
     1
102
RTVSPropertyOp6
 70
     1
102
RTVSPropertyOp7
 70
     1
102
RTVSPropertyOp8
 70
     1
102
RTVSPropertyOp9
 70
     1
102
RTVSPropertyOp10
 70
     1
102
RTVSPropertyOp11
 70
     1
102
RTVSPropertyOp12
 70
     1
102
RTVSPropertyOp13
 70
     1
102
RTVSPropertyOp14
 70
     1
102
RTVSPropertyOp15
 70
     1
102
RTVSPropertyOp16
 70
     1
102
RTVSPropertyOp17
 70
     1
102
RTVSPropertyOp18
 70
     1
102
RTVSPropertyOp19
 70
     1
102
RTVSPropertyOp20
 70
     1
102
RTVSPropertyOp21
 70
     1
102
RTVSPropertyOp22
 70
     1
102
RTVSPropertyOp23
 70
     1
102
RTVSPropertyOp24
 70
     1
102
RTVSPropertyOp25
 70
     1
102
RTVSPropertyOp26
 70
     1
102
RTVSPropertyOp27
 70
     1
102
RTVSPropertyOp28
 70
     1
102
RTVSPropertyOp29
 70
     1
102
RTVSPropertyOp30
 70
     1
102
RTVSPropertyOp31
 70
     1
102
RTVSPropertyOp32
 70
     1
102
RTVSPropertyOp33
 70
     1
102
RTVSPropertyOp34
 70
     1
102
RTVSPropertyOp35
 70
     1
102
RTVSPropertyOp36
 70
     1
102
RTVSPropertyOp37
 70
     1
102
RTVSPropertyOp38
 70
     1
102
RTVSPropertyOp39
 70
     1
102
RTVSPropertyOp40
 70
     1
102
RTVSPropertyOp41
 70
     1
102
RTVSPropertyOp42
 70
     1
102
RTVSPropertyOp43
 70
     1
102
RTVSPropertyOp44
 70
     1
102
RTVSPropertyOp45
 70
     1
102
RTVSPropertyOp46
 70
     1
102
RTVSPropertyOp47
 70
     1
102
RTVSPropertyOp48
 70
     1
102
RTVSPropertyOp49
 70
     1
102
RTVSPropertyOp50
 70
     1
102
RTVSPropertyOp51
 70
     0
102
RTVSPropertyOp52
 70
     0
102
RTVSPropertyOp53
 70
     1
102
RTVSPropertyOp54
 70
     1
102
RTVSPropertyOp55
 70
     1
102
RTVSPropertyOp56
 70
     1
102
RTVSPropertyOp57
 70
     1
102
RTVSPost2010Prop28
280
     0
102
RTVSPost2010PropOp28
 70
     1
102
RTVSPost2010Prop29
280
     1
102
RTVSPost2010PropOp29
 70
     1
102
RTVSPost2010Prop30
280
     1
102
RTVSPost2010PropOp30
 70
     1
102
RTVSPost2010Prop31
280
     0
102
RTVSPost2010PropOp31
 70
     1
102
RTVSPost2010Prop32
280
     0
102
RTVSPost2010PropOp32
 70
     1
102
RTVSPost2010Prop33
280
     0
102
RTVSPost2010PropOp33
 70
     1
102
RTVSPost2010Prop34
280
     0
102
RTVSPost2010PropOp34
 70
     1
102
RTVSPost2010Prop35
280
     0
102
RTVSPost2010PropOp35
 70
     1
102
RTVSPost2010Prop36
280
     0
102
RTVSPost2010PropOp36
 70
     1
102
RTVSPost2010Prop37
 90
       50
102
RTVSPost2010PropOp37
 70
     1
102
RTVSPost2010Prop38
140
0.0
102
RTVSPost2010PropOp38
 70
     1
102
RTVSPost2010Prop39
140
1.0
102
RTVSPost2010PropOp39
 70
     1
102
RTVSPost2010Prop40
 90
        0
102
RTVSPost2010PropOp40
 70
     1
102
RTVSPost2010Prop41ColorIndex
 90
       18
102
RTVSPost2010Prop41ColorRGB
 90
        0
102
RTVSPost2010PropOp41
 70
     1
102
RTVSPost2010Prop42
 90
       50
102
RTVSPost2010PropOp42
 70
     1
102
RTVSPost2010Prop43
 90
        3
102
RTVSPost2010PropOp43
 70
     1
102
RTVSPost2010Prop44ColorIndex
 90
        5
102
RTVSPost2010Prop44ColorRGB
 90
      255
102
RTVSPost2010PropOp44
 70
     1
102
RTVSPost2010Prop45
280
     0
102
RTVSPost2010PropOp45
 70
     1
102
RTVSPost2010Prop46
 90
       50
102
RTVSPost2010PropOp46
 70
     1
102
RTVSPost2010Prop47
 90
       50
102
RTVSPost2010PropOp47
 70
     1
102
RTVSPost2010Prop48
 90
       50
102
RTVSPost2010PropOp48
 70
     1
102
RTVSPost2010Prop49
280
     0
102
RTVSPost2010PropOp49
 70
     1
102
RTVSPost2010Prop50
 90
       50
102
RTVSPost2010PropOp50
 70
     1
102
RTVSPost2010Prop51ColorIndex
 90
      256
102
RTVSPost2010Prop51ColorRGB
 90
-16777216
102
RTVSPost2010PropOp51
 70
     0
102
RTVSPost2010Prop52
140
1.0
102
RTVSPost2010PropOp52
 70
     0
102
RTVSPost2010Prop53
 90
        2
102
RTVSPost2010PropOp53
 70
     1
102
RTVSPost2010Prop54
  1
strokes_ogs.tif
102
RTVSPost2010PropOp54
 70
     1
102
RTVSPost2010Prop55
280
     0
102
RTVSPost2010PropOp55
 70
     1
102
RTVSPost2010Prop56
140
1.0
102
RTVSPost2010PropOp56
 70
     1
102
RTVSPost2010Prop57
140
1.0
102
RTVSPost2010PropOp57
 70
     1
  0
XRECORD
  5
3E0
102
{ACAD_REACTORS
330
3DF
102
}
330
3DF
100
AcDbXrecord
280
     1
102
RTVSPropertyOp0
 70
     0
102
RTVSPropertyOp1
 70
     0
102
RTVSPropertyOp2
 70
     0
102
RTVSPropertyOp3
 70
     0
102
RTVSPropertyOp4
 70
     0
102
RTVSPropertyOp5
 70
     0
102
RTVSPropertyOp6
 70
     0
102
RTVSPropertyOp7
 70
     0
102
RTVSPropertyOp8
 70
     0
102
RTVSPropertyOp9
 70
     0
102
RTVSPropertyOp10
 70
     0
102
RTVSPropertyOp11
 70
     0
102
RTVSPropertyOp12
 70
     0
102
RTVSPropertyOp13
 70
     0
102
RTVSPropertyOp14
 70
     2
102
RTVSPropertyOp15
 70
     0
102
RTVSPropertyOp16
 70
     0
102
RTVSPropertyOp17
 70
     0
102
RTVSPropertyOp18
 70
     0
102
RTVSPropertyOp19
 70
     0
102
RTVSPropertyOp20
 70
     0
102
RTVSPropertyOp21
 70
     0
102
RTVSPropertyOp22
 70
     0
102
RTVSPropertyOp23
 70
     0
102
RTVSPropertyOp24
 70
     0
102
RTVSPropertyOp25
 70
     0
102
RTVSPropertyOp26
 70
     0
102
RTVSPropertyOp27
 70
     0
102
RTVSPropertyOp28
 70
     0
102
RTVSPropertyOp29
 70
     0
102
RTVSPropertyOp30
 70
     0
102
RTVSPropertyOp31
 70
     0
102
RTVSPropertyOp32
 70
     0
102
RTVSPropertyOp33
 70
     0
102
RTVSPropertyOp34
 70
     0
102
RTVSPropertyOp35
 70
     0
102
RTVSPropertyOp36
 70
     0
102
RTVSPropertyOp37
 70
     0
102
RTVSPropertyOp38
 70
     0
102
RTVSPropertyOp39
 70
     0
102
RTVSPropertyOp40
 70
     0
102
RTVSPropertyOp41
 70
     0
102
RTVSPropertyOp42
 70
     0
102
RTVSPropertyOp43
 70
     0
102
RTVSPropertyOp44
 70
     0
102
RTVSPropertyOp45
 70
     0
102
RTVSPropertyOp46
 70
     0
102
RTVSPropertyOp47
 70
     0
102
RTVSPropertyOp48
 70
     0
102
RTVSPropertyOp49
 70
     0
102
RTVSPropertyOp50
 70
     0
102
RTVSPropertyOp51
 70
     0
102
RTVSPropertyOp52
 70
     0
102
RTVSPropertyOp53
 70
     0
102
RTVSPropertyOp54
 70
     0
102
RTVSPropertyOp55
 70
     0
102
RTVSPropertyOp56
 70
     0
102
RTVSPropertyOp57
 70
     0
102
RTVSPost2010Prop28
280
     0
102
RTVSPost2010PropOp28
 70
     0
102
RTVSPost2010Prop29
280
     1
102
RTVSPost2010PropOp29
 70
     0
102
RTVSPost2010Prop30
280
     1
102
RTVSPost2010PropOp30
 70
     0
102
RTVSPost2010Prop31
280
     0
102
RTVSPost2010PropOp31
 70
     0
102
RTVSPost2010Prop32
280
     0
102
RTVSPost2010PropOp32
 70
     0
102
RTVSPost2010Prop33
280
     0
102
RTVSPost2010PropOp33
 70
     0
102
RTVSPost2010Prop34
280
     0
102
RTVSPost2010PropOp34
 70
     0
102
RTVSPost2010Prop35
280
     0
102
RTVSPost2010PropOp35
 70
     0
102
RTVSPost2010Prop36
280
     0
102
RTVSPost2010PropOp36
 70
     0
102
RTVSPost2010Prop37
 90
       50
102
RTVSPost2010PropOp37
 70
     0
102
RTVSPost2010Prop38
140
0.0
102
RTVSPost2010PropOp38
 70
     0
102
RTVSPost2010Prop39
140
1.0
102
RTVSPost2010PropOp39
 70
     0
102
RTVSPost2010Prop40
 90
        0
102
RTVSPost2010PropOp40
 70
     0
102
RTVSPost2010Prop41ColorIndex
 90
       18
102
RTVSPost2010Prop41ColorRGB
 90
        0
102
RTVSPost2010PropOp41
 70
     0
102
RTVSPost2010Prop42
 90
       50
102
RTVSPost2010PropOp42
 70
     0
102
RTVSPost2010Prop43
 90
        3
102
RTVSPost2010PropOp43
 70
     0
102
RTVSPost2010Prop44ColorIndex
 90
        5
102
RTVSPost2010Prop44ColorRGB
 90
      255
102
RTVSPost2010PropOp44
 70
     0
102
RTVSPost2010Prop45
280
     0
102
RTVSPost2010PropOp45
 70
     0
102
RTVSPost2010Prop46
 90
       50
102
RTVSPost2010PropOp46
 70
     0
102
RTVSPost2010Prop47
 90
       50
102
RTVSPost2010PropOp47
 70
     0
102
RTVSPost2010Prop48
 90
       50
102
RTVSPost2010PropOp48
 70
     0
102
RTVSPost2010Prop49
280
     0
102
RTVSPost2010PropOp49
 70
     0
102
RTVSPost2010Prop50
 90
       50
102
RTVSPost2010PropOp50
 70
     0
102
RTVSPost2010Prop51ColorIndex
 90
      256
102
RTVSPost2010Prop51ColorRGB
 90
-16777216
102
RTVSPost2010PropOp51
 70
     0
102
RTVSPost2010Prop52
140
1.0
102
RTVSPost2010PropOp52
 70
     0
102
RTVSPost2010Prop53
 90
        2
102
RTVSPost2010PropOp53
 70
     0
102
RTVSPost2010Prop54
  1
strokes_ogs.tif
102
RTVSPost2010PropOp54
 70
     0
102
RTVSPost2010Prop55
280
     0
102
RTVSPost2010PropOp55
 70
     0
102
RTVSPost2010Prop56
140
1.0
102
RTVSPost2010PropOp56
 70
     0
102
RTVSPost2010Prop57
140
1.0
102
RTVSPost2010PropOp57
 70
     0
  0
XRECORD
  5
3DA
102
{ACAD_REACTORS
330
3D9
102
}
330
3D9
100
AcDbXrecord
280
     1
102
RTVSPropertyOp0
 70
     1
102
RTVSPropertyOp1
 70
     1
102
RTVSPropertyOp2
 70
     1
102
RTVSPropertyOp3
 70
     1
102
RTVSPropertyOp4
 70
     1
102
RTVSPropertyOp5
 70
     1
102
RTVSPropertyOp6
 70
     1
102
RTVSPropertyOp7
 70
     1
102
RTVSPropertyOp8
 70
     1
102
RTVSPropertyOp9
 70
     1
102
RTVSPropertyOp10
 70
     1
102
RTVSPropertyOp11
 70
     1
102
RTVSPropertyOp12
 70
     1
102
RTVSPropertyOp13
 70
     1
102
RTVSPropertyOp14
 70
     1
102
RTVSPropertyOp15
 70
     1
102
RTVSPropertyOp16
 70
     1
102
RTVSPropertyOp17
 70
     1
102
RTVSPropertyOp18
 70
     1
102
RTVSPropertyOp19
 70
     1
102
RTVSPropertyOp20
 70
     1
102
RTVSPropertyOp21
 70
     1
102
RTVSPropertyOp22
 70
     1
102
RTVSPropertyOp23
 70
     1
102
RTVSPropertyOp24
 70
     1
102
RTVSPropertyOp25
 70
     1
102
RTVSPropertyOp26
 70
     1
102
RTVSPropertyOp27
 70
     1
102
RTVSPropertyOp28
 70
     1
102
RTVSPropertyOp29
 70
     1
102
RTVSPropertyOp30
 70
     1
102
RTVSPropertyOp31
 70
     1
102
RTVSPropertyOp32
 70
     1
102
RTVSPropertyOp33
 70
     1
102
RTVSPropertyOp34
 70
     1
102
RTVSPropertyOp35
 70
     1
102
RTVSPropertyOp36
 70
     1
102
RTVSPropertyOp37
 70
     1
102
RTVSPropertyOp38
 70
     1
102
RTVSPropertyOp39
 70
     1
102
RTVSPropertyOp40
 70
     1
102
RTVSPropertyOp41
 70
     1
102
RTVSPropertyOp42
 70
     1
102
RTVSPropertyOp43
 70
     1
102
RTVSPropertyOp44
 70
     1
102
RTVSPropertyOp45
 70
     1
102
RTVSPropertyOp46
 70
     1
102
RTVSPropertyOp47
 70
     1
102
RTVSPropertyOp48
 70
     1
102
RTVSPropertyOp49
 70
     1
102
RTVSPropertyOp50
 70
     1
102
RTVSPropertyOp51
 70
     0
102
RTVSPropertyOp52
 70
     0
102
RTVSPropertyOp53
 70
     1
102
RTVSPropertyOp54
 70
     1
102
RTVSPropertyOp55
 70
     1
102
RTVSPropertyOp56
 70
     1
102
RTVSPropertyOp57
 70
     1
102
RTVSPost2010Prop28
280
     0
102
RTVSPost2010PropOp28
 70
     1
102
RTVSPost2010Prop29
280
     1
102
RTVSPost2010PropOp29
 70
     1
102
RTVSPost2010Prop30
280
     1
102
RTVSPost2010PropOp30
 70
     1
102
RTVSPost2010Prop31
280
     0
102
RTVSPost2010PropOp31
 70
     1
102
RTVSPost2010Prop32
280
     0
102
RTVSPost2010PropOp32
 70
     1
102
RTVSPost2010Prop33
280
     0
102
RTVSPost2010PropOp33
 70
     1
102
RTVSPost2010Prop34
280
     0
102
RTVSPost2010PropOp34
 70
     1
102
RTVSPost2010Prop35
280
     0
102
RTVSPost2010PropOp35
 70
     1
102
RTVSPost2010Prop36
280
     0
102
RTVSPost2010PropOp36
 70
     1
102
RTVSPost2010Prop37
 90
       50
102
RTVSPost2010PropOp37
 70
     1
102
RTVSPost2010Prop38
140
0.0
102
RTVSPost2010PropOp38
 70
     1
102
RTVSPost2010Prop39
140
1.0
102
RTVSPost2010PropOp39
 70
     1
102
RTVSPost2010Prop40
 90
        0
102
RTVSPost2010PropOp40
 70
     1
102
RTVSPost2010Prop41ColorIndex
 90
       18
102
RTVSPost2010Prop41ColorRGB
 90
        0
102
RTVSPost2010PropOp41
 70
     1
102
RTVSPost2010Prop42
 90
       50
102
RTVSPost2010PropOp42
 70
     1
102
RTVSPost2010Prop43
 90
        3
102
RTVSPost2010PropOp43
 70
     1
102
RTVSPost2010Prop44ColorIndex
 90
        5
102
RTVSPost2010Prop44ColorRGB
 90
      255
102
RTVSPost2010PropOp44
 70
     1
102
RTVSPost2010Prop45
280
     0
102
RTVSPost2010PropOp45
 70
     1
102
RTVSPost2010Prop46
 90
       50
102
RTVSPost2010PropOp46
 70
     1
102
RTVSPost2010Prop47
 90
       50
102
RTVSPost2010PropOp47
 70
     1
102
RTVSPost2010Prop48
 90
       50
102
RTVSPost2010PropOp48
 70
     1
102
RTVSPost2010Prop49
280
     0
102
RTVSPost2010PropOp49
 70
     1
102
RTVSPost2010Prop50
 90
       50
102
RTVSPost2010PropOp50
 70
     1
102
RTVSPost2010Prop51ColorIndex
 90
      256
102
RTVSPost2010Prop51ColorRGB
 90
-16777216
102
RTVSPost2010PropOp51
 70
     0
102
RTVSPost2010Prop52
140
1.0
102
RTVSPost2010PropOp52
 70
     0
102
RTVSPost2010Prop53
 90
        2
102
RTVSPost2010PropOp53
 70
     1
102
RTVSPost2010Prop54
  1
strokes_ogs.tif
102
RTVSPost2010PropOp54
 70
     1
102
RTVSPost2010Prop55
280
     0
102
RTVSPost2010PropOp55
 70
     1
102
RTVSPost2010Prop56
140
1.0
102
RTVSPost2010PropOp56
 70
     1
102
RTVSPost2010Prop57
140
1.0
102
RTVSPost2010PropOp57
 70
     1
  0
XRECORD
  5
3E2
102
{ACAD_REACTORS
330
3E1
102
}
330
3E1
100
AcDbXrecord
280
     1
102
RTVSPropertyOp0
 70
     0
102
RTVSPropertyOp1
 70
     0
102
RTVSPropertyOp2
 70
     0
102
RTVSPropertyOp3
 70
     0
102
RTVSPropertyOp4
 70
     0
102
RTVSPropertyOp5
 70
     0
102
RTVSPropertyOp6
 70
     0
102
RTVSPropertyOp7
 70
     0
102
RTVSPropertyOp8
 70
     0
102
RTVSPropertyOp9
 70
     0
102
RTVSPropertyOp10
 70
     0
102
RTVSPropertyOp11
 70
     0
102
RTVSPropertyOp12
 70
     0
102
RTVSPropertyOp13
 70
     0
102
RTVSPropertyOp14
 70
     2
102
RTVSPropertyOp15
 70
     0
102
RTVSPropertyOp16
 70
     0
102
RTVSPropertyOp17
 70
     0
102
RTVSPropertyOp18
 70
     0
102
RTVSPropertyOp19
 70
     0
102
RTVSPropertyOp20
 70
     0
102
RTVSPropertyOp21
 70
     0
102
RTVSPropertyOp22
 70
     0
102
RTVSPropertyOp23
 70
     0
102
RTVSPropertyOp24
 70
     0
102
RTVSPropertyOp25
 70
     0
102
RTVSPropertyOp26
 70
     0
102
RTVSPropertyOp27
 70
     0
102
RTVSPropertyOp28
 70
     0
102
RTVSPropertyOp29
 70
     0
102
RTVSPropertyOp30
 70
     0
102
RTVSPropertyOp31
 70
     0
102
RTVSPropertyOp32
 70
     0
102
RTVSPropertyOp33
 70
     0
102
RTVSPropertyOp34
 70
     0
102
RTVSPropertyOp35
 70
     0
102
RTVSPropertyOp36
 70
     0
102
RTVSPropertyOp37
 70
     0
102
RTVSPropertyOp38
 70
     0
102
RTVSPropertyOp39
 70
     0
102
RTVSPropertyOp40
 70
     0
102
RTVSPropertyOp41
 70
     0
102
RTVSPropertyOp42
 70
     0
102
RTVSPropertyOp43
 70
     0
102
RTVSPropertyOp44
 70
     0
102
RTVSPropertyOp45
 70
     0
102
RTVSPropertyOp46
 70
     0
102
RTVSPropertyOp47
 70
     0
102
RTVSPropertyOp48
 70
     0
102
RTVSPropertyOp49
 70
     0
102
RTVSPropertyOp50
 70
     0
102
RTVSPropertyOp51
 70
     0
102
RTVSPropertyOp52
 70
     0
102
RTVSPropertyOp53
 70
     0
102
RTVSPropertyOp54
 70
     0
102
RTVSPropertyOp55
 70
     0
102
RTVSPropertyOp56
 70
     0
102
RTVSPropertyOp57
 70
     0
102
RTVSPost2010Prop28
280
     0
102
RTVSPost2010PropOp28
 70
     0
102
RTVSPost2010Prop29
280
     1
102
RTVSPost2010PropOp29
 70
     0
102
RTVSPost2010Prop30
280
     1
102
RTVSPost2010PropOp30
 70
     0
102
RTVSPost2010Prop31
280
     0
102
RTVSPost2010PropOp31
 70
     0
102
RTVSPost2010Prop32
280
     0
102
RTVSPost2010PropOp32
 70
     0
102
RTVSPost2010Prop33
280
     0
102
RTVSPost2010PropOp33
 70
     0
102
RTVSPost2010Prop34
280
     0
102
RTVSPost2010PropOp34
 70
     0
102
RTVSPost2010Prop35
280
     0
102
RTVSPost2010PropOp35
 70
     0
102
RTVSPost2010Prop36
280
     0
102
RTVSPost2010PropOp36
 70
     0
102
RTVSPost2010Prop37
 90
       50
102
RTVSPost2010PropOp37
 70
     0
102
RTVSPost2010Prop38
140
0.0
102
RTVSPost2010PropOp38
 70
     0
102
RTVSPost2010Prop39
140
1.0
102
RTVSPost2010PropOp39
 70
     0
102
RTVSPost2010Prop40
 90
        0
102
RTVSPost2010PropOp40
 70
     0
102
RTVSPost2010Prop41ColorIndex
 90
       18
102
RTVSPost2010Prop41ColorRGB
 90
        0
102
RTVSPost2010PropOp41
 70
     0
102
RTVSPost2010Prop42
 90
       50
102
RTVSPost2010PropOp42
 70
     0
102
RTVSPost2010Prop43
 90
        3
102
RTVSPost2010PropOp43
 70
     0
102
RTVSPost2010Prop44ColorIndex
 90
        5
102
RTVSPost2010Prop44ColorRGB
 90
      255
102
RTVSPost2010PropOp44
 70
     0
102
RTVSPost2010Prop45
280
     0
102
RTVSPost2010PropOp45
 70
     0
102
RTVSPost2010Prop46
 90
       50
102
RTVSPost2010PropOp46
 70
     0
102
RTVSPost2010Prop47
 90
       50
102
RTVSPost2010PropOp47
 70
     0
102
RTVSPost2010Prop48
 90
       50
102
RTVSPost2010PropOp48
 70
     0
102
RTVSPost2010Prop49
280
     0
102
RTVSPost2010PropOp49
 70
     0
102
RTVSPost2010Prop50
 90
       50
102
RTVSPost2010PropOp50
 70
     0
102
RTVSPost2010Prop51ColorIndex
 90
      256
102
RTVSPost2010Prop51ColorRGB
 90
-16777216
102
RTVSPost2010PropOp51
 70
     0
102
RTVSPost2010Prop52
140
1.0
102
RTVSPost2010PropOp52
 70
     0
102
RTVSPost2010Prop53
 90
        2
102
RTVSPost2010PropOp53
 70
     0
102
RTVSPost2010Prop54
  1
strokes_ogs.tif
102
RTVSPost2010PropOp54
 70
     0
102
RTVSPost2010Prop55
280
     0
102
RTVSPost2010PropOp55
 70
     0
102
RTVSPost2010Prop56
140
1.0
102
RTVSPost2010PropOp56
 70
     0
102
RTVSPost2010Prop57
140
1.0
102
RTVSPost2010PropOp57
 70
     0
  0
XRECORD
  5
3D0
102
{ACAD_REACTORS
330
3CF
102
}
330
3CF
100
AcDbXrecord
280
     1
102
RTVSPropertyOp0
 70
     1
102
RTVSPropertyOp1
 70
     1
102
RTVSPropertyOp2
 70
     1
102
RTVSPropertyOp3
 70
     1
102
RTVSPropertyOp4
 70
     1
102
RTVSPropertyOp5
 70
     1
102
RTVSPropertyOp6
 70
     1
102
RTVSPropertyOp7
 70
     1
102
RTVSPropertyOp8
 70
     1
102
RTVSPropertyOp9
 70
     1
102
RTVSPropertyOp10
 70
     1
102
RTVSPropertyOp11
 70
     1
102
RTVSPropertyOp12
 70
     1
102
RTVSPropertyOp13
 70
     1
102
RTVSPropertyOp14
 70
     1
102
RTVSPropertyOp15
 70
     1
102
RTVSPropertyOp16
 70
     1
102
RTVSPropertyOp17
 70
     1
102
RTVSPropertyOp18
 70
     1
102
RTVSPropertyOp19
 70
     1
102
RTVSPropertyOp20
 70
     1
102
RTVSPropertyOp21
 70
     1
102
RTVSPropertyOp22
 70
     1
102
RTVSPropertyOp23
 70
     1
102
RTVSPropertyOp24
 70
     1
102
RTVSPropertyOp25
 70
     1
102
RTVSPropertyOp26
 70
     1
102
RTVSPropertyOp27
 70
     1
102
RTVSPropertyOp28
 70
     1
102
RTVSPropertyOp29
 70
     1
102
RTVSPropertyOp30
 70
     1
102
RTVSPropertyOp31
 70
     1
102
RTVSPropertyOp32
 70
     1
102
RTVSPropertyOp33
 70
     1
102
RTVSPropertyOp34
 70
     1
102
RTVSPropertyOp35
 70
     1
102
RTVSPropertyOp36
 70
     1
102
RTVSPropertyOp37
 70
     1
102
RTVSPropertyOp38
 70
     1
102
RTVSPropertyOp39
 70
     1
102
RTVSPropertyOp40
 70
     1
102
RTVSPropertyOp41
 70
     1
102
RTVSPropertyOp42
 70
     1
102
RTVSPropertyOp43
 70
     1
102
RTVSPropertyOp44
 70
     1
102
RTVSPropertyOp45
 70
     1
102
RTVSPropertyOp46
 70
     1
102
RTVSPropertyOp47
 70
     1
102
RTVSPropertyOp48
 70
     1
102
RTVSPropertyOp49
 70
     1
102
RTVSPropertyOp50
 70
     1
102
RTVSPropertyOp51
 70
     0
102
RTVSPropertyOp52
 70
     0
102
RTVSPropertyOp53
 70
     1
102
RTVSPropertyOp54
 70
     1
102
RTVSPropertyOp55
 70
     1
102
RTVSPropertyOp56
 70
     1
102
RTVSPropertyOp57
 70
     1
102
RTVSPost2010Prop28
280
     0
102
RTVSPost2010PropOp28
 70
     1
102
RTVSPost2010Prop29
280
     1
102
RTVSPost2010PropOp29
 70
     1
102
RTVSPost2010Prop30
280
     1
102
RTVSPost2010PropOp30
 70
     1
102
RTVSPost2010Prop31
280
     0
102
RTVSPost2010PropOp31
 70
     1
102
RTVSPost2010Prop32
280
     0
102
RTVSPost2010PropOp32
 70
     1
102
RTVSPost2010Prop33
280
     0
102
RTVSPost2010PropOp33
 70
     1
102
RTVSPost2010Prop34
280
     0
102
RTVSPost2010PropOp34
 70
     1
102
RTVSPost2010Prop35
280
     0
102
RTVSPost2010PropOp35
 70
     1
102
RTVSPost2010Prop36
280
     0
102
RTVSPost2010PropOp36
 70
     1
102
RTVSPost2010Prop37
 90
       50
102
RTVSPost2010PropOp37
 70
     1
102
RTVSPost2010Prop38
140
0.0
102
RTVSPost2010PropOp38
 70
     1
102
RTVSPost2010Prop39
140
1.0
102
RTVSPost2010PropOp39
 70
     1
102
RTVSPost2010Prop40
 90
        0
102
RTVSPost2010PropOp40
 70
     1
102
RTVSPost2010Prop41ColorIndex
 90
       18
102
RTVSPost2010Prop41ColorRGB
 90
        0
102
RTVSPost2010PropOp41
 70
     1
102
RTVSPost2010Prop42
 90
       50
102
RTVSPost2010PropOp42
 70
     1
102
RTVSPost2010Prop43
 90
        3
102
RTVSPost2010PropOp43
 70
     1
102
RTVSPost2010Prop44ColorIndex
 90
        5
102
RTVSPost2010Prop44ColorRGB
 90
      255
102
RTVSPost2010PropOp44
 70
     1
102
RTVSPost2010Prop45
280
     0
102
RTVSPost2010PropOp45
 70
     1
102
RTVSPost2010Prop46
 90
       50
102
RTVSPost2010PropOp46
 70
     1
102
RTVSPost2010Prop47
 90
       50
102
RTVSPost2010PropOp47
 70
     1
102
RTVSPost2010Prop48
 90
       50
102
RTVSPost2010PropOp48
 70
     1
102
RTVSPost2010Prop49
280
     0
102
RTVSPost2010PropOp49
 70
     1
102
RTVSPost2010Prop50
 90
       50
102
RTVSPost2010PropOp50
 70
     1
102
RTVSPost2010Prop51ColorIndex
 90
      256
102
RTVSPost2010Prop51ColorRGB
 90
-16777216
102
RTVSPost2010PropOp51
 70
     0
102
RTVSPost2010Prop52
140
1.0
102
RTVSPost2010PropOp52
 70
     0
102
RTVSPost2010Prop53
 90
        2
102
RTVSPost2010PropOp53
 70
     1
102
RTVSPost2010Prop54
  1
strokes_ogs.tif
102
RTVSPost2010PropOp54
 70
     1
102
RTVSPost2010Prop55
280
     0
102
RTVSPost2010PropOp55
 70
     1
102
RTVSPost2010Prop56
140
1.0
102
RTVSPost2010PropOp56
 70
     1
102
RTVSPost2010Prop57
140
1.0
102
RTVSPost2010PropOp57
 70
     1
  0
XRECORD
  5
3EE
102
{ACAD_REACTORS
330
3ED
102
}
330
3ED
100
AcDbXrecord
280
     1
102
RTVSPropertyOp0
 70
     1
102
RTVSPropertyOp1
 70
     1
102
RTVSPropertyOp2
 70
     1
102
RTVSPropertyOp3
 70
     1
102
RTVSPropertyOp4
 70
     1
102
RTVSPropertyOp5
 70
     1
102
RTVSPropertyOp6
 70
     1
102
RTVSPropertyOp7
 70
     1
102
RTVSPropertyOp8
 70
     1
102
RTVSPropertyOp9
 70
     1
102
RTVSPropertyOp10
 70
     1
102
RTVSPropertyOp11
 70
     1
102
RTVSPropertyOp12
 70
     1
102
RTVSPropertyOp13
 70
     1
102
RTVSPropertyOp14
 70
     1
102
RTVSPropertyOp15
 70
     1
102
RTVSPropertyOp16
 70
     1
102
RTVSPropertyOp17
 70
     1
102
RTVSPropertyOp18
 70
     1
102
RTVSPropertyOp19
 70
     1
102
RTVSPropertyOp20
 70
     1
102
RTVSPropertyOp21
 70
     1
102
RTVSPropertyOp22
 70
     1
102
RTVSPropertyOp23
 70
     1
102
RTVSPropertyOp24
 70
     1
102
RTVSPropertyOp25
 70
     1
102
RTVSPropertyOp26
 70
     1
102
RTVSPropertyOp27
 70
     1
102
RTVSPropertyOp28
 70
     1
102
RTVSPropertyOp29
 70
     1
102
RTVSPropertyOp30
 70
     1
102
RTVSPropertyOp31
 70
     1
102
RTVSPropertyOp32
 70
     1
102
RTVSPropertyOp33
 70
     1
102
RTVSPropertyOp34
 70
     1
102
RTVSPropertyOp35
 70
     1
102
RTVSPropertyOp36
 70
     1
102
RTVSPropertyOp37
 70
     1
102
RTVSPropertyOp38
 70
     1
102
RTVSPropertyOp39
 70
     1
102
RTVSPropertyOp40
 70
     1
102
RTVSPropertyOp41
 70
     1
102
RTVSPropertyOp42
 70
     1
102
RTVSPropertyOp43
 70
     1
102
RTVSPropertyOp44
 70
     1
102
RTVSPropertyOp45
 70
     1
102
RTVSPropertyOp46
 70
     1
102
RTVSPropertyOp47
 70
     1
102
RTVSPropertyOp48
 70
     1
102
RTVSPropertyOp49
 70
     1
102
RTVSPropertyOp50
 70
     1
102
RTVSPropertyOp51
 70
     0
102
RTVSPropertyOp52
 70
     0
102
RTVSPropertyOp53
 70
     1
102
RTVSPropertyOp54
 70
     1
102
RTVSPropertyOp55
 70
     1
102
RTVSPropertyOp56
 70
     1
102
RTVSPropertyOp57
 70
     1
102
RTVSPost2010Prop28
280
     0
102
RTVSPost2010PropOp28
 70
     1
102
RTVSPost2010Prop29
280
     1
102
RTVSPost2010PropOp29
 70
     1
102
RTVSPost2010Prop30
280
     1
102
RTVSPost2010PropOp30
 70
     1
102
RTVSPost2010Prop31
280
     0
102
RTVSPost2010PropOp31
 70
     1
102
RTVSPost2010Prop32
280
     0
102
RTVSPost2010PropOp32
 70
     1
102
RTVSPost2010Prop33
280
     0
102
RTVSPost2010PropOp33
 70
     1
102
RTVSPost2010Prop34
280
     0
102
RTVSPost2010PropOp34
 70
     1
102
RTVSPost2010Prop35
280
     0
102
RTVSPost2010PropOp35
 70
     1
102
RTVSPost2010Prop36
280
     0
102
RTVSPost2010PropOp36
 70
     1
102
RTVSPost2010Prop37
 90
       50
102
RTVSPost2010PropOp37
 70
     1
102
RTVSPost2010Prop38
140
0.0
102
RTVSPost2010PropOp38
 70
     1
102
RTVSPost2010Prop39
140
1.0
102
RTVSPost2010PropOp39
 70
     1
102
RTVSPost2010Prop40
 90
        0
102
RTVSPost2010PropOp40
 70
     1
102
RTVSPost2010Prop41ColorIndex
 90
       18
102
RTVSPost2010Prop41ColorRGB
 90
        0
102
RTVSPost2010PropOp41
 70
     1
102
RTVSPost2010Prop42
 90
       50
102
RTVSPost2010PropOp42
 70
     1
102
RTVSPost2010Prop43
 90
        3
102
RTVSPost2010PropOp43
 70
     1
102
RTVSPost2010Prop44ColorIndex
 90
        5
102
RTVSPost2010Prop44ColorRGB
 90
      255
102
RTVSPost2010PropOp44
 70
     1
102
RTVSPost2010Prop45
280
     0
102
RTVSPost2010PropOp45
 70
     1
102
RTVSPost2010Prop46
 90
       50
102
RTVSPost2010PropOp46
 70
     1
102
RTVSPost2010Prop47
 90
       50
102
RTVSPost2010PropOp47
 70
     1
102
RTVSPost2010Prop48
 90
       50
102
RTVSPost2010PropOp48
 70
     1
102
RTVSPost2010Prop49
280
     0
102
RTVSPost2010PropOp49
 70
     1
102
RTVSPost2010Prop50
 90
       50
102
RTVSPost2010PropOp50
 70
     1
102
RTVSPost2010Prop51ColorIndex
 90
      256
102
RTVSPost2010Prop51ColorRGB
 90
-16777216
102
RTVSPost2010PropOp51
 70
     0
102
RTVSPost2010Prop52
140
1.0
102
RTVSPost2010PropOp52
 70
     0
102
RTVSPost2010Prop53
 90
        2
102
RTVSPost2010PropOp53
 70
     1
102
RTVSPost2010Prop54
  1
strokes_ogs.tif
102
RTVSPost2010PropOp54
 70
     1
102
RTVSPost2010Prop55
280
     0
102
RTVSPost2010PropOp55
 70
     1
102
RTVSPost2010Prop56
140
1.0
102
RTVSPost2010PropOp56
 70
     1
102
RTVSPost2010Prop57
140
1.0
102
RTVSPost2010PropOp57
 70
     1
  0
XRECORD
  5
3EC
102
{ACAD_REACTORS
330
3EB
102
}
330
3EB
100
AcDbXrecord
280
     1
102
RTVSPropertyOp0
 70
     1
102
RTVSPropertyOp1
 70
     1
102
RTVSPropertyOp2
 70
     1
102
RTVSPropertyOp3
 70
     1
102
RTVSPropertyOp4
 70
     1
102
RTVSPropertyOp5
 70
     1
102
RTVSPropertyOp6
 70
     1
102
RTVSPropertyOp7
 70
     1
102
RTVSPropertyOp8
 70
     1
102
RTVSPropertyOp9
 70
     1
102
RTVSPropertyOp10
 70
     1
102
RTVSPropertyOp11
 70
     1
102
RTVSPropertyOp12
 70
     1
102
RTVSPropertyOp13
 70
     1
102
RTVSPropertyOp14
 70
     1
102
RTVSPropertyOp15
 70
     1
102
RTVSPropertyOp16
 70
     1
102
RTVSPropertyOp17
 70
     1
102
RTVSPropertyOp18
 70
     1
102
RTVSPropertyOp19
 70
     1
102
RTVSPropertyOp20
 70
     1
102
RTVSPropertyOp21
 70
     1
102
RTVSPropertyOp22
 70
     1
102
RTVSPropertyOp23
 70
     1
102
RTVSPropertyOp24
 70
     1
102
RTVSPropertyOp25
 70
     1
102
RTVSPropertyOp26
 70
     1
102
RTVSPropertyOp27
 70
     1
102
RTVSPropertyOp28
 70
     1
102
RTVSPropertyOp29
 70
     1
102
RTVSPropertyOp30
 70
     1
102
RTVSPropertyOp31
 70
     1
102
RTVSPropertyOp32
 70
     1
102
RTVSPropertyOp33
 70
     1
102
RTVSPropertyOp34
 70
     1
102
RTVSPropertyOp35
 70
     1
102
RTVSPropertyOp36
 70
     1
102
RTVSPropertyOp37
 70
     1
102
RTVSPropertyOp38
 70
     1
102
RTVSPropertyOp39
 70
     1
102
RTVSPropertyOp40
 70
     1
102
RTVSPropertyOp41
 70
     1
102
RTVSPropertyOp42
 70
     1
102
RTVSPropertyOp43
 70
     1
102
RTVSPropertyOp44
 70
     1
102
RTVSPropertyOp45
 70
     1
102
RTVSPropertyOp46
 70
     1
102
RTVSPropertyOp47
 70
     1
102
RTVSPropertyOp48
 70
     1
102
RTVSPropertyOp49
 70
     1
102
RTVSPropertyOp50
 70
     1
102
RTVSPropertyOp51
 70
     0
102
RTVSPropertyOp52
 70
     0
102
RTVSPropertyOp53
 70
     1
102
RTVSPropertyOp54
 70
     1
102
RTVSPropertyOp55
 70
     1
102
RTVSPropertyOp56
 70
     1
102
RTVSPropertyOp57
 70
     1
102
RTVSPost2010Prop28
280
     0
102
RTVSPost2010PropOp28
 70
     1
102
RTVSPost2010Prop29
280
     1
102
RTVSPost2010PropOp29
 70
     1
102
RTVSPost2010Prop30
280
     1
102
RTVSPost2010PropOp30
 70
     1
102
RTVSPost2010Prop31
280
     0
102
RTVSPost2010PropOp31
 70
     1
102
RTVSPost2010Prop32
280
     0
102
RTVSPost2010PropOp32
 70
     1
102
RTVSPost2010Prop33
280
     0
102
RTVSPost2010PropOp33
 70
     1
102
RTVSPost2010Prop34
280
     0
102
RTVSPost2010PropOp34
 70
     1
102
RTVSPost2010Prop35
280
     0
102
RTVSPost2010PropOp35
 70
     1
102
RTVSPost2010Prop36
280
     0
102
RTVSPost2010PropOp36
 70
     1
102
RTVSPost2010Prop37
 90
       50
102
RTVSPost2010PropOp37
 70
     1
102
RTVSPost2010Prop38
140
0.0
102
RTVSPost2010PropOp38
 70
     1
102
RTVSPost2010Prop39
140
1.0
102
RTVSPost2010PropOp39
 70
     1
102
RTVSPost2010Prop40
 90
        0
102
RTVSPost2010PropOp40
 70
     1
102
RTVSPost2010Prop41ColorIndex
 90
       18
102
RTVSPost2010Prop41ColorRGB
 90
        0
102
RTVSPost2010PropOp41
 70
     1
102
RTVSPost2010Prop42
 90
       50
102
RTVSPost2010PropOp42
 70
     1
102
RTVSPost2010Prop43
 90
        3
102
RTVSPost2010PropOp43
 70
     1
102
RTVSPost2010Prop44ColorIndex
 90
        5
102
RTVSPost2010Prop44ColorRGB
 90
      255
102
RTVSPost2010PropOp44
 70
     1
102
RTVSPost2010Prop45
280
     0
102
RTVSPost2010PropOp45
 70
     1
102
RTVSPost2010Prop46
 90
       50
102
RTVSPost2010PropOp46
 70
     1
102
RTVSPost2010Prop47
 90
       50
102
RTVSPost2010PropOp47
 70
     1
102
RTVSPost2010Prop48
 90
       50
102
RTVSPost2010PropOp48
 70
     1
102
RTVSPost2010Prop49
280
     0
102
RTVSPost2010PropOp49
 70
     1
102
RTVSPost2010Prop50
 90
       50
102
RTVSPost2010PropOp50
 70
     1
102
RTVSPost2010Prop51ColorIndex
 90
      256
102
RTVSPost2010Prop51ColorRGB
 90
-16777216
102
RTVSPost2010PropOp51
 70
     0
102
RTVSPost2010Prop52
140
1.0
102
RTVSPost2010PropOp52
 70
     0
102
RTVSPost2010Prop53
 90
        2
102
RTVSPost2010PropOp53
 70
     1
102
RTVSPost2010Prop54
  1
strokes_ogs.tif
102
RTVSPost2010PropOp54
 70
     1
102
RTVSPost2010Prop55
280
     0
102
RTVSPost2010PropOp55
 70
     1
102
RTVSPost2010Prop56
140
1.0
102
RTVSPost2010PropOp56
 70
     1
102
RTVSPost2010Prop57
140
1.0
102
RTVSPost2010PropOp57
 70
     1
  0
XRECORD
  5
3E6
102
{ACAD_REACTORS
330
3E5
102
}
330
3E5
100
AcDbXrecord
280
     1
102
RTVSPropertyOp0
 70
     1
102
RTVSPropertyOp1
 70
     1
102
RTVSPropertyOp2
 70
     1
102
RTVSPropertyOp3
 70
     1
102
RTVSPropertyOp4
 70
     1
102
RTVSPropertyOp5
 70
     1
102
RTVSPropertyOp6
 70
     1
102
RTVSPropertyOp7
 70
     1
102
RTVSPropertyOp8
 70
     1
102
RTVSPropertyOp9
 70
     1
102
RTVSPropertyOp10
 70
     1
102
RTVSPropertyOp11
 70
     1
102
RTVSPropertyOp12
 70
     1
102
RTVSPropertyOp13
 70
     1
102
RTVSPropertyOp14
 70
     1
102
RTVSPropertyOp15
 70
     1
102
RTVSPropertyOp16
 70
     1
102
RTVSPropertyOp17
 70
     1
102
RTVSPropertyOp18
 70
     1
102
RTVSPropertyOp19
 70
     1
102
RTVSPropertyOp20
 70
     1
102
RTVSPropertyOp21
 70
     1
102
RTVSPropertyOp22
 70
     1
102
RTVSPropertyOp23
 70
     1
102
RTVSPropertyOp24
 70
     1
102
RTVSPropertyOp25
 70
     1
102
RTVSPropertyOp26
 70
     1
102
RTVSPropertyOp27
 70
     1
102
RTVSPropertyOp28
 70
     1
102
RTVSPropertyOp29
 70
     1
102
RTVSPropertyOp30
 70
     1
102
RTVSPropertyOp31
 70
     1
102
RTVSPropertyOp32
 70
     1
102
RTVSPropertyOp33
 70
     1
102
RTVSPropertyOp34
 70
     1
102
RTVSPropertyOp35
 70
     1
102
RTVSPropertyOp36
 70
     1
102
RTVSPropertyOp37
 70
     1
102
RTVSPropertyOp38
 70
     1
102
RTVSPropertyOp39
 70
     1
102
RTVSPropertyOp40
 70
     1
102
RTVSPropertyOp41
 70
     1
102
RTVSPropertyOp42
 70
     1
102
RTVSPropertyOp43
 70
     1
102
RTVSPropertyOp44
 70
     1
102
RTVSPropertyOp45
 70
     1
102
RTVSPropertyOp46
 70
     1
102
RTVSPropertyOp47
 70
     1
102
RTVSPropertyOp48
 70
     1
102
RTVSPropertyOp49
 70
     1
102
RTVSPropertyOp50
 70
     1
102
RTVSPropertyOp51
 70
     0
102
RTVSPropertyOp52
 70
     0
102
RTVSPropertyOp53
 70
     1
102
RTVSPropertyOp54
 70
     1
102
RTVSPropertyOp55
 70
     1
102
RTVSPropertyOp56
 70
     1
102
RTVSPropertyOp57
 70
     1
102
RTVSPost2010Prop28
280
     0
102
RTVSPost2010PropOp28
 70
     1
102
RTVSPost2010Prop29
280
     1
102
RTVSPost2010PropOp29
 70
     1
102
RTVSPost2010Prop30
280
     1
102
RTVSPost2010PropOp30
 70
     1
102
RTVSPost2010Prop31
280
     0
102
RTVSPost2010PropOp31
 70
     1
102
RTVSPost2010Prop32
280
     0
102
RTVSPost2010PropOp32
 70
     1
102
RTVSPost2010Prop33
280
     0
102
RTVSPost2010PropOp33
 70
     1
102
RTVSPost2010Prop34
280
     0
102
RTVSPost2010PropOp34
 70
     1
102
RTVSPost2010Prop35
280
     0
102
RTVSPost2010PropOp35
 70
     1
102
RTVSPost2010Prop36
280
     0
102
RTVSPost2010PropOp36
 70
     1
102
RTVSPost2010Prop37
 90
       50
102
RTVSPost2010PropOp37
 70
     1
102
RTVSPost2010Prop38
140
0.0
102
RTVSPost2010PropOp38
 70
     1
102
RTVSPost2010Prop39
140
1.0
102
RTVSPost2010PropOp39
 70
     1
102
RTVSPost2010Prop40
 90
        0
102
RTVSPost2010PropOp40
 70
     1
102
RTVSPost2010Prop41ColorIndex
 90
       18
102
RTVSPost2010Prop41ColorRGB
 90
        0
102
RTVSPost2010PropOp41
 70
     1
102
RTVSPost2010Prop42
 90
       50
102
RTVSPost2010PropOp42
 70
     1
102
RTVSPost2010Prop43
 90
        3
102
RTVSPost2010PropOp43
 70
     1
102
RTVSPost2010Prop44ColorIndex
 90
        5
102
RTVSPost2010Prop44ColorRGB
 90
      255
102
RTVSPost2010PropOp44
 70
     1
102
RTVSPost2010Prop45
280
     0
102
RTVSPost2010PropOp45
 70
     1
102
RTVSPost2010Prop46
 90
       50
102
RTVSPost2010PropOp46
 70
     1
102
RTVSPost2010Prop47
 90
       50
102
RTVSPost2010PropOp47
 70
     1
102
RTVSPost2010Prop48
 90
       50
102
RTVSPost2010PropOp48
 70
     1
102
RTVSPost2010Prop49
280
     0
102
RTVSPost2010PropOp49
 70
     1
102
RTVSPost2010Prop50
 90
       50
102
RTVSPost2010PropOp50
 70
     1
102
RTVSPost2010Prop51ColorIndex
 90
      256
102
RTVSPost2010Prop51ColorRGB
 90
-16777216
102
RTVSPost2010PropOp51
 70
     0
102
RTVSPost2010Prop52
140
1.0
102
RTVSPost2010PropOp52
 70
     0
102
RTVSPost2010Prop53
 90
        2
102
RTVSPost2010PropOp53
 70
     1
102
RTVSPost2010Prop54
  1
strokes_ogs.tif
102
RTVSPost2010PropOp54
 70
     1
102
RTVSPost2010Prop55
280
     0
102
RTVSPost2010PropOp55
 70
     1
102
RTVSPost2010Prop56
140
1.0
102
RTVSPost2010PropOp56
 70
     1
102
RTVSPost2010Prop57
140
1.0
102
RTVSPost2010PropOp57
 70
     1
  0
XRECORD
  5
3E8
102
{ACAD_REACTORS
330
3E7
102
}
330
3E7
100
AcDbXrecord
280
     1
102
RTVSPropertyOp0
 70
     1
102
RTVSPropertyOp1
 70
     1
102
RTVSPropertyOp2
 70
     1
102
RTVSPropertyOp3
 70
     1
102
RTVSPropertyOp4
 70
     1
102
RTVSPropertyOp5
 70
     1
102
RTVSPropertyOp6
 70
     1
102
RTVSPropertyOp7
 70
     1
102
RTVSPropertyOp8
 70
     1
102
RTVSPropertyOp9
 70
     1
102
RTVSPropertyOp10
 70
     1
102
RTVSPropertyOp11
 70
     1
102
RTVSPropertyOp12
 70
     1
102
RTVSPropertyOp13
 70
     1
102
RTVSPropertyOp14
 70
     1
102
RTVSPropertyOp15
 70
     1
102
RTVSPropertyOp16
 70
     1
102
RTVSPropertyOp17
 70
     1
102
RTVSPropertyOp18
 70
     1
102
RTVSPropertyOp19
 70
     1
102
RTVSPropertyOp20
 70
     1
102
RTVSPropertyOp21
 70
     1
102
RTVSPropertyOp22
 70
     1
102
RTVSPropertyOp23
 70
     1
102
RTVSPropertyOp24
 70
     1
102
RTVSPropertyOp25
 70
     1
102
RTVSPropertyOp26
 70
     1
102
RTVSPropertyOp27
 70
     1
102
RTVSPropertyOp28
 70
     1
102
RTVSPropertyOp29
 70
     1
102
RTVSPropertyOp30
 70
     1
102
RTVSPropertyOp31
 70
     1
102
RTVSPropertyOp32
 70
     1
102
RTVSPropertyOp33
 70
     1
102
RTVSPropertyOp34
 70
     1
102
RTVSPropertyOp35
 70
     1
102
RTVSPropertyOp36
 70
     1
102
RTVSPropertyOp37
 70
     1
102
RTVSPropertyOp38
 70
     1
102
RTVSPropertyOp39
 70
     1
102
RTVSPropertyOp40
 70
     1
102
RTVSPropertyOp41
 70
     1
102
RTVSPropertyOp42
 70
     1
102
RTVSPropertyOp43
 70
     1
102
RTVSPropertyOp44
 70
     1
102
RTVSPropertyOp45
 70
     1
102
RTVSPropertyOp46
 70
     1
102
RTVSPropertyOp47
 70
     1
102
RTVSPropertyOp48
 70
     1
102
RTVSPropertyOp49
 70
     1
102
RTVSPropertyOp50
 70
     1
102
RTVSPropertyOp51
 70
     0
102
RTVSPropertyOp52
 70
     0
102
RTVSPropertyOp53
 70
     1
102
RTVSPropertyOp54
 70
     1
102
RTVSPropertyOp55
 70
     1
102
RTVSPropertyOp56
 70
     1
102
RTVSPropertyOp57
 70
     1
102
RTVSPost2010Prop28
280
     0
102
RTVSPost2010PropOp28
 70
     1
102
RTVSPost2010Prop29
280
     1
102
RTVSPost2010PropOp29
 70
     1
102
RTVSPost2010Prop30
280
     1
102
RTVSPost2010PropOp30
 70
     1
102
RTVSPost2010Prop31
280
     0
102
RTVSPost2010PropOp31
 70
     1
102
RTVSPost2010Prop32
280
     0
102
RTVSPost2010PropOp32
 70
     1
102
RTVSPost2010Prop33
280
     0
102
RTVSPost2010PropOp33
 70
     1
102
RTVSPost2010Prop34
280
     0
102
RTVSPost2010PropOp34
 70
     1
102
RTVSPost2010Prop35
280
     0
102
RTVSPost2010PropOp35
 70
     1
102
RTVSPost2010Prop36
280
     0
102
RTVSPost2010PropOp36
 70
     1
102
RTVSPost2010Prop37
 90
       50
102
RTVSPost2010PropOp37
 70
     1
102
RTVSPost2010Prop38
140
0.0
102
RTVSPost2010PropOp38
 70
     1
102
RTVSPost2010Prop39
140
1.0
102
RTVSPost2010PropOp39
 70
     1
102
RTVSPost2010Prop40
 90
        0
102
RTVSPost2010PropOp40
 70
     1
102
RTVSPost2010Prop41ColorIndex
 90
       18
102
RTVSPost2010Prop41ColorRGB
 90
        0
102
RTVSPost2010PropOp41
 70
     1
102
RTVSPost2010Prop42
 90
       50
102
RTVSPost2010PropOp42
 70
     1
102
RTVSPost2010Prop43
 90
        3
102
RTVSPost2010PropOp43
 70
     1
102
RTVSPost2010Prop44ColorIndex
 90
        5
102
RTVSPost2010Prop44ColorRGB
 90
      255
102
RTVSPost2010PropOp44
 70
     1
102
RTVSPost2010Prop45
280
     0
102
RTVSPost2010PropOp45
 70
     1
102
RTVSPost2010Prop46
 90
       50
102
RTVSPost2010PropOp46
 70
     1
102
RTVSPost2010Prop47
 90
       50
102
RTVSPost2010PropOp47
 70
     1
102
RTVSPost2010Prop48
 90
       50
102
RTVSPost2010PropOp48
 70
     1
102
RTVSPost2010Prop49
280
     0
102
RTVSPost2010PropOp49
 70
     1
102
RTVSPost2010Prop50
 90
       50
102
RTVSPost2010PropOp50
 70
     1
102
RTVSPost2010Prop51ColorIndex
 90
      256
102
RTVSPost2010Prop51ColorRGB
 90
-16777216
102
RTVSPost2010PropOp51
 70
     0
102
RTVSPost2010Prop52
140
1.0
102
RTVSPost2010PropOp52
 70
     0
102
RTVSPost2010Prop53
 90
        2
102
RTVSPost2010PropOp53
 70
     1
102
RTVSPost2010Prop54
  1
strokes_ogs.tif
102
RTVSPost2010PropOp54
 70
     1
102
RTVSPost2010Prop55
280
     0
102
RTVSPost2010PropOp55
 70
     1
102
RTVSPost2010Prop56
140
1.0
102
RTVSPost2010PropOp56
 70
     1
102
RTVSPost2010Prop57
140
1.0
102
RTVSPost2010PropOp57
 70
     1
  0
XRECORD
  5
3D8
102
{ACAD_REACTORS
330
3D7
102
}
330
3D7
100
AcDbXrecord
280
     1
102
RTVSPropertyOp0
 70
     1
102
RTVSPropertyOp1
 70
     1
102
RTVSPropertyOp2
 70
     1
102
RTVSPropertyOp3
 70
     1
102
RTVSPropertyOp4
 70
     1
102
RTVSPropertyOp5
 70
     1
102
RTVSPropertyOp6
 70
     1
102
RTVSPropertyOp7
 70
     1
102
RTVSPropertyOp8
 70
     1
102
RTVSPropertyOp9
 70
     1
102
RTVSPropertyOp10
 70
     1
102
RTVSPropertyOp11
 70
     1
102
RTVSPropertyOp12
 70
     1
102
RTVSPropertyOp13
 70
     1
102
RTVSPropertyOp14
 70
     1
102
RTVSPropertyOp15
 70
     1
102
RTVSPropertyOp16
 70
     1
102
RTVSPropertyOp17
 70
     1
102
RTVSPropertyOp18
 70
     1
102
RTVSPropertyOp19
 70
     1
102
RTVSPropertyOp20
 70
     1
102
RTVSPropertyOp21
 70
     1
102
RTVSPropertyOp22
 70
     1
102
RTVSPropertyOp23
 70
     1
102
RTVSPropertyOp24
 70
     1
102
RTVSPropertyOp25
 70
     1
102
RTVSPropertyOp26
 70
     1
102
RTVSPropertyOp27
 70
     1
102
RTVSPropertyOp28
 70
     1
102
RTVSPropertyOp29
 70
     1
102
RTVSPropertyOp30
 70
     1
102
RTVSPropertyOp31
 70
     1
102
RTVSPropertyOp32
 70
     1
102
RTVSPropertyOp33
 70
     1
102
RTVSPropertyOp34
 70
     1
102
RTVSPropertyOp35
 70
     1
102
RTVSPropertyOp36
 70
     1
102
RTVSPropertyOp37
 70
     1
102
RTVSPropertyOp38
 70
     1
102
RTVSPropertyOp39
 70
     1
102
RTVSPropertyOp40
 70
     1
102
RTVSPropertyOp41
 70
     1
102
RTVSPropertyOp42
 70
     1
102
RTVSPropertyOp43
 70
     1
102
RTVSPropertyOp44
 70
     1
102
RTVSPropertyOp45
 70
     1
102
RTVSPropertyOp46
 70
     1
102
RTVSPropertyOp47
 70
     1
102
RTVSPropertyOp48
 70
     1
102
RTVSPropertyOp49
 70
     1
102
RTVSPropertyOp50
 70
     1
102
RTVSPropertyOp51
 70
     0
102
RTVSPropertyOp52
 70
     0
102
RTVSPropertyOp53
 70
     1
102
RTVSPropertyOp54
 70
     1
102
RTVSPropertyOp55
 70
     1
102
RTVSPropertyOp56
 70
     1
102
RTVSPropertyOp57
 70
     1
102
RTVSPost2010Prop28
280
     0
102
RTVSPost2010PropOp28
 70
     1
102
RTVSPost2010Prop29
280
     1
102
RTVSPost2010PropOp29
 70
     1
102
RTVSPost2010Prop30
280
     1
102
RTVSPost2010PropOp30
 70
     1
102
RTVSPost2010Prop31
280
     0
102
RTVSPost2010PropOp31
 70
     1
102
RTVSPost2010Prop32
280
     0
102
RTVSPost2010PropOp32
 70
     1
102
RTVSPost2010Prop33
280
     0
102
RTVSPost2010PropOp33
 70
     1
102
RTVSPost2010Prop34
280
     0
102
RTVSPost2010PropOp34
 70
     1
102
RTVSPost2010Prop35
280
     0
102
RTVSPost2010PropOp35
 70
     1
102
RTVSPost2010Prop36
280
     0
102
RTVSPost2010PropOp36
 70
     1
102
RTVSPost2010Prop37
 90
       50
102
RTVSPost2010PropOp37
 70
     1
102
RTVSPost2010Prop38
140
0.0
102
RTVSPost2010PropOp38
 70
     1
102
RTVSPost2010Prop39
140
1.0
102
RTVSPost2010PropOp39
 70
     1
102
RTVSPost2010Prop40
 90
        0
102
RTVSPost2010PropOp40
 70
     1
102
RTVSPost2010Prop41ColorIndex
 90
       18
102
RTVSPost2010Prop41ColorRGB
 90
        0
102
RTVSPost2010PropOp41
 70
     1
102
RTVSPost2010Prop42
 90
       50
102
RTVSPost2010PropOp42
 70
     1
102
RTVSPost2010Prop43
 90
        3
102
RTVSPost2010PropOp43
 70
     1
102
RTVSPost2010Prop44ColorIndex
 90
        5
102
RTVSPost2010Prop44ColorRGB
 90
      255
102
RTVSPost2010PropOp44
 70
     1
102
RTVSPost2010Prop45
280
     0
102
RTVSPost2010PropOp45
 70
     1
102
RTVSPost2010Prop46
 90
       50
102
RTVSPost2010PropOp46
 70
     1
102
RTVSPost2010Prop47
 90
       50
102
RTVSPost2010PropOp47
 70
     1
102
RTVSPost2010Prop48
 90
       50
102
RTVSPost2010PropOp48
 70
     1
102
RTVSPost2010Prop49
280
     0
102
RTVSPost2010PropOp49
 70
     1
102
RTVSPost2010Prop50
 90
       50
102
RTVSPost2010PropOp50
 70
     1
102
RTVSPost2010Prop51ColorIndex
 90
      256
102
RTVSPost2010Prop51ColorRGB
 90
-16777216
102
RTVSPost2010PropOp51
 70
     0
102
RTVSPost2010Prop52
140
1.0
102
RTVSPost2010PropOp52
 70
     0
102
RTVSPost2010Prop53
 90
        2
102
RTVSPost2010PropOp53
 70
     1
102
RTVSPost2010Prop54
  1
strokes_ogs.tif
102
RTVSPost2010PropOp54
 70
     1
102
RTVSPost2010Prop55
280
     0
102
RTVSPost2010PropOp55
 70
     1
102
RTVSPost2010Prop56
140
1.0
102
RTVSPost2010PropOp56
 70
     1
102
RTVSPost2010Prop57
140
1.0
102
RTVSPost2010PropOp57
 70
     1
  0
XRECORD
  5
3CA
102
{ACAD_REACTORS
330
3C9
102
}
330
3C9
100
AcDbXrecord
280
     1
102
RTVSPropertyOp0
 70
     1
102
RTVSPropertyOp1
 70
     1
102
RTVSPropertyOp2
 70
     1
102
RTVSPropertyOp3
 70
     1
102
RTVSPropertyOp4
 70
     1
102
RTVSPropertyOp5
 70
     1
102
RTVSPropertyOp6
 70
     1
102
RTVSPropertyOp7
 70
     1
102
RTVSPropertyOp8
 70
     1
102
RTVSPropertyOp9
 70
     1
102
RTVSPropertyOp10
 70
     1
102
RTVSPropertyOp11
 70
     1
102
RTVSPropertyOp12
 70
     1
102
RTVSPropertyOp13
 70
     1
102
RTVSPropertyOp14
 70
     1
102
RTVSPropertyOp15
 70
     1
102
RTVSPropertyOp16
 70
     1
102
RTVSPropertyOp17
 70
     1
102
RTVSPropertyOp18
 70
     1
102
RTVSPropertyOp19
 70
     1
102
RTVSPropertyOp20
 70
     1
102
RTVSPropertyOp21
 70
     1
102
RTVSPropertyOp22
 70
     1
102
RTVSPropertyOp23
 70
     1
102
RTVSPropertyOp24
 70
     1
102
RTVSPropertyOp25
 70
     1
102
RTVSPropertyOp26
 70
     1
102
RTVSPropertyOp27
 70
     1
102
RTVSPropertyOp28
 70
     1
102
RTVSPropertyOp29
 70
     1
102
RTVSPropertyOp30
 70
     1
102
RTVSPropertyOp31
 70
     1
102
RTVSPropertyOp32
 70
     1
102
RTVSPropertyOp33
 70
     1
102
RTVSPropertyOp34
 70
     1
102
RTVSPropertyOp35
 70
     1
102
RTVSPropertyOp36
 70
     1
102
RTVSPropertyOp37
 70
     1
102
RTVSPropertyOp38
 70
     1
102
RTVSPropertyOp39
 70
     1
102
RTVSPropertyOp40
 70
     1
102
RTVSPropertyOp41
 70
     1
102
RTVSPropertyOp42
 70
     1
102
RTVSPropertyOp43
 70
     1
102
RTVSPropertyOp44
 70
     1
102
RTVSPropertyOp45
 70
     1
102
RTVSPropertyOp46
 70
     1
102
RTVSPropertyOp47
 70
     1
102
RTVSPropertyOp48
 70
     1
102
RTVSPropertyOp49
 70
     1
102
RTVSPropertyOp50
 70
     1
102
RTVSPropertyOp51
 70
     0
102
RTVSPropertyOp52
 70
     0
102
RTVSPropertyOp53
 70
     1
102
RTVSPropertyOp54
 70
     1
102
RTVSPropertyOp55
 70
     1
102
RTVSPropertyOp56
 70
     1
102
RTVSPropertyOp57
 70
     1
102
RTVSPost2010Prop28
280
     0
102
RTVSPost2010PropOp28
 70
     1
102
RTVSPost2010Prop29
280
     1
102
RTVSPost2010PropOp29
 70
     1
102
RTVSPost2010Prop30
280
     1
102
RTVSPost2010PropOp30
 70
     1
102
RTVSPost2010Prop31
280
     0
102
RTVSPost2010PropOp31
 70
     1
102
RTVSPost2010Prop32
280
     0
102
RTVSPost2010PropOp32
 70
     1
102
RTVSPost2010Prop33
280
     0
102
RTVSPost2010PropOp33
 70
     1
102
RTVSPost2010Prop34
280
     0
102
RTVSPost2010PropOp34
 70
     1
102
RTVSPost2010Prop35
280
     0
102
RTVSPost2010PropOp35
 70
     1
102
RTVSPost2010Prop36
280
     0
102
RTVSPost2010PropOp36
 70
     1
102
RTVSPost2010Prop37
 90
       50
102
RTVSPost2010PropOp37
 70
     1
102
RTVSPost2010Prop38
140
0.0
102
RTVSPost2010PropOp38
 70
     1
102
RTVSPost2010Prop39
140
1.0
102
RTVSPost2010PropOp39
 70
     1
102
RTVSPost2010Prop40
 90
        0
102
RTVSPost2010PropOp40
 70
     1
102
RTVSPost2010Prop41ColorIndex
 90
       18
102
RTVSPost2010Prop41ColorRGB
 90
        0
102
RTVSPost2010PropOp41
 70
     1
102
RTVSPost2010Prop42
 90
       50
102
RTVSPost2010PropOp42
 70
     1
102
RTVSPost2010Prop43
 90
        3
102
RTVSPost2010PropOp43
 70
     1
102
RTVSPost2010Prop44ColorIndex
 90
        5
102
RTVSPost2010Prop44ColorRGB
 90
      255
102
RTVSPost2010PropOp44
 70
     1
102
RTVSPost2010Prop45
280
     0
102
RTVSPost2010PropOp45
 70
     1
102
RTVSPost2010Prop46
 90
       50
102
RTVSPost2010PropOp46
 70
     1
102
RTVSPost2010Prop47
 90
       50
102
RTVSPost2010PropOp47
 70
     1
102
RTVSPost2010Prop48
 90
       50
102
RTVSPost2010PropOp48
 70
     1
102
RTVSPost2010Prop49
280
     0
102
RTVSPost2010PropOp49
 70
     1
102
RTVSPost2010Prop50
 90
       50
102
RTVSPost2010PropOp50
 70
     1
102
RTVSPost2010Prop51ColorIndex
 90
      256
102
RTVSPost2010Prop51ColorRGB
 90
-16777216
102
RTVSPost2010PropOp51
 70
     0
102
RTVSPost2010Prop52
140
1.0
102
RTVSPost2010PropOp52
 70
     0
102
RTVSPost2010Prop53
 90
        2
102
RTVSPost2010PropOp53
 70
     1
102
RTVSPost2010Prop54
  1
strokes_ogs.tif
102
RTVSPost2010PropOp54
 70
     1
102
RTVSPost2010Prop55
280
     0
102
RTVSPost2010PropOp55
 70
     1
102
RTVSPost2010Prop56
140
1.0
102
RTVSPost2010PropOp56
 70
     1
102
RTVSPost2010Prop57
140
1.0
102
RTVSPost2010PropOp57
 70
     1
  0
XRECORD
  5
3EA
102
{ACAD_REACTORS
330
3E9
102
}
330
3E9
100
AcDbXrecord
280
     1
102
RTVSPropertyOp0
 70
     1
102
RTVSPropertyOp1
 70
     1
102
RTVSPropertyOp2
 70
     1
102
RTVSPropertyOp3
 70
     1
102
RTVSPropertyOp4
 70
     1
102
RTVSPropertyOp5
 70
     1
102
RTVSPropertyOp6
 70
     1
102
RTVSPropertyOp7
 70
     1
102
RTVSPropertyOp8
 70
     1
102
RTVSPropertyOp9
 70
     1
102
RTVSPropertyOp10
 70
     1
102
RTVSPropertyOp11
 70
     1
102
RTVSPropertyOp12
 70
     1
102
RTVSPropertyOp13
 70
     1
102
RTVSPropertyOp14
 70
     1
102
RTVSPropertyOp15
 70
     1
102
RTVSPropertyOp16
 70
     1
102
RTVSPropertyOp17
 70
     1
102
RTVSPropertyOp18
 70
     1
102
RTVSPropertyOp19
 70
     1
102
RTVSPropertyOp20
 70
     1
102
RTVSPropertyOp21
 70
     1
102
RTVSPropertyOp22
 70
     1
102
RTVSPropertyOp23
 70
     1
102
RTVSPropertyOp24
 70
     1
102
RTVSPropertyOp25
 70
     1
102
RTVSPropertyOp26
 70
     1
102
RTVSPropertyOp27
 70
     1
102
RTVSPropertyOp28
 70
     1
102
RTVSPropertyOp29
 70
     1
102
RTVSPropertyOp30
 70
     1
102
RTVSPropertyOp31
 70
     1
102
RTVSPropertyOp32
 70
     1
102
RTVSPropertyOp33
 70
     1
102
RTVSPropertyOp34
 70
     1
102
RTVSPropertyOp35
 70
     1
102
RTVSPropertyOp36
 70
     1
102
RTVSPropertyOp37
 70
     1
102
RTVSPropertyOp38
 70
     1
102
RTVSPropertyOp39
 70
     1
102
RTVSPropertyOp40
 70
     1
102
RTVSPropertyOp41
 70
     1
102
RTVSPropertyOp42
 70
     1
102
RTVSPropertyOp43
 70
     1
102
RTVSPropertyOp44
 70
     1
102
RTVSPropertyOp45
 70
     1
102
RTVSPropertyOp46
 70
     1
102
RTVSPropertyOp47
 70
     1
102
RTVSPropertyOp48
 70
     1
102
RTVSPropertyOp49
 70
     1
102
RTVSPropertyOp50
 70
     1
102
RTVSPropertyOp51
 70
     0
102
RTVSPropertyOp52
 70
     0
102
RTVSPropertyOp53
 70
     1
102
RTVSPropertyOp54
 70
     1
102
RTVSPropertyOp55
 70
     1
102
RTVSPropertyOp56
 70
     1
102
RTVSPropertyOp57
 70
     1
102
RTVSPost2010Prop28
280
     0
102
RTVSPost2010PropOp28
 70
     1
102
RTVSPost2010Prop29
280
     1
102
RTVSPost2010PropOp29
 70
     1
102
RTVSPost2010Prop30
280
     1
102
RTVSPost2010PropOp30
 70
     1
102
RTVSPost2010Prop31
280
     0
102
RTVSPost2010PropOp31
 70
     1
102
RTVSPost2010Prop32
280
     0
102
RTVSPost2010PropOp32
 70
     1
102
RTVSPost2010Prop33
280
     0
102
RTVSPost2010PropOp33
 70
     1
102
RTVSPost2010Prop34
280
     0
102
RTVSPost2010PropOp34
 70
     1
102
RTVSPost2010Prop35
280
     0
102
RTVSPost2010PropOp35
 70
     1
102
RTVSPost2010Prop36
280
     0
102
RTVSPost2010PropOp36
 70
     1
102
RTVSPost2010Prop37
 90
       50
102
RTVSPost2010PropOp37
 70
     1
102
RTVSPost2010Prop38
140
0.0
102
RTVSPost2010PropOp38
 70
     1
102
RTVSPost2010Prop39
140
1.0
102
RTVSPost2010PropOp39
 70
     1
102
RTVSPost2010Prop40
 90
        0
102
RTVSPost2010PropOp40
 70
     1
102
RTVSPost2010Prop41ColorIndex
 90
       18
102
RTVSPost2010Prop41ColorRGB
 90
        0
102
RTVSPost2010PropOp41
 70
     1
102
RTVSPost2010Prop42
 90
       50
102
RTVSPost2010PropOp42
 70
     1
102
RTVSPost2010Prop43
 90
        3
102
RTVSPost2010PropOp43
 70
     1
102
RTVSPost2010Prop44ColorIndex
 90
        5
102
RTVSPost2010Prop44ColorRGB
 90
      255
102
RTVSPost2010PropOp44
 70
     1
102
RTVSPost2010Prop45
280
     0
102
RTVSPost2010PropOp45
 70
     1
102
RTVSPost2010Prop46
 90
       50
102
RTVSPost2010PropOp46
 70
     1
102
RTVSPost2010Prop47
 90
       50
102
RTVSPost2010PropOp47
 70
     1
102
RTVSPost2010Prop48
 90
       50
102
RTVSPost2010PropOp48
 70
     1
102
RTVSPost2010Prop49
280
     0
102
RTVSPost2010PropOp49
 70
     1
102
RTVSPost2010Prop50
 90
       50
102
RTVSPost2010PropOp50
 70
     1
102
RTVSPost2010Prop51ColorIndex
 90
      256
102
RTVSPost2010Prop51ColorRGB
 90
-16777216
102
RTVSPost2010PropOp51
 70
     0
102
RTVSPost2010Prop52
140
1.0
102
RTVSPost2010PropOp52
 70
     0
102
RTVSPost2010Prop53
 90
        2
102
RTVSPost2010PropOp53
 70
     1
102
RTVSPost2010Prop54
  1
strokes_ogs.tif
102
RTVSPost2010PropOp54
 70
     1
102
RTVSPost2010Prop55
280
     0
102
RTVSPost2010PropOp55
 70
     1
102
RTVSPost2010Prop56
140
1.0
102
RTVSPost2010PropOp56
 70
     1
102
RTVSPost2010Prop57
140
1.0
102
RTVSPost2010PropOp57
 70
     1
  0
ENDSEC
  0
EOF
