  0
SECTION
  2
HEADER
  9
$ACADVER
  1
AC1018
  9
$ACADMAINTVER
 70
     0
  9
$DWGCODEPAGE
  3
ANSI_932
  9
$INSBASE
 10
0.0
 20
0.0
 30
0.0
  9
$EXTMIN
 10
-1050.0
 20
-742.5
 30
0.0
  9
$EXTMAX
 10
1050.0
 20
742.5
 30
0.0
  9
$LIMMIN
 10
-1050.0
 20
-742.5
  9
$LIMMAX
 10
1050.0
 20
742.5
  9
$ORTHOMODE
 70
     0
  9
$REGENMODE
 70
     1
  9
$FILLMODE
 70
     1
  9
$QTEXTMODE
 70
     0
  9
$MIRRTEXT
 70
     1
  9
$LTSCALE
 40
5.0
  9
$ATTMODE
 70
     1
  9
$TEXTSIZE
 40
2.5
  9
$TRACEWID
 40
1.0
  9
$TEXTSTYLE
  7
Standard
  9
$CLAYER
  8
0
  9
$CELTYPE
  6
ByLayer
  9
$CECOLOR
 62
   256
  9
$CELTSCALE
 40
1.0
  9
$DISPSILH
 70
     0
  9
$DIMSCALE
 40
1.0
  9
$DIMASZ
 40
2.5
  9
$DIMEXO
 40
0.625
  9
$DIMDLI
 40
3.75
  9
$DIMRND
 40
0.0
  9
$DIMDLE
 40
0.0
  9
$DIMEXE
 40
1.25
  9
$DIMTP
 40
0.0
  9
$DIMTM
 40
0.0
  9
$DIMTXT
 40
2.5
  9
$DIMCEN
 40
2.5
  9
$DIMTSZ
 40
0.0
  9
$DIMTOL
 70
     0
  9
$DIMLIM
 70
     0
  9
$DIMTIH
 70
     0
  9
$DIMTOH
 70
     0
  9
$DIMSE1
 70
     0
  9
$DIMSE2
 70
     0
  9
$DIMTAD
 70
     1
  9
$DIMZIN
 70
     8
  9
$DIMBLK
  1

  9
$DIMASO
 70
     1
  9
$DIMSHO
 70
     1
  9
$DIMPOST
  1

  9
$DIMAPOST
  1

  9
$DIMALT
 70
     0
  9
$DIMALTD
 70
     3
  9
$DIMALTF
 40
0.03937007874016
  9
$DIMLFAC
 40
1.0
  9
$DIMTOFL
 70
     1
  9
$DIMTVP
 40
0.0
  9
$DIMTIX
 70
     0
  9
$DIMSOXD
 70
     0
  9
$DIMSAH
 70
     0
  9
$DIMBLK1
  1

  9
$DIMBLK2
  1

  9
$DIMSTYLE
  2
ISO-25
  9
$DIMCLRD
 70
     0
  9
$DIMCLRE
 70
     0
  9
$DIMCLRT
 70
     0
  9
$DIMTFAC
 40
1.0
  9
$DIMGAP
 40
0.625
  9
$DIMJUST
 70
     0
  9
$DIMSD1
 70
     0
  9
$DIMSD2
 70
     0
  9
$DIMTOLJ
 70
     0
  9
$DIMTZIN
 70
     8
  9
$DIMALTZ
 70
     0
  9
$DIMALTTZ
 70
     0
  9
$DIMUPT
 70
     0
  9
$DIMDEC
 70
     2
  9
$DIMTDEC
 70
     2
  9
$DIMALTU
 70
     2
  9
$DIMALTTD
 70
     3
  9
$DIMTXSTY
  7
Standard
  9
$DIMAUNIT
 70
     0
  9
$DIMADEC
 70
     0
  9
$DIMALTRND
 40
0.0
  9
$DIMAZIN
 70
     0
  9
$DIMDSEP
 70
    44
  9
$DIMATFIT
 70
     3
  9
$DIMFRAC
 70
     0
  9
$DIMLDRBLK
  1

  9
$DIMLUNIT
 70
     2
  9
$DIMLWD
 70
    -2
  9
$DIMLWE
 70
    -2
  9
$DIMTMOVE
 70
     0
  9
$LUNITS
 70
     2
  9
$LUPREC
 70
     4
  9
$SKETCHINC
 40
1.0
  9
$FILLETRAD
 40
10.0
  9
$AUNITS
 70
     0
  9
$AUPREC
 70
     0
  9
$MENU
  1
.
  9
$ELEVATION
 40
0.0
  9
$PELEVATION
 40
0.0
  9
$THICKNESS
 40
0.0
  9
$LIMCHECK
 70
     0
  9
$CHAMFERA
 40
0.0
  9
$CHAMFERB
 40
0.0
  9
$CHAMFERC
 40
0.0
  9
$CHAMFERD
 40
0.0
  9
$SKPOLY
 70
     0
  9
$TDCREATE
 40
2459489.557579086
  9
$TDUCREATE
 40
2459489.182579086
  9
$TDUPDATE
 40
2459489.557579213
  9
$TDUUPDATE
 40
2459489.182579213
  9
$TDINDWG
 40
0.0000000116
  9
$TDUSRTIMER
 40
0.0000000116
  9
$USRTIMER
 70
     1
  9
$ANGBASE
 50
0.0
  9
$ANGDIR
 70
     0
  9
$PDMODE
 70
     0
  9
$PDSIZE
 40
0.0
  9
$PLINEWID
 40
0.0
  9
$SPLFRAME
 70
     0
  9
$SPLINETYPE
 70
     6
  9
$SPLINESEGS
 70
     8
  9
$HANDSEED
  5
47C
  9
$SURFTAB1
 70
     6
  9
$SURFTAB2
 70
     6
  9
$SURFTYPE
 70
     6
  9
$SURFU
 70
     6
  9
$SURFV
 70
     6
  9
$UCSBASE
  2

  9
$UCSNAME
  2

  9
$UCSORG
 10
0.0
 20
0.0
 30
0.0
  9
$UCSXDIR
 10
1.0
 20
0.0
 30
0.0
  9
$UCSYDIR
 10
0.0
 20
1.0
 30
0.0
  9
$UCSORTHOREF
  2

  9
$UCSORTHOVIEW
 70
     0
  9
$UCSORGTOP
 10
0.0
 20
0.0
 30
0.0
  9
$UCSORGBOTTOM
 10
0.0
 20
0.0
 30
0.0
  9
$UCSORGLEFT
 10
0.0
 20
0.0
 30
0.0
  9
$UCSORGRIGHT
 10
0.0
 20
0.0
 30
0.0
  9
$UCSORGFRONT
 10
0.0
 20
0.0
 30
0.0
  9
$UCSORGBACK
 10
0.0
 20
0.0
 30
0.0
  9
$PUCSBASE
  2

  9
$PUCSNAME
  2

  9
$PUCSORG
 10
0.0
 20
0.0
 30
0.0
  9
$PUCSXDIR
 10
1.0
 20
0.0
 30
0.0
  9
$PUCSYDIR
 10
0.0
 20
1.0
 30
0.0
  9
$PUCSORTHOREF
  2

  9
$PUCSORTHOVIEW
 70
     0
  9
$PUCSORGTOP
 10
0.0
 20
0.0
 30
0.0
  9
$PUCSORGBOTTOM
 10
0.0
 20
0.0
 30
0.0
  9
$PUCSORGLEFT
 10
0.0
 20
0.0
 30
0.0
  9
$PUCSORGRIGHT
 10
0.0
 20
0.0
 30
0.0
  9
$PUCSORGFRONT
 10
0.0
 20
0.0
 30
0.0
  9
$PUCSORGBACK
 10
0.0
 20
0.0
 30
0.0
  9
$USERI1
 70
     0
  9
$USERI2
 70
     0
  9
$USERI3
 70
     0
  9
$USERI4
 70
     0
  9
$USERI5
 70
     0
  9
$USERR1
 40
0.0
  9
$USERR2
 40
0.0
  9
$USERR3
 40
0.0
  9
$USERR4
 40
0.0
  9
$USERR5
 40
0.0
  9
$WORLDVIEW
 70
     1
  9
$SHADEDGE
 70
     3
  9
$SHADEDIF
 70
    70
  9
$TILEMODE
 70
     1
  9
$MAXACTVP
 70
    64
  9
$PINSBASE
 10
0.0
 20
0.0
 30
0.0
  9
$PLIMCHECK
 70
     0
  9
$PEXTMIN
 10
1.000000000000000E+20
 20
1.000000000000000E+20
 30
1.000000000000000E+20
  9
$PEXTMAX
 10
-1.000000000000000E+20
 20
-1.000000000000000E+20
 30
-1.000000000000000E+20
  9
$PLIMMIN
 10
0.0
 20
0.0
  9
$PLIMMAX
 10
420.0
 20
297.0
  9
$UNITMODE
 70
     0
  9
$VISRETAIN
 70
     1
  9
$PLINEGEN
 70
     0
  9
$PSLTSCALE
 70
     1
  9
$TREEDEPTH
 70
  3020
  9
$CMLSTYLE
  2
Standard
  9
$CMLJUST
 70
     0
  9
$CMLSCALE
 40
20.0
  9
$PROXYGRAPHICS
 70
     1
  9
$MEASUREMENT
 70
     1
  9
$CELWEIGHT
370
    -1
  9
$ENDCAPS
280
     0
  9
$JOINSTYLE
280
     0
  9
$LWDISPLAY
290
     0
  9
$INSUNITS
 70
     4
  9
$HYPERLINKBASE
  1

  9
$STYLESHEET
  1

  9
$XEDIT
290
     1
  9
$CEPSNTYPE
380
     0
  9
$PSTYLEMODE
290
     1
  9
$FINGERPRINTGUID
  2
{442916B8-75D5-49AC-99AF-CE69728F95A1}
  9
$VERSIONGUID
  2
{FAEB1C32-E019-11D5-929B-00C0DF256EC4}
  9
$EXTNAMES
290
     1
  9
$PSVPSCALE
 40
0.0
  9
$OLESTARTUP
290
     0
  9
$SORTENTS
280
   127
  9
$INDEXCTL
280
     0
  9
$HIDETEXT
280
     1
  9
$XCLIPFRAME
290
     0
  9
$HALOGAP
280
     0
  9
$OBSCOLOR
 70
   257
  9
$OBSLTYPE
280
     0
  9
$INTERSECTIONDISPLAY
280
     0
  9
$INTERSECTIONCOLOR
 70
   257
  9
$DIMASSOC
280
     2
  9
$PROJECTNAME
  1

  0
ENDSEC
  0
SECTION
  2
CLASSES
  0
CLASS
  1
ACDBDICTIONARYWDFLT
  2
AcDbDictionaryWithDefault
  3
ObjectDBX Classes
 90
        0
 91
        4
280
     0
281
     0
  0
CLASS
  1
VISUALSTYLE
  2
AcDbVisualStyle
  3
ObjectDBX Classes
 90
     4095
 91
        4
280
     0
281
     0
  0
CLASS
  1
MATERIAL
  2
AcDbMaterial
  3
ObjectDBX Classes
 90
     1153
 91
        4
280
     0
281
     0
  0
CLASS
  1
SCALE
  2
AcDbScale
  3
ObjectDBX Classes
 90
     1153
 91
        4
280
     0
281
     0
  0
CLASS
  1
TABLESTYLE
  2
AcDbTableStyle
  3
ObjectDBX Classes
 90
     4095
 91
        4
280
     0
281
     0
  0
CLASS
  1
MLEADERSTYLE
  2
AcDbMLeaderStyle
  3
ACDB_MLEADERSTYLE_CLASS
 90
     4095
 91
        4
280
     0
281
     0
  0
CLASS
  1
SUN
  2
AcDbSun
  3
SCENEOE
 90
     1153
 91
        4
280
     0
281
     0
  0
CLASS
  1
DICTIONARYVAR
  2
AcDbDictionaryVar
  3
ObjectDBX Classes
 90
        0
 91
        4
280
     0
281
     0
  0
CLASS
  1
CELLSTYLEMAP
  2
AcDbCellStyleMap
  3
ObjectDBX Classes
 90
     1152
 91
        4
280
     0
281
     0
  0
ENDSEC
  0
SECTION
  2
TABLES
  0
TABLE
  2
VPORT
  5
8
102
{ACAD_XDICTIONARY
360
433
102
}
330
0
100
AcDbSymbolTable
 70
     1
  0
VPORT
  5
29
330
8
100
AcDbSymbolTableRecord
100
AcDbViewportTableRecord
  2
*Active
 70
     0
 10
0.0
 20
0.0
 11
1.0
 21
1.0
 12
0.0
 22
0.0
 13
0.0
 23
0.0
 14
10.0
 24
10.0
 15
10.0
 25
10.0
 16
0.0
 26
0.0
 36
1.0
 17
0.0
 27
0.0
 37
0.0
 40
1633.5
 41
1.414141414141414
 42
50.0
 43
0.0
 44
0.0
 50
0.0
 51
0.0
 71
     0
 72
 10000
 73
     1
 74
     3
 75
     0
 76
     0
 77
     0
 78
     0
281
     0
 65
     1
110
0.0
120
0.0
130
0.0
111
1.0
121
0.0
131
0.0
112
0.0
122
1.0
132
0.0
 79
     0
146
0.0
  0
ENDTAB
  0
TABLE
  2
LTYPE
  5
5
330
0
100
AcDbSymbolTable
 70
     3
  0
LTYPE
  5
14
330
5
100
AcDbSymbolTableRecord
100
AcDbLinetypeTableRecord
  2
ByBlock
 70
     0
  3

 72
    65
 73
     0
 40
0.0
  0
LTYPE
  5
15
330
5
100
AcDbSymbolTableRecord
100
AcDbLinetypeTableRecord
  2
ByLayer
 70
     0
  3

 72
    65
 73
     0
 40
0.0
  0
LTYPE
  5
16
330
5
100
AcDbSymbolTableRecord
100
AcDbLinetypeTableRecord
  2
Continuous
 70
     0
  3
Solid line
 72
    65
 73
     0
 40
0.0
  0
LTYPE
  5
6F
330
5
100
AcDbSymbolTableRecord
100
AcDbLinetypeTableRecord
  2
JWW_CENTER1
 70
     0
  3
-----  --  ----------  --  -----
 72
    65
 73
     4
 40
6.773333333333333
 49
4.233333333333333
 74
     0
 49
-0.8466666666666667
 74
     0
 49
0.8466666666666667
 74
     0
 49
-0.8466666666666667
 74
     0
  0
LTYPE
  5
70
330
5
100
AcDbSymbolTableRecord
100
AcDbLinetypeTableRecord
  2
JWW_DASHED1
 70
     0
  3
-  --  --  --  --  --  --  --  -
 72
    65
 73
     2
 40
1.693333333333333
 49
0.8466666666666667
 74
     0
 49
-0.8466666666666667
 74
     0
  0
ENDTAB
  0
TABLE
  2
LAYER
  5
2
330
0
100
AcDbSymbolTable
 70
     6
  0
LAYER
  5
10
330
2
100
AcDbSymbolTableRecord
100
AcDbLayerTableRecord
  2
0
 70
     0
 62
     7
  6
Continuous
370
    -3
390
F
  0
LAYER
  5
71
330
2
100
AcDbSymbolTableRecord
100
AcDbLayerTableRecord
  2
A-2_蓋
 70
     0
 62
     7
  6
Continuous
370
    -3
390
F
  0
LAYER
  5
72
330
2
100
AcDbSymbolTableRecord
100
AcDbLayerTableRecord
  2
A-1_ピット
 70
     0
 62
     7
  6
Continuous
370
    -3
390
F
  0
LAYER
  5
73
330
2
100
AcDbSymbolTableRecord
100
AcDbLayerTableRecord
  2
A-4_寸法
 70
     0
 62
     7
  6
Continuous
370
    -3
390
F
  0
LAYER
  5
74
330
2
100
AcDbSymbolTableRecord
100
AcDbLayerTableRecord
  2
F-5ﾚｲﾔ
 70
     0
 62
     7
  6
Continuous
370
    -3
390
F
  0
LAYER
  5
75
330
2
100
AcDbSymbolTableRecord
100
AcDbLayerTableRecord
  2
A-5_仕様文
 70
     0
 62
     7
  6
Continuous
370
    -3
390
F
  0
ENDTAB
  0
TABLE
  2
STYLE
  5
3
330
0
100
AcDbSymbolTable
 70
     2
  0
STYLE
  5
11
330
3
100
AcDbSymbolTableRecord
100
AcDbTextStyleTableRecord
  2
Standard
 70
     0
 40
0.0
 41
1.0
 50
0.0
 71
     0
 42
2.5
  3
txt
  4

  0
STYLE
  5
6E
330
3
100
AcDbSymbolTableRecord
100
AcDbTextStyleTableRecord
  2
ＭＳ ゴシック
 70
     0
 40
1.0
 41
1.0
 50
0.0
 71
     0
 42
2.5
  3

  4

1001
ACAD
1000
MS Gothic
1071
    32817
  0
ENDTAB
  0
TABLE
  2
VIEW
  5
6
330
0
100
AcDbSymbolTable
 70
     0
  0
ENDTAB
  0
TABLE
  2
UCS
  5
7
330
0
100
AcDbSymbolTable
 70
     0
  0
ENDTAB
  0
TABLE
  2
APPID
  5
9
330
0
100
AcDbSymbolTable
 70
     2
  0
APPID
  5
12
330
9
100
AcDbSymbolTableRecord
100
AcDbRegAppTableRecord
  2
ACAD
 70
     0
  0
APPID
  5
472
330
9
100
AcDbSymbolTableRecord
100
AcDbRegAppTableRecord
  2
ACAD_MLEADERVER
 70
     0
  0
ENDTAB
  0
TABLE
  2
DIMSTYLE
  5
A
330
0
100
AcDbSymbolTable
 70
     1
100
AcDbDimStyleTable
  0
DIMSTYLE
105
27
330
A
100
AcDbSymbolTableRecord
100
AcDbDimStyleTableRecord
  2
ISO-25
 70
     0
 41
2.5
 42
0.625
 43
3.75
 44
1.25
 73
     0
 74
     0
 77
     1
 78
     8
140
2.5
141
2.5
143
0.03937007874016
147
0.625
171
     3
172
     1
178
     0
271
     2
272
     2
274
     3
278
    44
283
     0
284
     8
340
11
  0
ENDTAB
  0
TABLE
  2
BLOCK_RECORD
  5
1
330
0
100
AcDbSymbolTable
 70
     1
  0
BLOCK_RECORD
  5
1F
330
1
100
AcDbSymbolTableRecord
100
AcDbBlockTableRecord
  2
*Model_Space
340
22
  0
BLOCK_RECORD
  5
1B
330
1
100
AcDbSymbolTableRecord
100
AcDbBlockTableRecord
  2
*Paper_Space
340
1E
  0
BLOCK_RECORD
  5
23
330
1
100
AcDbSymbolTableRecord
100
AcDbBlockTableRecord
  2
*Paper_Space0
340
26
  0
ENDTAB
  0
ENDSEC
  0
SECTION
  2
BLOCKS
  0
BLOCK
  5
20
330
1F
100
AcDbEntity
  8
0
100
AcDbBlockBegin
  2
*Model_Space
 70
     0
 10
0.0
 20
0.0
 30
0.0
  3
*Model_Space
  1

  0
ENDBLK
  5
21
330
1F
100
AcDbEntity
  8
0
100
AcDbBlockEnd
  0
BLOCK
  5
1C
330
1B
100
AcDbEntity
 67
     1
  8
0
100
AcDbBlockBegin
  2
*Paper_Space
 70
     0
 10
0.0
 20
0.0
 30
0.0
  3
*Paper_Space
  1

  0
ENDBLK
  5
1D
330
1B
100
AcDbEntity
 67
     1
  8
0
100
AcDbBlockEnd
  0
BLOCK
  5
24
330
23
100
AcDbEntity
  8
0
100
AcDbBlockBegin
  2
*Paper_Space0
 70
     0
 10
0.0
 20
0.0
 30
0.0
  3
*Paper_Space0
  1

  0
ENDBLK
  5
25
330
23
100
AcDbEntity
  8
0
100
AcDbBlockEnd
  0
ENDSEC
  0
SECTION
  2
ENTITIES
  0
LINE
  5
76
330
1F
100
AcDbEntity
  8
A-2_蓋
  6
Continuous
 62
     3
370
     9
100
AcDbLine
 10
269.3242665883659
 20
-84.93275410420182
 30
0.0
 11
-725.6756756756756
 21
-84.93275410420182
 31
0.0
  0
LINE
  5
77
330
1F
100
AcDbEntity
  8
A-2_蓋
  6
Continuous
 62
     3
370
     9
100
AcDbLine
 10
-725.6756756756756
 20
445.067509831609
 30
0.0
 11
269.3242665883659
 21
445.067509831609
 31
0.0
  0
LINE
  5
78
330
1F
100
AcDbEntity
  8
A-2_蓋
  6
Continuous
 62
     3
370
     9
100
AcDbLine
 10
-725.6756756756756
 20
440.5671980574326
 30
0.0
 11
269.3242665883659
 21
440.5671980574326
 31
0.0
  0
LINE
  5
79
330
1F
100
AcDbEntity
  8
A-2_蓋
  6
Continuous
 62
     3
370
     9
100
AcDbLine
 10
269.3242665883659
 20
-80.43293720967057
 30
0.0
 11
-725.6756756756756
 21
-80.43293720967057
 31
0.0
  0
LINE
  5
7A
330
1F
100
AcDbEntity
  8
A-2_蓋
  6
Continuous
 62
     3
370
     9
100
AcDbLine
 10
269.3242665883659
 20
377.0673349741344
 30
0.0
 11
-725.6756756756756
 21
377.0673349741344
 31
0.0
  0
LINE
  5
7B
330
1F
100
AcDbEntity
  8
A-2_蓋
  6
Continuous
 62
     3
370
     9
100
AcDbLine
 10
269.3242665883659
 20
177.0674793140309
 30
0.0
 11
-725.6756756756756
 21
177.0674793140309
 31
0.0
  0
LINE
  5
7C
330
1F
100
AcDbEntity
  8
A-2_蓋
  6
Continuous
 62
     3
370
     9
100
AcDbLine
 10
269.3242665883659
 20
-22.93250006598385
 30
0.0
 11
-725.6756756756756
 21
-22.93250006598385
 31
0.0
  0
LINE
  5
7D
330
1F
100
AcDbEntity
  8
A-2_蓋
  6
Continuous
 62
     3
370
     9
100
AcDbLine
 10
269.3242665883659
 20
-16.93257924672722
 30
0.0
 11
-725.6756756756756
 21
-16.93257924672722
 31
0.0
  0
LINE
  5
7E
330
1F
100
AcDbEntity
  8
A-2_蓋
  6
Continuous
 62
     3
370
     9
100
AcDbLine
 10
-720.6754117398648
 20
383.0672557933912
 30
0.0
 11
-720.6754117398648
 21
440.5671980574326
 31
0.0
  0
LINE
  5
7F
330
1F
100
AcDbEntity
  8
A-2_蓋
  6
Continuous
 62
     3
370
     9
100
AcDbLine
 10
-710.6751931680217
 20
383.0672557933912
 30
0.0
 11
-710.6751931680217
 21
440.5671980574326
 31
0.0
  0
LINE
  5
80
330
1F
100
AcDbEntity
  8
A-2_蓋
  6
Continuous
 62
     3
370
     9
100
AcDbLine
 10
-705.675424111856
 20
383.0672557933912
 30
0.0
 11
-705.675424111856
 21
440.5671980574326
 31
0.0
  0
LINE
  5
81
330
1F
100
AcDbEntity
  8
A-2_蓋
  6
Continuous
 62
     3
370
     9
100
AcDbLine
 10
-720.6754117398648
 20
-80.43293720967057
 30
0.0
 11
-720.6754117398648
 21
-22.93250006598385
 31
0.0
  0
LINE
  5
82
330
1F
100
AcDbEntity
  8
A-2_蓋
  6
Continuous
 62
     3
370
     9
100
AcDbLine
 10
-710.6751931680217
 20
-80.43293720967057
 30
0.0
 11
-710.6751931680217
 21
-22.93250006598385
 31
0.0
  0
LINE
  5
83
330
1F
100
AcDbEntity
  8
A-2_蓋
  6
Continuous
 62
     3
370
     9
100
AcDbLine
 10
-705.675424111856
 20
-80.43293720967057
 30
0.0
 11
-705.675424111856
 21
-22.93250006598385
 31
0.0
  0
LINE
  5
84
330
1F
100
AcDbEntity
  8
A-2_蓋
  6
Continuous
 62
     3
370
     9
100
AcDbLine
 10
269.3242665883659
 20
183.0674001332876
 30
0.0
 11
-725.6756756756756
 21
183.0674001332876
 31
0.0
  0
LINE
  5
85
330
1F
100
AcDbEntity
  8
A-1_ピット
  6
Continuous
 62
     2
370
     9
100
AcDbLine
 10
558.8972761824325
 20
398.0675527211782
 30
0.0
 11
491.6973217113599
 21
398.0675527211782
 31
0.0
  0
LINE
  5
86
330
1F
100
AcDbEntity
  8
A-1_ピット
  6
Continuous
 62
     2
370
     9
100
AcDbLine
 10
558.897152462521
 20
434.8675454629435
 30
0.0
 11
491.6970742715372
 21
434.8675454629435
 31
0.0
  0
LINE
  5
87
330
1F
100
AcDbEntity
  8
A-1_ピット
  6
Continuous
 62
     2
370
     9
100
AcDbLine
 10
562.0972916886615
 20
404.467583733636
 30
0.0
 11
562.0972916886615
 21
431.6674062368032
 31
0.0
  0
LINE
  5
88
330
1F
100
AcDbEntity
  8
A-1_ピット
  6
Continuous
 62
     2
370
     9
100
AcDbLine
 10
558.8972761824325
 20
438.0675609691724
 30
0.0
 11
491.6973217113599
 21
438.0675609691724
 31
0.0
  0
LINE
  5
89
330
1F
100
AcDbEntity
  8
A-1_ピット
  6
Continuous
 62
     2
370
     9
100
AcDbLine
 10
565.297183474979
 20
404.467583733636
 30
0.0
 11
565.297183474979
 21
431.6676536766259
 31
0.0
  0
LINE
  5
8A
330
1F
100
AcDbEntity
  8
A-1_ピット
  6
Continuous
 62
     2
370
     9
100
AcDbLine
 10
491.6973217113599
 20
401.2676919473185
 30
0.0
 11
558.897152462521
 21
401.2676919473185
 31
0.0
  0
LINE
  5
8B
330
1F
100
AcDbEntity
  8
A-1_ピット
  6
Continuous
 62
     2
370
     9
100
AcDbLine
 10
488.4971824852198
 20
404.467583733636
 30
0.0
 11
488.4971824852198
 21
431.6674062368032
 31
0.0
  0
LINE
  5
8C
330
1F
100
AcDbEntity
  8
A-1_ピット
  6
Continuous
 62
     2
370
     9
100
AcDbLine
 10
558.8972761824325
 20
-37.93279699377109
 30
0.0
 11
491.6973217113599
 21
-37.93279699377109
 31
0.0
  0
LINE
  5
8D
330
1F
100
AcDbEntity
  8
A-1_ピット
  6
Continuous
 62
     2
370
     9
100
AcDbLine
 10
558.897152462521
 20
-74.73278973553633
 30
0.0
 11
491.6970742715372
 21
-74.73278973553633
 31
0.0
  0
LINE
  5
8E
330
1F
100
AcDbEntity
  8
A-1_ピット
  6
Continuous
 62
     2
370
     9
100
AcDbLine
 10
562.0972916886615
 20
-44.33282800622891
 30
0.0
 11
562.0972916886615
 21
-71.53265050939609
 31
0.0
  0
LINE
  5
8F
330
1F
100
AcDbEntity
  8
A-1_ピット
  6
Continuous
 62
     2
370
     9
100
AcDbLine
 10
558.8972761824325
 20
-77.9328052417651
 30
0.0
 11
491.6973217113599
 21
-77.9328052417651
 31
0.0
  0
LINE
  5
90
330
1F
100
AcDbEntity
  8
A-1_ピット
  6
Continuous
 62
     2
370
     9
100
AcDbLine
 10
565.297183474979
 20
-44.33282800622891
 30
0.0
 11
565.297183474979
 21
-71.53289794921875
 31
0.0
  0
LINE
  5
91
330
1F
100
AcDbEntity
  8
A-1_ピット
  6
Continuous
 62
     2
370
     9
100
AcDbLine
 10
491.6973217113599
 20
-41.13293621991133
 30
0.0
 11
558.897152462521
 21
-41.13293621991133
 31
0.0
  0
LINE
  5
92
330
1F
100
AcDbEntity
  8
A-1_ピット
  6
Continuous
 62
     2
370
     9
100
AcDbLine
 10
488.4971824852198
 20
-44.33282800622891
 30
0.0
 11
488.4971824852198
 21
-71.53265050939609
 31
0.0
  0
LINE
  5
93
330
1F
100
AcDbEntity
  8
A-2_蓋
  6
Continuous
 62
     3
370
     9
100
AcDbLine
 10
480.7973500844597
 20
440.5674454972551
 30
0.0
 11
480.7973500844597
 21
-80.43268976984791
 31
0.0
  0
LINE
  5
94
330
1F
100
AcDbEntity
  8
A-2_蓋
  6
Continuous
 62
     3
370
     9
100
AcDbLine
 10
479.7971983213682
 20
440.5674454972551
 30
0.0
 11
479.7971983213682
 21
-80.43268976984791
 31
0.0
  0
LINE
  5
95
330
1F
100
AcDbEntity
  8
A-2_蓋
  6
JWW_CENTER1
 62
     3
370
     9
100
AcDbLine
 10
428.3277356946792
 20
180.0673778637037
 30
0.0
 11
500.2994434253591
 21
180.0673778637037
 31
0.0
  0
LINE
  5
96
330
1F
100
AcDbEntity
  8
A-1_ピット
  6
JWW_DASHED1
 62
     2
370
     9
100
AcDbLine
 10
-720.6756591796875
 20
398.0675527211782
 30
0.0
 11
-720.6756591796875
 21
438.0675609691724
 31
0.0
  0
LINE
  5
97
330
1F
100
AcDbEntity
  8
A-1_ピット
  6
JWW_DASHED1
 62
     2
370
     9
100
AcDbLine
 10
-720.6756591796875
 20
398.0675527211782
 30
0.0
 11
264.3242500923776
 21
398.0675527211782
 31
0.0
  0
LINE
  5
98
330
1F
100
AcDbEntity
  8
A-1_ピット
  6
JWW_DASHED1
 62
     2
370
     9
100
AcDbLine
 10
264.3242500923776
 20
398.0675527211782
 30
0.0
 11
264.3242500923776
 21
438.0675609691724
 31
0.0
  0
LINE
  5
99
330
1F
100
AcDbEntity
  8
A-1_ピット
  6
JWW_DASHED1
 62
     2
370
     9
100
AcDbLine
 10
-720.6756591796875
 20
438.0675609691724
 30
0.0
 11
264.3242500923776
 21
438.0675609691724
 31
0.0
  0
LINE
  5
9A
330
1F
100
AcDbEntity
  8
A-1_ピット
  6
JWW_DASHED1
 62
     2
370
     9
100
AcDbLine
 10
-720.6756591796875
 20
-37.93279699377109
 30
0.0
 11
-720.6756591796875
 21
-77.9328052417651
 31
0.0
  0
LINE
  5
9B
330
1F
100
AcDbEntity
  8
A-1_ピット
  6
JWW_DASHED1
 62
     2
370
     9
100
AcDbLine
 10
-720.6756591796875
 20
-37.93279699377109
 30
0.0
 11
264.3242500923776
 21
-37.93279699377109
 31
0.0
  0
LINE
  5
9C
330
1F
100
AcDbEntity
  8
A-1_ピット
  6
JWW_DASHED1
 62
     2
370
     9
100
AcDbLine
 10
264.3242500923776
 20
-37.93279699377109
 30
0.0
 11
264.3242500923776
 21
-77.9328052417651
 31
0.0
  0
LINE
  5
9D
330
1F
100
AcDbEntity
  8
A-1_ピット
  6
JWW_DASHED1
 62
     2
370
     9
100
AcDbLine
 10
-720.6756591796875
 20
-77.9328052417651
 30
0.0
 11
264.3242500923776
 21
-77.9328052417651
 31
0.0
  0
LINE
  5
9E
330
1F
100
AcDbEntity
  8
A-2_蓋
  6
Continuous
 62
     3
370
     9
100
AcDbLine
 10
269.3242665883659
 20
383.0672557933912
 30
0.0
 11
-725.6756756756756
 21
383.0672557933912
 31
0.0
  0
LINE
  5
9F
330
1F
100
AcDbEntity
  8
A-2_蓋
  6
Continuous
 62
     3
370
     9
100
AcDbLine
 10
-725.6756756756756
 20
-84.93275410420182
 30
0.0
 11
-725.6756756756756
 21
445.067509831609
 31
0.0
  0
LINE
  5
A0
330
1F
100
AcDbEntity
  8
A-2_蓋
  6
Continuous
 62
     3
370
     9
100
AcDbLine
 10
269.3242665883659
 20
-84.93275410420182
 30
0.0
 11
269.3242665883659
 21
445.067509831609
 31
0.0
  0
LINE
  5
A1
330
1F
100
AcDbEntity
  8
A-2_蓋
  6
Continuous
 62
     3
370
     9
100
AcDbLine
 10
447.2973385372677
 20
440.5674454972551
 30
0.0
 11
485.2972906989021
 21
440.5674454972551
 31
0.0
  0
LINE
  5
A2
330
1F
100
AcDbEntity
  8
A-2_蓋
  6
Continuous
 62
     3
370
     9
100
AcDbLine
 10
447.2973385372677
 20
-80.43268976984791
 30
0.0
 11
485.2972906989021
 21
-80.43268976984791
 31
0.0
  0
LINE
  5
A3
330
1F
100
AcDbEntity
  8
A-2_蓋
  6
Continuous
 62
     3
370
     9
100
AcDbLine
 10
485.2972906989021
 20
440.5674454972551
 30
0.0
 11
485.2972906989021
 21
-80.43268976984791
 31
0.0
  0
LINE
  5
A4
330
1F
100
AcDbEntity
  8
A-4_寸法
  6
Continuous
 62
     7
370
     9
100
AcDbLine
 10
26.82408513249584
 20
467.0769108952703
 30
0.0
 11
41.76425418338269
 21
467.0769108952703
 31
0.0
  0
LINE
  5
A5
330
1F
100
AcDbEntity
  8
A-2_蓋
  6
Continuous
 62
     3
370
     9
100
AcDbLine
 10
269.3242665883659
 20
277.0674999340162
 30
0.0
 11
-725.6756756756756
 21
277.0674999340162
 31
0.0
  0
LINE
  5
A6
330
1F
100
AcDbEntity
  8
A-2_蓋
  6
Continuous
 62
     3
370
     9
100
AcDbLine
 10
269.3242665883659
 20
283.0674207532729
 30
0.0
 11
-725.6756756756756
 21
283.0674207532729
 31
0.0
  0
LINE
  5
A7
330
1F
100
AcDbEntity
  8
A-2_蓋
  6
Continuous
 62
     3
370
     9
100
AcDbLine
 10
-720.6754117398648
 20
183.0674001332876
 30
0.0
 11
-720.6754117398648
 21
277.0674999340162
 31
0.0
  0
LINE
  5
A8
330
1F
100
AcDbEntity
  8
A-2_蓋
  6
Continuous
 62
     3
370
     9
100
AcDbLine
 10
-720.6754117398648
 20
283.0674207532729
 30
0.0
 11
-720.6754117398648
 21
377.0673349741344
 31
0.0
  0
LINE
  5
A9
330
1F
100
AcDbEntity
  8
A-2_蓋
  6
Continuous
 62
     3
370
     9
100
AcDbLine
 10
-710.6751931680217
 20
183.0674001332876
 30
0.0
 11
-710.6751931680217
 21
277.0674999340162
 31
0.0
  0
LINE
  5
AA
330
1F
100
AcDbEntity
  8
A-2_蓋
  6
Continuous
 62
     3
370
     9
100
AcDbLine
 10
-710.6751931680217
 20
283.0674207532729
 30
0.0
 11
-710.6751931680217
 21
377.0673349741344
 31
0.0
  0
LINE
  5
AB
330
1F
100
AcDbEntity
  8
A-2_蓋
  6
Continuous
 62
     3
370
     9
100
AcDbLine
 10
-705.675424111856
 20
183.0674001332876
 30
0.0
 11
-705.675424111856
 21
277.0674999340162
 31
0.0
  0
LINE
  5
AC
330
1F
100
AcDbEntity
  8
A-2_蓋
  6
Continuous
 62
     3
370
     9
100
AcDbLine
 10
-705.675424111856
 20
283.0674207532729
 30
0.0
 11
-705.675424111856
 21
377.0673349741344
 31
0.0
  0
LINE
  5
AD
330
1F
100
AcDbEntity
  8
A-2_蓋
  6
Continuous
 62
     3
370
     9
100
AcDbLine
 10
451.7974028716216
 20
440.5674454972551
 30
0.0
 11
451.7974028716216
 21
382.8956562763937
 31
0.0
  0
LINE
  5
AE
330
1F
100
AcDbEntity
  8
A-2_蓋
  6
Continuous
 62
     3
370
     9
100
AcDbLine
 10
452.7973071948904
 20
440.5674454972551
 30
0.0
 11
452.7973071948904
 21
382.3032853410051
 31
0.0
  0
LINE
  5
AF
330
1F
100
AcDbEntity
  8
A-2_蓋
  6
Continuous
 62
     3
370
     9
100
AcDbLine
 10
451.7974028716216
 20
377.2389344911318
 30
0.0
 11
451.7974028716216
 21
282.8956356564084
 31
0.0
  0
LINE
  5
B0
330
1F
100
AcDbEntity
  8
A-2_蓋
  6
Continuous
 62
     3
370
     9
100
AcDbLine
 10
452.7973071948904
 20
377.8313054265203
 30
0.0
 11
452.7973071948904
 21
282.3032647210199
 31
0.0
  0
LINE
  5
B1
330
1F
100
AcDbEntity
  8
A-2_蓋
  6
Continuous
 62
     3
370
     9
100
AcDbLine
 10
451.7974028716216
 20
277.2389138711466
 30
0.0
 11
451.7974028716216
 21
182.8956768963789
 31
0.0
  0
LINE
  5
B2
330
1F
100
AcDbEntity
  8
A-2_蓋
  6
Continuous
 62
     3
370
     9
100
AcDbLine
 10
452.7973071948904
 20
277.8312848065352
 30
0.0
 11
452.7973071948904
 21
182.3033059609904
 31
0.0
  0
LINE
  5
B3
330
1F
100
AcDbEntity
  8
A-2_蓋
  6
Continuous
 62
     3
370
     9
100
AcDbLine
 10
451.7974028716216
 20
-22.76108612885338
 30
0.0
 11
451.7974028716216
 21
-80.43268976984791
 31
0.0
  0
LINE
  5
B4
330
1F
100
AcDbEntity
  8
A-2_蓋
  6
Continuous
 62
     3
370
     9
100
AcDbLine
 10
452.7973071948904
 20
-22.16871519346498
 30
0.0
 11
452.7973071948904
 21
-80.43268976984791
 31
0.0
  0
LINE
  5
B5
330
1F
100
AcDbEntity
  8
A-2_蓋
  6
Continuous
 62
     3
370
     9
100
AcDbLine
 10
264.3445401578336
 20
383.0672557933912
 30
0.0
 11
264.3445401578336
 21
440.5671980574326
 31
0.0
  0
LINE
  5
B6
330
1F
100
AcDbEntity
  8
A-2_蓋
  6
Continuous
 62
     3
370
     9
100
AcDbLine
 10
264.3445401578336
 20
-80.43293720967057
 30
0.0
 11
264.3445401578336
 21
-22.93250006598385
 31
0.0
  0
LINE
  5
B7
330
1F
100
AcDbEntity
  8
A-2_蓋
  6
Continuous
 62
     3
370
     9
100
AcDbLine
 10
264.3445401578336
 20
183.0674001332876
 30
0.0
 11
264.3445401578336
 21
277.0674999340162
 31
0.0
  0
LINE
  5
B8
330
1F
100
AcDbEntity
  8
A-2_蓋
  6
Continuous
 62
     3
370
     9
100
AcDbLine
 10
264.3445401578336
 20
283.0674207532729
 30
0.0
 11
264.3445401578336
 21
377.0673349741344
 31
0.0
  0
LINE
  5
B9
330
1F
100
AcDbEntity
  8
A-4_寸法
  6
Continuous
 62
     7
370
     9
100
AcDbLine
 10
26.82408513249584
 20
418.041884963577
 30
0.0
 11
26.82408513249584
 21
468.5768911000845
 31
0.0
  0
LINE
  5
BA
330
1F
100
AcDbEntity
  8
A-4_寸法
  6
Continuous
 62
     7
370
     9
100
AcDbLine
 10
41.76425418338269
 20
418.041884963577
 30
0.0
 11
41.76425418338269
 21
468.5768911000845
 31
0.0
  0
LINE
  5
BB
330
1F
100
AcDbEntity
  8
A-2_蓋
  6
Continuous
 62
     3
370
     9
100
AcDbLine
 10
447.2973385372677
 20
-84.93275410420182
 30
0.0
 11
479.2973698796453
 21
-84.93275410420182
 31
0.0
  0
LINE
  5
BC
330
1F
100
AcDbEntity
  8
A-2_蓋
  6
Continuous
 62
     3
370
     9
100
AcDbLine
 10
479.2973698796453
 20
-80.43268976984791
 30
0.0
 11
479.2973698796453
 21
-84.93275410420182
 31
0.0
  0
LINE
  5
BD
330
1F
100
AcDbEntity
  8
A-2_蓋
  6
Continuous
 62
     3
370
     9
100
AcDbLine
 10
447.2973385372677
 20
445.067509831609
 30
0.0
 11
479.2973698796453
 21
445.067509831609
 31
0.0
  0
LINE
  5
BE
330
1F
100
AcDbEntity
  8
A-2_蓋
  6
Continuous
 62
     3
370
     9
100
AcDbLine
 10
479.2973698796453
 20
445.067509831609
 30
0.0
 11
479.2973698796453
 21
440.5674454972551
 31
0.0
  0
LINE
  5
BF
330
1F
100
AcDbEntity
  8
A-2_蓋
  6
Continuous
 62
     3
370
     9
100
AcDbLine
 10
-695.6752055400126
 20
383.0672557933912
 30
0.0
 11
-695.6752055400126
 21
440.5671980574326
 31
0.0
  0
LINE
  5
C0
330
1F
100
AcDbEntity
  8
A-2_蓋
  6
Continuous
 62
     3
370
     9
100
AcDbLine
 10
-690.6754364838471
 20
383.0672557933912
 30
0.0
 11
-690.6754364838471
 21
440.5671980574326
 31
0.0
  0
LINE
  5
C1
330
1F
100
AcDbEntity
  8
A-2_蓋
  6
Continuous
 62
     3
370
     9
100
AcDbLine
 10
-695.6752055400126
 20
-80.43293720967057
 30
0.0
 11
-695.6752055400126
 21
-22.93250006598385
 31
0.0
  0
LINE
  5
C2
330
1F
100
AcDbEntity
  8
A-2_蓋
  6
Continuous
 62
     3
370
     9
100
AcDbLine
 10
-690.6754364838471
 20
-80.43293720967057
 30
0.0
 11
-690.6754364838471
 21
-22.93250006598385
 31
0.0
  0
LINE
  5
C3
330
1F
100
AcDbEntity
  8
A-2_蓋
  6
Continuous
 62
     3
370
     9
100
AcDbLine
 10
-695.6752055400126
 20
183.0674001332876
 30
0.0
 11
-695.6752055400126
 21
277.0674999340162
 31
0.0
  0
LINE
  5
C4
330
1F
100
AcDbEntity
  8
A-2_蓋
  6
Continuous
 62
     3
370
     9
100
AcDbLine
 10
-695.6752055400126
 20
283.0674207532729
 30
0.0
 11
-695.6752055400126
 21
377.0673349741344
 31
0.0
  0
LINE
  5
C5
330
1F
100
AcDbEntity
  8
A-2_蓋
  6
Continuous
 62
     3
370
     9
100
AcDbLine
 10
-690.6754364838471
 20
183.0674001332876
 30
0.0
 11
-690.6754364838471
 21
277.0674999340162
 31
0.0
  0
LINE
  5
C6
330
1F
100
AcDbEntity
  8
A-2_蓋
  6
Continuous
 62
     3
370
     9
100
AcDbLine
 10
-690.6754364838471
 20
283.0674207532729
 30
0.0
 11
-690.6754364838471
 21
377.0673349741344
 31
0.0
  0
LINE
  5
C7
330
1F
100
AcDbEntity
  8
A-2_蓋
  6
Continuous
 62
     3
370
     9
100
AcDbLine
 10
-680.6752179120037
 20
383.0672557933912
 30
0.0
 11
-680.6752179120037
 21
440.5671980574326
 31
0.0
  0
LINE
  5
C8
330
1F
100
AcDbEntity
  8
A-2_蓋
  6
Continuous
 62
     3
370
     9
100
AcDbLine
 10
-675.6754488558383
 20
383.0672557933912
 30
0.0
 11
-675.6754488558383
 21
440.5671980574326
 31
0.0
  0
LINE
  5
C9
330
1F
100
AcDbEntity
  8
A-2_蓋
  6
Continuous
 62
     3
370
     9
100
AcDbLine
 10
-680.6752179120037
 20
-80.43293720967057
 30
0.0
 11
-680.6752179120037
 21
-22.93250006598385
 31
0.0
  0
LINE
  5
CA
330
1F
100
AcDbEntity
  8
A-2_蓋
  6
Continuous
 62
     3
370
     9
100
AcDbLine
 10
-675.6754488558383
 20
-80.43293720967057
 30
0.0
 11
-675.6754488558383
 21
-22.93250006598385
 31
0.0
  0
LINE
  5
CB
330
1F
100
AcDbEntity
  8
A-2_蓋
  6
Continuous
 62
     3
370
     9
100
AcDbLine
 10
-680.6752179120037
 20
183.0674001332876
 30
0.0
 11
-680.6752179120037
 21
277.0674999340162
 31
0.0
  0
LINE
  5
CC
330
1F
100
AcDbEntity
  8
A-2_蓋
  6
Continuous
 62
     3
370
     9
100
AcDbLine
 10
-680.6752179120037
 20
283.0674207532729
 30
0.0
 11
-680.6752179120037
 21
377.0673349741344
 31
0.0
  0
LINE
  5
CD
330
1F
100
AcDbEntity
  8
A-2_蓋
  6
Continuous
 62
     3
370
     9
100
AcDbLine
 10
-675.6754488558383
 20
183.0674001332876
 30
0.0
 11
-675.6754488558383
 21
277.0674999340162
 31
0.0
  0
LINE
  5
CE
330
1F
100
AcDbEntity
  8
A-2_蓋
  6
Continuous
 62
     3
370
     9
100
AcDbLine
 10
-675.6754488558383
 20
283.0674207532729
 30
0.0
 11
-675.6754488558383
 21
377.0673349741344
 31
0.0
  0
LINE
  5
CF
330
1F
100
AcDbEntity
  8
A-2_蓋
  6
Continuous
 62
     3
370
     9
100
AcDbLine
 10
-665.6752302839949
 20
383.0672557933912
 30
0.0
 11
-665.6752302839949
 21
440.5671980574326
 31
0.0
  0
LINE
  5
D0
330
1F
100
AcDbEntity
  8
A-2_蓋
  6
Continuous
 62
     3
370
     9
100
AcDbLine
 10
-660.6754612278294
 20
383.0672557933912
 30
0.0
 11
-660.6754612278294
 21
440.5671980574326
 31
0.0
  0
LINE
  5
D1
330
1F
100
AcDbEntity
  8
A-2_蓋
  6
Continuous
 62
     3
370
     9
100
AcDbLine
 10
-665.6752302839949
 20
-80.43293720967057
 30
0.0
 11
-665.6752302839949
 21
-22.93250006598385
 31
0.0
  0
LINE
  5
D2
330
1F
100
AcDbEntity
  8
A-2_蓋
  6
Continuous
 62
     3
370
     9
100
AcDbLine
 10
-660.6754612278294
 20
-80.43293720967057
 30
0.0
 11
-660.6754612278294
 21
-22.93250006598385
 31
0.0
  0
LINE
  5
D3
330
1F
100
AcDbEntity
  8
A-2_蓋
  6
Continuous
 62
     3
370
     9
100
AcDbLine
 10
-665.6752302839949
 20
183.0674001332876
 30
0.0
 11
-665.6752302839949
 21
277.0674999340162
 31
0.0
  0
LINE
  5
D4
330
1F
100
AcDbEntity
  8
A-2_蓋
  6
Continuous
 62
     3
370
     9
100
AcDbLine
 10
-665.6752302839949
 20
283.0674207532729
 30
0.0
 11
-665.6752302839949
 21
377.0673349741344
 31
0.0
  0
LINE
  5
D5
330
1F
100
AcDbEntity
  8
A-2_蓋
  6
Continuous
 62
     3
370
     9
100
AcDbLine
 10
-660.6754612278294
 20
183.0674001332876
 30
0.0
 11
-660.6754612278294
 21
277.0674999340162
 31
0.0
  0
LINE
  5
D6
330
1F
100
AcDbEntity
  8
A-2_蓋
  6
Continuous
 62
     3
370
     9
100
AcDbLine
 10
-660.6754612278294
 20
283.0674207532729
 30
0.0
 11
-660.6754612278294
 21
377.0673349741344
 31
0.0
  0
LINE
  5
D7
330
1F
100
AcDbEntity
  8
A-2_蓋
  6
Continuous
 62
     3
370
     9
100
AcDbLine
 10
-650.675242655986
 20
383.0672557933912
 30
0.0
 11
-650.675242655986
 21
440.5671980574326
 31
0.0
  0
LINE
  5
D8
330
1F
100
AcDbEntity
  8
A-2_蓋
  6
Continuous
 62
     3
370
     9
100
AcDbLine
 10
-645.6754735998206
 20
383.0672557933912
 30
0.0
 11
-645.6754735998206
 21
440.5671980574326
 31
0.0
  0
LINE
  5
D9
330
1F
100
AcDbEntity
  8
A-2_蓋
  6
Continuous
 62
     3
370
     9
100
AcDbLine
 10
-650.675242655986
 20
-80.43293720967057
 30
0.0
 11
-650.675242655986
 21
-22.93250006598385
 31
0.0
  0
LINE
  5
DA
330
1F
100
AcDbEntity
  8
A-2_蓋
  6
Continuous
 62
     3
370
     9
100
AcDbLine
 10
-645.6754735998206
 20
-80.43293720967057
 30
0.0
 11
-645.6754735998206
 21
-22.93250006598385
 31
0.0
  0
LINE
  5
DB
330
1F
100
AcDbEntity
  8
A-2_蓋
  6
Continuous
 62
     3
370
     9
100
AcDbLine
 10
-650.675242655986
 20
183.0674001332876
 30
0.0
 11
-650.675242655986
 21
277.0674999340162
 31
0.0
  0
LINE
  5
DC
330
1F
100
AcDbEntity
  8
A-2_蓋
  6
Continuous
 62
     3
370
     9
100
AcDbLine
 10
-650.675242655986
 20
283.0674207532729
 30
0.0
 11
-650.675242655986
 21
377.0673349741344
 31
0.0
  0
LINE
  5
DD
330
1F
100
AcDbEntity
  8
A-2_蓋
  6
Continuous
 62
     3
370
     9
100
AcDbLine
 10
-645.6754735998206
 20
183.0674001332876
 30
0.0
 11
-645.6754735998206
 21
277.0674999340162
 31
0.0
  0
LINE
  5
DE
330
1F
100
AcDbEntity
  8
A-2_蓋
  6
Continuous
 62
     3
370
     9
100
AcDbLine
 10
-645.6754735998206
 20
283.0674207532729
 30
0.0
 11
-645.6754735998206
 21
377.0673349741344
 31
0.0
  0
LINE
  5
DF
330
1F
100
AcDbEntity
  8
A-2_蓋
  6
Continuous
 62
     3
370
     9
100
AcDbLine
 10
-635.6752550279772
 20
383.0672557933912
 30
0.0
 11
-635.6752550279772
 21
440.5671980574326
 31
0.0
  0
LINE
  5
E0
330
1F
100
AcDbEntity
  8
A-2_蓋
  6
Continuous
 62
     3
370
     9
100
AcDbLine
 10
-630.6754859718117
 20
383.0672557933912
 30
0.0
 11
-630.6754859718117
 21
440.5671980574326
 31
0.0
  0
LINE
  5
E1
330
1F
100
AcDbEntity
  8
A-2_蓋
  6
Continuous
 62
     3
370
     9
100
AcDbLine
 10
-635.6752550279772
 20
-80.43293720967057
 30
0.0
 11
-635.6752550279772
 21
-22.93250006598385
 31
0.0
  0
LINE
  5
E2
330
1F
100
AcDbEntity
  8
A-2_蓋
  6
Continuous
 62
     3
370
     9
100
AcDbLine
 10
-630.6754859718117
 20
-80.43293720967057
 30
0.0
 11
-630.6754859718117
 21
-22.93250006598385
 31
0.0
  0
LINE
  5
E3
330
1F
100
AcDbEntity
  8
A-2_蓋
  6
Continuous
 62
     3
370
     9
100
AcDbLine
 10
-635.6752550279772
 20
183.0674001332876
 30
0.0
 11
-635.6752550279772
 21
277.0674999340162
 31
0.0
  0
LINE
  5
E4
330
1F
100
AcDbEntity
  8
A-2_蓋
  6
Continuous
 62
     3
370
     9
100
AcDbLine
 10
-635.6752550279772
 20
283.0674207532729
 30
0.0
 11
-635.6752550279772
 21
377.0673349741344
 31
0.0
  0
LINE
  5
E5
330
1F
100
AcDbEntity
  8
A-2_蓋
  6
Continuous
 62
     3
370
     9
100
AcDbLine
 10
-630.6754859718117
 20
183.0674001332876
 30
0.0
 11
-630.6754859718117
 21
277.0674999340162
 31
0.0
  0
LINE
  5
E6
330
1F
100
AcDbEntity
  8
A-2_蓋
  6
Continuous
 62
     3
370
     9
100
AcDbLine
 10
-630.6754859718117
 20
283.0674207532729
 30
0.0
 11
-630.6754859718117
 21
377.0673349741344
 31
0.0
  0
LINE
  5
E7
330
1F
100
AcDbEntity
  8
A-2_蓋
  6
Continuous
 62
     3
370
     9
100
AcDbLine
 10
-620.6752673999683
 20
383.0672557933912
 30
0.0
 11
-620.6752673999683
 21
440.5671980574326
 31
0.0
  0
LINE
  5
E8
330
1F
100
AcDbEntity
  8
A-2_蓋
  6
Continuous
 62
     3
370
     9
100
AcDbLine
 10
-615.6754983438027
 20
383.0672557933912
 30
0.0
 11
-615.6754983438027
 21
440.5671980574326
 31
0.0
  0
LINE
  5
E9
330
1F
100
AcDbEntity
  8
A-2_蓋
  6
Continuous
 62
     3
370
     9
100
AcDbLine
 10
-620.6752673999683
 20
-80.43293720967057
 30
0.0
 11
-620.6752673999683
 21
-22.93250006598385
 31
0.0
  0
LINE
  5
EA
330
1F
100
AcDbEntity
  8
A-2_蓋
  6
Continuous
 62
     3
370
     9
100
AcDbLine
 10
-615.6754983438027
 20
-80.43293720967057
 30
0.0
 11
-615.6754983438027
 21
-22.93250006598385
 31
0.0
  0
LINE
  5
EB
330
1F
100
AcDbEntity
  8
A-2_蓋
  6
Continuous
 62
     3
370
     9
100
AcDbLine
 10
-620.6752673999683
 20
183.0674001332876
 30
0.0
 11
-620.6752673999683
 21
277.0674999340162
 31
0.0
  0
LINE
  5
EC
330
1F
100
AcDbEntity
  8
A-2_蓋
  6
Continuous
 62
     3
370
     9
100
AcDbLine
 10
-620.6752673999683
 20
283.0674207532729
 30
0.0
 11
-620.6752673999683
 21
377.0673349741344
 31
0.0
  0
LINE
  5
ED
330
1F
100
AcDbEntity
  8
A-2_蓋
  6
Continuous
 62
     3
370
     9
100
AcDbLine
 10
-615.6754983438027
 20
183.0674001332876
 30
0.0
 11
-615.6754983438027
 21
277.0674999340162
 31
0.0
  0
LINE
  5
EE
330
1F
100
AcDbEntity
  8
A-2_蓋
  6
Continuous
 62
     3
370
     9
100
AcDbLine
 10
-615.6754983438027
 20
283.0674207532729
 30
0.0
 11
-615.6754983438027
 21
377.0673349741344
 31
0.0
  0
LINE
  5
EF
330
1F
100
AcDbEntity
  8
A-2_蓋
  6
Continuous
 62
     3
370
     9
100
AcDbLine
 10
-605.6752797719595
 20
383.0672557933912
 30
0.0
 11
-605.6752797719595
 21
440.5671980574326
 31
0.0
  0
LINE
  5
F0
330
1F
100
AcDbEntity
  8
A-2_蓋
  6
Continuous
 62
     3
370
     9
100
AcDbLine
 10
-600.6755107157938
 20
383.0672557933912
 30
0.0
 11
-600.6755107157938
 21
440.5671980574326
 31
0.0
  0
LINE
  5
F1
330
1F
100
AcDbEntity
  8
A-2_蓋
  6
Continuous
 62
     3
370
     9
100
AcDbLine
 10
-605.6752797719595
 20
-80.43293720967057
 30
0.0
 11
-605.6752797719595
 21
-22.93250006598385
 31
0.0
  0
LINE
  5
F2
330
1F
100
AcDbEntity
  8
A-2_蓋
  6
Continuous
 62
     3
370
     9
100
AcDbLine
 10
-600.6755107157938
 20
-80.43293720967057
 30
0.0
 11
-600.6755107157938
 21
-22.93250006598385
 31
0.0
  0
LINE
  5
F3
330
1F
100
AcDbEntity
  8
A-2_蓋
  6
Continuous
 62
     3
370
     9
100
AcDbLine
 10
-605.6752797719595
 20
183.0674001332876
 30
0.0
 11
-605.6752797719595
 21
277.0674999340162
 31
0.0
  0
LINE
  5
F4
330
1F
100
AcDbEntity
  8
A-2_蓋
  6
Continuous
 62
     3
370
     9
100
AcDbLine
 10
-605.6752797719595
 20
283.0674207532729
 30
0.0
 11
-605.6752797719595
 21
377.0673349741344
 31
0.0
  0
LINE
  5
F5
330
1F
100
AcDbEntity
  8
A-2_蓋
  6
Continuous
 62
     3
370
     9
100
AcDbLine
 10
-600.6755107157938
 20
183.0674001332876
 30
0.0
 11
-600.6755107157938
 21
277.0674999340162
 31
0.0
  0
LINE
  5
F6
330
1F
100
AcDbEntity
  8
A-2_蓋
  6
Continuous
 62
     3
370
     9
100
AcDbLine
 10
-600.6755107157938
 20
283.0674207532729
 30
0.0
 11
-600.6755107157938
 21
377.0673349741344
 31
0.0
  0
LINE
  5
F7
330
1F
100
AcDbEntity
  8
A-2_蓋
  6
Continuous
 62
     3
370
     9
100
AcDbLine
 10
-590.6752921439506
 20
383.0672557933912
 30
0.0
 11
-590.6752921439506
 21
440.5671980574326
 31
0.0
  0
LINE
  5
F8
330
1F
100
AcDbEntity
  8
A-2_蓋
  6
Continuous
 62
     3
370
     9
100
AcDbLine
 10
-585.675523087785
 20
383.0672557933912
 30
0.0
 11
-585.675523087785
 21
440.5671980574326
 31
0.0
  0
LINE
  5
F9
330
1F
100
AcDbEntity
  8
A-2_蓋
  6
Continuous
 62
     3
370
     9
100
AcDbLine
 10
-590.6752921439506
 20
-80.43293720967057
 30
0.0
 11
-590.6752921439506
 21
-22.93250006598385
 31
0.0
  0
LINE
  5
FA
330
1F
100
AcDbEntity
  8
A-2_蓋
  6
Continuous
 62
     3
370
     9
100
AcDbLine
 10
-585.675523087785
 20
-80.43293720967057
 30
0.0
 11
-585.675523087785
 21
-22.93250006598385
 31
0.0
  0
LINE
  5
FB
330
1F
100
AcDbEntity
  8
A-2_蓋
  6
Continuous
 62
     3
370
     9
100
AcDbLine
 10
-590.6752921439506
 20
183.0674001332876
 30
0.0
 11
-590.6752921439506
 21
277.0674999340162
 31
0.0
  0
LINE
  5
FC
330
1F
100
AcDbEntity
  8
A-2_蓋
  6
Continuous
 62
     3
370
     9
100
AcDbLine
 10
-590.6752921439506
 20
283.0674207532729
 30
0.0
 11
-590.6752921439506
 21
377.0673349741344
 31
0.0
  0
LINE
  5
FD
330
1F
100
AcDbEntity
  8
A-2_蓋
  6
Continuous
 62
     3
370
     9
100
AcDbLine
 10
-585.675523087785
 20
183.0674001332876
 30
0.0
 11
-585.675523087785
 21
277.0674999340162
 31
0.0
  0
LINE
  5
FE
330
1F
100
AcDbEntity
  8
A-2_蓋
  6
Continuous
 62
     3
370
     9
100
AcDbLine
 10
-585.675523087785
 20
283.0674207532729
 30
0.0
 11
-585.675523087785
 21
377.0673349741344
 31
0.0
  0
LINE
  5
FF
330
1F
100
AcDbEntity
  8
A-2_蓋
  6
Continuous
 62
     3
370
     9
100
AcDbLine
 10
-575.6753045159417
 20
383.0672557933912
 30
0.0
 11
-575.6753045159417
 21
440.5671980574326
 31
0.0
  0
LINE
  5
100
330
1F
100
AcDbEntity
  8
A-2_蓋
  6
Continuous
 62
     3
370
     9
100
AcDbLine
 10
-570.6755354597761
 20
383.0672557933912
 30
0.0
 11
-570.6755354597761
 21
440.5671980574326
 31
0.0
  0
LINE
  5
101
330
1F
100
AcDbEntity
  8
A-2_蓋
  6
Continuous
 62
     3
370
     9
100
AcDbLine
 10
-575.6753045159417
 20
-80.43293720967057
 30
0.0
 11
-575.6753045159417
 21
-22.93250006598385
 31
0.0
  0
LINE
  5
102
330
1F
100
AcDbEntity
  8
A-2_蓋
  6
Continuous
 62
     3
370
     9
100
AcDbLine
 10
-570.6755354597761
 20
-80.43293720967057
 30
0.0
 11
-570.6755354597761
 21
-22.93250006598385
 31
0.0
  0
LINE
  5
103
330
1F
100
AcDbEntity
  8
A-2_蓋
  6
Continuous
 62
     3
370
     9
100
AcDbLine
 10
-575.6753045159417
 20
183.0674001332876
 30
0.0
 11
-575.6753045159417
 21
277.0674999340162
 31
0.0
  0
LINE
  5
104
330
1F
100
AcDbEntity
  8
A-2_蓋
  6
Continuous
 62
     3
370
     9
100
AcDbLine
 10
-575.6753045159417
 20
283.0674207532729
 30
0.0
 11
-575.6753045159417
 21
377.0673349741344
 31
0.0
  0
LINE
  5
105
330
1F
100
AcDbEntity
  8
A-2_蓋
  6
Continuous
 62
     3
370
     9
100
AcDbLine
 10
-570.6755354597761
 20
183.0674001332876
 30
0.0
 11
-570.6755354597761
 21
277.0674999340162
 31
0.0
  0
LINE
  5
106
330
1F
100
AcDbEntity
  8
A-2_蓋
  6
Continuous
 62
     3
370
     9
100
AcDbLine
 10
-570.6755354597761
 20
283.0674207532729
 30
0.0
 11
-570.6755354597761
 21
377.0673349741344
 31
0.0
  0
LINE
  5
107
330
1F
100
AcDbEntity
  8
A-2_蓋
  6
Continuous
 62
     3
370
     9
100
AcDbLine
 10
-560.6753168879328
 20
383.0672557933912
 30
0.0
 11
-560.6753168879328
 21
440.5671980574326
 31
0.0
  0
LINE
  5
108
330
1F
100
AcDbEntity
  8
A-2_蓋
  6
Continuous
 62
     3
370
     9
100
AcDbLine
 10
-555.6755478317673
 20
383.0672557933912
 30
0.0
 11
-555.6755478317673
 21
440.5671980574326
 31
0.0
  0
LINE
  5
109
330
1F
100
AcDbEntity
  8
A-2_蓋
  6
Continuous
 62
     3
370
     9
100
AcDbLine
 10
-560.6753168879328
 20
-80.43293720967057
 30
0.0
 11
-560.6753168879328
 21
-22.93250006598385
 31
0.0
  0
LINE
  5
10A
330
1F
100
AcDbEntity
  8
A-2_蓋
  6
Continuous
 62
     3
370
     9
100
AcDbLine
 10
-555.6755478317673
 20
-80.43293720967057
 30
0.0
 11
-555.6755478317673
 21
-22.93250006598385
 31
0.0
  0
LINE
  5
10B
330
1F
100
AcDbEntity
  8
A-2_蓋
  6
Continuous
 62
     3
370
     9
100
AcDbLine
 10
-560.6753168879328
 20
183.0674001332876
 30
0.0
 11
-560.6753168879328
 21
277.0674999340162
 31
0.0
  0
LINE
  5
10C
330
1F
100
AcDbEntity
  8
A-2_蓋
  6
Continuous
 62
     3
370
     9
100
AcDbLine
 10
-560.6753168879328
 20
283.0674207532729
 30
0.0
 11
-560.6753168879328
 21
377.0673349741344
 31
0.0
  0
LINE
  5
10D
330
1F
100
AcDbEntity
  8
A-2_蓋
  6
Continuous
 62
     3
370
     9
100
AcDbLine
 10
-555.6755478317673
 20
183.0674001332876
 30
0.0
 11
-555.6755478317673
 21
277.0674999340162
 31
0.0
  0
LINE
  5
10E
330
1F
100
AcDbEntity
  8
A-2_蓋
  6
Continuous
 62
     3
370
     9
100
AcDbLine
 10
-555.6755478317673
 20
283.0674207532729
 30
0.0
 11
-555.6755478317673
 21
377.0673349741344
 31
0.0
  0
LINE
  5
10F
330
1F
100
AcDbEntity
  8
A-2_蓋
  6
Continuous
 62
     3
370
     9
100
AcDbLine
 10
-545.675329259924
 20
383.0672557933912
 30
0.0
 11
-545.675329259924
 21
440.5671980574326
 31
0.0
  0
LINE
  5
110
330
1F
100
AcDbEntity
  8
A-2_蓋
  6
Continuous
 62
     3
370
     9
100
AcDbLine
 10
-540.6755602037584
 20
383.0672557933912
 30
0.0
 11
-540.6755602037584
 21
440.5671980574326
 31
0.0
  0
LINE
  5
111
330
1F
100
AcDbEntity
  8
A-2_蓋
  6
Continuous
 62
     3
370
     9
100
AcDbLine
 10
-545.675329259924
 20
-80.43293720967057
 30
0.0
 11
-545.675329259924
 21
-22.93250006598385
 31
0.0
  0
LINE
  5
112
330
1F
100
AcDbEntity
  8
A-2_蓋
  6
Continuous
 62
     3
370
     9
100
AcDbLine
 10
-540.6755602037584
 20
-80.43293720967057
 30
0.0
 11
-540.6755602037584
 21
-22.93250006598385
 31
0.0
  0
LINE
  5
113
330
1F
100
AcDbEntity
  8
A-2_蓋
  6
Continuous
 62
     3
370
     9
100
AcDbLine
 10
-545.675329259924
 20
183.0674001332876
 30
0.0
 11
-545.675329259924
 21
277.0674999340162
 31
0.0
  0
LINE
  5
114
330
1F
100
AcDbEntity
  8
A-2_蓋
  6
Continuous
 62
     3
370
     9
100
AcDbLine
 10
-545.675329259924
 20
283.0674207532729
 30
0.0
 11
-545.675329259924
 21
377.0673349741344
 31
0.0
  0
LINE
  5
115
330
1F
100
AcDbEntity
  8
A-2_蓋
  6
Continuous
 62
     3
370
     9
100
AcDbLine
 10
-540.6755602037584
 20
183.0674001332876
 30
0.0
 11
-540.6755602037584
 21
277.0674999340162
 31
0.0
  0
LINE
  5
116
330
1F
100
AcDbEntity
  8
A-2_蓋
  6
Continuous
 62
     3
370
     9
100
AcDbLine
 10
-540.6755602037584
 20
283.0674207532729
 30
0.0
 11
-540.6755602037584
 21
377.0673349741344
 31
0.0
  0
LINE
  5
117
330
1F
100
AcDbEntity
  8
A-2_蓋
  6
Continuous
 62
     3
370
     9
100
AcDbLine
 10
-530.6753416319151
 20
383.0672557933912
 30
0.0
 11
-530.6753416319151
 21
440.5671980574326
 31
0.0
  0
LINE
  5
118
330
1F
100
AcDbEntity
  8
A-2_蓋
  6
Continuous
 62
     3
370
     9
100
AcDbLine
 10
-525.6755725757496
 20
383.0672557933912
 30
0.0
 11
-525.6755725757496
 21
440.5671980574326
 31
0.0
  0
LINE
  5
119
330
1F
100
AcDbEntity
  8
A-2_蓋
  6
Continuous
 62
     3
370
     9
100
AcDbLine
 10
-530.6753416319151
 20
-80.43293720967057
 30
0.0
 11
-530.6753416319151
 21
-22.93250006598385
 31
0.0
  0
LINE
  5
11A
330
1F
100
AcDbEntity
  8
A-2_蓋
  6
Continuous
 62
     3
370
     9
100
AcDbLine
 10
-525.6755725757496
 20
-80.43293720967057
 30
0.0
 11
-525.6755725757496
 21
-22.93250006598385
 31
0.0
  0
LINE
  5
11B
330
1F
100
AcDbEntity
  8
A-2_蓋
  6
Continuous
 62
     3
370
     9
100
AcDbLine
 10
-530.6753416319151
 20
183.0674001332876
 30
0.0
 11
-530.6753416319151
 21
277.0674999340162
 31
0.0
  0
LINE
  5
11C
330
1F
100
AcDbEntity
  8
A-2_蓋
  6
Continuous
 62
     3
370
     9
100
AcDbLine
 10
-530.6753416319151
 20
283.0674207532729
 30
0.0
 11
-530.6753416319151
 21
377.0673349741344
 31
0.0
  0
LINE
  5
11D
330
1F
100
AcDbEntity
  8
A-2_蓋
  6
Continuous
 62
     3
370
     9
100
AcDbLine
 10
-525.6755725757496
 20
183.0674001332876
 30
0.0
 11
-525.6755725757496
 21
277.0674999340162
 31
0.0
  0
LINE
  5
11E
330
1F
100
AcDbEntity
  8
A-2_蓋
  6
Continuous
 62
     3
370
     9
100
AcDbLine
 10
-525.6755725757496
 20
283.0674207532729
 30
0.0
 11
-525.6755725757496
 21
377.0673349741344
 31
0.0
  0
LINE
  5
11F
330
1F
100
AcDbEntity
  8
A-2_蓋
  6
Continuous
 62
     3
370
     9
100
AcDbLine
 10
-515.6753540039062
 20
383.0672557933912
 30
0.0
 11
-515.6753540039062
 21
440.5671980574326
 31
0.0
  0
LINE
  5
120
330
1F
100
AcDbEntity
  8
A-2_蓋
  6
Continuous
 62
     3
370
     9
100
AcDbLine
 10
-510.6755849477407
 20
383.0672557933912
 30
0.0
 11
-510.6755849477407
 21
440.5671980574326
 31
0.0
  0
LINE
  5
121
330
1F
100
AcDbEntity
  8
A-2_蓋
  6
Continuous
 62
     3
370
     9
100
AcDbLine
 10
-515.6753540039062
 20
-80.43293720967057
 30
0.0
 11
-515.6753540039062
 21
-22.93250006598385
 31
0.0
  0
LINE
  5
122
330
1F
100
AcDbEntity
  8
A-2_蓋
  6
Continuous
 62
     3
370
     9
100
AcDbLine
 10
-510.6755849477407
 20
-80.43293720967057
 30
0.0
 11
-510.6755849477407
 21
-22.93250006598385
 31
0.0
  0
LINE
  5
123
330
1F
100
AcDbEntity
  8
A-2_蓋
  6
Continuous
 62
     3
370
     9
100
AcDbLine
 10
-515.6753540039062
 20
183.0674001332876
 30
0.0
 11
-515.6753540039062
 21
277.0674999340162
 31
0.0
  0
LINE
  5
124
330
1F
100
AcDbEntity
  8
A-2_蓋
  6
Continuous
 62
     3
370
     9
100
AcDbLine
 10
-515.6753540039062
 20
283.0674207532729
 30
0.0
 11
-515.6753540039062
 21
377.0673349741344
 31
0.0
  0
LINE
  5
125
330
1F
100
AcDbEntity
  8
A-2_蓋
  6
Continuous
 62
     3
370
     9
100
AcDbLine
 10
-510.6755849477407
 20
183.0674001332876
 30
0.0
 11
-510.6755849477407
 21
277.0674999340162
 31
0.0
  0
LINE
  5
126
330
1F
100
AcDbEntity
  8
A-2_蓋
  6
Continuous
 62
     3
370
     9
100
AcDbLine
 10
-510.6755849477407
 20
283.0674207532729
 30
0.0
 11
-510.6755849477407
 21
377.0673349741344
 31
0.0
  0
LINE
  5
127
330
1F
100
AcDbEntity
  8
A-2_蓋
  6
Continuous
 62
     3
370
     9
100
AcDbLine
 10
-500.6753663758973
 20
383.0672557933912
 30
0.0
 11
-500.6753663758973
 21
440.5671980574326
 31
0.0
  0
LINE
  5
128
330
1F
100
AcDbEntity
  8
A-2_蓋
  6
Continuous
 62
     3
370
     9
100
AcDbLine
 10
-495.6755973197318
 20
383.0672557933912
 30
0.0
 11
-495.6755973197318
 21
440.5671980574326
 31
0.0
  0
LINE
  5
129
330
1F
100
AcDbEntity
  8
A-2_蓋
  6
Continuous
 62
     3
370
     9
100
AcDbLine
 10
-500.6753663758973
 20
-80.43293720967057
 30
0.0
 11
-500.6753663758973
 21
-22.93250006598385
 31
0.0
  0
LINE
  5
12A
330
1F
100
AcDbEntity
  8
A-2_蓋
  6
Continuous
 62
     3
370
     9
100
AcDbLine
 10
-495.6755973197318
 20
-80.43293720967057
 30
0.0
 11
-495.6755973197318
 21
-22.93250006598385
 31
0.0
  0
LINE
  5
12B
330
1F
100
AcDbEntity
  8
A-2_蓋
  6
Continuous
 62
     3
370
     9
100
AcDbLine
 10
-500.6753663758973
 20
183.0674001332876
 30
0.0
 11
-500.6753663758973
 21
277.0674999340162
 31
0.0
  0
LINE
  5
12C
330
1F
100
AcDbEntity
  8
A-2_蓋
  6
Continuous
 62
     3
370
     9
100
AcDbLine
 10
-500.6753663758973
 20
283.0674207532729
 30
0.0
 11
-500.6753663758973
 21
377.0673349741344
 31
0.0
  0
LINE
  5
12D
330
1F
100
AcDbEntity
  8
A-2_蓋
  6
Continuous
 62
     3
370
     9
100
AcDbLine
 10
-495.6755973197318
 20
183.0674001332876
 30
0.0
 11
-495.6755973197318
 21
277.0674999340162
 31
0.0
  0
LINE
  5
12E
330
1F
100
AcDbEntity
  8
A-2_蓋
  6
Continuous
 62
     3
370
     9
100
AcDbLine
 10
-495.6755973197318
 20
283.0674207532729
 30
0.0
 11
-495.6755973197318
 21
377.0673349741344
 31
0.0
  0
LINE
  5
12F
330
1F
100
AcDbEntity
  8
A-2_蓋
  6
Continuous
 62
     3
370
     9
100
AcDbLine
 10
-485.6753787478885
 20
383.0672557933912
 30
0.0
 11
-485.6753787478885
 21
440.5671980574326
 31
0.0
  0
LINE
  5
130
330
1F
100
AcDbEntity
  8
A-2_蓋
  6
Continuous
 62
     3
370
     9
100
AcDbLine
 10
-480.6756096917229
 20
383.0672557933912
 30
0.0
 11
-480.6756096917229
 21
440.5671980574326
 31
0.0
  0
LINE
  5
131
330
1F
100
AcDbEntity
  8
A-2_蓋
  6
Continuous
 62
     3
370
     9
100
AcDbLine
 10
-485.6753787478885
 20
-80.43293720967057
 30
0.0
 11
-485.6753787478885
 21
-22.93250006598385
 31
0.0
  0
LINE
  5
132
330
1F
100
AcDbEntity
  8
A-2_蓋
  6
Continuous
 62
     3
370
     9
100
AcDbLine
 10
-480.6756096917229
 20
-80.43293720967057
 30
0.0
 11
-480.6756096917229
 21
-22.93250006598385
 31
0.0
  0
LINE
  5
133
330
1F
100
AcDbEntity
  8
A-2_蓋
  6
Continuous
 62
     3
370
     9
100
AcDbLine
 10
-485.6753787478885
 20
183.0674001332876
 30
0.0
 11
-485.6753787478885
 21
277.0674999340162
 31
0.0
  0
LINE
  5
134
330
1F
100
AcDbEntity
  8
A-2_蓋
  6
Continuous
 62
     3
370
     9
100
AcDbLine
 10
-485.6753787478885
 20
283.0674207532729
 30
0.0
 11
-485.6753787478885
 21
377.0673349741344
 31
0.0
  0
LINE
  5
135
330
1F
100
AcDbEntity
  8
A-2_蓋
  6
Continuous
 62
     3
370
     9
100
AcDbLine
 10
-480.6756096917229
 20
183.0674001332876
 30
0.0
 11
-480.6756096917229
 21
277.0674999340162
 31
0.0
  0
LINE
  5
136
330
1F
100
AcDbEntity
  8
A-2_蓋
  6
Continuous
 62
     3
370
     9
100
AcDbLine
 10
-480.6756096917229
 20
283.0674207532729
 30
0.0
 11
-480.6756096917229
 21
377.0673349741344
 31
0.0
  0
LINE
  5
137
330
1F
100
AcDbEntity
  8
A-2_蓋
  6
Continuous
 62
     3
370
     9
100
AcDbLine
 10
-470.6753911198796
 20
383.0672557933912
 30
0.0
 11
-470.6753911198796
 21
440.5671980574326
 31
0.0
  0
LINE
  5
138
330
1F
100
AcDbEntity
  8
A-2_蓋
  6
Continuous
 62
     3
370
     9
100
AcDbLine
 10
-465.6756220637141
 20
383.0672557933912
 30
0.0
 11
-465.6756220637141
 21
440.5671980574326
 31
0.0
  0
LINE
  5
139
330
1F
100
AcDbEntity
  8
A-2_蓋
  6
Continuous
 62
     3
370
     9
100
AcDbLine
 10
-470.6753911198796
 20
-80.43293720967057
 30
0.0
 11
-470.6753911198796
 21
-22.93250006598385
 31
0.0
  0
LINE
  5
13A
330
1F
100
AcDbEntity
  8
A-2_蓋
  6
Continuous
 62
     3
370
     9
100
AcDbLine
 10
-465.6756220637141
 20
-80.43293720967057
 30
0.0
 11
-465.6756220637141
 21
-22.93250006598385
 31
0.0
  0
LINE
  5
13B
330
1F
100
AcDbEntity
  8
A-2_蓋
  6
Continuous
 62
     3
370
     9
100
AcDbLine
 10
-470.6753911198796
 20
183.0674001332876
 30
0.0
 11
-470.6753911198796
 21
277.0674999340162
 31
0.0
  0
LINE
  5
13C
330
1F
100
AcDbEntity
  8
A-2_蓋
  6
Continuous
 62
     3
370
     9
100
AcDbLine
 10
-470.6753911198796
 20
283.0674207532729
 30
0.0
 11
-470.6753911198796
 21
377.0673349741344
 31
0.0
  0
LINE
  5
13D
330
1F
100
AcDbEntity
  8
A-2_蓋
  6
Continuous
 62
     3
370
     9
100
AcDbLine
 10
-465.6756220637141
 20
183.0674001332876
 30
0.0
 11
-465.6756220637141
 21
277.0674999340162
 31
0.0
  0
LINE
  5
13E
330
1F
100
AcDbEntity
  8
A-2_蓋
  6
Continuous
 62
     3
370
     9
100
AcDbLine
 10
-465.6756220637141
 20
283.0674207532729
 30
0.0
 11
-465.6756220637141
 21
377.0673349741344
 31
0.0
  0
LINE
  5
13F
330
1F
100
AcDbEntity
  8
A-2_蓋
  6
Continuous
 62
     3
370
     9
100
AcDbLine
 10
-455.6754034918708
 20
383.0672557933912
 30
0.0
 11
-455.6754034918708
 21
440.5671980574326
 31
0.0
  0
LINE
  5
140
330
1F
100
AcDbEntity
  8
A-2_蓋
  6
Continuous
 62
     3
370
     9
100
AcDbLine
 10
-450.6756344357052
 20
383.0672557933912
 30
0.0
 11
-450.6756344357052
 21
440.5671980574326
 31
0.0
  0
LINE
  5
141
330
1F
100
AcDbEntity
  8
A-2_蓋
  6
Continuous
 62
     3
370
     9
100
AcDbLine
 10
-455.6754034918708
 20
-80.43293720967057
 30
0.0
 11
-455.6754034918708
 21
-22.93250006598385
 31
0.0
  0
LINE
  5
142
330
1F
100
AcDbEntity
  8
A-2_蓋
  6
Continuous
 62
     3
370
     9
100
AcDbLine
 10
-450.6756344357052
 20
-80.43293720967057
 30
0.0
 11
-450.6756344357052
 21
-22.93250006598385
 31
0.0
  0
LINE
  5
143
330
1F
100
AcDbEntity
  8
A-2_蓋
  6
Continuous
 62
     3
370
     9
100
AcDbLine
 10
-455.6754034918708
 20
183.0674001332876
 30
0.0
 11
-455.6754034918708
 21
277.0674999340162
 31
0.0
  0
LINE
  5
144
330
1F
100
AcDbEntity
  8
A-2_蓋
  6
Continuous
 62
     3
370
     9
100
AcDbLine
 10
-455.6754034918708
 20
283.0674207532729
 30
0.0
 11
-455.6754034918708
 21
377.0673349741344
 31
0.0
  0
LINE
  5
145
330
1F
100
AcDbEntity
  8
A-2_蓋
  6
Continuous
 62
     3
370
     9
100
AcDbLine
 10
-450.6756344357052
 20
183.0674001332876
 30
0.0
 11
-450.6756344357052
 21
277.0674999340162
 31
0.0
  0
LINE
  5
146
330
1F
100
AcDbEntity
  8
A-2_蓋
  6
Continuous
 62
     3
370
     9
100
AcDbLine
 10
-450.6756344357052
 20
283.0674207532729
 30
0.0
 11
-450.6756344357052
 21
377.0673349741344
 31
0.0
  0
LINE
  5
147
330
1F
100
AcDbEntity
  8
A-2_蓋
  6
Continuous
 62
     3
370
     9
100
AcDbLine
 10
-440.6754158638619
 20
383.0672557933912
 30
0.0
 11
-440.6754158638619
 21
440.5671980574326
 31
0.0
  0
LINE
  5
148
330
1F
100
AcDbEntity
  8
A-2_蓋
  6
Continuous
 62
     3
370
     9
100
AcDbLine
 10
-435.6756468076964
 20
383.0672557933912
 30
0.0
 11
-435.6756468076964
 21
440.5671980574326
 31
0.0
  0
LINE
  5
149
330
1F
100
AcDbEntity
  8
A-2_蓋
  6
Continuous
 62
     3
370
     9
100
AcDbLine
 10
-440.6754158638619
 20
-80.43293720967057
 30
0.0
 11
-440.6754158638619
 21
-22.93250006598385
 31
0.0
  0
LINE
  5
14A
330
1F
100
AcDbEntity
  8
A-2_蓋
  6
Continuous
 62
     3
370
     9
100
AcDbLine
 10
-435.6756468076964
 20
-80.43293720967057
 30
0.0
 11
-435.6756468076964
 21
-22.93250006598385
 31
0.0
  0
LINE
  5
14B
330
1F
100
AcDbEntity
  8
A-2_蓋
  6
Continuous
 62
     3
370
     9
100
AcDbLine
 10
-440.6754158638619
 20
183.0674001332876
 30
0.0
 11
-440.6754158638619
 21
277.0674999340162
 31
0.0
  0
LINE
  5
14C
330
1F
100
AcDbEntity
  8
A-2_蓋
  6
Continuous
 62
     3
370
     9
100
AcDbLine
 10
-440.6754158638619
 20
283.0674207532729
 30
0.0
 11
-440.6754158638619
 21
377.0673349741344
 31
0.0
  0
LINE
  5
14D
330
1F
100
AcDbEntity
  8
A-2_蓋
  6
Continuous
 62
     3
370
     9
100
AcDbLine
 10
-435.6756468076964
 20
183.0674001332876
 30
0.0
 11
-435.6756468076964
 21
277.0674999340162
 31
0.0
  0
LINE
  5
14E
330
1F
100
AcDbEntity
  8
A-2_蓋
  6
Continuous
 62
     3
370
     9
100
AcDbLine
 10
-435.6756468076964
 20
283.0674207532729
 30
0.0
 11
-435.6756468076964
 21
377.0673349741344
 31
0.0
  0
LINE
  5
14F
330
1F
100
AcDbEntity
  8
A-2_蓋
  6
Continuous
 62
     3
370
     9
100
AcDbLine
 10
-425.675428235853
 20
383.0672557933912
 30
0.0
 11
-425.675428235853
 21
440.5671980574326
 31
0.0
  0
LINE
  5
150
330
1F
100
AcDbEntity
  8
A-2_蓋
  6
Continuous
 62
     3
370
     9
100
AcDbLine
 10
-420.6756591796875
 20
383.0672557933912
 30
0.0
 11
-420.6756591796875
 21
440.5671980574326
 31
0.0
  0
LINE
  5
151
330
1F
100
AcDbEntity
  8
A-2_蓋
  6
Continuous
 62
     3
370
     9
100
AcDbLine
 10
-425.675428235853
 20
-80.43293720967057
 30
0.0
 11
-425.675428235853
 21
-22.93250006598385
 31
0.0
  0
LINE
  5
152
330
1F
100
AcDbEntity
  8
A-2_蓋
  6
Continuous
 62
     3
370
     9
100
AcDbLine
 10
-420.6756591796875
 20
-80.43293720967057
 30
0.0
 11
-420.6756591796875
 21
-22.93250006598385
 31
0.0
  0
LINE
  5
153
330
1F
100
AcDbEntity
  8
A-2_蓋
  6
Continuous
 62
     3
370
     9
100
AcDbLine
 10
-425.675428235853
 20
183.0674001332876
 30
0.0
 11
-425.675428235853
 21
277.0674999340162
 31
0.0
  0
LINE
  5
154
330
1F
100
AcDbEntity
  8
A-2_蓋
  6
Continuous
 62
     3
370
     9
100
AcDbLine
 10
-425.675428235853
 20
283.0674207532729
 30
0.0
 11
-425.675428235853
 21
377.0673349741344
 31
0.0
  0
LINE
  5
155
330
1F
100
AcDbEntity
  8
A-2_蓋
  6
Continuous
 62
     3
370
     9
100
AcDbLine
 10
-420.6756591796875
 20
183.0674001332876
 30
0.0
 11
-420.6756591796875
 21
277.0674999340162
 31
0.0
  0
LINE
  5
156
330
1F
100
AcDbEntity
  8
A-2_蓋
  6
Continuous
 62
     3
370
     9
100
AcDbLine
 10
-420.6756591796875
 20
283.0674207532729
 30
0.0
 11
-420.6756591796875
 21
377.0673349741344
 31
0.0
  0
LINE
  5
157
330
1F
100
AcDbEntity
  8
A-2_蓋
  6
Continuous
 62
     3
370
     9
100
AcDbLine
 10
-410.6754406078442
 20
383.0672557933912
 30
0.0
 11
-410.6754406078442
 21
440.5671980574326
 31
0.0
  0
LINE
  5
158
330
1F
100
AcDbEntity
  8
A-2_蓋
  6
Continuous
 62
     3
370
     9
100
AcDbLine
 10
-405.6756715516786
 20
383.0672557933912
 30
0.0
 11
-405.6756715516786
 21
440.5671980574326
 31
0.0
  0
LINE
  5
159
330
1F
100
AcDbEntity
  8
A-2_蓋
  6
Continuous
 62
     3
370
     9
100
AcDbLine
 10
-410.6754406078442
 20
-80.43293720967057
 30
0.0
 11
-410.6754406078442
 21
-22.93250006598385
 31
0.0
  0
LINE
  5
15A
330
1F
100
AcDbEntity
  8
A-2_蓋
  6
Continuous
 62
     3
370
     9
100
AcDbLine
 10
-405.6756715516786
 20
-80.43293720967057
 30
0.0
 11
-405.6756715516786
 21
-22.93250006598385
 31
0.0
  0
LINE
  5
15B
330
1F
100
AcDbEntity
  8
A-2_蓋
  6
Continuous
 62
     3
370
     9
100
AcDbLine
 10
-410.6754406078442
 20
183.0674001332876
 30
0.0
 11
-410.6754406078442
 21
277.0674999340162
 31
0.0
  0
LINE
  5
15C
330
1F
100
AcDbEntity
  8
A-2_蓋
  6
Continuous
 62
     3
370
     9
100
AcDbLine
 10
-410.6754406078442
 20
283.0674207532729
 30
0.0
 11
-410.6754406078442
 21
377.0673349741344
 31
0.0
  0
LINE
  5
15D
330
1F
100
AcDbEntity
  8
A-2_蓋
  6
Continuous
 62
     3
370
     9
100
AcDbLine
 10
-405.6756715516786
 20
183.0674001332876
 30
0.0
 11
-405.6756715516786
 21
277.0674999340162
 31
0.0
  0
LINE
  5
15E
330
1F
100
AcDbEntity
  8
A-2_蓋
  6
Continuous
 62
     3
370
     9
100
AcDbLine
 10
-405.6756715516786
 20
283.0674207532729
 30
0.0
 11
-405.6756715516786
 21
377.0673349741344
 31
0.0
  0
LINE
  5
15F
330
1F
100
AcDbEntity
  8
A-2_蓋
  6
Continuous
 62
     3
370
     9
100
AcDbLine
 10
-395.6754529798353
 20
383.0672557933912
 30
0.0
 11
-395.6754529798353
 21
440.5671980574326
 31
0.0
  0
LINE
  5
160
330
1F
100
AcDbEntity
  8
A-2_蓋
  6
Continuous
 62
     3
370
     9
100
AcDbLine
 10
-390.6756839236698
 20
383.0672557933912
 30
0.0
 11
-390.6756839236698
 21
440.5671980574326
 31
0.0
  0
LINE
  5
161
330
1F
100
AcDbEntity
  8
A-2_蓋
  6
Continuous
 62
     3
370
     9
100
AcDbLine
 10
-395.6754529798353
 20
-80.43293720967057
 30
0.0
 11
-395.6754529798353
 21
-22.93250006598385
 31
0.0
  0
LINE
  5
162
330
1F
100
AcDbEntity
  8
A-2_蓋
  6
Continuous
 62
     3
370
     9
100
AcDbLine
 10
-390.6756839236698
 20
-80.43293720967057
 30
0.0
 11
-390.6756839236698
 21
-22.93250006598385
 31
0.0
  0
LINE
  5
163
330
1F
100
AcDbEntity
  8
A-2_蓋
  6
Continuous
 62
     3
370
     9
100
AcDbLine
 10
-395.6754529798353
 20
183.0674001332876
 30
0.0
 11
-395.6754529798353
 21
277.0674999340162
 31
0.0
  0
LINE
  5
164
330
1F
100
AcDbEntity
  8
A-2_蓋
  6
Continuous
 62
     3
370
     9
100
AcDbLine
 10
-395.6754529798353
 20
283.0674207532729
 30
0.0
 11
-395.6754529798353
 21
377.0673349741344
 31
0.0
  0
LINE
  5
165
330
1F
100
AcDbEntity
  8
A-2_蓋
  6
Continuous
 62
     3
370
     9
100
AcDbLine
 10
-390.6756839236698
 20
183.0674001332876
 30
0.0
 11
-390.6756839236698
 21
277.0674999340162
 31
0.0
  0
LINE
  5
166
330
1F
100
AcDbEntity
  8
A-2_蓋
  6
Continuous
 62
     3
370
     9
100
AcDbLine
 10
-390.6756839236698
 20
283.0674207532729
 30
0.0
 11
-390.6756839236698
 21
377.0673349741344
 31
0.0
  0
LINE
  5
167
330
1F
100
AcDbEntity
  8
A-2_蓋
  6
Continuous
 62
     3
370
     9
100
AcDbLine
 10
-380.6754653518265
 20
383.0672557933912
 30
0.0
 11
-380.6754653518265
 21
440.5671980574326
 31
0.0
  0
LINE
  5
168
330
1F
100
AcDbEntity
  8
A-2_蓋
  6
Continuous
 62
     3
370
     9
100
AcDbLine
 10
-375.6756962956608
 20
383.0672557933912
 30
0.0
 11
-375.6756962956608
 21
440.5671980574326
 31
0.0
  0
LINE
  5
169
330
1F
100
AcDbEntity
  8
A-2_蓋
  6
Continuous
 62
     3
370
     9
100
AcDbLine
 10
-380.6754653518265
 20
-80.43293720967057
 30
0.0
 11
-380.6754653518265
 21
-22.93250006598385
 31
0.0
  0
LINE
  5
16A
330
1F
100
AcDbEntity
  8
A-2_蓋
  6
Continuous
 62
     3
370
     9
100
AcDbLine
 10
-375.6756962956608
 20
-80.43293720967057
 30
0.0
 11
-375.6756962956608
 21
-22.93250006598385
 31
0.0
  0
LINE
  5
16B
330
1F
100
AcDbEntity
  8
A-2_蓋
  6
Continuous
 62
     3
370
     9
100
AcDbLine
 10
-380.6754653518265
 20
183.0674001332876
 30
0.0
 11
-380.6754653518265
 21
277.0674999340162
 31
0.0
  0
LINE
  5
16C
330
1F
100
AcDbEntity
  8
A-2_蓋
  6
Continuous
 62
     3
370
     9
100
AcDbLine
 10
-380.6754653518265
 20
283.0674207532729
 30
0.0
 11
-380.6754653518265
 21
377.0673349741344
 31
0.0
  0
LINE
  5
16D
330
1F
100
AcDbEntity
  8
A-2_蓋
  6
Continuous
 62
     3
370
     9
100
AcDbLine
 10
-375.6756962956608
 20
183.0674001332876
 30
0.0
 11
-375.6756962956608
 21
277.0674999340162
 31
0.0
  0
LINE
  5
16E
330
1F
100
AcDbEntity
  8
A-2_蓋
  6
Continuous
 62
     3
370
     9
100
AcDbLine
 10
-375.6756962956608
 20
283.0674207532729
 30
0.0
 11
-375.6756962956608
 21
377.0673349741344
 31
0.0
  0
LINE
  5
16F
330
1F
100
AcDbEntity
  8
A-2_蓋
  6
Continuous
 62
     3
370
     9
100
AcDbLine
 10
-365.6754777238176
 20
383.0672557933912
 30
0.0
 11
-365.6754777238176
 21
440.5671980574326
 31
0.0
  0
LINE
  5
170
330
1F
100
AcDbEntity
  8
A-2_蓋
  6
Continuous
 62
     3
370
     9
100
AcDbLine
 10
-360.675708667652
 20
383.0672557933912
 30
0.0
 11
-360.675708667652
 21
440.5671980574326
 31
0.0
  0
LINE
  5
171
330
1F
100
AcDbEntity
  8
A-2_蓋
  6
Continuous
 62
     3
370
     9
100
AcDbLine
 10
-365.6754777238176
 20
-80.43293720967057
 30
0.0
 11
-365.6754777238176
 21
-22.93250006598385
 31
0.0
  0
LINE
  5
172
330
1F
100
AcDbEntity
  8
A-2_蓋
  6
Continuous
 62
     3
370
     9
100
AcDbLine
 10
-360.675708667652
 20
-80.43293720967057
 30
0.0
 11
-360.675708667652
 21
-22.93250006598385
 31
0.0
  0
LINE
  5
173
330
1F
100
AcDbEntity
  8
A-2_蓋
  6
Continuous
 62
     3
370
     9
100
AcDbLine
 10
-365.6754777238176
 20
183.0674001332876
 30
0.0
 11
-365.6754777238176
 21
277.0674999340162
 31
0.0
  0
LINE
  5
174
330
1F
100
AcDbEntity
  8
A-2_蓋
  6
Continuous
 62
     3
370
     9
100
AcDbLine
 10
-365.6754777238176
 20
283.0674207532729
 30
0.0
 11
-365.6754777238176
 21
377.0673349741344
 31
0.0
  0
LINE
  5
175
330
1F
100
AcDbEntity
  8
A-2_蓋
  6
Continuous
 62
     3
370
     9
100
AcDbLine
 10
-360.675708667652
 20
183.0674001332876
 30
0.0
 11
-360.675708667652
 21
277.0674999340162
 31
0.0
  0
LINE
  5
176
330
1F
100
AcDbEntity
  8
A-2_蓋
  6
Continuous
 62
     3
370
     9
100
AcDbLine
 10
-360.675708667652
 20
283.0674207532729
 30
0.0
 11
-360.675708667652
 21
377.0673349741344
 31
0.0
  0
LINE
  5
177
330
1F
100
AcDbEntity
  8
A-2_蓋
  6
Continuous
 62
     3
370
     9
100
AcDbLine
 10
-350.6754900958088
 20
383.0672557933912
 30
0.0
 11
-350.6754900958088
 21
440.5671980574326
 31
0.0
  0
LINE
  5
178
330
1F
100
AcDbEntity
  8
A-2_蓋
  6
Continuous
 62
     3
370
     9
100
AcDbLine
 10
-345.6757210396431
 20
383.0672557933912
 30
0.0
 11
-345.6757210396431
 21
440.5671980574326
 31
0.0
  0
LINE
  5
179
330
1F
100
AcDbEntity
  8
A-2_蓋
  6
Continuous
 62
     3
370
     9
100
AcDbLine
 10
-350.6754900958088
 20
-80.43293720967057
 30
0.0
 11
-350.6754900958088
 21
-22.93250006598385
 31
0.0
  0
LINE
  5
17A
330
1F
100
AcDbEntity
  8
A-2_蓋
  6
Continuous
 62
     3
370
     9
100
AcDbLine
 10
-345.6757210396431
 20
-80.43293720967057
 30
0.0
 11
-345.6757210396431
 21
-22.93250006598385
 31
0.0
  0
LINE
  5
17B
330
1F
100
AcDbEntity
  8
A-2_蓋
  6
Continuous
 62
     3
370
     9
100
AcDbLine
 10
-350.6754900958088
 20
183.0674001332876
 30
0.0
 11
-350.6754900958088
 21
277.0674999340162
 31
0.0
  0
LINE
  5
17C
330
1F
100
AcDbEntity
  8
A-2_蓋
  6
Continuous
 62
     3
370
     9
100
AcDbLine
 10
-350.6754900958088
 20
283.0674207532729
 30
0.0
 11
-350.6754900958088
 21
377.0673349741344
 31
0.0
  0
LINE
  5
17D
330
1F
100
AcDbEntity
  8
A-2_蓋
  6
Continuous
 62
     3
370
     9
100
AcDbLine
 10
-345.6757210396431
 20
183.0674001332876
 30
0.0
 11
-345.6757210396431
 21
277.0674999340162
 31
0.0
  0
LINE
  5
17E
330
1F
100
AcDbEntity
  8
A-2_蓋
  6
Continuous
 62
     3
370
     9
100
AcDbLine
 10
-345.6757210396431
 20
283.0674207532729
 30
0.0
 11
-345.6757210396431
 21
377.0673349741344
 31
0.0
  0
LINE
  5
17F
330
1F
100
AcDbEntity
  8
A-2_蓋
  6
Continuous
 62
     3
370
     9
100
AcDbLine
 10
-335.6755024677997
 20
383.0672557933912
 30
0.0
 11
-335.6755024677997
 21
440.5671980574326
 31
0.0
  0
LINE
  5
180
330
1F
100
AcDbEntity
  8
A-2_蓋
  6
Continuous
 62
     3
370
     9
100
AcDbLine
 10
-330.6757334116343
 20
383.0672557933912
 30
0.0
 11
-330.6757334116343
 21
440.5671980574326
 31
0.0
  0
LINE
  5
181
330
1F
100
AcDbEntity
  8
A-2_蓋
  6
Continuous
 62
     3
370
     9
100
AcDbLine
 10
-335.6755024677997
 20
-80.43293720967057
 30
0.0
 11
-335.6755024677997
 21
-22.93250006598385
 31
0.0
  0
LINE
  5
182
330
1F
100
AcDbEntity
  8
A-2_蓋
  6
Continuous
 62
     3
370
     9
100
AcDbLine
 10
-330.6757334116343
 20
-80.43293720967057
 30
0.0
 11
-330.6757334116343
 21
-22.93250006598385
 31
0.0
  0
LINE
  5
183
330
1F
100
AcDbEntity
  8
A-2_蓋
  6
Continuous
 62
     3
370
     9
100
AcDbLine
 10
-335.6755024677997
 20
183.0674001332876
 30
0.0
 11
-335.6755024677997
 21
277.0674999340162
 31
0.0
  0
LINE
  5
184
330
1F
100
AcDbEntity
  8
A-2_蓋
  6
Continuous
 62
     3
370
     9
100
AcDbLine
 10
-335.6755024677997
 20
283.0674207532729
 30
0.0
 11
-335.6755024677997
 21
377.0673349741344
 31
0.0
  0
LINE
  5
185
330
1F
100
AcDbEntity
  8
A-2_蓋
  6
Continuous
 62
     3
370
     9
100
AcDbLine
 10
-330.6757334116343
 20
183.0674001332876
 30
0.0
 11
-330.6757334116343
 21
277.0674999340162
 31
0.0
  0
LINE
  5
186
330
1F
100
AcDbEntity
  8
A-2_蓋
  6
Continuous
 62
     3
370
     9
100
AcDbLine
 10
-330.6757334116343
 20
283.0674207532729
 30
0.0
 11
-330.6757334116343
 21
377.0673349741344
 31
0.0
  0
LINE
  5
187
330
1F
100
AcDbEntity
  8
A-2_蓋
  6
Continuous
 62
     3
370
     9
100
AcDbLine
 10
-320.6755148397909
 20
383.0672557933912
 30
0.0
 11
-320.6755148397909
 21
440.5671980574326
 31
0.0
  0
LINE
  5
188
330
1F
100
AcDbEntity
  8
A-2_蓋
  6
Continuous
 62
     3
370
     9
100
AcDbLine
 10
-315.6757457836254
 20
383.0672557933912
 30
0.0
 11
-315.6757457836254
 21
440.5671980574326
 31
0.0
  0
LINE
  5
189
330
1F
100
AcDbEntity
  8
A-2_蓋
  6
Continuous
 62
     3
370
     9
100
AcDbLine
 10
-320.6755148397909
 20
-80.43293720967057
 30
0.0
 11
-320.6755148397909
 21
-22.93250006598385
 31
0.0
  0
LINE
  5
18A
330
1F
100
AcDbEntity
  8
A-2_蓋
  6
Continuous
 62
     3
370
     9
100
AcDbLine
 10
-315.6757457836254
 20
-80.43293720967057
 30
0.0
 11
-315.6757457836254
 21
-22.93250006598385
 31
0.0
  0
LINE
  5
18B
330
1F
100
AcDbEntity
  8
A-2_蓋
  6
Continuous
 62
     3
370
     9
100
AcDbLine
 10
-320.6755148397909
 20
183.0674001332876
 30
0.0
 11
-320.6755148397909
 21
277.0674999340162
 31
0.0
  0
LINE
  5
18C
330
1F
100
AcDbEntity
  8
A-2_蓋
  6
Continuous
 62
     3
370
     9
100
AcDbLine
 10
-320.6755148397909
 20
283.0674207532729
 30
0.0
 11
-320.6755148397909
 21
377.0673349741344
 31
0.0
  0
LINE
  5
18D
330
1F
100
AcDbEntity
  8
A-2_蓋
  6
Continuous
 62
     3
370
     9
100
AcDbLine
 10
-315.6757457836254
 20
183.0674001332876
 30
0.0
 11
-315.6757457836254
 21
277.0674999340162
 31
0.0
  0
LINE
  5
18E
330
1F
100
AcDbEntity
  8
A-2_蓋
  6
Continuous
 62
     3
370
     9
100
AcDbLine
 10
-315.6757457836254
 20
283.0674207532729
 30
0.0
 11
-315.6757457836254
 21
377.0673349741344
 31
0.0
  0
LINE
  5
18F
330
1F
100
AcDbEntity
  8
A-2_蓋
  6
Continuous
 62
     3
370
     9
100
AcDbLine
 10
-305.675527211782
 20
383.0672557933912
 30
0.0
 11
-305.675527211782
 21
440.5671980574326
 31
0.0
  0
LINE
  5
190
330
1F
100
AcDbEntity
  8
A-2_蓋
  6
Continuous
 62
     3
370
     9
100
AcDbLine
 10
-300.6757581556166
 20
383.0672557933912
 30
0.0
 11
-300.6757581556166
 21
440.5671980574326
 31
0.0
  0
LINE
  5
191
330
1F
100
AcDbEntity
  8
A-2_蓋
  6
Continuous
 62
     3
370
     9
100
AcDbLine
 10
-305.675527211782
 20
-80.43293720967057
 30
0.0
 11
-305.675527211782
 21
-22.93250006598385
 31
0.0
  0
LINE
  5
192
330
1F
100
AcDbEntity
  8
A-2_蓋
  6
Continuous
 62
     3
370
     9
100
AcDbLine
 10
-300.6757581556166
 20
-80.43293720967057
 30
0.0
 11
-300.6757581556166
 21
-22.93250006598385
 31
0.0
  0
LINE
  5
193
330
1F
100
AcDbEntity
  8
A-2_蓋
  6
Continuous
 62
     3
370
     9
100
AcDbLine
 10
-305.675527211782
 20
183.0674001332876
 30
0.0
 11
-305.675527211782
 21
277.0674999340162
 31
0.0
  0
LINE
  5
194
330
1F
100
AcDbEntity
  8
A-2_蓋
  6
Continuous
 62
     3
370
     9
100
AcDbLine
 10
-305.675527211782
 20
283.0674207532729
 30
0.0
 11
-305.675527211782
 21
377.0673349741344
 31
0.0
  0
LINE
  5
195
330
1F
100
AcDbEntity
  8
A-2_蓋
  6
Continuous
 62
     3
370
     9
100
AcDbLine
 10
-300.6757581556166
 20
183.0674001332876
 30
0.0
 11
-300.6757581556166
 21
277.0674999340162
 31
0.0
  0
LINE
  5
196
330
1F
100
AcDbEntity
  8
A-2_蓋
  6
Continuous
 62
     3
370
     9
100
AcDbLine
 10
-300.6757581556166
 20
283.0674207532729
 30
0.0
 11
-300.6757581556166
 21
377.0673349741344
 31
0.0
  0
LINE
  5
197
330
1F
100
AcDbEntity
  8
A-2_蓋
  6
Continuous
 62
     3
370
     9
100
AcDbLine
 10
-290.6755395837732
 20
383.0672557933912
 30
0.0
 11
-290.6755395837732
 21
440.5671980574326
 31
0.0
  0
LINE
  5
198
330
1F
100
AcDbEntity
  8
A-2_蓋
  6
Continuous
 62
     3
370
     9
100
AcDbLine
 10
-285.6757705276077
 20
383.0672557933912
 30
0.0
 11
-285.6757705276077
 21
440.5671980574326
 31
0.0
  0
LINE
  5
199
330
1F
100
AcDbEntity
  8
A-2_蓋
  6
Continuous
 62
     3
370
     9
100
AcDbLine
 10
-290.6755395837732
 20
-80.43293720967057
 30
0.0
 11
-290.6755395837732
 21
-22.93250006598385
 31
0.0
  0
LINE
  5
19A
330
1F
100
AcDbEntity
  8
A-2_蓋
  6
Continuous
 62
     3
370
     9
100
AcDbLine
 10
-285.6757705276077
 20
-80.43293720967057
 30
0.0
 11
-285.6757705276077
 21
-22.93250006598385
 31
0.0
  0
LINE
  5
19B
330
1F
100
AcDbEntity
  8
A-2_蓋
  6
Continuous
 62
     3
370
     9
100
AcDbLine
 10
-290.6755395837732
 20
183.0674001332876
 30
0.0
 11
-290.6755395837732
 21
277.0674999340162
 31
0.0
  0
LINE
  5
19C
330
1F
100
AcDbEntity
  8
A-2_蓋
  6
Continuous
 62
     3
370
     9
100
AcDbLine
 10
-290.6755395837732
 20
283.0674207532729
 30
0.0
 11
-290.6755395837732
 21
377.0673349741344
 31
0.0
  0
LINE
  5
19D
330
1F
100
AcDbEntity
  8
A-2_蓋
  6
Continuous
 62
     3
370
     9
100
AcDbLine
 10
-285.6757705276077
 20
183.0674001332876
 30
0.0
 11
-285.6757705276077
 21
277.0674999340162
 31
0.0
  0
LINE
  5
19E
330
1F
100
AcDbEntity
  8
A-2_蓋
  6
Continuous
 62
     3
370
     9
100
AcDbLine
 10
-285.6757705276077
 20
283.0674207532729
 30
0.0
 11
-285.6757705276077
 21
377.0673349741344
 31
0.0
  0
LINE
  5
19F
330
1F
100
AcDbEntity
  8
A-2_蓋
  6
Continuous
 62
     3
370
     9
100
AcDbLine
 10
-275.6755519557643
 20
383.0672557933912
 30
0.0
 11
-275.6755519557643
 21
440.5671980574326
 31
0.0
  0
LINE
  5
1A0
330
1F
100
AcDbEntity
  8
A-2_蓋
  6
Continuous
 62
     3
370
     9
100
AcDbLine
 10
-270.6757828995989
 20
383.0672557933912
 30
0.0
 11
-270.6757828995989
 21
440.5671980574326
 31
0.0
  0
LINE
  5
1A1
330
1F
100
AcDbEntity
  8
A-2_蓋
  6
Continuous
 62
     3
370
     9
100
AcDbLine
 10
-275.6755519557643
 20
-80.43293720967057
 30
0.0
 11
-275.6755519557643
 21
-22.93250006598385
 31
0.0
  0
LINE
  5
1A2
330
1F
100
AcDbEntity
  8
A-2_蓋
  6
Continuous
 62
     3
370
     9
100
AcDbLine
 10
-270.6757828995989
 20
-80.43293720967057
 30
0.0
 11
-270.6757828995989
 21
-22.93250006598385
 31
0.0
  0
LINE
  5
1A3
330
1F
100
AcDbEntity
  8
A-2_蓋
  6
Continuous
 62
     3
370
     9
100
AcDbLine
 10
-275.6755519557643
 20
183.0674001332876
 30
0.0
 11
-275.6755519557643
 21
277.0674999340162
 31
0.0
  0
LINE
  5
1A4
330
1F
100
AcDbEntity
  8
A-2_蓋
  6
Continuous
 62
     3
370
     9
100
AcDbLine
 10
-275.6755519557643
 20
283.0674207532729
 30
0.0
 11
-275.6755519557643
 21
377.0673349741344
 31
0.0
  0
LINE
  5
1A5
330
1F
100
AcDbEntity
  8
A-2_蓋
  6
Continuous
 62
     3
370
     9
100
AcDbLine
 10
-270.6757828995989
 20
183.0674001332876
 30
0.0
 11
-270.6757828995989
 21
277.0674999340162
 31
0.0
  0
LINE
  5
1A6
330
1F
100
AcDbEntity
  8
A-2_蓋
  6
Continuous
 62
     3
370
     9
100
AcDbLine
 10
-270.6757828995989
 20
283.0674207532729
 30
0.0
 11
-270.6757828995989
 21
377.0673349741344
 31
0.0
  0
LINE
  5
1A7
330
1F
100
AcDbEntity
  8
A-2_蓋
  6
Continuous
 62
     3
370
     9
100
AcDbLine
 10
-260.6755643277555
 20
383.0672557933912
 30
0.0
 11
-260.6755643277555
 21
440.5671980574326
 31
0.0
  0
LINE
  5
1A8
330
1F
100
AcDbEntity
  8
A-2_蓋
  6
Continuous
 62
     3
370
     9
100
AcDbLine
 10
-255.67579527159
 20
383.0672557933912
 30
0.0
 11
-255.67579527159
 21
440.5671980574326
 31
0.0
  0
LINE
  5
1A9
330
1F
100
AcDbEntity
  8
A-2_蓋
  6
Continuous
 62
     3
370
     9
100
AcDbLine
 10
-260.6755643277555
 20
-80.43293720967057
 30
0.0
 11
-260.6755643277555
 21
-22.93250006598385
 31
0.0
  0
LINE
  5
1AA
330
1F
100
AcDbEntity
  8
A-2_蓋
  6
Continuous
 62
     3
370
     9
100
AcDbLine
 10
-255.67579527159
 20
-80.43293720967057
 30
0.0
 11
-255.67579527159
 21
-22.93250006598385
 31
0.0
  0
LINE
  5
1AB
330
1F
100
AcDbEntity
  8
A-2_蓋
  6
Continuous
 62
     3
370
     9
100
AcDbLine
 10
-260.6755643277555
 20
183.0674001332876
 30
0.0
 11
-260.6755643277555
 21
277.0674999340162
 31
0.0
  0
LINE
  5
1AC
330
1F
100
AcDbEntity
  8
A-2_蓋
  6
Continuous
 62
     3
370
     9
100
AcDbLine
 10
-260.6755643277555
 20
283.0674207532729
 30
0.0
 11
-260.6755643277555
 21
377.0673349741344
 31
0.0
  0
LINE
  5
1AD
330
1F
100
AcDbEntity
  8
A-2_蓋
  6
Continuous
 62
     3
370
     9
100
AcDbLine
 10
-255.67579527159
 20
183.0674001332876
 30
0.0
 11
-255.67579527159
 21
277.0674999340162
 31
0.0
  0
LINE
  5
1AE
330
1F
100
AcDbEntity
  8
A-2_蓋
  6
Continuous
 62
     3
370
     9
100
AcDbLine
 10
-255.67579527159
 20
283.0674207532729
 30
0.0
 11
-255.67579527159
 21
377.0673349741344
 31
0.0
  0
LINE
  5
1AF
330
1F
100
AcDbEntity
  8
A-2_蓋
  6
Continuous
 62
     3
370
     9
100
AcDbLine
 10
-245.6755766997466
 20
383.0672557933912
 30
0.0
 11
-245.6755766997466
 21
440.5671980574326
 31
0.0
  0
LINE
  5
1B0
330
1F
100
AcDbEntity
  8
A-2_蓋
  6
Continuous
 62
     3
370
     9
100
AcDbLine
 10
-240.675807643581
 20
383.0672557933912
 30
0.0
 11
-240.675807643581
 21
440.5671980574326
 31
0.0
  0
LINE
  5
1B1
330
1F
100
AcDbEntity
  8
A-2_蓋
  6
Continuous
 62
     3
370
     9
100
AcDbLine
 10
-245.6755766997466
 20
-80.43293720967057
 30
0.0
 11
-245.6755766997466
 21
-22.93250006598385
 31
0.0
  0
LINE
  5
1B2
330
1F
100
AcDbEntity
  8
A-2_蓋
  6
Continuous
 62
     3
370
     9
100
AcDbLine
 10
-240.675807643581
 20
-80.43293720967057
 30
0.0
 11
-240.675807643581
 21
-22.93250006598385
 31
0.0
  0
LINE
  5
1B3
330
1F
100
AcDbEntity
  8
A-2_蓋
  6
Continuous
 62
     3
370
     9
100
AcDbLine
 10
-245.6755766997466
 20
183.0674001332876
 30
0.0
 11
-245.6755766997466
 21
277.0674999340162
 31
0.0
  0
LINE
  5
1B4
330
1F
100
AcDbEntity
  8
A-2_蓋
  6
Continuous
 62
     3
370
     9
100
AcDbLine
 10
-245.6755766997466
 20
283.0674207532729
 30
0.0
 11
-245.6755766997466
 21
377.0673349741344
 31
0.0
  0
LINE
  5
1B5
330
1F
100
AcDbEntity
  8
A-2_蓋
  6
Continuous
 62
     3
370
     9
100
AcDbLine
 10
-240.675807643581
 20
183.0674001332876
 30
0.0
 11
-240.675807643581
 21
277.0674999340162
 31
0.0
  0
LINE
  5
1B6
330
1F
100
AcDbEntity
  8
A-2_蓋
  6
Continuous
 62
     3
370
     9
100
AcDbLine
 10
-240.675807643581
 20
283.0674207532729
 30
0.0
 11
-240.675807643581
 21
377.0673349741344
 31
0.0
  0
LINE
  5
1B7
330
1F
100
AcDbEntity
  8
A-2_蓋
  6
Continuous
 62
     3
370
     9
100
AcDbLine
 10
-230.6755890717378
 20
383.0672557933912
 30
0.0
 11
-230.6755890717378
 21
440.5671980574326
 31
0.0
  0
LINE
  5
1B8
330
1F
100
AcDbEntity
  8
A-2_蓋
  6
Continuous
 62
     3
370
     9
100
AcDbLine
 10
-225.6758200155721
 20
383.0672557933912
 30
0.0
 11
-225.6758200155721
 21
440.5671980574326
 31
0.0
  0
LINE
  5
1B9
330
1F
100
AcDbEntity
  8
A-2_蓋
  6
Continuous
 62
     3
370
     9
100
AcDbLine
 10
-230.6755890717378
 20
-80.43293720967057
 30
0.0
 11
-230.6755890717378
 21
-22.93250006598385
 31
0.0
  0
LINE
  5
1BA
330
1F
100
AcDbEntity
  8
A-2_蓋
  6
Continuous
 62
     3
370
     9
100
AcDbLine
 10
-225.6758200155721
 20
-80.43293720967057
 30
0.0
 11
-225.6758200155721
 21
-22.93250006598385
 31
0.0
  0
LINE
  5
1BB
330
1F
100
AcDbEntity
  8
A-2_蓋
  6
Continuous
 62
     3
370
     9
100
AcDbLine
 10
-230.6755890717378
 20
183.0674001332876
 30
0.0
 11
-230.6755890717378
 21
277.0674999340162
 31
0.0
  0
LINE
  5
1BC
330
1F
100
AcDbEntity
  8
A-2_蓋
  6
Continuous
 62
     3
370
     9
100
AcDbLine
 10
-230.6755890717378
 20
283.0674207532729
 30
0.0
 11
-230.6755890717378
 21
377.0673349741344
 31
0.0
  0
LINE
  5
1BD
330
1F
100
AcDbEntity
  8
A-2_蓋
  6
Continuous
 62
     3
370
     9
100
AcDbLine
 10
-225.6758200155721
 20
183.0674001332876
 30
0.0
 11
-225.6758200155721
 21
277.0674999340162
 31
0.0
  0
LINE
  5
1BE
330
1F
100
AcDbEntity
  8
A-2_蓋
  6
Continuous
 62
     3
370
     9
100
AcDbLine
 10
-225.6758200155721
 20
283.0674207532729
 30
0.0
 11
-225.6758200155721
 21
377.0673349741344
 31
0.0
  0
LINE
  5
1BF
330
1F
100
AcDbEntity
  8
A-2_蓋
  6
Continuous
 62
     3
370
     9
100
AcDbLine
 10
-215.6756014437289
 20
383.0672557933912
 30
0.0
 11
-215.6756014437289
 21
440.5671980574326
 31
0.0
  0
LINE
  5
1C0
330
1F
100
AcDbEntity
  8
A-2_蓋
  6
Continuous
 62
     3
370
     9
100
AcDbLine
 10
-210.6758323875633
 20
383.0672557933912
 30
0.0
 11
-210.6758323875633
 21
440.5671980574326
 31
0.0
  0
LINE
  5
1C1
330
1F
100
AcDbEntity
  8
A-2_蓋
  6
Continuous
 62
     3
370
     9
100
AcDbLine
 10
-215.6756014437289
 20
-80.43293720967057
 30
0.0
 11
-215.6756014437289
 21
-22.93250006598385
 31
0.0
  0
LINE
  5
1C2
330
1F
100
AcDbEntity
  8
A-2_蓋
  6
Continuous
 62
     3
370
     9
100
AcDbLine
 10
-210.6758323875633
 20
-80.43293720967057
 30
0.0
 11
-210.6758323875633
 21
-22.93250006598385
 31
0.0
  0
LINE
  5
1C3
330
1F
100
AcDbEntity
  8
A-2_蓋
  6
Continuous
 62
     3
370
     9
100
AcDbLine
 10
-215.6756014437289
 20
183.0674001332876
 30
0.0
 11
-215.6756014437289
 21
277.0674999340162
 31
0.0
  0
LINE
  5
1C4
330
1F
100
AcDbEntity
  8
A-2_蓋
  6
Continuous
 62
     3
370
     9
100
AcDbLine
 10
-215.6756014437289
 20
283.0674207532729
 30
0.0
 11
-215.6756014437289
 21
377.0673349741344
 31
0.0
  0
LINE
  5
1C5
330
1F
100
AcDbEntity
  8
A-2_蓋
  6
Continuous
 62
     3
370
     9
100
AcDbLine
 10
-210.6758323875633
 20
183.0674001332876
 30
0.0
 11
-210.6758323875633
 21
277.0674999340162
 31
0.0
  0
LINE
  5
1C6
330
1F
100
AcDbEntity
  8
A-2_蓋
  6
Continuous
 62
     3
370
     9
100
AcDbLine
 10
-210.6758323875633
 20
283.0674207532729
 30
0.0
 11
-210.6758323875633
 21
377.0673349741344
 31
0.0
  0
LINE
  5
1C7
330
1F
100
AcDbEntity
  8
A-2_蓋
  6
Continuous
 62
     3
370
     9
100
AcDbLine
 10
-200.6756138157199
 20
383.0672557933912
 30
0.0
 11
-200.6756138157199
 21
440.5671980574326
 31
0.0
  0
LINE
  5
1C8
330
1F
100
AcDbEntity
  8
A-2_蓋
  6
Continuous
 62
     3
370
     9
100
AcDbLine
 10
-195.6758447595544
 20
383.0672557933912
 30
0.0
 11
-195.6758447595544
 21
440.5671980574326
 31
0.0
  0
LINE
  5
1C9
330
1F
100
AcDbEntity
  8
A-2_蓋
  6
Continuous
 62
     3
370
     9
100
AcDbLine
 10
-200.6756138157199
 20
-80.43293720967057
 30
0.0
 11
-200.6756138157199
 21
-22.93250006598385
 31
0.0
  0
LINE
  5
1CA
330
1F
100
AcDbEntity
  8
A-2_蓋
  6
Continuous
 62
     3
370
     9
100
AcDbLine
 10
-195.6758447595544
 20
-80.43293720967057
 30
0.0
 11
-195.6758447595544
 21
-22.93250006598385
 31
0.0
  0
LINE
  5
1CB
330
1F
100
AcDbEntity
  8
A-2_蓋
  6
Continuous
 62
     3
370
     9
100
AcDbLine
 10
-200.6756138157199
 20
183.0674001332876
 30
0.0
 11
-200.6756138157199
 21
277.0674999340162
 31
0.0
  0
LINE
  5
1CC
330
1F
100
AcDbEntity
  8
A-2_蓋
  6
Continuous
 62
     3
370
     9
100
AcDbLine
 10
-200.6756138157199
 20
283.0674207532729
 30
0.0
 11
-200.6756138157199
 21
377.0673349741344
 31
0.0
  0
LINE
  5
1CD
330
1F
100
AcDbEntity
  8
A-2_蓋
  6
Continuous
 62
     3
370
     9
100
AcDbLine
 10
-195.6758447595544
 20
183.0674001332876
 30
0.0
 11
-195.6758447595544
 21
277.0674999340162
 31
0.0
  0
LINE
  5
1CE
330
1F
100
AcDbEntity
  8
A-2_蓋
  6
Continuous
 62
     3
370
     9
100
AcDbLine
 10
-195.6758447595544
 20
283.0674207532729
 30
0.0
 11
-195.6758447595544
 21
377.0673349741344
 31
0.0
  0
LINE
  5
1CF
330
1F
100
AcDbEntity
  8
A-2_蓋
  6
Continuous
 62
     3
370
     9
100
AcDbLine
 10
-185.6756261877111
 20
383.0672557933912
 30
0.0
 11
-185.6756261877111
 21
440.5671980574326
 31
0.0
  0
LINE
  5
1D0
330
1F
100
AcDbEntity
  8
A-2_蓋
  6
Continuous
 62
     3
370
     9
100
AcDbLine
 10
-180.6758571315456
 20
383.0672557933912
 30
0.0
 11
-180.6758571315456
 21
440.5671980574326
 31
0.0
  0
LINE
  5
1D1
330
1F
100
AcDbEntity
  8
A-2_蓋
  6
Continuous
 62
     3
370
     9
100
AcDbLine
 10
-185.6756261877111
 20
-80.43293720967057
 30
0.0
 11
-185.6756261877111
 21
-22.93250006598385
 31
0.0
  0
LINE
  5
1D2
330
1F
100
AcDbEntity
  8
A-2_蓋
  6
Continuous
 62
     3
370
     9
100
AcDbLine
 10
-180.6758571315456
 20
-80.43293720967057
 30
0.0
 11
-180.6758571315456
 21
-22.93250006598385
 31
0.0
  0
LINE
  5
1D3
330
1F
100
AcDbEntity
  8
A-2_蓋
  6
Continuous
 62
     3
370
     9
100
AcDbLine
 10
-185.6756261877111
 20
183.0674001332876
 30
0.0
 11
-185.6756261877111
 21
277.0674999340162
 31
0.0
  0
LINE
  5
1D4
330
1F
100
AcDbEntity
  8
A-2_蓋
  6
Continuous
 62
     3
370
     9
100
AcDbLine
 10
-185.6756261877111
 20
283.0674207532729
 30
0.0
 11
-185.6756261877111
 21
377.0673349741344
 31
0.0
  0
LINE
  5
1D5
330
1F
100
AcDbEntity
  8
A-2_蓋
  6
Continuous
 62
     3
370
     9
100
AcDbLine
 10
-180.6758571315456
 20
183.0674001332876
 30
0.0
 11
-180.6758571315456
 21
277.0674999340162
 31
0.0
  0
LINE
  5
1D6
330
1F
100
AcDbEntity
  8
A-2_蓋
  6
Continuous
 62
     3
370
     9
100
AcDbLine
 10
-180.6758571315456
 20
283.0674207532729
 30
0.0
 11
-180.6758571315456
 21
377.0673349741344
 31
0.0
  0
LINE
  5
1D7
330
1F
100
AcDbEntity
  8
A-2_蓋
  6
Continuous
 62
     3
370
     9
100
AcDbLine
 10
-170.6756385597022
 20
383.0672557933912
 30
0.0
 11
-170.6756385597022
 21
440.5671980574326
 31
0.0
  0
LINE
  5
1D8
330
1F
100
AcDbEntity
  8
A-2_蓋
  6
Continuous
 62
     3
370
     9
100
AcDbLine
 10
-165.6758695035367
 20
383.0672557933912
 30
0.0
 11
-165.6758695035367
 21
440.5671980574326
 31
0.0
  0
LINE
  5
1D9
330
1F
100
AcDbEntity
  8
A-2_蓋
  6
Continuous
 62
     3
370
     9
100
AcDbLine
 10
-170.6756385597022
 20
-80.43293720967057
 30
0.0
 11
-170.6756385597022
 21
-22.93250006598385
 31
0.0
  0
LINE
  5
1DA
330
1F
100
AcDbEntity
  8
A-2_蓋
  6
Continuous
 62
     3
370
     9
100
AcDbLine
 10
-165.6758695035367
 20
-80.43293720967057
 30
0.0
 11
-165.6758695035367
 21
-22.93250006598385
 31
0.0
  0
LINE
  5
1DB
330
1F
100
AcDbEntity
  8
A-2_蓋
  6
Continuous
 62
     3
370
     9
100
AcDbLine
 10
-170.6756385597022
 20
183.0674001332876
 30
0.0
 11
-170.6756385597022
 21
277.0674999340162
 31
0.0
  0
LINE
  5
1DC
330
1F
100
AcDbEntity
  8
A-2_蓋
  6
Continuous
 62
     3
370
     9
100
AcDbLine
 10
-170.6756385597022
 20
283.0674207532729
 30
0.0
 11
-170.6756385597022
 21
377.0673349741344
 31
0.0
  0
LINE
  5
1DD
330
1F
100
AcDbEntity
  8
A-2_蓋
  6
Continuous
 62
     3
370
     9
100
AcDbLine
 10
-165.6758695035367
 20
183.0674001332876
 30
0.0
 11
-165.6758695035367
 21
277.0674999340162
 31
0.0
  0
LINE
  5
1DE
330
1F
100
AcDbEntity
  8
A-2_蓋
  6
Continuous
 62
     3
370
     9
100
AcDbLine
 10
-165.6758695035367
 20
283.0674207532729
 30
0.0
 11
-165.6758695035367
 21
377.0673349741344
 31
0.0
  0
LINE
  5
1DF
330
1F
100
AcDbEntity
  8
A-2_蓋
  6
Continuous
 62
     3
370
     9
100
AcDbLine
 10
-155.6756509316934
 20
383.0672557933912
 30
0.0
 11
-155.6756509316934
 21
440.5671980574326
 31
0.0
  0
LINE
  5
1E0
330
1F
100
AcDbEntity
  8
A-2_蓋
  6
Continuous
 62
     3
370
     9
100
AcDbLine
 10
-150.6758818755279
 20
383.0672557933912
 30
0.0
 11
-150.6758818755279
 21
440.5671980574326
 31
0.0
  0
LINE
  5
1E1
330
1F
100
AcDbEntity
  8
A-2_蓋
  6
Continuous
 62
     3
370
     9
100
AcDbLine
 10
-155.6756509316934
 20
-80.43293720967057
 30
0.0
 11
-155.6756509316934
 21
-22.93250006598385
 31
0.0
  0
LINE
  5
1E2
330
1F
100
AcDbEntity
  8
A-2_蓋
  6
Continuous
 62
     3
370
     9
100
AcDbLine
 10
-150.6758818755279
 20
-80.43293720967057
 30
0.0
 11
-150.6758818755279
 21
-22.93250006598385
 31
0.0
  0
LINE
  5
1E3
330
1F
100
AcDbEntity
  8
A-2_蓋
  6
Continuous
 62
     3
370
     9
100
AcDbLine
 10
-155.6756509316934
 20
183.0674001332876
 30
0.0
 11
-155.6756509316934
 21
277.0674999340162
 31
0.0
  0
LINE
  5
1E4
330
1F
100
AcDbEntity
  8
A-2_蓋
  6
Continuous
 62
     3
370
     9
100
AcDbLine
 10
-155.6756509316934
 20
283.0674207532729
 30
0.0
 11
-155.6756509316934
 21
377.0673349741344
 31
0.0
  0
LINE
  5
1E5
330
1F
100
AcDbEntity
  8
A-2_蓋
  6
Continuous
 62
     3
370
     9
100
AcDbLine
 10
-150.6758818755279
 20
183.0674001332876
 30
0.0
 11
-150.6758818755279
 21
277.0674999340162
 31
0.0
  0
LINE
  5
1E6
330
1F
100
AcDbEntity
  8
A-2_蓋
  6
Continuous
 62
     3
370
     9
100
AcDbLine
 10
-150.6758818755279
 20
283.0674207532729
 30
0.0
 11
-150.6758818755279
 21
377.0673349741344
 31
0.0
  0
LINE
  5
1E7
330
1F
100
AcDbEntity
  8
A-2_蓋
  6
Continuous
 62
     3
370
     9
100
AcDbLine
 10
-140.6756633036845
 20
383.0672557933912
 30
0.0
 11
-140.6756633036845
 21
440.5671980574326
 31
0.0
  0
LINE
  5
1E8
330
1F
100
AcDbEntity
  8
A-2_蓋
  6
Continuous
 62
     3
370
     9
100
AcDbLine
 10
-135.675894247519
 20
383.0672557933912
 30
0.0
 11
-135.675894247519
 21
440.5671980574326
 31
0.0
  0
LINE
  5
1E9
330
1F
100
AcDbEntity
  8
A-2_蓋
  6
Continuous
 62
     3
370
     9
100
AcDbLine
 10
-140.6756633036845
 20
-80.43293720967057
 30
0.0
 11
-140.6756633036845
 21
-22.93250006598385
 31
0.0
  0
LINE
  5
1EA
330
1F
100
AcDbEntity
  8
A-2_蓋
  6
Continuous
 62
     3
370
     9
100
AcDbLine
 10
-135.675894247519
 20
-80.43293720967057
 30
0.0
 11
-135.675894247519
 21
-22.93250006598385
 31
0.0
  0
LINE
  5
1EB
330
1F
100
AcDbEntity
  8
A-2_蓋
  6
Continuous
 62
     3
370
     9
100
AcDbLine
 10
-140.6756633036845
 20
183.0674001332876
 30
0.0
 11
-140.6756633036845
 21
277.0674999340162
 31
0.0
  0
LINE
  5
1EC
330
1F
100
AcDbEntity
  8
A-2_蓋
  6
Continuous
 62
     3
370
     9
100
AcDbLine
 10
-140.6756633036845
 20
283.0674207532729
 30
0.0
 11
-140.6756633036845
 21
377.0673349741344
 31
0.0
  0
LINE
  5
1ED
330
1F
100
AcDbEntity
  8
A-2_蓋
  6
Continuous
 62
     3
370
     9
100
AcDbLine
 10
-135.675894247519
 20
183.0674001332876
 30
0.0
 11
-135.675894247519
 21
277.0674999340162
 31
0.0
  0
LINE
  5
1EE
330
1F
100
AcDbEntity
  8
A-2_蓋
  6
Continuous
 62
     3
370
     9
100
AcDbLine
 10
-135.675894247519
 20
283.0674207532729
 30
0.0
 11
-135.675894247519
 21
377.0673349741344
 31
0.0
  0
LINE
  5
1EF
330
1F
100
AcDbEntity
  8
A-2_蓋
  6
Continuous
 62
     3
370
     9
100
AcDbLine
 10
-125.6756756756756
 20
383.0672557933912
 30
0.0
 11
-125.6756756756756
 21
440.5671980574326
 31
0.0
  0
LINE
  5
1F0
330
1F
100
AcDbEntity
  8
A-2_蓋
  6
Continuous
 62
     3
370
     9
100
AcDbLine
 10
-120.67590661951
 20
383.0672557933912
 30
0.0
 11
-120.67590661951
 21
440.5671980574326
 31
0.0
  0
LINE
  5
1F1
330
1F
100
AcDbEntity
  8
A-2_蓋
  6
Continuous
 62
     3
370
     9
100
AcDbLine
 10
-125.6756756756756
 20
-80.43293720967057
 30
0.0
 11
-125.6756756756756
 21
-22.93250006598385
 31
0.0
  0
LINE
  5
1F2
330
1F
100
AcDbEntity
  8
A-2_蓋
  6
Continuous
 62
     3
370
     9
100
AcDbLine
 10
-120.67590661951
 20
-80.43293720967057
 30
0.0
 11
-120.67590661951
 21
-22.93250006598385
 31
0.0
  0
LINE
  5
1F3
330
1F
100
AcDbEntity
  8
A-2_蓋
  6
Continuous
 62
     3
370
     9
100
AcDbLine
 10
-125.6756756756756
 20
183.0674001332876
 30
0.0
 11
-125.6756756756756
 21
277.0674999340162
 31
0.0
  0
LINE
  5
1F4
330
1F
100
AcDbEntity
  8
A-2_蓋
  6
Continuous
 62
     3
370
     9
100
AcDbLine
 10
-125.6756756756756
 20
283.0674207532729
 30
0.0
 11
-125.6756756756756
 21
377.0673349741344
 31
0.0
  0
LINE
  5
1F5
330
1F
100
AcDbEntity
  8
A-2_蓋
  6
Continuous
 62
     3
370
     9
100
AcDbLine
 10
-120.67590661951
 20
183.0674001332876
 30
0.0
 11
-120.67590661951
 21
277.0674999340162
 31
0.0
  0
LINE
  5
1F6
330
1F
100
AcDbEntity
  8
A-2_蓋
  6
Continuous
 62
     3
370
     9
100
AcDbLine
 10
-120.67590661951
 20
283.0674207532729
 30
0.0
 11
-120.67590661951
 21
377.0673349741344
 31
0.0
  0
LINE
  5
1F7
330
1F
100
AcDbEntity
  8
A-2_蓋
  6
Continuous
 62
     3
370
     9
100
AcDbLine
 10
-110.6756880476668
 20
383.0672557933912
 30
0.0
 11
-110.6756880476668
 21
440.5671980574326
 31
0.0
  0
LINE
  5
1F8
330
1F
100
AcDbEntity
  8
A-2_蓋
  6
Continuous
 62
     3
370
     9
100
AcDbLine
 10
-105.6759189915012
 20
383.0672557933912
 30
0.0
 11
-105.6759189915012
 21
440.5671980574326
 31
0.0
  0
LINE
  5
1F9
330
1F
100
AcDbEntity
  8
A-2_蓋
  6
Continuous
 62
     3
370
     9
100
AcDbLine
 10
-110.6756880476668
 20
-80.43293720967057
 30
0.0
 11
-110.6756880476668
 21
-22.93250006598385
 31
0.0
  0
LINE
  5
1FA
330
1F
100
AcDbEntity
  8
A-2_蓋
  6
Continuous
 62
     3
370
     9
100
AcDbLine
 10
-105.6759189915012
 20
-80.43293720967057
 30
0.0
 11
-105.6759189915012
 21
-22.93250006598385
 31
0.0
  0
LINE
  5
1FB
330
1F
100
AcDbEntity
  8
A-2_蓋
  6
Continuous
 62
     3
370
     9
100
AcDbLine
 10
-110.6756880476668
 20
183.0674001332876
 30
0.0
 11
-110.6756880476668
 21
277.0674999340162
 31
0.0
  0
LINE
  5
1FC
330
1F
100
AcDbEntity
  8
A-2_蓋
  6
Continuous
 62
     3
370
     9
100
AcDbLine
 10
-110.6756880476668
 20
283.0674207532729
 30
0.0
 11
-110.6756880476668
 21
377.0673349741344
 31
0.0
  0
LINE
  5
1FD
330
1F
100
AcDbEntity
  8
A-2_蓋
  6
Continuous
 62
     3
370
     9
100
AcDbLine
 10
-105.6759189915012
 20
183.0674001332876
 30
0.0
 11
-105.6759189915012
 21
277.0674999340162
 31
0.0
  0
LINE
  5
1FE
330
1F
100
AcDbEntity
  8
A-2_蓋
  6
Continuous
 62
     3
370
     9
100
AcDbLine
 10
-105.6759189915012
 20
283.0674207532729
 30
0.0
 11
-105.6759189915012
 21
377.0673349741344
 31
0.0
  0
LINE
  5
1FF
330
1F
100
AcDbEntity
  8
A-2_蓋
  6
Continuous
 62
     3
370
     9
100
AcDbLine
 10
-95.67570041965794
 20
383.0672557933912
 30
0.0
 11
-95.67570041965794
 21
440.5671980574326
 31
0.0
  0
LINE
  5
200
330
1F
100
AcDbEntity
  8
A-2_蓋
  6
Continuous
 62
     3
370
     9
100
AcDbLine
 10
-90.67593136349231
 20
383.0672557933912
 30
0.0
 11
-90.67593136349231
 21
440.5671980574326
 31
0.0
  0
LINE
  5
201
330
1F
100
AcDbEntity
  8
A-2_蓋
  6
Continuous
 62
     3
370
     9
100
AcDbLine
 10
-95.67570041965794
 20
-80.43293720967057
 30
0.0
 11
-95.67570041965794
 21
-22.93250006598385
 31
0.0
  0
LINE
  5
202
330
1F
100
AcDbEntity
  8
A-2_蓋
  6
Continuous
 62
     3
370
     9
100
AcDbLine
 10
-90.67593136349231
 20
-80.43293720967057
 30
0.0
 11
-90.67593136349231
 21
-22.93250006598385
 31
0.0
  0
LINE
  5
203
330
1F
100
AcDbEntity
  8
A-2_蓋
  6
Continuous
 62
     3
370
     9
100
AcDbLine
 10
-95.67570041965794
 20
183.0674001332876
 30
0.0
 11
-95.67570041965794
 21
277.0674999340162
 31
0.0
  0
LINE
  5
204
330
1F
100
AcDbEntity
  8
A-2_蓋
  6
Continuous
 62
     3
370
     9
100
AcDbLine
 10
-95.67570041965794
 20
283.0674207532729
 30
0.0
 11
-95.67570041965794
 21
377.0673349741344
 31
0.0
  0
LINE
  5
205
330
1F
100
AcDbEntity
  8
A-2_蓋
  6
Continuous
 62
     3
370
     9
100
AcDbLine
 10
-90.67593136349231
 20
183.0674001332876
 30
0.0
 11
-90.67593136349231
 21
277.0674999340162
 31
0.0
  0
LINE
  5
206
330
1F
100
AcDbEntity
  8
A-2_蓋
  6
Continuous
 62
     3
370
     9
100
AcDbLine
 10
-90.67593136349231
 20
283.0674207532729
 30
0.0
 11
-90.67593136349231
 21
377.0673349741344
 31
0.0
  0
LINE
  5
207
330
1F
100
AcDbEntity
  8
A-2_蓋
  6
Continuous
 62
     3
370
     9
100
AcDbLine
 10
-80.67571279164895
 20
383.0672557933912
 30
0.0
 11
-80.67571279164895
 21
440.5671980574326
 31
0.0
  0
LINE
  5
208
330
1F
100
AcDbEntity
  8
A-2_蓋
  6
Continuous
 62
     3
370
     9
100
AcDbLine
 10
-75.67594373548346
 20
383.0672557933912
 30
0.0
 11
-75.67594373548346
 21
440.5671980574326
 31
0.0
  0
LINE
  5
209
330
1F
100
AcDbEntity
  8
A-2_蓋
  6
Continuous
 62
     3
370
     9
100
AcDbLine
 10
-80.67571279164895
 20
-80.43293720967057
 30
0.0
 11
-80.67571279164895
 21
-22.93250006598385
 31
0.0
  0
LINE
  5
20A
330
1F
100
AcDbEntity
  8
A-2_蓋
  6
Continuous
 62
     3
370
     9
100
AcDbLine
 10
-75.67594373548346
 20
-80.43293720967057
 30
0.0
 11
-75.67594373548346
 21
-22.93250006598385
 31
0.0
  0
LINE
  5
20B
330
1F
100
AcDbEntity
  8
A-2_蓋
  6
Continuous
 62
     3
370
     9
100
AcDbLine
 10
-80.67571279164895
 20
183.0674001332876
 30
0.0
 11
-80.67571279164895
 21
277.0674999340162
 31
0.0
  0
LINE
  5
20C
330
1F
100
AcDbEntity
  8
A-2_蓋
  6
Continuous
 62
     3
370
     9
100
AcDbLine
 10
-80.67571279164895
 20
283.0674207532729
 30
0.0
 11
-80.67571279164895
 21
377.0673349741344
 31
0.0
  0
LINE
  5
20D
330
1F
100
AcDbEntity
  8
A-2_蓋
  6
Continuous
 62
     3
370
     9
100
AcDbLine
 10
-75.67594373548346
 20
183.0674001332876
 30
0.0
 11
-75.67594373548346
 21
277.0674999340162
 31
0.0
  0
LINE
  5
20E
330
1F
100
AcDbEntity
  8
A-2_蓋
  6
Continuous
 62
     3
370
     9
100
AcDbLine
 10
-75.67594373548346
 20
283.0674207532729
 30
0.0
 11
-75.67594373548346
 21
377.0673349741344
 31
0.0
  0
LINE
  5
20F
330
1F
100
AcDbEntity
  8
A-2_蓋
  6
Continuous
 62
     3
370
     9
100
AcDbLine
 10
-65.6757251636401
 20
383.0672557933912
 30
0.0
 11
-65.6757251636401
 21
440.5671980574326
 31
0.0
  0
LINE
  5
210
330
1F
100
AcDbEntity
  8
A-2_蓋
  6
Continuous
 62
     3
370
     9
100
AcDbLine
 10
-60.6759561074746
 20
383.0672557933912
 30
0.0
 11
-60.6759561074746
 21
440.5671980574326
 31
0.0
  0
LINE
  5
211
330
1F
100
AcDbEntity
  8
A-2_蓋
  6
Continuous
 62
     3
370
     9
100
AcDbLine
 10
-65.6757251636401
 20
-80.43293720967057
 30
0.0
 11
-65.6757251636401
 21
-22.93250006598385
 31
0.0
  0
LINE
  5
212
330
1F
100
AcDbEntity
  8
A-2_蓋
  6
Continuous
 62
     3
370
     9
100
AcDbLine
 10
-60.6759561074746
 20
-80.43293720967057
 30
0.0
 11
-60.6759561074746
 21
-22.93250006598385
 31
0.0
  0
LINE
  5
213
330
1F
100
AcDbEntity
  8
A-2_蓋
  6
Continuous
 62
     3
370
     9
100
AcDbLine
 10
-65.6757251636401
 20
183.0674001332876
 30
0.0
 11
-65.6757251636401
 21
277.0674999340162
 31
0.0
  0
LINE
  5
214
330
1F
100
AcDbEntity
  8
A-2_蓋
  6
Continuous
 62
     3
370
     9
100
AcDbLine
 10
-65.6757251636401
 20
283.0674207532729
 30
0.0
 11
-65.6757251636401
 21
377.0673349741344
 31
0.0
  0
LINE
  5
215
330
1F
100
AcDbEntity
  8
A-2_蓋
  6
Continuous
 62
     3
370
     9
100
AcDbLine
 10
-60.6759561074746
 20
183.0674001332876
 30
0.0
 11
-60.6759561074746
 21
277.0674999340162
 31
0.0
  0
LINE
  5
216
330
1F
100
AcDbEntity
  8
A-2_蓋
  6
Continuous
 62
     3
370
     9
100
AcDbLine
 10
-60.6759561074746
 20
283.0674207532729
 30
0.0
 11
-60.6759561074746
 21
377.0673349741344
 31
0.0
  0
LINE
  5
217
330
1F
100
AcDbEntity
  8
A-2_蓋
  6
Continuous
 62
     3
370
     9
100
AcDbLine
 10
-50.67573753563124
 20
383.0672557933912
 30
0.0
 11
-50.67573753563124
 21
440.5671980574326
 31
0.0
  0
LINE
  5
218
330
1F
100
AcDbEntity
  8
A-2_蓋
  6
Continuous
 62
     3
370
     9
100
AcDbLine
 10
-45.67596847946575
 20
383.0672557933912
 30
0.0
 11
-45.67596847946575
 21
440.5671980574326
 31
0.0
  0
LINE
  5
219
330
1F
100
AcDbEntity
  8
A-2_蓋
  6
Continuous
 62
     3
370
     9
100
AcDbLine
 10
-50.67573753563124
 20
-80.43293720967057
 30
0.0
 11
-50.67573753563124
 21
-22.93250006598385
 31
0.0
  0
LINE
  5
21A
330
1F
100
AcDbEntity
  8
A-2_蓋
  6
Continuous
 62
     3
370
     9
100
AcDbLine
 10
-45.67596847946575
 20
-80.43293720967057
 30
0.0
 11
-45.67596847946575
 21
-22.93250006598385
 31
0.0
  0
LINE
  5
21B
330
1F
100
AcDbEntity
  8
A-2_蓋
  6
Continuous
 62
     3
370
     9
100
AcDbLine
 10
-50.67573753563124
 20
183.0674001332876
 30
0.0
 11
-50.67573753563124
 21
277.0674999340162
 31
0.0
  0
LINE
  5
21C
330
1F
100
AcDbEntity
  8
A-2_蓋
  6
Continuous
 62
     3
370
     9
100
AcDbLine
 10
-50.67573753563124
 20
283.0674207532729
 30
0.0
 11
-50.67573753563124
 21
377.0673349741344
 31
0.0
  0
LINE
  5
21D
330
1F
100
AcDbEntity
  8
A-2_蓋
  6
Continuous
 62
     3
370
     9
100
AcDbLine
 10
-45.67596847946575
 20
183.0674001332876
 30
0.0
 11
-45.67596847946575
 21
277.0674999340162
 31
0.0
  0
LINE
  5
21E
330
1F
100
AcDbEntity
  8
A-2_蓋
  6
Continuous
 62
     3
370
     9
100
AcDbLine
 10
-45.67596847946575
 20
283.0674207532729
 30
0.0
 11
-45.67596847946575
 21
377.0673349741344
 31
0.0
  0
LINE
  5
21F
330
1F
100
AcDbEntity
  8
A-2_蓋
  6
Continuous
 62
     3
370
     9
100
AcDbLine
 10
-35.67574990762239
 20
383.0672557933912
 30
0.0
 11
-35.67574990762239
 21
440.5671980574326
 31
0.0
  0
LINE
  5
220
330
1F
100
AcDbEntity
  8
A-2_蓋
  6
Continuous
 62
     3
370
     9
100
AcDbLine
 10
-30.6759808514569
 20
383.0672557933912
 30
0.0
 11
-30.6759808514569
 21
440.5671980574326
 31
0.0
  0
LINE
  5
221
330
1F
100
AcDbEntity
  8
A-2_蓋
  6
Continuous
 62
     3
370
     9
100
AcDbLine
 10
-35.67574990762239
 20
-80.43293720967057
 30
0.0
 11
-35.67574990762239
 21
-22.93250006598385
 31
0.0
  0
LINE
  5
222
330
1F
100
AcDbEntity
  8
A-2_蓋
  6
Continuous
 62
     3
370
     9
100
AcDbLine
 10
-30.6759808514569
 20
-80.43293720967057
 30
0.0
 11
-30.6759808514569
 21
-22.93250006598385
 31
0.0
  0
LINE
  5
223
330
1F
100
AcDbEntity
  8
A-2_蓋
  6
Continuous
 62
     3
370
     9
100
AcDbLine
 10
-35.67574990762239
 20
183.0674001332876
 30
0.0
 11
-35.67574990762239
 21
277.0674999340162
 31
0.0
  0
LINE
  5
224
330
1F
100
AcDbEntity
  8
A-2_蓋
  6
Continuous
 62
     3
370
     9
100
AcDbLine
 10
-35.67574990762239
 20
283.0674207532729
 30
0.0
 11
-35.67574990762239
 21
377.0673349741344
 31
0.0
  0
LINE
  5
225
330
1F
100
AcDbEntity
  8
A-2_蓋
  6
Continuous
 62
     3
370
     9
100
AcDbLine
 10
-30.6759808514569
 20
183.0674001332876
 30
0.0
 11
-30.6759808514569
 21
277.0674999340162
 31
0.0
  0
LINE
  5
226
330
1F
100
AcDbEntity
  8
A-2_蓋
  6
Continuous
 62
     3
370
     9
100
AcDbLine
 10
-30.6759808514569
 20
283.0674207532729
 30
0.0
 11
-30.6759808514569
 21
377.0673349741344
 31
0.0
  0
LINE
  5
227
330
1F
100
AcDbEntity
  8
A-2_蓋
  6
Continuous
 62
     3
370
     9
100
AcDbLine
 10
-20.67576227961354
 20
383.0672557933912
 30
0.0
 11
-20.67576227961354
 21
440.5671980574326
 31
0.0
  0
LINE
  5
228
330
1F
100
AcDbEntity
  8
A-2_蓋
  6
Continuous
 62
     3
370
     9
100
AcDbLine
 10
-15.67599322344805
 20
383.0672557933912
 30
0.0
 11
-15.67599322344805
 21
440.5671980574326
 31
0.0
  0
LINE
  5
229
330
1F
100
AcDbEntity
  8
A-2_蓋
  6
Continuous
 62
     3
370
     9
100
AcDbLine
 10
-20.67576227961354
 20
-80.43293720967057
 30
0.0
 11
-20.67576227961354
 21
-22.93250006598385
 31
0.0
  0
LINE
  5
22A
330
1F
100
AcDbEntity
  8
A-2_蓋
  6
Continuous
 62
     3
370
     9
100
AcDbLine
 10
-15.67599322344805
 20
-80.43293720967057
 30
0.0
 11
-15.67599322344805
 21
-22.93250006598385
 31
0.0
  0
LINE
  5
22B
330
1F
100
AcDbEntity
  8
A-2_蓋
  6
Continuous
 62
     3
370
     9
100
AcDbLine
 10
-20.67576227961354
 20
183.0674001332876
 30
0.0
 11
-20.67576227961354
 21
277.0674999340162
 31
0.0
  0
LINE
  5
22C
330
1F
100
AcDbEntity
  8
A-2_蓋
  6
Continuous
 62
     3
370
     9
100
AcDbLine
 10
-20.67576227961354
 20
283.0674207532729
 30
0.0
 11
-20.67576227961354
 21
377.0673349741344
 31
0.0
  0
LINE
  5
22D
330
1F
100
AcDbEntity
  8
A-2_蓋
  6
Continuous
 62
     3
370
     9
100
AcDbLine
 10
-15.67599322344805
 20
183.0674001332876
 30
0.0
 11
-15.67599322344805
 21
277.0674999340162
 31
0.0
  0
LINE
  5
22E
330
1F
100
AcDbEntity
  8
A-2_蓋
  6
Continuous
 62
     3
370
     9
100
AcDbLine
 10
-15.67599322344805
 20
283.0674207532729
 30
0.0
 11
-15.67599322344805
 21
377.0673349741344
 31
0.0
  0
LINE
  5
22F
330
1F
100
AcDbEntity
  8
A-2_蓋
  6
Continuous
 62
     3
370
     9
100
AcDbLine
 10
-5.675774651604684
 20
383.0672557933912
 30
0.0
 11
-5.675774651604684
 21
440.5671980574326
 31
0.0
  0
LINE
  5
230
330
1F
100
AcDbEntity
  8
A-2_蓋
  6
Continuous
 62
     3
370
     9
100
AcDbLine
 10
-0.676005595439193
 20
383.0672557933912
 30
0.0
 11
-0.676005595439193
 21
440.5671980574326
 31
0.0
  0
LINE
  5
231
330
1F
100
AcDbEntity
  8
A-2_蓋
  6
Continuous
 62
     3
370
     9
100
AcDbLine
 10
-5.675774651604684
 20
-80.43293720967057
 30
0.0
 11
-5.675774651604684
 21
-22.93250006598385
 31
0.0
  0
LINE
  5
232
330
1F
100
AcDbEntity
  8
A-2_蓋
  6
Continuous
 62
     3
370
     9
100
AcDbLine
 10
-0.676005595439193
 20
-80.43293720967057
 30
0.0
 11
-0.676005595439193
 21
-22.93250006598385
 31
0.0
  0
LINE
  5
233
330
1F
100
AcDbEntity
  8
A-2_蓋
  6
Continuous
 62
     3
370
     9
100
AcDbLine
 10
-5.675774651604684
 20
183.0674001332876
 30
0.0
 11
-5.675774651604684
 21
277.0674999340162
 31
0.0
  0
LINE
  5
234
330
1F
100
AcDbEntity
  8
A-2_蓋
  6
Continuous
 62
     3
370
     9
100
AcDbLine
 10
-5.675774651604684
 20
283.0674207532729
 30
0.0
 11
-5.675774651604684
 21
377.0673349741344
 31
0.0
  0
LINE
  5
235
330
1F
100
AcDbEntity
  8
A-2_蓋
  6
Continuous
 62
     3
370
     9
100
AcDbLine
 10
-0.676005595439193
 20
183.0674001332876
 30
0.0
 11
-0.676005595439193
 21
277.0674999340162
 31
0.0
  0
LINE
  5
236
330
1F
100
AcDbEntity
  8
A-2_蓋
  6
Continuous
 62
     3
370
     9
100
AcDbLine
 10
-0.676005595439193
 20
283.0674207532729
 30
0.0
 11
-0.676005595439193
 21
377.0673349741344
 31
0.0
  0
LINE
  5
237
330
1F
100
AcDbEntity
  8
A-2_蓋
  6
Continuous
 62
     3
370
     9
100
AcDbLine
 10
9.324274836359905
 20
383.0672557933912
 30
0.0
 11
9.324274836359905
 21
440.5671980574326
 31
0.0
  0
LINE
  5
238
330
1F
100
AcDbEntity
  8
A-2_蓋
  6
Continuous
 62
     3
370
     9
100
AcDbLine
 10
14.3240438925254
 20
383.0672557933912
 30
0.0
 11
14.3240438925254
 21
440.5671980574326
 31
0.0
  0
LINE
  5
239
330
1F
100
AcDbEntity
  8
A-2_蓋
  6
Continuous
 62
     3
370
     9
100
AcDbLine
 10
9.324274836359905
 20
-80.43293720967057
 30
0.0
 11
9.324274836359905
 21
-22.93250006598385
 31
0.0
  0
LINE
  5
23A
330
1F
100
AcDbEntity
  8
A-2_蓋
  6
Continuous
 62
     3
370
     9
100
AcDbLine
 10
14.3240438925254
 20
-80.43293720967057
 30
0.0
 11
14.3240438925254
 21
-22.93250006598385
 31
0.0
  0
LINE
  5
23B
330
1F
100
AcDbEntity
  8
A-2_蓋
  6
Continuous
 62
     3
370
     9
100
AcDbLine
 10
9.324274836359905
 20
183.0674001332876
 30
0.0
 11
9.324274836359905
 21
277.0674999340162
 31
0.0
  0
LINE
  5
23C
330
1F
100
AcDbEntity
  8
A-2_蓋
  6
Continuous
 62
     3
370
     9
100
AcDbLine
 10
9.324274836359905
 20
283.0674207532729
 30
0.0
 11
9.324274836359905
 21
377.0673349741344
 31
0.0
  0
LINE
  5
23D
330
1F
100
AcDbEntity
  8
A-2_蓋
  6
Continuous
 62
     3
370
     9
100
AcDbLine
 10
14.3240438925254
 20
183.0674001332876
 30
0.0
 11
14.3240438925254
 21
277.0674999340162
 31
0.0
  0
LINE
  5
23E
330
1F
100
AcDbEntity
  8
A-2_蓋
  6
Continuous
 62
     3
370
     9
100
AcDbLine
 10
14.3240438925254
 20
283.0674207532729
 30
0.0
 11
14.3240438925254
 21
377.0673349741344
 31
0.0
  0
LINE
  5
23F
330
1F
100
AcDbEntity
  8
A-2_蓋
  6
Continuous
 62
     3
370
     9
100
AcDbLine
 10
24.32420060441302
 20
383.0672557933912
 30
0.0
 11
24.32420060441302
 21
440.5671980574326
 31
0.0
  0
LINE
  5
240
330
1F
100
AcDbEntity
  8
A-2_蓋
  6
Continuous
 62
     3
370
     9
100
AcDbLine
 10
29.32396966057865
 20
383.0672557933912
 30
0.0
 11
29.32396966057865
 21
440.5671980574326
 31
0.0
  0
LINE
  5
241
330
1F
100
AcDbEntity
  8
A-2_蓋
  6
Continuous
 62
     3
370
     9
100
AcDbLine
 10
24.32420060441302
 20
-80.43293720967057
 30
0.0
 11
24.32420060441302
 21
-22.93250006598385
 31
0.0
  0
LINE
  5
242
330
1F
100
AcDbEntity
  8
A-2_蓋
  6
Continuous
 62
     3
370
     9
100
AcDbLine
 10
29.32396966057865
 20
-80.43293720967057
 30
0.0
 11
29.32396966057865
 21
-22.93250006598385
 31
0.0
  0
LINE
  5
243
330
1F
100
AcDbEntity
  8
A-2_蓋
  6
Continuous
 62
     3
370
     9
100
AcDbLine
 10
24.32420060441302
 20
183.0674001332876
 30
0.0
 11
24.32420060441302
 21
277.0674999340162
 31
0.0
  0
LINE
  5
244
330
1F
100
AcDbEntity
  8
A-2_蓋
  6
Continuous
 62
     3
370
     9
100
AcDbLine
 10
24.32420060441302
 20
283.0674207532729
 30
0.0
 11
24.32420060441302
 21
377.0673349741344
 31
0.0
  0
LINE
  5
245
330
1F
100
AcDbEntity
  8
A-2_蓋
  6
Continuous
 62
     3
370
     9
100
AcDbLine
 10
29.32396966057865
 20
183.0674001332876
 30
0.0
 11
29.32396966057865
 21
277.0674999340162
 31
0.0
  0
LINE
  5
246
330
1F
100
AcDbEntity
  8
A-2_蓋
  6
Continuous
 62
     3
370
     9
100
AcDbLine
 10
29.32396966057865
 20
283.0674207532729
 30
0.0
 11
29.32396966057865
 21
377.0673349741344
 31
0.0
  0
LINE
  5
247
330
1F
100
AcDbEntity
  8
A-2_蓋
  6
Continuous
 62
     3
370
     9
100
AcDbLine
 10
39.32412637246628
 20
383.0672557933912
 30
0.0
 11
39.32412637246628
 21
440.5671980574326
 31
0.0
  0
LINE
  5
248
330
1F
100
AcDbEntity
  8
A-2_蓋
  6
Continuous
 62
     3
370
     9
100
AcDbLine
 10
44.32389542863177
 20
383.0672557933912
 30
0.0
 11
44.32389542863177
 21
440.5671980574326
 31
0.0
  0
LINE
  5
249
330
1F
100
AcDbEntity
  8
A-2_蓋
  6
Continuous
 62
     3
370
     9
100
AcDbLine
 10
39.32412637246628
 20
-80.43293720967057
 30
0.0
 11
39.32412637246628
 21
-22.93250006598385
 31
0.0
  0
LINE
  5
24A
330
1F
100
AcDbEntity
  8
A-2_蓋
  6
Continuous
 62
     3
370
     9
100
AcDbLine
 10
44.32389542863177
 20
-80.43293720967057
 30
0.0
 11
44.32389542863177
 21
-22.93250006598385
 31
0.0
  0
LINE
  5
24B
330
1F
100
AcDbEntity
  8
A-2_蓋
  6
Continuous
 62
     3
370
     9
100
AcDbLine
 10
39.32412637246628
 20
183.0674001332876
 30
0.0
 11
39.32412637246628
 21
277.0674999340162
 31
0.0
  0
LINE
  5
24C
330
1F
100
AcDbEntity
  8
A-2_蓋
  6
Continuous
 62
     3
370
     9
100
AcDbLine
 10
39.32412637246628
 20
283.0674207532729
 30
0.0
 11
39.32412637246628
 21
377.0673349741344
 31
0.0
  0
LINE
  5
24D
330
1F
100
AcDbEntity
  8
A-2_蓋
  6
Continuous
 62
     3
370
     9
100
AcDbLine
 10
44.32389542863177
 20
183.0674001332876
 30
0.0
 11
44.32389542863177
 21
277.0674999340162
 31
0.0
  0
LINE
  5
24E
330
1F
100
AcDbEntity
  8
A-2_蓋
  6
Continuous
 62
     3
370
     9
100
AcDbLine
 10
44.32389542863177
 20
283.0674207532729
 30
0.0
 11
44.32389542863177
 21
377.0673349741344
 31
0.0
  0
LINE
  5
24F
330
1F
100
AcDbEntity
  8
A-2_蓋
  6
Continuous
 62
     3
370
     9
100
AcDbLine
 10
54.32417586043087
 20
383.0672557933912
 30
0.0
 11
54.32417586043087
 21
440.5671980574326
 31
0.0
  0
LINE
  5
250
330
1F
100
AcDbEntity
  8
A-2_蓋
  6
Continuous
 62
     3
370
     9
100
AcDbLine
 10
59.32394491659636
 20
383.0672557933912
 30
0.0
 11
59.32394491659636
 21
440.5671980574326
 31
0.0
  0
LINE
  5
251
330
1F
100
AcDbEntity
  8
A-2_蓋
  6
Continuous
 62
     3
370
     9
100
AcDbLine
 10
54.32417586043087
 20
-80.43293720967057
 30
0.0
 11
54.32417586043087
 21
-22.93250006598385
 31
0.0
  0
LINE
  5
252
330
1F
100
AcDbEntity
  8
A-2_蓋
  6
Continuous
 62
     3
370
     9
100
AcDbLine
 10
59.32394491659636
 20
-80.43293720967057
 30
0.0
 11
59.32394491659636
 21
-22.93250006598385
 31
0.0
  0
LINE
  5
253
330
1F
100
AcDbEntity
  8
A-2_蓋
  6
Continuous
 62
     3
370
     9
100
AcDbLine
 10
54.32417586043087
 20
183.0674001332876
 30
0.0
 11
54.32417586043087
 21
277.0674999340162
 31
0.0
  0
LINE
  5
254
330
1F
100
AcDbEntity
  8
A-2_蓋
  6
Continuous
 62
     3
370
     9
100
AcDbLine
 10
54.32417586043087
 20
283.0674207532729
 30
0.0
 11
54.32417586043087
 21
377.0673349741344
 31
0.0
  0
LINE
  5
255
330
1F
100
AcDbEntity
  8
A-2_蓋
  6
Continuous
 62
     3
370
     9
100
AcDbLine
 10
59.32394491659636
 20
183.0674001332876
 30
0.0
 11
59.32394491659636
 21
277.0674999340162
 31
0.0
  0
LINE
  5
256
330
1F
100
AcDbEntity
  8
A-2_蓋
  6
Continuous
 62
     3
370
     9
100
AcDbLine
 10
59.32394491659636
 20
283.0674207532729
 30
0.0
 11
59.32394491659636
 21
377.0673349741344
 31
0.0
  0
LINE
  5
257
330
1F
100
AcDbEntity
  8
A-2_蓋
  6
Continuous
 62
     3
370
     9
100
AcDbLine
 10
69.32422534839532
 20
383.0672557933912
 30
0.0
 11
69.32422534839532
 21
440.5671980574326
 31
0.0
  0
LINE
  5
258
330
1F
100
AcDbEntity
  8
A-2_蓋
  6
Continuous
 62
     3
370
     9
100
AcDbLine
 10
74.3239944045608
 20
383.0672557933912
 30
0.0
 11
74.3239944045608
 21
440.5671980574326
 31
0.0
  0
LINE
  5
259
330
1F
100
AcDbEntity
  8
A-2_蓋
  6
Continuous
 62
     3
370
     9
100
AcDbLine
 10
69.32422534839532
 20
-80.43293720967057
 30
0.0
 11
69.32422534839532
 21
-22.93250006598385
 31
0.0
  0
LINE
  5
25A
330
1F
100
AcDbEntity
  8
A-2_蓋
  6
Continuous
 62
     3
370
     9
100
AcDbLine
 10
74.3239944045608
 20
-80.43293720967057
 30
0.0
 11
74.3239944045608
 21
-22.93250006598385
 31
0.0
  0
LINE
  5
25B
330
1F
100
AcDbEntity
  8
A-2_蓋
  6
Continuous
 62
     3
370
     9
100
AcDbLine
 10
69.32422534839532
 20
183.0674001332876
 30
0.0
 11
69.32422534839532
 21
277.0674999340162
 31
0.0
  0
LINE
  5
25C
330
1F
100
AcDbEntity
  8
A-2_蓋
  6
Continuous
 62
     3
370
     9
100
AcDbLine
 10
69.32422534839532
 20
283.0674207532729
 30
0.0
 11
69.32422534839532
 21
377.0673349741344
 31
0.0
  0
LINE
  5
25D
330
1F
100
AcDbEntity
  8
A-2_蓋
  6
Continuous
 62
     3
370
     9
100
AcDbLine
 10
74.3239944045608
 20
183.0674001332876
 30
0.0
 11
74.3239944045608
 21
277.0674999340162
 31
0.0
  0
LINE
  5
25E
330
1F
100
AcDbEntity
  8
A-2_蓋
  6
Continuous
 62
     3
370
     9
100
AcDbLine
 10
74.3239944045608
 20
283.0674207532729
 30
0.0
 11
74.3239944045608
 21
377.0673349741344
 31
0.0
  0
LINE
  5
25F
330
1F
100
AcDbEntity
  8
A-2_蓋
  6
Continuous
 62
     3
370
     9
100
AcDbLine
 10
84.32415111644858
 20
383.0672557933912
 30
0.0
 11
84.32415111644858
 21
440.5671980574326
 31
0.0
  0
LINE
  5
260
330
1F
100
AcDbEntity
  8
A-2_蓋
  6
Continuous
 62
     3
370
     9
100
AcDbLine
 10
89.32392017261407
 20
383.0672557933912
 30
0.0
 11
89.32392017261407
 21
440.5671980574326
 31
0.0
  0
LINE
  5
261
330
1F
100
AcDbEntity
  8
A-2_蓋
  6
Continuous
 62
     3
370
     9
100
AcDbLine
 10
84.32415111644858
 20
-80.43293720967057
 30
0.0
 11
84.32415111644858
 21
-22.93250006598385
 31
0.0
  0
LINE
  5
262
330
1F
100
AcDbEntity
  8
A-2_蓋
  6
Continuous
 62
     3
370
     9
100
AcDbLine
 10
89.32392017261407
 20
-80.43293720967057
 30
0.0
 11
89.32392017261407
 21
-22.93250006598385
 31
0.0
  0
LINE
  5
263
330
1F
100
AcDbEntity
  8
A-2_蓋
  6
Continuous
 62
     3
370
     9
100
AcDbLine
 10
84.32415111644858
 20
183.0674001332876
 30
0.0
 11
84.32415111644858
 21
277.0674999340162
 31
0.0
  0
LINE
  5
264
330
1F
100
AcDbEntity
  8
A-2_蓋
  6
Continuous
 62
     3
370
     9
100
AcDbLine
 10
84.32415111644858
 20
283.0674207532729
 30
0.0
 11
84.32415111644858
 21
377.0673349741344
 31
0.0
  0
LINE
  5
265
330
1F
100
AcDbEntity
  8
A-2_蓋
  6
Continuous
 62
     3
370
     9
100
AcDbLine
 10
89.32392017261407
 20
183.0674001332876
 30
0.0
 11
89.32392017261407
 21
277.0674999340162
 31
0.0
  0
LINE
  5
266
330
1F
100
AcDbEntity
  8
A-2_蓋
  6
Continuous
 62
     3
370
     9
100
AcDbLine
 10
89.32392017261407
 20
283.0674207532729
 30
0.0
 11
89.32392017261407
 21
377.0673349741344
 31
0.0
  0
LINE
  5
267
330
1F
100
AcDbEntity
  8
A-2_蓋
  6
Continuous
 62
     3
370
     9
100
AcDbLine
 10
99.3240768845017
 20
383.0672557933912
 30
0.0
 11
99.3240768845017
 21
440.5671980574326
 31
0.0
  0
LINE
  5
268
330
1F
100
AcDbEntity
  8
A-2_蓋
  6
Continuous
 62
     3
370
     9
100
AcDbLine
 10
104.3238459406673
 20
383.0672557933912
 30
0.0
 11
104.3238459406673
 21
440.5671980574326
 31
0.0
  0
LINE
  5
269
330
1F
100
AcDbEntity
  8
A-2_蓋
  6
Continuous
 62
     3
370
     9
100
AcDbLine
 10
99.3240768845017
 20
-80.43293720967057
 30
0.0
 11
99.3240768845017
 21
-22.93250006598385
 31
0.0
  0
LINE
  5
26A
330
1F
100
AcDbEntity
  8
A-2_蓋
  6
Continuous
 62
     3
370
     9
100
AcDbLine
 10
104.3238459406673
 20
-80.43293720967057
 30
0.0
 11
104.3238459406673
 21
-22.93250006598385
 31
0.0
  0
LINE
  5
26B
330
1F
100
AcDbEntity
  8
A-2_蓋
  6
Continuous
 62
     3
370
     9
100
AcDbLine
 10
99.3240768845017
 20
183.0674001332876
 30
0.0
 11
99.3240768845017
 21
277.0674999340162
 31
0.0
  0
LINE
  5
26C
330
1F
100
AcDbEntity
  8
A-2_蓋
  6
Continuous
 62
     3
370
     9
100
AcDbLine
 10
99.3240768845017
 20
283.0674207532729
 30
0.0
 11
99.3240768845017
 21
377.0673349741344
 31
0.0
  0
LINE
  5
26D
330
1F
100
AcDbEntity
  8
A-2_蓋
  6
Continuous
 62
     3
370
     9
100
AcDbLine
 10
104.3238459406673
 20
183.0674001332876
 30
0.0
 11
104.3238459406673
 21
277.0674999340162
 31
0.0
  0
LINE
  5
26E
330
1F
100
AcDbEntity
  8
A-2_蓋
  6
Continuous
 62
     3
370
     9
100
AcDbLine
 10
104.3238459406673
 20
283.0674207532729
 30
0.0
 11
104.3238459406673
 21
377.0673349741344
 31
0.0
  0
LINE
  5
26F
330
1F
100
AcDbEntity
  8
A-2_蓋
  6
Continuous
 62
     3
370
     9
100
AcDbLine
 10
114.3241263724663
 20
383.0672557933912
 30
0.0
 11
114.3241263724663
 21
440.5671980574326
 31
0.0
  0
LINE
  5
270
330
1F
100
AcDbEntity
  8
A-2_蓋
  6
Continuous
 62
     3
370
     9
100
AcDbLine
 10
119.3238954286318
 20
383.0672557933912
 30
0.0
 11
119.3238954286318
 21
440.5671980574326
 31
0.0
  0
LINE
  5
271
330
1F
100
AcDbEntity
  8
A-2_蓋
  6
Continuous
 62
     3
370
     9
100
AcDbLine
 10
114.3241263724663
 20
-80.43293720967057
 30
0.0
 11
114.3241263724663
 21
-22.93250006598385
 31
0.0
  0
LINE
  5
272
330
1F
100
AcDbEntity
  8
A-2_蓋
  6
Continuous
 62
     3
370
     9
100
AcDbLine
 10
119.3238954286318
 20
-80.43293720967057
 30
0.0
 11
119.3238954286318
 21
-22.93250006598385
 31
0.0
  0
LINE
  5
273
330
1F
100
AcDbEntity
  8
A-2_蓋
  6
Continuous
 62
     3
370
     9
100
AcDbLine
 10
114.3241263724663
 20
183.0674001332876
 30
0.0
 11
114.3241263724663
 21
277.0674999340162
 31
0.0
  0
LINE
  5
274
330
1F
100
AcDbEntity
  8
A-2_蓋
  6
Continuous
 62
     3
370
     9
100
AcDbLine
 10
114.3241263724663
 20
283.0674207532729
 30
0.0
 11
114.3241263724663
 21
377.0673349741344
 31
0.0
  0
LINE
  5
275
330
1F
100
AcDbEntity
  8
A-2_蓋
  6
Continuous
 62
     3
370
     9
100
AcDbLine
 10
119.3238954286318
 20
183.0674001332876
 30
0.0
 11
119.3238954286318
 21
277.0674999340162
 31
0.0
  0
LINE
  5
276
330
1F
100
AcDbEntity
  8
A-2_蓋
  6
Continuous
 62
     3
370
     9
100
AcDbLine
 10
119.3238954286318
 20
283.0674207532729
 30
0.0
 11
119.3238954286318
 21
377.0673349741344
 31
0.0
  0
LINE
  5
277
330
1F
100
AcDbEntity
  8
A-2_蓋
  6
Continuous
 62
     3
370
     9
100
AcDbLine
 10
129.3241758604309
 20
383.0672557933912
 30
0.0
 11
129.3241758604309
 21
440.5671980574326
 31
0.0
  0
LINE
  5
278
330
1F
100
AcDbEntity
  8
A-2_蓋
  6
Continuous
 62
     3
370
     9
100
AcDbLine
 10
134.3239449165964
 20
383.0672557933912
 30
0.0
 11
134.3239449165964
 21
440.5671980574326
 31
0.0
  0
LINE
  5
279
330
1F
100
AcDbEntity
  8
A-2_蓋
  6
Continuous
 62
     3
370
     9
100
AcDbLine
 10
129.3241758604309
 20
-80.43293720967057
 30
0.0
 11
129.3241758604309
 21
-22.93250006598385
 31
0.0
  0
LINE
  5
27A
330
1F
100
AcDbEntity
  8
A-2_蓋
  6
Continuous
 62
     3
370
     9
100
AcDbLine
 10
134.3239449165964
 20
-80.43293720967057
 30
0.0
 11
134.3239449165964
 21
-22.93250006598385
 31
0.0
  0
LINE
  5
27B
330
1F
100
AcDbEntity
  8
A-2_蓋
  6
Continuous
 62
     3
370
     9
100
AcDbLine
 10
129.3241758604309
 20
183.0674001332876
 30
0.0
 11
129.3241758604309
 21
277.0674999340162
 31
0.0
  0
LINE
  5
27C
330
1F
100
AcDbEntity
  8
A-2_蓋
  6
Continuous
 62
     3
370
     9
100
AcDbLine
 10
129.3241758604309
 20
283.0674207532729
 30
0.0
 11
129.3241758604309
 21
377.0673349741344
 31
0.0
  0
LINE
  5
27D
330
1F
100
AcDbEntity
  8
A-2_蓋
  6
Continuous
 62
     3
370
     9
100
AcDbLine
 10
134.3239449165964
 20
183.0674001332876
 30
0.0
 11
134.3239449165964
 21
277.0674999340162
 31
0.0
  0
LINE
  5
27E
330
1F
100
AcDbEntity
  8
A-2_蓋
  6
Continuous
 62
     3
370
     9
100
AcDbLine
 10
134.3239449165964
 20
283.0674207532729
 30
0.0
 11
134.3239449165964
 21
377.0673349741344
 31
0.0
  0
LINE
  5
27F
330
1F
100
AcDbEntity
  8
A-2_蓋
  6
Continuous
 62
     3
370
     9
100
AcDbLine
 10
144.324101628484
 20
383.0672557933912
 30
0.0
 11
144.324101628484
 21
440.5671980574326
 31
0.0
  0
LINE
  5
280
330
1F
100
AcDbEntity
  8
A-2_蓋
  6
Continuous
 62
     3
370
     9
100
AcDbLine
 10
149.3238706846496
 20
383.0672557933912
 30
0.0
 11
149.3238706846496
 21
440.5671980574326
 31
0.0
  0
LINE
  5
281
330
1F
100
AcDbEntity
  8
A-2_蓋
  6
Continuous
 62
     3
370
     9
100
AcDbLine
 10
144.324101628484
 20
-80.43293720967057
 30
0.0
 11
144.324101628484
 21
-22.93250006598385
 31
0.0
  0
LINE
  5
282
330
1F
100
AcDbEntity
  8
A-2_蓋
  6
Continuous
 62
     3
370
     9
100
AcDbLine
 10
149.3238706846496
 20
-80.43293720967057
 30
0.0
 11
149.3238706846496
 21
-22.93250006598385
 31
0.0
  0
LINE
  5
283
330
1F
100
AcDbEntity
  8
A-2_蓋
  6
Continuous
 62
     3
370
     9
100
AcDbLine
 10
144.324101628484
 20
183.0674001332876
 30
0.0
 11
144.324101628484
 21
277.0674999340162
 31
0.0
  0
LINE
  5
284
330
1F
100
AcDbEntity
  8
A-2_蓋
  6
Continuous
 62
     3
370
     9
100
AcDbLine
 10
144.324101628484
 20
283.0674207532729
 30
0.0
 11
144.324101628484
 21
377.0673349741344
 31
0.0
  0
LINE
  5
285
330
1F
100
AcDbEntity
  8
A-2_蓋
  6
Continuous
 62
     3
370
     9
100
AcDbLine
 10
149.3238706846496
 20
183.0674001332876
 30
0.0
 11
149.3238706846496
 21
277.0674999340162
 31
0.0
  0
LINE
  5
286
330
1F
100
AcDbEntity
  8
A-2_蓋
  6
Continuous
 62
     3
370
     9
100
AcDbLine
 10
149.3238706846496
 20
283.0674207532729
 30
0.0
 11
149.3238706846496
 21
377.0673349741344
 31
0.0
  0
LINE
  5
287
330
1F
100
AcDbEntity
  8
A-2_蓋
  6
Continuous
 62
     3
370
     9
100
AcDbLine
 10
159.3240273965372
 20
383.0672557933912
 30
0.0
 11
159.3240273965372
 21
440.5671980574326
 31
0.0
  0
LINE
  5
288
330
1F
100
AcDbEntity
  8
A-2_蓋
  6
Continuous
 62
     3
370
     9
100
AcDbLine
 10
164.3237964527027
 20
383.0672557933912
 30
0.0
 11
164.3237964527027
 21
440.5671980574326
 31
0.0
  0
LINE
  5
289
330
1F
100
AcDbEntity
  8
A-2_蓋
  6
Continuous
 62
     3
370
     9
100
AcDbLine
 10
159.3240273965372
 20
-80.43293720967057
 30
0.0
 11
159.3240273965372
 21
-22.93250006598385
 31
0.0
  0
LINE
  5
28A
330
1F
100
AcDbEntity
  8
A-2_蓋
  6
Continuous
 62
     3
370
     9
100
AcDbLine
 10
164.3237964527027
 20
-80.43293720967057
 30
0.0
 11
164.3237964527027
 21
-22.93250006598385
 31
0.0
  0
LINE
  5
28B
330
1F
100
AcDbEntity
  8
A-2_蓋
  6
Continuous
 62
     3
370
     9
100
AcDbLine
 10
159.3240273965372
 20
183.0674001332876
 30
0.0
 11
159.3240273965372
 21
277.0674999340162
 31
0.0
  0
LINE
  5
28C
330
1F
100
AcDbEntity
  8
A-2_蓋
  6
Continuous
 62
     3
370
     9
100
AcDbLine
 10
159.3240273965372
 20
283.0674207532729
 30
0.0
 11
159.3240273965372
 21
377.0673349741344
 31
0.0
  0
LINE
  5
28D
330
1F
100
AcDbEntity
  8
A-2_蓋
  6
Continuous
 62
     3
370
     9
100
AcDbLine
 10
164.3237964527027
 20
183.0674001332876
 30
0.0
 11
164.3237964527027
 21
277.0674999340162
 31
0.0
  0
LINE
  5
28E
330
1F
100
AcDbEntity
  8
A-2_蓋
  6
Continuous
 62
     3
370
     9
100
AcDbLine
 10
164.3237964527027
 20
283.0674207532729
 30
0.0
 11
164.3237964527027
 21
377.0673349741344
 31
0.0
  0
LINE
  5
28F
330
1F
100
AcDbEntity
  8
A-2_蓋
  6
Continuous
 62
     3
370
     9
100
AcDbLine
 10
174.3240768845017
 20
383.0672557933912
 30
0.0
 11
174.3240768845017
 21
440.5671980574326
 31
0.0
  0
LINE
  5
290
330
1F
100
AcDbEntity
  8
A-2_蓋
  6
Continuous
 62
     3
370
     9
100
AcDbLine
 10
179.3238459406673
 20
383.0672557933912
 30
0.0
 11
179.3238459406673
 21
440.5671980574326
 31
0.0
  0
LINE
  5
291
330
1F
100
AcDbEntity
  8
A-2_蓋
  6
Continuous
 62
     3
370
     9
100
AcDbLine
 10
174.3240768845017
 20
-80.43293720967057
 30
0.0
 11
174.3240768845017
 21
-22.93250006598385
 31
0.0
  0
LINE
  5
292
330
1F
100
AcDbEntity
  8
A-2_蓋
  6
Continuous
 62
     3
370
     9
100
AcDbLine
 10
179.3238459406673
 20
-80.43293720967057
 30
0.0
 11
179.3238459406673
 21
-22.93250006598385
 31
0.0
  0
LINE
  5
293
330
1F
100
AcDbEntity
  8
A-2_蓋
  6
Continuous
 62
     3
370
     9
100
AcDbLine
 10
174.3240768845017
 20
183.0674001332876
 30
0.0
 11
174.3240768845017
 21
277.0674999340162
 31
0.0
  0
LINE
  5
294
330
1F
100
AcDbEntity
  8
A-2_蓋
  6
Continuous
 62
     3
370
     9
100
AcDbLine
 10
174.3240768845017
 20
283.0674207532729
 30
0.0
 11
174.3240768845017
 21
377.0673349741344
 31
0.0
  0
LINE
  5
295
330
1F
100
AcDbEntity
  8
A-2_蓋
  6
Continuous
 62
     3
370
     9
100
AcDbLine
 10
179.3238459406673
 20
183.0674001332876
 30
0.0
 11
179.3238459406673
 21
277.0674999340162
 31
0.0
  0
LINE
  5
296
330
1F
100
AcDbEntity
  8
A-2_蓋
  6
Continuous
 62
     3
370
     9
100
AcDbLine
 10
179.3238459406673
 20
283.0674207532729
 30
0.0
 11
179.3238459406673
 21
377.0673349741344
 31
0.0
  0
LINE
  5
297
330
1F
100
AcDbEntity
  8
A-2_蓋
  6
Continuous
 62
     3
370
     9
100
AcDbLine
 10
189.3241263724663
 20
383.0672557933912
 30
0.0
 11
189.3241263724663
 21
440.5671980574326
 31
0.0
  0
LINE
  5
298
330
1F
100
AcDbEntity
  8
A-2_蓋
  6
Continuous
 62
     3
370
     9
100
AcDbLine
 10
194.3238954286318
 20
383.0672557933912
 30
0.0
 11
194.3238954286318
 21
440.5671980574326
 31
0.0
  0
LINE
  5
299
330
1F
100
AcDbEntity
  8
A-2_蓋
  6
Continuous
 62
     3
370
     9
100
AcDbLine
 10
189.3241263724663
 20
-80.43293720967057
 30
0.0
 11
189.3241263724663
 21
-22.93250006598385
 31
0.0
  0
LINE
  5
29A
330
1F
100
AcDbEntity
  8
A-2_蓋
  6
Continuous
 62
     3
370
     9
100
AcDbLine
 10
194.3238954286318
 20
-80.43293720967057
 30
0.0
 11
194.3238954286318
 21
-22.93250006598385
 31
0.0
  0
LINE
  5
29B
330
1F
100
AcDbEntity
  8
A-2_蓋
  6
Continuous
 62
     3
370
     9
100
AcDbLine
 10
189.3241263724663
 20
183.0674001332876
 30
0.0
 11
189.3241263724663
 21
277.0674999340162
 31
0.0
  0
LINE
  5
29C
330
1F
100
AcDbEntity
  8
A-2_蓋
  6
Continuous
 62
     3
370
     9
100
AcDbLine
 10
189.3241263724663
 20
283.0674207532729
 30
0.0
 11
189.3241263724663
 21
377.0673349741344
 31
0.0
  0
LINE
  5
29D
330
1F
100
AcDbEntity
  8
A-2_蓋
  6
Continuous
 62
     3
370
     9
100
AcDbLine
 10
194.3238954286318
 20
183.0674001332876
 30
0.0
 11
194.3238954286318
 21
277.0674999340162
 31
0.0
  0
LINE
  5
29E
330
1F
100
AcDbEntity
  8
A-2_蓋
  6
Continuous
 62
     3
370
     9
100
AcDbLine
 10
194.3238954286318
 20
283.0674207532729
 30
0.0
 11
194.3238954286318
 21
377.0673349741344
 31
0.0
  0
LINE
  5
29F
330
1F
100
AcDbEntity
  8
A-2_蓋
  6
Continuous
 62
     3
370
     9
100
AcDbLine
 10
204.3240521405195
 20
383.0672557933912
 30
0.0
 11
204.3240521405195
 21
440.5671980574326
 31
0.0
  0
LINE
  5
2A0
330
1F
100
AcDbEntity
  8
A-2_蓋
  6
Continuous
 62
     3
370
     9
100
AcDbLine
 10
209.323821196685
 20
383.0672557933912
 30
0.0
 11
209.323821196685
 21
440.5671980574326
 31
0.0
  0
LINE
  5
2A1
330
1F
100
AcDbEntity
  8
A-2_蓋
  6
Continuous
 62
     3
370
     9
100
AcDbLine
 10
204.3240521405195
 20
-80.43293720967057
 30
0.0
 11
204.3240521405195
 21
-22.93250006598385
 31
0.0
  0
LINE
  5
2A2
330
1F
100
AcDbEntity
  8
A-2_蓋
  6
Continuous
 62
     3
370
     9
100
AcDbLine
 10
209.323821196685
 20
-80.43293720967057
 30
0.0
 11
209.323821196685
 21
-22.93250006598385
 31
0.0
  0
LINE
  5
2A3
330
1F
100
AcDbEntity
  8
A-2_蓋
  6
Continuous
 62
     3
370
     9
100
AcDbLine
 10
204.3240521405195
 20
183.0674001332876
 30
0.0
 11
204.3240521405195
 21
277.0674999340162
 31
0.0
  0
LINE
  5
2A4
330
1F
100
AcDbEntity
  8
A-2_蓋
  6
Continuous
 62
     3
370
     9
100
AcDbLine
 10
204.3240521405195
 20
283.0674207532729
 30
0.0
 11
204.3240521405195
 21
377.0673349741344
 31
0.0
  0
LINE
  5
2A5
330
1F
100
AcDbEntity
  8
A-2_蓋
  6
Continuous
 62
     3
370
     9
100
AcDbLine
 10
209.323821196685
 20
183.0674001332876
 30
0.0
 11
209.323821196685
 21
277.0674999340162
 31
0.0
  0
LINE
  5
2A6
330
1F
100
AcDbEntity
  8
A-2_蓋
  6
Continuous
 62
     3
370
     9
100
AcDbLine
 10
209.323821196685
 20
283.0674207532729
 30
0.0
 11
209.323821196685
 21
377.0673349741344
 31
0.0
  0
LINE
  5
2A7
330
1F
100
AcDbEntity
  8
A-2_蓋
  6
Continuous
 62
     3
370
     9
100
AcDbLine
 10
219.3239779085727
 20
383.0672557933912
 30
0.0
 11
219.3239779085727
 21
440.5671980574326
 31
0.0
  0
LINE
  5
2A8
330
1F
100
AcDbEntity
  8
A-2_蓋
  6
Continuous
 62
     3
370
     9
100
AcDbLine
 10
224.3237469647383
 20
383.0672557933912
 30
0.0
 11
224.3237469647383
 21
440.5671980574326
 31
0.0
  0
LINE
  5
2A9
330
1F
100
AcDbEntity
  8
A-2_蓋
  6
Continuous
 62
     3
370
     9
100
AcDbLine
 10
219.3239779085727
 20
-80.43293720967057
 30
0.0
 11
219.3239779085727
 21
-22.93250006598385
 31
0.0
  0
LINE
  5
2AA
330
1F
100
AcDbEntity
  8
A-2_蓋
  6
Continuous
 62
     3
370
     9
100
AcDbLine
 10
224.3237469647383
 20
-80.43293720967057
 30
0.0
 11
224.3237469647383
 21
-22.93250006598385
 31
0.0
  0
LINE
  5
2AB
330
1F
100
AcDbEntity
  8
A-2_蓋
  6
Continuous
 62
     3
370
     9
100
AcDbLine
 10
219.3239779085727
 20
183.0674001332876
 30
0.0
 11
219.3239779085727
 21
277.0674999340162
 31
0.0
  0
LINE
  5
2AC
330
1F
100
AcDbEntity
  8
A-2_蓋
  6
Continuous
 62
     3
370
     9
100
AcDbLine
 10
219.3239779085727
 20
283.0674207532729
 30
0.0
 11
219.3239779085727
 21
377.0673349741344
 31
0.0
  0
LINE
  5
2AD
330
1F
100
AcDbEntity
  8
A-2_蓋
  6
Continuous
 62
     3
370
     9
100
AcDbLine
 10
224.3237469647383
 20
183.0674001332876
 30
0.0
 11
224.3237469647383
 21
277.0674999340162
 31
0.0
  0
LINE
  5
2AE
330
1F
100
AcDbEntity
  8
A-2_蓋
  6
Continuous
 62
     3
370
     9
100
AcDbLine
 10
224.3237469647383
 20
283.0674207532729
 30
0.0
 11
224.3237469647383
 21
377.0673349741344
 31
0.0
  0
LINE
  5
2AF
330
1F
100
AcDbEntity
  8
A-2_蓋
  6
Continuous
 62
     3
370
     9
100
AcDbLine
 10
234.3240273965372
 20
383.0672557933912
 30
0.0
 11
234.3240273965372
 21
440.5671980574326
 31
0.0
  0
LINE
  5
2B0
330
1F
100
AcDbEntity
  8
A-2_蓋
  6
Continuous
 62
     3
370
     9
100
AcDbLine
 10
239.3237964527029
 20
383.0672557933912
 30
0.0
 11
239.3237964527029
 21
440.5671980574326
 31
0.0
  0
LINE
  5
2B1
330
1F
100
AcDbEntity
  8
A-2_蓋
  6
Continuous
 62
     3
370
     9
100
AcDbLine
 10
234.3240273965372
 20
-80.43293720967057
 30
0.0
 11
234.3240273965372
 21
-22.93250006598385
 31
0.0
  0
LINE
  5
2B2
330
1F
100
AcDbEntity
  8
A-2_蓋
  6
Continuous
 62
     3
370
     9
100
AcDbLine
 10
239.3237964527029
 20
-80.43293720967057
 30
0.0
 11
239.3237964527029
 21
-22.93250006598385
 31
0.0
  0
LINE
  5
2B3
330
1F
100
AcDbEntity
  8
A-2_蓋
  6
Continuous
 62
     3
370
     9
100
AcDbLine
 10
234.3240273965372
 20
183.0674001332876
 30
0.0
 11
234.3240273965372
 21
277.0674999340162
 31
0.0
  0
LINE
  5
2B4
330
1F
100
AcDbEntity
  8
A-2_蓋
  6
Continuous
 62
     3
370
     9
100
AcDbLine
 10
234.3240273965372
 20
283.0674207532729
 30
0.0
 11
234.3240273965372
 21
377.0673349741344
 31
0.0
  0
LINE
  5
2B5
330
1F
100
AcDbEntity
  8
A-2_蓋
  6
Continuous
 62
     3
370
     9
100
AcDbLine
 10
239.3237964527029
 20
183.0674001332876
 30
0.0
 11
239.3237964527029
 21
277.0674999340162
 31
0.0
  0
LINE
  5
2B6
330
1F
100
AcDbEntity
  8
A-2_蓋
  6
Continuous
 62
     3
370
     9
100
AcDbLine
 10
239.3237964527029
 20
283.0674207532729
 30
0.0
 11
239.3237964527029
 21
377.0673349741344
 31
0.0
  0
LINE
  5
2B7
330
1F
100
AcDbEntity
  8
A-2_蓋
  6
Continuous
 62
     3
370
     9
100
AcDbLine
 10
249.3240768845018
 20
383.0672557933912
 30
0.0
 11
249.3240768845018
 21
440.5671980574326
 31
0.0
  0
LINE
  5
2B8
330
1F
100
AcDbEntity
  8
A-2_蓋
  6
Continuous
 62
     3
370
     9
100
AcDbLine
 10
254.3238459406672
 20
383.0672557933912
 30
0.0
 11
254.3238459406672
 21
440.5671980574326
 31
0.0
  0
LINE
  5
2B9
330
1F
100
AcDbEntity
  8
A-2_蓋
  6
Continuous
 62
     3
370
     9
100
AcDbLine
 10
249.3240768845018
 20
-80.43293720967057
 30
0.0
 11
249.3240768845018
 21
-22.93250006598385
 31
0.0
  0
LINE
  5
2BA
330
1F
100
AcDbEntity
  8
A-2_蓋
  6
Continuous
 62
     3
370
     9
100
AcDbLine
 10
254.3238459406672
 20
-80.43293720967057
 30
0.0
 11
254.3238459406672
 21
-22.93250006598385
 31
0.0
  0
LINE
  5
2BB
330
1F
100
AcDbEntity
  8
A-2_蓋
  6
Continuous
 62
     3
370
     9
100
AcDbLine
 10
249.3240768845018
 20
183.0674001332876
 30
0.0
 11
249.3240768845018
 21
277.0674999340162
 31
0.0
  0
LINE
  5
2BC
330
1F
100
AcDbEntity
  8
A-2_蓋
  6
Continuous
 62
     3
370
     9
100
AcDbLine
 10
249.3240768845018
 20
283.0674207532729
 30
0.0
 11
249.3240768845018
 21
377.0673349741344
 31
0.0
  0
LINE
  5
2BD
330
1F
100
AcDbEntity
  8
A-2_蓋
  6
Continuous
 62
     3
370
     9
100
AcDbLine
 10
254.3238459406672
 20
183.0674001332876
 30
0.0
 11
254.3238459406672
 21
277.0674999340162
 31
0.0
  0
LINE
  5
2BE
330
1F
100
AcDbEntity
  8
A-2_蓋
  6
Continuous
 62
     3
370
     9
100
AcDbLine
 10
254.3238459406672
 20
283.0674207532729
 30
0.0
 11
254.3238459406672
 21
377.0673349741344
 31
0.0
  0
LINE
  5
2BF
330
1F
100
AcDbEntity
  8
A-2_蓋
  6
Continuous
 62
     3
370
     9
100
AcDbLine
 10
269.3242665883659
 20
77.06745869404571
 30
0.0
 11
-725.6756756756756
 21
77.06745869404571
 31
0.0
  0
LINE
  5
2C0
330
1F
100
AcDbEntity
  8
A-2_蓋
  6
Continuous
 62
     3
370
     9
100
AcDbLine
 10
269.3242665883659
 20
83.06737951330234
 30
0.0
 11
-725.6756756756756
 21
83.06737951330234
 31
0.0
  0
LINE
  5
2C1
330
1F
100
AcDbEntity
  8
A-2_蓋
  6
Continuous
 62
     3
370
     9
100
AcDbLine
 10
-710.6751931680217
 20
-16.93257924672722
 30
0.0
 11
-710.6751931680217
 21
77.06745869404571
 31
0.0
  0
LINE
  5
2C2
330
1F
100
AcDbEntity
  8
A-2_蓋
  6
Continuous
 62
     3
370
     9
100
AcDbLine
 10
-710.6751931680217
 20
83.06737951330234
 30
0.0
 11
-710.6751931680217
 21
177.0674793140309
 31
0.0
  0
LINE
  5
2C3
330
1F
100
AcDbEntity
  8
A-2_蓋
  6
Continuous
 62
     3
370
     9
100
AcDbLine
 10
-705.675424111856
 20
-16.93257924672722
 30
0.0
 11
-705.675424111856
 21
77.06745869404571
 31
0.0
  0
LINE
  5
2C4
330
1F
100
AcDbEntity
  8
A-2_蓋
  6
Continuous
 62
     3
370
     9
100
AcDbLine
 10
-705.675424111856
 20
83.06737951330234
 30
0.0
 11
-705.675424111856
 21
177.0674793140309
 31
0.0
  0
LINE
  5
2C5
330
1F
100
AcDbEntity
  8
A-2_蓋
  6
Continuous
 62
     3
370
     9
100
AcDbLine
 10
-720.6754117398648
 20
-16.93257924672722
 30
0.0
 11
-720.6754117398648
 21
77.06745869404571
 31
0.0
  0
LINE
  5
2C6
330
1F
100
AcDbEntity
  8
A-2_蓋
  6
Continuous
 62
     3
370
     9
100
AcDbLine
 10
-720.6754117398648
 20
83.06737951330234
 30
0.0
 11
-720.6754117398648
 21
177.0674793140309
 31
0.0
  0
LINE
  5
2C7
330
1F
100
AcDbEntity
  8
A-2_蓋
  6
Continuous
 62
     3
370
     9
100
AcDbLine
 10
264.3445401578336
 20
-16.93257924672722
 30
0.0
 11
264.3445401578336
 21
77.06745869404571
 31
0.0
  0
LINE
  5
2C8
330
1F
100
AcDbEntity
  8
A-2_蓋
  6
Continuous
 62
     3
370
     9
100
AcDbLine
 10
264.3445401578336
 20
83.06737951330234
 30
0.0
 11
264.3445401578336
 21
177.0674793140309
 31
0.0
  0
LINE
  5
2C9
330
1F
100
AcDbEntity
  8
A-2_蓋
  6
Continuous
 62
     3
370
     9
100
AcDbLine
 10
-695.6752055400126
 20
-16.93257924672722
 30
0.0
 11
-695.6752055400126
 21
77.06745869404571
 31
0.0
  0
LINE
  5
2CA
330
1F
100
AcDbEntity
  8
A-2_蓋
  6
Continuous
 62
     3
370
     9
100
AcDbLine
 10
-695.6752055400126
 20
83.06737951330234
 30
0.0
 11
-695.6752055400126
 21
177.0674793140309
 31
0.0
  0
LINE
  5
2CB
330
1F
100
AcDbEntity
  8
A-2_蓋
  6
Continuous
 62
     3
370
     9
100
AcDbLine
 10
-690.6754364838471
 20
-16.93257924672722
 30
0.0
 11
-690.6754364838471
 21
77.06745869404571
 31
0.0
  0
LINE
  5
2CC
330
1F
100
AcDbEntity
  8
A-2_蓋
  6
Continuous
 62
     3
370
     9
100
AcDbLine
 10
-690.6754364838471
 20
83.06737951330234
 30
0.0
 11
-690.6754364838471
 21
177.0674793140309
 31
0.0
  0
LINE
  5
2CD
330
1F
100
AcDbEntity
  8
A-2_蓋
  6
Continuous
 62
     3
370
     9
100
AcDbLine
 10
-680.6752179120037
 20
-16.93257924672722
 30
0.0
 11
-680.6752179120037
 21
77.06745869404571
 31
0.0
  0
LINE
  5
2CE
330
1F
100
AcDbEntity
  8
A-2_蓋
  6
Continuous
 62
     3
370
     9
100
AcDbLine
 10
-680.6752179120037
 20
83.06737951330234
 30
0.0
 11
-680.6752179120037
 21
177.0674793140309
 31
0.0
  0
LINE
  5
2CF
330
1F
100
AcDbEntity
  8
A-2_蓋
  6
Continuous
 62
     3
370
     9
100
AcDbLine
 10
-675.6754488558383
 20
-16.93257924672722
 30
0.0
 11
-675.6754488558383
 21
77.06745869404571
 31
0.0
  0
LINE
  5
2D0
330
1F
100
AcDbEntity
  8
A-2_蓋
  6
Continuous
 62
     3
370
     9
100
AcDbLine
 10
-675.6754488558383
 20
83.06737951330234
 30
0.0
 11
-675.6754488558383
 21
177.0674793140309
 31
0.0
  0
LINE
  5
2D1
330
1F
100
AcDbEntity
  8
A-2_蓋
  6
Continuous
 62
     3
370
     9
100
AcDbLine
 10
-665.6752302839949
 20
-16.93257924672722
 30
0.0
 11
-665.6752302839949
 21
77.06745869404571
 31
0.0
  0
LINE
  5
2D2
330
1F
100
AcDbEntity
  8
A-2_蓋
  6
Continuous
 62
     3
370
     9
100
AcDbLine
 10
-665.6752302839949
 20
83.06737951330234
 30
0.0
 11
-665.6752302839949
 21
177.0674793140309
 31
0.0
  0
LINE
  5
2D3
330
1F
100
AcDbEntity
  8
A-2_蓋
  6
Continuous
 62
     3
370
     9
100
AcDbLine
 10
-660.6754612278294
 20
-16.93257924672722
 30
0.0
 11
-660.6754612278294
 21
77.06745869404571
 31
0.0
  0
LINE
  5
2D4
330
1F
100
AcDbEntity
  8
A-2_蓋
  6
Continuous
 62
     3
370
     9
100
AcDbLine
 10
-660.6754612278294
 20
83.06737951330234
 30
0.0
 11
-660.6754612278294
 21
177.0674793140309
 31
0.0
  0
LINE
  5
2D5
330
1F
100
AcDbEntity
  8
A-2_蓋
  6
Continuous
 62
     3
370
     9
100
AcDbLine
 10
-650.675242655986
 20
-16.93257924672722
 30
0.0
 11
-650.675242655986
 21
77.06745869404571
 31
0.0
  0
LINE
  5
2D6
330
1F
100
AcDbEntity
  8
A-2_蓋
  6
Continuous
 62
     3
370
     9
100
AcDbLine
 10
-650.675242655986
 20
83.06737951330234
 30
0.0
 11
-650.675242655986
 21
177.0674793140309
 31
0.0
  0
LINE
  5
2D7
330
1F
100
AcDbEntity
  8
A-2_蓋
  6
Continuous
 62
     3
370
     9
100
AcDbLine
 10
-645.6754735998206
 20
-16.93257924672722
 30
0.0
 11
-645.6754735998206
 21
77.06745869404571
 31
0.0
  0
LINE
  5
2D8
330
1F
100
AcDbEntity
  8
A-2_蓋
  6
Continuous
 62
     3
370
     9
100
AcDbLine
 10
-645.6754735998206
 20
83.06737951330234
 30
0.0
 11
-645.6754735998206
 21
177.0674793140309
 31
0.0
  0
LINE
  5
2D9
330
1F
100
AcDbEntity
  8
A-2_蓋
  6
Continuous
 62
     3
370
     9
100
AcDbLine
 10
-635.6752550279772
 20
-16.93257924672722
 30
0.0
 11
-635.6752550279772
 21
77.06745869404571
 31
0.0
  0
LINE
  5
2DA
330
1F
100
AcDbEntity
  8
A-2_蓋
  6
Continuous
 62
     3
370
     9
100
AcDbLine
 10
-635.6752550279772
 20
83.06737951330234
 30
0.0
 11
-635.6752550279772
 21
177.0674793140309
 31
0.0
  0
LINE
  5
2DB
330
1F
100
AcDbEntity
  8
A-2_蓋
  6
Continuous
 62
     3
370
     9
100
AcDbLine
 10
-630.6754859718117
 20
-16.93257924672722
 30
0.0
 11
-630.6754859718117
 21
77.06745869404571
 31
0.0
  0
LINE
  5
2DC
330
1F
100
AcDbEntity
  8
A-2_蓋
  6
Continuous
 62
     3
370
     9
100
AcDbLine
 10
-630.6754859718117
 20
83.06737951330234
 30
0.0
 11
-630.6754859718117
 21
177.0674793140309
 31
0.0
  0
LINE
  5
2DD
330
1F
100
AcDbEntity
  8
A-2_蓋
  6
Continuous
 62
     3
370
     9
100
AcDbLine
 10
-620.6752673999683
 20
-16.93257924672722
 30
0.0
 11
-620.6752673999683
 21
77.06745869404571
 31
0.0
  0
LINE
  5
2DE
330
1F
100
AcDbEntity
  8
A-2_蓋
  6
Continuous
 62
     3
370
     9
100
AcDbLine
 10
-620.6752673999683
 20
83.06737951330234
 30
0.0
 11
-620.6752673999683
 21
177.0674793140309
 31
0.0
  0
LINE
  5
2DF
330
1F
100
AcDbEntity
  8
A-2_蓋
  6
Continuous
 62
     3
370
     9
100
AcDbLine
 10
-615.6754983438027
 20
-16.93257924672722
 30
0.0
 11
-615.6754983438027
 21
77.06745869404571
 31
0.0
  0
LINE
  5
2E0
330
1F
100
AcDbEntity
  8
A-2_蓋
  6
Continuous
 62
     3
370
     9
100
AcDbLine
 10
-615.6754983438027
 20
83.06737951330234
 30
0.0
 11
-615.6754983438027
 21
177.0674793140309
 31
0.0
  0
LINE
  5
2E1
330
1F
100
AcDbEntity
  8
A-2_蓋
  6
Continuous
 62
     3
370
     9
100
AcDbLine
 10
-605.6752797719595
 20
-16.93257924672722
 30
0.0
 11
-605.6752797719595
 21
77.06745869404571
 31
0.0
  0
LINE
  5
2E2
330
1F
100
AcDbEntity
  8
A-2_蓋
  6
Continuous
 62
     3
370
     9
100
AcDbLine
 10
-605.6752797719595
 20
83.06737951330234
 30
0.0
 11
-605.6752797719595
 21
177.0674793140309
 31
0.0
  0
LINE
  5
2E3
330
1F
100
AcDbEntity
  8
A-2_蓋
  6
Continuous
 62
     3
370
     9
100
AcDbLine
 10
-600.6755107157938
 20
-16.93257924672722
 30
0.0
 11
-600.6755107157938
 21
77.06745869404571
 31
0.0
  0
LINE
  5
2E4
330
1F
100
AcDbEntity
  8
A-2_蓋
  6
Continuous
 62
     3
370
     9
100
AcDbLine
 10
-600.6755107157938
 20
83.06737951330234
 30
0.0
 11
-600.6755107157938
 21
177.0674793140309
 31
0.0
  0
LINE
  5
2E5
330
1F
100
AcDbEntity
  8
A-2_蓋
  6
Continuous
 62
     3
370
     9
100
AcDbLine
 10
-590.6752921439506
 20
-16.93257924672722
 30
0.0
 11
-590.6752921439506
 21
77.06745869404571
 31
0.0
  0
LINE
  5
2E6
330
1F
100
AcDbEntity
  8
A-2_蓋
  6
Continuous
 62
     3
370
     9
100
AcDbLine
 10
-590.6752921439506
 20
83.06737951330234
 30
0.0
 11
-590.6752921439506
 21
177.0674793140309
 31
0.0
  0
LINE
  5
2E7
330
1F
100
AcDbEntity
  8
A-2_蓋
  6
Continuous
 62
     3
370
     9
100
AcDbLine
 10
-585.675523087785
 20
-16.93257924672722
 30
0.0
 11
-585.675523087785
 21
77.06745869404571
 31
0.0
  0
LINE
  5
2E8
330
1F
100
AcDbEntity
  8
A-2_蓋
  6
Continuous
 62
     3
370
     9
100
AcDbLine
 10
-585.675523087785
 20
83.06737951330234
 30
0.0
 11
-585.675523087785
 21
177.0674793140309
 31
0.0
  0
LINE
  5
2E9
330
1F
100
AcDbEntity
  8
A-2_蓋
  6
Continuous
 62
     3
370
     9
100
AcDbLine
 10
-575.6753045159417
 20
-16.93257924672722
 30
0.0
 11
-575.6753045159417
 21
77.06745869404571
 31
0.0
  0
LINE
  5
2EA
330
1F
100
AcDbEntity
  8
A-2_蓋
  6
Continuous
 62
     3
370
     9
100
AcDbLine
 10
-575.6753045159417
 20
83.06737951330234
 30
0.0
 11
-575.6753045159417
 21
177.0674793140309
 31
0.0
  0
LINE
  5
2EB
330
1F
100
AcDbEntity
  8
A-2_蓋
  6
Continuous
 62
     3
370
     9
100
AcDbLine
 10
-570.6755354597761
 20
-16.93257924672722
 30
0.0
 11
-570.6755354597761
 21
77.06745869404571
 31
0.0
  0
LINE
  5
2EC
330
1F
100
AcDbEntity
  8
A-2_蓋
  6
Continuous
 62
     3
370
     9
100
AcDbLine
 10
-570.6755354597761
 20
83.06737951330234
 30
0.0
 11
-570.6755354597761
 21
177.0674793140309
 31
0.0
  0
LINE
  5
2ED
330
1F
100
AcDbEntity
  8
A-2_蓋
  6
Continuous
 62
     3
370
     9
100
AcDbLine
 10
-560.6753168879328
 20
-16.93257924672722
 30
0.0
 11
-560.6753168879328
 21
77.06745869404571
 31
0.0
  0
LINE
  5
2EE
330
1F
100
AcDbEntity
  8
A-2_蓋
  6
Continuous
 62
     3
370
     9
100
AcDbLine
 10
-560.6753168879328
 20
83.06737951330234
 30
0.0
 11
-560.6753168879328
 21
177.0674793140309
 31
0.0
  0
LINE
  5
2EF
330
1F
100
AcDbEntity
  8
A-2_蓋
  6
Continuous
 62
     3
370
     9
100
AcDbLine
 10
-555.6755478317673
 20
-16.93257924672722
 30
0.0
 11
-555.6755478317673
 21
77.06745869404571
 31
0.0
  0
LINE
  5
2F0
330
1F
100
AcDbEntity
  8
A-2_蓋
  6
Continuous
 62
     3
370
     9
100
AcDbLine
 10
-555.6755478317673
 20
83.06737951330234
 30
0.0
 11
-555.6755478317673
 21
177.0674793140309
 31
0.0
  0
LINE
  5
2F1
330
1F
100
AcDbEntity
  8
A-2_蓋
  6
Continuous
 62
     3
370
     9
100
AcDbLine
 10
-545.675329259924
 20
-16.93257924672722
 30
0.0
 11
-545.675329259924
 21
77.06745869404571
 31
0.0
  0
LINE
  5
2F2
330
1F
100
AcDbEntity
  8
A-2_蓋
  6
Continuous
 62
     3
370
     9
100
AcDbLine
 10
-545.675329259924
 20
83.06737951330234
 30
0.0
 11
-545.675329259924
 21
177.0674793140309
 31
0.0
  0
LINE
  5
2F3
330
1F
100
AcDbEntity
  8
A-2_蓋
  6
Continuous
 62
     3
370
     9
100
AcDbLine
 10
-540.6755602037584
 20
-16.93257924672722
 30
0.0
 11
-540.6755602037584
 21
77.06745869404571
 31
0.0
  0
LINE
  5
2F4
330
1F
100
AcDbEntity
  8
A-2_蓋
  6
Continuous
 62
     3
370
     9
100
AcDbLine
 10
-540.6755602037584
 20
83.06737951330234
 30
0.0
 11
-540.6755602037584
 21
177.0674793140309
 31
0.0
  0
LINE
  5
2F5
330
1F
100
AcDbEntity
  8
A-2_蓋
  6
Continuous
 62
     3
370
     9
100
AcDbLine
 10
-530.6753416319151
 20
-16.93257924672722
 30
0.0
 11
-530.6753416319151
 21
77.06745869404571
 31
0.0
  0
LINE
  5
2F6
330
1F
100
AcDbEntity
  8
A-2_蓋
  6
Continuous
 62
     3
370
     9
100
AcDbLine
 10
-530.6753416319151
 20
83.06737951330234
 30
0.0
 11
-530.6753416319151
 21
177.0674793140309
 31
0.0
  0
LINE
  5
2F7
330
1F
100
AcDbEntity
  8
A-2_蓋
  6
Continuous
 62
     3
370
     9
100
AcDbLine
 10
-525.6755725757496
 20
-16.93257924672722
 30
0.0
 11
-525.6755725757496
 21
77.06745869404571
 31
0.0
  0
LINE
  5
2F8
330
1F
100
AcDbEntity
  8
A-2_蓋
  6
Continuous
 62
     3
370
     9
100
AcDbLine
 10
-525.6755725757496
 20
83.06737951330234
 30
0.0
 11
-525.6755725757496
 21
177.0674793140309
 31
0.0
  0
LINE
  5
2F9
330
1F
100
AcDbEntity
  8
A-2_蓋
  6
Continuous
 62
     3
370
     9
100
AcDbLine
 10
-515.6753540039062
 20
-16.93257924672722
 30
0.0
 11
-515.6753540039062
 21
77.06745869404571
 31
0.0
  0
LINE
  5
2FA
330
1F
100
AcDbEntity
  8
A-2_蓋
  6
Continuous
 62
     3
370
     9
100
AcDbLine
 10
-515.6753540039062
 20
83.06737951330234
 30
0.0
 11
-515.6753540039062
 21
177.0674793140309
 31
0.0
  0
LINE
  5
2FB
330
1F
100
AcDbEntity
  8
A-2_蓋
  6
Continuous
 62
     3
370
     9
100
AcDbLine
 10
-510.6755849477407
 20
-16.93257924672722
 30
0.0
 11
-510.6755849477407
 21
77.06745869404571
 31
0.0
  0
LINE
  5
2FC
330
1F
100
AcDbEntity
  8
A-2_蓋
  6
Continuous
 62
     3
370
     9
100
AcDbLine
 10
-510.6755849477407
 20
83.06737951330234
 30
0.0
 11
-510.6755849477407
 21
177.0674793140309
 31
0.0
  0
LINE
  5
2FD
330
1F
100
AcDbEntity
  8
A-2_蓋
  6
Continuous
 62
     3
370
     9
100
AcDbLine
 10
-500.6753663758973
 20
-16.93257924672722
 30
0.0
 11
-500.6753663758973
 21
77.06745869404571
 31
0.0
  0
LINE
  5
2FE
330
1F
100
AcDbEntity
  8
A-2_蓋
  6
Continuous
 62
     3
370
     9
100
AcDbLine
 10
-500.6753663758973
 20
83.06737951330234
 30
0.0
 11
-500.6753663758973
 21
177.0674793140309
 31
0.0
  0
LINE
  5
2FF
330
1F
100
AcDbEntity
  8
A-2_蓋
  6
Continuous
 62
     3
370
     9
100
AcDbLine
 10
-495.6755973197318
 20
-16.93257924672722
 30
0.0
 11
-495.6755973197318
 21
77.06745869404571
 31
0.0
  0
LINE
  5
300
330
1F
100
AcDbEntity
  8
A-2_蓋
  6
Continuous
 62
     3
370
     9
100
AcDbLine
 10
-495.6755973197318
 20
83.06737951330234
 30
0.0
 11
-495.6755973197318
 21
177.0674793140309
 31
0.0
  0
LINE
  5
301
330
1F
100
AcDbEntity
  8
A-2_蓋
  6
Continuous
 62
     3
370
     9
100
AcDbLine
 10
-485.6753787478885
 20
-16.93257924672722
 30
0.0
 11
-485.6753787478885
 21
77.06745869404571
 31
0.0
  0
LINE
  5
302
330
1F
100
AcDbEntity
  8
A-2_蓋
  6
Continuous
 62
     3
370
     9
100
AcDbLine
 10
-485.6753787478885
 20
83.06737951330234
 30
0.0
 11
-485.6753787478885
 21
177.0674793140309
 31
0.0
  0
LINE
  5
303
330
1F
100
AcDbEntity
  8
A-2_蓋
  6
Continuous
 62
     3
370
     9
100
AcDbLine
 10
-480.6756096917229
 20
-16.93257924672722
 30
0.0
 11
-480.6756096917229
 21
77.06745869404571
 31
0.0
  0
LINE
  5
304
330
1F
100
AcDbEntity
  8
A-2_蓋
  6
Continuous
 62
     3
370
     9
100
AcDbLine
 10
-480.6756096917229
 20
83.06737951330234
 30
0.0
 11
-480.6756096917229
 21
177.0674793140309
 31
0.0
  0
LINE
  5
305
330
1F
100
AcDbEntity
  8
A-2_蓋
  6
Continuous
 62
     3
370
     9
100
AcDbLine
 10
-470.6753911198796
 20
-16.93257924672722
 30
0.0
 11
-470.6753911198796
 21
77.06745869404571
 31
0.0
  0
LINE
  5
306
330
1F
100
AcDbEntity
  8
A-2_蓋
  6
Continuous
 62
     3
370
     9
100
AcDbLine
 10
-470.6753911198796
 20
83.06737951330234
 30
0.0
 11
-470.6753911198796
 21
177.0674793140309
 31
0.0
  0
LINE
  5
307
330
1F
100
AcDbEntity
  8
A-2_蓋
  6
Continuous
 62
     3
370
     9
100
AcDbLine
 10
-465.6756220637141
 20
-16.93257924672722
 30
0.0
 11
-465.6756220637141
 21
77.06745869404571
 31
0.0
  0
LINE
  5
308
330
1F
100
AcDbEntity
  8
A-2_蓋
  6
Continuous
 62
     3
370
     9
100
AcDbLine
 10
-465.6756220637141
 20
83.06737951330234
 30
0.0
 11
-465.6756220637141
 21
177.0674793140309
 31
0.0
  0
LINE
  5
309
330
1F
100
AcDbEntity
  8
A-2_蓋
  6
Continuous
 62
     3
370
     9
100
AcDbLine
 10
-455.6754034918708
 20
-16.93257924672722
 30
0.0
 11
-455.6754034918708
 21
77.06745869404571
 31
0.0
  0
LINE
  5
30A
330
1F
100
AcDbEntity
  8
A-2_蓋
  6
Continuous
 62
     3
370
     9
100
AcDbLine
 10
-455.6754034918708
 20
83.06737951330234
 30
0.0
 11
-455.6754034918708
 21
177.0674793140309
 31
0.0
  0
LINE
  5
30B
330
1F
100
AcDbEntity
  8
A-2_蓋
  6
Continuous
 62
     3
370
     9
100
AcDbLine
 10
-450.6756344357052
 20
-16.93257924672722
 30
0.0
 11
-450.6756344357052
 21
77.06745869404571
 31
0.0
  0
LINE
  5
30C
330
1F
100
AcDbEntity
  8
A-2_蓋
  6
Continuous
 62
     3
370
     9
100
AcDbLine
 10
-450.6756344357052
 20
83.06737951330234
 30
0.0
 11
-450.6756344357052
 21
177.0674793140309
 31
0.0
  0
LINE
  5
30D
330
1F
100
AcDbEntity
  8
A-2_蓋
  6
Continuous
 62
     3
370
     9
100
AcDbLine
 10
-440.6754158638619
 20
-16.93257924672722
 30
0.0
 11
-440.6754158638619
 21
77.06745869404571
 31
0.0
  0
LINE
  5
30E
330
1F
100
AcDbEntity
  8
A-2_蓋
  6
Continuous
 62
     3
370
     9
100
AcDbLine
 10
-440.6754158638619
 20
83.06737951330234
 30
0.0
 11
-440.6754158638619
 21
177.0674793140309
 31
0.0
  0
LINE
  5
30F
330
1F
100
AcDbEntity
  8
A-2_蓋
  6
Continuous
 62
     3
370
     9
100
AcDbLine
 10
-435.6756468076964
 20
-16.93257924672722
 30
0.0
 11
-435.6756468076964
 21
77.06745869404571
 31
0.0
  0
LINE
  5
310
330
1F
100
AcDbEntity
  8
A-2_蓋
  6
Continuous
 62
     3
370
     9
100
AcDbLine
 10
-435.6756468076964
 20
83.06737951330234
 30
0.0
 11
-435.6756468076964
 21
177.0674793140309
 31
0.0
  0
LINE
  5
311
330
1F
100
AcDbEntity
  8
A-2_蓋
  6
Continuous
 62
     3
370
     9
100
AcDbLine
 10
-425.675428235853
 20
-16.93257924672722
 30
0.0
 11
-425.675428235853
 21
77.06745869404571
 31
0.0
  0
LINE
  5
312
330
1F
100
AcDbEntity
  8
A-2_蓋
  6
Continuous
 62
     3
370
     9
100
AcDbLine
 10
-425.675428235853
 20
83.06737951330234
 30
0.0
 11
-425.675428235853
 21
177.0674793140309
 31
0.0
  0
LINE
  5
313
330
1F
100
AcDbEntity
  8
A-2_蓋
  6
Continuous
 62
     3
370
     9
100
AcDbLine
 10
-420.6756591796875
 20
-16.93257924672722
 30
0.0
 11
-420.6756591796875
 21
77.06745869404571
 31
0.0
  0
LINE
  5
314
330
1F
100
AcDbEntity
  8
A-2_蓋
  6
Continuous
 62
     3
370
     9
100
AcDbLine
 10
-420.6756591796875
 20
83.06737951330234
 30
0.0
 11
-420.6756591796875
 21
177.0674793140309
 31
0.0
  0
LINE
  5
315
330
1F
100
AcDbEntity
  8
A-2_蓋
  6
Continuous
 62
     3
370
     9
100
AcDbLine
 10
-410.6754406078442
 20
-16.93257924672722
 30
0.0
 11
-410.6754406078442
 21
77.06745869404571
 31
0.0
  0
LINE
  5
316
330
1F
100
AcDbEntity
  8
A-2_蓋
  6
Continuous
 62
     3
370
     9
100
AcDbLine
 10
-410.6754406078442
 20
83.06737951330234
 30
0.0
 11
-410.6754406078442
 21
177.0674793140309
 31
0.0
  0
LINE
  5
317
330
1F
100
AcDbEntity
  8
A-2_蓋
  6
Continuous
 62
     3
370
     9
100
AcDbLine
 10
-405.6756715516786
 20
-16.93257924672722
 30
0.0
 11
-405.6756715516786
 21
77.06745869404571
 31
0.0
  0
LINE
  5
318
330
1F
100
AcDbEntity
  8
A-2_蓋
  6
Continuous
 62
     3
370
     9
100
AcDbLine
 10
-405.6756715516786
 20
83.06737951330234
 30
0.0
 11
-405.6756715516786
 21
177.0674793140309
 31
0.0
  0
LINE
  5
319
330
1F
100
AcDbEntity
  8
A-2_蓋
  6
Continuous
 62
     3
370
     9
100
AcDbLine
 10
-395.6754529798353
 20
-16.93257924672722
 30
0.0
 11
-395.6754529798353
 21
77.06745869404571
 31
0.0
  0
LINE
  5
31A
330
1F
100
AcDbEntity
  8
A-2_蓋
  6
Continuous
 62
     3
370
     9
100
AcDbLine
 10
-395.6754529798353
 20
83.06737951330234
 30
0.0
 11
-395.6754529798353
 21
177.0674793140309
 31
0.0
  0
LINE
  5
31B
330
1F
100
AcDbEntity
  8
A-2_蓋
  6
Continuous
 62
     3
370
     9
100
AcDbLine
 10
-390.6756839236698
 20
-16.93257924672722
 30
0.0
 11
-390.6756839236698
 21
77.06745869404571
 31
0.0
  0
LINE
  5
31C
330
1F
100
AcDbEntity
  8
A-2_蓋
  6
Continuous
 62
     3
370
     9
100
AcDbLine
 10
-390.6756839236698
 20
83.06737951330234
 30
0.0
 11
-390.6756839236698
 21
177.0674793140309
 31
0.0
  0
LINE
  5
31D
330
1F
100
AcDbEntity
  8
A-2_蓋
  6
Continuous
 62
     3
370
     9
100
AcDbLine
 10
-380.6754653518265
 20
-16.93257924672722
 30
0.0
 11
-380.6754653518265
 21
77.06745869404571
 31
0.0
  0
LINE
  5
31E
330
1F
100
AcDbEntity
  8
A-2_蓋
  6
Continuous
 62
     3
370
     9
100
AcDbLine
 10
-380.6754653518265
 20
83.06737951330234
 30
0.0
 11
-380.6754653518265
 21
177.0674793140309
 31
0.0
  0
LINE
  5
31F
330
1F
100
AcDbEntity
  8
A-2_蓋
  6
Continuous
 62
     3
370
     9
100
AcDbLine
 10
-375.6756962956608
 20
-16.93257924672722
 30
0.0
 11
-375.6756962956608
 21
77.06745869404571
 31
0.0
  0
LINE
  5
320
330
1F
100
AcDbEntity
  8
A-2_蓋
  6
Continuous
 62
     3
370
     9
100
AcDbLine
 10
-375.6756962956608
 20
83.06737951330234
 30
0.0
 11
-375.6756962956608
 21
177.0674793140309
 31
0.0
  0
LINE
  5
321
330
1F
100
AcDbEntity
  8
A-2_蓋
  6
Continuous
 62
     3
370
     9
100
AcDbLine
 10
-365.6754777238176
 20
-16.93257924672722
 30
0.0
 11
-365.6754777238176
 21
77.06745869404571
 31
0.0
  0
LINE
  5
322
330
1F
100
AcDbEntity
  8
A-2_蓋
  6
Continuous
 62
     3
370
     9
100
AcDbLine
 10
-365.6754777238176
 20
83.06737951330234
 30
0.0
 11
-365.6754777238176
 21
177.0674793140309
 31
0.0
  0
LINE
  5
323
330
1F
100
AcDbEntity
  8
A-2_蓋
  6
Continuous
 62
     3
370
     9
100
AcDbLine
 10
-360.675708667652
 20
-16.93257924672722
 30
0.0
 11
-360.675708667652
 21
77.06745869404571
 31
0.0
  0
LINE
  5
324
330
1F
100
AcDbEntity
  8
A-2_蓋
  6
Continuous
 62
     3
370
     9
100
AcDbLine
 10
-360.675708667652
 20
83.06737951330234
 30
0.0
 11
-360.675708667652
 21
177.0674793140309
 31
0.0
  0
LINE
  5
325
330
1F
100
AcDbEntity
  8
A-2_蓋
  6
Continuous
 62
     3
370
     9
100
AcDbLine
 10
-350.6754900958088
 20
-16.93257924672722
 30
0.0
 11
-350.6754900958088
 21
77.06745869404571
 31
0.0
  0
LINE
  5
326
330
1F
100
AcDbEntity
  8
A-2_蓋
  6
Continuous
 62
     3
370
     9
100
AcDbLine
 10
-350.6754900958088
 20
83.06737951330234
 30
0.0
 11
-350.6754900958088
 21
177.0674793140309
 31
0.0
  0
LINE
  5
327
330
1F
100
AcDbEntity
  8
A-2_蓋
  6
Continuous
 62
     3
370
     9
100
AcDbLine
 10
-345.6757210396431
 20
-16.93257924672722
 30
0.0
 11
-345.6757210396431
 21
77.06745869404571
 31
0.0
  0
LINE
  5
328
330
1F
100
AcDbEntity
  8
A-2_蓋
  6
Continuous
 62
     3
370
     9
100
AcDbLine
 10
-345.6757210396431
 20
83.06737951330234
 30
0.0
 11
-345.6757210396431
 21
177.0674793140309
 31
0.0
  0
LINE
  5
329
330
1F
100
AcDbEntity
  8
A-2_蓋
  6
Continuous
 62
     3
370
     9
100
AcDbLine
 10
-335.6755024677997
 20
-16.93257924672722
 30
0.0
 11
-335.6755024677997
 21
77.06745869404571
 31
0.0
  0
LINE
  5
32A
330
1F
100
AcDbEntity
  8
A-2_蓋
  6
Continuous
 62
     3
370
     9
100
AcDbLine
 10
-335.6755024677997
 20
83.06737951330234
 30
0.0
 11
-335.6755024677997
 21
177.0674793140309
 31
0.0
  0
LINE
  5
32B
330
1F
100
AcDbEntity
  8
A-2_蓋
  6
Continuous
 62
     3
370
     9
100
AcDbLine
 10
-330.6757334116343
 20
-16.93257924672722
 30
0.0
 11
-330.6757334116343
 21
77.06745869404571
 31
0.0
  0
LINE
  5
32C
330
1F
100
AcDbEntity
  8
A-2_蓋
  6
Continuous
 62
     3
370
     9
100
AcDbLine
 10
-330.6757334116343
 20
83.06737951330234
 30
0.0
 11
-330.6757334116343
 21
177.0674793140309
 31
0.0
  0
LINE
  5
32D
330
1F
100
AcDbEntity
  8
A-2_蓋
  6
Continuous
 62
     3
370
     9
100
AcDbLine
 10
-320.6755148397909
 20
-16.93257924672722
 30
0.0
 11
-320.6755148397909
 21
77.06745869404571
 31
0.0
  0
LINE
  5
32E
330
1F
100
AcDbEntity
  8
A-2_蓋
  6
Continuous
 62
     3
370
     9
100
AcDbLine
 10
-320.6755148397909
 20
83.06737951330234
 30
0.0
 11
-320.6755148397909
 21
177.0674793140309
 31
0.0
  0
LINE
  5
32F
330
1F
100
AcDbEntity
  8
A-2_蓋
  6
Continuous
 62
     3
370
     9
100
AcDbLine
 10
-315.6757457836254
 20
-16.93257924672722
 30
0.0
 11
-315.6757457836254
 21
77.06745869404571
 31
0.0
  0
LINE
  5
330
330
1F
100
AcDbEntity
  8
A-2_蓋
  6
Continuous
 62
     3
370
     9
100
AcDbLine
 10
-315.6757457836254
 20
83.06737951330234
 30
0.0
 11
-315.6757457836254
 21
177.0674793140309
 31
0.0
  0
LINE
  5
331
330
1F
100
AcDbEntity
  8
A-2_蓋
  6
Continuous
 62
     3
370
     9
100
AcDbLine
 10
-305.675527211782
 20
-16.93257924672722
 30
0.0
 11
-305.675527211782
 21
77.06745869404571
 31
0.0
  0
LINE
  5
332
330
1F
100
AcDbEntity
  8
A-2_蓋
  6
Continuous
 62
     3
370
     9
100
AcDbLine
 10
-305.675527211782
 20
83.06737951330234
 30
0.0
 11
-305.675527211782
 21
177.0674793140309
 31
0.0
  0
LINE
  5
333
330
1F
100
AcDbEntity
  8
A-2_蓋
  6
Continuous
 62
     3
370
     9
100
AcDbLine
 10
-300.6757581556166
 20
-16.93257924672722
 30
0.0
 11
-300.6757581556166
 21
77.06745869404571
 31
0.0
  0
LINE
  5
334
330
1F
100
AcDbEntity
  8
A-2_蓋
  6
Continuous
 62
     3
370
     9
100
AcDbLine
 10
-300.6757581556166
 20
83.06737951330234
 30
0.0
 11
-300.6757581556166
 21
177.0674793140309
 31
0.0
  0
LINE
  5
335
330
1F
100
AcDbEntity
  8
A-2_蓋
  6
Continuous
 62
     3
370
     9
100
AcDbLine
 10
-290.6755395837732
 20
-16.93257924672722
 30
0.0
 11
-290.6755395837732
 21
77.06745869404571
 31
0.0
  0
LINE
  5
336
330
1F
100
AcDbEntity
  8
A-2_蓋
  6
Continuous
 62
     3
370
     9
100
AcDbLine
 10
-290.6755395837732
 20
83.06737951330234
 30
0.0
 11
-290.6755395837732
 21
177.0674793140309
 31
0.0
  0
LINE
  5
337
330
1F
100
AcDbEntity
  8
A-2_蓋
  6
Continuous
 62
     3
370
     9
100
AcDbLine
 10
-285.6757705276077
 20
-16.93257924672722
 30
0.0
 11
-285.6757705276077
 21
77.06745869404571
 31
0.0
  0
LINE
  5
338
330
1F
100
AcDbEntity
  8
A-2_蓋
  6
Continuous
 62
     3
370
     9
100
AcDbLine
 10
-285.6757705276077
 20
83.06737951330234
 30
0.0
 11
-285.6757705276077
 21
177.0674793140309
 31
0.0
  0
LINE
  5
339
330
1F
100
AcDbEntity
  8
A-2_蓋
  6
Continuous
 62
     3
370
     9
100
AcDbLine
 10
-275.6755519557643
 20
-16.93257924672722
 30
0.0
 11
-275.6755519557643
 21
77.06745869404571
 31
0.0
  0
LINE
  5
33A
330
1F
100
AcDbEntity
  8
A-2_蓋
  6
Continuous
 62
     3
370
     9
100
AcDbLine
 10
-275.6755519557643
 20
83.06737951330234
 30
0.0
 11
-275.6755519557643
 21
177.0674793140309
 31
0.0
  0
LINE
  5
33B
330
1F
100
AcDbEntity
  8
A-2_蓋
  6
Continuous
 62
     3
370
     9
100
AcDbLine
 10
-270.6757828995989
 20
-16.93257924672722
 30
0.0
 11
-270.6757828995989
 21
77.06745869404571
 31
0.0
  0
LINE
  5
33C
330
1F
100
AcDbEntity
  8
A-2_蓋
  6
Continuous
 62
     3
370
     9
100
AcDbLine
 10
-270.6757828995989
 20
83.06737951330234
 30
0.0
 11
-270.6757828995989
 21
177.0674793140309
 31
0.0
  0
LINE
  5
33D
330
1F
100
AcDbEntity
  8
A-2_蓋
  6
Continuous
 62
     3
370
     9
100
AcDbLine
 10
-260.6755643277555
 20
-16.93257924672722
 30
0.0
 11
-260.6755643277555
 21
77.06745869404571
 31
0.0
  0
LINE
  5
33E
330
1F
100
AcDbEntity
  8
A-2_蓋
  6
Continuous
 62
     3
370
     9
100
AcDbLine
 10
-260.6755643277555
 20
83.06737951330234
 30
0.0
 11
-260.6755643277555
 21
177.0674793140309
 31
0.0
  0
LINE
  5
33F
330
1F
100
AcDbEntity
  8
A-2_蓋
  6
Continuous
 62
     3
370
     9
100
AcDbLine
 10
-255.67579527159
 20
-16.93257924672722
 30
0.0
 11
-255.67579527159
 21
77.06745869404571
 31
0.0
  0
LINE
  5
340
330
1F
100
AcDbEntity
  8
A-2_蓋
  6
Continuous
 62
     3
370
     9
100
AcDbLine
 10
-255.67579527159
 20
83.06737951330234
 30
0.0
 11
-255.67579527159
 21
177.0674793140309
 31
0.0
  0
LINE
  5
341
330
1F
100
AcDbEntity
  8
A-2_蓋
  6
Continuous
 62
     3
370
     9
100
AcDbLine
 10
-245.6755766997466
 20
-16.93257924672722
 30
0.0
 11
-245.6755766997466
 21
77.06745869404571
 31
0.0
  0
LINE
  5
342
330
1F
100
AcDbEntity
  8
A-2_蓋
  6
Continuous
 62
     3
370
     9
100
AcDbLine
 10
-245.6755766997466
 20
83.06737951330234
 30
0.0
 11
-245.6755766997466
 21
177.0674793140309
 31
0.0
  0
LINE
  5
343
330
1F
100
AcDbEntity
  8
A-2_蓋
  6
Continuous
 62
     3
370
     9
100
AcDbLine
 10
-240.675807643581
 20
-16.93257924672722
 30
0.0
 11
-240.675807643581
 21
77.06745869404571
 31
0.0
  0
LINE
  5
344
330
1F
100
AcDbEntity
  8
A-2_蓋
  6
Continuous
 62
     3
370
     9
100
AcDbLine
 10
-240.675807643581
 20
83.06737951330234
 30
0.0
 11
-240.675807643581
 21
177.0674793140309
 31
0.0
  0
LINE
  5
345
330
1F
100
AcDbEntity
  8
A-2_蓋
  6
Continuous
 62
     3
370
     9
100
AcDbLine
 10
-230.6755890717378
 20
-16.93257924672722
 30
0.0
 11
-230.6755890717378
 21
77.06745869404571
 31
0.0
  0
LINE
  5
346
330
1F
100
AcDbEntity
  8
A-2_蓋
  6
Continuous
 62
     3
370
     9
100
AcDbLine
 10
-230.6755890717378
 20
83.06737951330234
 30
0.0
 11
-230.6755890717378
 21
177.0674793140309
 31
0.0
  0
LINE
  5
347
330
1F
100
AcDbEntity
  8
A-2_蓋
  6
Continuous
 62
     3
370
     9
100
AcDbLine
 10
-225.6758200155721
 20
-16.93257924672722
 30
0.0
 11
-225.6758200155721
 21
77.06745869404571
 31
0.0
  0
LINE
  5
348
330
1F
100
AcDbEntity
  8
A-2_蓋
  6
Continuous
 62
     3
370
     9
100
AcDbLine
 10
-225.6758200155721
 20
83.06737951330234
 30
0.0
 11
-225.6758200155721
 21
177.0674793140309
 31
0.0
  0
LINE
  5
349
330
1F
100
AcDbEntity
  8
A-2_蓋
  6
Continuous
 62
     3
370
     9
100
AcDbLine
 10
-215.6756014437289
 20
-16.93257924672722
 30
0.0
 11
-215.6756014437289
 21
77.06745869404571
 31
0.0
  0
LINE
  5
34A
330
1F
100
AcDbEntity
  8
A-2_蓋
  6
Continuous
 62
     3
370
     9
100
AcDbLine
 10
-215.6756014437289
 20
83.06737951330234
 30
0.0
 11
-215.6756014437289
 21
177.0674793140309
 31
0.0
  0
LINE
  5
34B
330
1F
100
AcDbEntity
  8
A-2_蓋
  6
Continuous
 62
     3
370
     9
100
AcDbLine
 10
-210.6758323875633
 20
-16.93257924672722
 30
0.0
 11
-210.6758323875633
 21
77.06745869404571
 31
0.0
  0
LINE
  5
34C
330
1F
100
AcDbEntity
  8
A-2_蓋
  6
Continuous
 62
     3
370
     9
100
AcDbLine
 10
-210.6758323875633
 20
83.06737951330234
 30
0.0
 11
-210.6758323875633
 21
177.0674793140309
 31
0.0
  0
LINE
  5
34D
330
1F
100
AcDbEntity
  8
A-2_蓋
  6
Continuous
 62
     3
370
     9
100
AcDbLine
 10
-200.6756138157199
 20
-16.93257924672722
 30
0.0
 11
-200.6756138157199
 21
77.06745869404571
 31
0.0
  0
LINE
  5
34E
330
1F
100
AcDbEntity
  8
A-2_蓋
  6
Continuous
 62
     3
370
     9
100
AcDbLine
 10
-200.6756138157199
 20
83.06737951330234
 30
0.0
 11
-200.6756138157199
 21
177.0674793140309
 31
0.0
  0
LINE
  5
34F
330
1F
100
AcDbEntity
  8
A-2_蓋
  6
Continuous
 62
     3
370
     9
100
AcDbLine
 10
-195.6758447595544
 20
-16.93257924672722
 30
0.0
 11
-195.6758447595544
 21
77.06745869404571
 31
0.0
  0
LINE
  5
350
330
1F
100
AcDbEntity
  8
A-2_蓋
  6
Continuous
 62
     3
370
     9
100
AcDbLine
 10
-195.6758447595544
 20
83.06737951330234
 30
0.0
 11
-195.6758447595544
 21
177.0674793140309
 31
0.0
  0
LINE
  5
351
330
1F
100
AcDbEntity
  8
A-2_蓋
  6
Continuous
 62
     3
370
     9
100
AcDbLine
 10
-185.6756261877111
 20
-16.93257924672722
 30
0.0
 11
-185.6756261877111
 21
77.06745869404571
 31
0.0
  0
LINE
  5
352
330
1F
100
AcDbEntity
  8
A-2_蓋
  6
Continuous
 62
     3
370
     9
100
AcDbLine
 10
-185.6756261877111
 20
83.06737951330234
 30
0.0
 11
-185.6756261877111
 21
177.0674793140309
 31
0.0
  0
LINE
  5
353
330
1F
100
AcDbEntity
  8
A-2_蓋
  6
Continuous
 62
     3
370
     9
100
AcDbLine
 10
-180.6758571315456
 20
-16.93257924672722
 30
0.0
 11
-180.6758571315456
 21
77.06745869404571
 31
0.0
  0
LINE
  5
354
330
1F
100
AcDbEntity
  8
A-2_蓋
  6
Continuous
 62
     3
370
     9
100
AcDbLine
 10
-180.6758571315456
 20
83.06737951330234
 30
0.0
 11
-180.6758571315456
 21
177.0674793140309
 31
0.0
  0
LINE
  5
355
330
1F
100
AcDbEntity
  8
A-2_蓋
  6
Continuous
 62
     3
370
     9
100
AcDbLine
 10
-170.6756385597022
 20
-16.93257924672722
 30
0.0
 11
-170.6756385597022
 21
77.06745869404571
 31
0.0
  0
LINE
  5
356
330
1F
100
AcDbEntity
  8
A-2_蓋
  6
Continuous
 62
     3
370
     9
100
AcDbLine
 10
-170.6756385597022
 20
83.06737951330234
 30
0.0
 11
-170.6756385597022
 21
177.0674793140309
 31
0.0
  0
LINE
  5
357
330
1F
100
AcDbEntity
  8
A-2_蓋
  6
Continuous
 62
     3
370
     9
100
AcDbLine
 10
-165.6758695035367
 20
-16.93257924672722
 30
0.0
 11
-165.6758695035367
 21
77.06745869404571
 31
0.0
  0
LINE
  5
358
330
1F
100
AcDbEntity
  8
A-2_蓋
  6
Continuous
 62
     3
370
     9
100
AcDbLine
 10
-165.6758695035367
 20
83.06737951330234
 30
0.0
 11
-165.6758695035367
 21
177.0674793140309
 31
0.0
  0
LINE
  5
359
330
1F
100
AcDbEntity
  8
A-2_蓋
  6
Continuous
 62
     3
370
     9
100
AcDbLine
 10
-155.6756509316934
 20
-16.93257924672722
 30
0.0
 11
-155.6756509316934
 21
77.06745869404571
 31
0.0
  0
LINE
  5
35A
330
1F
100
AcDbEntity
  8
A-2_蓋
  6
Continuous
 62
     3
370
     9
100
AcDbLine
 10
-155.6756509316934
 20
83.06737951330234
 30
0.0
 11
-155.6756509316934
 21
177.0674793140309
 31
0.0
  0
LINE
  5
35B
330
1F
100
AcDbEntity
  8
A-2_蓋
  6
Continuous
 62
     3
370
     9
100
AcDbLine
 10
-150.6758818755279
 20
-16.93257924672722
 30
0.0
 11
-150.6758818755279
 21
77.06745869404571
 31
0.0
  0
LINE
  5
35C
330
1F
100
AcDbEntity
  8
A-2_蓋
  6
Continuous
 62
     3
370
     9
100
AcDbLine
 10
-150.6758818755279
 20
83.06737951330234
 30
0.0
 11
-150.6758818755279
 21
177.0674793140309
 31
0.0
  0
LINE
  5
35D
330
1F
100
AcDbEntity
  8
A-2_蓋
  6
Continuous
 62
     3
370
     9
100
AcDbLine
 10
-140.6756633036845
 20
-16.93257924672722
 30
0.0
 11
-140.6756633036845
 21
77.06745869404571
 31
0.0
  0
LINE
  5
35E
330
1F
100
AcDbEntity
  8
A-2_蓋
  6
Continuous
 62
     3
370
     9
100
AcDbLine
 10
-140.6756633036845
 20
83.06737951330234
 30
0.0
 11
-140.6756633036845
 21
177.0674793140309
 31
0.0
  0
LINE
  5
35F
330
1F
100
AcDbEntity
  8
A-2_蓋
  6
Continuous
 62
     3
370
     9
100
AcDbLine
 10
-135.675894247519
 20
-16.93257924672722
 30
0.0
 11
-135.675894247519
 21
77.06745869404571
 31
0.0
  0
LINE
  5
360
330
1F
100
AcDbEntity
  8
A-2_蓋
  6
Continuous
 62
     3
370
     9
100
AcDbLine
 10
-135.675894247519
 20
83.06737951330234
 30
0.0
 11
-135.675894247519
 21
177.0674793140309
 31
0.0
  0
LINE
  5
361
330
1F
100
AcDbEntity
  8
A-2_蓋
  6
Continuous
 62
     3
370
     9
100
AcDbLine
 10
-125.6756756756756
 20
-16.93257924672722
 30
0.0
 11
-125.6756756756756
 21
77.06745869404571
 31
0.0
  0
LINE
  5
362
330
1F
100
AcDbEntity
  8
A-2_蓋
  6
Continuous
 62
     3
370
     9
100
AcDbLine
 10
-125.6756756756756
 20
83.06737951330234
 30
0.0
 11
-125.6756756756756
 21
177.0674793140309
 31
0.0
  0
LINE
  5
363
330
1F
100
AcDbEntity
  8
A-2_蓋
  6
Continuous
 62
     3
370
     9
100
AcDbLine
 10
-120.67590661951
 20
-16.93257924672722
 30
0.0
 11
-120.67590661951
 21
77.06745869404571
 31
0.0
  0
LINE
  5
364
330
1F
100
AcDbEntity
  8
A-2_蓋
  6
Continuous
 62
     3
370
     9
100
AcDbLine
 10
-120.67590661951
 20
83.06737951330234
 30
0.0
 11
-120.67590661951
 21
177.0674793140309
 31
0.0
  0
LINE
  5
365
330
1F
100
AcDbEntity
  8
A-2_蓋
  6
Continuous
 62
     3
370
     9
100
AcDbLine
 10
-110.6756880476668
 20
-16.93257924672722
 30
0.0
 11
-110.6756880476668
 21
77.06745869404571
 31
0.0
  0
LINE
  5
366
330
1F
100
AcDbEntity
  8
A-2_蓋
  6
Continuous
 62
     3
370
     9
100
AcDbLine
 10
-110.6756880476668
 20
83.06737951330234
 30
0.0
 11
-110.6756880476668
 21
177.0674793140309
 31
0.0
  0
LINE
  5
367
330
1F
100
AcDbEntity
  8
A-2_蓋
  6
Continuous
 62
     3
370
     9
100
AcDbLine
 10
-105.6759189915012
 20
-16.93257924672722
 30
0.0
 11
-105.6759189915012
 21
77.06745869404571
 31
0.0
  0
LINE
  5
368
330
1F
100
AcDbEntity
  8
A-2_蓋
  6
Continuous
 62
     3
370
     9
100
AcDbLine
 10
-105.6759189915012
 20
83.06737951330234
 30
0.0
 11
-105.6759189915012
 21
177.0674793140309
 31
0.0
  0
LINE
  5
369
330
1F
100
AcDbEntity
  8
A-2_蓋
  6
Continuous
 62
     3
370
     9
100
AcDbLine
 10
-95.67570041965794
 20
-16.93257924672722
 30
0.0
 11
-95.67570041965794
 21
77.06745869404571
 31
0.0
  0
LINE
  5
36A
330
1F
100
AcDbEntity
  8
A-2_蓋
  6
Continuous
 62
     3
370
     9
100
AcDbLine
 10
-95.67570041965794
 20
83.06737951330234
 30
0.0
 11
-95.67570041965794
 21
177.0674793140309
 31
0.0
  0
LINE
  5
36B
330
1F
100
AcDbEntity
  8
A-2_蓋
  6
Continuous
 62
     3
370
     9
100
AcDbLine
 10
-90.67593136349231
 20
-16.93257924672722
 30
0.0
 11
-90.67593136349231
 21
77.06745869404571
 31
0.0
  0
LINE
  5
36C
330
1F
100
AcDbEntity
  8
A-2_蓋
  6
Continuous
 62
     3
370
     9
100
AcDbLine
 10
-90.67593136349231
 20
83.06737951330234
 30
0.0
 11
-90.67593136349231
 21
177.0674793140309
 31
0.0
  0
LINE
  5
36D
330
1F
100
AcDbEntity
  8
A-2_蓋
  6
Continuous
 62
     3
370
     9
100
AcDbLine
 10
-80.67571279164895
 20
-16.93257924672722
 30
0.0
 11
-80.67571279164895
 21
77.06745869404571
 31
0.0
  0
LINE
  5
36E
330
1F
100
AcDbEntity
  8
A-2_蓋
  6
Continuous
 62
     3
370
     9
100
AcDbLine
 10
-80.67571279164895
 20
83.06737951330234
 30
0.0
 11
-80.67571279164895
 21
177.0674793140309
 31
0.0
  0
LINE
  5
36F
330
1F
100
AcDbEntity
  8
A-2_蓋
  6
Continuous
 62
     3
370
     9
100
AcDbLine
 10
-75.67594373548346
 20
-16.93257924672722
 30
0.0
 11
-75.67594373548346
 21
77.06745869404571
 31
0.0
  0
LINE
  5
370
330
1F
100
AcDbEntity
  8
A-2_蓋
  6
Continuous
 62
     3
370
     9
100
AcDbLine
 10
-75.67594373548346
 20
83.06737951330234
 30
0.0
 11
-75.67594373548346
 21
177.0674793140309
 31
0.0
  0
LINE
  5
371
330
1F
100
AcDbEntity
  8
A-2_蓋
  6
Continuous
 62
     3
370
     9
100
AcDbLine
 10
-65.6757251636401
 20
-16.93257924672722
 30
0.0
 11
-65.6757251636401
 21
77.06745869404571
 31
0.0
  0
LINE
  5
372
330
1F
100
AcDbEntity
  8
A-2_蓋
  6
Continuous
 62
     3
370
     9
100
AcDbLine
 10
-65.6757251636401
 20
83.06737951330234
 30
0.0
 11
-65.6757251636401
 21
177.0674793140309
 31
0.0
  0
LINE
  5
373
330
1F
100
AcDbEntity
  8
A-2_蓋
  6
Continuous
 62
     3
370
     9
100
AcDbLine
 10
-60.6759561074746
 20
-16.93257924672722
 30
0.0
 11
-60.6759561074746
 21
77.06745869404571
 31
0.0
  0
LINE
  5
374
330
1F
100
AcDbEntity
  8
A-2_蓋
  6
Continuous
 62
     3
370
     9
100
AcDbLine
 10
-60.6759561074746
 20
83.06737951330234
 30
0.0
 11
-60.6759561074746
 21
177.0674793140309
 31
0.0
  0
LINE
  5
375
330
1F
100
AcDbEntity
  8
A-2_蓋
  6
Continuous
 62
     3
370
     9
100
AcDbLine
 10
-50.67573753563124
 20
-16.93257924672722
 30
0.0
 11
-50.67573753563124
 21
77.06745869404571
 31
0.0
  0
LINE
  5
376
330
1F
100
AcDbEntity
  8
A-2_蓋
  6
Continuous
 62
     3
370
     9
100
AcDbLine
 10
-50.67573753563124
 20
83.06737951330234
 30
0.0
 11
-50.67573753563124
 21
177.0674793140309
 31
0.0
  0
LINE
  5
377
330
1F
100
AcDbEntity
  8
A-2_蓋
  6
Continuous
 62
     3
370
     9
100
AcDbLine
 10
-45.67596847946575
 20
-16.93257924672722
 30
0.0
 11
-45.67596847946575
 21
77.06745869404571
 31
0.0
  0
LINE
  5
378
330
1F
100
AcDbEntity
  8
A-2_蓋
  6
Continuous
 62
     3
370
     9
100
AcDbLine
 10
-45.67596847946575
 20
83.06737951330234
 30
0.0
 11
-45.67596847946575
 21
177.0674793140309
 31
0.0
  0
LINE
  5
379
330
1F
100
AcDbEntity
  8
A-2_蓋
  6
Continuous
 62
     3
370
     9
100
AcDbLine
 10
-35.67574990762239
 20
-16.93257924672722
 30
0.0
 11
-35.67574990762239
 21
77.06745869404571
 31
0.0
  0
LINE
  5
37A
330
1F
100
AcDbEntity
  8
A-2_蓋
  6
Continuous
 62
     3
370
     9
100
AcDbLine
 10
-35.67574990762239
 20
83.06737951330234
 30
0.0
 11
-35.67574990762239
 21
177.0674793140309
 31
0.0
  0
LINE
  5
37B
330
1F
100
AcDbEntity
  8
A-2_蓋
  6
Continuous
 62
     3
370
     9
100
AcDbLine
 10
-30.6759808514569
 20
-16.93257924672722
 30
0.0
 11
-30.6759808514569
 21
77.06745869404571
 31
0.0
  0
LINE
  5
37C
330
1F
100
AcDbEntity
  8
A-2_蓋
  6
Continuous
 62
     3
370
     9
100
AcDbLine
 10
-30.6759808514569
 20
83.06737951330234
 30
0.0
 11
-30.6759808514569
 21
177.0674793140309
 31
0.0
  0
LINE
  5
37D
330
1F
100
AcDbEntity
  8
A-2_蓋
  6
Continuous
 62
     3
370
     9
100
AcDbLine
 10
-20.67576227961354
 20
-16.93257924672722
 30
0.0
 11
-20.67576227961354
 21
77.06745869404571
 31
0.0
  0
LINE
  5
37E
330
1F
100
AcDbEntity
  8
A-2_蓋
  6
Continuous
 62
     3
370
     9
100
AcDbLine
 10
-20.67576227961354
 20
83.06737951330234
 30
0.0
 11
-20.67576227961354
 21
177.0674793140309
 31
0.0
  0
LINE
  5
37F
330
1F
100
AcDbEntity
  8
A-2_蓋
  6
Continuous
 62
     3
370
     9
100
AcDbLine
 10
-15.67599322344805
 20
-16.93257924672722
 30
0.0
 11
-15.67599322344805
 21
77.06745869404571
 31
0.0
  0
LINE
  5
380
330
1F
100
AcDbEntity
  8
A-2_蓋
  6
Continuous
 62
     3
370
     9
100
AcDbLine
 10
-15.67599322344805
 20
83.06737951330234
 30
0.0
 11
-15.67599322344805
 21
177.0674793140309
 31
0.0
  0
LINE
  5
381
330
1F
100
AcDbEntity
  8
A-2_蓋
  6
Continuous
 62
     3
370
     9
100
AcDbLine
 10
-5.675774651604684
 20
-16.93257924672722
 30
0.0
 11
-5.675774651604684
 21
77.06745869404571
 31
0.0
  0
LINE
  5
382
330
1F
100
AcDbEntity
  8
A-2_蓋
  6
Continuous
 62
     3
370
     9
100
AcDbLine
 10
-5.675774651604684
 20
83.06737951330234
 30
0.0
 11
-5.675774651604684
 21
177.0674793140309
 31
0.0
  0
LINE
  5
383
330
1F
100
AcDbEntity
  8
A-2_蓋
  6
Continuous
 62
     3
370
     9
100
AcDbLine
 10
-0.676005595439193
 20
-16.93257924672722
 30
0.0
 11
-0.676005595439193
 21
77.06745869404571
 31
0.0
  0
LINE
  5
384
330
1F
100
AcDbEntity
  8
A-2_蓋
  6
Continuous
 62
     3
370
     9
100
AcDbLine
 10
-0.676005595439193
 20
83.06737951330234
 30
0.0
 11
-0.676005595439193
 21
177.0674793140309
 31
0.0
  0
LINE
  5
385
330
1F
100
AcDbEntity
  8
A-2_蓋
  6
Continuous
 62
     3
370
     9
100
AcDbLine
 10
9.324274836359905
 20
-16.93257924672722
 30
0.0
 11
9.324274836359905
 21
77.06745869404571
 31
0.0
  0
LINE
  5
386
330
1F
100
AcDbEntity
  8
A-2_蓋
  6
Continuous
 62
     3
370
     9
100
AcDbLine
 10
9.324274836359905
 20
83.06737951330234
 30
0.0
 11
9.324274836359905
 21
177.0674793140309
 31
0.0
  0
LINE
  5
387
330
1F
100
AcDbEntity
  8
A-2_蓋
  6
Continuous
 62
     3
370
     9
100
AcDbLine
 10
14.3240438925254
 20
-16.93257924672722
 30
0.0
 11
14.3240438925254
 21
77.06745869404571
 31
0.0
  0
LINE
  5
388
330
1F
100
AcDbEntity
  8
A-2_蓋
  6
Continuous
 62
     3
370
     9
100
AcDbLine
 10
14.3240438925254
 20
83.06737951330234
 30
0.0
 11
14.3240438925254
 21
177.0674793140309
 31
0.0
  0
LINE
  5
389
330
1F
100
AcDbEntity
  8
A-2_蓋
  6
Continuous
 62
     3
370
     9
100
AcDbLine
 10
24.32420060441302
 20
-16.93257924672722
 30
0.0
 11
24.32420060441302
 21
77.06745869404571
 31
0.0
  0
LINE
  5
38A
330
1F
100
AcDbEntity
  8
A-2_蓋
  6
Continuous
 62
     3
370
     9
100
AcDbLine
 10
24.32420060441302
 20
83.06737951330234
 30
0.0
 11
24.32420060441302
 21
177.0674793140309
 31
0.0
  0
LINE
  5
38B
330
1F
100
AcDbEntity
  8
A-2_蓋
  6
Continuous
 62
     3
370
     9
100
AcDbLine
 10
29.32396966057865
 20
-16.93257924672722
 30
0.0
 11
29.32396966057865
 21
77.06745869404571
 31
0.0
  0
LINE
  5
38C
330
1F
100
AcDbEntity
  8
A-2_蓋
  6
Continuous
 62
     3
370
     9
100
AcDbLine
 10
29.32396966057865
 20
83.06737951330234
 30
0.0
 11
29.32396966057865
 21
177.0674793140309
 31
0.0
  0
LINE
  5
38D
330
1F
100
AcDbEntity
  8
A-2_蓋
  6
Continuous
 62
     3
370
     9
100
AcDbLine
 10
39.32412637246628
 20
-16.93257924672722
 30
0.0
 11
39.32412637246628
 21
77.06745869404571
 31
0.0
  0
LINE
  5
38E
330
1F
100
AcDbEntity
  8
A-2_蓋
  6
Continuous
 62
     3
370
     9
100
AcDbLine
 10
39.32412637246628
 20
83.06737951330234
 30
0.0
 11
39.32412637246628
 21
177.0674793140309
 31
0.0
  0
LINE
  5
38F
330
1F
100
AcDbEntity
  8
A-2_蓋
  6
Continuous
 62
     3
370
     9
100
AcDbLine
 10
44.32389542863177
 20
-16.93257924672722
 30
0.0
 11
44.32389542863177
 21
77.06745869404571
 31
0.0
  0
LINE
  5
390
330
1F
100
AcDbEntity
  8
A-2_蓋
  6
Continuous
 62
     3
370
     9
100
AcDbLine
 10
44.32389542863177
 20
83.06737951330234
 30
0.0
 11
44.32389542863177
 21
177.0674793140309
 31
0.0
  0
LINE
  5
391
330
1F
100
AcDbEntity
  8
A-2_蓋
  6
Continuous
 62
     3
370
     9
100
AcDbLine
 10
54.32417586043087
 20
-16.93257924672722
 30
0.0
 11
54.32417586043087
 21
77.06745869404571
 31
0.0
  0
LINE
  5
392
330
1F
100
AcDbEntity
  8
A-2_蓋
  6
Continuous
 62
     3
370
     9
100
AcDbLine
 10
54.32417586043087
 20
83.06737951330234
 30
0.0
 11
54.32417586043087
 21
177.0674793140309
 31
0.0
  0
LINE
  5
393
330
1F
100
AcDbEntity
  8
A-2_蓋
  6
Continuous
 62
     3
370
     9
100
AcDbLine
 10
59.32394491659636
 20
-16.93257924672722
 30
0.0
 11
59.32394491659636
 21
77.06745869404571
 31
0.0
  0
LINE
  5
394
330
1F
100
AcDbEntity
  8
A-2_蓋
  6
Continuous
 62
     3
370
     9
100
AcDbLine
 10
59.32394491659636
 20
83.06737951330234
 30
0.0
 11
59.32394491659636
 21
177.0674793140309
 31
0.0
  0
LINE
  5
395
330
1F
100
AcDbEntity
  8
A-2_蓋
  6
Continuous
 62
     3
370
     9
100
AcDbLine
 10
69.32422534839532
 20
-16.93257924672722
 30
0.0
 11
69.32422534839532
 21
77.06745869404571
 31
0.0
  0
LINE
  5
396
330
1F
100
AcDbEntity
  8
A-2_蓋
  6
Continuous
 62
     3
370
     9
100
AcDbLine
 10
69.32422534839532
 20
83.06737951330234
 30
0.0
 11
69.32422534839532
 21
177.0674793140309
 31
0.0
  0
LINE
  5
397
330
1F
100
AcDbEntity
  8
A-2_蓋
  6
Continuous
 62
     3
370
     9
100
AcDbLine
 10
74.3239944045608
 20
-16.93257924672722
 30
0.0
 11
74.3239944045608
 21
77.06745869404571
 31
0.0
  0
LINE
  5
398
330
1F
100
AcDbEntity
  8
A-2_蓋
  6
Continuous
 62
     3
370
     9
100
AcDbLine
 10
74.3239944045608
 20
83.06737951330234
 30
0.0
 11
74.3239944045608
 21
177.0674793140309
 31
0.0
  0
LINE
  5
399
330
1F
100
AcDbEntity
  8
A-2_蓋
  6
Continuous
 62
     3
370
     9
100
AcDbLine
 10
84.32415111644858
 20
-16.93257924672722
 30
0.0
 11
84.32415111644858
 21
77.06745869404571
 31
0.0
  0
LINE
  5
39A
330
1F
100
AcDbEntity
  8
A-2_蓋
  6
Continuous
 62
     3
370
     9
100
AcDbLine
 10
84.32415111644858
 20
83.06737951330234
 30
0.0
 11
84.32415111644858
 21
177.0674793140309
 31
0.0
  0
LINE
  5
39B
330
1F
100
AcDbEntity
  8
A-2_蓋
  6
Continuous
 62
     3
370
     9
100
AcDbLine
 10
89.32392017261407
 20
-16.93257924672722
 30
0.0
 11
89.32392017261407
 21
77.06745869404571
 31
0.0
  0
LINE
  5
39C
330
1F
100
AcDbEntity
  8
A-2_蓋
  6
Continuous
 62
     3
370
     9
100
AcDbLine
 10
89.32392017261407
 20
83.06737951330234
 30
0.0
 11
89.32392017261407
 21
177.0674793140309
 31
0.0
  0
LINE
  5
39D
330
1F
100
AcDbEntity
  8
A-2_蓋
  6
Continuous
 62
     3
370
     9
100
AcDbLine
 10
99.3240768845017
 20
-16.93257924672722
 30
0.0
 11
99.3240768845017
 21
77.06745869404571
 31
0.0
  0
LINE
  5
39E
330
1F
100
AcDbEntity
  8
A-2_蓋
  6
Continuous
 62
     3
370
     9
100
AcDbLine
 10
99.3240768845017
 20
83.06737951330234
 30
0.0
 11
99.3240768845017
 21
177.0674793140309
 31
0.0
  0
LINE
  5
39F
330
1F
100
AcDbEntity
  8
A-2_蓋
  6
Continuous
 62
     3
370
     9
100
AcDbLine
 10
104.3238459406673
 20
-16.93257924672722
 30
0.0
 11
104.3238459406673
 21
77.06745869404571
 31
0.0
  0
LINE
  5
3A0
330
1F
100
AcDbEntity
  8
A-2_蓋
  6
Continuous
 62
     3
370
     9
100
AcDbLine
 10
104.3238459406673
 20
83.06737951330234
 30
0.0
 11
104.3238459406673
 21
177.0674793140309
 31
0.0
  0
LINE
  5
3A1
330
1F
100
AcDbEntity
  8
A-2_蓋
  6
Continuous
 62
     3
370
     9
100
AcDbLine
 10
114.3241263724663
 20
-16.93257924672722
 30
0.0
 11
114.3241263724663
 21
77.06745869404571
 31
0.0
  0
LINE
  5
3A2
330
1F
100
AcDbEntity
  8
A-2_蓋
  6
Continuous
 62
     3
370
     9
100
AcDbLine
 10
114.3241263724663
 20
83.06737951330234
 30
0.0
 11
114.3241263724663
 21
177.0674793140309
 31
0.0
  0
LINE
  5
3A3
330
1F
100
AcDbEntity
  8
A-2_蓋
  6
Continuous
 62
     3
370
     9
100
AcDbLine
 10
119.3238954286318
 20
-16.93257924672722
 30
0.0
 11
119.3238954286318
 21
77.06745869404571
 31
0.0
  0
LINE
  5
3A4
330
1F
100
AcDbEntity
  8
A-2_蓋
  6
Continuous
 62
     3
370
     9
100
AcDbLine
 10
119.3238954286318
 20
83.06737951330234
 30
0.0
 11
119.3238954286318
 21
177.0674793140309
 31
0.0
  0
LINE
  5
3A5
330
1F
100
AcDbEntity
  8
A-2_蓋
  6
Continuous
 62
     3
370
     9
100
AcDbLine
 10
129.3241758604309
 20
-16.93257924672722
 30
0.0
 11
129.3241758604309
 21
77.06745869404571
 31
0.0
  0
LINE
  5
3A6
330
1F
100
AcDbEntity
  8
A-2_蓋
  6
Continuous
 62
     3
370
     9
100
AcDbLine
 10
129.3241758604309
 20
83.06737951330234
 30
0.0
 11
129.3241758604309
 21
177.0674793140309
 31
0.0
  0
LINE
  5
3A7
330
1F
100
AcDbEntity
  8
A-2_蓋
  6
Continuous
 62
     3
370
     9
100
AcDbLine
 10
134.3239449165964
 20
-16.93257924672722
 30
0.0
 11
134.3239449165964
 21
77.06745869404571
 31
0.0
  0
LINE
  5
3A8
330
1F
100
AcDbEntity
  8
A-2_蓋
  6
Continuous
 62
     3
370
     9
100
AcDbLine
 10
134.3239449165964
 20
83.06737951330234
 30
0.0
 11
134.3239449165964
 21
177.0674793140309
 31
0.0
  0
LINE
  5
3A9
330
1F
100
AcDbEntity
  8
A-2_蓋
  6
Continuous
 62
     3
370
     9
100
AcDbLine
 10
144.324101628484
 20
-16.93257924672722
 30
0.0
 11
144.324101628484
 21
77.06745869404571
 31
0.0
  0
LINE
  5
3AA
330
1F
100
AcDbEntity
  8
A-2_蓋
  6
Continuous
 62
     3
370
     9
100
AcDbLine
 10
144.324101628484
 20
83.06737951330234
 30
0.0
 11
144.324101628484
 21
177.0674793140309
 31
0.0
  0
LINE
  5
3AB
330
1F
100
AcDbEntity
  8
A-2_蓋
  6
Continuous
 62
     3
370
     9
100
AcDbLine
 10
149.3238706846496
 20
-16.93257924672722
 30
0.0
 11
149.3238706846496
 21
77.06745869404571
 31
0.0
  0
LINE
  5
3AC
330
1F
100
AcDbEntity
  8
A-2_蓋
  6
Continuous
 62
     3
370
     9
100
AcDbLine
 10
149.3238706846496
 20
83.06737951330234
 30
0.0
 11
149.3238706846496
 21
177.0674793140309
 31
0.0
  0
LINE
  5
3AD
330
1F
100
AcDbEntity
  8
A-2_蓋
  6
Continuous
 62
     3
370
     9
100
AcDbLine
 10
159.3240273965372
 20
-16.93257924672722
 30
0.0
 11
159.3240273965372
 21
77.06745869404571
 31
0.0
  0
LINE
  5
3AE
330
1F
100
AcDbEntity
  8
A-2_蓋
  6
Continuous
 62
     3
370
     9
100
AcDbLine
 10
159.3240273965372
 20
83.06737951330234
 30
0.0
 11
159.3240273965372
 21
177.0674793140309
 31
0.0
  0
LINE
  5
3AF
330
1F
100
AcDbEntity
  8
A-2_蓋
  6
Continuous
 62
     3
370
     9
100
AcDbLine
 10
164.3237964527027
 20
-16.93257924672722
 30
0.0
 11
164.3237964527027
 21
77.06745869404571
 31
0.0
  0
LINE
  5
3B0
330
1F
100
AcDbEntity
  8
A-2_蓋
  6
Continuous
 62
     3
370
     9
100
AcDbLine
 10
164.3237964527027
 20
83.06737951330234
 30
0.0
 11
164.3237964527027
 21
177.0674793140309
 31
0.0
  0
LINE
  5
3B1
330
1F
100
AcDbEntity
  8
A-2_蓋
  6
Continuous
 62
     3
370
     9
100
AcDbLine
 10
174.3240768845017
 20
-16.93257924672722
 30
0.0
 11
174.3240768845017
 21
77.06745869404571
 31
0.0
  0
LINE
  5
3B2
330
1F
100
AcDbEntity
  8
A-2_蓋
  6
Continuous
 62
     3
370
     9
100
AcDbLine
 10
174.3240768845017
 20
83.06737951330234
 30
0.0
 11
174.3240768845017
 21
177.0674793140309
 31
0.0
  0
LINE
  5
3B3
330
1F
100
AcDbEntity
  8
A-2_蓋
  6
Continuous
 62
     3
370
     9
100
AcDbLine
 10
179.3238459406673
 20
-16.93257924672722
 30
0.0
 11
179.3238459406673
 21
77.06745869404571
 31
0.0
  0
LINE
  5
3B4
330
1F
100
AcDbEntity
  8
A-2_蓋
  6
Continuous
 62
     3
370
     9
100
AcDbLine
 10
179.3238459406673
 20
83.06737951330234
 30
0.0
 11
179.3238459406673
 21
177.0674793140309
 31
0.0
  0
LINE
  5
3B5
330
1F
100
AcDbEntity
  8
A-2_蓋
  6
Continuous
 62
     3
370
     9
100
AcDbLine
 10
189.3241263724663
 20
-16.93257924672722
 30
0.0
 11
189.3241263724663
 21
77.06745869404571
 31
0.0
  0
LINE
  5
3B6
330
1F
100
AcDbEntity
  8
A-2_蓋
  6
Continuous
 62
     3
370
     9
100
AcDbLine
 10
189.3241263724663
 20
83.06737951330234
 30
0.0
 11
189.3241263724663
 21
177.0674793140309
 31
0.0
  0
LINE
  5
3B7
330
1F
100
AcDbEntity
  8
A-2_蓋
  6
Continuous
 62
     3
370
     9
100
AcDbLine
 10
194.3238954286318
 20
-16.93257924672722
 30
0.0
 11
194.3238954286318
 21
77.06745869404571
 31
0.0
  0
LINE
  5
3B8
330
1F
100
AcDbEntity
  8
A-2_蓋
  6
Continuous
 62
     3
370
     9
100
AcDbLine
 10
194.3238954286318
 20
83.06737951330234
 30
0.0
 11
194.3238954286318
 21
177.0674793140309
 31
0.0
  0
LINE
  5
3B9
330
1F
100
AcDbEntity
  8
A-2_蓋
  6
Continuous
 62
     3
370
     9
100
AcDbLine
 10
204.3240521405195
 20
-16.93257924672722
 30
0.0
 11
204.3240521405195
 21
77.06745869404571
 31
0.0
  0
LINE
  5
3BA
330
1F
100
AcDbEntity
  8
A-2_蓋
  6
Continuous
 62
     3
370
     9
100
AcDbLine
 10
204.3240521405195
 20
83.06737951330234
 30
0.0
 11
204.3240521405195
 21
177.0674793140309
 31
0.0
  0
LINE
  5
3BB
330
1F
100
AcDbEntity
  8
A-2_蓋
  6
Continuous
 62
     3
370
     9
100
AcDbLine
 10
209.323821196685
 20
-16.93257924672722
 30
0.0
 11
209.323821196685
 21
77.06745869404571
 31
0.0
  0
LINE
  5
3BC
330
1F
100
AcDbEntity
  8
A-2_蓋
  6
Continuous
 62
     3
370
     9
100
AcDbLine
 10
209.323821196685
 20
83.06737951330234
 30
0.0
 11
209.323821196685
 21
177.0674793140309
 31
0.0
  0
LINE
  5
3BD
330
1F
100
AcDbEntity
  8
A-2_蓋
  6
Continuous
 62
     3
370
     9
100
AcDbLine
 10
219.3239779085727
 20
-16.93257924672722
 30
0.0
 11
219.3239779085727
 21
77.06745869404571
 31
0.0
  0
LINE
  5
3BE
330
1F
100
AcDbEntity
  8
A-2_蓋
  6
Continuous
 62
     3
370
     9
100
AcDbLine
 10
219.3239779085727
 20
83.06737951330234
 30
0.0
 11
219.3239779085727
 21
177.0674793140309
 31
0.0
  0
LINE
  5
3BF
330
1F
100
AcDbEntity
  8
A-2_蓋
  6
Continuous
 62
     3
370
     9
100
AcDbLine
 10
224.3237469647383
 20
-16.93257924672722
 30
0.0
 11
224.3237469647383
 21
77.06745869404571
 31
0.0
  0
LINE
  5
3C0
330
1F
100
AcDbEntity
  8
A-2_蓋
  6
Continuous
 62
     3
370
     9
100
AcDbLine
 10
224.3237469647383
 20
83.06737951330234
 30
0.0
 11
224.3237469647383
 21
177.0674793140309
 31
0.0
  0
LINE
  5
3C1
330
1F
100
AcDbEntity
  8
A-2_蓋
  6
Continuous
 62
     3
370
     9
100
AcDbLine
 10
234.3240273965372
 20
-16.93257924672722
 30
0.0
 11
234.3240273965372
 21
77.06745869404571
 31
0.0
  0
LINE
  5
3C2
330
1F
100
AcDbEntity
  8
A-2_蓋
  6
Continuous
 62
     3
370
     9
100
AcDbLine
 10
234.3240273965372
 20
83.06737951330234
 30
0.0
 11
234.3240273965372
 21
177.0674793140309
 31
0.0
  0
LINE
  5
3C3
330
1F
100
AcDbEntity
  8
A-2_蓋
  6
Continuous
 62
     3
370
     9
100
AcDbLine
 10
239.3237964527029
 20
-16.93257924672722
 30
0.0
 11
239.3237964527029
 21
77.06745869404571
 31
0.0
  0
LINE
  5
3C4
330
1F
100
AcDbEntity
  8
A-2_蓋
  6
Continuous
 62
     3
370
     9
100
AcDbLine
 10
239.3237964527029
 20
83.06737951330234
 30
0.0
 11
239.3237964527029
 21
177.0674793140309
 31
0.0
  0
LINE
  5
3C5
330
1F
100
AcDbEntity
  8
A-2_蓋
  6
Continuous
 62
     3
370
     9
100
AcDbLine
 10
249.3240768845018
 20
-16.93257924672722
 30
0.0
 11
249.3240768845018
 21
77.06745869404571
 31
0.0
  0
LINE
  5
3C6
330
1F
100
AcDbEntity
  8
A-2_蓋
  6
Continuous
 62
     3
370
     9
100
AcDbLine
 10
249.3240768845018
 20
83.06737951330234
 30
0.0
 11
249.3240768845018
 21
177.0674793140309
 31
0.0
  0
LINE
  5
3C7
330
1F
100
AcDbEntity
  8
A-2_蓋
  6
Continuous
 62
     3
370
     9
100
AcDbLine
 10
254.3238459406672
 20
-16.93257924672722
 30
0.0
 11
254.3238459406672
 21
77.06745869404571
 31
0.0
  0
LINE
  5
3C8
330
1F
100
AcDbEntity
  8
A-2_蓋
  6
Continuous
 62
     3
370
     9
100
AcDbLine
 10
254.3238459406672
 20
83.06737951330234
 30
0.0
 11
254.3238459406672
 21
177.0674793140309
 31
0.0
  0
LINE
  5
3C9
330
1F
100
AcDbEntity
  8
A-2_蓋
  6
Continuous
 62
     3
370
     9
100
AcDbLine
 10
451.7974028716216
 20
177.2389551111171
 30
0.0
 11
451.7974028716216
 21
82.89565627639362
 31
0.0
  0
LINE
  5
3CA
330
1F
100
AcDbEntity
  8
A-2_蓋
  6
Continuous
 62
     3
370
     9
100
AcDbLine
 10
451.7974028716216
 20
77.23893449113177
 30
0.0
 11
451.7974028716216
 21
-17.10436434359167
 31
0.0
  0
LINE
  5
3CB
330
1F
100
AcDbEntity
  8
A-2_蓋
  6
Continuous
 62
     3
370
     9
100
AcDbLine
 10
452.7973071948904
 20
177.8313260465056
 30
0.0
 11
452.7973071948904
 21
82.30328534100508
 31
0.0
  0
LINE
  5
3CC
330
1F
100
AcDbEntity
  8
A-2_蓋
  6
Continuous
 62
     3
370
     9
100
AcDbLine
 10
452.7973071948904
 20
77.83130542652032
 30
0.0
 11
452.7973071948904
 21
-17.69673527898007
 31
0.0
  0
ARC
  5
3CD
330
1F
100
AcDbEntity
  8
A-1_ピット
  6
Continuous
 62
     2
370
     9
100
AcDbCircle
 10
491.6973217113599
 20
404.467583733636
 30
0.0
 40
6.399999599199038
100
AcDbArc
 50
180.0
 51
270.0
  0
ARC
  5
3CE
330
1F
100
AcDbEntity
  8
A-1_ピット
  6
Continuous
 62
     2
370
     9
100
AcDbCircle
 10
558.8972761824325
 20
404.467583733636
 30
0.0
 40
6.399999599199038
100
AcDbArc
 50
270.0
 51
0.0
  0
ARC
  5
3CF
330
1F
100
AcDbEntity
  8
A-1_ピット
  6
Continuous
 62
     2
370
     9
100
AcDbCircle
 10
558.897152462521
 20
404.467583733636
 30
0.0
 40
3.199999799599519
100
AcDbArc
 50
270.0
 51
0.0
  0
ARC
  5
3D0
330
1F
100
AcDbEntity
  8
A-1_ピット
  6
Continuous
 62
     2
370
     9
100
AcDbCircle
 10
491.6973217113599
 20
431.6676536766259
 30
0.0
 40
6.399999599199038
100
AcDbArc
 50
90.0
 51
180.0
  0
ARC
  5
3D1
330
1F
100
AcDbEntity
  8
A-1_ピット
  6
Continuous
 62
     2
370
     9
100
AcDbCircle
 10
491.6970742715372
 20
431.6674062368032
 30
0.0
 40
3.199999799599519
100
AcDbArc
 50
90.0
 51
180.0
  0
ARC
  5
3D2
330
1F
100
AcDbEntity
  8
A-1_ピット
  6
Continuous
 62
     2
370
     9
100
AcDbCircle
 10
558.897152462521
 20
431.6674062368032
 30
0.0
 40
3.199999799599519
100
AcDbArc
 50
0.0
 51
90.0
  0
ARC
  5
3D3
330
1F
100
AcDbEntity
  8
A-1_ピット
  6
Continuous
 62
     2
370
     9
100
AcDbCircle
 10
558.8972761824325
 20
431.6676536766259
 30
0.0
 40
6.399999599199038
100
AcDbArc
 50
0.0
 51
90.0
  0
ARC
  5
3D4
330
1F
100
AcDbEntity
  8
A-1_ピット
  6
Continuous
 62
     2
370
     9
100
AcDbCircle
 10
491.6973217113599
 20
404.467583733636
 30
0.0
 40
3.199999799599519
100
AcDbArc
 50
180.0
 51
270.0
  0
ARC
  5
3D5
330
1F
100
AcDbEntity
  8
A-1_ピット
  6
Continuous
 62
     2
370
     9
100
AcDbCircle
 10
491.6973217113599
 20
-44.33282800622891
 30
0.0
 40
6.399999599199038
100
AcDbArc
 50
90.0
 51
180.0
  0
ARC
  5
3D6
330
1F
100
AcDbEntity
  8
A-1_ピット
  6
Continuous
 62
     2
370
     9
100
AcDbCircle
 10
558.8972761824325
 20
-44.33282800622891
 30
0.0
 40
6.399999599199038
100
AcDbArc
 50
0.0
 51
90.0
  0
ARC
  5
3D7
330
1F
100
AcDbEntity
  8
A-1_ピット
  6
Continuous
 62
     2
370
     9
100
AcDbCircle
 10
558.897152462521
 20
-44.33282800622891
 30
0.0
 40
3.199999799599519
100
AcDbArc
 50
0.0
 51
90.0
  0
ARC
  5
3D8
330
1F
100
AcDbEntity
  8
A-1_ピット
  6
Continuous
 62
     2
370
     9
100
AcDbCircle
 10
491.6973217113599
 20
-71.53289794921875
 30
0.0
 40
6.399999599199038
100
AcDbArc
 50
180.0
 51
270.0
  0
ARC
  5
3D9
330
1F
100
AcDbEntity
  8
A-1_ピット
  6
Continuous
 62
     2
370
     9
100
AcDbCircle
 10
491.6970742715372
 20
-71.53265050939609
 30
0.0
 40
3.199999799599519
100
AcDbArc
 50
180.0
 51
270.0
  0
ARC
  5
3DA
330
1F
100
AcDbEntity
  8
A-1_ピット
  6
Continuous
 62
     2
370
     9
100
AcDbCircle
 10
558.897152462521
 20
-71.53265050939609
 30
0.0
 40
3.199999799599519
100
AcDbArc
 50
270.0
 51
0.0
  0
ARC
  5
3DB
330
1F
100
AcDbEntity
  8
A-1_ピット
  6
Continuous
 62
     2
370
     9
100
AcDbCircle
 10
558.8972761824325
 20
-71.53289794921875
 30
0.0
 40
6.399999599199038
100
AcDbArc
 50
270.0
 51
0.0
  0
ARC
  5
3DC
330
1F
100
AcDbEntity
  8
A-1_ピット
  6
Continuous
 62
     2
370
     9
100
AcDbCircle
 10
491.6973217113599
 20
-44.33282800622891
 30
0.0
 40
3.199999799599519
100
AcDbArc
 50
90.0
 51
180.0
  0
CIRCLE
  5
3DD
330
1F
100
AcDbEntity
  8
A-2_蓋
  6
Continuous
 62
     3
370
     9
100
AcDbCircle
 10
450.7972511085305
 20
380.0672953837628
 30
0.0
 40
2.999999797022021
  0
CIRCLE
  5
3DE
330
1F
100
AcDbEntity
  8
A-2_蓋
  6
Continuous
 62
     3
370
     9
100
AcDbCircle
 10
450.7972511085305
 20
280.0672747637775
 30
0.0
 40
2.999999797022021
  0
CIRCLE
  5
3DF
330
1F
100
AcDbEntity
  8
A-2_蓋
  6
Continuous
 62
     3
370
     9
100
AcDbCircle
 10
450.7972511085305
 20
180.0673160037479
 30
0.0
 40
2.999999797022021
  0
CIRCLE
  5
3E0
330
1F
100
AcDbEntity
  8
A-2_蓋
  6
Continuous
 62
     3
370
     9
100
AcDbCircle
 10
450.7972511085305
 20
-19.93272523622252
 30
0.0
 40
2.999999797022021
  0
CIRCLE
  5
3E1
330
1F
100
AcDbEntity
  8
A-2_蓋
  6
Continuous
 62
     3
370
     9
100
AcDbCircle
 10
450.7972511085305
 20
80.06729538376277
 30
0.0
 40
2.999999797022021
  0
TEXT
  5
3E2
330
1F
100
AcDbEntity
  8
A-4_寸法
  6
Continuous
 62
     2
370
     9
100
AcDbText
 10
23.6691077979836
 20
472.8968713048987
 30
0.0
 40
15.24
  1
15
 41
1.0625
  7
ＭＳ ゴシック
100
AcDbText
  0
LWPOLYLINE
  5
3E3
330
1F
100
AcDbEntity
  8
A-4_寸法
  6
Continuous
 62
     7
370
     9
100
AcDbPolyline
 90
        4
 70
     1
 43
1.0
 10
27.32408513249584
 20
467.0769108952703
 42
0.4142135623731
 10
26.82408513249584
 20
467.5769108952703
 42
0.4142135623731
 10
26.32408513249584
 20
467.0769108952703
 42
0.4142135623731
 10
26.82408513249584
 20
466.5769108952703
 42
0.4142135623731
  0
LWPOLYLINE
  5
3E4
330
1F
100
AcDbEntity
  8
A-4_寸法
  6
Continuous
 62
     7
370
     9
100
AcDbPolyline
 90
        4
 70
     1
 43
1.0
 10
42.26425418338269
 20
467.0769108952703
 42
0.4142135623731
 10
41.76425418338269
 20
467.5769108952703
 42
0.4142135623731
 10
41.26425418338269
 20
467.0769108952703
 42
0.4142135623731
 10
41.76425418338269
 20
466.5769108952703
 42
0.4142135623731
  0
LINE
  5
3E5
330
1F
100
AcDbEntity
  8
A-2_蓋
  6
Continuous
 62
     3
370
     9
100
AcDbLine
 10
447.2973385372677
 20
445.067509831609
 30
0.0
 11
447.2973385372677
 21
-84.93275410420182
 31
0.0
  0
LINE
  5
3E6
330
1F
100
AcDbEntity
  8
A-4_寸法
  6
Continuous
 62
     7
370
     9
100
AcDbLine
 10
447.2973385372677
 20
-134.9327541042018
 30
0.0
 11
565.2973071948904
 21
-134.9327541042018
 31
0.0
  0
TEXT
  5
3E7
330
1F
100
AcDbEntity
  8
A-4_寸法
  6
Continuous
 62
     2
370
     9
100
AcDbText
 10
455.672314618085
 20
-129.1127318346178
 30
0.0
 40
15.24
  1
38
 41
1.0625
  7
ＭＳ ゴシック
100
AcDbText
  0
TEXT
  5
3E8
330
1F
100
AcDbEntity
  8
A-4_寸法
  6
Continuous
 62
     2
370
     9
100
AcDbText
 10
514.6723608068519
 20
-129.1127318346178
 30
0.0
 40
15.24
  1
80
 41
1.0625
  7
ＭＳ ゴシック
100
AcDbText
  0
LWPOLYLINE
  5
3E9
330
1F
100
AcDbEntity
  8
A-4_寸法
  6
Continuous
 62
     7
370
     9
100
AcDbPolyline
 90
        4
 70
     1
 43
1.0
 10
447.7973385372677
 20
-134.9327541042018
 42
0.4142135623731
 10
447.2973385372677
 20
-134.4327541042018
 42
0.4142135623731
 10
446.7973385372677
 20
-134.9327541042018
 42
0.4142135623731
 10
447.2973385372677
 20
-135.4327541042018
 42
0.4142135623731
  0
LWPOLYLINE
  5
3EA
330
1F
100
AcDbEntity
  8
A-4_寸法
  6
Continuous
 62
     7
370
     9
100
AcDbPolyline
 90
        4
 70
     1
 43
1.0
 10
485.7972906989021
 20
-134.9327541042018
 42
0.4142135623731
 10
485.2972906989021
 20
-134.4327541042018
 42
0.4142135623731
 10
484.7972906989021
 20
-134.9327541042018
 42
0.4142135623731
 10
485.2972906989021
 20
-135.4327541042018
 42
0.4142135623731
  0
LWPOLYLINE
  5
3EB
330
1F
100
AcDbEntity
  8
A-4_寸法
  6
Continuous
 62
     7
370
     9
100
AcDbPolyline
 90
        4
 70
     1
 43
1.0
 10
565.7973071948903
 20
-134.9327541042018
 42
0.4142135623731
 10
565.2973071948904
 20
-134.4327541042018
 42
0.4142135623731
 10
564.7973071948904
 20
-134.9327541042018
 42
0.4142135623731
 10
565.2973071948904
 20
-135.4327541042018
 42
0.4142135623731
  0
LINE
  5
3EC
330
1F
100
AcDbEntity
  8
A-4_寸法
  6
Continuous
 62
     7
370
     9
100
AcDbLine
 10
485.2972906989021
 20
-94.93275410420182
 30
0.0
 11
485.2972906989021
 21
-136.432734309016
 31
0.0
  0
LINE
  5
3ED
330
1F
100
AcDbEntity
  8
A-4_寸法
  6
Continuous
 62
     7
370
     9
100
AcDbLine
 10
565.2973071948904
 20
-84.03287732923346
 30
0.0
 11
565.2973071948904
 21
-176.4327343090159
 31
0.0
  0
LINE
  5
3EE
330
1F
100
AcDbEntity
  8
A-4_寸法
  6
Continuous
 62
     7
370
     9
100
AcDbLine
 10
447.2973385372677
 20
-174.9327541042018
 30
0.0
 11
565.297183474979
 21
-174.9327541042018
 31
0.0
  0
TEXT
  5
3EF
330
1F
100
AcDbEntity
  8
A-4_寸法
  6
Continuous
 62
     2
370
     9
100
AcDbText
 10
490.0472610061234
 20
-169.1127318346178
 30
0.0
 40
15.24
  1
118
 41
1.083333333333333
  7
ＭＳ ゴシック
100
AcDbText
  0
LWPOLYLINE
  5
3F0
330
1F
100
AcDbEntity
  8
A-4_寸法
  6
Continuous
 62
     7
370
     9
100
AcDbPolyline
 90
        4
 70
     1
 43
1.0
 10
447.7973385372677
 20
-174.9327541042018
 42
0.4142135623731
 10
447.2973385372677
 20
-174.4327541042018
 42
0.4142135623731
 10
446.7973385372677
 20
-174.9327541042018
 42
0.4142135623731
 10
447.2973385372677
 20
-175.4327541042018
 42
0.4142135623731
  0
LWPOLYLINE
  5
3F1
330
1F
100
AcDbEntity
  8
A-4_寸法
  6
Continuous
 62
     7
370
     9
100
AcDbPolyline
 90
        4
 70
     1
 43
1.0
 10
565.7971834749789
 20
-174.9327541042018
 42
0.4142135623731
 10
565.297183474979
 20
-174.4327541042018
 42
0.4142135623731
 10
564.797183474979
 20
-174.9327541042018
 42
0.4142135623731
 10
565.297183474979
 20
-175.4327541042018
 42
0.4142135623731
  0
LINE
  5
3F2
330
1F
100
AcDbEntity
  8
A-4_寸法
  6
Continuous
 62
     7
370
     9
100
AcDbLine
 10
447.2973385372677
 20
-94.93275410420182
 30
0.0
 11
447.2973385372677
 21
-176.4327343090159
 31
0.0
  0
LINE
  5
3F3
330
1F
100
AcDbEntity
  8
A-4_寸法
  6
Continuous
 62
     7
370
     9
100
AcDbLine
 10
-725.6756756756756
 20
-134.9327541042018
 30
0.0
 11
269.3242665883659
 21
-134.9327541042018
 31
0.0
  0
LINE
  5
3F4
330
1F
100
AcDbEntity
  8
A-4_寸法
  6
Continuous
 62
     7
370
     9
100
AcDbLine
 10
-725.6756756756756
 20
-97.43273348421667
 30
0.0
 11
-725.6756756756756
 21
-136.432734309016
 31
0.0
  0
LINE
  5
3F5
330
1F
100
AcDbEntity
  8
A-4_寸法
  6
Continuous
 62
     7
370
     9
100
AcDbLine
 10
269.3242665883659
 20
-97.43273348421667
 30
0.0
 11
269.3242665883659
 21
-136.432734309016
 31
0.0
  0
TEXT
  5
3F6
330
1F
100
AcDbEntity
  8
A-4_寸法
  6
Continuous
 62
     2
370
     9
100
AcDbText
 10
-244.4257045436549
 20
-129.1127318346178
 30
0.0
 40
15.24
  1
995
 41
1.083333333333333
  7
ＭＳ ゴシック
100
AcDbText
  0
LWPOLYLINE
  5
3F7
330
1F
100
AcDbEntity
  8
A-4_寸法
  6
Continuous
 62
     7
370
     9
100
AcDbPolyline
 90
        4
 70
     1
 43
1.0
 10
-725.1756756756756
 20
-134.9327541042018
 42
0.4142135623731
 10
-725.6756756756756
 20
-134.4327541042018
 42
0.4142135623731
 10
-726.1756756756756
 20
-134.9327541042018
 42
0.4142135623731
 10
-725.6756756756756
 20
-135.4327541042018
 42
0.4142135623731
  0
LWPOLYLINE
  5
3F8
330
1F
100
AcDbEntity
  8
A-4_寸法
  6
Continuous
 62
     7
370
     9
100
AcDbPolyline
 90
        4
 70
     1
 43
1.0
 10
269.8242665883659
 20
-134.9327541042018
 42
0.4142135623731
 10
269.3242665883659
 20
-134.4327541042018
 42
0.4142135623731
 10
268.8242665883659
 20
-134.9327541042018
 42
0.4142135623731
 10
269.3242665883659
 20
-135.4327541042018
 42
0.4142135623731
  0
LINE
  5
3F9
330
1F
100
AcDbEntity
  8
F-5ﾚｲﾔ
  6
Continuous
 62
     2
370
     9
100
AcDbLine
 10
120.5707446948902
 20
-320.948775007918
 30
0.0
 11
120.5707446948902
 21
-295.9483832281989
 31
0.0
  0
LINE
  5
3FA
330
1F
100
AcDbEntity
  8
F-5ﾚｲﾔ
  6
Continuous
 62
     2
370
     9
100
AcDbLine
 10
120.5707446948902
 20
-295.9483832281989
 30
0.0
 11
233.0707446948904
 21
-295.9483832281989
 31
0.0
  0
LINE
  5
3FB
330
1F
100
AcDbEntity
  8
F-5ﾚｲﾔ
  6
Continuous
 62
     2
370
     9
100
AcDbLine
 10
233.0707446948904
 20
-295.9483832281989
 30
0.0
 11
233.0707446948904
 21
-320.948775007918
 31
0.0
  0
LINE
  5
3FC
330
1F
100
AcDbEntity
  8
F-5ﾚｲﾔ
  6
Continuous
 62
     2
370
     9
100
AcDbLine
 10
233.0707446948904
 20
-320.948775007918
 30
0.0
 11
120.5707446948902
 21
-320.948775007918
 31
0.0
  0
TEXT
  5
3FD
330
1F
100
AcDbEntity
  8
F-5ﾚｲﾔ
  6
Continuous
 62
     2
370
     9
100
AcDbText
 10
144.3208684148016
 20
-315.6286430400126
 30
0.0
 40
15.24
  1
仕　様
 41
1.083333333333333
  7
ＭＳ ゴシック
100
AcDbText
  0
TEXT
  5
3FE
330
1F
100
AcDbEntity
  8
F-5ﾚｲﾔ
  6
Continuous
 62
     2
370
     9
100
AcDbText
 10
201.471685461096
 20
-429.5884142736487
 30
0.0
 40
15.24
  1
処理：溶融亜鉛めっき
 41
1.1125
  7
ＭＳ ゴシック
100
AcDbText
  0
TEXT
  5
3FF
330
1F
100
AcDbEntity
  8
F-5ﾚｲﾔ
  6
Continuous
 62
     2
370
     9
100
AcDbText
 10
201.4717235529963
 20
-402.08782866608
 30
0.0
 40
15.24
  1
材質：ＳＳ４００＋ＳＴＫＲ４００
 50
359.9999801716714
 41
1.1171875
  7
ＭＳ ゴシック
100
AcDbText
  0
TEXT
  5
400
330
1F
100
AcDbEntity
  8
F-5ﾚｲﾔ
  6
Continuous
 62
     2
370
     9
100
AcDbText
 10
201.4717225770693
 20
-457.0889998812289
 30
0.0
 40
15.24
  1
定尺：９９５
 41
1.104166666666667
  7
ＭＳ ゴシック
100
AcDbText
  0
TEXT
  5
401
330
1F
100
AcDbEntity
  8
F-5ﾚｲﾔ
  6
Continuous
 62
     2
370
     9
100
AcDbText
 10
171.6154974860115
 20
-347.0888844093117
 30
0.0
 40
15.24
  1
スチール製グレーチング　かさあげ型　細目プレーンタイプ
 41
1.12037037037037
  7
ＭＳ ゴシック
100
AcDbText
  0
TEXT
  5
402
330
1F
100
AcDbEntity
  8
F-5ﾚｲﾔ
  6
Continuous
 62
     2
370
     9
100
AcDbText
 10
171.6153366501267
 20
-374.5894700168919
 30
0.0
 40
15.24
  1
国土交通省型側溝用　ＱＳＹ－Ｋ　５３３８ＢⅠ
 41
1.119318181818181
  7
ＭＳ ゴシック
100
AcDbText
  0
TEXT
  5
403
330
1F
100
AcDbEntity
  8
F-5ﾚｲﾔ
  6
Continuous
 62
     2
370
     9
100
AcDbText
 10
-409.446742289775
 20
-662.4841200380067
 30
0.0
 40
15.24
  1
スチール製グレーチング　かさあげ型　細目プレーンタイプ
 41
0.8990740740740739
  7
ＭＳ ゴシック
100
AcDbText
  0
TEXT
  5
404
330
1F
100
AcDbEntity
  8
F-5ﾚｲﾔ
  6
Continuous
 62
     2
370
     9
100
AcDbText
 10
-210.5000494879643
 20
-684.9841200380067
 30
0.0
 40
15.24
  1
国土交通省型側溝用　ＱＳＹ－Ｋ　５３３８ＢⅠ
 41
0.8988636363636362
  7
ＭＳ ゴシック
100
AcDbText
  0
LINE
  5
405
330
1F
100
AcDbEntity
  8
A-5_仕様文
  6
Continuous
 62
     7
370
     9
100
AcDbLine
 10
527.7973071948904
 20
438.0675609691724
 30
0.0
 11
532.5808138460727
 21
449.6160723711994
 31
0.0
  0
LINE
  5
406
330
1F
100
AcDbEntity
  8
A-5_仕様文
  6
Continuous
 62
     7
370
     9
100
AcDbLine
 10
527.7973071948904
 20
438.0675609691724
 30
0.0
 11
535.4069477803
 21
447.9844541807433
 31
0.0
  0
LINE
  5
407
330
1F
100
AcDbEntity
  8
A-5_仕様文
  6
Continuous
 62
     7
370
     9
100
AcDbLine
 10
-423.2620239257812
 20
575.0675675675677
 30
0.0
 11
-190.4260996225717
 21
575.0675675675677
 31
0.0
  0
LINE
  5
408
330
1F
100
AcDbEntity
  8
A-5_仕様文
  6
Continuous
 62
     7
370
     9
100
AcDbLine
 10
-389.4461554449957
 20
535.0675593195735
 30
0.0
 11
-200.4113480851457
 21
535.0675593195735
 31
0.0
  0
LINE
  5
409
330
1F
100
AcDbEntity
  8
A-5_仕様文
  6
Continuous
 62
     7
370
     9
100
AcDbLine
 10
527.7973071948904
 20
438.0675609691724
 30
0.0
 11
583.8003622519005
 21
535.0675593195735
 31
0.0
  0
LINE
  5
40A
330
1F
100
AcDbEntity
  8
A-5_仕様文
  6
Continuous
 62
     7
370
     9
100
AcDbLine
 10
583.8003622519005
 20
535.0675593195735
 30
0.0
 11
875.6740673168287
 21
535.0675593195735
 31
0.0
  0
LINE
  5
40B
330
1F
100
AcDbEntity
  8
A-5_仕様文
  6
Continuous
 62
     7
370
     9
100
AcDbLine
 10
-389.4461554449957
 20
535.0675593195735
 30
0.0
 11
-429.8392837112015
 21
383.0672557933912
 31
0.0
  0
LINE
  5
40C
330
1F
100
AcDbEntity
  8
A-5_仕様文
  6
Continuous
 62
     7
370
     9
100
AcDbLine
 10
-423.2620239257812
 20
575.0675675675677
 30
0.0
 11
-463.0430479307432
 21
445.067509831609
 31
0.0
  0
LINE
  5
40D
330
1F
100
AcDbEntity
  8
A-5_仕様文
  6
Continuous
 62
     7
370
     9
100
AcDbLine
 10
-463.0430479307432
 20
445.067509831609
 30
0.0
 11
-460.9768016918285
 21
457.395580394848
 31
0.0
  0
LINE
  5
40E
330
1F
100
AcDbEntity
  8
A-5_仕様文
  6
Continuous
 62
     7
370
     9
100
AcDbLine
 10
-463.0430479307432
 20
445.067509831609
 30
0.0
 11
-457.8564618084881
 21
456.4407101192991
 31
0.0
  0
TEXT
  5
40F
330
1F
100
AcDbEntity
  8
A-5_仕様文
  6
Continuous
 62
     7
370
     9
100
AcDbText
 10
-384.4700251398859
 20
543.1718402264571
 30
0.0
 40
11.43
  1
クロスバー φ６ ＠100
 41
1.158730158730159
  7
ＭＳ ゴシック
100
AcDbText
  0
TEXT
  5
410
330
1F
100
AcDbEntity
  8
A-5_仕様文
  6
Continuous
 62
     7
370
     9
100
AcDbText
 10
592.9863429713895
 20
545.6570020850929
 30
0.0
 40
11.43
  1
かさ上げ材：□８０×４０×３．２
 41
1.15625
  7
ＭＳ ゴシック
100
AcDbText
  0
TEXT
  5
411
330
1F
100
AcDbEntity
  8
A-5_仕様文
  6
Continuous
 62
     7
370
     9
100
AcDbText
 10
666.8043105666703
 20
517.1093748680322
 30
0.0
 40
11.43
  1
（Ｌ＝９８５）
 41
1.142857142857143
  7
ＭＳ ゴシック
100
AcDbText
  0
TEXT
  5
412
330
1F
100
AcDbEntity
  8
A-5_仕様文
  6
Continuous
 62
     7
370
     9
100
AcDbText
 10
-350.6602086247624
 20
504.4181863650761
 30
0.0
 40
11.43
  1
メインバー Ⅰ－３８ ＠15
 41
1.159722222222222
  7
ＭＳ ゴシック
100
AcDbText
  0
LINE
  5
413
330
1F
100
AcDbEntity
  8
A-5_仕様文
  6
Continuous
 62
     7
370
     9
100
AcDbLine
 10
-354.6182580896325
 20
495.0675510715794
 30
0.0
 11
-141.9102086247624
 21
495.0675510715794
 31
0.0
  0
LINE
  5
414
330
1F
100
AcDbEntity
  8
A-5_仕様文
  6
Continuous
 62
     7
370
     9
100
AcDbLine
 10
-354.6182580896325
 20
495.0675510715794
 30
0.0
 11
-375.6756962956608
 21
426.2540936125867
 31
0.0
  0
LINE
  5
415
330
1F
100
AcDbEntity
  8
A-5_仕様文
  6
Continuous
 62
     7
370
     9
100
AcDbLine
 10
-375.6756962956608
 20
426.2540936125867
 30
0.0
 11
-373.6094798063356
 21
438.5821408796619
 31
0.0
  0
LINE
  5
416
330
1F
100
AcDbEntity
  8
A-5_仕様文
  6
Continuous
 62
     7
370
     9
100
AcDbLine
 10
-375.6756962956608
 20
426.2540936125867
 30
0.0
 11
-370.489151004274
 21
437.6272966768247
 31
0.0
  0
LINE
  5
417
330
1F
100
AcDbEntity
  8
A-5_仕様文
  6
Continuous
 62
     7
370
     9
100
AcDbLine
 10
-429.8392837112015
 20
383.0672557933912
 30
0.0
 11
-428.233225235905
 21
395.4636494695346
 31
0.0
  0
LINE
  5
418
330
1F
100
AcDbEntity
  8
A-5_仕様文
  6
Continuous
 62
     7
370
     9
100
AcDbLine
 10
-429.8392837112015
 20
383.0672557933912
 30
0.0
 11
-425.0795275774078
 21
394.6255740770695
 31
0.0
  0
LINE
  5
419
330
1F
100
AcDbEntity
  8
A-4_寸法
  6
Continuous
 62
     7
370
     9
100
AcDbLine
 10
397.2973385372677
 20
-84.93275410420182
 30
0.0
 11
397.2973385372677
 21
445.067509831609
 31
0.0
  0
LINE
  5
41A
330
1F
100
AcDbEntity
  8
A-4_寸法
  6
Continuous
 62
     7
370
     9
100
AcDbLine
 10
437.2973385372677
 20
-84.93275410420182
 30
0.0
 11
395.7973583324534
 21
-84.93275410420182
 31
0.0
  0
LINE
  5
41B
330
1F
100
AcDbEntity
  8
A-4_寸法
  6
Continuous
 62
     7
370
     9
100
AcDbLine
 10
437.2973385372677
 20
445.067509831609
 30
0.0
 11
395.7973583324534
 21
445.067509831609
 31
0.0
  0
TEXT
  5
41C
330
1F
100
AcDbEntity
  8
A-4_寸法
  6
Continuous
 62
     2
370
     9
100
AcDbText
 10
391.4773781276393
 20
163.8173778637036
 30
0.0
 40
15.24
  1
530
 50
90.0
 41
1.083333333333333
  7
ＭＳ ゴシック
100
AcDbText
  0
LWPOLYLINE
  5
41D
330
1F
100
AcDbEntity
  8
A-4_寸法
  6
Continuous
 62
     7
370
     9
100
AcDbPolyline
 90
        4
 70
     1
 43
1.0
 10
397.7973385372677
 20
-84.93275410420182
 42
0.4142135623731
 10
397.2973385372677
 20
-84.43275410420182
 42
0.4142135623731
 10
396.7973385372677
 20
-84.93275410420182
 42
0.4142135623731
 10
397.2973385372677
 20
-85.43275410420182
 42
0.4142135623731
  0
LWPOLYLINE
  5
41E
330
1F
100
AcDbEntity
  8
A-4_寸法
  6
Continuous
 62
     7
370
     9
100
AcDbPolyline
 90
        4
 70
     1
 43
1.0
 10
397.7973385372677
 20
445.067509831609
 42
0.4142135623731
 10
397.2973385372677
 20
445.567509831609
 42
0.4142135623731
 10
396.7973385372677
 20
445.067509831609
 42
0.4142135623731
 10
397.2973385372677
 20
444.567509831609
 42
0.4142135623731
  0
LINE
  5
41F
330
1F
100
AcDbEntity
  8
A-4_寸法
  6
Continuous
 62
     7
370
     9
100
AcDbLine
 10
497.7973319388727
 20
-84.93275410420182
 30
0.0
 11
612.8972976272169
 21
-84.93275410420182
 31
0.0
  0
LINE
  5
420
330
1F
100
AcDbEntity
  8
A-4_寸法
  6
Continuous
 62
     7
370
     9
100
AcDbLine
 10
571.3973174224029
 20
-77.93286710172083
 30
0.0
 11
612.8972976272169
 21
-77.93286710172083
 31
0.0
  0
LINE
  5
421
330
1F
100
AcDbEntity
  8
A-4_寸法
  6
Continuous
 62
     7
370
     9
100
AcDbLine
 10
571.3973174224029
 20
-37.93285885372669
 30
0.0
 11
612.8972976272169
 21
-37.93285885372669
 31
0.0
  0
LINE
  5
422
330
1F
100
AcDbEntity
  8
A-4_寸法
  6
Continuous
 62
     7
370
     9
100
AcDbLine
 10
571.3973174224029
 20
398.0675527211782
 30
0.0
 11
612.8972976272169
 21
398.0675527211782
 31
0.0
  0
LINE
  5
423
330
1F
100
AcDbEntity
  8
A-4_寸法
  6
Continuous
 62
     7
370
     9
100
AcDbLine
 10
571.3973174224029
 20
438.0676846890838
 30
0.0
 11
612.8972976272169
 21
438.0676846890838
 31
0.0
  0
LINE
  5
424
330
1F
100
AcDbEntity
  8
A-4_寸法
  6
Continuous
 62
     7
370
     9
100
AcDbLine
 10
497.7973319388727
 20
445.067509831609
 30
0.0
 11
612.8972976272169
 21
445.067509831609
 31
0.0
  0
LINE
  5
425
330
1F
100
AcDbEntity
  8
A-4_寸法
  6
Continuous
 62
     7
370
     9
100
AcDbLine
 10
611.3973174224029
 20
-114.3584215318834
 30
0.0
 11
611.3973174224029
 21
471.3433920370567
 31
0.0
  0
TEXT
  5
426
330
1F
100
AcDbEntity
  8
A-4_寸法
  6
Continuous
 62
     2
370
     9
100
AcDbText
 10
603.5773009264145
 20
-105.8238653234533
 30
0.0
 40
15.24
  1
7
 50
90.0
 41
0.9999999999999998
  7
ＭＳ ゴシック
100
AcDbText
  0
TEXT
  5
427
330
1F
100
AcDbEntity
  8
A-4_寸法
  6
Continuous
 62
     2
370
     9
100
AcDbText
 10
603.5773009264145
 20
-68.55786297772376
 30
0.0
 40
15.24
  1
40
 50
90.0
 41
1.0625
  7
ＭＳ ゴシック
100
AcDbText
  0
TEXT
  5
428
330
1F
100
AcDbEntity
  8
A-4_寸法
  6
Continuous
 62
     2
370
     9
100
AcDbText
 10
603.5773009264145
 20
407.4426805650867
 30
0.0
 40
15.24
  1
40
 50
90.0
 41
1.0625
  7
ＭＳ ゴシック
100
AcDbText
  0
TEXT
  5
429
330
1F
100
AcDbEntity
  8
A-4_寸法
  6
Continuous
 62
     2
370
     9
100
AcDbText
 10
603.5773009264145
 20
455.0736215952281
 30
0.0
 40
15.24
  1
7
 50
90.0
 41
0.9999999999999998
  7
ＭＳ ゴシック
100
AcDbText
  0
TEXT
  5
42A
330
1F
100
AcDbEntity
  8
A-4_寸法
  6
Continuous
 62
     2
370
     9
100
AcDbText
 10
605.5773570127744
 20
163.817316003748
 30
0.0
 40
15.24
  1
436
 50
90.0
 41
1.083333333333333
  7
ＭＳ ゴシック
100
AcDbText
  0
LWPOLYLINE
  5
42B
330
1F
100
AcDbEntity
  8
A-4_寸法
  6
Continuous
 62
     7
370
     9
100
AcDbPolyline
 90
        4
 70
     1
 43
1.0
 10
611.8973174224028
 20
-84.93275410420182
 42
0.4142135623731
 10
611.3973174224029
 20
-84.43275410420182
 42
0.4142135623731
 10
610.8973174224029
 20
-84.93275410420182
 42
0.4142135623731
 10
611.3973174224029
 20
-85.43275410420182
 42
0.4142135623731
  0
LWPOLYLINE
  5
42C
330
1F
100
AcDbEntity
  8
A-4_寸法
  6
Continuous
 62
     7
370
     9
100
AcDbPolyline
 90
        4
 70
     1
 43
1.0
 10
611.8973174224028
 20
-77.93286710172083
 42
0.4142135623731
 10
611.3973174224029
 20
-77.43286710172083
 42
0.4142135623731
 10
610.8973174224029
 20
-77.93286710172083
 42
0.4142135623731
 10
611.3973174224029
 20
-78.43286710172083
 42
0.4142135623731
  0
LWPOLYLINE
  5
42D
330
1F
100
AcDbEntity
  8
A-4_寸法
  6
Continuous
 62
     7
370
     9
100
AcDbPolyline
 90
        4
 70
     1
 43
1.0
 10
611.8973174224028
 20
-37.93285885372669
 42
0.4142135623731
 10
611.3973174224029
 20
-37.43285885372669
 42
0.4142135623731
 10
610.8973174224029
 20
-37.93285885372669
 42
0.4142135623731
 10
611.3973174224029
 20
-38.43285885372669
 42
0.4142135623731
  0
LWPOLYLINE
  5
42E
330
1F
100
AcDbEntity
  8
A-4_寸法
  6
Continuous
 62
     7
370
     9
100
AcDbPolyline
 90
        4
 70
     1
 43
1.0
 10
611.8973174224028
 20
398.0675527211782
 42
0.4142135623731
 10
611.3973174224029
 20
398.5675527211782
 42
0.4142135623731
 10
610.8973174224029
 20
398.0675527211782
 42
0.4142135623731
 10
611.3973174224029
 20
397.5675527211783
 42
0.4142135623731
  0
LWPOLYLINE
  5
42F
330
1F
100
AcDbEntity
  8
A-4_寸法
  6
Continuous
 62
     7
370
     9
100
AcDbPolyline
 90
        4
 70
     1
 43
1.0
 10
611.8973174224028
 20
438.0676846890838
 42
0.4142135623731
 10
611.3973174224029
 20
438.5676846890837
 42
0.4142135623731
 10
610.8973174224029
 20
438.0676846890838
 42
0.4142135623731
 10
611.3973174224029
 20
437.5676846890838
 42
0.4142135623731
  0
LWPOLYLINE
  5
430
330
1F
100
AcDbEntity
  8
A-4_寸法
  6
Continuous
 62
     7
370
     9
100
AcDbPolyline
 90
        4
 70
     1
 43
1.0
 10
611.8973174224028
 20
445.067509831609
 42
0.4142135623731
 10
611.3973174224029
 20
445.567509831609
 42
0.4142135623731
 10
610.8973174224029
 20
445.067509831609
 42
0.4142135623731
 10
611.3973174224029
 20
444.567509831609
 42
0.4142135623731
  0
TEXT
  5
431
330
1F
100
AcDbEntity
  8
A-5_仕様文
  6
Continuous
 62
     7
370
     9
100
AcDbText
 10
-416.9521826666755
 20
583.8958573954815
 30
0.0
 40
11.43
  1
エンドプレート ＦＢ4.5×32
 41
1.16025641025641
  7
ＭＳ ゴシック
100
AcDbText
  0
TEXT
  5
432
330
1F
100
AcDbEntity
  8
F-5ﾚｲﾔ
  6
Continuous
 62
     3
370
     9
100
AcDbText
 10
258.0707446948904
 20
-317.423775007918
 30
0.0
 40
19.05
  1
※適用荷重：Ｔ－１４
 41
1.09
  7
ＭＳ ゴシック
100
AcDbText
  0
ENDSEC
  0
SECTION
  2
OBJECTS
  0
DICTIONARY
  5
C
330
0
100
AcDbDictionary
281
     1
  3
ACAD_DETAILVIEWSTYLE
350
478
  3
ACAD_GROUP
350
D
  3
ACAD_LAYOUT
350
1A
  3
ACAD_MATERIAL
350
43
  3
ACAD_MLEADERSTYLE
350
6B
  3
ACAD_MLINESTYLE
350
17
  3
ACAD_PLOTSETTINGS
350
19
  3
ACAD_PLOTSTYLENAME
350
E
  3
ACAD_SCALELIST
350
47
  3
ACAD_SECTIONVIEWSTYLE
350
479
  3
ACAD_TABLESTYLE
350
69
  3
ACAD_VISUALSTYLE
350
2A
  3
ACDB_RECOMPOSE_DATA
350
475
  3
AcDbVariableDictionary
350
435
  0
DICTIONARY
  5
433
330
8
100
AcDbDictionary
280
     1
281
     1
  3
ACAD_XREC_ROUNDTRIP
360
434
  0
DICTIONARY
  5
478
102
{ACAD_REACTORS
330
C
102
}
330
C
100
AcDbDictionary
281
     1
  0
DICTIONARY
  5
D
102
{ACAD_REACTORS
330
C
102
}
330
C
100
AcDbDictionary
281
     1
  0
DICTIONARY
  5
1A
102
{ACAD_REACTORS
330
C
102
}
330
C
100
AcDbDictionary
281
     1
  3
Layout1
350
1E
  3
Layout2
350
26
  3
Model
350
22
  0
DICTIONARY
  5
43
102
{ACAD_REACTORS
330
C
102
}
330
C
100
AcDbDictionary
281
     1
  3
ByBlock
350
45
  3
ByLayer
350
44
  3
Global
350
46
  0
DICTIONARY
  5
6B
102
{ACAD_REACTORS
330
C
102
}
330
C
100
AcDbDictionary
281
     1
  3
Standard
350
6C
  0
DICTIONARY
  5
17
102
{ACAD_REACTORS
330
C
102
}
330
C
100
AcDbDictionary
281
     1
  3
Standard
350
18
  0
DICTIONARY
  5
19
102
{ACAD_REACTORS
330
C
102
}
330
C
100
AcDbDictionary
281
     1
  0
ACDBDICTIONARYWDFLT
  5
E
102
{ACAD_REACTORS
330
C
102
}
330
C
100
AcDbDictionary
281
     1
  3
Normal
350
F
100
AcDbDictionaryWithDefault
340
F
  0
DICTIONARY
  5
47
102
{ACAD_REACTORS
330
C
102
}
330
C
100
AcDbDictionary
281
     1
  3
A0
350
48
  3
A1
350
49
  3
A2
350
4A
  3
A3
350
4B
  3
A4
350
4C
  3
A5
350
4D
  3
A6
350
4E
  3
A7
350
4F
  3
A8
350
50
  3
A9
350
51
  3
B0
350
52
  3
B1
350
53
  3
B2
350
54
  3
B3
350
55
  3
B4
350
56
  3
B5
350
57
  3
B6
350
58
  3
B7
350
59
  3
B8
350
5A
  3
B9
350
5B
  3
C0
350
5C
  3
C1
350
5D
  3
C2
350
5E
  3
C3
350
5F
  3
C4
350
60
  3
C5
350
61
  3
C6
350
62
  3
C7
350
63
  3
C8
350
64
  3
C9
350
65
  3
D0
350
66
  3
D1
350
67
  3
D2
350
68
  0
DICTIONARY
  5
479
102
{ACAD_REACTORS
330
C
102
}
330
C
100
AcDbDictionary
281
     1
  0
DICTIONARY
  5
69
102
{ACAD_REACTORS
330
C
102
}
330
C
100
AcDbDictionary
281
     1
  3
Standard
350
6A
  0
DICTIONARY
  5
2A
102
{ACAD_REACTORS
330
C
102
}
330
C
100
AcDbDictionary
281
     1
  3
2dWireframe
350
2F
  3
Basic
350
32
  3
Brighten
350
36
  3
ColorChange
350
3A
  3
Conceptual
350
34
  3
Dim
350
35
  3
EdgeColorOff
350
3D
  3
Facepattern
350
39
  3
Flat
350
2B
  3
FlatWithEdges
350
2C
  3
Gouraud
350
2D
  3
GouraudWithEdges
350
2E
  3
Hidden
350
31
  3
JitterOff
350
3B
  3
Linepattern
350
38
  3
OverhangOff
350
3C
  3
Realistic
350
33
  3
Shaded
350
42
  3
Shaded with edges
350
41
  3
Shades of Gray
350
3E
  3
Sketchy
350
3F
  3
Thicken
350
37
  3
Wireframe
350
30
  3
X-Ray
350
40
  0
XRECORD
  5
475
102
{ACAD_REACTORS
330
C
102
}
330
C
100
AcDbXrecord
280
     1
 90
        1
330
6A
  0
DICTIONARY
  5
435
102
{ACAD_REACTORS
330
C
102
}
330
C
100
AcDbDictionary
281
     1
  3
CANNOSCALE
350
436
  3
CENTEREXE
350
47A
  3
CENTERLTYPEFILE
350
47B
  3
CMLEADERSTYLE
350
477
  3
CTABLESTYLE
350
476
  3
MSLTSCALE
350
437
  3
XCLIPFRAME
350
438
  0
XRECORD
  5
434
102
{ACAD_REACTORS
330
433
102
}
330
433
100
AcDbXrecord
280
     1
102
VTR_0.000_0.000_1.000_1.000_VISUALSTYLE
340
2F
102
VTR_0.000_0.000_1.000_1.000_GRIDDISPLAY
 70
     3
102
VTR_0.000_0.000_1.000_1.000_GRIDMAJOR
 70
     5
102
VTR_0.000_0.000_1.000_1.000_DEFAULTLIGHTING
280
     1
102
VTR_0.000_0.000_1.000_1.000_DEFAULTLIGHTINGTYPE
 70
     1
102
VTR_0.000_0.000_1.000_1.000_BRIGHTNESS
141
0.0
102
VTR_0.000_0.000_1.000_1.000_CONTRAST
142
0.0
  0
LAYOUT
  5
1E
102
{ACAD_REACTORS
330
1A
102
}
330
1A
100
AcDbPlotSettings
  1

  2
none_device
  4

  6

 40
0.0
 41
0.0
 42
0.0
 43
0.0
 44
0.0
 45
0.0
 46
0.0
 47
0.0
 48
0.0
 49
0.0
140
0.0
141
0.0
142
1.0
143
1.0
 70
   688
 72
     1
 73
     0
 74
     5
  7

 75
    16
 76
     0
 77
     5
 78
   300
147
1.0
148
0.0
149
0.0
100
AcDbLayout
  1
Layout1
 70
     1
 71
     1
 10
0.0
 20
0.0
 11
420.0
 21
297.0
 12
0.0
 22
0.0
 32
0.0
 14
1.000000000000000E+20
 24
1.000000000000000E+20
 34
1.000000000000000E+20
 15
-1.000000000000000E+20
 25
-1.000000000000000E+20
 35
-1.000000000000000E+20
146
0.0
 13
0.0
 23
0.0
 33
0.0
 16
1.0
 26
0.0
 36
0.0
 17
0.0
 27
1.0
 37
0.0
 76
     0
330
1B
  0
LAYOUT
  5
26
102
{ACAD_REACTORS
330
1A
102
}
330
1A
100
AcDbPlotSettings
  1

  2
none_device
  4

  6

 40
0.0
 41
0.0
 42
0.0
 43
0.0
 44
0.0
 45
0.0
 46
0.0
 47
0.0
 48
0.0
 49
0.0
140
0.0
141
0.0
142
1.0
143
1.0
 70
   688
 72
     1
 73
     0
 74
     5
  7

 75
    16
 76
     0
 77
     5
 78
   300
147
1.0
148
0.0
149
0.0
100
AcDbLayout
  1
Layout2
 70
     1
 71
     2
 10
0.0
 20
0.0
 11
0.0
 21
0.0
 12
0.0
 22
0.0
 32
0.0
 14
0.0
 24
0.0
 34
0.0
 15
0.0
 25
0.0
 35
0.0
146
0.0
 13
0.0
 23
0.0
 33
0.0
 16
1.0
 26
0.0
 36
0.0
 17
0.0
 27
1.0
 37
0.0
 76
     0
330
23
  0
LAYOUT
  5
22
102
{ACAD_REACTORS
330
1A
102
}
330
1A
100
AcDbPlotSettings
  1

  2
none_device
  4
Letter_(8.50_x_11.00_Inches)
  6

 40
6.35
 41
6.35
 42
6.35000508
 43
6.35000508
 44
215.9
 45
279.4
 46
0.0
 47
0.0
 48
0.0
 49
0.0
140
0.0
141
0.0
142
1.0
143
1.0
 70
  1712
 72
     1
 73
     0
 74
     0
  7

 75
     0
 76
     0
 77
     5
 78
   300
147
1.0
148
0.0
149
0.0
100
AcDbLayout
  1
Model
 70
     1
 71
     0
 10
-1050.0
 20
-742.5
 11
1050.0
 21
742.5
 12
0.0
 22
0.0
 32
0.0
 14
-1050.0
 24
-742.5
 34
0.0
 15
1050.0
 25
742.5
 35
0.0
146
0.0
 13
0.0
 23
0.0
 33
0.0
 16
1.0
 26
0.0
 36
0.0
 17
0.0
 27
1.0
 37
0.0
 76
     0
330
1F
331
29
  0
MATERIAL
  5
45
102
{ACAD_REACTORS
330
43
102
}
102
{ACAD_XDICTIONARY
360
46B
102
}
330
43
100
AcDbMaterial
  1
ByBlock
  0
MATERIAL
  5
44
102
{ACAD_REACTORS
330
43
102
}
102
{ACAD_XDICTIONARY
360
469
102
}
330
43
100
AcDbMaterial
  1
ByLayer
  0
MATERIAL
  5
46
102
{ACAD_REACTORS
330
43
102
}
102
{ACAD_XDICTIONARY
360
46D
102
}
330
43
100
AcDbMaterial
  1
Global
  0
MLEADERSTYLE
  5
6C
102
{ACAD_REACTORS
330
6B
102
}
102
{ACAD_XDICTIONARY
360
473
102
}
330
6B
100
AcDbMLeaderStyle
170
     2
171
     1
172
     0
 90
        2
 40
0.0
 41
0.0
173
     1
 91
-1056964608
340
14
 92
       -2
290
     1
 42
2.0
291
     1
 43
8.0
  3
Standard
341
0
 44
4.0
300

342
11
174
     1
178
     6
175
     1
176
     0
 93
-1056964608
 45
4.0
292
     0
297
     0
 46
4.0
343
0
 94
-1056964608
 47
1.0
 49
1.0
140
1.0
293
     1
141
0.0
294
     1
177
     0
142
1.0
295
     0
296
     0
143
3.75
1001
ACAD_MLEADERVER
1070
     2
  0
MLINESTYLE
  5
18
102
{ACAD_REACTORS
330
17
102
}
330
17
100
AcDbMlineStyle
  2
Standard
 70
     0
  3

 62
   256
 51
90.0
 52
90.0
 71
     2
 49
0.5
 62
   256
  6
BYLAYER
 49
-0.5
 62
   256
  6
BYLAYER
  0
ACDBPLACEHOLDER
  5
F
102
{ACAD_REACTORS
330
E
102
}
330
E
  0
SCALE
  5
48
102
{ACAD_REACTORS
330
47
102
}
330
47
100
AcDbScale
 70
     0
300
1:1
140
1.0
141
1.0
290
     1
  0
SCALE
  5
49
102
{ACAD_REACTORS
330
47
102
}
330
47
100
AcDbScale
 70
     0
300
1:2
140
1.0
141
2.0
290
     0
  0
SCALE
  5
4A
102
{ACAD_REACTORS
330
47
102
}
330
47
100
AcDbScale
 70
     0
300
1:4
140
1.0
141
4.0
290
     0
  0
SCALE
  5
4B
102
{ACAD_REACTORS
330
47
102
}
330
47
100
AcDbScale
 70
     0
300
1:5
140
1.0
141
5.0
290
     0
  0
SCALE
  5
4C
102
{ACAD_REACTORS
330
47
102
}
330
47
100
AcDbScale
 70
     0
300
1:8
140
1.0
141
8.0
290
     0
  0
SCALE
  5
4D
102
{ACAD_REACTORS
330
47
102
}
330
47
100
AcDbScale
 70
     0
300
1:10
140
1.0
141
10.0
290
     0
  0
SCALE
  5
4E
102
{ACAD_REACTORS
330
47
102
}
330
47
100
AcDbScale
 70
     0
300
1:16
140
1.0
141
16.0
290
     0
  0
SCALE
  5
4F
102
{ACAD_REACTORS
330
47
102
}
330
47
100
AcDbScale
 70
     0
300
1:20
140
1.0
141
20.0
290
     0
  0
SCALE
  5
50
102
{ACAD_REACTORS
330
47
102
}
330
47
100
AcDbScale
 70
     0
300
1:30
140
1.0
141
30.0
290
     0
  0
SCALE
  5
51
102
{ACAD_REACTORS
330
47
102
}
330
47
100
AcDbScale
 70
     0
300
1:40
140
1.0
141
40.0
290
     0
  0
SCALE
  5
52
102
{ACAD_REACTORS
330
47
102
}
330
47
100
AcDbScale
 70
     0
300
1:50
140
1.0
141
50.0
290
     0
  0
SCALE
  5
53
102
{ACAD_REACTORS
330
47
102
}
330
47
100
AcDbScale
 70
     0
300
1:100
140
1.0
141
100.0
290
     0
  0
SCALE
  5
54
102
{ACAD_REACTORS
330
47
102
}
330
47
100
AcDbScale
 70
     0
300
2:1
140
2.0
141
1.0
290
     0
  0
SCALE
  5
55
102
{ACAD_REACTORS
330
47
102
}
330
47
100
AcDbScale
 70
     0
300
4:1
140
4.0
141
1.0
290
     0
  0
SCALE
  5
56
102
{ACAD_REACTORS
330
47
102
}
330
47
100
AcDbScale
 70
     0
300
8:1
140
8.0
141
1.0
290
     0
  0
SCALE
  5
57
102
{ACAD_REACTORS
330
47
102
}
330
47
100
AcDbScale
 70
     0
300
10:1
140
10.0
141
1.0
290
     0
  0
SCALE
  5
58
102
{ACAD_REACTORS
330
47
102
}
330
47
100
AcDbScale
 70
     0
300
100:1
140
100.0
141
1.0
290
     0
  0
SCALE
  5
59
102
{ACAD_REACTORS
330
47
102
}
330
47
100
AcDbScale
 70
     0
300
1/128" = 1'-0"
140
0.0078125
141
12.0
290
     0
  0
SCALE
  5
5A
102
{ACAD_REACTORS
330
47
102
}
330
47
100
AcDbScale
 70
     0
300
1/64" = 1'-0"
140
0.015625
141
12.0
290
     0
  0
SCALE
  5
5B
102
{ACAD_REACTORS
330
47
102
}
330
47
100
AcDbScale
 70
     0
300
1/32" = 1'-0"
140
0.03125
141
12.0
290
     0
  0
SCALE
  5
5C
102
{ACAD_REACTORS
330
47
102
}
330
47
100
AcDbScale
 70
     0
300
1/16" = 1'-0"
140
0.0625
141
12.0
290
     0
  0
SCALE
  5
5D
102
{ACAD_REACTORS
330
47
102
}
330
47
100
AcDbScale
 70
     0
300
3/32" = 1'-0"
140
0.09375
141
12.0
290
     0
  0
SCALE
  5
5E
102
{ACAD_REACTORS
330
47
102
}
330
47
100
AcDbScale
 70
     0
300
1/8" = 1'-0"
140
0.125
141
12.0
290
     0
  0
SCALE
  5
5F
102
{ACAD_REACTORS
330
47
102
}
330
47
100
AcDbScale
 70
     0
300
3/16" = 1'-0"
140
0.1875
141
12.0
290
     0
  0
SCALE
  5
60
102
{ACAD_REACTORS
330
47
102
}
330
47
100
AcDbScale
 70
     0
300
1/4" = 1'-0"
140
0.25
141
12.0
290
     0
  0
SCALE
  5
61
102
{ACAD_REACTORS
330
47
102
}
330
47
100
AcDbScale
 70
     0
300
3/8" = 1'-0"
140
0.375
141
12.0
290
     0
  0
SCALE
  5
62
102
{ACAD_REACTORS
330
47
102
}
330
47
100
AcDbScale
 70
     0
300
1/2" = 1'-0"
140
0.5
141
12.0
290
     0
  0
SCALE
  5
63
102
{ACAD_REACTORS
330
47
102
}
330
47
100
AcDbScale
 70
     0
300
3/4" = 1'-0"
140
0.75
141
12.0
290
     0
  0
SCALE
  5
64
102
{ACAD_REACTORS
330
47
102
}
330
47
100
AcDbScale
 70
     0
300
1" = 1'-0"
140
1.0
141
12.0
290
     0
  0
SCALE
  5
65
102
{ACAD_REACTORS
330
47
102
}
330
47
100
AcDbScale
 70
     0
300
1-1/2" = 1'-0"
140
1.5
141
12.0
290
     0
  0
SCALE
  5
66
102
{ACAD_REACTORS
330
47
102
}
330
47
100
AcDbScale
 70
     0
300
3" = 1'-0"
140
3.0
141
12.0
290
     0
  0
SCALE
  5
67
102
{ACAD_REACTORS
330
47
102
}
330
47
100
AcDbScale
 70
     0
300
6" = 1'-0"
140
6.0
141
12.0
290
     0
  0
SCALE
  5
68
102
{ACAD_REACTORS
330
47
102
}
330
47
100
AcDbScale
 70
     0
300
1'-0" = 1'-0"
140
12.0
141
12.0
290
     0
  0
TABLESTYLE
  5
6A
102
{ACAD_REACTORS
330
69
102
}
102
{ACAD_XDICTIONARY
360
46F
102
}
330
69
100
AcDbTableStyle
  3
Standard
 70
     0
 71
     0
 40
0.06
 41
0.06
280
     0
281
     0
  7
Standard
140
4.5
170
     2
 62
     0
 63
   257
283
     0
274
    -2
284
     1
 64
     0
275
    -2
285
     1
 65
     0
276
    -2
286
     1
 66
     0
277
    -2
287
     1
 67
     0
278
    -2
288
     1
 68
     0
279
    -2
289
     1
 69
     0
  7
Standard
140
6.0
170
     5
 62
     0
 63
   257
283
     0
274
    -2
284
     1
 64
     0
275
    -2
285
     1
 65
     0
276
    -2
286
     1
 66
     0
277
    -2
287
     1
 67
     0
278
    -2
288
     1
 68
     0
279
    -2
289
     1
 69
     0
  7
Standard
140
4.5
170
     5
 62
     0
 63
   257
283
     0
274
    -2
284
     1
 64
     0
275
    -2
285
     1
 65
     0
276
    -2
286
     1
 66
     0
277
    -2
287
     1
 67
     0
278
    -2
288
     1
 68
     0
279
    -2
289
     1
 69
     0
  0
VISUALSTYLE
  5
2F
102
{ACAD_REACTORS
330
2A
102
}
102
{ACAD_XDICTIONARY
360
441
102
}
330
2A
100
AcDbVisualStyle
  2
2dWireframe
 70
     4
 71
     0
 72
     2
 73
     0
 90
        0
 40
0.6
 41
30.0
 62
     5
 63
     7
421
 16777215
 74
     1
 91
        4
 64
     7
 65
   257
 75
     1
175
     1
 42
1.0
 92
        0
 66
   257
 43
1.0
 76
     1
 77
     6
 78
     2
 67
     7
 79
     5
170
     0
171
     0
290
     0
174
     0
 93
        1
 44
0.0
173
     0
291
     0
 45
0.0
1001
ACAD
1000
AcDbSavedByObjectVersion
1070
     0
  0
VISUALSTYLE
  5
32
102
{ACAD_REACTORS
330
2A
102
}
102
{ACAD_XDICTIONARY
360
447
102
}
330
2A
100
AcDbVisualStyle
  2
Basic
 70
     7
 71
     1
 72
     0
 73
     1
 90
        0
 40
0.6
 41
30.0
 62
     5
 63
     7
421
 16777215
 74
     0
 91
        4
 64
     7
 65
   257
 75
     1
175
     1
 42
1.0
 92
        8
 66
     7
 43
1.0
 76
     1
 77
     6
 78
     2
 67
     7
 79
     5
170
     0
171
     0
290
     0
174
     0
 93
        1
 44
0.0
173
     0
291
     1
 45
0.0
1001
ACAD
1000
AcDbSavedByObjectVersion
1070
     0
  0
VISUALSTYLE
  5
36
102
{ACAD_REACTORS
330
2A
102
}
102
{ACAD_XDICTIONARY
360
44F
102
}
330
2A
100
AcDbVisualStyle
  2
Brighten
 70
    12
 71
     2
 72
     2
 73
     0
 90
        0
 40
0.6
 41
30.0
 62
     5
 63
     7
421
 16777215
 74
     1
 91
        4
 64
     7
 65
   257
 75
     1
175
     1
 42
1.0
 92
        8
 66
     7
 43
1.0
 76
     1
 77
     6
 78
     2
 67
     7
 79
     5
170
     0
171
     0
290
     0
174
     0
 93
        1
 44
50.0
173
     0
291
     1
 45
0.0
1001
ACAD
1000
AcDbSavedByObjectVersion
1070
     0
  0
VISUALSTYLE
  5
3A
102
{ACAD_REACTORS
330
2A
102
}
102
{ACAD_XDICTIONARY
360
457
102
}
330
2A
100
AcDbVisualStyle
  2
ColorChange
 70
    16
 71
     2
 72
     2
 73
     3
 90
        0
 40
0.6
 41
30.0
 62
     5
 63
     8
421
  8421504
 74
     1
 91
        4
 64
     7
 65
   257
 75
     1
175
     1
 42
1.0
 92
        8
 66
     8
424
  8421504
 43
1.0
 76
     1
 77
     6
 78
     2
 67
     7
 79
     5
170
     0
171
     0
290
     0
174
     0
 93
        1
 44
0.0
173
     0
291
     1
 45
0.0
1001
ACAD
1000
AcDbSavedByObjectVersion
1070
     0
  0
VISUALSTYLE
  5
34
102
{ACAD_REACTORS
330
2A
102
}
102
{ACAD_XDICTIONARY
360
44B
102
}
330
2A
100
AcDbVisualStyle
  2
Conceptual
 70
     9
 71
     3
 72
     2
 73
     0
 90
        0
 40
0.6
 41
30.0
 62
     5
 63
     7
421
 16777215
 74
     2
 91
        2
 64
     7
 65
   257
 75
     1
175
     1
 42
179.0
 92
        8
 66
     7
 43
1.0
 76
     1
 77
     6
 78
     2
 67
     7
 79
     3
170
     0
171
     0
290
     0
174
     0
 93
        1
 44
0.0
173
     0
291
     0
 45
0.0
1001
ACAD
1000
AcDbSavedByObjectVersion
1070
     0
  0
VISUALSTYLE
  5
35
102
{ACAD_REACTORS
330
2A
102
}
102
{ACAD_XDICTIONARY
360
44D
102
}
330
2A
100
AcDbVisualStyle
  2
Dim
 70
    11
 71
     2
 72
     2
 73
     0
 90
        0
 40
0.6
 41
30.0
 62
     5
 63
     7
421
 16777215
 74
     1
 91
        4
 64
     7
 65
   257
 75
     1
175
     1
 42
1.0
 92
        8
 66
     7
 43
1.0
 76
     1
 77
     6
 78
     2
 67
     7
 79
     5
170
     0
171
     0
290
     0
174
     0
 93
        1
 44
-50.0
173
     0
291
     1
 45
0.0
1001
ACAD
1000
AcDbSavedByObjectVersion
1070
     0
  0
VISUALSTYLE
  5
3D
102
{ACAD_REACTORS
330
2A
102
}
102
{ACAD_XDICTIONARY
360
45D
102
}
330
2A
100
AcDbVisualStyle
  2
EdgeColorOff
 70
    22
 71
     2
 72
     2
 73
     0
 90
        0
 40
0.6
 41
30.0
 62
     5
 63
     7
421
 16777215
 74
     1
 91
        4
 64
     7
 65
   257
 75
     1
175
     1
 42
1.0
 92
        8
 66
     7
 43
1.0
 76
     1
 77
     6
 78
     2
 67
     7
 79
     5
170
     0
171
     0
290
     0
174
     0
 93
        1
 44
0.0
173
     0
291
     1
 45
0.0
1001
ACAD
1000
AcDbSavedByObjectVersion
1070
     0
  0
VISUALSTYLE
  5
39
102
{ACAD_REACTORS
330
2A
102
}
102
{ACAD_XDICTIONARY
360
455
102
}
330
2A
100
AcDbVisualStyle
  2
Facepattern
 70
    15
 71
     2
 72
     2
 73
     0
 90
        0
 40
0.6
 41
30.0
 62
     5
 63
     7
421
 16777215
 74
     1
 91
        4
 64
     7
 65
   257
 75
     1
175
     1
 42
1.0
 92
        8
 66
     7
 43
1.0
 76
     1
 77
     6
 78
     2
 67
     7
 79
     5
170
     0
171
     0
290
     0
174
     0
 93
        1
 44
0.0
173
     0
291
     1
 45
0.0
1001
ACAD
1000
AcDbSavedByObjectVersion
1070
     0
  0
VISUALSTYLE
  5
2B
102
{ACAD_REACTORS
330
2A
102
}
102
{ACAD_XDICTIONARY
360
439
102
}
330
2A
100
AcDbVisualStyle
  2
Flat
 70
     0
 71
     2
 72
     1
 73
     1
 90
        2
 40
0.6
 41
30.0
 62
     5
 63
     7
421
 16777215
 74
     0
 91
        0
 64
     7
 65
   257
 75
     1
175
     1
 42
1.0
 92
        8
 66
     7
 43
1.0
 76
     1
 77
     6
 78
     2
 67
     7
 79
     5
170
     0
171
     0
290
     0
174
     0
 93
       13
 44
0.0
173
     0
291
     1
 45
0.0
1001
ACAD
1000
AcDbSavedByObjectVersion
1070
     0
  0
VISUALSTYLE
  5
2C
102
{ACAD_REACTORS
330
2A
102
}
102
{ACAD_XDICTIONARY
360
43B
102
}
330
2A
100
AcDbVisualStyle
  2
FlatWithEdges
 70
     1
 71
     2
 72
     1
 73
     1
 90
        2
 40
0.6
 41
30.0
 62
     5
 63
     7
421
 16777215
 74
     1
 91
        0
 64
     7
 65
   257
 75
     1
175
     1
 42
1.0
 92
        0
 66
   257
 43
1.0
 76
     1
 77
     6
 78
     2
 67
     7
 79
     5
170
     0
171
     0
290
     0
174
     0
 93
       13
 44
0.0
173
     0
291
     1
 45
0.0
1001
ACAD
1000
AcDbSavedByObjectVersion
1070
     0
  0
VISUALSTYLE
  5
2D
102
{ACAD_REACTORS
330
2A
102
}
102
{ACAD_XDICTIONARY
360
43D
102
}
330
2A
100
AcDbVisualStyle
  2
Gouraud
 70
     2
 71
     2
 72
     2
 73
     1
 90
        2
 40
0.6
 41
30.0
 62
     5
 63
     7
421
 16777215
 74
     0
 91
        0
 64
     7
 65
   257
 75
     1
175
     1
 42
1.0
 92
        0
 66
     7
 43
1.0
 76
     1
 77
     6
 78
     2
 67
     7
 79
     5
170
     0
171
     0
290
     0
174
     0
 93
       13
 44
0.0
173
     0
291
     1
 45
0.0
1001
ACAD
1000
AcDbSavedByObjectVersion
1070
     0
  0
VISUALSTYLE
  5
2E
102
{ACAD_REACTORS
330
2A
102
}
102
{ACAD_XDICTIONARY
360
43F
102
}
330
2A
100
AcDbVisualStyle
  2
GouraudWithEdges
 70
     3
 71
     2
 72
     2
 73
     1
 90
        2
 40
0.6
 41
30.0
 62
     5
 63
     7
421
 16777215
 74
     1
 91
        0
 64
     7
 65
   257
 75
     1
175
     1
 42
1.0
 92
        0
 66
   257
 43
1.0
 76
     1
 77
     6
 78
     2
 67
     7
 79
     5
170
     0
171
     0
290
     0
174
     0
 93
       13
 44
0.0
173
     0
291
     1
 45
0.0
1001
ACAD
1000
AcDbSavedByObjectVersion
1070
     0
  0
VISUALSTYLE
  5
31
102
{ACAD_REACTORS
330
2A
102
}
102
{ACAD_XDICTIONARY
360
445
102
}
330
2A
100
AcDbVisualStyle
  2
Hidden
 70
     6
 71
     1
 72
     2
 73
     2
 90
        0
 40
0.6
 41
30.0
 62
     5
 63
     7
421
 16777215
 74
     2
 91
        2
 64
     7
 65
   257
 75
     2
175
     1
 42
40.0
 92
        0
 66
   257
 43
1.0
 76
     1
 77
     6
 78
     2
 67
     7
 79
     3
170
     0
171
     0
290
     0
174
     0
 93
        1
 44
0.0
173
     0
291
     0
 45
0.0
1001
ACAD
1000
AcDbSavedByObjectVersion
1070
     0
  0
VISUALSTYLE
  5
3B
102
{ACAD_REACTORS
330
2A
102
}
102
{ACAD_XDICTIONARY
360
459
102
}
330
2A
100
AcDbVisualStyle
  2
JitterOff
 70
    20
 71
     2
 72
     2
 73
     0
 90
        0
 40
0.6
 41
30.0
 62
     5
 63
     7
421
 16777215
 74
     1
 91
        4
 64
     7
 65
   257
 75
     1
175
     1
 42
1.0
 92
       10
 66
     7
 43
1.0
 76
     1
 77
     6
 78
     2
 67
     7
 79
     5
170
     0
171
     0
290
     0
174
     0
 93
        1
 44
0.0
173
     0
291
     1
 45
0.0
1001
ACAD
1000
AcDbSavedByObjectVersion
1070
     0
  0
VISUALSTYLE
  5
38
102
{ACAD_REACTORS
330
2A
102
}
102
{ACAD_XDICTIONARY
360
453
102
}
330
2A
100
AcDbVisualStyle
  2
Linepattern
 70
    14
 71
     2
 72
     2
 73
     0
 90
        0
 40
0.6
 41
30.0
 62
     5
 63
     7
421
 16777215
 74
     1
 91
        4
 64
     7
 65
   257
 75
     7
175
     7
 42
1.0
 92
        8
 66
     7
 43
1.0
 76
     1
 77
     6
 78
     2
 67
     7
 79
     5
170
     0
171
     0
290
     0
174
     0
 93
        1
 44
0.0
173
     0
291
     1
 45
0.0
1001
ACAD
1000
AcDbSavedByObjectVersion
1070
     0
  0
VISUALSTYLE
  5
3C
102
{ACAD_REACTORS
330
2A
102
}
102
{ACAD_XDICTIONARY
360
45B
102
}
330
2A
100
AcDbVisualStyle
  2
OverhangOff
 70
    21
 71
     2
 72
     2
 73
     0
 90
        0
 40
0.6
 41
30.0
 62
     5
 63
     7
421
 16777215
 74
     1
 91
        4
 64
     7
 65
   257
 75
     1
175
     1
 42
1.0
 92
        9
 66
     7
 43
1.0
 76
     1
 77
     6
 78
     2
 67
     7
 79
     5
170
     0
171
     0
290
     0
174
     0
 93
        1
 44
0.0
173
     0
291
     1
 45
0.0
1001
ACAD
1000
AcDbSavedByObjectVersion
1070
     0
  0
VISUALSTYLE
  5
33
102
{ACAD_REACTORS
330
2A
102
}
102
{ACAD_XDICTIONARY
360
449
102
}
330
2A
100
AcDbVisualStyle
  2
Realistic
 70
     8
 71
     2
 72
     3
 73
     0
 90
        2
 40
0.6
 41
30.0
 62
     5
 63
     7
421
 16777215
 74
     0
 91
        0
 64
     7
 65
   257
 75
     1
175
     1
 42
1.0
 92
        8
 66
   257
 43
1.0
 76
     1
 77
     6
 78
     2
 67
     7
 79
     3
170
     0
171
     0
290
     0
174
     0
 93
       13
 44
0.0
173
     0
291
     0
 45
0.0
1001
ACAD
1000
AcDbSavedByObjectVersion
1070
     0
  0
VISUALSTYLE
  5
42
102
{ACAD_REACTORS
330
2A
102
}
102
{ACAD_XDICTIONARY
360
467
102
}
330
2A
100
AcDbVisualStyle
  2
Shaded
 70
    27
 71
     2
 72
     2
 73
     1
 90
        2
 40
0.6
 41
30.0
 62
     5
 63
     7
421
 16777215
 74
     0
 91
        4
 64
     7
 65
   257
 75
     1
175
     1
 42
1.0
 92
        8
 66
   257
 43
1.0
 76
     1
 77
     6
 78
     2
 67
     8
425
  7895160
 79
     3
170
     0
171
     0
290
     0
174
     0
 93
        5
 44
0.0
173
     0
291
     0
 45
0.0
1001
ACAD
1000
AcDbSavedByObjectVersion
1070
     0
  0
VISUALSTYLE
  5
41
102
{ACAD_REACTORS
330
2A
102
}
102
{ACAD_XDICTIONARY
360
465
102
}
330
2A
100
AcDbVisualStyle
  2
Shaded with edges
 70
    26
 71
     2
 72
     2
 73
     1
 90
        2
 40
0.6
 41
30.0
 62
     5
 63
     7
421
 16777215
 74
     1
 91
       10
 64
     7
 65
   257
 75
     2
175
     1
 42
1.0
 92
        8
 66
   257
 43
1.0
 76
     1
 77
     6
 78
     2
 67
     7
 79
     3
170
     0
171
     0
290
     0
174
     0
 93
        5
 44
0.0
173
     0
291
     0
 45
0.0
1001
ACAD
1000
AcDbSavedByObjectVersion
1070
     0
  0
VISUALSTYLE
  5
3E
102
{ACAD_REACTORS
330
2A
102
}
102
{ACAD_XDICTIONARY
360
45F
102
}
330
2A
100
AcDbVisualStyle
  2
Shades of Gray
 70
    23
 71
     2
 72
     2
 73
     3
 90
        0
 40
0.6
 41
30.0
 62
     5
 63
     7
421
 16777215
 74
     2
 91
        2
 64
     7
 65
     7
 75
     1
175
     1
 42
40.0
 92
        8
 66
     7
 43
1.0
 76
     1
 77
     6
 78
     2
 67
     7
 79
     3
170
     0
171
     0
290
     0
174
     0
 93
        1
 44
0.0
173
     0
291
     0
 45
0.0
1001
ACAD
1000
AcDbSavedByObjectVersion
1070
     0
  0
VISUALSTYLE
  5
3F
102
{ACAD_REACTORS
330
2A
102
}
102
{ACAD_XDICTIONARY
360
461
102
}
330
2A
100
AcDbVisualStyle
  2
Sketchy
 70
    24
 71
     1
 72
     2
 73
     2
 90
        0
 40
0.6
 41
30.0
 62
     5
 63
     7
421
 16777215
 74
     2
 91
        2
 64
     7
 65
     7
 75
     1
175
     1
 42
40.0
 92
       11
 66
     7
 43
1.0
 76
     1
 77
     6
 78
     2
 67
     7
 79
     6
170
     0
171
     0
290
     0
174
     0
 93
        1
 44
0.0
173
     0
291
     0
 45
0.0
1001
ACAD
1000
AcDbSavedByObjectVersion
1070
     0
  0
VISUALSTYLE
  5
37
102
{ACAD_REACTORS
330
2A
102
}
102
{ACAD_XDICTIONARY
360
451
102
}
330
2A
100
AcDbVisualStyle
  2
Thicken
 70
    13
 71
     2
 72
     2
 73
     0
 90
        0
 40
0.6
 41
30.0
 62
     5
 63
     7
421
 16777215
 74
     1
 91
        4
 64
     7
 65
   257
 75
     1
175
     1
 42
1.0
 92
       12
 66
     7
 43
1.0
 76
     1
 77
     6
 78
     2
 67
     7
 79
     5
170
     0
171
     0
290
     0
174
     0
 93
        1
 44
0.0
173
     0
291
     1
 45
0.0
1001
ACAD
1000
AcDbSavedByObjectVersion
1070
     0
  0
VISUALSTYLE
  5
30
102
{ACAD_REACTORS
330
2A
102
}
102
{ACAD_XDICTIONARY
360
443
102
}
330
2A
100
AcDbVisualStyle
  2
Wireframe
 70
     5
 71
     0
 72
     2
 73
     0
 90
        0
 40
0.6
 41
30.0
 62
     5
 63
     7
421
 16777215
 74
     1
 91
        4
 64
     7
 65
   257
 75
     1
175
     1
 42
1.0
 92
        0
 66
   257
 43
1.0
 76
     1
 77
     6
 78
     2
 67
     7
 79
     3
170
     0
171
     0
290
     0
174
     0
 93
        1
 44
0.0
173
     0
291
     0
 45
0.0
1001
ACAD
1000
AcDbSavedByObjectVersion
1070
     0
  0
VISUALSTYLE
  5
40
102
{ACAD_REACTORS
330
2A
102
}
102
{ACAD_XDICTIONARY
360
463
102
}
330
2A
100
AcDbVisualStyle
  2
X-Ray
 70
    25
 71
     2
 72
     2
 73
     1
 90
        1
 40
0.5
 41
30.0
 62
     5
 63
     7
421
 16777215
 74
     1
 91
        0
 64
     7
 65
   257
 75
     1
175
     1
 42
1.0
 92
        8
 66
     7
 43
1.0
 76
     1
 77
     6
 78
     2
 67
     7
 79
     3
170
     0
171
     0
290
     0
174
     0
 93
       13
 44
0.0
173
     0
291
     0
 45
0.0
1001
ACAD
1000
AcDbSavedByObjectVersion
1070
     0
  0
DICTIONARYVAR
  5
436
102
{ACAD_REACTORS
330
435
102
}
330
435
100
DictionaryVariables
280
     0
  1
1:1
  0
DICTIONARYVAR
  5
47A
102
{ACAD_REACTORS
330
435
102
}
330
435
100
DictionaryVariables
280
     0
  1
3.500000
  0
DICTIONARYVAR
  5
47B
102
{ACAD_REACTORS
330
435
102
}
330
435
100
DictionaryVariables
280
     0
  1
acadiso.lin
  0
DICTIONARYVAR
  5
477
102
{ACAD_REACTORS
330
435
102
}
330
435
100
DictionaryVariables
280
     0
  1
Standard
  0
DICTIONARYVAR
  5
476
102
{ACAD_REACTORS
330
435
102
}
330
435
100
DictionaryVariables
280
     0
  1
Standard
  0
DICTIONARYVAR
  5
437
102
{ACAD_REACTORS
330
435
102
}
330
435
100
DictionaryVariables
280
     0
  1
1
  0
DICTIONARYVAR
  5
438
102
{ACAD_REACTORS
330
435
102
}
330
435
100
DictionaryVariables
280
     0
  1
2
  0
DICTIONARY
  5
46B
330
45
100
AcDbDictionary
280
     1
281
     1
  3
ACAD_XREC_ROUNDTRIP
360
46C
  0
DICTIONARY
  5
469
330
44
100
AcDbDictionary
280
     1
281
     1
  3
ACAD_XREC_ROUNDTRIP
360
46A
  0
DICTIONARY
  5
46D
330
46
100
AcDbDictionary
280
     1
281
     1
  3
ACAD_XREC_ROUNDTRIP
360
46E
  0
DICTIONARY
  5
473
330
6C
100
AcDbDictionary
280
     1
281
     1
  3
ACAD_XREC_ROUNDTRIP
360
474
  0
DICTIONARY
  5
46F
330
6A
100
AcDbDictionary
280
     1
281
     1
  3
ACAD_ROUNDTRIP_2008_TABLESTYLE_CELLSTYLEMAP
360
471
  3
ACAD_XREC_ROUNDTRIP
360
470
  0
DICTIONARY
  5
441
330
2F
100
AcDbDictionary
280
     1
281
     1
  3
ACAD_XREC_ROUNDTRIP
360
442
  0
DICTIONARY
  5
447
330
32
100
AcDbDictionary
280
     1
281
     1
  3
ACAD_XREC_ROUNDTRIP
360
448
  0
DICTIONARY
  5
44F
330
36
100
AcDbDictionary
280
     1
281
     1
  3
ACAD_XREC_ROUNDTRIP
360
450
  0
DICTIONARY
  5
457
330
3A
100
AcDbDictionary
280
     1
281
     1
  3
ACAD_XREC_ROUNDTRIP
360
458
  0
DICTIONARY
  5
44B
330
34
100
AcDbDictionary
280
     1
281
     1
  3
ACAD_XREC_ROUNDTRIP
360
44C
  0
DICTIONARY
  5
44D
330
35
100
AcDbDictionary
280
     1
281
     1
  3
ACAD_XREC_ROUNDTRIP
360
44E
  0
DICTIONARY
  5
45D
330
3D
100
AcDbDictionary
280
     1
281
     1
  3
ACAD_XREC_ROUNDTRIP
360
45E
  0
DICTIONARY
  5
455
330
39
100
AcDbDictionary
280
     1
281
     1
  3
ACAD_XREC_ROUNDTRIP
360
456
  0
DICTIONARY
  5
439
330
2B
100
AcDbDictionary
280
     1
281
     1
  3
ACAD_XREC_ROUNDTRIP
360
43A
  0
DICTIONARY
  5
43B
330
2C
100
AcDbDictionary
280
     1
281
     1
  3
ACAD_XREC_ROUNDTRIP
360
43C
  0
DICTIONARY
  5
43D
330
2D
100
AcDbDictionary
280
     1
281
     1
  3
ACAD_XREC_ROUNDTRIP
360
43E
  0
DICTIONARY
  5
43F
330
2E
100
AcDbDictionary
280
     1
281
     1
  3
ACAD_XREC_ROUNDTRIP
360
440
  0
DICTIONARY
  5
445
330
31
100
AcDbDictionary
280
     1
281
     1
  3
ACAD_XREC_ROUNDTRIP
360
446
  0
DICTIONARY
  5
459
330
3B
100
AcDbDictionary
280
     1
281
     1
  3
ACAD_XREC_ROUNDTRIP
360
45A
  0
DICTIONARY
  5
453
330
38
100
AcDbDictionary
280
     1
281
     1
  3
ACAD_XREC_ROUNDTRIP
360
454
  0
DICTIONARY
  5
45B
330
3C
100
AcDbDictionary
280
     1
281
     1
  3
ACAD_XREC_ROUNDTRIP
360
45C
  0
DICTIONARY
  5
449
330
33
100
AcDbDictionary
280
     1
281
     1
  3
ACAD_XREC_ROUNDTRIP
360
44A
  0
DICTIONARY
  5
467
330
42
100
AcDbDictionary
280
     1
281
     1
  3
ACAD_XREC_ROUNDTRIP
360
468
  0
DICTIONARY
  5
465
330
41
100
AcDbDictionary
280
     1
281
     1
  3
ACAD_XREC_ROUNDTRIP
360
466
  0
DICTIONARY
  5
45F
330
3E
100
AcDbDictionary
280
     1
281
     1
  3
ACAD_XREC_ROUNDTRIP
360
460
  0
DICTIONARY
  5
461
330
3F
100
AcDbDictionary
280
     1
281
     1
  3
ACAD_XREC_ROUNDTRIP
360
462
  0
DICTIONARY
  5
451
330
37
100
AcDbDictionary
280
     1
281
     1
  3
ACAD_XREC_ROUNDTRIP
360
452
  0
DICTIONARY
  5
443
330
30
100
AcDbDictionary
280
     1
281
     1
  3
ACAD_XREC_ROUNDTRIP
360
444
  0
DICTIONARY
  5
463
330
40
100
AcDbDictionary
280
     1
281
     1
  3
ACAD_XREC_ROUNDTRIP
360
464
  0
XRECORD
  5
46C
102
{ACAD_REACTORS
330
46B
102
}
330
46B
100
AcDbXrecord
280
     1
102
MATERIAL
148
0.0
149
0.0
149
0.0
 93
        0
 94
      127
282
     0
 72
     1
 77
     1
171
     1
175
     1
179
     1
273
     0
  0
XRECORD
  5
46A
102
{ACAD_REACTORS
330
469
102
}
330
469
100
AcDbXrecord
280
     1
102
MATERIAL
148
0.0
149
0.0
149
0.0
 93
        0
 94
      127
282
     0
 72
     1
 77
     1
171
     1
175
     1
179
     1
273
     0
  0
XRECORD
  5
46E
102
{ACAD_REACTORS
330
46D
102
}
330
46D
100
AcDbXrecord
280
     1
102
MATERIAL
148
0.0
149
0.0
149
0.0
 93
        0
 94
      127
282
     0
 72
     1
 77
     1
171
     1
175
     1
179
     1
273
     0
  0
XRECORD
  5
474
102
{ACAD_REACTORS
330
473
102
}
330
473
100
AcDbXrecord
280
     1
102
ACAD_ROUNDTRIP_2010_MLEADER_STYLE
  0
CELLSTYLEMAP
  5
471
102
{ACAD_REACTORS
330
46F
102
}
330
46F
100
AcDbCellStyleMap
 90
        3
300
CELLSTYLE
  1
TABLEFORMAT_BEGIN
 90
        5
170
     1
 91
        0
 92
    32768
 62
   257
 93
        1
300
CONTENTFORMAT
  1
CONTENTFORMAT_BEGIN
 90
        0
 91
        0
 92
        4
 93
        0
300

 40
0.0
140
1.0
 94
        5
 62
     0
340
11
144
6.0
309
CONTENTFORMAT_END
171
     1
301
MARGIN
  1
CELLMARGIN_BEGIN
 40
1.5
 40
1.5
 40
1.5
 40
1.5
 40
1.5
 40
1.5
309
CELLMARGIN_END
 94
        6
 95
        1
302
GRIDFORMAT
  1
GRIDFORMAT_BEGIN
 90
        0
 91
        1
 62
     0
 92
       -2
340
14
 93
        0
 40
0.045
309
GRIDFORMAT_END
 95
        2
302
GRIDFORMAT
  1
GRIDFORMAT_BEGIN
 90
        0
 91
        1
 62
     0
 92
       -2
340
14
 93
        0
 40
0.045
309
GRIDFORMAT_END
 95
        4
302
GRIDFORMAT
  1
GRIDFORMAT_BEGIN
 90
        0
 91
        1
 62
     0
 92
       -2
340
14
 93
        0
 40
0.045
309
GRIDFORMAT_END
 95
        8
302
GRIDFORMAT
  1
GRIDFORMAT_BEGIN
 90
        0
 91
        1
 62
     0
 92
       -2
340
14
 93
        0
 40
0.045
309
GRIDFORMAT_END
 95
       16
302
GRIDFORMAT
  1
GRIDFORMAT_BEGIN
 90
        0
 91
        1
 62
     0
 92
       -2
340
14
 93
        0
 40
0.045
309
GRIDFORMAT_END
 95
       32
302
GRIDFORMAT
  1
GRIDFORMAT_BEGIN
 90
        0
 91
        1
 62
     0
 92
       -2
340
14
 93
        0
 40
0.045
309
GRIDFORMAT_END
309
TABLEFORMAT_END
  1
CELLSTYLE_BEGIN
 90
        1
 91
        1
300
_TITLE
309
CELLSTYLE_END
300
CELLSTYLE
  1
TABLEFORMAT_BEGIN
 90
        5
170
     1
 91
        0
 92
        0
 62
   257
 93
        1
300
CONTENTFORMAT
  1
CONTENTFORMAT_BEGIN
 90
        0
 91
        0
 92
        4
 93
        0
300

 40
0.0
140
1.0
 94
        5
 62
     0
340
11
144
4.5
309
CONTENTFORMAT_END
171
     1
301
MARGIN
  1
CELLMARGIN_BEGIN
 40
1.5
 40
1.5
 40
1.5
 40
1.5
 40
1.5
 40
1.5
309
CELLMARGIN_END
 94
        6
 95
        1
302
GRIDFORMAT
  1
GRIDFORMAT_BEGIN
 90
        0
 91
        1
 62
     0
 92
       -2
340
14
 93
        0
 40
0.045
309
GRIDFORMAT_END
 95
        2
302
GRIDFORMAT
  1
GRIDFORMAT_BEGIN
 90
        0
 91
        1
 62
     0
 92
       -2
340
14
 93
        0
 40
0.045
309
GRIDFORMAT_END
 95
        4
302
GRIDFORMAT
  1
GRIDFORMAT_BEGIN
 90
        0
 91
        1
 62
     0
 92
       -2
340
14
 93
        0
 40
0.045
309
GRIDFORMAT_END
 95
        8
302
GRIDFORMAT
  1
GRIDFORMAT_BEGIN
 90
        0
 91
        1
 62
     0
 92
       -2
340
14
 93
        0
 40
0.045
309
GRIDFORMAT_END
 95
       16
302
GRIDFORMAT
  1
GRIDFORMAT_BEGIN
 90
        0
 91
        1
 62
     0
 92
       -2
340
14
 93
        0
 40
0.045
309
GRIDFORMAT_END
 95
       32
302
GRIDFORMAT
  1
GRIDFORMAT_BEGIN
 90
        0
 91
        1
 62
     0
 92
       -2
340
14
 93
        0
 40
0.045
309
GRIDFORMAT_END
309
TABLEFORMAT_END
  1
CELLSTYLE_BEGIN
 90
        2
 91
        1
300
_HEADER
309
CELLSTYLE_END
300
CELLSTYLE
  1
TABLEFORMAT_BEGIN
 90
        5
170
     1
 91
        0
 92
        0
 62
   257
 93
        1
300
CONTENTFORMAT
  1
CONTENTFORMAT_BEGIN
 90
        0
 91
        0
 92
        4
 93
        0
300

 40
0.0
140
1.0
 94
        2
 62
     0
340
11
144
4.5
309
CONTENTFORMAT_END
171
     1
301
MARGIN
  1
CELLMARGIN_BEGIN
 40
1.5
 40
1.5
 40
1.5
 40
1.5
 40
1.5
 40
1.5
309
CELLMARGIN_END
 94
        6
 95
        1
302
GRIDFORMAT
  1
GRIDFORMAT_BEGIN
 90
        0
 91
        1
 62
     0
 92
       -2
340
14
 93
        0
 40
0.045
309
GRIDFORMAT_END
 95
        2
302
GRIDFORMAT
  1
GRIDFORMAT_BEGIN
 90
        0
 91
        1
 62
     0
 92
       -2
340
14
 93
        0
 40
0.045
309
GRIDFORMAT_END
 95
        4
302
GRIDFORMAT
  1
GRIDFORMAT_BEGIN
 90
        0
 91
        1
 62
     0
 92
       -2
340
14
 93
        0
 40
0.045
309
GRIDFORMAT_END
 95
        8
302
GRIDFORMAT
  1
GRIDFORMAT_BEGIN
 90
        0
 91
        1
 62
     0
 92
       -2
340
14
 93
        0
 40
0.045
309
GRIDFORMAT_END
 95
       16
302
GRIDFORMAT
  1
GRIDFORMAT_BEGIN
 90
        0
 91
        1
 62
     0
 92
       -2
340
14
 93
        0
 40
0.045
309
GRIDFORMAT_END
 95
       32
302
GRIDFORMAT
  1
GRIDFORMAT_BEGIN
 90
        0
 91
        1
 62
     0
 92
       -2
340
14
 93
        0
 40
0.045
309
GRIDFORMAT_END
309
TABLEFORMAT_END
  1
CELLSTYLE_BEGIN
 90
        3
 91
        2
300
_DATA
309
CELLSTYLE_END
  0
XRECORD
  5
470
102
{ACAD_REACTORS
330
46F
102
}
330
46F
100
AcDbXrecord
280
     1
102
ACAD_ROUNDTRIP_PRE2007_TABLESTYLE
 90
        4
 91
        0
  1

 92
        4
 93
        0
  2

 94
        4
 95
        0
  3

  0
XRECORD
  5
442
102
{ACAD_REACTORS
330
441
102
}
330
441
100
AcDbXrecord
280
     1
102
RTVSPropertyOp0
 70
     1
102
RTVSPropertyOp1
 70
     1
102
RTVSPropertyOp2
 70
     1
102
RTVSPropertyOp3
 70
     1
102
RTVSPropertyOp4
 70
     1
102
RTVSPropertyOp5
 70
     1
102
RTVSPropertyOp6
 70
     1
102
RTVSPropertyOp7
 70
     1
102
RTVSPropertyOp8
 70
     1
102
RTVSPropertyOp9
 70
     1
102
RTVSPropertyOp10
 70
     1
102
RTVSPropertyOp11
 70
     1
102
RTVSPropertyOp12
 70
     1
102
RTVSPropertyOp13
 70
     1
102
RTVSPropertyOp14
 70
     1
102
RTVSPropertyOp15
 70
     1
102
RTVSPropertyOp16
 70
     1
102
RTVSPropertyOp17
 70
     1
102
RTVSPropertyOp18
 70
     1
102
RTVSPropertyOp19
 70
     1
102
RTVSPropertyOp20
 70
     1
102
RTVSPropertyOp21
 70
     1
102
RTVSPropertyOp22
 70
     1
102
RTVSPropertyOp23
 70
     1
102
RTVSPropertyOp24
 70
     1
102
RTVSPropertyOp25
 70
     1
102
RTVSPropertyOp26
 70
     1
102
RTVSPropertyOp27
 70
     1
102
RTVSPropertyOp28
 70
     1
102
RTVSPropertyOp29
 70
     1
102
RTVSPropertyOp30
 70
     1
102
RTVSPropertyOp31
 70
     1
102
RTVSPropertyOp32
 70
     1
102
RTVSPropertyOp33
 70
     1
102
RTVSPropertyOp34
 70
     1
102
RTVSPropertyOp35
 70
     1
102
RTVSPropertyOp36
 70
     1
102
RTVSPropertyOp37
 70
     1
102
RTVSPropertyOp38
 70
     1
102
RTVSPropertyOp39
 70
     1
102
RTVSPropertyOp40
 70
     1
102
RTVSPropertyOp41
 70
     1
102
RTVSPropertyOp42
 70
     1
102
RTVSPropertyOp43
 70
     1
102
RTVSPropertyOp44
 70
     1
102
RTVSPropertyOp45
 70
     1
102
RTVSPropertyOp46
 70
     1
102
RTVSPropertyOp47
 70
     1
102
RTVSPropertyOp48
 70
     1
102
RTVSPropertyOp49
 70
     1
102
RTVSPropertyOp50
 70
     1
102
RTVSPropertyOp51
 70
     0
102
RTVSPropertyOp52
 70
     0
102
RTVSPropertyOp53
 70
     1
102
RTVSPropertyOp54
 70
     1
102
RTVSPropertyOp55
 70
     1
102
RTVSPropertyOp56
 70
     1
102
RTVSPropertyOp57
 70
     1
102
RTVSPost2010Prop28
280
     1
102
RTVSPost2010PropOp28
 70
     1
102
RTVSPost2010Prop29
280
     1
102
RTVSPost2010PropOp29
 70
     1
102
RTVSPost2010Prop30
280
     0
102
RTVSPost2010PropOp30
 70
     1
102
RTVSPost2010Prop31
280
     0
102
RTVSPost2010PropOp31
 70
     1
102
RTVSPost2010Prop32
280
     0
102
RTVSPost2010PropOp32
 70
     1
102
RTVSPost2010Prop33
280
     0
102
RTVSPost2010PropOp33
 70
     1
102
RTVSPost2010Prop34
280
     0
102
RTVSPost2010PropOp34
 70
     1
102
RTVSPost2010Prop35
280
     0
102
RTVSPost2010PropOp35
 70
     1
102
RTVSPost2010Prop36
280
     0
102
RTVSPost2010PropOp36
 70
     1
102
RTVSPost2010Prop37
 90
       50
102
RTVSPost2010PropOp37
 70
     1
102
RTVSPost2010Prop38
140
0.0
102
RTVSPost2010PropOp38
 70
     1
102
RTVSPost2010Prop39
140
1.0
102
RTVSPost2010PropOp39
 70
     1
102
RTVSPost2010Prop40
 90
        0
102
RTVSPost2010PropOp40
 70
     1
102
RTVSPost2010Prop41ColorIndex
 90
       18
102
RTVSPost2010Prop41ColorRGB
 90
        0
102
RTVSPost2010PropOp41
 70
     1
102
RTVSPost2010Prop42
 90
       50
102
RTVSPost2010PropOp42
 70
     1
102
RTVSPost2010Prop43
 90
        3
102
RTVSPost2010PropOp43
 70
     1
102
RTVSPost2010Prop44ColorIndex
 90
        5
102
RTVSPost2010Prop44ColorRGB
 90
      255
102
RTVSPost2010PropOp44
 70
     1
102
RTVSPost2010Prop45
280
     0
102
RTVSPost2010PropOp45
 70
     1
102
RTVSPost2010Prop46
 90
       50
102
RTVSPost2010PropOp46
 70
     1
102
RTVSPost2010Prop47
 90
       50
102
RTVSPost2010PropOp47
 70
     1
102
RTVSPost2010Prop48
 90
       50
102
RTVSPost2010PropOp48
 70
     1
102
RTVSPost2010Prop49
280
     0
102
RTVSPost2010PropOp49
 70
     1
102
RTVSPost2010Prop50
 90
       50
102
RTVSPost2010PropOp50
 70
     1
102
RTVSPost2010Prop51ColorIndex
 90
      256
102
RTVSPost2010Prop51ColorRGB
 90
-16777216
102
RTVSPost2010PropOp51
 70
     0
102
RTVSPost2010Prop52
140
1.0
102
RTVSPost2010PropOp52
 70
     0
102
RTVSPost2010Prop53
 90
        2
102
RTVSPost2010PropOp53
 70
     1
102
RTVSPost2010Prop54
  1
strokes_ogs.tif
102
RTVSPost2010PropOp54
 70
     1
102
RTVSPost2010Prop55
280
     0
102
RTVSPost2010PropOp55
 70
     1
102
RTVSPost2010Prop56
140
1.0
102
RTVSPost2010PropOp56
 70
     1
102
RTVSPost2010Prop57
140
1.0
102
RTVSPost2010PropOp57
 70
     1
  0
XRECORD
  5
448
102
{ACAD_REACTORS
330
447
102
}
330
447
100
AcDbXrecord
280
     1
102
RTVSPropertyOp0
 70
     1
102
RTVSPropertyOp1
 70
     1
102
RTVSPropertyOp2
 70
     1
102
RTVSPropertyOp3
 70
     1
102
RTVSPropertyOp4
 70
     1
102
RTVSPropertyOp5
 70
     1
102
RTVSPropertyOp6
 70
     1
102
RTVSPropertyOp7
 70
     1
102
RTVSPropertyOp8
 70
     1
102
RTVSPropertyOp9
 70
     1
102
RTVSPropertyOp10
 70
     1
102
RTVSPropertyOp11
 70
     1
102
RTVSPropertyOp12
 70
     1
102
RTVSPropertyOp13
 70
     1
102
RTVSPropertyOp14
 70
     1
102
RTVSPropertyOp15
 70
     1
102
RTVSPropertyOp16
 70
     1
102
RTVSPropertyOp17
 70
     1
102
RTVSPropertyOp18
 70
     1
102
RTVSPropertyOp19
 70
     1
102
RTVSPropertyOp20
 70
     1
102
RTVSPropertyOp21
 70
     1
102
RTVSPropertyOp22
 70
     1
102
RTVSPropertyOp23
 70
     1
102
RTVSPropertyOp24
 70
     1
102
RTVSPropertyOp25
 70
     1
102
RTVSPropertyOp26
 70
     1
102
RTVSPropertyOp27
 70
     1
102
RTVSPropertyOp28
 70
     1
102
RTVSPropertyOp29
 70
     1
102
RTVSPropertyOp30
 70
     1
102
RTVSPropertyOp31
 70
     1
102
RTVSPropertyOp32
 70
     1
102
RTVSPropertyOp33
 70
     1
102
RTVSPropertyOp34
 70
     1
102
RTVSPropertyOp35
 70
     1
102
RTVSPropertyOp36
 70
     1
102
RTVSPropertyOp37
 70
     1
102
RTVSPropertyOp38
 70
     1
102
RTVSPropertyOp39
 70
     1
102
RTVSPropertyOp40
 70
     1
102
RTVSPropertyOp41
 70
     1
102
RTVSPropertyOp42
 70
     1
102
RTVSPropertyOp43
 70
     1
102
RTVSPropertyOp44
 70
     1
102
RTVSPropertyOp45
 70
     1
102
RTVSPropertyOp46
 70
     1
102
RTVSPropertyOp47
 70
     1
102
RTVSPropertyOp48
 70
     1
102
RTVSPropertyOp49
 70
     1
102
RTVSPropertyOp50
 70
     1
102
RTVSPropertyOp51
 70
     0
102
RTVSPropertyOp52
 70
     0
102
RTVSPropertyOp53
 70
     1
102
RTVSPropertyOp54
 70
     1
102
RTVSPropertyOp55
 70
     1
102
RTVSPropertyOp56
 70
     1
102
RTVSPropertyOp57
 70
     1
102
RTVSPost2010Prop28
280
     0
102
RTVSPost2010PropOp28
 70
     1
102
RTVSPost2010Prop29
280
     1
102
RTVSPost2010PropOp29
 70
     1
102
RTVSPost2010Prop30
280
     1
102
RTVSPost2010PropOp30
 70
     1
102
RTVSPost2010Prop31
280
     0
102
RTVSPost2010PropOp31
 70
     1
102
RTVSPost2010Prop32
280
     0
102
RTVSPost2010PropOp32
 70
     1
102
RTVSPost2010Prop33
280
     0
102
RTVSPost2010PropOp33
 70
     1
102
RTVSPost2010Prop34
280
     0
102
RTVSPost2010PropOp34
 70
     1
102
RTVSPost2010Prop35
280
     0
102
RTVSPost2010PropOp35
 70
     1
102
RTVSPost2010Prop36
280
     0
102
RTVSPost2010PropOp36
 70
     1
102
RTVSPost2010Prop37
 90
       50
102
RTVSPost2010PropOp37
 70
     1
102
RTVSPost2010Prop38
140
0.0
102
RTVSPost2010PropOp38
 70
     1
102
RTVSPost2010Prop39
140
1.0
102
RTVSPost2010PropOp39
 70
     1
102
RTVSPost2010Prop40
 90
        0
102
RTVSPost2010PropOp40
 70
     1
102
RTVSPost2010Prop41ColorIndex
 90
       18
102
RTVSPost2010Prop41ColorRGB
 90
        0
102
RTVSPost2010PropOp41
 70
     1
102
RTVSPost2010Prop42
 90
       50
102
RTVSPost2010PropOp42
 70
     1
102
RTVSPost2010Prop43
 90
        3
102
RTVSPost2010PropOp43
 70
     1
102
RTVSPost2010Prop44ColorIndex
 90
        5
102
RTVSPost2010Prop44ColorRGB
 90
      255
102
RTVSPost2010PropOp44
 70
     1
102
RTVSPost2010Prop45
280
     0
102
RTVSPost2010PropOp45
 70
     1
102
RTVSPost2010Prop46
 90
       50
102
RTVSPost2010PropOp46
 70
     1
102
RTVSPost2010Prop47
 90
       50
102
RTVSPost2010PropOp47
 70
     1
102
RTVSPost2010Prop48
 90
       50
102
RTVSPost2010PropOp48
 70
     1
102
RTVSPost2010Prop49
280
     0
102
RTVSPost2010PropOp49
 70
     1
102
RTVSPost2010Prop50
 90
       50
102
RTVSPost2010PropOp50
 70
     1
102
RTVSPost2010Prop51ColorIndex
 90
      256
102
RTVSPost2010Prop51ColorRGB
 90
-16777216
102
RTVSPost2010PropOp51
 70
     0
102
RTVSPost2010Prop52
140
1.0
102
RTVSPost2010PropOp52
 70
     0
102
RTVSPost2010Prop53
 90
        2
102
RTVSPost2010PropOp53
 70
     1
102
RTVSPost2010Prop54
  1
strokes_ogs.tif
102
RTVSPost2010PropOp54
 70
     1
102
RTVSPost2010Prop55
280
     0
102
RTVSPost2010PropOp55
 70
     1
102
RTVSPost2010Prop56
140
1.0
102
RTVSPost2010PropOp56
 70
     1
102
RTVSPost2010Prop57
140
1.0
102
RTVSPost2010PropOp57
 70
     1
  0
XRECORD
  5
450
102
{ACAD_REACTORS
330
44F
102
}
330
44F
100
AcDbXrecord
280
     1
102
RTVSPropertyOp0
 70
     1
102
RTVSPropertyOp1
 70
     1
102
RTVSPropertyOp2
 70
     1
102
RTVSPropertyOp3
 70
     1
102
RTVSPropertyOp4
 70
     1
102
RTVSPropertyOp5
 70
     1
102
RTVSPropertyOp6
 70
     1
102
RTVSPropertyOp7
 70
     1
102
RTVSPropertyOp8
 70
     1
102
RTVSPropertyOp9
 70
     1
102
RTVSPropertyOp10
 70
     1
102
RTVSPropertyOp11
 70
     1
102
RTVSPropertyOp12
 70
     1
102
RTVSPropertyOp13
 70
     1
102
RTVSPropertyOp14
 70
     1
102
RTVSPropertyOp15
 70
     1
102
RTVSPropertyOp16
 70
     1
102
RTVSPropertyOp17
 70
     1
102
RTVSPropertyOp18
 70
     1
102
RTVSPropertyOp19
 70
     1
102
RTVSPropertyOp20
 70
     1
102
RTVSPropertyOp21
 70
     1
102
RTVSPropertyOp22
 70
     1
102
RTVSPropertyOp23
 70
     1
102
RTVSPropertyOp24
 70
     1
102
RTVSPropertyOp25
 70
     1
102
RTVSPropertyOp26
 70
     1
102
RTVSPropertyOp27
 70
     1
102
RTVSPropertyOp28
 70
     1
102
RTVSPropertyOp29
 70
     1
102
RTVSPropertyOp30
 70
     1
102
RTVSPropertyOp31
 70
     1
102
RTVSPropertyOp32
 70
     1
102
RTVSPropertyOp33
 70
     1
102
RTVSPropertyOp34
 70
     1
102
RTVSPropertyOp35
 70
     1
102
RTVSPropertyOp36
 70
     1
102
RTVSPropertyOp37
 70
     1
102
RTVSPropertyOp38
 70
     1
102
RTVSPropertyOp39
 70
     1
102
RTVSPropertyOp40
 70
     1
102
RTVSPropertyOp41
 70
     1
102
RTVSPropertyOp42
 70
     1
102
RTVSPropertyOp43
 70
     1
102
RTVSPropertyOp44
 70
     1
102
RTVSPropertyOp45
 70
     1
102
RTVSPropertyOp46
 70
     1
102
RTVSPropertyOp47
 70
     1
102
RTVSPropertyOp48
 70
     1
102
RTVSPropertyOp49
 70
     1
102
RTVSPropertyOp50
 70
     1
102
RTVSPropertyOp51
 70
     0
102
RTVSPropertyOp52
 70
     0
102
RTVSPropertyOp53
 70
     1
102
RTVSPropertyOp54
 70
     1
102
RTVSPropertyOp55
 70
     1
102
RTVSPropertyOp56
 70
     1
102
RTVSPropertyOp57
 70
     1
102
RTVSPost2010Prop28
280
     0
102
RTVSPost2010PropOp28
 70
     1
102
RTVSPost2010Prop29
280
     1
102
RTVSPost2010PropOp29
 70
     1
102
RTVSPost2010Prop30
280
     1
102
RTVSPost2010PropOp30
 70
     1
102
RTVSPost2010Prop31
280
     0
102
RTVSPost2010PropOp31
 70
     1
102
RTVSPost2010Prop32
280
     0
102
RTVSPost2010PropOp32
 70
     1
102
RTVSPost2010Prop33
280
     0
102
RTVSPost2010PropOp33
 70
     1
102
RTVSPost2010Prop34
280
     0
102
RTVSPost2010PropOp34
 70
     1
102
RTVSPost2010Prop35
280
     0
102
RTVSPost2010PropOp35
 70
     1
102
RTVSPost2010Prop36
280
     0
102
RTVSPost2010PropOp36
 70
     1
102
RTVSPost2010Prop37
 90
       50
102
RTVSPost2010PropOp37
 70
     1
102
RTVSPost2010Prop38
140
0.0
102
RTVSPost2010PropOp38
 70
     1
102
RTVSPost2010Prop39
140
1.0
102
RTVSPost2010PropOp39
 70
     1
102
RTVSPost2010Prop40
 90
        0
102
RTVSPost2010PropOp40
 70
     1
102
RTVSPost2010Prop41ColorIndex
 90
       18
102
RTVSPost2010Prop41ColorRGB
 90
        0
102
RTVSPost2010PropOp41
 70
     1
102
RTVSPost2010Prop42
 90
       50
102
RTVSPost2010PropOp42
 70
     1
102
RTVSPost2010Prop43
 90
        3
102
RTVSPost2010PropOp43
 70
     1
102
RTVSPost2010Prop44ColorIndex
 90
        5
102
RTVSPost2010Prop44ColorRGB
 90
      255
102
RTVSPost2010PropOp44
 70
     1
102
RTVSPost2010Prop45
280
     0
102
RTVSPost2010PropOp45
 70
     1
102
RTVSPost2010Prop46
 90
       50
102
RTVSPost2010PropOp46
 70
     1
102
RTVSPost2010Prop47
 90
       50
102
RTVSPost2010PropOp47
 70
     1
102
RTVSPost2010Prop48
 90
       50
102
RTVSPost2010PropOp48
 70
     1
102
RTVSPost2010Prop49
280
     0
102
RTVSPost2010PropOp49
 70
     1
102
RTVSPost2010Prop50
 90
       50
102
RTVSPost2010PropOp50
 70
     1
102
RTVSPost2010Prop51ColorIndex
 90
      256
102
RTVSPost2010Prop51ColorRGB
 90
-16777216
102
RTVSPost2010PropOp51
 70
     0
102
RTVSPost2010Prop52
140
1.0
102
RTVSPost2010PropOp52
 70
     0
102
RTVSPost2010Prop53
 90
        2
102
RTVSPost2010PropOp53
 70
     1
102
RTVSPost2010Prop54
  1
strokes_ogs.tif
102
RTVSPost2010PropOp54
 70
     1
102
RTVSPost2010Prop55
280
     0
102
RTVSPost2010PropOp55
 70
     1
102
RTVSPost2010Prop56
140
1.0
102
RTVSPost2010PropOp56
 70
     1
102
RTVSPost2010Prop57
140
1.0
102
RTVSPost2010PropOp57
 70
     1
  0
XRECORD
  5
458
102
{ACAD_REACTORS
330
457
102
}
330
457
100
AcDbXrecord
280
     1
102
RTVSPropertyOp0
 70
     1
102
RTVSPropertyOp1
 70
     1
102
RTVSPropertyOp2
 70
     1
102
RTVSPropertyOp3
 70
     1
102
RTVSPropertyOp4
 70
     1
102
RTVSPropertyOp5
 70
     1
102
RTVSPropertyOp6
 70
     1
102
RTVSPropertyOp7
 70
     1
102
RTVSPropertyOp8
 70
     1
102
RTVSPropertyOp9
 70
     1
102
RTVSPropertyOp10
 70
     1
102
RTVSPropertyOp11
 70
     1
102
RTVSPropertyOp12
 70
     1
102
RTVSPropertyOp13
 70
     1
102
RTVSPropertyOp14
 70
     1
102
RTVSPropertyOp15
 70
     1
102
RTVSPropertyOp16
 70
     1
102
RTVSPropertyOp17
 70
     1
102
RTVSPropertyOp18
 70
     1
102
RTVSPropertyOp19
 70
     1
102
RTVSPropertyOp20
 70
     1
102
RTVSPropertyOp21
 70
     1
102
RTVSPropertyOp22
 70
     1
102
RTVSPropertyOp23
 70
     1
102
RTVSPropertyOp24
 70
     1
102
RTVSPropertyOp25
 70
     1
102
RTVSPropertyOp26
 70
     1
102
RTVSPropertyOp27
 70
     1
102
RTVSPropertyOp28
 70
     1
102
RTVSPropertyOp29
 70
     1
102
RTVSPropertyOp30
 70
     1
102
RTVSPropertyOp31
 70
     1
102
RTVSPropertyOp32
 70
     1
102
RTVSPropertyOp33
 70
     1
102
RTVSPropertyOp34
 70
     1
102
RTVSPropertyOp35
 70
     1
102
RTVSPropertyOp36
 70
     1
102
RTVSPropertyOp37
 70
     1
102
RTVSPropertyOp38
 70
     1
102
RTVSPropertyOp39
 70
     1
102
RTVSPropertyOp40
 70
     1
102
RTVSPropertyOp41
 70
     1
102
RTVSPropertyOp42
 70
     1
102
RTVSPropertyOp43
 70
     1
102
RTVSPropertyOp44
 70
     1
102
RTVSPropertyOp45
 70
     1
102
RTVSPropertyOp46
 70
     1
102
RTVSPropertyOp47
 70
     1
102
RTVSPropertyOp48
 70
     1
102
RTVSPropertyOp49
 70
     1
102
RTVSPropertyOp50
 70
     1
102
RTVSPropertyOp51
 70
     0
102
RTVSPropertyOp52
 70
     0
102
RTVSPropertyOp53
 70
     1
102
RTVSPropertyOp54
 70
     1
102
RTVSPropertyOp55
 70
     1
102
RTVSPropertyOp56
 70
     1
102
RTVSPropertyOp57
 70
     1
102
RTVSPost2010Prop28
280
     0
102
RTVSPost2010PropOp28
 70
     1
102
RTVSPost2010Prop29
280
     1
102
RTVSPost2010PropOp29
 70
     1
102
RTVSPost2010Prop30
280
     1
102
RTVSPost2010PropOp30
 70
     1
102
RTVSPost2010Prop31
280
     0
102
RTVSPost2010PropOp31
 70
     1
102
RTVSPost2010Prop32
280
     0
102
RTVSPost2010PropOp32
 70
     1
102
RTVSPost2010Prop33
280
     0
102
RTVSPost2010PropOp33
 70
     1
102
RTVSPost2010Prop34
280
     0
102
RTVSPost2010PropOp34
 70
     1
102
RTVSPost2010Prop35
280
     0
102
RTVSPost2010PropOp35
 70
     1
102
RTVSPost2010Prop36
280
     0
102
RTVSPost2010PropOp36
 70
     1
102
RTVSPost2010Prop37
 90
       50
102
RTVSPost2010PropOp37
 70
     1
102
RTVSPost2010Prop38
140
0.0
102
RTVSPost2010PropOp38
 70
     1
102
RTVSPost2010Prop39
140
1.0
102
RTVSPost2010PropOp39
 70
     1
102
RTVSPost2010Prop40
 90
        0
102
RTVSPost2010PropOp40
 70
     1
102
RTVSPost2010Prop41ColorIndex
 90
       18
102
RTVSPost2010Prop41ColorRGB
 90
        0
102
RTVSPost2010PropOp41
 70
     1
102
RTVSPost2010Prop42
 90
       50
102
RTVSPost2010PropOp42
 70
     1
102
RTVSPost2010Prop43
 90
        3
102
RTVSPost2010PropOp43
 70
     1
102
RTVSPost2010Prop44ColorIndex
 90
        5
102
RTVSPost2010Prop44ColorRGB
 90
      255
102
RTVSPost2010PropOp44
 70
     1
102
RTVSPost2010Prop45
280
     0
102
RTVSPost2010PropOp45
 70
     1
102
RTVSPost2010Prop46
 90
       50
102
RTVSPost2010PropOp46
 70
     1
102
RTVSPost2010Prop47
 90
       50
102
RTVSPost2010PropOp47
 70
     1
102
RTVSPost2010Prop48
 90
       50
102
RTVSPost2010PropOp48
 70
     1
102
RTVSPost2010Prop49
280
     0
102
RTVSPost2010PropOp49
 70
     1
102
RTVSPost2010Prop50
 90
       50
102
RTVSPost2010PropOp50
 70
     1
102
RTVSPost2010Prop51ColorIndex
 90
      256
102
RTVSPost2010Prop51ColorRGB
 90
-16777216
102
RTVSPost2010PropOp51
 70
     0
102
RTVSPost2010Prop52
140
1.0
102
RTVSPost2010PropOp52
 70
     0
102
RTVSPost2010Prop53
 90
        2
102
RTVSPost2010PropOp53
 70
     1
102
RTVSPost2010Prop54
  1
strokes_ogs.tif
102
RTVSPost2010PropOp54
 70
     1
102
RTVSPost2010Prop55
280
     0
102
RTVSPost2010PropOp55
 70
     1
102
RTVSPost2010Prop56
140
1.0
102
RTVSPost2010PropOp56
 70
     1
102
RTVSPost2010Prop57
140
1.0
102
RTVSPost2010PropOp57
 70
     1
  0
XRECORD
  5
44C
102
{ACAD_REACTORS
330
44B
102
}
330
44B
100
AcDbXrecord
280
     1
102
RTVSPropertyOp0
 70
     1
102
RTVSPropertyOp1
 70
     1
102
RTVSPropertyOp2
 70
     1
102
RTVSPropertyOp3
 70
     1
102
RTVSPropertyOp4
 70
     1
102
RTVSPropertyOp5
 70
     1
102
RTVSPropertyOp6
 70
     1
102
RTVSPropertyOp7
 70
     1
102
RTVSPropertyOp8
 70
     1
102
RTVSPropertyOp9
 70
     1
102
RTVSPropertyOp10
 70
     1
102
RTVSPropertyOp11
 70
     1
102
RTVSPropertyOp12
 70
     1
102
RTVSPropertyOp13
 70
     1
102
RTVSPropertyOp14
 70
     1
102
RTVSPropertyOp15
 70
     1
102
RTVSPropertyOp16
 70
     1
102
RTVSPropertyOp17
 70
     1
102
RTVSPropertyOp18
 70
     1
102
RTVSPropertyOp19
 70
     1
102
RTVSPropertyOp20
 70
     1
102
RTVSPropertyOp21
 70
     1
102
RTVSPropertyOp22
 70
     1
102
RTVSPropertyOp23
 70
     1
102
RTVSPropertyOp24
 70
     1
102
RTVSPropertyOp25
 70
     1
102
RTVSPropertyOp26
 70
     1
102
RTVSPropertyOp27
 70
     1
102
RTVSPropertyOp28
 70
     1
102
RTVSPropertyOp29
 70
     1
102
RTVSPropertyOp30
 70
     1
102
RTVSPropertyOp31
 70
     1
102
RTVSPropertyOp32
 70
     1
102
RTVSPropertyOp33
 70
     1
102
RTVSPropertyOp34
 70
     1
102
RTVSPropertyOp35
 70
     1
102
RTVSPropertyOp36
 70
     1
102
RTVSPropertyOp37
 70
     1
102
RTVSPropertyOp38
 70
     1
102
RTVSPropertyOp39
 70
     1
102
RTVSPropertyOp40
 70
     1
102
RTVSPropertyOp41
 70
     1
102
RTVSPropertyOp42
 70
     1
102
RTVSPropertyOp43
 70
     1
102
RTVSPropertyOp44
 70
     1
102
RTVSPropertyOp45
 70
     1
102
RTVSPropertyOp46
 70
     1
102
RTVSPropertyOp47
 70
     1
102
RTVSPropertyOp48
 70
     1
102
RTVSPropertyOp49
 70
     1
102
RTVSPropertyOp50
 70
     1
102
RTVSPropertyOp51
 70
     0
102
RTVSPropertyOp52
 70
     0
102
RTVSPropertyOp53
 70
     1
102
RTVSPropertyOp54
 70
     1
102
RTVSPropertyOp55
 70
     1
102
RTVSPropertyOp56
 70
     1
102
RTVSPropertyOp57
 70
     1
102
RTVSPost2010Prop28
280
     0
102
RTVSPost2010PropOp28
 70
     1
102
RTVSPost2010Prop29
280
     1
102
RTVSPost2010PropOp29
 70
     1
102
RTVSPost2010Prop30
280
     1
102
RTVSPost2010PropOp30
 70
     1
102
RTVSPost2010Prop31
280
     0
102
RTVSPost2010PropOp31
 70
     1
102
RTVSPost2010Prop32
280
     0
102
RTVSPost2010PropOp32
 70
     1
102
RTVSPost2010Prop33
280
     0
102
RTVSPost2010PropOp33
 70
     1
102
RTVSPost2010Prop34
280
     0
102
RTVSPost2010PropOp34
 70
     1
102
RTVSPost2010Prop35
280
     0
102
RTVSPost2010PropOp35
 70
     1
102
RTVSPost2010Prop36
280
     0
102
RTVSPost2010PropOp36
 70
     1
102
RTVSPost2010Prop37
 90
       50
102
RTVSPost2010PropOp37
 70
     1
102
RTVSPost2010Prop38
140
0.0
102
RTVSPost2010PropOp38
 70
     1
102
RTVSPost2010Prop39
140
1.0
102
RTVSPost2010PropOp39
 70
     1
102
RTVSPost2010Prop40
 90
        0
102
RTVSPost2010PropOp40
 70
     1
102
RTVSPost2010Prop41ColorIndex
 90
       18
102
RTVSPost2010Prop41ColorRGB
 90
        0
102
RTVSPost2010PropOp41
 70
     1
102
RTVSPost2010Prop42
 90
       50
102
RTVSPost2010PropOp42
 70
     1
102
RTVSPost2010Prop43
 90
        3
102
RTVSPost2010PropOp43
 70
     1
102
RTVSPost2010Prop44ColorIndex
 90
        5
102
RTVSPost2010Prop44ColorRGB
 90
      255
102
RTVSPost2010PropOp44
 70
     1
102
RTVSPost2010Prop45
280
     0
102
RTVSPost2010PropOp45
 70
     1
102
RTVSPost2010Prop46
 90
       50
102
RTVSPost2010PropOp46
 70
     1
102
RTVSPost2010Prop47
 90
       50
102
RTVSPost2010PropOp47
 70
     1
102
RTVSPost2010Prop48
 90
       50
102
RTVSPost2010PropOp48
 70
     1
102
RTVSPost2010Prop49
280
     0
102
RTVSPost2010PropOp49
 70
     1
102
RTVSPost2010Prop50
 90
       50
102
RTVSPost2010PropOp50
 70
     1
102
RTVSPost2010Prop51ColorIndex
 90
      256
102
RTVSPost2010Prop51ColorRGB
 90
-16777216
102
RTVSPost2010PropOp51
 70
     0
102
RTVSPost2010Prop52
140
1.0
102
RTVSPost2010PropOp52
 70
     0
102
RTVSPost2010Prop53
 90
        2
102
RTVSPost2010PropOp53
 70
     1
102
RTVSPost2010Prop54
  1
strokes_ogs.tif
102
RTVSPost2010PropOp54
 70
     1
102
RTVSPost2010Prop55
280
     0
102
RTVSPost2010PropOp55
 70
     1
102
RTVSPost2010Prop56
140
1.0
102
RTVSPost2010PropOp56
 70
     1
102
RTVSPost2010Prop57
140
1.0
102
RTVSPost2010PropOp57
 70
     1
  0
XRECORD
  5
44E
102
{ACAD_REACTORS
330
44D
102
}
330
44D
100
AcDbXrecord
280
     1
102
RTVSPropertyOp0
 70
     1
102
RTVSPropertyOp1
 70
     1
102
RTVSPropertyOp2
 70
     1
102
RTVSPropertyOp3
 70
     1
102
RTVSPropertyOp4
 70
     1
102
RTVSPropertyOp5
 70
     1
102
RTVSPropertyOp6
 70
     1
102
RTVSPropertyOp7
 70
     1
102
RTVSPropertyOp8
 70
     1
102
RTVSPropertyOp9
 70
     1
102
RTVSPropertyOp10
 70
     1
102
RTVSPropertyOp11
 70
     1
102
RTVSPropertyOp12
 70
     1
102
RTVSPropertyOp13
 70
     1
102
RTVSPropertyOp14
 70
     1
102
RTVSPropertyOp15
 70
     1
102
RTVSPropertyOp16
 70
     1
102
RTVSPropertyOp17
 70
     1
102
RTVSPropertyOp18
 70
     1
102
RTVSPropertyOp19
 70
     1
102
RTVSPropertyOp20
 70
     1
102
RTVSPropertyOp21
 70
     1
102
RTVSPropertyOp22
 70
     1
102
RTVSPropertyOp23
 70
     1
102
RTVSPropertyOp24
 70
     1
102
RTVSPropertyOp25
 70
     1
102
RTVSPropertyOp26
 70
     1
102
RTVSPropertyOp27
 70
     1
102
RTVSPropertyOp28
 70
     1
102
RTVSPropertyOp29
 70
     1
102
RTVSPropertyOp30
 70
     1
102
RTVSPropertyOp31
 70
     1
102
RTVSPropertyOp32
 70
     1
102
RTVSPropertyOp33
 70
     1
102
RTVSPropertyOp34
 70
     1
102
RTVSPropertyOp35
 70
     1
102
RTVSPropertyOp36
 70
     1
102
RTVSPropertyOp37
 70
     1
102
RTVSPropertyOp38
 70
     1
102
RTVSPropertyOp39
 70
     1
102
RTVSPropertyOp40
 70
     1
102
RTVSPropertyOp41
 70
     1
102
RTVSPropertyOp42
 70
     1
102
RTVSPropertyOp43
 70
     1
102
RTVSPropertyOp44
 70
     1
102
RTVSPropertyOp45
 70
     1
102
RTVSPropertyOp46
 70
     1
102
RTVSPropertyOp47
 70
     1
102
RTVSPropertyOp48
 70
     1
102
RTVSPropertyOp49
 70
     1
102
RTVSPropertyOp50
 70
     1
102
RTVSPropertyOp51
 70
     0
102
RTVSPropertyOp52
 70
     0
102
RTVSPropertyOp53
 70
     1
102
RTVSPropertyOp54
 70
     1
102
RTVSPropertyOp55
 70
     1
102
RTVSPropertyOp56
 70
     1
102
RTVSPropertyOp57
 70
     1
102
RTVSPost2010Prop28
280
     0
102
RTVSPost2010PropOp28
 70
     1
102
RTVSPost2010Prop29
280
     1
102
RTVSPost2010PropOp29
 70
     1
102
RTVSPost2010Prop30
280
     1
102
RTVSPost2010PropOp30
 70
     1
102
RTVSPost2010Prop31
280
     0
102
RTVSPost2010PropOp31
 70
     1
102
RTVSPost2010Prop32
280
     0
102
RTVSPost2010PropOp32
 70
     1
102
RTVSPost2010Prop33
280
     0
102
RTVSPost2010PropOp33
 70
     1
102
RTVSPost2010Prop34
280
     0
102
RTVSPost2010PropOp34
 70
     1
102
RTVSPost2010Prop35
280
     0
102
RTVSPost2010PropOp35
 70
     1
102
RTVSPost2010Prop36
280
     0
102
RTVSPost2010PropOp36
 70
     1
102
RTVSPost2010Prop37
 90
       50
102
RTVSPost2010PropOp37
 70
     1
102
RTVSPost2010Prop38
140
0.0
102
RTVSPost2010PropOp38
 70
     1
102
RTVSPost2010Prop39
140
1.0
102
RTVSPost2010PropOp39
 70
     1
102
RTVSPost2010Prop40
 90
        0
102
RTVSPost2010PropOp40
 70
     1
102
RTVSPost2010Prop41ColorIndex
 90
       18
102
RTVSPost2010Prop41ColorRGB
 90
        0
102
RTVSPost2010PropOp41
 70
     1
102
RTVSPost2010Prop42
 90
       50
102
RTVSPost2010PropOp42
 70
     1
102
RTVSPost2010Prop43
 90
        3
102
RTVSPost2010PropOp43
 70
     1
102
RTVSPost2010Prop44ColorIndex
 90
        5
102
RTVSPost2010Prop44ColorRGB
 90
      255
102
RTVSPost2010PropOp44
 70
     1
102
RTVSPost2010Prop45
280
     0
102
RTVSPost2010PropOp45
 70
     1
102
RTVSPost2010Prop46
 90
       50
102
RTVSPost2010PropOp46
 70
     1
102
RTVSPost2010Prop47
 90
       50
102
RTVSPost2010PropOp47
 70
     1
102
RTVSPost2010Prop48
 90
       50
102
RTVSPost2010PropOp48
 70
     1
102
RTVSPost2010Prop49
280
     0
102
RTVSPost2010PropOp49
 70
     1
102
RTVSPost2010Prop50
 90
       50
102
RTVSPost2010PropOp50
 70
     1
102
RTVSPost2010Prop51ColorIndex
 90
      256
102
RTVSPost2010Prop51ColorRGB
 90
-16777216
102
RTVSPost2010PropOp51
 70
     0
102
RTVSPost2010Prop52
140
1.0
102
RTVSPost2010PropOp52
 70
     0
102
RTVSPost2010Prop53
 90
        2
102
RTVSPost2010PropOp53
 70
     1
102
RTVSPost2010Prop54
  1
strokes_ogs.tif
102
RTVSPost2010PropOp54
 70
     1
102
RTVSPost2010Prop55
280
     0
102
RTVSPost2010PropOp55
 70
     1
102
RTVSPost2010Prop56
140
1.0
102
RTVSPost2010PropOp56
 70
     1
102
RTVSPost2010Prop57
140
1.0
102
RTVSPost2010PropOp57
 70
     1
  0
XRECORD
  5
45E
102
{ACAD_REACTORS
330
45D
102
}
330
45D
100
AcDbXrecord
280
     1
102
RTVSPropertyOp0
 70
     0
102
RTVSPropertyOp1
 70
     0
102
RTVSPropertyOp2
 70
     0
102
RTVSPropertyOp3
 70
     0
102
RTVSPropertyOp4
 70
     0
102
RTVSPropertyOp5
 70
     0
102
RTVSPropertyOp6
 70
     0
102
RTVSPropertyOp7
 70
     0
102
RTVSPropertyOp8
 70
     0
102
RTVSPropertyOp9
 70
     0
102
RTVSPropertyOp10
 70
     0
102
RTVSPropertyOp11
 70
     0
102
RTVSPropertyOp12
 70
     0
102
RTVSPropertyOp13
 70
     0
102
RTVSPropertyOp14
 70
     2
102
RTVSPropertyOp15
 70
     0
102
RTVSPropertyOp16
 70
     0
102
RTVSPropertyOp17
 70
     0
102
RTVSPropertyOp18
 70
     0
102
RTVSPropertyOp19
 70
     0
102
RTVSPropertyOp20
 70
     0
102
RTVSPropertyOp21
 70
     0
102
RTVSPropertyOp22
 70
     0
102
RTVSPropertyOp23
 70
     0
102
RTVSPropertyOp24
 70
     0
102
RTVSPropertyOp25
 70
     0
102
RTVSPropertyOp26
 70
     0
102
RTVSPropertyOp27
 70
     0
102
RTVSPropertyOp28
 70
     0
102
RTVSPropertyOp29
 70
     0
102
RTVSPropertyOp30
 70
     0
102
RTVSPropertyOp31
 70
     0
102
RTVSPropertyOp32
 70
     0
102
RTVSPropertyOp33
 70
     0
102
RTVSPropertyOp34
 70
     0
102
RTVSPropertyOp35
 70
     0
102
RTVSPropertyOp36
 70
     0
102
RTVSPropertyOp37
 70
     0
102
RTVSPropertyOp38
 70
     0
102
RTVSPropertyOp39
 70
     0
102
RTVSPropertyOp40
 70
     0
102
RTVSPropertyOp41
 70
     0
102
RTVSPropertyOp42
 70
     0
102
RTVSPropertyOp43
 70
     0
102
RTVSPropertyOp44
 70
     0
102
RTVSPropertyOp45
 70
     0
102
RTVSPropertyOp46
 70
     0
102
RTVSPropertyOp47
 70
     0
102
RTVSPropertyOp48
 70
     0
102
RTVSPropertyOp49
 70
     0
102
RTVSPropertyOp50
 70
     0
102
RTVSPropertyOp51
 70
     0
102
RTVSPropertyOp52
 70
     0
102
RTVSPropertyOp53
 70
     0
102
RTVSPropertyOp54
 70
     0
102
RTVSPropertyOp55
 70
     0
102
RTVSPropertyOp56
 70
     0
102
RTVSPropertyOp57
 70
     0
102
RTVSPost2010Prop28
280
     0
102
RTVSPost2010PropOp28
 70
     0
102
RTVSPost2010Prop29
280
     1
102
RTVSPost2010PropOp29
 70
     0
102
RTVSPost2010Prop30
280
     1
102
RTVSPost2010PropOp30
 70
     0
102
RTVSPost2010Prop31
280
     0
102
RTVSPost2010PropOp31
 70
     0
102
RTVSPost2010Prop32
280
     0
102
RTVSPost2010PropOp32
 70
     0
102
RTVSPost2010Prop33
280
     0
102
RTVSPost2010PropOp33
 70
     0
102
RTVSPost2010Prop34
280
     0
102
RTVSPost2010PropOp34
 70
     0
102
RTVSPost2010Prop35
280
     0
102
RTVSPost2010PropOp35
 70
     0
102
RTVSPost2010Prop36
280
     0
102
RTVSPost2010PropOp36
 70
     0
102
RTVSPost2010Prop37
 90
       50
102
RTVSPost2010PropOp37
 70
     0
102
RTVSPost2010Prop38
140
0.0
102
RTVSPost2010PropOp38
 70
     0
102
RTVSPost2010Prop39
140
1.0
102
RTVSPost2010PropOp39
 70
     0
102
RTVSPost2010Prop40
 90
        0
102
RTVSPost2010PropOp40
 70
     0
102
RTVSPost2010Prop41ColorIndex
 90
       18
102
RTVSPost2010Prop41ColorRGB
 90
        0
102
RTVSPost2010PropOp41
 70
     0
102
RTVSPost2010Prop42
 90
       50
102
RTVSPost2010PropOp42
 70
     0
102
RTVSPost2010Prop43
 90
        3
102
RTVSPost2010PropOp43
 70
     0
102
RTVSPost2010Prop44ColorIndex
 90
        5
102
RTVSPost2010Prop44ColorRGB
 90
      255
102
RTVSPost2010PropOp44
 70
     0
102
RTVSPost2010Prop45
280
     0
102
RTVSPost2010PropOp45
 70
     0
102
RTVSPost2010Prop46
 90
       50
102
RTVSPost2010PropOp46
 70
     0
102
RTVSPost2010Prop47
 90
       50
102
RTVSPost2010PropOp47
 70
     0
102
RTVSPost2010Prop48
 90
       50
102
RTVSPost2010PropOp48
 70
     0
102
RTVSPost2010Prop49
280
     0
102
RTVSPost2010PropOp49
 70
     0
102
RTVSPost2010Prop50
 90
       50
102
RTVSPost2010PropOp50
 70
     0
102
RTVSPost2010Prop51ColorIndex
 90
      256
102
RTVSPost2010Prop51ColorRGB
 90
-16777216
102
RTVSPost2010PropOp51
 70
     0
102
RTVSPost2010Prop52
140
1.0
102
RTVSPost2010PropOp52
 70
     0
102
RTVSPost2010Prop53
 90
        2
102
RTVSPost2010PropOp53
 70
     0
102
RTVSPost2010Prop54
  1
strokes_ogs.tif
102
RTVSPost2010PropOp54
 70
     0
102
RTVSPost2010Prop55
280
     0
102
RTVSPost2010PropOp55
 70
     0
102
RTVSPost2010Prop56
140
1.0
102
RTVSPost2010PropOp56
 70
     0
102
RTVSPost2010Prop57
140
1.0
102
RTVSPost2010PropOp57
 70
     0
  0
XRECORD
  5
456
102
{ACAD_REACTORS
330
455
102
}
330
455
100
AcDbXrecord
280
     1
102
RTVSPropertyOp0
 70
     1
102
RTVSPropertyOp1
 70
     1
102
RTVSPropertyOp2
 70
     1
102
RTVSPropertyOp3
 70
     1
102
RTVSPropertyOp4
 70
     1
102
RTVSPropertyOp5
 70
     1
102
RTVSPropertyOp6
 70
     1
102
RTVSPropertyOp7
 70
     1
102
RTVSPropertyOp8
 70
     1
102
RTVSPropertyOp9
 70
     1
102
RTVSPropertyOp10
 70
     1
102
RTVSPropertyOp11
 70
     1
102
RTVSPropertyOp12
 70
     1
102
RTVSPropertyOp13
 70
     1
102
RTVSPropertyOp14
 70
     1
102
RTVSPropertyOp15
 70
     1
102
RTVSPropertyOp16
 70
     1
102
RTVSPropertyOp17
 70
     1
102
RTVSPropertyOp18
 70
     1
102
RTVSPropertyOp19
 70
     1
102
RTVSPropertyOp20
 70
     1
102
RTVSPropertyOp21
 70
     1
102
RTVSPropertyOp22
 70
     1
102
RTVSPropertyOp23
 70
     1
102
RTVSPropertyOp24
 70
     1
102
RTVSPropertyOp25
 70
     1
102
RTVSPropertyOp26
 70
     1
102
RTVSPropertyOp27
 70
     1
102
RTVSPropertyOp28
 70
     1
102
RTVSPropertyOp29
 70
     1
102
RTVSPropertyOp30
 70
     1
102
RTVSPropertyOp31
 70
     1
102
RTVSPropertyOp32
 70
     1
102
RTVSPropertyOp33
 70
     1
102
RTVSPropertyOp34
 70
     1
102
RTVSPropertyOp35
 70
     1
102
RTVSPropertyOp36
 70
     1
102
RTVSPropertyOp37
 70
     1
102
RTVSPropertyOp38
 70
     1
102
RTVSPropertyOp39
 70
     1
102
RTVSPropertyOp40
 70
     1
102
RTVSPropertyOp41
 70
     1
102
RTVSPropertyOp42
 70
     1
102
RTVSPropertyOp43
 70
     1
102
RTVSPropertyOp44
 70
     1
102
RTVSPropertyOp45
 70
     1
102
RTVSPropertyOp46
 70
     1
102
RTVSPropertyOp47
 70
     1
102
RTVSPropertyOp48
 70
     1
102
RTVSPropertyOp49
 70
     1
102
RTVSPropertyOp50
 70
     1
102
RTVSPropertyOp51
 70
     0
102
RTVSPropertyOp52
 70
     0
102
RTVSPropertyOp53
 70
     1
102
RTVSPropertyOp54
 70
     1
102
RTVSPropertyOp55
 70
     1
102
RTVSPropertyOp56
 70
     1
102
RTVSPropertyOp57
 70
     1
102
RTVSPost2010Prop28
280
     0
102
RTVSPost2010PropOp28
 70
     1
102
RTVSPost2010Prop29
280
     1
102
RTVSPost2010PropOp29
 70
     1
102
RTVSPost2010Prop30
280
     1
102
RTVSPost2010PropOp30
 70
     1
102
RTVSPost2010Prop31
280
     0
102
RTVSPost2010PropOp31
 70
     1
102
RTVSPost2010Prop32
280
     0
102
RTVSPost2010PropOp32
 70
     1
102
RTVSPost2010Prop33
280
     0
102
RTVSPost2010PropOp33
 70
     1
102
RTVSPost2010Prop34
280
     0
102
RTVSPost2010PropOp34
 70
     1
102
RTVSPost2010Prop35
280
     0
102
RTVSPost2010PropOp35
 70
     1
102
RTVSPost2010Prop36
280
     0
102
RTVSPost2010PropOp36
 70
     1
102
RTVSPost2010Prop37
 90
       50
102
RTVSPost2010PropOp37
 70
     1
102
RTVSPost2010Prop38
140
0.0
102
RTVSPost2010PropOp38
 70
     1
102
RTVSPost2010Prop39
140
1.0
102
RTVSPost2010PropOp39
 70
     1
102
RTVSPost2010Prop40
 90
        0
102
RTVSPost2010PropOp40
 70
     1
102
RTVSPost2010Prop41ColorIndex
 90
       18
102
RTVSPost2010Prop41ColorRGB
 90
        0
102
RTVSPost2010PropOp41
 70
     1
102
RTVSPost2010Prop42
 90
       50
102
RTVSPost2010PropOp42
 70
     1
102
RTVSPost2010Prop43
 90
        3
102
RTVSPost2010PropOp43
 70
     1
102
RTVSPost2010Prop44ColorIndex
 90
        5
102
RTVSPost2010Prop44ColorRGB
 90
      255
102
RTVSPost2010PropOp44
 70
     1
102
RTVSPost2010Prop45
280
     0
102
RTVSPost2010PropOp45
 70
     1
102
RTVSPost2010Prop46
 90
       50
102
RTVSPost2010PropOp46
 70
     1
102
RTVSPost2010Prop47
 90
       50
102
RTVSPost2010PropOp47
 70
     1
102
RTVSPost2010Prop48
 90
       50
102
RTVSPost2010PropOp48
 70
     1
102
RTVSPost2010Prop49
280
     0
102
RTVSPost2010PropOp49
 70
     1
102
RTVSPost2010Prop50
 90
       50
102
RTVSPost2010PropOp50
 70
     1
102
RTVSPost2010Prop51ColorIndex
 90
      256
102
RTVSPost2010Prop51ColorRGB
 90
-16777216
102
RTVSPost2010PropOp51
 70
     0
102
RTVSPost2010Prop52
140
1.0
102
RTVSPost2010PropOp52
 70
     0
102
RTVSPost2010Prop53
 90
        2
102
RTVSPost2010PropOp53
 70
     1
102
RTVSPost2010Prop54
  1
strokes_ogs.tif
102
RTVSPost2010PropOp54
 70
     1
102
RTVSPost2010Prop55
280
     0
102
RTVSPost2010PropOp55
 70
     1
102
RTVSPost2010Prop56
140
1.0
102
RTVSPost2010PropOp56
 70
     1
102
RTVSPost2010Prop57
140
1.0
102
RTVSPost2010PropOp57
 70
     1
  0
XRECORD
  5
43A
102
{ACAD_REACTORS
330
439
102
}
330
439
100
AcDbXrecord
280
     1
102
RTVSPropertyOp0
 70
     1
102
RTVSPropertyOp1
 70
     1
102
RTVSPropertyOp2
 70
     1
102
RTVSPropertyOp3
 70
     1
102
RTVSPropertyOp4
 70
     1
102
RTVSPropertyOp5
 70
     1
102
RTVSPropertyOp6
 70
     1
102
RTVSPropertyOp7
 70
     1
102
RTVSPropertyOp8
 70
     1
102
RTVSPropertyOp9
 70
     1
102
RTVSPropertyOp10
 70
     1
102
RTVSPropertyOp11
 70
     1
102
RTVSPropertyOp12
 70
     1
102
RTVSPropertyOp13
 70
     1
102
RTVSPropertyOp14
 70
     1
102
RTVSPropertyOp15
 70
     1
102
RTVSPropertyOp16
 70
     1
102
RTVSPropertyOp17
 70
     1
102
RTVSPropertyOp18
 70
     1
102
RTVSPropertyOp19
 70
     1
102
RTVSPropertyOp20
 70
     1
102
RTVSPropertyOp21
 70
     1
102
RTVSPropertyOp22
 70
     1
102
RTVSPropertyOp23
 70
     1
102
RTVSPropertyOp24
 70
     1
102
RTVSPropertyOp25
 70
     1
102
RTVSPropertyOp26
 70
     1
102
RTVSPropertyOp27
 70
     1
102
RTVSPropertyOp28
 70
     1
102
RTVSPropertyOp29
 70
     1
102
RTVSPropertyOp30
 70
     1
102
RTVSPropertyOp31
 70
     1
102
RTVSPropertyOp32
 70
     1
102
RTVSPropertyOp33
 70
     1
102
RTVSPropertyOp34
 70
     1
102
RTVSPropertyOp35
 70
     1
102
RTVSPropertyOp36
 70
     1
102
RTVSPropertyOp37
 70
     1
102
RTVSPropertyOp38
 70
     1
102
RTVSPropertyOp39
 70
     1
102
RTVSPropertyOp40
 70
     1
102
RTVSPropertyOp41
 70
     1
102
RTVSPropertyOp42
 70
     1
102
RTVSPropertyOp43
 70
     1
102
RTVSPropertyOp44
 70
     1
102
RTVSPropertyOp45
 70
     1
102
RTVSPropertyOp46
 70
     1
102
RTVSPropertyOp47
 70
     1
102
RTVSPropertyOp48
 70
     1
102
RTVSPropertyOp49
 70
     1
102
RTVSPropertyOp50
 70
     1
102
RTVSPropertyOp51
 70
     0
102
RTVSPropertyOp52
 70
     0
102
RTVSPropertyOp53
 70
     1
102
RTVSPropertyOp54
 70
     1
102
RTVSPropertyOp55
 70
     1
102
RTVSPropertyOp56
 70
     1
102
RTVSPropertyOp57
 70
     1
102
RTVSPost2010Prop28
280
     0
102
RTVSPost2010PropOp28
 70
     1
102
RTVSPost2010Prop29
280
     1
102
RTVSPost2010PropOp29
 70
     1
102
RTVSPost2010Prop30
280
     1
102
RTVSPost2010PropOp30
 70
     1
102
RTVSPost2010Prop31
280
     0
102
RTVSPost2010PropOp31
 70
     1
102
RTVSPost2010Prop32
280
     0
102
RTVSPost2010PropOp32
 70
     1
102
RTVSPost2010Prop33
280
     0
102
RTVSPost2010PropOp33
 70
     1
102
RTVSPost2010Prop34
280
     0
102
RTVSPost2010PropOp34
 70
     1
102
RTVSPost2010Prop35
280
     0
102
RTVSPost2010PropOp35
 70
     1
102
RTVSPost2010Prop36
280
     0
102
RTVSPost2010PropOp36
 70
     1
102
RTVSPost2010Prop37
 90
       50
102
RTVSPost2010PropOp37
 70
     1
102
RTVSPost2010Prop38
140
0.0
102
RTVSPost2010PropOp38
 70
     1
102
RTVSPost2010Prop39
140
1.0
102
RTVSPost2010PropOp39
 70
     1
102
RTVSPost2010Prop40
 90
        0
102
RTVSPost2010PropOp40
 70
     1
102
RTVSPost2010Prop41ColorIndex
 90
       18
102
RTVSPost2010Prop41ColorRGB
 90
        0
102
RTVSPost2010PropOp41
 70
     1
102
RTVSPost2010Prop42
 90
       50
102
RTVSPost2010PropOp42
 70
     1
102
RTVSPost2010Prop43
 90
        3
102
RTVSPost2010PropOp43
 70
     1
102
RTVSPost2010Prop44ColorIndex
 90
        5
102
RTVSPost2010Prop44ColorRGB
 90
      255
102
RTVSPost2010PropOp44
 70
     1
102
RTVSPost2010Prop45
280
     0
102
RTVSPost2010PropOp45
 70
     1
102
RTVSPost2010Prop46
 90
       50
102
RTVSPost2010PropOp46
 70
     1
102
RTVSPost2010Prop47
 90
       50
102
RTVSPost2010PropOp47
 70
     1
102
RTVSPost2010Prop48
 90
       50
102
RTVSPost2010PropOp48
 70
     1
102
RTVSPost2010Prop49
280
     0
102
RTVSPost2010PropOp49
 70
     1
102
RTVSPost2010Prop50
 90
       50
102
RTVSPost2010PropOp50
 70
     1
102
RTVSPost2010Prop51ColorIndex
 90
      256
102
RTVSPost2010Prop51ColorRGB
 90
-16777216
102
RTVSPost2010PropOp51
 70
     0
102
RTVSPost2010Prop52
140
1.0
102
RTVSPost2010PropOp52
 70
     0
102
RTVSPost2010Prop53
 90
        2
102
RTVSPost2010PropOp53
 70
     1
102
RTVSPost2010Prop54
  1
strokes_ogs.tif
102
RTVSPost2010PropOp54
 70
     1
102
RTVSPost2010Prop55
280
     0
102
RTVSPost2010PropOp55
 70
     1
102
RTVSPost2010Prop56
140
1.0
102
RTVSPost2010PropOp56
 70
     1
102
RTVSPost2010Prop57
140
1.0
102
RTVSPost2010PropOp57
 70
     1
  0
XRECORD
  5
43C
102
{ACAD_REACTORS
330
43B
102
}
330
43B
100
AcDbXrecord
280
     1
102
RTVSPropertyOp0
 70
     1
102
RTVSPropertyOp1
 70
     1
102
RTVSPropertyOp2
 70
     1
102
RTVSPropertyOp3
 70
     1
102
RTVSPropertyOp4
 70
     1
102
RTVSPropertyOp5
 70
     1
102
RTVSPropertyOp6
 70
     1
102
RTVSPropertyOp7
 70
     1
102
RTVSPropertyOp8
 70
     1
102
RTVSPropertyOp9
 70
     1
102
RTVSPropertyOp10
 70
     1
102
RTVSPropertyOp11
 70
     1
102
RTVSPropertyOp12
 70
     1
102
RTVSPropertyOp13
 70
     1
102
RTVSPropertyOp14
 70
     1
102
RTVSPropertyOp15
 70
     1
102
RTVSPropertyOp16
 70
     1
102
RTVSPropertyOp17
 70
     1
102
RTVSPropertyOp18
 70
     1
102
RTVSPropertyOp19
 70
     1
102
RTVSPropertyOp20
 70
     1
102
RTVSPropertyOp21
 70
     1
102
RTVSPropertyOp22
 70
     1
102
RTVSPropertyOp23
 70
     1
102
RTVSPropertyOp24
 70
     1
102
RTVSPropertyOp25
 70
     1
102
RTVSPropertyOp26
 70
     1
102
RTVSPropertyOp27
 70
     1
102
RTVSPropertyOp28
 70
     1
102
RTVSPropertyOp29
 70
     1
102
RTVSPropertyOp30
 70
     1
102
RTVSPropertyOp31
 70
     1
102
RTVSPropertyOp32
 70
     1
102
RTVSPropertyOp33
 70
     1
102
RTVSPropertyOp34
 70
     1
102
RTVSPropertyOp35
 70
     1
102
RTVSPropertyOp36
 70
     1
102
RTVSPropertyOp37
 70
     1
102
RTVSPropertyOp38
 70
     1
102
RTVSPropertyOp39
 70
     1
102
RTVSPropertyOp40
 70
     1
102
RTVSPropertyOp41
 70
     1
102
RTVSPropertyOp42
 70
     1
102
RTVSPropertyOp43
 70
     1
102
RTVSPropertyOp44
 70
     1
102
RTVSPropertyOp45
 70
     1
102
RTVSPropertyOp46
 70
     1
102
RTVSPropertyOp47
 70
     1
102
RTVSPropertyOp48
 70
     1
102
RTVSPropertyOp49
 70
     1
102
RTVSPropertyOp50
 70
     1
102
RTVSPropertyOp51
 70
     0
102
RTVSPropertyOp52
 70
     0
102
RTVSPropertyOp53
 70
     1
102
RTVSPropertyOp54
 70
     1
102
RTVSPropertyOp55
 70
     1
102
RTVSPropertyOp56
 70
     1
102
RTVSPropertyOp57
 70
     1
102
RTVSPost2010Prop28
280
     0
102
RTVSPost2010PropOp28
 70
     1
102
RTVSPost2010Prop29
280
     1
102
RTVSPost2010PropOp29
 70
     1
102
RTVSPost2010Prop30
280
     1
102
RTVSPost2010PropOp30
 70
     1
102
RTVSPost2010Prop31
280
     0
102
RTVSPost2010PropOp31
 70
     1
102
RTVSPost2010Prop32
280
     0
102
RTVSPost2010PropOp32
 70
     1
102
RTVSPost2010Prop33
280
     0
102
RTVSPost2010PropOp33
 70
     1
102
RTVSPost2010Prop34
280
     0
102
RTVSPost2010PropOp34
 70
     1
102
RTVSPost2010Prop35
280
     0
102
RTVSPost2010PropOp35
 70
     1
102
RTVSPost2010Prop36
280
     0
102
RTVSPost2010PropOp36
 70
     1
102
RTVSPost2010Prop37
 90
       50
102
RTVSPost2010PropOp37
 70
     1
102
RTVSPost2010Prop38
140
0.0
102
RTVSPost2010PropOp38
 70
     1
102
RTVSPost2010Prop39
140
1.0
102
RTVSPost2010PropOp39
 70
     1
102
RTVSPost2010Prop40
 90
        0
102
RTVSPost2010PropOp40
 70
     1
102
RTVSPost2010Prop41ColorIndex
 90
       18
102
RTVSPost2010Prop41ColorRGB
 90
        0
102
RTVSPost2010PropOp41
 70
     1
102
RTVSPost2010Prop42
 90
       50
102
RTVSPost2010PropOp42
 70
     1
102
RTVSPost2010Prop43
 90
        3
102
RTVSPost2010PropOp43
 70
     1
102
RTVSPost2010Prop44ColorIndex
 90
        5
102
RTVSPost2010Prop44ColorRGB
 90
      255
102
RTVSPost2010PropOp44
 70
     1
102
RTVSPost2010Prop45
280
     0
102
RTVSPost2010PropOp45
 70
     1
102
RTVSPost2010Prop46
 90
       50
102
RTVSPost2010PropOp46
 70
     1
102
RTVSPost2010Prop47
 90
       50
102
RTVSPost2010PropOp47
 70
     1
102
RTVSPost2010Prop48
 90
       50
102
RTVSPost2010PropOp48
 70
     1
102
RTVSPost2010Prop49
280
     0
102
RTVSPost2010PropOp49
 70
     1
102
RTVSPost2010Prop50
 90
       50
102
RTVSPost2010PropOp50
 70
     1
102
RTVSPost2010Prop51ColorIndex
 90
      256
102
RTVSPost2010Prop51ColorRGB
 90
-16777216
102
RTVSPost2010PropOp51
 70
     0
102
RTVSPost2010Prop52
140
1.0
102
RTVSPost2010PropOp52
 70
     0
102
RTVSPost2010Prop53
 90
        2
102
RTVSPost2010PropOp53
 70
     1
102
RTVSPost2010Prop54
  1
strokes_ogs.tif
102
RTVSPost2010PropOp54
 70
     1
102
RTVSPost2010Prop55
280
     0
102
RTVSPost2010PropOp55
 70
     1
102
RTVSPost2010Prop56
140
1.0
102
RTVSPost2010PropOp56
 70
     1
102
RTVSPost2010Prop57
140
1.0
102
RTVSPost2010PropOp57
 70
     1
  0
XRECORD
  5
43E
102
{ACAD_REACTORS
330
43D
102
}
330
43D
100
AcDbXrecord
280
     1
102
RTVSPropertyOp0
 70
     1
102
RTVSPropertyOp1
 70
     1
102
RTVSPropertyOp2
 70
     1
102
RTVSPropertyOp3
 70
     1
102
RTVSPropertyOp4
 70
     1
102
RTVSPropertyOp5
 70
     1
102
RTVSPropertyOp6
 70
     1
102
RTVSPropertyOp7
 70
     1
102
RTVSPropertyOp8
 70
     1
102
RTVSPropertyOp9
 70
     1
102
RTVSPropertyOp10
 70
     1
102
RTVSPropertyOp11
 70
     1
102
RTVSPropertyOp12
 70
     1
102
RTVSPropertyOp13
 70
     1
102
RTVSPropertyOp14
 70
     1
102
RTVSPropertyOp15
 70
     1
102
RTVSPropertyOp16
 70
     1
102
RTVSPropertyOp17
 70
     1
102
RTVSPropertyOp18
 70
     1
102
RTVSPropertyOp19
 70
     1
102
RTVSPropertyOp20
 70
     1
102
RTVSPropertyOp21
 70
     1
102
RTVSPropertyOp22
 70
     1
102
RTVSPropertyOp23
 70
     1
102
RTVSPropertyOp24
 70
     1
102
RTVSPropertyOp25
 70
     1
102
RTVSPropertyOp26
 70
     1
102
RTVSPropertyOp27
 70
     1
102
RTVSPropertyOp28
 70
     1
102
RTVSPropertyOp29
 70
     1
102
RTVSPropertyOp30
 70
     1
102
RTVSPropertyOp31
 70
     1
102
RTVSPropertyOp32
 70
     1
102
RTVSPropertyOp33
 70
     1
102
RTVSPropertyOp34
 70
     1
102
RTVSPropertyOp35
 70
     1
102
RTVSPropertyOp36
 70
     1
102
RTVSPropertyOp37
 70
     1
102
RTVSPropertyOp38
 70
     1
102
RTVSPropertyOp39
 70
     1
102
RTVSPropertyOp40
 70
     1
102
RTVSPropertyOp41
 70
     1
102
RTVSPropertyOp42
 70
     1
102
RTVSPropertyOp43
 70
     1
102
RTVSPropertyOp44
 70
     1
102
RTVSPropertyOp45
 70
     1
102
RTVSPropertyOp46
 70
     1
102
RTVSPropertyOp47
 70
     1
102
RTVSPropertyOp48
 70
     1
102
RTVSPropertyOp49
 70
     1
102
RTVSPropertyOp50
 70
     1
102
RTVSPropertyOp51
 70
     0
102
RTVSPropertyOp52
 70
     0
102
RTVSPropertyOp53
 70
     1
102
RTVSPropertyOp54
 70
     1
102
RTVSPropertyOp55
 70
     1
102
RTVSPropertyOp56
 70
     1
102
RTVSPropertyOp57
 70
     1
102
RTVSPost2010Prop28
280
     0
102
RTVSPost2010PropOp28
 70
     1
102
RTVSPost2010Prop29
280
     1
102
RTVSPost2010PropOp29
 70
     1
102
RTVSPost2010Prop30
280
     1
102
RTVSPost2010PropOp30
 70
     1
102
RTVSPost2010Prop31
280
     0
102
RTVSPost2010PropOp31
 70
     1
102
RTVSPost2010Prop32
280
     0
102
RTVSPost2010PropOp32
 70
     1
102
RTVSPost2010Prop33
280
     0
102
RTVSPost2010PropOp33
 70
     1
102
RTVSPost2010Prop34
280
     0
102
RTVSPost2010PropOp34
 70
     1
102
RTVSPost2010Prop35
280
     0
102
RTVSPost2010PropOp35
 70
     1
102
RTVSPost2010Prop36
280
     0
102
RTVSPost2010PropOp36
 70
     1
102
RTVSPost2010Prop37
 90
       50
102
RTVSPost2010PropOp37
 70
     1
102
RTVSPost2010Prop38
140
0.0
102
RTVSPost2010PropOp38
 70
     1
102
RTVSPost2010Prop39
140
1.0
102
RTVSPost2010PropOp39
 70
     1
102
RTVSPost2010Prop40
 90
        0
102
RTVSPost2010PropOp40
 70
     1
102
RTVSPost2010Prop41ColorIndex
 90
       18
102
RTVSPost2010Prop41ColorRGB
 90
        0
102
RTVSPost2010PropOp41
 70
     1
102
RTVSPost2010Prop42
 90
       50
102
RTVSPost2010PropOp42
 70
     1
102
RTVSPost2010Prop43
 90
        3
102
RTVSPost2010PropOp43
 70
     1
102
RTVSPost2010Prop44ColorIndex
 90
        5
102
RTVSPost2010Prop44ColorRGB
 90
      255
102
RTVSPost2010PropOp44
 70
     1
102
RTVSPost2010Prop45
280
     0
102
RTVSPost2010PropOp45
 70
     1
102
RTVSPost2010Prop46
 90
       50
102
RTVSPost2010PropOp46
 70
     1
102
RTVSPost2010Prop47
 90
       50
102
RTVSPost2010PropOp47
 70
     1
102
RTVSPost2010Prop48
 90
       50
102
RTVSPost2010PropOp48
 70
     1
102
RTVSPost2010Prop49
280
     0
102
RTVSPost2010PropOp49
 70
     1
102
RTVSPost2010Prop50
 90
       50
102
RTVSPost2010PropOp50
 70
     1
102
RTVSPost2010Prop51ColorIndex
 90
      256
102
RTVSPost2010Prop51ColorRGB
 90
-16777216
102
RTVSPost2010PropOp51
 70
     0
102
RTVSPost2010Prop52
140
1.0
102
RTVSPost2010PropOp52
 70
     0
102
RTVSPost2010Prop53
 90
        2
102
RTVSPost2010PropOp53
 70
     1
102
RTVSPost2010Prop54
  1
strokes_ogs.tif
102
RTVSPost2010PropOp54
 70
     1
102
RTVSPost2010Prop55
280
     0
102
RTVSPost2010PropOp55
 70
     1
102
RTVSPost2010Prop56
140
1.0
102
RTVSPost2010PropOp56
 70
     1
102
RTVSPost2010Prop57
140
1.0
102
RTVSPost2010PropOp57
 70
     1
  0
XRECORD
  5
440
102
{ACAD_REACTORS
330
43F
102
}
330
43F
100
AcDbXrecord
280
     1
102
RTVSPropertyOp0
 70
     1
102
RTVSPropertyOp1
 70
     1
102
RTVSPropertyOp2
 70
     1
102
RTVSPropertyOp3
 70
     1
102
RTVSPropertyOp4
 70
     1
102
RTVSPropertyOp5
 70
     1
102
RTVSPropertyOp6
 70
     1
102
RTVSPropertyOp7
 70
     1
102
RTVSPropertyOp8
 70
     1
102
RTVSPropertyOp9
 70
     1
102
RTVSPropertyOp10
 70
     1
102
RTVSPropertyOp11
 70
     1
102
RTVSPropertyOp12
 70
     1
102
RTVSPropertyOp13
 70
     1
102
RTVSPropertyOp14
 70
     1
102
RTVSPropertyOp15
 70
     1
102
RTVSPropertyOp16
 70
     1
102
RTVSPropertyOp17
 70
     1
102
RTVSPropertyOp18
 70
     1
102
RTVSPropertyOp19
 70
     1
102
RTVSPropertyOp20
 70
     1
102
RTVSPropertyOp21
 70
     1
102
RTVSPropertyOp22
 70
     1
102
RTVSPropertyOp23
 70
     1
102
RTVSPropertyOp24
 70
     1
102
RTVSPropertyOp25
 70
     1
102
RTVSPropertyOp26
 70
     1
102
RTVSPropertyOp27
 70
     1
102
RTVSPropertyOp28
 70
     1
102
RTVSPropertyOp29
 70
     1
102
RTVSPropertyOp30
 70
     1
102
RTVSPropertyOp31
 70
     1
102
RTVSPropertyOp32
 70
     1
102
RTVSPropertyOp33
 70
     1
102
RTVSPropertyOp34
 70
     1
102
RTVSPropertyOp35
 70
     1
102
RTVSPropertyOp36
 70
     1
102
RTVSPropertyOp37
 70
     1
102
RTVSPropertyOp38
 70
     1
102
RTVSPropertyOp39
 70
     1
102
RTVSPropertyOp40
 70
     1
102
RTVSPropertyOp41
 70
     1
102
RTVSPropertyOp42
 70
     1
102
RTVSPropertyOp43
 70
     1
102
RTVSPropertyOp44
 70
     1
102
RTVSPropertyOp45
 70
     1
102
RTVSPropertyOp46
 70
     1
102
RTVSPropertyOp47
 70
     1
102
RTVSPropertyOp48
 70
     1
102
RTVSPropertyOp49
 70
     1
102
RTVSPropertyOp50
 70
     1
102
RTVSPropertyOp51
 70
     0
102
RTVSPropertyOp52
 70
     0
102
RTVSPropertyOp53
 70
     1
102
RTVSPropertyOp54
 70
     1
102
RTVSPropertyOp55
 70
     1
102
RTVSPropertyOp56
 70
     1
102
RTVSPropertyOp57
 70
     1
102
RTVSPost2010Prop28
280
     0
102
RTVSPost2010PropOp28
 70
     1
102
RTVSPost2010Prop29
280
     1
102
RTVSPost2010PropOp29
 70
     1
102
RTVSPost2010Prop30
280
     1
102
RTVSPost2010PropOp30
 70
     1
102
RTVSPost2010Prop31
280
     0
102
RTVSPost2010PropOp31
 70
     1
102
RTVSPost2010Prop32
280
     0
102
RTVSPost2010PropOp32
 70
     1
102
RTVSPost2010Prop33
280
     0
102
RTVSPost2010PropOp33
 70
     1
102
RTVSPost2010Prop34
280
     0
102
RTVSPost2010PropOp34
 70
     1
102
RTVSPost2010Prop35
280
     0
102
RTVSPost2010PropOp35
 70
     1
102
RTVSPost2010Prop36
280
     0
102
RTVSPost2010PropOp36
 70
     1
102
RTVSPost2010Prop37
 90
       50
102
RTVSPost2010PropOp37
 70
     1
102
RTVSPost2010Prop38
140
0.0
102
RTVSPost2010PropOp38
 70
     1
102
RTVSPost2010Prop39
140
1.0
102
RTVSPost2010PropOp39
 70
     1
102
RTVSPost2010Prop40
 90
        0
102
RTVSPost2010PropOp40
 70
     1
102
RTVSPost2010Prop41ColorIndex
 90
       18
102
RTVSPost2010Prop41ColorRGB
 90
        0
102
RTVSPost2010PropOp41
 70
     1
102
RTVSPost2010Prop42
 90
       50
102
RTVSPost2010PropOp42
 70
     1
102
RTVSPost2010Prop43
 90
        3
102
RTVSPost2010PropOp43
 70
     1
102
RTVSPost2010Prop44ColorIndex
 90
        5
102
RTVSPost2010Prop44ColorRGB
 90
      255
102
RTVSPost2010PropOp44
 70
     1
102
RTVSPost2010Prop45
280
     0
102
RTVSPost2010PropOp45
 70
     1
102
RTVSPost2010Prop46
 90
       50
102
RTVSPost2010PropOp46
 70
     1
102
RTVSPost2010Prop47
 90
       50
102
RTVSPost2010PropOp47
 70
     1
102
RTVSPost2010Prop48
 90
       50
102
RTVSPost2010PropOp48
 70
     1
102
RTVSPost2010Prop49
280
     0
102
RTVSPost2010PropOp49
 70
     1
102
RTVSPost2010Prop50
 90
       50
102
RTVSPost2010PropOp50
 70
     1
102
RTVSPost2010Prop51ColorIndex
 90
      256
102
RTVSPost2010Prop51ColorRGB
 90
-16777216
102
RTVSPost2010PropOp51
 70
     0
102
RTVSPost2010Prop52
140
1.0
102
RTVSPost2010PropOp52
 70
     0
102
RTVSPost2010Prop53
 90
        2
102
RTVSPost2010PropOp53
 70
     1
102
RTVSPost2010Prop54
  1
strokes_ogs.tif
102
RTVSPost2010PropOp54
 70
     1
102
RTVSPost2010Prop55
280
     0
102
RTVSPost2010PropOp55
 70
     1
102
RTVSPost2010Prop56
140
1.0
102
RTVSPost2010PropOp56
 70
     1
102
RTVSPost2010Prop57
140
1.0
102
RTVSPost2010PropOp57
 70
     1
  0
XRECORD
  5
446
102
{ACAD_REACTORS
330
445
102
}
330
445
100
AcDbXrecord
280
     1
102
RTVSPropertyOp0
 70
     1
102
RTVSPropertyOp1
 70
     1
102
RTVSPropertyOp2
 70
     1
102
RTVSPropertyOp3
 70
     1
102
RTVSPropertyOp4
 70
     1
102
RTVSPropertyOp5
 70
     1
102
RTVSPropertyOp6
 70
     1
102
RTVSPropertyOp7
 70
     1
102
RTVSPropertyOp8
 70
     1
102
RTVSPropertyOp9
 70
     1
102
RTVSPropertyOp10
 70
     1
102
RTVSPropertyOp11
 70
     1
102
RTVSPropertyOp12
 70
     1
102
RTVSPropertyOp13
 70
     1
102
RTVSPropertyOp14
 70
     1
102
RTVSPropertyOp15
 70
     1
102
RTVSPropertyOp16
 70
     1
102
RTVSPropertyOp17
 70
     1
102
RTVSPropertyOp18
 70
     1
102
RTVSPropertyOp19
 70
     1
102
RTVSPropertyOp20
 70
     1
102
RTVSPropertyOp21
 70
     1
102
RTVSPropertyOp22
 70
     1
102
RTVSPropertyOp23
 70
     1
102
RTVSPropertyOp24
 70
     1
102
RTVSPropertyOp25
 70
     1
102
RTVSPropertyOp26
 70
     1
102
RTVSPropertyOp27
 70
     1
102
RTVSPropertyOp28
 70
     1
102
RTVSPropertyOp29
 70
     1
102
RTVSPropertyOp30
 70
     1
102
RTVSPropertyOp31
 70
     1
102
RTVSPropertyOp32
 70
     1
102
RTVSPropertyOp33
 70
     1
102
RTVSPropertyOp34
 70
     1
102
RTVSPropertyOp35
 70
     1
102
RTVSPropertyOp36
 70
     1
102
RTVSPropertyOp37
 70
     1
102
RTVSPropertyOp38
 70
     1
102
RTVSPropertyOp39
 70
     1
102
RTVSPropertyOp40
 70
     1
102
RTVSPropertyOp41
 70
     1
102
RTVSPropertyOp42
 70
     1
102
RTVSPropertyOp43
 70
     1
102
RTVSPropertyOp44
 70
     1
102
RTVSPropertyOp45
 70
     1
102
RTVSPropertyOp46
 70
     1
102
RTVSPropertyOp47
 70
     1
102
RTVSPropertyOp48
 70
     1
102
RTVSPropertyOp49
 70
     1
102
RTVSPropertyOp50
 70
     1
102
RTVSPropertyOp51
 70
     0
102
RTVSPropertyOp52
 70
     0
102
RTVSPropertyOp53
 70
     1
102
RTVSPropertyOp54
 70
     1
102
RTVSPropertyOp55
 70
     1
102
RTVSPropertyOp56
 70
     1
102
RTVSPropertyOp57
 70
     1
102
RTVSPost2010Prop28
280
     0
102
RTVSPost2010PropOp28
 70
     1
102
RTVSPost2010Prop29
280
     1
102
RTVSPost2010PropOp29
 70
     1
102
RTVSPost2010Prop30
280
     1
102
RTVSPost2010PropOp30
 70
     1
102
RTVSPost2010Prop31
280
     0
102
RTVSPost2010PropOp31
 70
     1
102
RTVSPost2010Prop32
280
     0
102
RTVSPost2010PropOp32
 70
     1
102
RTVSPost2010Prop33
280
     0
102
RTVSPost2010PropOp33
 70
     1
102
RTVSPost2010Prop34
280
     0
102
RTVSPost2010PropOp34
 70
     1
102
RTVSPost2010Prop35
280
     0
102
RTVSPost2010PropOp35
 70
     1
102
RTVSPost2010Prop36
280
     0
102
RTVSPost2010PropOp36
 70
     1
102
RTVSPost2010Prop37
 90
       50
102
RTVSPost2010PropOp37
 70
     1
102
RTVSPost2010Prop38
140
0.0
102
RTVSPost2010PropOp38
 70
     1
102
RTVSPost2010Prop39
140
1.0
102
RTVSPost2010PropOp39
 70
     1
102
RTVSPost2010Prop40
 90
        0
102
RTVSPost2010PropOp40
 70
     1
102
RTVSPost2010Prop41ColorIndex
 90
       18
102
RTVSPost2010Prop41ColorRGB
 90
        0
102
RTVSPost2010PropOp41
 70
     1
102
RTVSPost2010Prop42
 90
       50
102
RTVSPost2010PropOp42
 70
     1
102
RTVSPost2010Prop43
 90
        3
102
RTVSPost2010PropOp43
 70
     1
102
RTVSPost2010Prop44ColorIndex
 90
        5
102
RTVSPost2010Prop44ColorRGB
 90
      255
102
RTVSPost2010PropOp44
 70
     1
102
RTVSPost2010Prop45
280
     0
102
RTVSPost2010PropOp45
 70
     1
102
RTVSPost2010Prop46
 90
       50
102
RTVSPost2010PropOp46
 70
     1
102
RTVSPost2010Prop47
 90
       50
102
RTVSPost2010PropOp47
 70
     1
102
RTVSPost2010Prop48
 90
       50
102
RTVSPost2010PropOp48
 70
     1
102
RTVSPost2010Prop49
280
     0
102
RTVSPost2010PropOp49
 70
     1
102
RTVSPost2010Prop50
 90
       50
102
RTVSPost2010PropOp50
 70
     1
102
RTVSPost2010Prop51ColorIndex
 90
      256
102
RTVSPost2010Prop51ColorRGB
 90
-16777216
102
RTVSPost2010PropOp51
 70
     0
102
RTVSPost2010Prop52
140
1.0
102
RTVSPost2010PropOp52
 70
     0
102
RTVSPost2010Prop53
 90
        2
102
RTVSPost2010PropOp53
 70
     1
102
RTVSPost2010Prop54
  1
strokes_ogs.tif
102
RTVSPost2010PropOp54
 70
     1
102
RTVSPost2010Prop55
280
     0
102
RTVSPost2010PropOp55
 70
     1
102
RTVSPost2010Prop56
140
1.0
102
RTVSPost2010PropOp56
 70
     1
102
RTVSPost2010Prop57
140
1.0
102
RTVSPost2010PropOp57
 70
     1
  0
XRECORD
  5
45A
102
{ACAD_REACTORS
330
459
102
}
330
459
100
AcDbXrecord
280
     1
102
RTVSPropertyOp0
 70
     0
102
RTVSPropertyOp1
 70
     0
102
RTVSPropertyOp2
 70
     0
102
RTVSPropertyOp3
 70
     0
102
RTVSPropertyOp4
 70
     0
102
RTVSPropertyOp5
 70
     0
102
RTVSPropertyOp6
 70
     0
102
RTVSPropertyOp7
 70
     0
102
RTVSPropertyOp8
 70
     0
102
RTVSPropertyOp9
 70
     0
102
RTVSPropertyOp10
 70
     0
102
RTVSPropertyOp11
 70
     0
102
RTVSPropertyOp12
 70
     0
102
RTVSPropertyOp13
 70
     0
102
RTVSPropertyOp14
 70
     2
102
RTVSPropertyOp15
 70
     0
102
RTVSPropertyOp16
 70
     0
102
RTVSPropertyOp17
 70
     0
102
RTVSPropertyOp18
 70
     0
102
RTVSPropertyOp19
 70
     0
102
RTVSPropertyOp20
 70
     0
102
RTVSPropertyOp21
 70
     0
102
RTVSPropertyOp22
 70
     0
102
RTVSPropertyOp23
 70
     0
102
RTVSPropertyOp24
 70
     0
102
RTVSPropertyOp25
 70
     0
102
RTVSPropertyOp26
 70
     0
102
RTVSPropertyOp27
 70
     0
102
RTVSPropertyOp28
 70
     0
102
RTVSPropertyOp29
 70
     0
102
RTVSPropertyOp30
 70
     0
102
RTVSPropertyOp31
 70
     0
102
RTVSPropertyOp32
 70
     0
102
RTVSPropertyOp33
 70
     0
102
RTVSPropertyOp34
 70
     0
102
RTVSPropertyOp35
 70
     0
102
RTVSPropertyOp36
 70
     0
102
RTVSPropertyOp37
 70
     0
102
RTVSPropertyOp38
 70
     0
102
RTVSPropertyOp39
 70
     0
102
RTVSPropertyOp40
 70
     0
102
RTVSPropertyOp41
 70
     0
102
RTVSPropertyOp42
 70
     0
102
RTVSPropertyOp43
 70
     0
102
RTVSPropertyOp44
 70
     0
102
RTVSPropertyOp45
 70
     0
102
RTVSPropertyOp46
 70
     0
102
RTVSPropertyOp47
 70
     0
102
RTVSPropertyOp48
 70
     0
102
RTVSPropertyOp49
 70
     0
102
RTVSPropertyOp50
 70
     0
102
RTVSPropertyOp51
 70
     0
102
RTVSPropertyOp52
 70
     0
102
RTVSPropertyOp53
 70
     0
102
RTVSPropertyOp54
 70
     0
102
RTVSPropertyOp55
 70
     0
102
RTVSPropertyOp56
 70
     0
102
RTVSPropertyOp57
 70
     0
102
RTVSPost2010Prop28
280
     0
102
RTVSPost2010PropOp28
 70
     0
102
RTVSPost2010Prop29
280
     1
102
RTVSPost2010PropOp29
 70
     0
102
RTVSPost2010Prop30
280
     1
102
RTVSPost2010PropOp30
 70
     0
102
RTVSPost2010Prop31
280
     0
102
RTVSPost2010PropOp31
 70
     0
102
RTVSPost2010Prop32
280
     0
102
RTVSPost2010PropOp32
 70
     0
102
RTVSPost2010Prop33
280
     0
102
RTVSPost2010PropOp33
 70
     0
102
RTVSPost2010Prop34
280
     0
102
RTVSPost2010PropOp34
 70
     0
102
RTVSPost2010Prop35
280
     0
102
RTVSPost2010PropOp35
 70
     0
102
RTVSPost2010Prop36
280
     0
102
RTVSPost2010PropOp36
 70
     0
102
RTVSPost2010Prop37
 90
       50
102
RTVSPost2010PropOp37
 70
     0
102
RTVSPost2010Prop38
140
0.0
102
RTVSPost2010PropOp38
 70
     0
102
RTVSPost2010Prop39
140
1.0
102
RTVSPost2010PropOp39
 70
     0
102
RTVSPost2010Prop40
 90
        0
102
RTVSPost2010PropOp40
 70
     0
102
RTVSPost2010Prop41ColorIndex
 90
       18
102
RTVSPost2010Prop41ColorRGB
 90
        0
102
RTVSPost2010PropOp41
 70
     0
102
RTVSPost2010Prop42
 90
       50
102
RTVSPost2010PropOp42
 70
     0
102
RTVSPost2010Prop43
 90
        3
102
RTVSPost2010PropOp43
 70
     0
102
RTVSPost2010Prop44ColorIndex
 90
        5
102
RTVSPost2010Prop44ColorRGB
 90
      255
102
RTVSPost2010PropOp44
 70
     0
102
RTVSPost2010Prop45
280
     0
102
RTVSPost2010PropOp45
 70
     0
102
RTVSPost2010Prop46
 90
       50
102
RTVSPost2010PropOp46
 70
     0
102
RTVSPost2010Prop47
 90
       50
102
RTVSPost2010PropOp47
 70
     0
102
RTVSPost2010Prop48
 90
       50
102
RTVSPost2010PropOp48
 70
     0
102
RTVSPost2010Prop49
280
     0
102
RTVSPost2010PropOp49
 70
     0
102
RTVSPost2010Prop50
 90
       50
102
RTVSPost2010PropOp50
 70
     0
102
RTVSPost2010Prop51ColorIndex
 90
      256
102
RTVSPost2010Prop51ColorRGB
 90
-16777216
102
RTVSPost2010PropOp51
 70
     0
102
RTVSPost2010Prop52
140
1.0
102
RTVSPost2010PropOp52
 70
     0
102
RTVSPost2010Prop53
 90
        2
102
RTVSPost2010PropOp53
 70
     0
102
RTVSPost2010Prop54
  1
strokes_ogs.tif
102
RTVSPost2010PropOp54
 70
     0
102
RTVSPost2010Prop55
280
     0
102
RTVSPost2010PropOp55
 70
     0
102
RTVSPost2010Prop56
140
1.0
102
RTVSPost2010PropOp56
 70
     0
102
RTVSPost2010Prop57
140
1.0
102
RTVSPost2010PropOp57
 70
     0
  0
XRECORD
  5
454
102
{ACAD_REACTORS
330
453
102
}
330
453
100
AcDbXrecord
280
     1
102
RTVSPropertyOp0
 70
     1
102
RTVSPropertyOp1
 70
     1
102
RTVSPropertyOp2
 70
     1
102
RTVSPropertyOp3
 70
     1
102
RTVSPropertyOp4
 70
     1
102
RTVSPropertyOp5
 70
     1
102
RTVSPropertyOp6
 70
     1
102
RTVSPropertyOp7
 70
     1
102
RTVSPropertyOp8
 70
     1
102
RTVSPropertyOp9
 70
     1
102
RTVSPropertyOp10
 70
     1
102
RTVSPropertyOp11
 70
     1
102
RTVSPropertyOp12
 70
     1
102
RTVSPropertyOp13
 70
     1
102
RTVSPropertyOp14
 70
     1
102
RTVSPropertyOp15
 70
     1
102
RTVSPropertyOp16
 70
     1
102
RTVSPropertyOp17
 70
     1
102
RTVSPropertyOp18
 70
     1
102
RTVSPropertyOp19
 70
     1
102
RTVSPropertyOp20
 70
     1
102
RTVSPropertyOp21
 70
     1
102
RTVSPropertyOp22
 70
     1
102
RTVSPropertyOp23
 70
     1
102
RTVSPropertyOp24
 70
     1
102
RTVSPropertyOp25
 70
     1
102
RTVSPropertyOp26
 70
     1
102
RTVSPropertyOp27
 70
     1
102
RTVSPropertyOp28
 70
     1
102
RTVSPropertyOp29
 70
     1
102
RTVSPropertyOp30
 70
     1
102
RTVSPropertyOp31
 70
     1
102
RTVSPropertyOp32
 70
     1
102
RTVSPropertyOp33
 70
     1
102
RTVSPropertyOp34
 70
     1
102
RTVSPropertyOp35
 70
     1
102
RTVSPropertyOp36
 70
     1
102
RTVSPropertyOp37
 70
     1
102
RTVSPropertyOp38
 70
     1
102
RTVSPropertyOp39
 70
     1
102
RTVSPropertyOp40
 70
     1
102
RTVSPropertyOp41
 70
     1
102
RTVSPropertyOp42
 70
     1
102
RTVSPropertyOp43
 70
     1
102
RTVSPropertyOp44
 70
     1
102
RTVSPropertyOp45
 70
     1
102
RTVSPropertyOp46
 70
     1
102
RTVSPropertyOp47
 70
     1
102
RTVSPropertyOp48
 70
     1
102
RTVSPropertyOp49
 70
     1
102
RTVSPropertyOp50
 70
     1
102
RTVSPropertyOp51
 70
     0
102
RTVSPropertyOp52
 70
     0
102
RTVSPropertyOp53
 70
     1
102
RTVSPropertyOp54
 70
     1
102
RTVSPropertyOp55
 70
     1
102
RTVSPropertyOp56
 70
     1
102
RTVSPropertyOp57
 70
     1
102
RTVSPost2010Prop28
280
     0
102
RTVSPost2010PropOp28
 70
     1
102
RTVSPost2010Prop29
280
     1
102
RTVSPost2010PropOp29
 70
     1
102
RTVSPost2010Prop30
280
     1
102
RTVSPost2010PropOp30
 70
     1
102
RTVSPost2010Prop31
280
     0
102
RTVSPost2010PropOp31
 70
     1
102
RTVSPost2010Prop32
280
     0
102
RTVSPost2010PropOp32
 70
     1
102
RTVSPost2010Prop33
280
     0
102
RTVSPost2010PropOp33
 70
     1
102
RTVSPost2010Prop34
280
     0
102
RTVSPost2010PropOp34
 70
     1
102
RTVSPost2010Prop35
280
     0
102
RTVSPost2010PropOp35
 70
     1
102
RTVSPost2010Prop36
280
     0
102
RTVSPost2010PropOp36
 70
     1
102
RTVSPost2010Prop37
 90
       50
102
RTVSPost2010PropOp37
 70
     1
102
RTVSPost2010Prop38
140
0.0
102
RTVSPost2010PropOp38
 70
     1
102
RTVSPost2010Prop39
140
1.0
102
RTVSPost2010PropOp39
 70
     1
102
RTVSPost2010Prop40
 90
        0
102
RTVSPost2010PropOp40
 70
     1
102
RTVSPost2010Prop41ColorIndex
 90
       18
102
RTVSPost2010Prop41ColorRGB
 90
        0
102
RTVSPost2010PropOp41
 70
     1
102
RTVSPost2010Prop42
 90
       50
102
RTVSPost2010PropOp42
 70
     1
102
RTVSPost2010Prop43
 90
        3
102
RTVSPost2010PropOp43
 70
     1
102
RTVSPost2010Prop44ColorIndex
 90
        5
102
RTVSPost2010Prop44ColorRGB
 90
      255
102
RTVSPost2010PropOp44
 70
     1
102
RTVSPost2010Prop45
280
     0
102
RTVSPost2010PropOp45
 70
     1
102
RTVSPost2010Prop46
 90
       50
102
RTVSPost2010PropOp46
 70
     1
102
RTVSPost2010Prop47
 90
       50
102
RTVSPost2010PropOp47
 70
     1
102
RTVSPost2010Prop48
 90
       50
102
RTVSPost2010PropOp48
 70
     1
102
RTVSPost2010Prop49
280
     0
102
RTVSPost2010PropOp49
 70
     1
102
RTVSPost2010Prop50
 90
       50
102
RTVSPost2010PropOp50
 70
     1
102
RTVSPost2010Prop51ColorIndex
 90
      256
102
RTVSPost2010Prop51ColorRGB
 90
-16777216
102
RTVSPost2010PropOp51
 70
     0
102
RTVSPost2010Prop52
140
1.0
102
RTVSPost2010PropOp52
 70
     0
102
RTVSPost2010Prop53
 90
        2
102
RTVSPost2010PropOp53
 70
     1
102
RTVSPost2010Prop54
  1
strokes_ogs.tif
102
RTVSPost2010PropOp54
 70
     1
102
RTVSPost2010Prop55
280
     0
102
RTVSPost2010PropOp55
 70
     1
102
RTVSPost2010Prop56
140
1.0
102
RTVSPost2010PropOp56
 70
     1
102
RTVSPost2010Prop57
140
1.0
102
RTVSPost2010PropOp57
 70
     1
  0
XRECORD
  5
45C
102
{ACAD_REACTORS
330
45B
102
}
330
45B
100
AcDbXrecord
280
     1
102
RTVSPropertyOp0
 70
     0
102
RTVSPropertyOp1
 70
     0
102
RTVSPropertyOp2
 70
     0
102
RTVSPropertyOp3
 70
     0
102
RTVSPropertyOp4
 70
     0
102
RTVSPropertyOp5
 70
     0
102
RTVSPropertyOp6
 70
     0
102
RTVSPropertyOp7
 70
     0
102
RTVSPropertyOp8
 70
     0
102
RTVSPropertyOp9
 70
     0
102
RTVSPropertyOp10
 70
     0
102
RTVSPropertyOp11
 70
     0
102
RTVSPropertyOp12
 70
     0
102
RTVSPropertyOp13
 70
     0
102
RTVSPropertyOp14
 70
     2
102
RTVSPropertyOp15
 70
     0
102
RTVSPropertyOp16
 70
     0
102
RTVSPropertyOp17
 70
     0
102
RTVSPropertyOp18
 70
     0
102
RTVSPropertyOp19
 70
     0
102
RTVSPropertyOp20
 70
     0
102
RTVSPropertyOp21
 70
     0
102
RTVSPropertyOp22
 70
     0
102
RTVSPropertyOp23
 70
     0
102
RTVSPropertyOp24
 70
     0
102
RTVSPropertyOp25
 70
     0
102
RTVSPropertyOp26
 70
     0
102
RTVSPropertyOp27
 70
     0
102
RTVSPropertyOp28
 70
     0
102
RTVSPropertyOp29
 70
     0
102
RTVSPropertyOp30
 70
     0
102
RTVSPropertyOp31
 70
     0
102
RTVSPropertyOp32
 70
     0
102
RTVSPropertyOp33
 70
     0
102
RTVSPropertyOp34
 70
     0
102
RTVSPropertyOp35
 70
     0
102
RTVSPropertyOp36
 70
     0
102
RTVSPropertyOp37
 70
     0
102
RTVSPropertyOp38
 70
     0
102
RTVSPropertyOp39
 70
     0
102
RTVSPropertyOp40
 70
     0
102
RTVSPropertyOp41
 70
     0
102
RTVSPropertyOp42
 70
     0
102
RTVSPropertyOp43
 70
     0
102
RTVSPropertyOp44
 70
     0
102
RTVSPropertyOp45
 70
     0
102
RTVSPropertyOp46
 70
     0
102
RTVSPropertyOp47
 70
     0
102
RTVSPropertyOp48
 70
     0
102
RTVSPropertyOp49
 70
     0
102
RTVSPropertyOp50
 70
     0
102
RTVSPropertyOp51
 70
     0
102
RTVSPropertyOp52
 70
     0
102
RTVSPropertyOp53
 70
     0
102
RTVSPropertyOp54
 70
     0
102
RTVSPropertyOp55
 70
     0
102
RTVSPropertyOp56
 70
     0
102
RTVSPropertyOp57
 70
     0
102
RTVSPost2010Prop28
280
     0
102
RTVSPost2010PropOp28
 70
     0
102
RTVSPost2010Prop29
280
     1
102
RTVSPost2010PropOp29
 70
     0
102
RTVSPost2010Prop30
280
     1
102
RTVSPost2010PropOp30
 70
     0
102
RTVSPost2010Prop31
280
     0
102
RTVSPost2010PropOp31
 70
     0
102
RTVSPost2010Prop32
280
     0
102
RTVSPost2010PropOp32
 70
     0
102
RTVSPost2010Prop33
280
     0
102
RTVSPost2010PropOp33
 70
     0
102
RTVSPost2010Prop34
280
     0
102
RTVSPost2010PropOp34
 70
     0
102
RTVSPost2010Prop35
280
     0
102
RTVSPost2010PropOp35
 70
     0
102
RTVSPost2010Prop36
280
     0
102
RTVSPost2010PropOp36
 70
     0
102
RTVSPost2010Prop37
 90
       50
102
RTVSPost2010PropOp37
 70
     0
102
RTVSPost2010Prop38
140
0.0
102
RTVSPost2010PropOp38
 70
     0
102
RTVSPost2010Prop39
140
1.0
102
RTVSPost2010PropOp39
 70
     0
102
RTVSPost2010Prop40
 90
        0
102
RTVSPost2010PropOp40
 70
     0
102
RTVSPost2010Prop41ColorIndex
 90
       18
102
RTVSPost2010Prop41ColorRGB
 90
        0
102
RTVSPost2010PropOp41
 70
     0
102
RTVSPost2010Prop42
 90
       50
102
RTVSPost2010PropOp42
 70
     0
102
RTVSPost2010Prop43
 90
        3
102
RTVSPost2010PropOp43
 70
     0
102
RTVSPost2010Prop44ColorIndex
 90
        5
102
RTVSPost2010Prop44ColorRGB
 90
      255
102
RTVSPost2010PropOp44
 70
     0
102
RTVSPost2010Prop45
280
     0
102
RTVSPost2010PropOp45
 70
     0
102
RTVSPost2010Prop46
 90
       50
102
RTVSPost2010PropOp46
 70
     0
102
RTVSPost2010Prop47
 90
       50
102
RTVSPost2010PropOp47
 70
     0
102
RTVSPost2010Prop48
 90
       50
102
RTVSPost2010PropOp48
 70
     0
102
RTVSPost2010Prop49
280
     0
102
RTVSPost2010PropOp49
 70
     0
102
RTVSPost2010Prop50
 90
       50
102
RTVSPost2010PropOp50
 70
     0
102
RTVSPost2010Prop51ColorIndex
 90
      256
102
RTVSPost2010Prop51ColorRGB
 90
-16777216
102
RTVSPost2010PropOp51
 70
     0
102
RTVSPost2010Prop52
140
1.0
102
RTVSPost2010PropOp52
 70
     0
102
RTVSPost2010Prop53
 90
        2
102
RTVSPost2010PropOp53
 70
     0
102
RTVSPost2010Prop54
  1
strokes_ogs.tif
102
RTVSPost2010PropOp54
 70
     0
102
RTVSPost2010Prop55
280
     0
102
RTVSPost2010PropOp55
 70
     0
102
RTVSPost2010Prop56
140
1.0
102
RTVSPost2010PropOp56
 70
     0
102
RTVSPost2010Prop57
140
1.0
102
RTVSPost2010PropOp57
 70
     0
  0
XRECORD
  5
44A
102
{ACAD_REACTORS
330
449
102
}
330
449
100
AcDbXrecord
280
     1
102
RTVSPropertyOp0
 70
     1
102
RTVSPropertyOp1
 70
     1
102
RTVSPropertyOp2
 70
     1
102
RTVSPropertyOp3
 70
     1
102
RTVSPropertyOp4
 70
     1
102
RTVSPropertyOp5
 70
     1
102
RTVSPropertyOp6
 70
     1
102
RTVSPropertyOp7
 70
     1
102
RTVSPropertyOp8
 70
     1
102
RTVSPropertyOp9
 70
     1
102
RTVSPropertyOp10
 70
     1
102
RTVSPropertyOp11
 70
     1
102
RTVSPropertyOp12
 70
     1
102
RTVSPropertyOp13
 70
     1
102
RTVSPropertyOp14
 70
     1
102
RTVSPropertyOp15
 70
     1
102
RTVSPropertyOp16
 70
     1
102
RTVSPropertyOp17
 70
     1
102
RTVSPropertyOp18
 70
     1
102
RTVSPropertyOp19
 70
     1
102
RTVSPropertyOp20
 70
     1
102
RTVSPropertyOp21
 70
     1
102
RTVSPropertyOp22
 70
     1
102
RTVSPropertyOp23
 70
     1
102
RTVSPropertyOp24
 70
     1
102
RTVSPropertyOp25
 70
     1
102
RTVSPropertyOp26
 70
     1
102
RTVSPropertyOp27
 70
     1
102
RTVSPropertyOp28
 70
     1
102
RTVSPropertyOp29
 70
     1
102
RTVSPropertyOp30
 70
     1
102
RTVSPropertyOp31
 70
     1
102
RTVSPropertyOp32
 70
     1
102
RTVSPropertyOp33
 70
     1
102
RTVSPropertyOp34
 70
     1
102
RTVSPropertyOp35
 70
     1
102
RTVSPropertyOp36
 70
     1
102
RTVSPropertyOp37
 70
     1
102
RTVSPropertyOp38
 70
     1
102
RTVSPropertyOp39
 70
     1
102
RTVSPropertyOp40
 70
     1
102
RTVSPropertyOp41
 70
     1
102
RTVSPropertyOp42
 70
     1
102
RTVSPropertyOp43
 70
     1
102
RTVSPropertyOp44
 70
     1
102
RTVSPropertyOp45
 70
     1
102
RTVSPropertyOp46
 70
     1
102
RTVSPropertyOp47
 70
     1
102
RTVSPropertyOp48
 70
     1
102
RTVSPropertyOp49
 70
     1
102
RTVSPropertyOp50
 70
     1
102
RTVSPropertyOp51
 70
     0
102
RTVSPropertyOp52
 70
     0
102
RTVSPropertyOp53
 70
     1
102
RTVSPropertyOp54
 70
     1
102
RTVSPropertyOp55
 70
     1
102
RTVSPropertyOp56
 70
     1
102
RTVSPropertyOp57
 70
     1
102
RTVSPost2010Prop28
280
     0
102
RTVSPost2010PropOp28
 70
     1
102
RTVSPost2010Prop29
280
     1
102
RTVSPost2010PropOp29
 70
     1
102
RTVSPost2010Prop30
280
     1
102
RTVSPost2010PropOp30
 70
     1
102
RTVSPost2010Prop31
280
     0
102
RTVSPost2010PropOp31
 70
     1
102
RTVSPost2010Prop32
280
     0
102
RTVSPost2010PropOp32
 70
     1
102
RTVSPost2010Prop33
280
     0
102
RTVSPost2010PropOp33
 70
     1
102
RTVSPost2010Prop34
280
     0
102
RTVSPost2010PropOp34
 70
     1
102
RTVSPost2010Prop35
280
     0
102
RTVSPost2010PropOp35
 70
     1
102
RTVSPost2010Prop36
280
     0
102
RTVSPost2010PropOp36
 70
     1
102
RTVSPost2010Prop37
 90
       50
102
RTVSPost2010PropOp37
 70
     1
102
RTVSPost2010Prop38
140
0.0
102
RTVSPost2010PropOp38
 70
     1
102
RTVSPost2010Prop39
140
1.0
102
RTVSPost2010PropOp39
 70
     1
102
RTVSPost2010Prop40
 90
        0
102
RTVSPost2010PropOp40
 70
     1
102
RTVSPost2010Prop41ColorIndex
 90
       18
102
RTVSPost2010Prop41ColorRGB
 90
        0
102
RTVSPost2010PropOp41
 70
     1
102
RTVSPost2010Prop42
 90
       50
102
RTVSPost2010PropOp42
 70
     1
102
RTVSPost2010Prop43
 90
        3
102
RTVSPost2010PropOp43
 70
     1
102
RTVSPost2010Prop44ColorIndex
 90
        5
102
RTVSPost2010Prop44ColorRGB
 90
      255
102
RTVSPost2010PropOp44
 70
     1
102
RTVSPost2010Prop45
280
     0
102
RTVSPost2010PropOp45
 70
     1
102
RTVSPost2010Prop46
 90
       50
102
RTVSPost2010PropOp46
 70
     1
102
RTVSPost2010Prop47
 90
       50
102
RTVSPost2010PropOp47
 70
     1
102
RTVSPost2010Prop48
 90
       50
102
RTVSPost2010PropOp48
 70
     1
102
RTVSPost2010Prop49
280
     0
102
RTVSPost2010PropOp49
 70
     1
102
RTVSPost2010Prop50
 90
       50
102
RTVSPost2010PropOp50
 70
     1
102
RTVSPost2010Prop51ColorIndex
 90
      256
102
RTVSPost2010Prop51ColorRGB
 90
-16777216
102
RTVSPost2010PropOp51
 70
     0
102
RTVSPost2010Prop52
140
1.0
102
RTVSPost2010PropOp52
 70
     0
102
RTVSPost2010Prop53
 90
        2
102
RTVSPost2010PropOp53
 70
     1
102
RTVSPost2010Prop54
  1
strokes_ogs.tif
102
RTVSPost2010PropOp54
 70
     1
102
RTVSPost2010Prop55
280
     0
102
RTVSPost2010PropOp55
 70
     1
102
RTVSPost2010Prop56
140
1.0
102
RTVSPost2010PropOp56
 70
     1
102
RTVSPost2010Prop57
140
1.0
102
RTVSPost2010PropOp57
 70
     1
  0
XRECORD
  5
468
102
{ACAD_REACTORS
330
467
102
}
330
467
100
AcDbXrecord
280
     1
102
RTVSPropertyOp0
 70
     1
102
RTVSPropertyOp1
 70
     1
102
RTVSPropertyOp2
 70
     1
102
RTVSPropertyOp3
 70
     1
102
RTVSPropertyOp4
 70
     1
102
RTVSPropertyOp5
 70
     1
102
RTVSPropertyOp6
 70
     1
102
RTVSPropertyOp7
 70
     1
102
RTVSPropertyOp8
 70
     1
102
RTVSPropertyOp9
 70
     1
102
RTVSPropertyOp10
 70
     1
102
RTVSPropertyOp11
 70
     1
102
RTVSPropertyOp12
 70
     1
102
RTVSPropertyOp13
 70
     1
102
RTVSPropertyOp14
 70
     1
102
RTVSPropertyOp15
 70
     1
102
RTVSPropertyOp16
 70
     1
102
RTVSPropertyOp17
 70
     1
102
RTVSPropertyOp18
 70
     1
102
RTVSPropertyOp19
 70
     1
102
RTVSPropertyOp20
 70
     1
102
RTVSPropertyOp21
 70
     1
102
RTVSPropertyOp22
 70
     1
102
RTVSPropertyOp23
 70
     1
102
RTVSPropertyOp24
 70
     1
102
RTVSPropertyOp25
 70
     1
102
RTVSPropertyOp26
 70
     1
102
RTVSPropertyOp27
 70
     1
102
RTVSPropertyOp28
 70
     1
102
RTVSPropertyOp29
 70
     1
102
RTVSPropertyOp30
 70
     1
102
RTVSPropertyOp31
 70
     1
102
RTVSPropertyOp32
 70
     1
102
RTVSPropertyOp33
 70
     1
102
RTVSPropertyOp34
 70
     1
102
RTVSPropertyOp35
 70
     1
102
RTVSPropertyOp36
 70
     1
102
RTVSPropertyOp37
 70
     1
102
RTVSPropertyOp38
 70
     1
102
RTVSPropertyOp39
 70
     1
102
RTVSPropertyOp40
 70
     1
102
RTVSPropertyOp41
 70
     1
102
RTVSPropertyOp42
 70
     1
102
RTVSPropertyOp43
 70
     1
102
RTVSPropertyOp44
 70
     1
102
RTVSPropertyOp45
 70
     1
102
RTVSPropertyOp46
 70
     1
102
RTVSPropertyOp47
 70
     1
102
RTVSPropertyOp48
 70
     1
102
RTVSPropertyOp49
 70
     1
102
RTVSPropertyOp50
 70
     1
102
RTVSPropertyOp51
 70
     0
102
RTVSPropertyOp52
 70
     0
102
RTVSPropertyOp53
 70
     1
102
RTVSPropertyOp54
 70
     1
102
RTVSPropertyOp55
 70
     1
102
RTVSPropertyOp56
 70
     1
102
RTVSPropertyOp57
 70
     1
102
RTVSPost2010Prop28
280
     0
102
RTVSPost2010PropOp28
 70
     1
102
RTVSPost2010Prop29
280
     1
102
RTVSPost2010PropOp29
 70
     1
102
RTVSPost2010Prop30
280
     1
102
RTVSPost2010PropOp30
 70
     1
102
RTVSPost2010Prop31
280
     0
102
RTVSPost2010PropOp31
 70
     1
102
RTVSPost2010Prop32
280
     0
102
RTVSPost2010PropOp32
 70
     1
102
RTVSPost2010Prop33
280
     0
102
RTVSPost2010PropOp33
 70
     1
102
RTVSPost2010Prop34
280
     0
102
RTVSPost2010PropOp34
 70
     1
102
RTVSPost2010Prop35
280
     0
102
RTVSPost2010PropOp35
 70
     1
102
RTVSPost2010Prop36
280
     0
102
RTVSPost2010PropOp36
 70
     1
102
RTVSPost2010Prop37
 90
       50
102
RTVSPost2010PropOp37
 70
     1
102
RTVSPost2010Prop38
140
0.0
102
RTVSPost2010PropOp38
 70
     1
102
RTVSPost2010Prop39
140
1.0
102
RTVSPost2010PropOp39
 70
     1
102
RTVSPost2010Prop40
 90
        0
102
RTVSPost2010PropOp40
 70
     1
102
RTVSPost2010Prop41ColorIndex
 90
       18
102
RTVSPost2010Prop41ColorRGB
 90
        0
102
RTVSPost2010PropOp41
 70
     1
102
RTVSPost2010Prop42
 90
       50
102
RTVSPost2010PropOp42
 70
     1
102
RTVSPost2010Prop43
 90
        3
102
RTVSPost2010PropOp43
 70
     1
102
RTVSPost2010Prop44ColorIndex
 90
        5
102
RTVSPost2010Prop44ColorRGB
 90
      255
102
RTVSPost2010PropOp44
 70
     1
102
RTVSPost2010Prop45
280
     0
102
RTVSPost2010PropOp45
 70
     1
102
RTVSPost2010Prop46
 90
       50
102
RTVSPost2010PropOp46
 70
     1
102
RTVSPost2010Prop47
 90
       50
102
RTVSPost2010PropOp47
 70
     1
102
RTVSPost2010Prop48
 90
       50
102
RTVSPost2010PropOp48
 70
     1
102
RTVSPost2010Prop49
280
     0
102
RTVSPost2010PropOp49
 70
     1
102
RTVSPost2010Prop50
 90
       50
102
RTVSPost2010PropOp50
 70
     1
102
RTVSPost2010Prop51ColorIndex
 90
      256
102
RTVSPost2010Prop51ColorRGB
 90
-16777216
102
RTVSPost2010PropOp51
 70
     0
102
RTVSPost2010Prop52
140
1.0
102
RTVSPost2010PropOp52
 70
     0
102
RTVSPost2010Prop53
 90
        2
102
RTVSPost2010PropOp53
 70
     1
102
RTVSPost2010Prop54
  1
strokes_ogs.tif
102
RTVSPost2010PropOp54
 70
     1
102
RTVSPost2010Prop55
280
     0
102
RTVSPost2010PropOp55
 70
     1
102
RTVSPost2010Prop56
140
1.0
102
RTVSPost2010PropOp56
 70
     1
102
RTVSPost2010Prop57
140
1.0
102
RTVSPost2010PropOp57
 70
     1
  0
XRECORD
  5
466
102
{ACAD_REACTORS
330
465
102
}
330
465
100
AcDbXrecord
280
     1
102
RTVSPropertyOp0
 70
     1
102
RTVSPropertyOp1
 70
     1
102
RTVSPropertyOp2
 70
     1
102
RTVSPropertyOp3
 70
     1
102
RTVSPropertyOp4
 70
     1
102
RTVSPropertyOp5
 70
     1
102
RTVSPropertyOp6
 70
     1
102
RTVSPropertyOp7
 70
     1
102
RTVSPropertyOp8
 70
     1
102
RTVSPropertyOp9
 70
     1
102
RTVSPropertyOp10
 70
     1
102
RTVSPropertyOp11
 70
     1
102
RTVSPropertyOp12
 70
     1
102
RTVSPropertyOp13
 70
     1
102
RTVSPropertyOp14
 70
     1
102
RTVSPropertyOp15
 70
     1
102
RTVSPropertyOp16
 70
     1
102
RTVSPropertyOp17
 70
     1
102
RTVSPropertyOp18
 70
     1
102
RTVSPropertyOp19
 70
     1
102
RTVSPropertyOp20
 70
     1
102
RTVSPropertyOp21
 70
     1
102
RTVSPropertyOp22
 70
     1
102
RTVSPropertyOp23
 70
     1
102
RTVSPropertyOp24
 70
     1
102
RTVSPropertyOp25
 70
     1
102
RTVSPropertyOp26
 70
     1
102
RTVSPropertyOp27
 70
     1
102
RTVSPropertyOp28
 70
     1
102
RTVSPropertyOp29
 70
     1
102
RTVSPropertyOp30
 70
     1
102
RTVSPropertyOp31
 70
     1
102
RTVSPropertyOp32
 70
     1
102
RTVSPropertyOp33
 70
     1
102
RTVSPropertyOp34
 70
     1
102
RTVSPropertyOp35
 70
     1
102
RTVSPropertyOp36
 70
     1
102
RTVSPropertyOp37
 70
     1
102
RTVSPropertyOp38
 70
     1
102
RTVSPropertyOp39
 70
     1
102
RTVSPropertyOp40
 70
     1
102
RTVSPropertyOp41
 70
     1
102
RTVSPropertyOp42
 70
     1
102
RTVSPropertyOp43
 70
     1
102
RTVSPropertyOp44
 70
     1
102
RTVSPropertyOp45
 70
     1
102
RTVSPropertyOp46
 70
     1
102
RTVSPropertyOp47
 70
     1
102
RTVSPropertyOp48
 70
     1
102
RTVSPropertyOp49
 70
     1
102
RTVSPropertyOp50
 70
     1
102
RTVSPropertyOp51
 70
     0
102
RTVSPropertyOp52
 70
     0
102
RTVSPropertyOp53
 70
     1
102
RTVSPropertyOp54
 70
     1
102
RTVSPropertyOp55
 70
     1
102
RTVSPropertyOp56
 70
     1
102
RTVSPropertyOp57
 70
     1
102
RTVSPost2010Prop28
280
     0
102
RTVSPost2010PropOp28
 70
     1
102
RTVSPost2010Prop29
280
     1
102
RTVSPost2010PropOp29
 70
     1
102
RTVSPost2010Prop30
280
     1
102
RTVSPost2010PropOp30
 70
     1
102
RTVSPost2010Prop31
280
     0
102
RTVSPost2010PropOp31
 70
     1
102
RTVSPost2010Prop32
280
     0
102
RTVSPost2010PropOp32
 70
     1
102
RTVSPost2010Prop33
280
     0
102
RTVSPost2010PropOp33
 70
     1
102
RTVSPost2010Prop34
280
     0
102
RTVSPost2010PropOp34
 70
     1
102
RTVSPost2010Prop35
280
     0
102
RTVSPost2010PropOp35
 70
     1
102
RTVSPost2010Prop36
280
     0
102
RTVSPost2010PropOp36
 70
     1
102
RTVSPost2010Prop37
 90
       50
102
RTVSPost2010PropOp37
 70
     1
102
RTVSPost2010Prop38
140
0.0
102
RTVSPost2010PropOp38
 70
     1
102
RTVSPost2010Prop39
140
1.0
102
RTVSPost2010PropOp39
 70
     1
102
RTVSPost2010Prop40
 90
        0
102
RTVSPost2010PropOp40
 70
     1
102
RTVSPost2010Prop41ColorIndex
 90
       18
102
RTVSPost2010Prop41ColorRGB
 90
        0
102
RTVSPost2010PropOp41
 70
     1
102
RTVSPost2010Prop42
 90
       50
102
RTVSPost2010PropOp42
 70
     1
102
RTVSPost2010Prop43
 90
        3
102
RTVSPost2010PropOp43
 70
     1
102
RTVSPost2010Prop44ColorIndex
 90
        5
102
RTVSPost2010Prop44ColorRGB
 90
      255
102
RTVSPost2010PropOp44
 70
     1
102
RTVSPost2010Prop45
280
     0
102
RTVSPost2010PropOp45
 70
     1
102
RTVSPost2010Prop46
 90
       50
102
RTVSPost2010PropOp46
 70
     1
102
RTVSPost2010Prop47
 90
       50
102
RTVSPost2010PropOp47
 70
     1
102
RTVSPost2010Prop48
 90
       50
102
RTVSPost2010PropOp48
 70
     1
102
RTVSPost2010Prop49
280
     0
102
RTVSPost2010PropOp49
 70
     1
102
RTVSPost2010Prop50
 90
       50
102
RTVSPost2010PropOp50
 70
     1
102
RTVSPost2010Prop51ColorIndex
 90
      256
102
RTVSPost2010Prop51ColorRGB
 90
-16777216
102
RTVSPost2010PropOp51
 70
     0
102
RTVSPost2010Prop52
140
1.0
102
RTVSPost2010PropOp52
 70
     0
102
RTVSPost2010Prop53
 90
        2
102
RTVSPost2010PropOp53
 70
     1
102
RTVSPost2010Prop54
  1
strokes_ogs.tif
102
RTVSPost2010PropOp54
 70
     1
102
RTVSPost2010Prop55
280
     0
102
RTVSPost2010PropOp55
 70
     1
102
RTVSPost2010Prop56
140
1.0
102
RTVSPost2010PropOp56
 70
     1
102
RTVSPost2010Prop57
140
1.0
102
RTVSPost2010PropOp57
 70
     1
  0
XRECORD
  5
460
102
{ACAD_REACTORS
330
45F
102
}
330
45F
100
AcDbXrecord
280
     1
102
RTVSPropertyOp0
 70
     1
102
RTVSPropertyOp1
 70
     1
102
RTVSPropertyOp2
 70
     1
102
RTVSPropertyOp3
 70
     1
102
RTVSPropertyOp4
 70
     1
102
RTVSPropertyOp5
 70
     1
102
RTVSPropertyOp6
 70
     1
102
RTVSPropertyOp7
 70
     1
102
RTVSPropertyOp8
 70
     1
102
RTVSPropertyOp9
 70
     1
102
RTVSPropertyOp10
 70
     1
102
RTVSPropertyOp11
 70
     1
102
RTVSPropertyOp12
 70
     1
102
RTVSPropertyOp13
 70
     1
102
RTVSPropertyOp14
 70
     1
102
RTVSPropertyOp15
 70
     1
102
RTVSPropertyOp16
 70
     1
102
RTVSPropertyOp17
 70
     1
102
RTVSPropertyOp18
 70
     1
102
RTVSPropertyOp19
 70
     1
102
RTVSPropertyOp20
 70
     1
102
RTVSPropertyOp21
 70
     1
102
RTVSPropertyOp22
 70
     1
102
RTVSPropertyOp23
 70
     1
102
RTVSPropertyOp24
 70
     1
102
RTVSPropertyOp25
 70
     1
102
RTVSPropertyOp26
 70
     1
102
RTVSPropertyOp27
 70
     1
102
RTVSPropertyOp28
 70
     1
102
RTVSPropertyOp29
 70
     1
102
RTVSPropertyOp30
 70
     1
102
RTVSPropertyOp31
 70
     1
102
RTVSPropertyOp32
 70
     1
102
RTVSPropertyOp33
 70
     1
102
RTVSPropertyOp34
 70
     1
102
RTVSPropertyOp35
 70
     1
102
RTVSPropertyOp36
 70
     1
102
RTVSPropertyOp37
 70
     1
102
RTVSPropertyOp38
 70
     1
102
RTVSPropertyOp39
 70
     1
102
RTVSPropertyOp40
 70
     1
102
RTVSPropertyOp41
 70
     1
102
RTVSPropertyOp42
 70
     1
102
RTVSPropertyOp43
 70
     1
102
RTVSPropertyOp44
 70
     1
102
RTVSPropertyOp45
 70
     1
102
RTVSPropertyOp46
 70
     1
102
RTVSPropertyOp47
 70
     1
102
RTVSPropertyOp48
 70
     1
102
RTVSPropertyOp49
 70
     1
102
RTVSPropertyOp50
 70
     1
102
RTVSPropertyOp51
 70
     0
102
RTVSPropertyOp52
 70
     0
102
RTVSPropertyOp53
 70
     1
102
RTVSPropertyOp54
 70
     1
102
RTVSPropertyOp55
 70
     1
102
RTVSPropertyOp56
 70
     1
102
RTVSPropertyOp57
 70
     1
102
RTVSPost2010Prop28
280
     0
102
RTVSPost2010PropOp28
 70
     1
102
RTVSPost2010Prop29
280
     1
102
RTVSPost2010PropOp29
 70
     1
102
RTVSPost2010Prop30
280
     1
102
RTVSPost2010PropOp30
 70
     1
102
RTVSPost2010Prop31
280
     0
102
RTVSPost2010PropOp31
 70
     1
102
RTVSPost2010Prop32
280
     0
102
RTVSPost2010PropOp32
 70
     1
102
RTVSPost2010Prop33
280
     0
102
RTVSPost2010PropOp33
 70
     1
102
RTVSPost2010Prop34
280
     0
102
RTVSPost2010PropOp34
 70
     1
102
RTVSPost2010Prop35
280
     0
102
RTVSPost2010PropOp35
 70
     1
102
RTVSPost2010Prop36
280
     0
102
RTVSPost2010PropOp36
 70
     1
102
RTVSPost2010Prop37
 90
       50
102
RTVSPost2010PropOp37
 70
     1
102
RTVSPost2010Prop38
140
0.0
102
RTVSPost2010PropOp38
 70
     1
102
RTVSPost2010Prop39
140
1.0
102
RTVSPost2010PropOp39
 70
     1
102
RTVSPost2010Prop40
 90
        0
102
RTVSPost2010PropOp40
 70
     1
102
RTVSPost2010Prop41ColorIndex
 90
       18
102
RTVSPost2010Prop41ColorRGB
 90
        0
102
RTVSPost2010PropOp41
 70
     1
102
RTVSPost2010Prop42
 90
       50
102
RTVSPost2010PropOp42
 70
     1
102
RTVSPost2010Prop43
 90
        3
102
RTVSPost2010PropOp43
 70
     1
102
RTVSPost2010Prop44ColorIndex
 90
        5
102
RTVSPost2010Prop44ColorRGB
 90
      255
102
RTVSPost2010PropOp44
 70
     1
102
RTVSPost2010Prop45
280
     0
102
RTVSPost2010PropOp45
 70
     1
102
RTVSPost2010Prop46
 90
       50
102
RTVSPost2010PropOp46
 70
     1
102
RTVSPost2010Prop47
 90
       50
102
RTVSPost2010PropOp47
 70
     1
102
RTVSPost2010Prop48
 90
       50
102
RTVSPost2010PropOp48
 70
     1
102
RTVSPost2010Prop49
280
     0
102
RTVSPost2010PropOp49
 70
     1
102
RTVSPost2010Prop50
 90
       50
102
RTVSPost2010PropOp50
 70
     1
102
RTVSPost2010Prop51ColorIndex
 90
      256
102
RTVSPost2010Prop51ColorRGB
 90
-16777216
102
RTVSPost2010PropOp51
 70
     0
102
RTVSPost2010Prop52
140
1.0
102
RTVSPost2010PropOp52
 70
     0
102
RTVSPost2010Prop53
 90
        2
102
RTVSPost2010PropOp53
 70
     1
102
RTVSPost2010Prop54
  1
strokes_ogs.tif
102
RTVSPost2010PropOp54
 70
     1
102
RTVSPost2010Prop55
280
     0
102
RTVSPost2010PropOp55
 70
     1
102
RTVSPost2010Prop56
140
1.0
102
RTVSPost2010PropOp56
 70
     1
102
RTVSPost2010Prop57
140
1.0
102
RTVSPost2010PropOp57
 70
     1
  0
XRECORD
  5
462
102
{ACAD_REACTORS
330
461
102
}
330
461
100
AcDbXrecord
280
     1
102
RTVSPropertyOp0
 70
     1
102
RTVSPropertyOp1
 70
     1
102
RTVSPropertyOp2
 70
     1
102
RTVSPropertyOp3
 70
     1
102
RTVSPropertyOp4
 70
     1
102
RTVSPropertyOp5
 70
     1
102
RTVSPropertyOp6
 70
     1
102
RTVSPropertyOp7
 70
     1
102
RTVSPropertyOp8
 70
     1
102
RTVSPropertyOp9
 70
     1
102
RTVSPropertyOp10
 70
     1
102
RTVSPropertyOp11
 70
     1
102
RTVSPropertyOp12
 70
     1
102
RTVSPropertyOp13
 70
     1
102
RTVSPropertyOp14
 70
     1
102
RTVSPropertyOp15
 70
     1
102
RTVSPropertyOp16
 70
     1
102
RTVSPropertyOp17
 70
     1
102
RTVSPropertyOp18
 70
     1
102
RTVSPropertyOp19
 70
     1
102
RTVSPropertyOp20
 70
     1
102
RTVSPropertyOp21
 70
     1
102
RTVSPropertyOp22
 70
     1
102
RTVSPropertyOp23
 70
     1
102
RTVSPropertyOp24
 70
     1
102
RTVSPropertyOp25
 70
     1
102
RTVSPropertyOp26
 70
     1
102
RTVSPropertyOp27
 70
     1
102
RTVSPropertyOp28
 70
     1
102
RTVSPropertyOp29
 70
     1
102
RTVSPropertyOp30
 70
     1
102
RTVSPropertyOp31
 70
     1
102
RTVSPropertyOp32
 70
     1
102
RTVSPropertyOp33
 70
     1
102
RTVSPropertyOp34
 70
     1
102
RTVSPropertyOp35
 70
     1
102
RTVSPropertyOp36
 70
     1
102
RTVSPropertyOp37
 70
     1
102
RTVSPropertyOp38
 70
     1
102
RTVSPropertyOp39
 70
     1
102
RTVSPropertyOp40
 70
     1
102
RTVSPropertyOp41
 70
     1
102
RTVSPropertyOp42
 70
     1
102
RTVSPropertyOp43
 70
     1
102
RTVSPropertyOp44
 70
     1
102
RTVSPropertyOp45
 70
     1
102
RTVSPropertyOp46
 70
     1
102
RTVSPropertyOp47
 70
     1
102
RTVSPropertyOp48
 70
     1
102
RTVSPropertyOp49
 70
     1
102
RTVSPropertyOp50
 70
     1
102
RTVSPropertyOp51
 70
     0
102
RTVSPropertyOp52
 70
     0
102
RTVSPropertyOp53
 70
     1
102
RTVSPropertyOp54
 70
     1
102
RTVSPropertyOp55
 70
     1
102
RTVSPropertyOp56
 70
     1
102
RTVSPropertyOp57
 70
     1
102
RTVSPost2010Prop28
280
     0
102
RTVSPost2010PropOp28
 70
     1
102
RTVSPost2010Prop29
280
     1
102
RTVSPost2010PropOp29
 70
     1
102
RTVSPost2010Prop30
280
     1
102
RTVSPost2010PropOp30
 70
     1
102
RTVSPost2010Prop31
280
     0
102
RTVSPost2010PropOp31
 70
     1
102
RTVSPost2010Prop32
280
     0
102
RTVSPost2010PropOp32
 70
     1
102
RTVSPost2010Prop33
280
     0
102
RTVSPost2010PropOp33
 70
     1
102
RTVSPost2010Prop34
280
     0
102
RTVSPost2010PropOp34
 70
     1
102
RTVSPost2010Prop35
280
     0
102
RTVSPost2010PropOp35
 70
     1
102
RTVSPost2010Prop36
280
     0
102
RTVSPost2010PropOp36
 70
     1
102
RTVSPost2010Prop37
 90
       50
102
RTVSPost2010PropOp37
 70
     1
102
RTVSPost2010Prop38
140
0.0
102
RTVSPost2010PropOp38
 70
     1
102
RTVSPost2010Prop39
140
1.0
102
RTVSPost2010PropOp39
 70
     1
102
RTVSPost2010Prop40
 90
        0
102
RTVSPost2010PropOp40
 70
     1
102
RTVSPost2010Prop41ColorIndex
 90
       18
102
RTVSPost2010Prop41ColorRGB
 90
        0
102
RTVSPost2010PropOp41
 70
     1
102
RTVSPost2010Prop42
 90
       50
102
RTVSPost2010PropOp42
 70
     1
102
RTVSPost2010Prop43
 90
        3
102
RTVSPost2010PropOp43
 70
     1
102
RTVSPost2010Prop44ColorIndex
 90
        5
102
RTVSPost2010Prop44ColorRGB
 90
      255
102
RTVSPost2010PropOp44
 70
     1
102
RTVSPost2010Prop45
280
     0
102
RTVSPost2010PropOp45
 70
     1
102
RTVSPost2010Prop46
 90
       50
102
RTVSPost2010PropOp46
 70
     1
102
RTVSPost2010Prop47
 90
       50
102
RTVSPost2010PropOp47
 70
     1
102
RTVSPost2010Prop48
 90
       50
102
RTVSPost2010PropOp48
 70
     1
102
RTVSPost2010Prop49
280
     0
102
RTVSPost2010PropOp49
 70
     1
102
RTVSPost2010Prop50
 90
       50
102
RTVSPost2010PropOp50
 70
     1
102
RTVSPost2010Prop51ColorIndex
 90
      256
102
RTVSPost2010Prop51ColorRGB
 90
-16777216
102
RTVSPost2010PropOp51
 70
     0
102
RTVSPost2010Prop52
140
1.0
102
RTVSPost2010PropOp52
 70
     0
102
RTVSPost2010Prop53
 90
        2
102
RTVSPost2010PropOp53
 70
     1
102
RTVSPost2010Prop54
  1
strokes_ogs.tif
102
RTVSPost2010PropOp54
 70
     1
102
RTVSPost2010Prop55
280
     0
102
RTVSPost2010PropOp55
 70
     1
102
RTVSPost2010Prop56
140
1.0
102
RTVSPost2010PropOp56
 70
     1
102
RTVSPost2010Prop57
140
1.0
102
RTVSPost2010PropOp57
 70
     1
  0
XRECORD
  5
452
102
{ACAD_REACTORS
330
451
102
}
330
451
100
AcDbXrecord
280
     1
102
RTVSPropertyOp0
 70
     1
102
RTVSPropertyOp1
 70
     1
102
RTVSPropertyOp2
 70
     1
102
RTVSPropertyOp3
 70
     1
102
RTVSPropertyOp4
 70
     1
102
RTVSPropertyOp5
 70
     1
102
RTVSPropertyOp6
 70
     1
102
RTVSPropertyOp7
 70
     1
102
RTVSPropertyOp8
 70
     1
102
RTVSPropertyOp9
 70
     1
102
RTVSPropertyOp10
 70
     1
102
RTVSPropertyOp11
 70
     1
102
RTVSPropertyOp12
 70
     1
102
RTVSPropertyOp13
 70
     1
102
RTVSPropertyOp14
 70
     1
102
RTVSPropertyOp15
 70
     1
102
RTVSPropertyOp16
 70
     1
102
RTVSPropertyOp17
 70
     1
102
RTVSPropertyOp18
 70
     1
102
RTVSPropertyOp19
 70
     1
102
RTVSPropertyOp20
 70
     1
102
RTVSPropertyOp21
 70
     1
102
RTVSPropertyOp22
 70
     1
102
RTVSPropertyOp23
 70
     1
102
RTVSPropertyOp24
 70
     1
102
RTVSPropertyOp25
 70
     1
102
RTVSPropertyOp26
 70
     1
102
RTVSPropertyOp27
 70
     1
102
RTVSPropertyOp28
 70
     1
102
RTVSPropertyOp29
 70
     1
102
RTVSPropertyOp30
 70
     1
102
RTVSPropertyOp31
 70
     1
102
RTVSPropertyOp32
 70
     1
102
RTVSPropertyOp33
 70
     1
102
RTVSPropertyOp34
 70
     1
102
RTVSPropertyOp35
 70
     1
102
RTVSPropertyOp36
 70
     1
102
RTVSPropertyOp37
 70
     1
102
RTVSPropertyOp38
 70
     1
102
RTVSPropertyOp39
 70
     1
102
RTVSPropertyOp40
 70
     1
102
RTVSPropertyOp41
 70
     1
102
RTVSPropertyOp42
 70
     1
102
RTVSPropertyOp43
 70
     1
102
RTVSPropertyOp44
 70
     1
102
RTVSPropertyOp45
 70
     1
102
RTVSPropertyOp46
 70
     1
102
RTVSPropertyOp47
 70
     1
102
RTVSPropertyOp48
 70
     1
102
RTVSPropertyOp49
 70
     1
102
RTVSPropertyOp50
 70
     1
102
RTVSPropertyOp51
 70
     0
102
RTVSPropertyOp52
 70
     0
102
RTVSPropertyOp53
 70
     1
102
RTVSPropertyOp54
 70
     1
102
RTVSPropertyOp55
 70
     1
102
RTVSPropertyOp56
 70
     1
102
RTVSPropertyOp57
 70
     1
102
RTVSPost2010Prop28
280
     0
102
RTVSPost2010PropOp28
 70
     1
102
RTVSPost2010Prop29
280
     1
102
RTVSPost2010PropOp29
 70
     1
102
RTVSPost2010Prop30
280
     1
102
RTVSPost2010PropOp30
 70
     1
102
RTVSPost2010Prop31
280
     0
102
RTVSPost2010PropOp31
 70
     1
102
RTVSPost2010Prop32
280
     0
102
RTVSPost2010PropOp32
 70
     1
102
RTVSPost2010Prop33
280
     0
102
RTVSPost2010PropOp33
 70
     1
102
RTVSPost2010Prop34
280
     0
102
RTVSPost2010PropOp34
 70
     1
102
RTVSPost2010Prop35
280
     0
102
RTVSPost2010PropOp35
 70
     1
102
RTVSPost2010Prop36
280
     0
102
RTVSPost2010PropOp36
 70
     1
102
RTVSPost2010Prop37
 90
       50
102
RTVSPost2010PropOp37
 70
     1
102
RTVSPost2010Prop38
140
0.0
102
RTVSPost2010PropOp38
 70
     1
102
RTVSPost2010Prop39
140
1.0
102
RTVSPost2010PropOp39
 70
     1
102
RTVSPost2010Prop40
 90
        0
102
RTVSPost2010PropOp40
 70
     1
102
RTVSPost2010Prop41ColorIndex
 90
       18
102
RTVSPost2010Prop41ColorRGB
 90
        0
102
RTVSPost2010PropOp41
 70
     1
102
RTVSPost2010Prop42
 90
       50
102
RTVSPost2010PropOp42
 70
     1
102
RTVSPost2010Prop43
 90
        3
102
RTVSPost2010PropOp43
 70
     1
102
RTVSPost2010Prop44ColorIndex
 90
        5
102
RTVSPost2010Prop44ColorRGB
 90
      255
102
RTVSPost2010PropOp44
 70
     1
102
RTVSPost2010Prop45
280
     0
102
RTVSPost2010PropOp45
 70
     1
102
RTVSPost2010Prop46
 90
       50
102
RTVSPost2010PropOp46
 70
     1
102
RTVSPost2010Prop47
 90
       50
102
RTVSPost2010PropOp47
 70
     1
102
RTVSPost2010Prop48
 90
       50
102
RTVSPost2010PropOp48
 70
     1
102
RTVSPost2010Prop49
280
     0
102
RTVSPost2010PropOp49
 70
     1
102
RTVSPost2010Prop50
 90
       50
102
RTVSPost2010PropOp50
 70
     1
102
RTVSPost2010Prop51ColorIndex
 90
      256
102
RTVSPost2010Prop51ColorRGB
 90
-16777216
102
RTVSPost2010PropOp51
 70
     0
102
RTVSPost2010Prop52
140
1.0
102
RTVSPost2010PropOp52
 70
     0
102
RTVSPost2010Prop53
 90
        2
102
RTVSPost2010PropOp53
 70
     1
102
RTVSPost2010Prop54
  1
strokes_ogs.tif
102
RTVSPost2010PropOp54
 70
     1
102
RTVSPost2010Prop55
280
     0
102
RTVSPost2010PropOp55
 70
     1
102
RTVSPost2010Prop56
140
1.0
102
RTVSPost2010PropOp56
 70
     1
102
RTVSPost2010Prop57
140
1.0
102
RTVSPost2010PropOp57
 70
     1
  0
XRECORD
  5
444
102
{ACAD_REACTORS
330
443
102
}
330
443
100
AcDbXrecord
280
     1
102
RTVSPropertyOp0
 70
     1
102
RTVSPropertyOp1
 70
     1
102
RTVSPropertyOp2
 70
     1
102
RTVSPropertyOp3
 70
     1
102
RTVSPropertyOp4
 70
     1
102
RTVSPropertyOp5
 70
     1
102
RTVSPropertyOp6
 70
     1
102
RTVSPropertyOp7
 70
     1
102
RTVSPropertyOp8
 70
     1
102
RTVSPropertyOp9
 70
     1
102
RTVSPropertyOp10
 70
     1
102
RTVSPropertyOp11
 70
     1
102
RTVSPropertyOp12
 70
     1
102
RTVSPropertyOp13
 70
     1
102
RTVSPropertyOp14
 70
     1
102
RTVSPropertyOp15
 70
     1
102
RTVSPropertyOp16
 70
     1
102
RTVSPropertyOp17
 70
     1
102
RTVSPropertyOp18
 70
     1
102
RTVSPropertyOp19
 70
     1
102
RTVSPropertyOp20
 70
     1
102
RTVSPropertyOp21
 70
     1
102
RTVSPropertyOp22
 70
     1
102
RTVSPropertyOp23
 70
     1
102
RTVSPropertyOp24
 70
     1
102
RTVSPropertyOp25
 70
     1
102
RTVSPropertyOp26
 70
     1
102
RTVSPropertyOp27
 70
     1
102
RTVSPropertyOp28
 70
     1
102
RTVSPropertyOp29
 70
     1
102
RTVSPropertyOp30
 70
     1
102
RTVSPropertyOp31
 70
     1
102
RTVSPropertyOp32
 70
     1
102
RTVSPropertyOp33
 70
     1
102
RTVSPropertyOp34
 70
     1
102
RTVSPropertyOp35
 70
     1
102
RTVSPropertyOp36
 70
     1
102
RTVSPropertyOp37
 70
     1
102
RTVSPropertyOp38
 70
     1
102
RTVSPropertyOp39
 70
     1
102
RTVSPropertyOp40
 70
     1
102
RTVSPropertyOp41
 70
     1
102
RTVSPropertyOp42
 70
     1
102
RTVSPropertyOp43
 70
     1
102
RTVSPropertyOp44
 70
     1
102
RTVSPropertyOp45
 70
     1
102
RTVSPropertyOp46
 70
     1
102
RTVSPropertyOp47
 70
     1
102
RTVSPropertyOp48
 70
     1
102
RTVSPropertyOp49
 70
     1
102
RTVSPropertyOp50
 70
     1
102
RTVSPropertyOp51
 70
     0
102
RTVSPropertyOp52
 70
     0
102
RTVSPropertyOp53
 70
     1
102
RTVSPropertyOp54
 70
     1
102
RTVSPropertyOp55
 70
     1
102
RTVSPropertyOp56
 70
     1
102
RTVSPropertyOp57
 70
     1
102
RTVSPost2010Prop28
280
     0
102
RTVSPost2010PropOp28
 70
     1
102
RTVSPost2010Prop29
280
     1
102
RTVSPost2010PropOp29
 70
     1
102
RTVSPost2010Prop30
280
     1
102
RTVSPost2010PropOp30
 70
     1
102
RTVSPost2010Prop31
280
     0
102
RTVSPost2010PropOp31
 70
     1
102
RTVSPost2010Prop32
280
     0
102
RTVSPost2010PropOp32
 70
     1
102
RTVSPost2010Prop33
280
     0
102
RTVSPost2010PropOp33
 70
     1
102
RTVSPost2010Prop34
280
     0
102
RTVSPost2010PropOp34
 70
     1
102
RTVSPost2010Prop35
280
     0
102
RTVSPost2010PropOp35
 70
     1
102
RTVSPost2010Prop36
280
     0
102
RTVSPost2010PropOp36
 70
     1
102
RTVSPost2010Prop37
 90
       50
102
RTVSPost2010PropOp37
 70
     1
102
RTVSPost2010Prop38
140
0.0
102
RTVSPost2010PropOp38
 70
     1
102
RTVSPost2010Prop39
140
1.0
102
RTVSPost2010PropOp39
 70
     1
102
RTVSPost2010Prop40
 90
        0
102
RTVSPost2010PropOp40
 70
     1
102
RTVSPost2010Prop41ColorIndex
 90
       18
102
RTVSPost2010Prop41ColorRGB
 90
        0
102
RTVSPost2010PropOp41
 70
     1
102
RTVSPost2010Prop42
 90
       50
102
RTVSPost2010PropOp42
 70
     1
102
RTVSPost2010Prop43
 90
        3
102
RTVSPost2010PropOp43
 70
     1
102
RTVSPost2010Prop44ColorIndex
 90
        5
102
RTVSPost2010Prop44ColorRGB
 90
      255
102
RTVSPost2010PropOp44
 70
     1
102
RTVSPost2010Prop45
280
     0
102
RTVSPost2010PropOp45
 70
     1
102
RTVSPost2010Prop46
 90
       50
102
RTVSPost2010PropOp46
 70
     1
102
RTVSPost2010Prop47
 90
       50
102
RTVSPost2010PropOp47
 70
     1
102
RTVSPost2010Prop48
 90
       50
102
RTVSPost2010PropOp48
 70
     1
102
RTVSPost2010Prop49
280
     0
102
RTVSPost2010PropOp49
 70
     1
102
RTVSPost2010Prop50
 90
       50
102
RTVSPost2010PropOp50
 70
     1
102
RTVSPost2010Prop51ColorIndex
 90
      256
102
RTVSPost2010Prop51ColorRGB
 90
-16777216
102
RTVSPost2010PropOp51
 70
     0
102
RTVSPost2010Prop52
140
1.0
102
RTVSPost2010PropOp52
 70
     0
102
RTVSPost2010Prop53
 90
        2
102
RTVSPost2010PropOp53
 70
     1
102
RTVSPost2010Prop54
  1
strokes_ogs.tif
102
RTVSPost2010PropOp54
 70
     1
102
RTVSPost2010Prop55
280
     0
102
RTVSPost2010PropOp55
 70
     1
102
RTVSPost2010Prop56
140
1.0
102
RTVSPost2010PropOp56
 70
     1
102
RTVSPost2010Prop57
140
1.0
102
RTVSPost2010PropOp57
 70
     1
  0
XRECORD
  5
464
102
{ACAD_REACTORS
330
463
102
}
330
463
100
AcDbXrecord
280
     1
102
RTVSPropertyOp0
 70
     1
102
RTVSPropertyOp1
 70
     1
102
RTVSPropertyOp2
 70
     1
102
RTVSPropertyOp3
 70
     1
102
RTVSPropertyOp4
 70
     1
102
RTVSPropertyOp5
 70
     1
102
RTVSPropertyOp6
 70
     1
102
RTVSPropertyOp7
 70
     1
102
RTVSPropertyOp8
 70
     1
102
RTVSPropertyOp9
 70
     1
102
RTVSPropertyOp10
 70
     1
102
RTVSPropertyOp11
 70
     1
102
RTVSPropertyOp12
 70
     1
102
RTVSPropertyOp13
 70
     1
102
RTVSPropertyOp14
 70
     1
102
RTVSPropertyOp15
 70
     1
102
RTVSPropertyOp16
 70
     1
102
RTVSPropertyOp17
 70
     1
102
RTVSPropertyOp18
 70
     1
102
RTVSPropertyOp19
 70
     1
102
RTVSPropertyOp20
 70
     1
102
RTVSPropertyOp21
 70
     1
102
RTVSPropertyOp22
 70
     1
102
RTVSPropertyOp23
 70
     1
102
RTVSPropertyOp24
 70
     1
102
RTVSPropertyOp25
 70
     1
102
RTVSPropertyOp26
 70
     1
102
RTVSPropertyOp27
 70
     1
102
RTVSPropertyOp28
 70
     1
102
RTVSPropertyOp29
 70
     1
102
RTVSPropertyOp30
 70
     1
102
RTVSPropertyOp31
 70
     1
102
RTVSPropertyOp32
 70
     1
102
RTVSPropertyOp33
 70
     1
102
RTVSPropertyOp34
 70
     1
102
RTVSPropertyOp35
 70
     1
102
RTVSPropertyOp36
 70
     1
102
RTVSPropertyOp37
 70
     1
102
RTVSPropertyOp38
 70
     1
102
RTVSPropertyOp39
 70
     1
102
RTVSPropertyOp40
 70
     1
102
RTVSPropertyOp41
 70
     1
102
RTVSPropertyOp42
 70
     1
102
RTVSPropertyOp43
 70
     1
102
RTVSPropertyOp44
 70
     1
102
RTVSPropertyOp45
 70
     1
102
RTVSPropertyOp46
 70
     1
102
RTVSPropertyOp47
 70
     1
102
RTVSPropertyOp48
 70
     1
102
RTVSPropertyOp49
 70
     1
102
RTVSPropertyOp50
 70
     1
102
RTVSPropertyOp51
 70
     0
102
RTVSPropertyOp52
 70
     0
102
RTVSPropertyOp53
 70
     1
102
RTVSPropertyOp54
 70
     1
102
RTVSPropertyOp55
 70
     1
102
RTVSPropertyOp56
 70
     1
102
RTVSPropertyOp57
 70
     1
102
RTVSPost2010Prop28
280
     0
102
RTVSPost2010PropOp28
 70
     1
102
RTVSPost2010Prop29
280
     1
102
RTVSPost2010PropOp29
 70
     1
102
RTVSPost2010Prop30
280
     1
102
RTVSPost2010PropOp30
 70
     1
102
RTVSPost2010Prop31
280
     0
102
RTVSPost2010PropOp31
 70
     1
102
RTVSPost2010Prop32
280
     0
102
RTVSPost2010PropOp32
 70
     1
102
RTVSPost2010Prop33
280
     0
102
RTVSPost2010PropOp33
 70
     1
102
RTVSPost2010Prop34
280
     0
102
RTVSPost2010PropOp34
 70
     1
102
RTVSPost2010Prop35
280
     0
102
RTVSPost2010PropOp35
 70
     1
102
RTVSPost2010Prop36
280
     0
102
RTVSPost2010PropOp36
 70
     1
102
RTVSPost2010Prop37
 90
       50
102
RTVSPost2010PropOp37
 70
     1
102
RTVSPost2010Prop38
140
0.0
102
RTVSPost2010PropOp38
 70
     1
102
RTVSPost2010Prop39
140
1.0
102
RTVSPost2010PropOp39
 70
     1
102
RTVSPost2010Prop40
 90
        0
102
RTVSPost2010PropOp40
 70
     1
102
RTVSPost2010Prop41ColorIndex
 90
       18
102
RTVSPost2010Prop41ColorRGB
 90
        0
102
RTVSPost2010PropOp41
 70
     1
102
RTVSPost2010Prop42
 90
       50
102
RTVSPost2010PropOp42
 70
     1
102
RTVSPost2010Prop43
 90
        3
102
RTVSPost2010PropOp43
 70
     1
102
RTVSPost2010Prop44ColorIndex
 90
        5
102
RTVSPost2010Prop44ColorRGB
 90
      255
102
RTVSPost2010PropOp44
 70
     1
102
RTVSPost2010Prop45
280
     0
102
RTVSPost2010PropOp45
 70
     1
102
RTVSPost2010Prop46
 90
       50
102
RTVSPost2010PropOp46
 70
     1
102
RTVSPost2010Prop47
 90
       50
102
RTVSPost2010PropOp47
 70
     1
102
RTVSPost2010Prop48
 90
       50
102
RTVSPost2010PropOp48
 70
     1
102
RTVSPost2010Prop49
280
     0
102
RTVSPost2010PropOp49
 70
     1
102
RTVSPost2010Prop50
 90
       50
102
RTVSPost2010PropOp50
 70
     1
102
RTVSPost2010Prop51ColorIndex
 90
      256
102
RTVSPost2010Prop51ColorRGB
 90
-16777216
102
RTVSPost2010PropOp51
 70
     0
102
RTVSPost2010Prop52
140
1.0
102
RTVSPost2010PropOp52
 70
     0
102
RTVSPost2010Prop53
 90
        2
102
RTVSPost2010PropOp53
 70
     1
102
RTVSPost2010Prop54
  1
strokes_ogs.tif
102
RTVSPost2010PropOp54
 70
     1
102
RTVSPost2010Prop55
280
     0
102
RTVSPost2010PropOp55
 70
     1
102
RTVSPost2010Prop56
140
1.0
102
RTVSPost2010PropOp56
 70
     1
102
RTVSPost2010Prop57
140
1.0
102
RTVSPost2010PropOp57
 70
     1
  0
ENDSEC
  0
EOF
