  0
SECTION
  2
HEADER
  9
$ACADVER
  1
AC1018
  9
$ACADMAINTVER
 70
     0
  9
$DWGCODEPAGE
  3
ANSI_932
  9
$INSBASE
 10
0.0
 20
0.0
 30
0.0
  9
$EXTMIN
 10
-1050.0
 20
-742.5
 30
0.0
  9
$EXTMAX
 10
1050.0
 20
742.5
 30
0.0
  9
$LIMMIN
 10
-1050.0
 20
-742.5
  9
$LIMMAX
 10
1050.0
 20
742.5
  9
$ORTHOMODE
 70
     0
  9
$REGENMODE
 70
     1
  9
$FILLMODE
 70
     1
  9
$QTEXTMODE
 70
     0
  9
$MIRRTEXT
 70
     1
  9
$LTSCALE
 40
5.0
  9
$ATTMODE
 70
     1
  9
$TEXTSIZE
 40
2.5
  9
$TRACEWID
 40
1.0
  9
$TEXTSTYLE
  7
Standard
  9
$CLAYER
  8
0
  9
$CELTYPE
  6
ByLayer
  9
$CECOLOR
 62
   256
  9
$CELTSCALE
 40
1.0
  9
$DISPSILH
 70
     0
  9
$DIMSCALE
 40
1.0
  9
$DIMASZ
 40
2.5
  9
$DIMEXO
 40
0.625
  9
$DIMDLI
 40
3.75
  9
$DIMRND
 40
0.0
  9
$DIMDLE
 40
0.0
  9
$DIMEXE
 40
1.25
  9
$DIMTP
 40
0.0
  9
$DIMTM
 40
0.0
  9
$DIMTXT
 40
2.5
  9
$DIMCEN
 40
2.5
  9
$DIMTSZ
 40
0.0
  9
$DIMTOL
 70
     0
  9
$DIMLIM
 70
     0
  9
$DIMTIH
 70
     0
  9
$DIMTOH
 70
     0
  9
$DIMSE1
 70
     0
  9
$DIMSE2
 70
     0
  9
$DIMTAD
 70
     1
  9
$DIMZIN
 70
     8
  9
$DIMBLK
  1

  9
$DIMASO
 70
     1
  9
$DIMSHO
 70
     1
  9
$DIMPOST
  1

  9
$DIMAPOST
  1

  9
$DIMALT
 70
     0
  9
$DIMALTD
 70
     3
  9
$DIMALTF
 40
0.03937007874016
  9
$DIMLFAC
 40
1.0
  9
$DIMTOFL
 70
     1
  9
$DIMTVP
 40
0.0
  9
$DIMTIX
 70
     0
  9
$DIMSOXD
 70
     0
  9
$DIMSAH
 70
     0
  9
$DIMBLK1
  1

  9
$DIMBLK2
  1

  9
$DIMSTYLE
  2
ISO-25
  9
$DIMCLRD
 70
     0
  9
$DIMCLRE
 70
     0
  9
$DIMCLRT
 70
     0
  9
$DIMTFAC
 40
1.0
  9
$DIMGAP
 40
0.625
  9
$DIMJUST
 70
     0
  9
$DIMSD1
 70
     0
  9
$DIMSD2
 70
     0
  9
$DIMTOLJ
 70
     0
  9
$DIMTZIN
 70
     8
  9
$DIMALTZ
 70
     0
  9
$DIMALTTZ
 70
     0
  9
$DIMUPT
 70
     0
  9
$DIMDEC
 70
     2
  9
$DIMTDEC
 70
     2
  9
$DIMALTU
 70
     2
  9
$DIMALTTD
 70
     3
  9
$DIMTXSTY
  7
Standard
  9
$DIMAUNIT
 70
     0
  9
$DIMADEC
 70
     0
  9
$DIMALTRND
 40
0.0
  9
$DIMAZIN
 70
     0
  9
$DIMDSEP
 70
    44
  9
$DIMATFIT
 70
     3
  9
$DIMFRAC
 70
     0
  9
$DIMLDRBLK
  1

  9
$DIMLUNIT
 70
     2
  9
$DIMLWD
 70
    -2
  9
$DIMLWE
 70
    -2
  9
$DIMTMOVE
 70
     0
  9
$LUNITS
 70
     2
  9
$LUPREC
 70
     4
  9
$SKETCHINC
 40
1.0
  9
$FILLETRAD
 40
10.0
  9
$AUNITS
 70
     0
  9
$AUPREC
 70
     0
  9
$MENU
  1
.
  9
$ELEVATION
 40
0.0
  9
$PELEVATION
 40
0.0
  9
$THICKNESS
 40
0.0
  9
$LIMCHECK
 70
     0
  9
$CHAMFERA
 40
0.0
  9
$CHAMFERB
 40
0.0
  9
$CHAMFERC
 40
0.0
  9
$CHAMFERD
 40
0.0
  9
$SKPOLY
 70
     0
  9
$TDCREATE
 40
2459129.732259028
  9
$TDUCREATE
 40
2459129.357259028
  9
$TDUPDATE
 40
2459129.732260602
  9
$TDUUPDATE
 40
2459129.357260602
  9
$TDINDWG
 40
0.0000000116
  9
$TDUSRTIMER
 40
0.0000000116
  9
$USRTIMER
 70
     1
  9
$ANGBASE
 50
0.0
  9
$ANGDIR
 70
     0
  9
$PDMODE
 70
     0
  9
$PDSIZE
 40
0.0
  9
$PLINEWID
 40
0.0
  9
$SPLFRAME
 70
     0
  9
$SPLINETYPE
 70
     6
  9
$SPLINESEGS
 70
     8
  9
$HANDSEED
  5
41C
  9
$SURFTAB1
 70
     6
  9
$SURFTAB2
 70
     6
  9
$SURFTYPE
 70
     6
  9
$SURFU
 70
     6
  9
$SURFV
 70
     6
  9
$UCSBASE
  2

  9
$UCSNAME
  2

  9
$UCSORG
 10
0.0
 20
0.0
 30
0.0
  9
$UCSXDIR
 10
1.0
 20
0.0
 30
0.0
  9
$UCSYDIR
 10
0.0
 20
1.0
 30
0.0
  9
$UCSORTHOREF
  2

  9
$UCSORTHOVIEW
 70
     0
  9
$UCSORGTOP
 10
0.0
 20
0.0
 30
0.0
  9
$UCSORGBOTTOM
 10
0.0
 20
0.0
 30
0.0
  9
$UCSORGLEFT
 10
0.0
 20
0.0
 30
0.0
  9
$UCSORGRIGHT
 10
0.0
 20
0.0
 30
0.0
  9
$UCSORGFRONT
 10
0.0
 20
0.0
 30
0.0
  9
$UCSORGBACK
 10
0.0
 20
0.0
 30
0.0
  9
$PUCSBASE
  2

  9
$PUCSNAME
  2

  9
$PUCSORG
 10
0.0
 20
0.0
 30
0.0
  9
$PUCSXDIR
 10
1.0
 20
0.0
 30
0.0
  9
$PUCSYDIR
 10
0.0
 20
1.0
 30
0.0
  9
$PUCSORTHOREF
  2

  9
$PUCSORTHOVIEW
 70
     0
  9
$PUCSORGTOP
 10
0.0
 20
0.0
 30
0.0
  9
$PUCSORGBOTTOM
 10
0.0
 20
0.0
 30
0.0
  9
$PUCSORGLEFT
 10
0.0
 20
0.0
 30
0.0
  9
$PUCSORGRIGHT
 10
0.0
 20
0.0
 30
0.0
  9
$PUCSORGFRONT
 10
0.0
 20
0.0
 30
0.0
  9
$PUCSORGBACK
 10
0.0
 20
0.0
 30
0.0
  9
$USERI1
 70
     0
  9
$USERI2
 70
     0
  9
$USERI3
 70
     0
  9
$USERI4
 70
     0
  9
$USERI5
 70
     0
  9
$USERR1
 40
0.0
  9
$USERR2
 40
0.0
  9
$USERR3
 40
0.0
  9
$USERR4
 40
0.0
  9
$USERR5
 40
0.0
  9
$WORLDVIEW
 70
     1
  9
$SHADEDGE
 70
     3
  9
$SHADEDIF
 70
    70
  9
$TILEMODE
 70
     1
  9
$MAXACTVP
 70
    64
  9
$PINSBASE
 10
0.0
 20
0.0
 30
0.0
  9
$PLIMCHECK
 70
     0
  9
$PEXTMIN
 10
1.000000000000000E+20
 20
1.000000000000000E+20
 30
1.000000000000000E+20
  9
$PEXTMAX
 10
-1.000000000000000E+20
 20
-1.000000000000000E+20
 30
-1.000000000000000E+20
  9
$PLIMMIN
 10
0.0
 20
0.0
  9
$PLIMMAX
 10
420.0
 20
297.0
  9
$UNITMODE
 70
     0
  9
$VISRETAIN
 70
     1
  9
$PLINEGEN
 70
     0
  9
$PSLTSCALE
 70
     1
  9
$TREEDEPTH
 70
  3020
  9
$CMLSTYLE
  2
Standard
  9
$CMLJUST
 70
     0
  9
$CMLSCALE
 40
20.0
  9
$PROXYGRAPHICS
 70
     1
  9
$MEASUREMENT
 70
     1
  9
$CELWEIGHT
370
    -1
  9
$ENDCAPS
280
     0
  9
$JOINSTYLE
280
     0
  9
$LWDISPLAY
290
     0
  9
$INSUNITS
 70
     4
  9
$HYPERLINKBASE
  1

  9
$STYLESHEET
  1

  9
$XEDIT
290
     1
  9
$CEPSNTYPE
380
     0
  9
$PSTYLEMODE
290
     1
  9
$FINGERPRINTGUID
  2
{07974B5C-4F84-4CA6-B042-CBEEA52E5EB9}
  9
$VERSIONGUID
  2
{FAEB1C32-E019-11D5-929B-00C0DF256EC4}
  9
$EXTNAMES
290
     1
  9
$PSVPSCALE
 40
0.0
  9
$OLESTARTUP
290
     0
  9
$SORTENTS
280
   127
  9
$INDEXCTL
280
     0
  9
$HIDETEXT
280
     1
  9
$XCLIPFRAME
290
     0
  9
$HALOGAP
280
     0
  9
$OBSCOLOR
 70
   257
  9
$OBSLTYPE
280
     0
  9
$INTERSECTIONDISPLAY
280
     0
  9
$INTERSECTIONCOLOR
 70
   257
  9
$DIMASSOC
280
     2
  9
$PROJECTNAME
  1

  0
ENDSEC
  0
SECTION
  2
CLASSES
  0
CLASS
  1
ACDBDICTIONARYWDFLT
  2
AcDbDictionaryWithDefault
  3
ObjectDBX Classes
 90
        0
 91
        4
280
     0
281
     0
  0
CLASS
  1
VISUALSTYLE
  2
AcDbVisualStyle
  3
ObjectDBX Classes
 90
     4095
 91
        4
280
     0
281
     0
  0
CLASS
  1
MATERIAL
  2
AcDbMaterial
  3
ObjectDBX Classes
 90
     1153
 91
        4
280
     0
281
     0
  0
CLASS
  1
SCALE
  2
AcDbScale
  3
ObjectDBX Classes
 90
     1153
 91
        4
280
     0
281
     0
  0
CLASS
  1
TABLESTYLE
  2
AcDbTableStyle
  3
ObjectDBX Classes
 90
     4095
 91
        4
280
     0
281
     0
  0
CLASS
  1
MLEADERSTYLE
  2
AcDbMLeaderStyle
  3
ACDB_MLEADERSTYLE_CLASS
 90
     4095
 91
        4
280
     0
281
     0
  0
CLASS
  1
SUN
  2
AcDbSun
  3
SCENEOE
 90
     1153
 91
        4
280
     0
281
     0
  0
CLASS
  1
DICTIONARYVAR
  2
AcDbDictionaryVar
  3
ObjectDBX Classes
 90
        0
 91
        4
280
     0
281
     0
  0
CLASS
  1
CELLSTYLEMAP
  2
AcDbCellStyleMap
  3
ObjectDBX Classes
 90
     1152
 91
        4
280
     0
281
     0
  0
ENDSEC
  0
SECTION
  2
TABLES
  0
TABLE
  2
VPORT
  5
8
102
{ACAD_XDICTIONARY
360
3D3
102
}
330
0
100
AcDbSymbolTable
 70
     1
  0
VPORT
  5
29
330
8
100
AcDbSymbolTableRecord
100
AcDbViewportTableRecord
  2
*Active
 70
     0
 10
0.0
 20
0.0
 11
1.0
 21
1.0
 12
0.0
 22
0.0
 13
0.0
 23
0.0
 14
10.0
 24
10.0
 15
10.0
 25
10.0
 16
0.0
 26
0.0
 36
1.0
 17
0.0
 27
0.0
 37
0.0
 40
1633.5
 41
1.414141414141414
 42
50.0
 43
0.0
 44
0.0
 50
0.0
 51
0.0
 71
     0
 72
 10000
 73
     1
 74
     3
 75
     0
 76
     0
 77
     0
 78
     0
281
     0
 65
     1
110
0.0
120
0.0
130
0.0
111
1.0
121
0.0
131
0.0
112
0.0
122
1.0
132
0.0
 79
     0
146
0.0
  0
ENDTAB
  0
TABLE
  2
LTYPE
  5
5
330
0
100
AcDbSymbolTable
 70
     3
  0
LTYPE
  5
14
330
5
100
AcDbSymbolTableRecord
100
AcDbLinetypeTableRecord
  2
ByBlock
 70
     0
  3

 72
    65
 73
     0
 40
0.0
  0
LTYPE
  5
15
330
5
100
AcDbSymbolTableRecord
100
AcDbLinetypeTableRecord
  2
ByLayer
 70
     0
  3

 72
    65
 73
     0
 40
0.0
  0
LTYPE
  5
16
330
5
100
AcDbSymbolTableRecord
100
AcDbLinetypeTableRecord
  2
Continuous
 70
     0
  3
Solid line
 72
    65
 73
     0
 40
0.0
  0
LTYPE
  5
6F
330
5
100
AcDbSymbolTableRecord
100
AcDbLinetypeTableRecord
  2
JWW_CENTER1
 70
     0
  3
-----  --  ----------  --  -----
 72
    65
 73
     4
 40
6.773333333333333
 49
4.233333333333333
 74
     0
 49
-0.8466666666666667
 74
     0
 49
0.8466666666666667
 74
     0
 49
-0.8466666666666667
 74
     0
  0
LTYPE
  5
70
330
5
100
AcDbSymbolTableRecord
100
AcDbLinetypeTableRecord
  2
JWW_DASHED3
 70
     0
  3
---  ------  ------  ------  ---
 72
    65
 73
     2
 40
3.386666666666667
 49
2.54
 74
     0
 49
-0.8466666666666667
 74
     0
  0
ENDTAB
  0
TABLE
  2
LAYER
  5
2
330
0
100
AcDbSymbolTable
 70
     9
  0
LAYER
  5
10
330
2
100
AcDbSymbolTableRecord
100
AcDbLayerTableRecord
  2
0
 70
     0
 62
     7
  6
Continuous
370
    -3
390
F
  0
LAYER
  5
71
330
2
100
AcDbSymbolTableRecord
100
AcDbLayerTableRecord
  2
B-4_寸法
 70
     0
 62
     7
  6
Continuous
370
    -3
390
F
  0
LAYER
  5
72
330
2
100
AcDbSymbolTableRecord
100
AcDbLayerTableRecord
  2
B-1_ピット
 70
     0
 62
     7
  6
Continuous
370
    -3
390
F
  0
LAYER
  5
73
330
2
100
AcDbSymbolTableRecord
100
AcDbLayerTableRecord
  2
B-2_蓋
 70
     0
 62
     7
  6
Continuous
370
    -3
390
F
  0
LAYER
  5
74
330
2
100
AcDbSymbolTableRecord
100
AcDbLayerTableRecord
  2
B-A
 70
     0
 62
     7
  6
Continuous
370
    -3
390
F
  0
LAYER
  5
75
330
2
100
AcDbSymbolTableRecord
100
AcDbLayerTableRecord
  2
B-5_仕様文
 70
     0
 62
     7
  6
Continuous
370
    -3
390
F
  0
LAYER
  5
76
330
2
100
AcDbSymbolTableRecord
100
AcDbLayerTableRecord
  2
F-5ﾚｲﾔ
 70
     0
 62
     7
  6
Continuous
370
    -3
390
F
  0
LAYER
  5
77
330
2
100
AcDbSymbolTableRecord
100
AcDbLayerTableRecord
  2
D-4_寸法
 70
     0
 62
     7
  6
Continuous
370
    -3
390
F
  0
LAYER
  5
78
330
2
100
AcDbSymbolTableRecord
100
AcDbLayerTableRecord
  2
D-0_通り芯
 70
     0
 62
     7
  6
Continuous
370
    -3
390
F
  0
ENDTAB
  0
TABLE
  2
STYLE
  5
3
330
0
100
AcDbSymbolTable
 70
     2
  0
STYLE
  5
11
330
3
100
AcDbSymbolTableRecord
100
AcDbTextStyleTableRecord
  2
Standard
 70
     0
 40
0.0
 41
1.0
 50
0.0
 71
     0
 42
2.5
  3
txt
  4

  0
STYLE
  5
6E
330
3
100
AcDbSymbolTableRecord
100
AcDbTextStyleTableRecord
  2
ＭＳ ゴシック
 70
     0
 40
1.0
 41
1.0
 50
0.0
 71
     0
 42
2.5
  3

  4

1001
ACAD
1000
MS Gothic
1071
    32817
  0
ENDTAB
  0
TABLE
  2
VIEW
  5
6
330
0
100
AcDbSymbolTable
 70
     0
  0
ENDTAB
  0
TABLE
  2
UCS
  5
7
330
0
100
AcDbSymbolTable
 70
     0
  0
ENDTAB
  0
TABLE
  2
APPID
  5
9
330
0
100
AcDbSymbolTable
 70
     2
  0
APPID
  5
12
330
9
100
AcDbSymbolTableRecord
100
AcDbRegAppTableRecord
  2
ACAD
 70
     0
  0
APPID
  5
412
330
9
100
AcDbSymbolTableRecord
100
AcDbRegAppTableRecord
  2
ACAD_MLEADERVER
 70
     0
  0
ENDTAB
  0
TABLE
  2
DIMSTYLE
  5
A
330
0
100
AcDbSymbolTable
 70
     1
100
AcDbDimStyleTable
  0
DIMSTYLE
105
27
330
A
100
AcDbSymbolTableRecord
100
AcDbDimStyleTableRecord
  2
ISO-25
 70
     0
 41
2.5
 42
0.625
 43
3.75
 44
1.25
 73
     0
 74
     0
 77
     1
 78
     8
140
2.5
141
2.5
143
0.03937007874016
147
0.625
171
     3
172
     1
178
     0
271
     2
272
     2
274
     3
278
    44
283
     0
284
     8
340
11
  0
ENDTAB
  0
TABLE
  2
BLOCK_RECORD
  5
1
330
0
100
AcDbSymbolTable
 70
     1
  0
BLOCK_RECORD
  5
1F
330
1
100
AcDbSymbolTableRecord
100
AcDbBlockTableRecord
  2
*Model_Space
340
22
  0
BLOCK_RECORD
  5
1B
330
1
100
AcDbSymbolTableRecord
100
AcDbBlockTableRecord
  2
*Paper_Space
340
1E
  0
BLOCK_RECORD
  5
23
330
1
100
AcDbSymbolTableRecord
100
AcDbBlockTableRecord
  2
*Paper_Space0
340
26
  0
ENDTAB
  0
ENDSEC
  0
SECTION
  2
BLOCKS
  0
BLOCK
  5
20
330
1F
100
AcDbEntity
  8
0
100
AcDbBlockBegin
  2
*Model_Space
 70
     0
 10
0.0
 20
0.0
 30
0.0
  3
*Model_Space
  1

  0
ENDBLK
  5
21
330
1F
100
AcDbEntity
  8
0
100
AcDbBlockEnd
  0
BLOCK
  5
1C
330
1B
100
AcDbEntity
 67
     1
  8
0
100
AcDbBlockBegin
  2
*Paper_Space
 70
     0
 10
0.0
 20
0.0
 30
0.0
  3
*Paper_Space
  1

  0
ENDBLK
  5
1D
330
1B
100
AcDbEntity
 67
     1
  8
0
100
AcDbBlockEnd
  0
BLOCK
  5
24
330
23
100
AcDbEntity
  8
0
100
AcDbBlockBegin
  2
*Paper_Space0
 70
     0
 10
0.0
 20
0.0
 30
0.0
  3
*Paper_Space0
  1

  0
ENDBLK
  5
25
330
23
100
AcDbEntity
  8
0
100
AcDbBlockEnd
  0
ENDSEC
  0
SECTION
  2
ENTITIES
  0
LWPOLYLINE
  5
79
330
1F
100
AcDbEntity
  8
B-4_寸法
  6
Continuous
 62
     7
370
     9
100
AcDbPolyline
 90
        4
 70
     1
 43
1.0
 10
-614.0944956186654
 20
446.6124696473819
 42
0.4142135623731
 10
-614.5944956186654
 20
447.1124696473819
 42
0.4142135623731
 10
-615.0944956186654
 20
446.6124696473819
 42
0.4142135623731
 10
-614.5944956186654
 20
446.1124696473819
 42
0.4142135623731
  0
LWPOLYLINE
  5
7A
330
1F
100
AcDbEntity
  8
B-4_寸法
  6
Continuous
 62
     7
370
     9
100
AcDbPolyline
 90
        4
 70
     1
 43
1.0
 10
-404.0945451066301
 20
446.6124696473819
 42
0.4142135623731
 10
-404.59454510663
 20
447.1124696473819
 42
0.4142135623731
 10
-405.09454510663
 20
446.6124696473819
 42
0.4142135623731
 10
-404.59454510663
 20
446.1124696473819
 42
0.4142135623731
  0
LWPOLYLINE
  5
7B
330
1F
100
AcDbEntity
  8
B-4_寸法
  6
Continuous
 62
     7
370
     9
100
AcDbPolyline
 90
        4
 70
     1
 43
1.0
 10
-194.0945945945945
 20
446.6124696473819
 42
0.4142135623731
 10
-194.5945945945945
 20
447.1124696473819
 42
0.4142135623731
 10
-195.0945945945945
 20
446.6124696473819
 42
0.4142135623731
 10
-194.5945945945945
 20
446.1124696473819
 42
0.4142135623731
  0
LWPOLYLINE
  5
7C
330
1F
100
AcDbEntity
  8
B-4_寸法
  6
Continuous
 62
     7
370
     9
100
AcDbPolyline
 90
        4
 70
     1
 43
1.0
 10
-614.0944956186654
 20
-174.418529613598
 42
0.4142135623731
 10
-614.5944956186654
 20
-173.918529613598
 42
0.4142135623731
 10
-615.0944956186654
 20
-174.418529613598
 42
0.4142135623731
 10
-614.5944956186654
 20
-174.918529613598
 42
0.4142135623731
  0
LWPOLYLINE
  5
7D
330
1F
100
AcDbEntity
  8
B-4_寸法
  6
Continuous
 62
     7
370
     9
100
AcDbPolyline
 90
        4
 70
     1
 43
1.0
 10
-194.0945945945945
 20
-174.418529613598
 42
0.4142135623731
 10
-194.5945945945945
 20
-173.918529613598
 42
0.4142135623731
 10
-195.0945945945945
 20
-174.418529613598
 42
0.4142135623731
 10
-194.5945945945945
 20
-174.918529613598
 42
0.4142135623731
  0
LWPOLYLINE
  5
7E
330
1F
100
AcDbEntity
  8
B-4_寸法
  6
Continuous
 62
     7
370
     9
100
AcDbPolyline
 90
        4
 70
     1
 43
1.0
 10
-554.0945945945946
 20
-91.12419829497469
 42
0.4142135623731
 10
-554.5945945945946
 20
-90.62419829497469
 42
0.4142135623731
 10
-555.0945945945945
 20
-91.12419829497469
 42
0.4142135623731
 10
-554.5945945945946
 20
-91.62419829497469
 42
0.4142135623731
  0
LWPOLYLINE
  5
7F
330
1F
100
AcDbEntity
  8
B-4_寸法
  6
Continuous
 62
     7
370
     9
100
AcDbPolyline
 90
        4
 70
     1
 43
1.0
 10
-254.094644082559
 20
-91.12419829497469
 42
0.4142135623731
 10
-254.5946440825591
 20
-90.62419829497469
 42
0.4142135623731
 10
-255.0946440825591
 20
-91.12419829497469
 42
0.4142135623731
 10
-254.5946440825591
 20
-91.62419829497469
 42
0.4142135623731
  0
LWPOLYLINE
  5
80
330
1F
100
AcDbEntity
  8
B-4_寸法
  6
Continuous
 62
     7
370
     9
100
AcDbPolyline
 90
        4
 70
     1
 43
1.0
 10
258.337837837838
 20
392.4798616976352
 42
0.4142135623731
 10
257.837837837838
 20
392.9798616976351
 42
0.4142135623731
 10
257.337837837838
 20
392.4798616976352
 42
0.4142135623731
 10
257.837837837838
 20
391.9798616976352
 42
0.4142135623731
  0
LWPOLYLINE
  5
81
330
1F
100
AcDbEntity
  8
B-4_寸法
  6
Continuous
 62
     7
370
     9
100
AcDbPolyline
 90
        4
 70
     1
 43
1.0
 10
258.337837837838
 20
-27.52093010979717
 42
0.4142135623731
 10
257.837837837838
 20
-27.02093010979718
 42
0.4142135623731
 10
257.337837837838
 20
-27.52093010979717
 42
0.4142135623731
 10
257.837837837838
 20
-28.02093010979717
 42
0.4142135623731
  0
LWPOLYLINE
  5
82
330
1F
100
AcDbEntity
  8
B-4_寸法
  6
Continuous
 62
     7
370
     9
100
AcDbPolyline
 90
        4
 70
     1
 43
1.0
 10
316.7162162162163
 20
392.4798616976352
 42
0.4142135623731
 10
316.2162162162163
 20
392.9798616976351
 42
0.4142135623731
 10
315.7162162162163
 20
392.4798616976352
 42
0.4142135623731
 10
316.2162162162163
 20
391.9798616976352
 42
0.4142135623731
  0
LWPOLYLINE
  5
83
330
1F
100
AcDbEntity
  8
B-4_寸法
  6
Continuous
 62
     7
370
     9
100
AcDbPolyline
 90
        4
 70
     1
 43
1.0
 10
316.7162162162163
 20
386.4802872941301
 42
0.4142135623731
 10
316.2162162162163
 20
386.9802872941301
 42
0.4142135623731
 10
315.7162162162163
 20
386.4802872941301
 42
0.4142135623731
 10
316.2162162162163
 20
385.9802872941302
 42
0.4142135623731
  0
LWPOLYLINE
  5
84
330
1F
100
AcDbEntity
  8
B-4_寸法
  6
Continuous
 62
     7
370
     9
100
AcDbPolyline
 90
        4
 70
     1
 43
1.0
 10
316.7162162162163
 20
382.4799276815879
 42
0.4142135623731
 10
316.2162162162163
 20
382.9799276815879
 42
0.4142135623731
 10
315.7162162162163
 20
382.4799276815879
 42
0.4142135623731
 10
316.2162162162163
 20
381.979927681588
 42
0.4142135623731
  0
LWPOLYLINE
  5
85
330
1F
100
AcDbEntity
  8
B-4_寸法
  6
Continuous
 62
     7
370
     9
100
AcDbPolyline
 90
        4
 70
     1
 43
1.0
 10
316.7162162162163
 20
-17.52144148543061
 42
0.4142135623731
 10
316.2162162162163
 20
-17.02144148543061
 42
0.4142135623731
 10
315.7162162162163
 20
-17.52144148543061
 42
0.4142135623731
 10
316.2162162162163
 20
-18.02144148543061
 42
0.4142135623731
  0
LWPOLYLINE
  5
86
330
1F
100
AcDbEntity
  8
B-4_寸法
  6
Continuous
 62
     7
370
     9
100
AcDbPolyline
 90
        4
 70
     1
 43
1.0
 10
316.7162162162163
 20
-21.52194956186656
 42
0.4142135623731
 10
316.2162162162163
 20
-21.02194956186656
 42
0.4142135623731
 10
315.7162162162163
 20
-21.52194956186656
 42
0.4142135623731
 10
316.2162162162163
 20
-22.02194956186656
 42
0.4142135623731
  0
LWPOLYLINE
  5
87
330
1F
100
AcDbEntity
  8
B-4_寸法
  6
Continuous
 62
     7
370
     9
100
AcDbPolyline
 90
        4
 70
     1
 43
1.0
 10
316.7162162162163
 20
-27.52093010979717
 42
0.4142135623731
 10
316.2162162162163
 20
-27.02093010979718
 42
0.4142135623731
 10
315.7162162162163
 20
-27.52093010979717
 42
0.4142135623731
 10
316.2162162162163
 20
-28.02093010979717
 42
0.4142135623731
  0
LWPOLYLINE
  5
88
330
1F
100
AcDbEntity
  8
B-4_寸法
  6
Continuous
 62
     7
370
     9
100
AcDbPolyline
 90
        4
 70
     1
 43
1.0
 10
511.3108108108109
 20
392.4798616976352
 42
0.4142135623731
 10
510.8108108108109
 20
392.9798616976351
 42
0.4142135623731
 10
510.3108108108109
 20
392.4798616976352
 42
0.4142135623731
 10
510.8108108108109
 20
391.9798616976352
 42
0.4142135623731
  0
LWPOLYLINE
  5
89
330
1F
100
AcDbEntity
  8
B-4_寸法
  6
Continuous
 62
     7
370
     9
100
AcDbPolyline
 90
        4
 70
     1
 43
1.0
 10
511.3108108108109
 20
332.4802576013514
 42
0.4142135623731
 10
510.8108108108109
 20
332.9802576013514
 42
0.4142135623731
 10
510.3108108108109
 20
332.4802576013514
 42
0.4142135623731
 10
510.8108108108109
 20
331.9802576013515
 42
0.4142135623731
  0
LWPOLYLINE
  5
8A
330
1F
100
AcDbEntity
  8
B-4_寸法
  6
Continuous
 62
     7
370
     9
100
AcDbPolyline
 90
        4
 70
     1
 43
1.0
 10
511.3108108108109
 20
32.47837705869938
 42
0.4142135623731
 10
510.8108108108109
 20
32.97837705869937
 42
0.4142135623731
 10
510.3108108108109
 20
32.47837705869938
 42
0.4142135623731
 10
510.8108108108109
 20
31.97837705869938
 42
0.4142135623731
  0
LWPOLYLINE
  5
8B
330
1F
100
AcDbEntity
  8
B-4_寸法
  6
Continuous
 62
     7
370
     9
100
AcDbPolyline
 90
        4
 70
     1
 43
1.0
 10
511.3108108108109
 20
-27.52152396537156
 42
0.4142135623731
 10
510.8108108108109
 20
-27.02152396537156
 42
0.4142135623731
 10
510.3108108108109
 20
-27.52152396537156
 42
0.4142135623731
 10
510.8108108108109
 20
-28.02152396537156
 42
0.4142135623731
  0
LWPOLYLINE
  5
8C
330
1F
100
AcDbEntity
  8
B-4_寸法
  6
Continuous
 62
     7
370
     9
100
AcDbPolyline
 90
        4
 70
     1
 43
1.0
 10
388.0675180796031
 20
-133.3958773226351
 42
0.4142135623731
 10
387.5675180796031
 20
-132.895877322635
 42
0.4142135623731
 10
387.0675180796031
 20
-133.3958773226351
 42
0.4142135623731
 10
387.5675180796031
 20
-133.8958773226351
 42
0.4142135623731
  0
LWPOLYLINE
  5
8D
330
1F
100
AcDbEntity
  8
B-4_寸法
  6
Continuous
 62
     7
370
     9
100
AcDbPolyline
 90
        4
 70
     1
 43
1.0
 10
426.0675939611488
 20
-133.3958773226351
 42
0.4142135623731
 10
425.5675939611488
 20
-132.895877322635
 42
0.4142135623731
 10
425.0675939611488
 20
-133.3958773226351
 42
0.4142135623731
 10
425.5675939611488
 20
-133.8958773226351
 42
0.4142135623731
  0
LWPOLYLINE
  5
8E
330
1F
100
AcDbEntity
  8
B-4_寸法
  6
Continuous
 62
     7
370
     9
100
AcDbPolyline
 90
        4
 70
     1
 43
1.0
 10
388.0675180796031
 20
-90.95984876478029
 42
0.4142135623731
 10
387.5675180796031
 20
-90.45984876478029
 42
0.4142135623731
 10
387.0675180796031
 20
-90.95984876478029
 42
0.4142135623731
 10
387.5675180796031
 20
-91.4598487647803
 42
0.4142135623731
  0
LWPOLYLINE
  5
8F
330
1F
100
AcDbEntity
  8
B-4_寸法
  6
Continuous
 62
     7
370
     9
100
AcDbPolyline
 90
        4
 70
     1
 43
1.0
 10
420.0677226298566
 20
-90.95984876478029
 42
0.4142135623731
 10
419.5677226298566
 20
-90.45984876478029
 42
0.4142135623731
 10
419.0677226298566
 20
-90.95984876478029
 42
0.4142135623731
 10
419.5677226298566
 20
-91.4598487647803
 42
0.4142135623731
  0
LWPOLYLINE
  5
90
330
1F
100
AcDbEntity
  8
B-4_寸法
  6
Continuous
 62
     7
370
     9
100
AcDbPolyline
 90
        4
 70
     1
 43
1.0
 10
-569.0946440825591
 20
407.9751867345863
 42
0.4142135623731
 10
-569.5946440825591
 20
408.4751867345863
 42
0.4142135623731
 10
-570.0946440825591
 20
407.9751867345863
 42
0.4142135623731
 10
-569.5946440825591
 20
407.4751867345863
 42
0.4142135623731
  0
LWPOLYLINE
  5
91
330
1F
100
AcDbEntity
  8
B-4_寸法
  6
Continuous
 62
     7
370
     9
100
AcDbPolyline
 90
        4
 70
     1
 43
1.0
 10
-554.1545740076014
 20
407.9751867345863
 42
0.4142135623731
 10
-554.6545740076012
 20
408.4751867345863
 42
0.4142135623731
 10
-555.1545740076012
 20
407.9751867345863
 42
0.4142135623731
 10
-554.6545740076012
 20
407.4751867345863
 42
0.4142135623731
  0
LWPOLYLINE
  5
92
330
1F
100
AcDbEntity
  8
B-4_寸法
  6
Continuous
 62
     7
370
     9
100
AcDbPolyline
 90
        4
 70
     1
 43
1.0
 10
-614.0944956186654
 20
-132.2016337626689
 42
0.4142135623731
 10
-614.5944956186654
 20
-131.7016337626689
 42
0.4142135623731
 10
-615.0944956186654
 20
-132.2016337626689
 42
0.4142135623731
 10
-614.5944956186654
 20
-132.7016337626689
 42
0.4142135623731
  0
LWPOLYLINE
  5
93
330
1F
100
AcDbEntity
  8
B-4_寸法
  6
Continuous
 62
     7
370
     9
100
AcDbPolyline
 90
        4
 70
     1
 43
1.0
 10
-608.0944758234797
 20
-132.2016337626689
 42
0.4142135623731
 10
-608.5944758234797
 20
-131.7016337626689
 42
0.4142135623731
 10
-609.0944758234797
 20
-132.2016337626689
 42
0.4142135623731
 10
-608.5944758234797
 20
-132.7016337626689
 42
0.4142135623731
  0
LWPOLYLINE
  5
94
330
1F
100
AcDbEntity
  8
B-4_寸法
  6
Continuous
 62
     7
370
     9
100
AcDbPolyline
 90
        4
 70
     1
 43
1.0
 10
-601.5945038666596
 20
-132.2016337626689
 42
0.4142135623731
 10
-602.0945038666596
 20
-131.7016337626689
 42
0.4142135623731
 10
-602.5945038666596
 20
-132.2016337626689
 42
0.4142135623731
 10
-602.0945038666596
 20
-132.7016337626689
 42
0.4142135623731
  0
LWPOLYLINE
  5
95
330
1F
100
AcDbEntity
  8
B-4_寸法
  6
Continuous
 62
     7
370
     9
100
AcDbPolyline
 90
        4
 70
     1
 43
1.0
 10
-206.594734810494
 20
-132.2016337626689
 42
0.4142135623731
 10
-207.094734810494
 20
-131.7016337626689
 42
0.4142135623731
 10
-207.5947348104941
 20
-132.2016337626689
 42
0.4142135623731
 10
-207.094734810494
 20
-132.7016337626689
 42
0.4142135623731
  0
LWPOLYLINE
  5
96
330
1F
100
AcDbEntity
  8
B-4_寸法
  6
Continuous
 62
     7
370
     9
100
AcDbPolyline
 90
        4
 70
     1
 43
1.0
 10
-200.0946143897803
 20
-132.2016337626689
 42
0.4142135623731
 10
-200.5946143897803
 20
-131.7016337626689
 42
0.4142135623731
 10
-201.0946143897803
 20
-132.2016337626689
 42
0.4142135623731
 10
-200.5946143897803
 20
-132.7016337626689
 42
0.4142135623731
  0
LWPOLYLINE
  5
97
330
1F
100
AcDbEntity
  8
B-4_寸法
  6
Continuous
 62
     7
370
     9
100
AcDbPolyline
 90
        4
 70
     1
 43
1.0
 10
-194.0945945945945
 20
-132.2016337626689
 42
0.4142135623731
 10
-194.5945945945945
 20
-131.7016337626689
 42
0.4142135623731
 10
-195.0945945945945
 20
-132.2016337626689
 42
0.4142135623731
 10
-194.5945945945945
 20
-132.7016337626689
 42
0.4142135623731
  0
LINE
  5
98
330
1F
100
AcDbEntity
  8
B-1_ピット
  6
Continuous
 62
     2
370
     9
100
AcDbLine
 10
-459.594553354624
 20
-38.12214289484797
 30
0.0
 11
-459.594553354624
 21
-32.02176150760124
 31
0.0
  0
LINE
  5
99
330
1F
100
AcDbEntity
  8
B-1_ピット
  6
Continuous
 62
     2
370
     9
100
AcDbLine
 10
-359.5946193385769
 20
-48.12148305532094
 30
0.0
 11
-449.5944708746833
 21
-48.12148305532094
 31
0.0
  0
LINE
  5
9A
330
1F
100
AcDbEntity
  8
B-1_ピット
  6
Continuous
 62
     2
370
     9
100
AcDbLine
 10
-349.5945368586359
 20
-38.12214289484797
 30
0.0
 11
-349.5945368586359
 21
-32.02176150760124
 31
0.0
  0
LINE
  5
9B
330
1F
100
AcDbEntity
  8
B-1_ピット
  6
Continuous
 62
     2
370
     9
100
AcDbLine
 10
-358.5947150153083
 20
-38.12214289484797
 30
0.0
 11
-358.5947150153083
 21
-32.02176150760124
 31
0.0
  0
LINE
  5
9C
330
1F
100
AcDbEntity
  8
B-1_ピット
  6
Continuous
 62
     2
370
     9
100
AcDbLine
 10
-449.5944708746833
 20
-39.12160182643578
 30
0.0
 11
-359.5946193385769
 21
-39.12160182643578
 31
0.0
  0
LINE
  5
9D
330
1F
100
AcDbEntity
  8
B-1_ピット
  6
Continuous
 62
     2
370
     9
100
AcDbLine
 10
-450.5949690535261
 20
-38.12214289484797
 30
0.0
 11
-450.5949690535261
 21
-32.02176150760124
 31
0.0
  0
LINE
  5
9E
330
1F
100
AcDbEntity
  8
B-1_ピット
  6
JWW_CENTER1
 62
     2
370
     9
100
AcDbLine
 10
-455.0947612040751
 20
-23.91385135135124
 30
0.0
 11
-455.0947612040751
 21
-39.51117108319249
 31
0.0
  0
LINE
  5
9F
330
1F
100
AcDbEntity
  8
B-1_ピット
  6
JWW_CENTER1
 62
     2
370
     9
100
AcDbLine
 10
-446.9319194072001
 20
-32.02176150760124
 30
0.0
 11
-463.3388127507388
 21
-32.02176150760124
 31
0.0
  0
LINE
  5
A0
330
1F
100
AcDbEntity
  8
B-1_ピット
  6
JWW_CENTER1
 62
     2
370
     9
100
AcDbLine
 10
-354.0944774730784
 20
-23.91385135135124
 30
0.0
 11
-354.0944774730784
 21
-39.51117108319249
 31
0.0
  0
LINE
  5
A1
330
1F
100
AcDbEntity
  8
B-1_ピット
  6
JWW_CENTER1
 62
     2
370
     9
100
AcDbLine
 10
-345.9314872123098
 20
-32.02176150760124
 30
0.0
 11
-362.3383805558487
 21
-32.02176150760124
 31
0.0
  0
LINE
  5
A2
330
1F
100
AcDbEntity
  8
B-1_ピット
  6
Continuous
 62
     2
370
     9
100
AcDbLine
 10
-459.594553354624
 20
403.07958984375
 30
0.0
 11
-459.594553354624
 21
396.9792084565034
 31
0.0
  0
LINE
  5
A3
330
1F
100
AcDbEntity
  8
B-1_ピット
  6
Continuous
 62
     2
370
     9
100
AcDbLine
 10
-359.5946193385769
 20
413.078930004223
 30
0.0
 11
-449.5944708746833
 21
413.078930004223
 31
0.0
  0
LINE
  5
A4
330
1F
100
AcDbEntity
  8
B-1_ピット
  6
Continuous
 62
     2
370
     9
100
AcDbLine
 10
-349.5945368586359
 20
403.07958984375
 30
0.0
 11
-349.5945368586359
 21
396.9792084565034
 31
0.0
  0
LINE
  5
A5
330
1F
100
AcDbEntity
  8
B-1_ピット
  6
Continuous
 62
     2
370
     9
100
AcDbLine
 10
-358.5947150153083
 20
403.07958984375
 30
0.0
 11
-358.5947150153083
 21
396.9792084565034
 31
0.0
  0
LINE
  5
A6
330
1F
100
AcDbEntity
  8
B-1_ピット
  6
Continuous
 62
     2
370
     9
100
AcDbLine
 10
-449.5944708746833
 20
404.079345703125
 30
0.0
 11
-359.5946193385769
 21
404.079345703125
 31
0.0
  0
LINE
  5
A7
330
1F
100
AcDbEntity
  8
B-1_ピット
  6
Continuous
 62
     2
370
     9
100
AcDbLine
 10
-450.5949690535261
 20
403.07958984375
 30
0.0
 11
-450.5949690535261
 21
396.9792084565034
 31
0.0
  0
LINE
  5
A8
330
1F
100
AcDbEntity
  8
B-1_ピット
  6
JWW_CENTER1
 62
     2
370
     9
100
AcDbLine
 10
-455.0947612040751
 20
388.872189083615
 30
0.0
 11
-455.0947612040751
 21
404.4698057432433
 31
0.0
  0
LINE
  5
A9
330
1F
100
AcDbEntity
  8
B-1_ピット
  6
JWW_CENTER1
 62
     2
370
     9
100
AcDbLine
 10
-446.9319194072001
 20
396.9792084565034
 30
0.0
 11
-463.3388127507388
 21
396.9792084565034
 31
0.0
  0
LINE
  5
AA
330
1F
100
AcDbEntity
  8
B-1_ピット
  6
JWW_CENTER1
 62
     2
370
     9
100
AcDbLine
 10
-354.0944774730784
 20
388.872189083615
 30
0.0
 11
-354.0944774730784
 21
404.4698057432433
 31
0.0
  0
LINE
  5
AB
330
1F
100
AcDbEntity
  8
B-1_ピット
  6
JWW_CENTER1
 62
     2
370
     9
100
AcDbLine
 10
-345.9314872123098
 20
396.9792084565034
 30
0.0
 11
-362.3383805558487
 21
396.9792084565034
 31
0.0
  0
LINE
  5
AC
330
1F
100
AcDbEntity
  8
B-1_ピット
  6
Continuous
 62
     2
370
     9
100
AcDbLine
 10
-614.5944956186654
 20
392.479564769848
 30
0.0
 11
-614.5944956186654
 21
-27.52093010979717
 31
0.0
  0
LINE
  5
AD
330
1F
100
AcDbEntity
  8
B-1_ピット
  6
Continuous
 62
     2
370
     9
100
AcDbLine
 10
-608.5944758234797
 20
386.479248046875
 30
0.0
 11
-608.5944758234797
 21
-21.52061338682421
 31
0.0
  0
LINE
  5
AE
330
1F
100
AcDbEntity
  8
B-1_ピット
  6
JWW_DASHED3
 62
     2
370
     9
100
AcDbLine
 10
-554.5945945945946
 20
332.4802576013514
 30
0.0
 11
-554.5945945945946
 21
32.47837705869938
 31
0.0
  0
LINE
  5
AF
330
1F
100
AcDbEntity
  8
B-1_ピット
  6
Continuous
 62
     2
370
     9
100
AcDbLine
 10
-608.5944758234797
 20
-21.52061338682421
 30
0.0
 11
-200.5946143897803
 21
-21.52061338682421
 31
0.0
  0
LINE
  5
B0
330
1F
100
AcDbEntity
  8
B-1_ピット
  6
Continuous
 62
     2
370
     9
100
AcDbLine
 10
-614.5944956186654
 20
-27.52093010979717
 30
0.0
 11
-194.5945945945945
 21
-27.52093010979717
 31
0.0
  0
LINE
  5
B1
330
1F
100
AcDbEntity
  8
B-1_ピット
  6
JWW_DASHED3
 62
     2
370
     9
100
AcDbLine
 10
-554.5945945945946
 20
32.47837705869938
 30
0.0
 11
-254.5946440825591
 21
32.47837705869938
 31
0.0
  0
LINE
  5
B2
330
1F
100
AcDbEntity
  8
B-1_ピット
  6
Continuous
 62
     2
370
     9
100
AcDbLine
 10
-614.5944956186654
 20
392.479564769848
 30
0.0
 11
-194.5945945945945
 21
392.479564769848
 31
0.0
  0
LINE
  5
B3
330
1F
100
AcDbEntity
  8
B-1_ピット
  6
Continuous
 62
     2
370
     9
100
AcDbLine
 10
-608.5944758234797
 20
386.479248046875
 30
0.0
 11
-200.5946143897803
 21
386.479248046875
 31
0.0
  0
LINE
  5
B4
330
1F
100
AcDbEntity
  8
B-1_ピット
  6
Continuous
 62
     2
370
     9
100
AcDbLine
 10
-194.5945945945945
 20
-27.52093010979717
 30
0.0
 11
-194.5945945945945
 21
392.479564769848
 31
0.0
  0
LINE
  5
B5
330
1F
100
AcDbEntity
  8
B-1_ピット
  6
Continuous
 62
     2
370
     9
100
AcDbLine
 10
-200.5946143897803
 20
-21.52061338682421
 30
0.0
 11
-200.5946143897803
 21
386.479248046875
 31
0.0
  0
LINE
  5
B6
330
1F
100
AcDbEntity
  8
B-1_ピット
  6
JWW_DASHED3
 62
     2
370
     9
100
AcDbLine
 10
-554.5945945945946
 20
332.4802576013514
 30
0.0
 11
-254.5946440825591
 21
332.4802576013514
 31
0.0
  0
LINE
  5
B7
330
1F
100
AcDbEntity
  8
B-1_ピット
  6
JWW_DASHED3
 62
     2
370
     9
100
AcDbLine
 10
-254.5946440825591
 20
32.47837705869938
 30
0.0
 11
-254.5946440825591
 21
332.4802576013514
 31
0.0
  0
LINE
  5
B8
330
1F
100
AcDbEntity
  8
B-2_蓋
  6
Continuous
 62
     3
370
     9
100
AcDbLine
 10
387.5675180796031
 20
377.9799870671453
 30
0.0
 11
419.5675741659628
 21
377.9799870671453
 31
0.0
  0
LINE
  5
B9
330
1F
100
AcDbEntity
  8
B-A
  6
Continuous
 62
     3
370
     9
100
AcDbLine
 10
386.06743889886
 20
376.3252085092906
 30
0.0
 11
387.5675180796031
 21
376.8365181587839
 31
0.0
  0
LINE
  5
BA
330
1F
100
AcDbEntity
  8
B-A
  6
Continuous
 62
     3
370
     9
100
AcDbLine
 10
386.06743889886
 20
376.3252085092906
 30
0.0
 11
386.06743889886
 21
371.9182062922298
 31
0.0
  0
LINE
  5
BB
330
1F
100
AcDbEntity
  8
B-A
  6
Continuous
 62
     3
370
     9
100
AcDbLine
 10
386.06743889886
 20
371.9182062922298
 30
0.0
 11
387.5675180796031
 21
371.4068966427366
 31
0.0
  0
LINE
  5
BC
330
1F
100
AcDbEntity
  8
B-A
  6
Continuous
 62
     3
370
     9
100
AcDbLine
 10
387.5675180796031
 20
371.4068966427366
 30
0.0
 11
387.5675180796031
 21
366.2932062922298
 31
0.0
  0
LINE
  5
BD
330
1F
100
AcDbEntity
  8
B-A
  6
Continuous
 62
     3
370
     9
100
AcDbLine
 10
386.06743889886
 20
365.7818966427366
 30
0.0
 11
387.5675180796031
 21
366.2932062922298
 31
0.0
  0
LINE
  5
BE
330
1F
100
AcDbEntity
  8
B-A
  6
Continuous
 62
     3
370
     9
100
AcDbLine
 10
386.06743889886
 20
365.7818966427366
 30
0.0
 11
386.06743889886
 21
359.234935863598
 31
0.0
  0
LINE
  5
BF
330
1F
100
AcDbEntity
  8
B-A
  6
Continuous
 62
     3
370
     9
100
AcDbLine
 10
386.06743889886
 20
359.234935863598
 30
0.0
 11
387.5675180796031
 21
358.7233292863176
 31
0.0
  0
LINE
  5
C0
330
1F
100
AcDbEntity
  8
B-A
  6
Continuous
 62
     3
370
     9
100
AcDbLine
 10
386.06743889886
 20
353.098923141892
 30
0.0
 11
386.06743889886
 21
348.6916239970438
 31
0.0
  0
LINE
  5
C1
330
1F
100
AcDbEntity
  8
B-A
  6
Continuous
 62
     3
370
     9
100
AcDbLine
 10
386.06743889886
 20
348.6916239970438
 30
0.0
 11
387.5675180796031
 21
348.1803143475508
 31
0.0
  0
LINE
  5
C2
330
1F
100
AcDbEntity
  8
B-A
  6
Continuous
 62
     3
370
     9
100
AcDbLine
 10
387.5675180796031
 20
348.1803143475508
 30
0.0
 11
387.5675180796031
 21
343.0669209248311
 31
0.0
  0
LINE
  5
C3
330
1F
100
AcDbEntity
  8
B-A
  6
Continuous
 62
     3
370
     9
100
AcDbLine
 10
386.06743889886
 20
342.5556112753379
 30
0.0
 11
387.5675180796031
 21
343.0669209248311
 31
0.0
  0
LINE
  5
C4
330
1F
100
AcDbEntity
  8
B-A
  6
Continuous
 62
     3
370
     9
100
AcDbLine
 10
386.06743889886
 20
342.5556112753379
 30
0.0
 11
386.06743889886
 21
336.0083535684122
 31
0.0
  0
LINE
  5
C5
330
1F
100
AcDbEntity
  8
B-A
  6
Continuous
 62
     3
370
     9
100
AcDbLine
 10
386.06743889886
 20
336.0083535684122
 30
0.0
 11
387.5675180796031
 21
335.4970439189188
 31
0.0
  0
LINE
  5
C6
330
1F
100
AcDbEntity
  8
B-A
  6
Continuous
 62
     3
370
     9
100
AcDbLine
 10
386.06743889886
 20
353.098923141892
 30
0.0
 11
387.5675180796031
 21
353.6102327913852
 31
0.0
  0
LINE
  5
C7
330
1F
100
AcDbEntity
  8
B-A
  6
Continuous
 62
     3
370
     9
100
AcDbLine
 10
387.5675180796031
 20
358.7233292863176
 30
0.0
 11
387.5675180796031
 21
353.6102327913852
 31
0.0
  0
LINE
  5
C8
330
1F
100
AcDbEntity
  8
B-A
  6
Continuous
 62
     3
370
     9
100
AcDbLine
 10
386.06743889886
 20
329.8726377744933
 30
0.0
 11
386.06743889886
 21
325.4650417018581
 31
0.0
  0
LINE
  5
C9
330
1F
100
AcDbEntity
  8
B-A
  6
Continuous
 62
     3
370
     9
100
AcDbLine
 10
386.06743889886
 20
325.4650417018581
 30
0.0
 11
387.5675180796031
 21
324.954028980152
 31
0.0
  0
LINE
  5
CA
330
1F
100
AcDbEntity
  8
B-A
  6
Continuous
 62
     3
370
     9
100
AcDbLine
 10
387.5675180796031
 20
324.954028980152
 30
0.0
 11
387.5675180796031
 21
319.8406355574325
 31
0.0
  0
LINE
  5
CB
330
1F
100
AcDbEntity
  8
B-A
  6
Continuous
 62
     3
370
     9
100
AcDbLine
 10
386.06743889886
 20
319.3293259079392
 30
0.0
 11
387.5675180796031
 21
319.8406355574325
 31
0.0
  0
LINE
  5
CC
330
1F
100
AcDbEntity
  8
B-A
  6
Continuous
 62
     3
370
     9
100
AcDbLine
 10
386.06743889886
 20
319.3293259079392
 30
0.0
 11
386.06743889886
 21
312.7820682010136
 31
0.0
  0
LINE
  5
CD
330
1F
100
AcDbEntity
  8
B-A
  6
Continuous
 62
     3
370
     9
100
AcDbLine
 10
386.06743889886
 20
312.7820682010136
 30
0.0
 11
387.5675180796031
 21
312.2707585515203
 31
0.0
  0
LINE
  5
CE
330
1F
100
AcDbEntity
  8
B-A
  6
Continuous
 62
     3
370
     9
100
AcDbLine
 10
386.06743889886
 20
329.8726377744933
 30
0.0
 11
387.5675180796031
 21
330.3839474239866
 31
0.0
  0
LINE
  5
CF
330
1F
100
AcDbEntity
  8
B-A
  6
Continuous
 62
     3
370
     9
100
AcDbLine
 10
387.5675180796031
 20
335.4970439189188
 30
0.0
 11
387.5675180796031
 21
330.3839474239866
 31
0.0
  0
LINE
  5
D0
330
1F
100
AcDbEntity
  8
B-A
  6
Continuous
 62
     3
370
     9
100
AcDbLine
 10
386.06743889886
 20
306.6463524070947
 30
0.0
 11
386.06743889886
 21
302.2387563344595
 31
0.0
  0
LINE
  5
D1
330
1F
100
AcDbEntity
  8
B-A
  6
Continuous
 62
     3
370
     9
100
AcDbLine
 10
386.06743889886
 20
302.2387563344595
 30
0.0
 11
387.5675180796031
 21
301.7274466849663
 31
0.0
  0
LINE
  5
D2
330
1F
100
AcDbEntity
  8
B-A
  6
Continuous
 62
     3
370
     9
100
AcDbLine
 10
386.06743889886
 20
306.6463524070947
 30
0.0
 11
387.5675180796031
 21
307.1576620565879
 31
0.0
  0
LINE
  5
D3
330
1F
100
AcDbEntity
  8
B-A
  6
Continuous
 62
     3
370
     9
100
AcDbLine
 10
387.5675180796031
 20
312.2707585515203
 30
0.0
 11
387.5675180796031
 21
307.1576620565879
 31
0.0
  0
LINE
  5
D4
330
1F
100
AcDbEntity
  8
B-A
  6
Continuous
 62
     3
370
     9
100
AcDbLine
 10
387.5675180796031
 20
382.4799276815879
 30
0.0
 11
387.5675180796031
 21
376.8365181587839
 31
0.0
  0
LINE
  5
D5
330
1F
100
AcDbEntity
  8
B-A
  6
Continuous
 62
     3
370
     9
100
AcDbLine
 10
387.5675180796031
 20
301.7274466849663
 30
0.0
 11
387.5675180796031
 21
296.6143501900339
 31
0.0
  0
LINE
  5
D6
330
1F
100
AcDbEntity
  8
B-A
  6
Continuous
 62
     3
370
     9
100
AcDbLine
 10
386.06743889886
 20
296.1030405405406
 30
0.0
 11
387.5675180796031
 21
296.6143501900339
 31
0.0
  0
LINE
  5
D7
330
1F
100
AcDbEntity
  8
B-A
  6
Continuous
 62
     3
370
     9
100
AcDbLine
 10
386.06743889886
 20
296.1030405405406
 30
0.0
 11
386.06743889886
 21
289.555782833615
 31
0.0
  0
LINE
  5
D8
330
1F
100
AcDbEntity
  8
B-A
  6
Continuous
 62
     3
370
     9
100
AcDbLine
 10
386.06743889886
 20
289.555782833615
 30
0.0
 11
387.5675180796031
 21
289.0444731841217
 31
0.0
  0
LINE
  5
D9
330
1F
100
AcDbEntity
  8
B-A
  6
Continuous
 62
     3
370
     9
100
AcDbLine
 10
386.06743889886
 20
283.4200670396959
 30
0.0
 11
386.06743889886
 21
279.0124709670609
 31
0.0
  0
LINE
  5
DA
330
1F
100
AcDbEntity
  8
B-A
  6
Continuous
 62
     3
370
     9
100
AcDbLine
 10
386.06743889886
 20
279.0124709670609
 30
0.0
 11
387.5675180796031
 21
278.5011613175677
 31
0.0
  0
LINE
  5
DB
330
1F
100
AcDbEntity
  8
B-A
  6
Continuous
 62
     3
370
     9
100
AcDbLine
 10
386.06743889886
 20
283.4200670396959
 30
0.0
 11
387.5675180796031
 21
283.9313766891892
 31
0.0
  0
LINE
  5
DC
330
1F
100
AcDbEntity
  8
B-A
  6
Continuous
 62
     3
370
     9
100
AcDbLine
 10
387.5675180796031
 20
289.0444731841217
 30
0.0
 11
387.5675180796031
 21
283.9313766891892
 31
0.0
  0
LINE
  5
DD
330
1F
100
AcDbEntity
  8
B-A
  6
Continuous
 62
     3
370
     9
100
AcDbLine
 10
387.5675180796031
 20
278.5011613175677
 30
0.0
 11
387.5675180796031
 21
273.3880648226352
 31
0.0
  0
LINE
  5
DE
330
1F
100
AcDbEntity
  8
B-A
  6
Continuous
 62
     3
370
     9
100
AcDbLine
 10
386.06743889886
 20
272.8767551731419
 30
0.0
 11
387.5675180796031
 21
273.3880648226352
 31
0.0
  0
LINE
  5
DF
330
1F
100
AcDbEntity
  8
B-A
  6
Continuous
 62
     3
370
     9
100
AcDbLine
 10
386.06743889886
 20
272.8767551731419
 30
0.0
 11
386.06743889886
 21
266.3294974662163
 31
0.0
  0
LINE
  5
E0
330
1F
100
AcDbEntity
  8
B-A
  6
Continuous
 62
     3
370
     9
100
AcDbLine
 10
386.06743889886
 20
266.3294974662163
 30
0.0
 11
387.5675180796031
 21
265.8178908889359
 31
0.0
  0
LINE
  5
E1
330
1F
100
AcDbEntity
  8
B-A
  6
Continuous
 62
     3
370
     9
100
AcDbLine
 10
386.06743889886
 20
260.1934847445102
 30
0.0
 11
386.06743889886
 21
255.7861855996622
 31
0.0
  0
LINE
  5
E2
330
1F
100
AcDbEntity
  8
B-A
  6
Continuous
 62
     3
370
     9
100
AcDbLine
 10
386.06743889886
 20
255.7861855996622
 30
0.0
 11
387.5675180796031
 21
255.2748759501689
 31
0.0
  0
LINE
  5
E3
330
1F
100
AcDbEntity
  8
B-A
  6
Continuous
 62
     3
370
     9
100
AcDbLine
 10
386.06743889886
 20
260.1934847445102
 30
0.0
 11
387.5675180796031
 21
260.7047943940034
 31
0.0
  0
LINE
  5
E4
330
1F
100
AcDbEntity
  8
B-A
  6
Continuous
 62
     3
370
     9
100
AcDbLine
 10
387.5675180796031
 20
265.8178908889359
 30
0.0
 11
387.5675180796031
 21
260.7047943940034
 31
0.0
  0
LINE
  5
E5
330
1F
100
AcDbEntity
  8
B-A
  6
Continuous
 62
     3
370
     9
100
AcDbLine
 10
387.5675180796031
 20
255.2748759501689
 30
0.0
 11
387.5675180796031
 21
250.1617794552365
 31
0.0
  0
LINE
  5
E6
330
1F
100
AcDbEntity
  8
B-1_ピット
  6
Continuous
 62
     2
370
     9
100
AcDbLine
 10
387.5675180796031
 20
388.980270798142
 30
0.0
 11
387.5675180796031
 21
392.4798616976352
 31
0.0
  0
LINE
  5
E7
330
1F
100
AcDbEntity
  8
B-1_ピット
  6
Continuous
 62
     2
370
     9
100
AcDbLine
 10
422.0677061338685
 20
332.4802576013514
 30
0.0
 11
425.5675939611488
 21
332.4802576013514
 31
0.0
  0
LINE
  5
E8
330
1F
100
AcDbEntity
  8
B-1_ピット
  6
Continuous
 62
     2
370
     9
100
AcDbLine
 10
415.5676599451016
 20
386.4801388302366
 30
0.0
 11
390.0676500475084
 21
386.4801388302366
 31
0.0
  0
LINE
  5
E9
330
1F
100
AcDbEntity
  8
B-1_ピット
  6
Continuous
 62
     2
370
     9
100
AcDbLine
 10
419.5677226298566
 20
382.4799276815879
 30
0.0
 11
419.5677226298566
 21
334.9797957136825
 31
0.0
  0
LINE
  5
EA
330
1F
100
AcDbEntity
  8
B-1_ピット
  6
Continuous
 62
     2
370
     9
100
AcDbLine
 10
425.5675939611488
 20
392.4798616976352
 30
0.0
 11
387.5675180796031
 21
392.4798616976352
 31
0.0
  0
LINE
  5
EB
330
1F
100
AcDbEntity
  8
B-1_ピット
  6
Continuous
 62
     2
370
     9
100
AcDbLine
 10
405.5674290012669
 20
392.4798616976352
 30
0.0
 11
405.5674290012669
 21
401.4797429265203
 31
0.0
  0
LINE
  5
EC
330
1F
100
AcDbEntity
  8
B-1_ピット
  6
Continuous
 62
     2
370
     9
100
AcDbLine
 10
419.3827366184544
 20
401.4797429265203
 30
0.0
 11
405.5674290012669
 21
401.4797429265203
 31
0.0
  0
LINE
  5
ED
330
1F
100
AcDbEntity
  8
B-1_ピット
  6
Continuous
 62
     2
370
     9
100
AcDbLine
 10
424.0413851351353
 20
393.0933145059122
 30
0.0
 11
482.2322536159206
 21
408.6855864653717
 31
0.0
  0
LINE
  5
EE
330
1F
100
AcDbEntity
  8
B-1_ピット
  6
Continuous
 62
     2
370
     9
100
AcDbLine
 10
421.7119866448481
 20
401.7867662584459
 30
0.0
 11
479.9030035895271
 21
417.3790382179055
 31
0.0
  0
LINE
  5
EF
330
1F
100
AcDbEntity
  8
B-1_ピット
  6
JWW_CENTER1
 62
     2
370
     9
100
AcDbLine
 10
419.3825881545609
 20
396.980099239865
 30
0.0
 11
401.7627448004646
 21
396.980099239865
 31
0.0
  0
LINE
  5
F0
330
1F
100
AcDbEntity
  8
B-1_ピット
  6
JWW_CENTER1
 62
     2
370
     9
100
AcDbLine
 10
422.8765374260981
 20
397.4403373099663
 30
0.0
 11
488.0432788745778
 21
414.9014727618243
 31
0.0
  0
LINE
  5
F1
330
1F
100
AcDbEntity
  8
B-A
  6
Continuous
 62
     3
370
     9
100
AcDbLine
 10
386.06743889886
 20
249.6504698057433
 30
0.0
 11
387.5675180796031
 21
250.1617794552365
 31
0.0
  0
LINE
  5
F2
330
1F
100
AcDbEntity
  8
B-A
  6
Continuous
 62
     3
370
     9
100
AcDbLine
 10
386.06743889886
 20
249.6504698057433
 30
0.0
 11
386.06743889886
 21
243.1032120988177
 31
0.0
  0
LINE
  5
F3
330
1F
100
AcDbEntity
  8
B-A
  6
Continuous
 62
     3
370
     9
100
AcDbLine
 10
386.06743889886
 20
243.1032120988177
 30
0.0
 11
387.5675180796031
 21
242.5919024493244
 31
0.0
  0
LINE
  5
F4
330
1F
100
AcDbEntity
  8
B-A
  6
Continuous
 62
     3
370
     9
100
AcDbLine
 10
386.06743889886
 20
236.9671993771115
 30
0.0
 11
386.06743889886
 21
232.5599002322636
 31
0.0
  0
LINE
  5
F5
330
1F
100
AcDbEntity
  8
B-A
  6
Continuous
 62
     3
370
     9
100
AcDbLine
 10
386.06743889886
 20
232.5599002322636
 30
0.0
 11
387.5675180796031
 21
232.0485905827703
 31
0.0
  0
LINE
  5
F6
330
1F
100
AcDbEntity
  8
B-A
  6
Continuous
 62
     3
370
     9
100
AcDbLine
 10
386.06743889886
 20
236.9671993771115
 30
0.0
 11
387.5675180796031
 21
237.4785090266049
 31
0.0
  0
LINE
  5
F7
330
1F
100
AcDbEntity
  8
B-A
  6
Continuous
 62
     3
370
     9
100
AcDbLine
 10
387.5675180796031
 20
242.5919024493244
 30
0.0
 11
387.5675180796031
 21
237.4785090266049
 31
0.0
  0
LINE
  5
F8
330
1F
100
AcDbEntity
  8
B-A
  6
Continuous
 62
     3
370
     9
100
AcDbLine
 10
387.5675180796031
 20
232.0485905827703
 30
0.0
 11
387.5675180796031
 21
226.935494087838
 31
0.0
  0
LINE
  5
F9
330
1F
100
AcDbEntity
  8
B-1_ピット
  6
Continuous
 62
     2
370
     9
100
AcDbLine
 10
422.0677061338685
 20
32.47837705869938
 30
0.0
 11
425.5675939611488
 21
32.47837705869938
 31
0.0
  0
LINE
  5
FA
330
1F
100
AcDbEntity
  8
B-1_ピット
  6
Continuous
 62
     2
370
     9
100
AcDbLine
 10
415.5676599451016
 20
-21.52150417018578
 30
0.0
 11
390.0676500475084
 21
-21.52150417018578
 31
0.0
  0
LINE
  5
FB
330
1F
100
AcDbEntity
  8
B-1_ピット
  6
Continuous
 62
     2
370
     9
100
AcDbLine
 10
419.5677226298566
 20
-17.52129302153719
 30
0.0
 11
419.5677226298566
 21
29.97854201858109
 31
0.0
  0
LINE
  5
FC
330
1F
100
AcDbEntity
  8
B-1_ピット
  6
Continuous
 62
     2
370
     9
100
AcDbLine
 10
425.5675939611488
 20
-27.52152396537156
 30
0.0
 11
387.5675180796031
 21
-27.52152396537156
 31
0.0
  0
LINE
  5
FD
330
1F
100
AcDbEntity
  8
B-1_ピット
  6
Continuous
 62
     2
370
     9
100
AcDbLine
 10
405.5674290012669
 20
-27.52152396537156
 30
0.0
 11
405.5674290012669
 21
-36.52140519425672
 31
0.0
  0
LINE
  5
FE
330
1F
100
AcDbEntity
  8
B-1_ピット
  6
Continuous
 62
     2
370
     9
100
AcDbLine
 10
419.3827366184544
 20
-36.52140519425672
 30
0.0
 11
405.5674290012669
 21
-36.52140519425672
 31
0.0
  0
LINE
  5
FF
330
1F
100
AcDbEntity
  8
B-1_ピット
  6
Continuous
 62
     2
370
     9
100
AcDbLine
 10
424.0413851351353
 20
-28.13497677364859
 30
0.0
 11
482.2322536159206
 21
-43.72724873310813
 31
0.0
  0
LINE
  5
100
330
1F
100
AcDbEntity
  8
B-1_ピット
  6
Continuous
 62
     2
370
     9
100
AcDbLine
 10
421.7119866448481
 20
-36.82842852618234
 30
0.0
 11
479.9030035895271
 21
-52.42040355785468
 31
0.0
  0
LINE
  5
101
330
1F
100
AcDbEntity
  8
B-1_ピット
  6
JWW_CENTER1
 62
     2
370
     9
100
AcDbLine
 10
419.3825881545609
 20
-32.02176150760124
 30
0.0
 11
401.7627448004646
 21
-32.02176150760124
 31
0.0
  0
LINE
  5
102
330
1F
100
AcDbEntity
  8
B-1_ピット
  6
JWW_CENTER1
 62
     2
370
     9
100
AcDbLine
 10
422.8765374260981
 20
-32.48170264991546
 30
0.0
 11
488.0432788745778
 21
-49.94283810177358
 31
0.0
  0
LINE
  5
103
330
1F
100
AcDbEntity
  8
B-2_蓋
  6
Continuous
 62
     3
370
     9
100
AcDbLine
 10
413.5675543707771
 20
377.9799870671453
 30
0.0
 11
413.5675543707771
 21
-13.02150087098812
 31
0.0
  0
LINE
  5
104
330
1F
100
AcDbEntity
  8
B-2_蓋
  6
Continuous
 62
     3
370
     9
100
AcDbLine
 10
412.567501583615
 20
377.9799870671453
 30
0.0
 11
412.567501583615
 21
-13.02150087098812
 31
0.0
  0
LINE
  5
105
330
1F
100
AcDbEntity
  8
B-A
  6
Continuous
 62
     3
370
     9
100
AcDbLine
 10
386.06743889886
 20
226.4241844383447
 30
0.0
 11
387.5675180796031
 21
226.935494087838
 31
0.0
  0
LINE
  5
106
330
1F
100
AcDbEntity
  8
B-A
  6
Continuous
 62
     3
370
     9
100
AcDbLine
 10
386.06743889886
 20
226.4241844383447
 30
0.0
 11
386.06743889886
 21
219.8769267314189
 31
0.0
  0
LINE
  5
107
330
1F
100
AcDbEntity
  8
B-A
  6
Continuous
 62
     3
370
     9
100
AcDbLine
 10
386.06743889886
 20
219.8769267314189
 30
0.0
 11
387.5675180796031
 21
219.3656170819258
 31
0.0
  0
LINE
  5
108
330
1F
100
AcDbEntity
  8
B-A
  6
Continuous
 62
     3
370
     9
100
AcDbLine
 10
386.06743889886
 20
213.740914009713
 30
0.0
 11
386.06743889886
 21
209.3336148648648
 31
0.0
  0
LINE
  5
109
330
1F
100
AcDbEntity
  8
B-A
  6
Continuous
 62
     3
370
     9
100
AcDbLine
 10
386.06743889886
 20
209.3336148648648
 30
0.0
 11
387.5675180796031
 21
208.8223052153717
 31
0.0
  0
LINE
  5
10A
330
1F
100
AcDbEntity
  8
B-A
  6
Continuous
 62
     3
370
     9
100
AcDbLine
 10
386.06743889886
 20
213.740914009713
 30
0.0
 11
387.5675180796031
 21
214.2522236592061
 31
0.0
  0
LINE
  5
10B
330
1F
100
AcDbEntity
  8
B-A
  6
Continuous
 62
     3
370
     9
100
AcDbLine
 10
387.5675180796031
 20
219.3656170819258
 30
0.0
 11
387.5675180796031
 21
214.2522236592061
 31
0.0
  0
LINE
  5
10C
330
1F
100
AcDbEntity
  8
B-A
  6
Continuous
 62
     3
370
     9
100
AcDbLine
 10
387.5675180796031
 20
208.8223052153717
 30
0.0
 11
387.5675180796031
 21
203.7092087204392
 31
0.0
  0
LINE
  5
10D
330
1F
100
AcDbEntity
  8
B-A
  6
Continuous
 62
     3
370
     9
100
AcDbLine
 10
386.06743889886
 20
203.1978990709459
 30
0.0
 11
387.5675180796031
 21
203.7092087204392
 31
0.0
  0
LINE
  5
10E
330
1F
100
AcDbEntity
  8
B-A
  6
Continuous
 62
     3
370
     9
100
AcDbLine
 10
386.06743889886
 20
203.1978990709459
 30
0.0
 11
386.06743889886
 21
196.6506413640203
 31
0.0
  0
LINE
  5
10F
330
1F
100
AcDbEntity
  8
B-A
  6
Continuous
 62
     3
370
     9
100
AcDbLine
 10
386.06743889886
 20
196.6506413640203
 30
0.0
 11
387.5675180796031
 21
196.139331714527
 31
0.0
  0
LINE
  5
110
330
1F
100
AcDbEntity
  8
B-A
  6
Continuous
 62
     3
370
     9
100
AcDbLine
 10
386.06743889886
 20
190.5146286423142
 30
0.0
 11
386.06743889886
 21
186.1070325696791
 31
0.0
  0
LINE
  5
111
330
1F
100
AcDbEntity
  8
B-A
  6
Continuous
 62
     3
370
     9
100
AcDbLine
 10
386.06743889886
 20
186.1070325696791
 30
0.0
 11
387.5675180796031
 21
185.596019847973
 31
0.0
  0
LINE
  5
112
330
1F
100
AcDbEntity
  8
B-A
  6
Continuous
 62
     3
370
     9
100
AcDbLine
 10
386.06743889886
 20
190.5146286423142
 30
0.0
 11
387.5675180796031
 21
191.0259382918075
 31
0.0
  0
LINE
  5
113
330
1F
100
AcDbEntity
  8
B-A
  6
Continuous
 62
     3
370
     9
100
AcDbLine
 10
387.5675180796031
 20
196.139331714527
 30
0.0
 11
387.5675180796031
 21
191.0259382918075
 31
0.0
  0
LINE
  5
114
330
1F
100
AcDbEntity
  8
B-A
  6
Continuous
 62
     3
370
     9
100
AcDbLine
 10
387.5675180796031
 20
185.596019847973
 30
0.0
 11
387.5675180796031
 21
180.4829233530406
 31
0.0
  0
LINE
  5
115
330
1F
100
AcDbEntity
  8
B-A
  6
Continuous
 62
     3
370
     9
100
AcDbLine
 10
386.06743889886
 20
179.9716137035473
 30
0.0
 11
387.5675180796031
 21
180.4829233530406
 31
0.0
  0
LINE
  5
116
330
1F
100
AcDbEntity
  8
B-A
  6
Continuous
 62
     3
370
     9
100
AcDbLine
 10
386.06743889886
 20
179.9716137035473
 30
0.0
 11
386.06743889886
 21
173.4243559966217
 31
0.0
  0
LINE
  5
117
330
1F
100
AcDbEntity
  8
B-A
  6
Continuous
 62
     3
370
     9
100
AcDbLine
 10
386.06743889886
 20
173.4243559966217
 30
0.0
 11
387.5675180796031
 21
172.9130463471284
 31
0.0
  0
LINE
  5
118
330
1F
100
AcDbEntity
  8
B-A
  6
Continuous
 62
     3
370
     9
100
AcDbLine
 10
386.06743889886
 20
167.2883432749156
 30
0.0
 11
386.06743889886
 21
162.8810441300677
 31
0.0
  0
LINE
  5
119
330
1F
100
AcDbEntity
  8
B-A
  6
Continuous
 62
     3
370
     9
100
AcDbLine
 10
386.06743889886
 20
162.8810441300677
 30
0.0
 11
387.5675180796031
 21
162.3697344805744
 31
0.0
  0
LINE
  5
11A
330
1F
100
AcDbEntity
  8
B-A
  6
Continuous
 62
     3
370
     9
100
AcDbLine
 10
386.06743889886
 20
167.2883432749156
 30
0.0
 11
387.5675180796031
 21
167.7996529244089
 31
0.0
  0
LINE
  5
11B
330
1F
100
AcDbEntity
  8
B-A
  6
Continuous
 62
     3
370
     9
100
AcDbLine
 10
387.5675180796031
 20
172.9130463471284
 30
0.0
 11
387.5675180796031
 21
167.7996529244089
 31
0.0
  0
LINE
  5
11C
330
1F
100
AcDbEntity
  8
B-A
  6
Continuous
 62
     3
370
     9
100
AcDbLine
 10
387.5675180796031
 20
162.3697344805744
 30
0.0
 11
387.5675180796031
 21
157.2566379856419
 31
0.0
  0
LINE
  5
11D
330
1F
100
AcDbEntity
  8
B-A
  6
Continuous
 62
     3
370
     9
100
AcDbLine
 10
386.06743889886
 20
156.7453283361488
 30
0.0
 11
387.5675180796031
 21
157.2566379856419
 31
0.0
  0
LINE
  5
11E
330
1F
100
AcDbEntity
  8
B-A
  6
Continuous
 62
     3
370
     9
100
AcDbLine
 10
386.06743889886
 20
156.7453283361488
 30
0.0
 11
386.06743889886
 21
150.198070629223
 31
0.0
  0
LINE
  5
11F
330
1F
100
AcDbEntity
  8
B-A
  6
Continuous
 62
     3
370
     9
100
AcDbLine
 10
386.06743889886
 20
150.198070629223
 30
0.0
 11
387.5675180796031
 21
149.6864640519427
 31
0.0
  0
LINE
  5
120
330
1F
100
AcDbEntity
  8
B-A
  6
Continuous
 62
     3
370
     9
100
AcDbLine
 10
386.06743889886
 20
144.0620579075169
 30
0.0
 11
386.06743889886
 21
139.6547587626689
 31
0.0
  0
LINE
  5
121
330
1F
100
AcDbEntity
  8
B-A
  6
Continuous
 62
     3
370
     9
100
AcDbLine
 10
386.06743889886
 20
139.6547587626689
 30
0.0
 11
387.5675180796031
 21
139.1434491131758
 31
0.0
  0
LINE
  5
122
330
1F
100
AcDbEntity
  8
B-A
  6
Continuous
 62
     3
370
     9
100
AcDbLine
 10
386.06743889886
 20
144.0620579075169
 30
0.0
 11
387.5675180796031
 21
144.5733675570102
 31
0.0
  0
LINE
  5
123
330
1F
100
AcDbEntity
  8
B-A
  6
Continuous
 62
     3
370
     9
100
AcDbLine
 10
387.5675180796031
 20
149.6864640519427
 30
0.0
 11
387.5675180796031
 21
144.5733675570102
 31
0.0
  0
LINE
  5
124
330
1F
100
AcDbEntity
  8
B-A
  6
Continuous
 62
     3
370
     9
100
AcDbLine
 10
387.5675180796031
 20
139.1434491131758
 30
0.0
 11
387.5675180796031
 21
134.0303526182433
 31
0.0
  0
LINE
  5
125
330
1F
100
AcDbEntity
  8
B-A
  6
Continuous
 62
     3
370
     9
100
AcDbLine
 10
386.06743889886
 20
133.51904296875
 30
0.0
 11
387.5675180796031
 21
134.0303526182433
 31
0.0
  0
LINE
  5
126
330
1F
100
AcDbEntity
  8
B-A
  6
Continuous
 62
     3
370
     9
100
AcDbLine
 10
386.06743889886
 20
133.51904296875
 30
0.0
 11
386.06743889886
 21
126.9717852618244
 31
0.0
  0
LINE
  5
127
330
1F
100
AcDbEntity
  8
B-A
  6
Continuous
 62
     3
370
     9
100
AcDbLine
 10
386.06743889886
 20
126.9717852618244
 30
0.0
 11
387.5675180796031
 21
126.4604756123311
 31
0.0
  0
LINE
  5
128
330
1F
100
AcDbEntity
  8
B-A
  6
Continuous
 62
     3
370
     9
100
AcDbLine
 10
386.06743889886
 20
120.8357725401183
 30
0.0
 11
386.06743889886
 21
116.4284733952703
 31
0.0
  0
LINE
  5
129
330
1F
100
AcDbEntity
  8
B-A
  6
Continuous
 62
     3
370
     9
100
AcDbLine
 10
386.06743889886
 20
116.4284733952703
 30
0.0
 11
387.5675180796031
 21
115.917163745777
 31
0.0
  0
LINE
  5
12A
330
1F
100
AcDbEntity
  8
B-A
  6
Continuous
 62
     3
370
     9
100
AcDbLine
 10
386.06743889886
 20
120.8357725401183
 30
0.0
 11
387.5675180796031
 21
121.3470821896116
 31
0.0
  0
LINE
  5
12B
330
1F
100
AcDbEntity
  8
B-A
  6
Continuous
 62
     3
370
     9
100
AcDbLine
 10
387.5675180796031
 20
126.4604756123311
 30
0.0
 11
387.5675180796031
 21
121.3470821896116
 31
0.0
  0
LINE
  5
12C
330
1F
100
AcDbEntity
  8
B-A
  6
Continuous
 62
     3
370
     9
100
AcDbLine
 10
387.5675180796031
 20
115.917163745777
 30
0.0
 11
387.5675180796031
 21
110.8040672508447
 31
0.0
  0
LINE
  5
12D
330
1F
100
AcDbEntity
  8
B-A
  6
Continuous
 62
     3
370
     9
100
AcDbLine
 10
386.06743889886
 20
110.2927576013514
 30
0.0
 11
387.5675180796031
 21
110.8040672508447
 31
0.0
  0
LINE
  5
12E
330
1F
100
AcDbEntity
  8
B-A
  6
Continuous
 62
     3
370
     9
100
AcDbLine
 10
386.06743889886
 20
110.2927576013514
 30
0.0
 11
386.06743889886
 21
103.7454998944258
 31
0.0
  0
LINE
  5
12F
330
1F
100
AcDbEntity
  8
B-A
  6
Continuous
 62
     3
370
     9
100
AcDbLine
 10
386.06743889886
 20
103.7454998944258
 30
0.0
 11
387.5675180796031
 21
103.2341902449325
 31
0.0
  0
LINE
  5
130
330
1F
100
AcDbEntity
  8
B-A
  6
Continuous
 62
     3
370
     9
100
AcDbLine
 10
386.06743889886
 20
97.6094871727197
 30
0.0
 11
386.06743889886
 21
93.20189110008454
 31
0.0
  0
LINE
  5
131
330
1F
100
AcDbEntity
  8
B-A
  6
Continuous
 62
     3
370
     9
100
AcDbLine
 10
386.06743889886
 20
93.20189110008454
 30
0.0
 11
387.5675180796031
 21
92.69087837837844
 31
0.0
  0
LINE
  5
132
330
1F
100
AcDbEntity
  8
B-A
  6
Continuous
 62
     3
370
     9
100
AcDbLine
 10
386.06743889886
 20
97.6094871727197
 30
0.0
 11
387.5675180796031
 21
98.12079682221281
 31
0.0
  0
LINE
  5
133
330
1F
100
AcDbEntity
  8
B-A
  6
Continuous
 62
     3
370
     9
100
AcDbLine
 10
387.5675180796031
 20
103.2341902449325
 30
0.0
 11
387.5675180796031
 21
98.12079682221281
 31
0.0
  0
LINE
  5
134
330
1F
100
AcDbEntity
  8
B-A
  6
Continuous
 62
     3
370
     9
100
AcDbLine
 10
387.5675180796031
 20
92.69087837837844
 30
0.0
 11
387.5675180796031
 21
87.57778188344594
 31
0.0
  0
LINE
  5
135
330
1F
100
AcDbEntity
  8
B-A
  6
Continuous
 62
     3
370
     9
100
AcDbLine
 10
386.06743889886
 20
87.06647223395281
 30
0.0
 11
387.5675180796031
 21
87.57778188344594
 31
0.0
  0
LINE
  5
136
330
1F
100
AcDbEntity
  8
B-A
  6
Continuous
 62
     3
370
     9
100
AcDbLine
 10
386.06743889886
 20
87.06647223395281
 30
0.0
 11
386.06743889886
 21
80.51921452702702
 31
0.0
  0
LINE
  5
137
330
1F
100
AcDbEntity
  8
B-A
  6
Continuous
 62
     3
370
     9
100
AcDbLine
 10
386.06743889886
 20
80.51921452702702
 30
0.0
 11
387.5675180796031
 21
80.00790487753392
 31
0.0
  0
LINE
  5
138
330
1F
100
AcDbEntity
  8
B-A
  6
Continuous
 62
     3
370
     9
100
AcDbLine
 10
386.06743889886
 20
74.38320180532094
 30
0.0
 11
386.06743889886
 21
69.97590266047297
 31
0.0
  0
LINE
  5
139
330
1F
100
AcDbEntity
  8
B-A
  6
Continuous
 62
     3
370
     9
100
AcDbLine
 10
386.06743889886
 20
69.97590266047297
 30
0.0
 11
387.5675180796031
 21
69.46459301097985
 31
0.0
  0
LINE
  5
13A
330
1F
100
AcDbEntity
  8
B-A
  6
Continuous
 62
     3
370
     9
100
AcDbLine
 10
386.06743889886
 20
74.38320180532094
 30
0.0
 11
387.5675180796031
 21
74.89451145481422
 31
0.0
  0
LINE
  5
13B
330
1F
100
AcDbEntity
  8
B-A
  6
Continuous
 62
     3
370
     9
100
AcDbLine
 10
387.5675180796031
 20
80.00790487753392
 30
0.0
 11
387.5675180796031
 21
74.89451145481422
 31
0.0
  0
LINE
  5
13C
330
1F
100
AcDbEntity
  8
B-A
  6
Continuous
 62
     3
370
     9
100
AcDbLine
 10
387.5675180796031
 20
69.46459301097985
 30
0.0
 11
387.5675180796031
 21
64.35149651604735
 31
0.0
  0
LINE
  5
13D
330
1F
100
AcDbEntity
  8
B-A
  6
Continuous
 62
     3
370
     9
100
AcDbLine
 10
386.06743889886
 20
63.84018686655406
 30
0.0
 11
387.5675180796031
 21
64.35149651604735
 31
0.0
  0
LINE
  5
13E
330
1F
100
AcDbEntity
  8
B-A
  6
Continuous
 62
     3
370
     9
100
AcDbLine
 10
386.06743889886
 20
63.84018686655406
 30
0.0
 11
386.06743889886
 21
57.29292915962844
 31
0.0
  0
LINE
  5
13F
330
1F
100
AcDbEntity
  8
B-A
  6
Continuous
 62
     3
370
     9
100
AcDbLine
 10
386.06743889886
 20
57.29292915962844
 30
0.0
 11
387.5675180796031
 21
56.78161951013515
 31
0.0
  0
LINE
  5
140
330
1F
100
AcDbEntity
  8
B-A
  6
Continuous
 62
     3
370
     9
100
AcDbLine
 10
386.06743889886
 20
51.15691643792235
 30
0.0
 11
386.06743889886
 21
46.74961729307438
 31
0.0
  0
LINE
  5
141
330
1F
100
AcDbEntity
  8
B-A
  6
Continuous
 62
     3
370
     9
100
AcDbLine
 10
386.06743889886
 20
46.74961729307438
 30
0.0
 11
387.5675180796031
 21
46.23830764358109
 31
0.0
  0
LINE
  5
142
330
1F
100
AcDbEntity
  8
B-A
  6
Continuous
 62
     3
370
     9
100
AcDbLine
 10
386.06743889886
 20
51.15691643792235
 30
0.0
 11
387.5675180796031
 21
51.66822608741563
 31
0.0
  0
LINE
  5
143
330
1F
100
AcDbEntity
  8
B-A
  6
Continuous
 62
     3
370
     9
100
AcDbLine
 10
387.5675180796031
 20
56.78161951013515
 30
0.0
 11
387.5675180796031
 21
51.66822608741563
 31
0.0
  0
LINE
  5
144
330
1F
100
AcDbEntity
  8
B-A
  6
Continuous
 62
     3
370
     9
100
AcDbLine
 10
387.5675180796031
 20
46.23830764358109
 30
0.0
 11
387.5675180796031
 21
41.12491422086157
 31
0.0
  0
LINE
  5
145
330
1F
100
AcDbEntity
  8
B-A
  6
Continuous
 62
     3
370
     9
100
AcDbLine
 10
386.06743889886
 20
40.61390149915547
 30
0.0
 11
387.5675180796031
 21
41.12491422086157
 31
0.0
  0
LINE
  5
146
330
1F
100
AcDbEntity
  8
B-A
  6
Continuous
 62
     3
370
     9
100
AcDbLine
 10
386.06743889886
 20
40.61390149915547
 30
0.0
 11
386.06743889886
 21
34.06664379222985
 31
0.0
  0
LINE
  5
147
330
1F
100
AcDbEntity
  8
B-A
  6
Continuous
 62
     3
370
     9
100
AcDbLine
 10
386.06743889886
 20
34.06664379222985
 30
0.0
 11
387.5675180796031
 21
33.55503721494938
 31
0.0
  0
LINE
  5
148
330
1F
100
AcDbEntity
  8
B-A
  6
Continuous
 62
     3
370
     9
100
AcDbLine
 10
386.06743889886
 20
27.93063107052376
 30
0.0
 11
386.06743889886
 21
23.52333192567579
 31
0.0
  0
LINE
  5
149
330
1F
100
AcDbEntity
  8
B-A
  6
Continuous
 62
     3
370
     9
100
AcDbLine
 10
386.06743889886
 20
23.52333192567579
 30
0.0
 11
387.5675180796031
 21
23.01202227618251
 31
0.0
  0
LINE
  5
14A
330
1F
100
AcDbEntity
  8
B-A
  6
Continuous
 62
     3
370
     9
100
AcDbLine
 10
386.06743889886
 20
27.93063107052376
 30
0.0
 11
387.5675180796031
 21
28.44194072001687
 31
0.0
  0
LINE
  5
14B
330
1F
100
AcDbEntity
  8
B-A
  6
Continuous
 62
     3
370
     9
100
AcDbLine
 10
387.5675180796031
 20
33.55503721494938
 30
0.0
 11
387.5675180796031
 21
28.44194072001687
 31
0.0
  0
LINE
  5
14C
330
1F
100
AcDbEntity
  8
B-A
  6
Continuous
 62
     3
370
     9
100
AcDbLine
 10
387.5675180796031
 20
23.01202227618251
 30
0.0
 11
387.5675180796031
 21
17.89892578125
 31
0.0
  0
LINE
  5
14D
330
1F
100
AcDbEntity
  8
B-A
  6
Continuous
 62
     3
370
     9
100
AcDbLine
 10
386.06743889886
 20
17.38761613175689
 30
0.0
 11
387.5675180796031
 21
17.89892578125
 31
0.0
  0
LINE
  5
14E
330
1F
100
AcDbEntity
  8
B-A
  6
Continuous
 62
     3
370
     9
100
AcDbLine
 10
386.06743889886
 20
17.38761613175689
 30
0.0
 11
386.06743889886
 21
10.84035842483109
 31
0.0
  0
LINE
  5
14F
330
1F
100
AcDbEntity
  8
B-A
  6
Continuous
 62
     3
370
     9
100
AcDbLine
 10
386.06743889886
 20
10.84035842483109
 30
0.0
 11
387.5675180796031
 21
10.32904877533781
 31
0.0
  0
LINE
  5
150
330
1F
100
AcDbEntity
  8
B-A
  6
Continuous
 62
     3
370
     9
100
AcDbLine
 10
386.06743889886
 20
4.704345703125
 30
0.0
 11
386.06743889886
 21
0.2970465582770316
 31
0.0
  0
LINE
  5
151
330
1F
100
AcDbEntity
  8
B-A
  6
Continuous
 62
     3
370
     9
100
AcDbLine
 10
386.06743889886
 20
0.2970465582770316
 30
0.0
 11
387.5675180796031
 21
-0.2142630912160826
 31
0.0
  0
LINE
  5
152
330
1F
100
AcDbEntity
  8
B-A
  6
Continuous
 62
     3
370
     9
100
AcDbLine
 10
386.06743889886
 20
4.704345703125
 30
0.0
 11
387.5675180796031
 21
5.215655352618285
 31
0.0
  0
LINE
  5
153
330
1F
100
AcDbEntity
  8
B-A
  6
Continuous
 62
     3
370
     9
100
AcDbLine
 10
387.5675180796031
 20
10.32904877533781
 30
0.0
 11
387.5675180796031
 21
5.215655352618285
 31
0.0
  0
LINE
  5
154
330
1F
100
AcDbEntity
  8
B-A
  6
Continuous
 62
     3
370
     9
100
AcDbLine
 10
387.5675180796031
 20
-0.2142630912160826
 30
0.0
 11
387.5675180796031
 21
-5.327359586148589
 31
0.0
  0
LINE
  5
155
330
1F
100
AcDbEntity
  8
B-A
  6
Continuous
 62
     3
370
     9
100
AcDbLine
 10
386.06743889886
 20
-5.838669235641873
 30
0.0
 11
387.5675180796031
 21
-5.327359586148589
 31
0.0
  0
LINE
  5
156
330
1F
100
AcDbEntity
  8
B-A
  6
Continuous
 62
     3
370
     9
100
AcDbLine
 10
386.06743889886
 20
-5.838669235641873
 30
0.0
 11
386.06743889886
 21
-12.38592694256749
 31
0.0
  0
LINE
  5
157
330
1F
100
AcDbEntity
  8
B-A
  6
Continuous
 62
     3
370
     9
100
AcDbLine
 10
386.06743889886
 20
-12.38592694256749
 30
0.0
 11
387.5675180796031
 21
-12.89723659206078
 31
0.0
  0
LINE
  5
158
330
1F
100
AcDbEntity
  8
B-2_蓋
  6
Continuous
 62
     3
370
     9
100
AcDbLine
 10
393.5673894108953
 20
377.9799870671453
 30
0.0
 11
393.5673894108953
 21
-13.02150087098812
 31
0.0
  0
LINE
  5
159
330
1F
100
AcDbEntity
  8
B-2_蓋
  6
Continuous
 62
     3
370
     9
100
AcDbLine
 10
394.5674421980575
 20
377.9799870671453
 30
0.0
 11
394.5674421980575
 21
-13.02150087098812
 31
0.0
  0
LINE
  5
15A
330
1F
100
AcDbEntity
  8
B-2_蓋
  6
JWW_CENTER1
 62
     3
370
     9
100
AcDbLine
 10
366.42388421136
 20
182.4793173300255
 30
0.0
 11
440.8056310705238
 21
182.4793173300255
 31
0.0
  0
LINE
  5
15B
330
1F
100
AcDbEntity
  8
B-2_蓋
  6
Continuous
 62
     3
370
     9
100
AcDbLine
 10
387.5675180796031
 20
-13.02150087098812
 30
0.0
 11
387.5675180796031
 21
-17.52144148543061
 31
0.0
  0
LINE
  5
15C
330
1F
100
AcDbEntity
  8
B-2_蓋
  6
Continuous
 62
     3
370
     9
100
AcDbLine
 10
387.5675180796031
 20
-13.02150087098812
 30
0.0
 11
419.5675741659628
 21
-13.02150087098812
 31
0.0
  0
LINE
  5
15D
330
1F
100
AcDbEntity
  8
B-1_ピット
  6
Continuous
 62
     2
370
     9
100
AcDbLine
 10
387.5675180796031
 20
-24.02193306587827
 30
0.0
 11
387.5675180796031
 21
-27.52152396537156
 31
0.0
  0
LINE
  5
15E
330
1F
100
AcDbEntity
  8
B-4_寸法
  6
Continuous
 62
     7
370
     9
100
AcDbLine
 10
-614.5944956186654
 20
401.4795944626267
 30
0.0
 11
-614.5944956186654
 21
448.4124458931589
 31
0.0
  0
LINE
  5
15F
330
1F
100
AcDbEntity
  8
B-4_寸法
  6
Continuous
 62
     7
370
     9
100
AcDbLine
 10
-404.59454510663
 20
422.0789596970017
 30
0.0
 11
-404.59454510663
 21
448.4124458931589
 31
0.0
  0
LINE
  5
160
330
1F
100
AcDbEntity
  8
B-4_寸法
  6
Continuous
 62
     7
370
     9
100
AcDbLine
 10
-194.5945945945945
 20
401.4795944626267
 30
0.0
 11
-194.5945945945945
 21
448.4124458931589
 31
0.0
  0
LINE
  5
161
330
1F
100
AcDbEntity
  8
B-4_寸法
  6
Continuous
 62
     7
370
     9
100
AcDbLine
 10
-614.5944956186654
 20
-36.52095980257593
 30
0.0
 11
-614.5944956186654
 21
-176.218505859375
 31
0.0
  0
LINE
  5
162
330
1F
100
AcDbEntity
  8
B-4_寸法
  6
Continuous
 62
     7
370
     9
100
AcDbLine
 10
-194.5945945945945
 20
-36.52095980257593
 30
0.0
 11
-194.5945945945945
 21
-176.218505859375
 31
0.0
  0
LINE
  5
163
330
1F
100
AcDbEntity
  8
B-4_寸法
  6
Continuous
 62
     7
370
     9
100
AcDbLine
 10
-554.5945945945946
 20
23.47834736592063
 30
0.0
 11
-554.5945945945946
 21
-92.92417454075172
 31
0.0
  0
LINE
  5
164
330
1F
100
AcDbEntity
  8
B-4_寸法
  6
Continuous
 62
     7
370
     9
100
AcDbLine
 10
-254.5946440825591
 20
23.47834736592063
 30
0.0
 11
-254.5946440825591
 21
-92.92417454075172
 31
0.0
  0
LINE
  5
165
330
1F
100
AcDbEntity
  8
B-4_寸法
  6
Continuous
 62
     7
370
     9
100
AcDbLine
 10
378.5674883868244
 20
392.4798616976352
 30
0.0
 11
256.0378615920609
 21
392.4798616976352
 31
0.0
  0
LINE
  5
166
330
1F
100
AcDbEntity
  8
B-4_寸法
  6
Continuous
 62
     7
370
     9
100
AcDbLine
 10
378.5674883868244
 20
-27.52093010979717
 30
0.0
 11
256.0378615920609
 21
-27.52093010979717
 31
0.0
  0
LINE
  5
167
330
1F
100
AcDbEntity
  8
B-4_寸法
  6
Continuous
 62
     7
370
     9
100
AcDbLine
 10
381.0676203547297
 20
386.4802872941301
 30
0.0
 11
314.4162399704394
 21
386.4802872941301
 31
0.0
  0
LINE
  5
168
330
1F
100
AcDbEntity
  8
B-4_寸法
  6
Continuous
 62
     7
370
     9
100
AcDbLine
 10
316.2162162162163
 20
386.4802872941301
 30
0.0
 11
316.2162162162163
 21
382.4799276815879
 31
0.0
  0
LINE
  5
169
330
1F
100
AcDbEntity
  8
B-4_寸法
  6
Continuous
 62
     7
370
     9
100
AcDbLine
 10
378.5674883868244
 20
382.4799276815879
 30
0.0
 11
314.4162399704394
 21
382.4799276815879
 31
0.0
  0
LINE
  5
16A
330
1F
100
AcDbEntity
  8
B-4_寸法
  6
Continuous
 62
     7
370
     9
100
AcDbLine
 10
378.5674883868244
 20
-17.52144148543061
 30
0.0
 11
314.4162399704394
 21
-17.52144148543061
 31
0.0
  0
LINE
  5
16B
330
1F
100
AcDbEntity
  8
B-4_寸法
  6
Continuous
 62
     7
370
     9
100
AcDbLine
 10
316.2162162162163
 20
-17.52144148543061
 30
0.0
 11
316.2162162162163
 21
-21.52194956186656
 31
0.0
  0
LINE
  5
16C
330
1F
100
AcDbEntity
  8
B-4_寸法
  6
Continuous
 62
     7
370
     9
100
AcDbLine
 10
381.0676203547297
 20
-21.52194956186656
 30
0.0
 11
314.4162399704394
 21
-21.52194956186656
 31
0.0
  0
LINE
  5
16D
330
1F
100
AcDbEntity
  8
B-4_寸法
  6
Continuous
 62
     7
370
     9
100
AcDbLine
 10
434.5676236539275
 20
392.4798616976352
 30
0.0
 11
512.6107870565878
 21
392.4798616976352
 31
0.0
  0
LINE
  5
16E
330
1F
100
AcDbEntity
  8
B-4_寸法
  6
Continuous
 62
     7
370
     9
100
AcDbLine
 10
434.5676236539275
 20
332.4802576013514
 30
0.0
 11
512.6107870565878
 21
332.4802576013514
 31
0.0
  0
LINE
  5
16F
330
1F
100
AcDbEntity
  8
B-4_寸法
  6
Continuous
 62
     7
370
     9
100
AcDbLine
 10
434.5676236539275
 20
32.47837705869938
 30
0.0
 11
512.6107870565878
 21
32.47837705869938
 31
0.0
  0
LINE
  5
170
330
1F
100
AcDbEntity
  8
B-4_寸法
  6
Continuous
 62
     7
370
     9
100
AcDbLine
 10
434.5676236539275
 20
-27.52152396537156
 30
0.0
 11
512.6107870565878
 21
-27.52152396537156
 31
0.0
  0
LINE
  5
171
330
1F
100
AcDbEntity
  8
B-4_寸法
  6
Continuous
 62
     7
370
     9
100
AcDbLine
 10
387.5675180796031
 20
-26.52147117820937
 30
0.0
 11
387.5675180796031
 21
-135.1958535684121
 31
0.0
  0
LINE
  5
172
330
1F
100
AcDbEntity
  8
B-4_寸法
  6
Continuous
 62
     7
370
     9
100
AcDbLine
 10
425.5675939611488
 20
-36.52155365815031
 30
0.0
 11
425.5675939611488
 21
-135.1958535684121
 31
0.0
  0
LINE
  5
173
330
1F
100
AcDbEntity
  8
B-4_寸法
  6
Continuous
 62
     7
370
     9
100
AcDbLine
 10
387.5676665434966
 20
-88.59311160525749
 30
0.0
 11
387.5675180796031
 21
-88.59311160525749
 31
0.0
  0
LINE
  5
174
330
1F
100
AcDbEntity
  8
B-4_寸法
  6
Continuous
 62
     7
370
     9
100
AcDbLine
 10
387.5676665434966
 20
-97.59314129803624
 30
0.0
 11
387.5676665434966
 21
-90.39308785103452
 31
0.0
  0
LINE
  5
175
330
1F
100
AcDbEntity
  8
B-4_寸法
  6
Continuous
 62
     7
370
     9
100
AcDbLine
 10
419.5677226298566
 20
-26.52132271431577
 30
0.0
 11
419.5677226298566
 21
-92.75982501055734
 31
0.0
  0
LINE
  5
176
330
1F
100
AcDbEntity
  8
B-2_蓋
  6
Continuous
 62
     3
370
     9
100
AcDbLine
 10
493.5673234269428
 20
434.9292520059122
 30
0.0
 11
493.5673234269428
 21
434.9294004698058
 31
0.0
  0
LINE
  5
177
330
1F
100
AcDbEntity
  8
B-2_蓋
  6
Continuous
 62
     3
370
     9
100
AcDbLine
 10
387.5675180796031
 20
382.4799276815879
 30
0.0
 11
412.567501583615
 21
382.4799276815879
 31
0.0
  0
LINE
  5
178
330
1F
100
AcDbEntity
  8
B-2_蓋
  6
Continuous
 62
     3
370
     9
100
AcDbLine
 10
412.567501583615
 20
382.4799276815879
 30
0.0
 11
412.567501583615
 21
377.9799870671453
 31
0.0
  0
LINE
  5
179
330
1F
100
AcDbEntity
  8
B-2_蓋
  6
Continuous
 62
     3
370
     9
100
AcDbLine
 10
412.567501583615
 20
-13.02150087098812
 30
0.0
 11
412.567501583615
 21
-17.52144148543061
 31
0.0
  0
LINE
  5
17A
330
1F
100
AcDbEntity
  8
B-2_蓋
  6
Continuous
 62
     3
370
     9
100
AcDbLine
 10
387.5675180796031
 20
-17.52144148543061
 30
0.0
 11
412.567501583615
 21
-17.52144148543061
 31
0.0
  0
LINE
  5
17B
330
1F
100
AcDbEntity
  8
B-2_蓋
  6
Continuous
 62
     3
370
     9
100
AcDbLine
 10
419.5675741659628
 20
377.9799870671453
 30
0.0
 11
419.5675741659628
 21
-13.02150087098812
 31
0.0
  0
LINE
  5
17C
330
1F
100
AcDbEntity
  8
B-2_蓋
  6
Continuous
 62
     3
370
     9
100
AcDbLine
 10
-597.0943883947423
 20
235.4791457717484
 30
0.0
 11
-597.0943883947423
 21
329.4790599926098
 31
0.0
  0
LINE
  5
17D
330
1F
100
AcDbEntity
  8
B-2_蓋
  6
Continuous
 62
     3
370
     9
100
AcDbLine
 10
-597.0943883947423
 20
335.4790797877956
 30
0.0
 11
-597.0943883947423
 21
377.9787993559967
 31
0.0
  0
LINE
  5
17E
330
1F
100
AcDbEntity
  8
B-2_蓋
  6
Continuous
 62
     3
370
     9
100
AcDbLine
 10
-597.0943883947423
 20
-11.52067937077703
 30
0.0
 11
-597.0943883947423
 21
29.47896101668078
 31
0.0
  0
LINE
  5
17F
330
1F
100
AcDbEntity
  8
B-2_蓋
  6
Continuous
 62
     3
370
     9
100
AcDbLine
 10
-597.0943883947423
 20
135.4790632918075
 30
0.0
 11
-597.0943883947423
 21
229.4789775126689
 31
0.0
  0
LINE
  5
180
330
1F
100
AcDbEntity
  8
B-2_蓋
  6
Continuous
 62
     3
370
     9
100
AcDbLine
 10
-597.0943883947423
 20
35.47912927576016
 30
0.0
 11
-597.0943883947423
 21
129.4790434966217
 31
0.0
  0
LINE
  5
181
330
1F
100
AcDbEntity
  8
B-2_蓋
  6
Continuous
 62
     3
370
     9
100
AcDbLine
 10
-602.0945038666596
 20
382.4793338260136
 30
0.0
 11
-602.0945038666596
 21
-17.52069916596281
 31
0.0
  0
LINE
  5
182
330
1F
100
AcDbEntity
  8
B-2_蓋
  6
Continuous
 62
     3
370
     9
100
AcDbLine
 10
-602.0945038666596
 20
377.9787993559967
 30
0.0
 11
-207.0945121146536
 21
377.9787993559967
 31
0.0
  0
LINE
  5
183
330
1F
100
AcDbEntity
  8
B-2_蓋
  6
Continuous
 62
     3
370
     9
100
AcDbLine
 10
-207.0945121146536
 20
329.4790599926098
 30
0.0
 11
-602.0945038666596
 21
329.4790599926098
 31
0.0
  0
LINE
  5
184
330
1F
100
AcDbEntity
  8
B-2_蓋
  6
Continuous
 62
     3
370
     9
100
AcDbLine
 10
-207.0945121146536
 20
335.4790797877956
 30
0.0
 11
-602.0945038666596
 21
335.4790797877956
 31
0.0
  0
LINE
  5
185
330
1F
100
AcDbEntity
  8
B-2_蓋
  6
Continuous
 62
     3
370
     9
100
AcDbLine
 10
-207.0945121146536
 20
35.47912927576016
 30
0.0
 11
-602.0945038666596
 21
35.47912927576016
 31
0.0
  0
LINE
  5
186
330
1F
100
AcDbEntity
  8
B-2_蓋
  6
Continuous
 62
     3
370
     9
100
AcDbLine
 10
-207.0945121146536
 20
29.47896101668078
 30
0.0
 11
-602.0945038666596
 21
29.47896101668078
 31
0.0
  0
LINE
  5
187
330
1F
100
AcDbEntity
  8
B-2_蓋
  6
Continuous
 62
     3
370
     9
100
AcDbLine
 10
-207.0945121146536
 20
-11.52067937077703
 30
0.0
 11
-602.0945038666596
 21
-11.52067937077703
 31
0.0
  0
LINE
  5
188
330
1F
100
AcDbEntity
  8
B-2_蓋
  6
Continuous
 62
     3
370
     9
100
AcDbLine
 10
-207.0945121146536
 20
235.4792942356419
 30
0.0
 11
-602.0945038666596
 21
235.4792942356419
 31
0.0
  0
LINE
  5
189
330
1F
100
AcDbEntity
  8
B-2_蓋
  6
Continuous
 62
     3
370
     9
100
AcDbLine
 10
-207.0945121146536
 20
229.4789775126689
 30
0.0
 11
-602.0945038666596
 21
229.4789775126689
 31
0.0
  0
LINE
  5
18A
330
1F
100
AcDbEntity
  8
B-2_蓋
  6
Continuous
 62
     3
370
     9
100
AcDbLine
 10
-207.0945121146536
 20
135.4792117557011
 30
0.0
 11
-602.0945038666596
 21
135.4792117557011
 31
0.0
  0
LINE
  5
18B
330
1F
100
AcDbEntity
  8
B-2_蓋
  6
Continuous
 62
     3
370
     9
100
AcDbLine
 10
-207.0945121146536
 20
129.4790434966217
 30
0.0
 11
-602.0945038666596
 21
129.4790434966217
 31
0.0
  0
LINE
  5
18C
330
1F
100
AcDbEntity
  8
B-2_蓋
  6
Continuous
 62
     3
370
     9
100
AcDbLine
 10
-587.0945286106419
 20
235.4791457717484
 30
0.0
 11
-587.0945286106419
 21
329.4790599926098
 31
0.0
  0
LINE
  5
18D
330
1F
100
AcDbEntity
  8
B-2_蓋
  6
Continuous
 62
     3
370
     9
100
AcDbLine
 10
-582.0947842984585
 20
235.4791457717484
 30
0.0
 11
-582.0947842984585
 21
329.4790599926098
 31
0.0
  0
LINE
  5
18E
330
1F
100
AcDbEntity
  8
B-2_蓋
  6
Continuous
 62
     3
370
     9
100
AcDbLine
 10
-587.0945286106419
 20
335.4790797877956
 30
0.0
 11
-587.0945286106419
 21
377.9787993559967
 31
0.0
  0
LINE
  5
18F
330
1F
100
AcDbEntity
  8
B-2_蓋
  6
Continuous
 62
     3
370
     9
100
AcDbLine
 10
-582.0947842984585
 20
335.4790797877956
 30
0.0
 11
-582.0947842984585
 21
377.9787993559967
 31
0.0
  0
LINE
  5
190
330
1F
100
AcDbEntity
  8
B-2_蓋
  6
Continuous
 62
     3
370
     9
100
AcDbLine
 10
-587.0945286106419
 20
-11.52067937077703
 30
0.0
 11
-587.0945286106419
 21
29.47896101668078
 31
0.0
  0
LINE
  5
191
330
1F
100
AcDbEntity
  8
B-2_蓋
  6
Continuous
 62
     3
370
     9
100
AcDbLine
 10
-582.0947842984585
 20
-11.52067937077703
 30
0.0
 11
-582.0947842984585
 21
29.47896101668078
 31
0.0
  0
LINE
  5
192
330
1F
100
AcDbEntity
  8
B-2_蓋
  6
Continuous
 62
     3
370
     9
100
AcDbLine
 10
-587.0945286106419
 20
135.4790632918075
 30
0.0
 11
-587.0945286106419
 21
229.4789775126689
 31
0.0
  0
LINE
  5
193
330
1F
100
AcDbEntity
  8
B-2_蓋
  6
Continuous
 62
     3
370
     9
100
AcDbLine
 10
-582.0947842984585
 20
135.4790632918075
 30
0.0
 11
-582.0947842984585
 21
229.4789775126689
 31
0.0
  0
LINE
  5
194
330
1F
100
AcDbEntity
  8
B-2_蓋
  6
Continuous
 62
     3
370
     9
100
AcDbLine
 10
-587.0945286106419
 20
35.47912927576016
 30
0.0
 11
-587.0945286106419
 21
129.4790434966217
 31
0.0
  0
LINE
  5
195
330
1F
100
AcDbEntity
  8
B-2_蓋
  6
Continuous
 62
     3
370
     9
100
AcDbLine
 10
-582.0947842984585
 20
35.47912927576016
 30
0.0
 11
-582.0947842984585
 21
129.4790434966217
 31
0.0
  0
LINE
  5
196
330
1F
100
AcDbEntity
  8
B-2_蓋
  6
Continuous
 62
     3
370
     9
100
AcDbLine
 10
-572.0944791226773
 20
235.4791457717484
 30
0.0
 11
-572.0944791226773
 21
329.4790599926098
 31
0.0
  0
LINE
  5
197
330
1F
100
AcDbEntity
  8
B-2_蓋
  6
Continuous
 62
     3
370
     9
100
AcDbLine
 10
-567.0947348104941
 20
235.4791457717484
 30
0.0
 11
-567.0947348104941
 21
329.4790599926098
 31
0.0
  0
LINE
  5
198
330
1F
100
AcDbEntity
  8
B-2_蓋
  6
Continuous
 62
     3
370
     9
100
AcDbLine
 10
-572.0944791226773
 20
335.4790797877956
 30
0.0
 11
-572.0944791226773
 21
377.9787993559967
 31
0.0
  0
LINE
  5
199
330
1F
100
AcDbEntity
  8
B-2_蓋
  6
Continuous
 62
     3
370
     9
100
AcDbLine
 10
-567.0947348104941
 20
335.4790797877956
 30
0.0
 11
-567.0947348104941
 21
377.9787993559967
 31
0.0
  0
LINE
  5
19A
330
1F
100
AcDbEntity
  8
B-2_蓋
  6
Continuous
 62
     3
370
     9
100
AcDbLine
 10
-572.0944791226773
 20
-11.52067937077703
 30
0.0
 11
-572.0944791226773
 21
29.47896101668078
 31
0.0
  0
LINE
  5
19B
330
1F
100
AcDbEntity
  8
B-2_蓋
  6
Continuous
 62
     3
370
     9
100
AcDbLine
 10
-567.0947348104941
 20
-11.52067937077703
 30
0.0
 11
-567.0947348104941
 21
29.47896101668078
 31
0.0
  0
LINE
  5
19C
330
1F
100
AcDbEntity
  8
B-2_蓋
  6
Continuous
 62
     3
370
     9
100
AcDbLine
 10
-572.0944791226773
 20
135.4790632918075
 30
0.0
 11
-572.0944791226773
 21
229.4789775126689
 31
0.0
  0
LINE
  5
19D
330
1F
100
AcDbEntity
  8
B-2_蓋
  6
Continuous
 62
     3
370
     9
100
AcDbLine
 10
-567.0947348104941
 20
135.4790632918075
 30
0.0
 11
-567.0947348104941
 21
229.4789775126689
 31
0.0
  0
LINE
  5
19E
330
1F
100
AcDbEntity
  8
B-2_蓋
  6
Continuous
 62
     3
370
     9
100
AcDbLine
 10
-572.0944791226773
 20
35.47912927576016
 30
0.0
 11
-572.0944791226773
 21
129.4790434966217
 31
0.0
  0
LINE
  5
19F
330
1F
100
AcDbEntity
  8
B-2_蓋
  6
Continuous
 62
     3
370
     9
100
AcDbLine
 10
-567.0947348104941
 20
35.47912927576016
 30
0.0
 11
-567.0947348104941
 21
129.4790434966217
 31
0.0
  0
LINE
  5
1A0
330
1F
100
AcDbEntity
  8
B-2_蓋
  6
Continuous
 62
     3
370
     9
100
AcDbLine
 10
-557.0945038666596
 20
235.4791457717484
 30
0.0
 11
-557.0945038666596
 21
329.4790599926098
 31
0.0
  0
LINE
  5
1A1
330
1F
100
AcDbEntity
  8
B-2_蓋
  6
Continuous
 62
     3
370
     9
100
AcDbLine
 10
-552.0947595544762
 20
235.4791457717484
 30
0.0
 11
-552.0947595544762
 21
329.4790599926098
 31
0.0
  0
LINE
  5
1A2
330
1F
100
AcDbEntity
  8
B-2_蓋
  6
Continuous
 62
     3
370
     9
100
AcDbLine
 10
-557.0945038666596
 20
335.4790797877956
 30
0.0
 11
-557.0945038666596
 21
377.9787993559967
 31
0.0
  0
LINE
  5
1A3
330
1F
100
AcDbEntity
  8
B-2_蓋
  6
Continuous
 62
     3
370
     9
100
AcDbLine
 10
-552.0947595544762
 20
335.4790797877956
 30
0.0
 11
-552.0947595544762
 21
377.9787993559967
 31
0.0
  0
LINE
  5
1A4
330
1F
100
AcDbEntity
  8
B-2_蓋
  6
Continuous
 62
     3
370
     9
100
AcDbLine
 10
-557.0945038666596
 20
-11.52067937077703
 30
0.0
 11
-557.0945038666596
 21
29.47896101668078
 31
0.0
  0
LINE
  5
1A5
330
1F
100
AcDbEntity
  8
B-2_蓋
  6
Continuous
 62
     3
370
     9
100
AcDbLine
 10
-552.0947595544762
 20
-11.52067937077703
 30
0.0
 11
-552.0947595544762
 21
29.47896101668078
 31
0.0
  0
LINE
  5
1A6
330
1F
100
AcDbEntity
  8
B-2_蓋
  6
Continuous
 62
     3
370
     9
100
AcDbLine
 10
-557.0945038666596
 20
135.4790632918075
 30
0.0
 11
-557.0945038666596
 21
229.4789775126689
 31
0.0
  0
LINE
  5
1A7
330
1F
100
AcDbEntity
  8
B-2_蓋
  6
Continuous
 62
     3
370
     9
100
AcDbLine
 10
-552.0947595544762
 20
135.4790632918075
 30
0.0
 11
-552.0947595544762
 21
229.4789775126689
 31
0.0
  0
LINE
  5
1A8
330
1F
100
AcDbEntity
  8
B-2_蓋
  6
Continuous
 62
     3
370
     9
100
AcDbLine
 10
-557.0945038666596
 20
35.47912927576016
 30
0.0
 11
-557.0945038666596
 21
129.4790434966217
 31
0.0
  0
LINE
  5
1A9
330
1F
100
AcDbEntity
  8
B-2_蓋
  6
Continuous
 62
     3
370
     9
100
AcDbLine
 10
-552.0947595544762
 20
35.47912927576016
 30
0.0
 11
-552.0947595544762
 21
129.4790434966217
 31
0.0
  0
LINE
  5
1AA
330
1F
100
AcDbEntity
  8
B-2_蓋
  6
Continuous
 62
     3
370
     9
100
AcDbLine
 10
-542.0945286106419
 20
235.4791457717484
 30
0.0
 11
-542.0945286106419
 21
329.4790599926098
 31
0.0
  0
LINE
  5
1AB
330
1F
100
AcDbEntity
  8
B-2_蓋
  6
Continuous
 62
     3
370
     9
100
AcDbLine
 10
-537.0947842984585
 20
235.4791457717484
 30
0.0
 11
-537.0947842984585
 21
329.4790599926098
 31
0.0
  0
LINE
  5
1AC
330
1F
100
AcDbEntity
  8
B-2_蓋
  6
Continuous
 62
     3
370
     9
100
AcDbLine
 10
-542.0945286106419
 20
335.4790797877956
 30
0.0
 11
-542.0945286106419
 21
377.9787993559967
 31
0.0
  0
LINE
  5
1AD
330
1F
100
AcDbEntity
  8
B-2_蓋
  6
Continuous
 62
     3
370
     9
100
AcDbLine
 10
-537.0947842984585
 20
335.4790797877956
 30
0.0
 11
-537.0947842984585
 21
377.9787993559967
 31
0.0
  0
LINE
  5
1AE
330
1F
100
AcDbEntity
  8
B-2_蓋
  6
Continuous
 62
     3
370
     9
100
AcDbLine
 10
-542.0945286106419
 20
-11.52067937077703
 30
0.0
 11
-542.0945286106419
 21
29.47896101668078
 31
0.0
  0
LINE
  5
1AF
330
1F
100
AcDbEntity
  8
B-2_蓋
  6
Continuous
 62
     3
370
     9
100
AcDbLine
 10
-537.0947842984585
 20
-11.52067937077703
 30
0.0
 11
-537.0947842984585
 21
29.47896101668078
 31
0.0
  0
LINE
  5
1B0
330
1F
100
AcDbEntity
  8
B-2_蓋
  6
Continuous
 62
     3
370
     9
100
AcDbLine
 10
-542.0945286106419
 20
135.4790632918075
 30
0.0
 11
-542.0945286106419
 21
229.4789775126689
 31
0.0
  0
LINE
  5
1B1
330
1F
100
AcDbEntity
  8
B-2_蓋
  6
Continuous
 62
     3
370
     9
100
AcDbLine
 10
-537.0947842984585
 20
135.4790632918075
 30
0.0
 11
-537.0947842984585
 21
229.4789775126689
 31
0.0
  0
LINE
  5
1B2
330
1F
100
AcDbEntity
  8
B-2_蓋
  6
Continuous
 62
     3
370
     9
100
AcDbLine
 10
-542.0945286106419
 20
35.47912927576016
 30
0.0
 11
-542.0945286106419
 21
129.4790434966217
 31
0.0
  0
LINE
  5
1B3
330
1F
100
AcDbEntity
  8
B-2_蓋
  6
Continuous
 62
     3
370
     9
100
AcDbLine
 10
-537.0947842984585
 20
35.47912927576016
 30
0.0
 11
-537.0947842984585
 21
129.4790434966217
 31
0.0
  0
LINE
  5
1B4
330
1F
100
AcDbEntity
  8
B-2_蓋
  6
Continuous
 62
     3
370
     9
100
AcDbLine
 10
-527.0944791226773
 20
235.4791457717484
 30
0.0
 11
-527.0944791226773
 21
329.4790599926098
 31
0.0
  0
LINE
  5
1B5
330
1F
100
AcDbEntity
  8
B-2_蓋
  6
Continuous
 62
     3
370
     9
100
AcDbLine
 10
-522.0947348104941
 20
235.4791457717484
 30
0.0
 11
-522.0947348104941
 21
329.4790599926098
 31
0.0
  0
LINE
  5
1B6
330
1F
100
AcDbEntity
  8
B-2_蓋
  6
Continuous
 62
     3
370
     9
100
AcDbLine
 10
-527.0944791226773
 20
335.4790797877956
 30
0.0
 11
-527.0944791226773
 21
377.9787993559967
 31
0.0
  0
LINE
  5
1B7
330
1F
100
AcDbEntity
  8
B-2_蓋
  6
Continuous
 62
     3
370
     9
100
AcDbLine
 10
-522.0947348104941
 20
335.4790797877956
 30
0.0
 11
-522.0947348104941
 21
377.9787993559967
 31
0.0
  0
LINE
  5
1B8
330
1F
100
AcDbEntity
  8
B-2_蓋
  6
Continuous
 62
     3
370
     9
100
AcDbLine
 10
-527.0944791226773
 20
-11.52067937077703
 30
0.0
 11
-527.0944791226773
 21
29.47896101668078
 31
0.0
  0
LINE
  5
1B9
330
1F
100
AcDbEntity
  8
B-2_蓋
  6
Continuous
 62
     3
370
     9
100
AcDbLine
 10
-522.0947348104941
 20
-11.52067937077703
 30
0.0
 11
-522.0947348104941
 21
29.47896101668078
 31
0.0
  0
LINE
  5
1BA
330
1F
100
AcDbEntity
  8
B-2_蓋
  6
Continuous
 62
     3
370
     9
100
AcDbLine
 10
-527.0944791226773
 20
135.4790632918075
 30
0.0
 11
-527.0944791226773
 21
229.4789775126689
 31
0.0
  0
LINE
  5
1BB
330
1F
100
AcDbEntity
  8
B-2_蓋
  6
Continuous
 62
     3
370
     9
100
AcDbLine
 10
-522.0947348104941
 20
135.4790632918075
 30
0.0
 11
-522.0947348104941
 21
229.4789775126689
 31
0.0
  0
LINE
  5
1BC
330
1F
100
AcDbEntity
  8
B-2_蓋
  6
Continuous
 62
     3
370
     9
100
AcDbLine
 10
-527.0944791226773
 20
35.47912927576016
 30
0.0
 11
-527.0944791226773
 21
129.4790434966217
 31
0.0
  0
LINE
  5
1BD
330
1F
100
AcDbEntity
  8
B-2_蓋
  6
Continuous
 62
     3
370
     9
100
AcDbLine
 10
-522.0947348104941
 20
35.47912927576016
 30
0.0
 11
-522.0947348104941
 21
129.4790434966217
 31
0.0
  0
LINE
  5
1BE
330
1F
100
AcDbEntity
  8
B-2_蓋
  6
Continuous
 62
     3
370
     9
100
AcDbLine
 10
-512.0945038666596
 20
235.4791457717484
 30
0.0
 11
-512.0945038666596
 21
329.4790599926098
 31
0.0
  0
LINE
  5
1BF
330
1F
100
AcDbEntity
  8
B-2_蓋
  6
Continuous
 62
     3
370
     9
100
AcDbLine
 10
-507.0947595544763
 20
235.4791457717484
 30
0.0
 11
-507.0947595544763
 21
329.4790599926098
 31
0.0
  0
LINE
  5
1C0
330
1F
100
AcDbEntity
  8
B-2_蓋
  6
Continuous
 62
     3
370
     9
100
AcDbLine
 10
-512.0945038666596
 20
335.4790797877956
 30
0.0
 11
-512.0945038666596
 21
377.9787993559967
 31
0.0
  0
LINE
  5
1C1
330
1F
100
AcDbEntity
  8
B-2_蓋
  6
Continuous
 62
     3
370
     9
100
AcDbLine
 10
-507.0947595544763
 20
335.4790797877956
 30
0.0
 11
-507.0947595544763
 21
377.9787993559967
 31
0.0
  0
LINE
  5
1C2
330
1F
100
AcDbEntity
  8
B-2_蓋
  6
Continuous
 62
     3
370
     9
100
AcDbLine
 10
-512.0945038666596
 20
-11.52067937077703
 30
0.0
 11
-512.0945038666596
 21
29.47896101668078
 31
0.0
  0
LINE
  5
1C3
330
1F
100
AcDbEntity
  8
B-2_蓋
  6
Continuous
 62
     3
370
     9
100
AcDbLine
 10
-507.0947595544763
 20
-11.52067937077703
 30
0.0
 11
-507.0947595544763
 21
29.47896101668078
 31
0.0
  0
LINE
  5
1C4
330
1F
100
AcDbEntity
  8
B-2_蓋
  6
Continuous
 62
     3
370
     9
100
AcDbLine
 10
-512.0945038666596
 20
135.4790632918075
 30
0.0
 11
-512.0945038666596
 21
229.4789775126689
 31
0.0
  0
LINE
  5
1C5
330
1F
100
AcDbEntity
  8
B-2_蓋
  6
Continuous
 62
     3
370
     9
100
AcDbLine
 10
-507.0947595544763
 20
135.4790632918075
 30
0.0
 11
-507.0947595544763
 21
229.4789775126689
 31
0.0
  0
LINE
  5
1C6
330
1F
100
AcDbEntity
  8
B-2_蓋
  6
Continuous
 62
     3
370
     9
100
AcDbLine
 10
-512.0945038666596
 20
35.47912927576016
 30
0.0
 11
-512.0945038666596
 21
129.4790434966217
 31
0.0
  0
LINE
  5
1C7
330
1F
100
AcDbEntity
  8
B-2_蓋
  6
Continuous
 62
     3
370
     9
100
AcDbLine
 10
-507.0947595544763
 20
35.47912927576016
 30
0.0
 11
-507.0947595544763
 21
129.4790434966217
 31
0.0
  0
LINE
  5
1C8
330
1F
100
AcDbEntity
  8
B-2_蓋
  6
Continuous
 62
     3
370
     9
100
AcDbLine
 10
-497.0945286106419
 20
235.4791457717484
 30
0.0
 11
-497.0945286106419
 21
329.4790599926098
 31
0.0
  0
LINE
  5
1C9
330
1F
100
AcDbEntity
  8
B-2_蓋
  6
Continuous
 62
     3
370
     9
100
AcDbLine
 10
-492.0947842984586
 20
235.4791457717484
 30
0.0
 11
-492.0947842984586
 21
329.4790599926098
 31
0.0
  0
LINE
  5
1CA
330
1F
100
AcDbEntity
  8
B-2_蓋
  6
Continuous
 62
     3
370
     9
100
AcDbLine
 10
-497.0945286106419
 20
335.4790797877956
 30
0.0
 11
-497.0945286106419
 21
377.9787993559967
 31
0.0
  0
LINE
  5
1CB
330
1F
100
AcDbEntity
  8
B-2_蓋
  6
Continuous
 62
     3
370
     9
100
AcDbLine
 10
-492.0947842984586
 20
335.4790797877956
 30
0.0
 11
-492.0947842984586
 21
377.9787993559967
 31
0.0
  0
LINE
  5
1CC
330
1F
100
AcDbEntity
  8
B-2_蓋
  6
Continuous
 62
     3
370
     9
100
AcDbLine
 10
-497.0945286106419
 20
-11.52067937077703
 30
0.0
 11
-497.0945286106419
 21
29.47896101668078
 31
0.0
  0
LINE
  5
1CD
330
1F
100
AcDbEntity
  8
B-2_蓋
  6
Continuous
 62
     3
370
     9
100
AcDbLine
 10
-492.0947842984586
 20
-11.52067937077703
 30
0.0
 11
-492.0947842984586
 21
29.47896101668078
 31
0.0
  0
LINE
  5
1CE
330
1F
100
AcDbEntity
  8
B-2_蓋
  6
Continuous
 62
     3
370
     9
100
AcDbLine
 10
-497.0945286106419
 20
135.4790632918075
 30
0.0
 11
-497.0945286106419
 21
229.4789775126689
 31
0.0
  0
LINE
  5
1CF
330
1F
100
AcDbEntity
  8
B-2_蓋
  6
Continuous
 62
     3
370
     9
100
AcDbLine
 10
-492.0947842984586
 20
135.4790632918075
 30
0.0
 11
-492.0947842984586
 21
229.4789775126689
 31
0.0
  0
LINE
  5
1D0
330
1F
100
AcDbEntity
  8
B-2_蓋
  6
Continuous
 62
     3
370
     9
100
AcDbLine
 10
-497.0945286106419
 20
35.47912927576016
 30
0.0
 11
-497.0945286106419
 21
129.4790434966217
 31
0.0
  0
LINE
  5
1D1
330
1F
100
AcDbEntity
  8
B-2_蓋
  6
Continuous
 62
     3
370
     9
100
AcDbLine
 10
-492.0947842984586
 20
35.47912927576016
 30
0.0
 11
-492.0947842984586
 21
129.4790434966217
 31
0.0
  0
LINE
  5
1D2
330
1F
100
AcDbEntity
  8
B-2_蓋
  6
Continuous
 62
     3
370
     9
100
AcDbLine
 10
-482.0944791226773
 20
235.4791457717484
 30
0.0
 11
-482.0944791226773
 21
329.4790599926098
 31
0.0
  0
LINE
  5
1D3
330
1F
100
AcDbEntity
  8
B-2_蓋
  6
Continuous
 62
     3
370
     9
100
AcDbLine
 10
-477.0947348104941
 20
235.4791457717484
 30
0.0
 11
-477.0947348104941
 21
329.4790599926098
 31
0.0
  0
LINE
  5
1D4
330
1F
100
AcDbEntity
  8
B-2_蓋
  6
Continuous
 62
     3
370
     9
100
AcDbLine
 10
-482.0944791226773
 20
335.4790797877956
 30
0.0
 11
-482.0944791226773
 21
377.9787993559967
 31
0.0
  0
LINE
  5
1D5
330
1F
100
AcDbEntity
  8
B-2_蓋
  6
Continuous
 62
     3
370
     9
100
AcDbLine
 10
-477.0947348104941
 20
335.4790797877956
 30
0.0
 11
-477.0947348104941
 21
377.9787993559967
 31
0.0
  0
LINE
  5
1D6
330
1F
100
AcDbEntity
  8
B-2_蓋
  6
Continuous
 62
     3
370
     9
100
AcDbLine
 10
-482.0944791226773
 20
-11.52067937077703
 30
0.0
 11
-482.0944791226773
 21
29.47896101668078
 31
0.0
  0
LINE
  5
1D7
330
1F
100
AcDbEntity
  8
B-2_蓋
  6
Continuous
 62
     3
370
     9
100
AcDbLine
 10
-477.0947348104941
 20
-11.52067937077703
 30
0.0
 11
-477.0947348104941
 21
29.47896101668078
 31
0.0
  0
LINE
  5
1D8
330
1F
100
AcDbEntity
  8
B-2_蓋
  6
Continuous
 62
     3
370
     9
100
AcDbLine
 10
-482.0944791226773
 20
135.4790632918075
 30
0.0
 11
-482.0944791226773
 21
229.4789775126689
 31
0.0
  0
LINE
  5
1D9
330
1F
100
AcDbEntity
  8
B-2_蓋
  6
Continuous
 62
     3
370
     9
100
AcDbLine
 10
-477.0947348104941
 20
135.4790632918075
 30
0.0
 11
-477.0947348104941
 21
229.4789775126689
 31
0.0
  0
LINE
  5
1DA
330
1F
100
AcDbEntity
  8
B-2_蓋
  6
Continuous
 62
     3
370
     9
100
AcDbLine
 10
-482.0944791226773
 20
35.47912927576016
 30
0.0
 11
-482.0944791226773
 21
129.4790434966217
 31
0.0
  0
LINE
  5
1DB
330
1F
100
AcDbEntity
  8
B-2_蓋
  6
Continuous
 62
     3
370
     9
100
AcDbLine
 10
-477.0947348104941
 20
35.47912927576016
 30
0.0
 11
-477.0947348104941
 21
129.4790434966217
 31
0.0
  0
LINE
  5
1DC
330
1F
100
AcDbEntity
  8
B-2_蓋
  6
Continuous
 62
     3
370
     9
100
AcDbLine
 10
-467.0945038666595
 20
235.4791457717484
 30
0.0
 11
-467.0945038666595
 21
329.4790599926098
 31
0.0
  0
LINE
  5
1DD
330
1F
100
AcDbEntity
  8
B-2_蓋
  6
Continuous
 62
     3
370
     9
100
AcDbLine
 10
-462.0947595544762
 20
235.4791457717484
 30
0.0
 11
-462.0947595544762
 21
329.4790599926098
 31
0.0
  0
LINE
  5
1DE
330
1F
100
AcDbEntity
  8
B-2_蓋
  6
Continuous
 62
     3
370
     9
100
AcDbLine
 10
-467.0945038666595
 20
335.4790797877956
 30
0.0
 11
-467.0945038666595
 21
377.9787993559967
 31
0.0
  0
LINE
  5
1DF
330
1F
100
AcDbEntity
  8
B-2_蓋
  6
Continuous
 62
     3
370
     9
100
AcDbLine
 10
-462.0947595544762
 20
335.4790797877956
 30
0.0
 11
-462.0947595544762
 21
377.9787993559967
 31
0.0
  0
LINE
  5
1E0
330
1F
100
AcDbEntity
  8
B-2_蓋
  6
Continuous
 62
     3
370
     9
100
AcDbLine
 10
-467.0945038666595
 20
-11.52067937077703
 30
0.0
 11
-467.0945038666595
 21
29.47896101668078
 31
0.0
  0
LINE
  5
1E1
330
1F
100
AcDbEntity
  8
B-2_蓋
  6
Continuous
 62
     3
370
     9
100
AcDbLine
 10
-462.0947595544762
 20
-11.52067937077703
 30
0.0
 11
-462.0947595544762
 21
29.47896101668078
 31
0.0
  0
LINE
  5
1E2
330
1F
100
AcDbEntity
  8
B-2_蓋
  6
Continuous
 62
     3
370
     9
100
AcDbLine
 10
-467.0945038666595
 20
135.4790632918075
 30
0.0
 11
-467.0945038666595
 21
229.4789775126689
 31
0.0
  0
LINE
  5
1E3
330
1F
100
AcDbEntity
  8
B-2_蓋
  6
Continuous
 62
     3
370
     9
100
AcDbLine
 10
-462.0947595544762
 20
135.4790632918075
 30
0.0
 11
-462.0947595544762
 21
229.4789775126689
 31
0.0
  0
LINE
  5
1E4
330
1F
100
AcDbEntity
  8
B-2_蓋
  6
Continuous
 62
     3
370
     9
100
AcDbLine
 10
-467.0945038666595
 20
35.47912927576016
 30
0.0
 11
-467.0945038666595
 21
129.4790434966217
 31
0.0
  0
LINE
  5
1E5
330
1F
100
AcDbEntity
  8
B-2_蓋
  6
Continuous
 62
     3
370
     9
100
AcDbLine
 10
-462.0947595544762
 20
35.47912927576016
 30
0.0
 11
-462.0947595544762
 21
129.4790434966217
 31
0.0
  0
LINE
  5
1E6
330
1F
100
AcDbEntity
  8
B-2_蓋
  6
Continuous
 62
     3
370
     9
100
AcDbLine
 10
-452.0945286106419
 20
235.4791457717484
 30
0.0
 11
-452.0945286106419
 21
329.4790599926098
 31
0.0
  0
LINE
  5
1E7
330
1F
100
AcDbEntity
  8
B-2_蓋
  6
Continuous
 62
     3
370
     9
100
AcDbLine
 10
-447.0947842984586
 20
235.4791457717484
 30
0.0
 11
-447.0947842984586
 21
329.4790599926098
 31
0.0
  0
LINE
  5
1E8
330
1F
100
AcDbEntity
  8
B-2_蓋
  6
Continuous
 62
     3
370
     9
100
AcDbLine
 10
-452.0945286106419
 20
335.4790797877956
 30
0.0
 11
-452.0945286106419
 21
377.9787993559967
 31
0.0
  0
LINE
  5
1E9
330
1F
100
AcDbEntity
  8
B-2_蓋
  6
Continuous
 62
     3
370
     9
100
AcDbLine
 10
-447.0947842984586
 20
335.4790797877956
 30
0.0
 11
-447.0947842984586
 21
377.9787993559967
 31
0.0
  0
LINE
  5
1EA
330
1F
100
AcDbEntity
  8
B-2_蓋
  6
Continuous
 62
     3
370
     9
100
AcDbLine
 10
-452.0945286106419
 20
-11.52067937077703
 30
0.0
 11
-452.0945286106419
 21
29.47896101668078
 31
0.0
  0
LINE
  5
1EB
330
1F
100
AcDbEntity
  8
B-2_蓋
  6
Continuous
 62
     3
370
     9
100
AcDbLine
 10
-447.0947842984586
 20
-11.52067937077703
 30
0.0
 11
-447.0947842984586
 21
29.47896101668078
 31
0.0
  0
LINE
  5
1EC
330
1F
100
AcDbEntity
  8
B-2_蓋
  6
Continuous
 62
     3
370
     9
100
AcDbLine
 10
-452.0945286106419
 20
135.4790632918075
 30
0.0
 11
-452.0945286106419
 21
229.4789775126689
 31
0.0
  0
LINE
  5
1ED
330
1F
100
AcDbEntity
  8
B-2_蓋
  6
Continuous
 62
     3
370
     9
100
AcDbLine
 10
-447.0947842984586
 20
135.4790632918075
 30
0.0
 11
-447.0947842984586
 21
229.4789775126689
 31
0.0
  0
LINE
  5
1EE
330
1F
100
AcDbEntity
  8
B-2_蓋
  6
Continuous
 62
     3
370
     9
100
AcDbLine
 10
-452.0945286106419
 20
35.47912927576016
 30
0.0
 11
-452.0945286106419
 21
129.4790434966217
 31
0.0
  0
LINE
  5
1EF
330
1F
100
AcDbEntity
  8
B-2_蓋
  6
Continuous
 62
     3
370
     9
100
AcDbLine
 10
-447.0947842984586
 20
35.47912927576016
 30
0.0
 11
-447.0947842984586
 21
129.4790434966217
 31
0.0
  0
LINE
  5
1F0
330
1F
100
AcDbEntity
  8
B-2_蓋
  6
Continuous
 62
     3
370
     9
100
AcDbLine
 10
-437.0944791226773
 20
235.4791457717484
 30
0.0
 11
-437.0944791226773
 21
329.4790599926098
 31
0.0
  0
LINE
  5
1F1
330
1F
100
AcDbEntity
  8
B-2_蓋
  6
Continuous
 62
     3
370
     9
100
AcDbLine
 10
-432.0947348104941
 20
235.4791457717484
 30
0.0
 11
-432.0947348104941
 21
329.4790599926098
 31
0.0
  0
LINE
  5
1F2
330
1F
100
AcDbEntity
  8
B-2_蓋
  6
Continuous
 62
     3
370
     9
100
AcDbLine
 10
-437.0944791226773
 20
335.4790797877956
 30
0.0
 11
-437.0944791226773
 21
377.9787993559967
 31
0.0
  0
LINE
  5
1F3
330
1F
100
AcDbEntity
  8
B-2_蓋
  6
Continuous
 62
     3
370
     9
100
AcDbLine
 10
-432.0947348104941
 20
335.4790797877956
 30
0.0
 11
-432.0947348104941
 21
377.9787993559967
 31
0.0
  0
LINE
  5
1F4
330
1F
100
AcDbEntity
  8
B-2_蓋
  6
Continuous
 62
     3
370
     9
100
AcDbLine
 10
-437.0944791226773
 20
-11.52067937077703
 30
0.0
 11
-437.0944791226773
 21
29.47896101668078
 31
0.0
  0
LINE
  5
1F5
330
1F
100
AcDbEntity
  8
B-2_蓋
  6
Continuous
 62
     3
370
     9
100
AcDbLine
 10
-432.0947348104941
 20
-11.52067937077703
 30
0.0
 11
-432.0947348104941
 21
29.47896101668078
 31
0.0
  0
LINE
  5
1F6
330
1F
100
AcDbEntity
  8
B-2_蓋
  6
Continuous
 62
     3
370
     9
100
AcDbLine
 10
-437.0944791226773
 20
135.4790632918075
 30
0.0
 11
-437.0944791226773
 21
229.4789775126689
 31
0.0
  0
LINE
  5
1F7
330
1F
100
AcDbEntity
  8
B-2_蓋
  6
Continuous
 62
     3
370
     9
100
AcDbLine
 10
-432.0947348104941
 20
135.4790632918075
 30
0.0
 11
-432.0947348104941
 21
229.4789775126689
 31
0.0
  0
LINE
  5
1F8
330
1F
100
AcDbEntity
  8
B-2_蓋
  6
Continuous
 62
     3
370
     9
100
AcDbLine
 10
-437.0944791226773
 20
35.47912927576016
 30
0.0
 11
-437.0944791226773
 21
129.4790434966217
 31
0.0
  0
LINE
  5
1F9
330
1F
100
AcDbEntity
  8
B-2_蓋
  6
Continuous
 62
     3
370
     9
100
AcDbLine
 10
-432.0947348104941
 20
35.47912927576016
 30
0.0
 11
-432.0947348104941
 21
129.4790434966217
 31
0.0
  0
LINE
  5
1FA
330
1F
100
AcDbEntity
  8
B-2_蓋
  6
Continuous
 62
     3
370
     9
100
AcDbLine
 10
-422.0945038666595
 20
235.4791457717484
 30
0.0
 11
-422.0945038666595
 21
329.4790599926098
 31
0.0
  0
LINE
  5
1FB
330
1F
100
AcDbEntity
  8
B-2_蓋
  6
Continuous
 62
     3
370
     9
100
AcDbLine
 10
-417.0947595544762
 20
235.4791457717484
 30
0.0
 11
-417.0947595544762
 21
329.4790599926098
 31
0.0
  0
LINE
  5
1FC
330
1F
100
AcDbEntity
  8
B-2_蓋
  6
Continuous
 62
     3
370
     9
100
AcDbLine
 10
-422.0945038666595
 20
335.4790797877956
 30
0.0
 11
-422.0945038666595
 21
377.9787993559967
 31
0.0
  0
LINE
  5
1FD
330
1F
100
AcDbEntity
  8
B-2_蓋
  6
Continuous
 62
     3
370
     9
100
AcDbLine
 10
-417.0947595544762
 20
335.4790797877956
 30
0.0
 11
-417.0947595544762
 21
377.9787993559967
 31
0.0
  0
LINE
  5
1FE
330
1F
100
AcDbEntity
  8
B-2_蓋
  6
Continuous
 62
     3
370
     9
100
AcDbLine
 10
-422.0945038666595
 20
-11.52067937077703
 30
0.0
 11
-422.0945038666595
 21
29.47896101668078
 31
0.0
  0
LINE
  5
1FF
330
1F
100
AcDbEntity
  8
B-2_蓋
  6
Continuous
 62
     3
370
     9
100
AcDbLine
 10
-417.0947595544762
 20
-11.52067937077703
 30
0.0
 11
-417.0947595544762
 21
29.47896101668078
 31
0.0
  0
LINE
  5
200
330
1F
100
AcDbEntity
  8
B-2_蓋
  6
Continuous
 62
     3
370
     9
100
AcDbLine
 10
-422.0945038666595
 20
135.4790632918075
 30
0.0
 11
-422.0945038666595
 21
229.4789775126689
 31
0.0
  0
LINE
  5
201
330
1F
100
AcDbEntity
  8
B-2_蓋
  6
Continuous
 62
     3
370
     9
100
AcDbLine
 10
-417.0947595544762
 20
135.4790632918075
 30
0.0
 11
-417.0947595544762
 21
229.4789775126689
 31
0.0
  0
LINE
  5
202
330
1F
100
AcDbEntity
  8
B-2_蓋
  6
Continuous
 62
     3
370
     9
100
AcDbLine
 10
-422.0945038666595
 20
35.47912927576016
 30
0.0
 11
-422.0945038666595
 21
129.4790434966217
 31
0.0
  0
LINE
  5
203
330
1F
100
AcDbEntity
  8
B-2_蓋
  6
Continuous
 62
     3
370
     9
100
AcDbLine
 10
-417.0947595544762
 20
35.47912927576016
 30
0.0
 11
-417.0947595544762
 21
129.4790434966217
 31
0.0
  0
LINE
  5
204
330
1F
100
AcDbEntity
  8
B-2_蓋
  6
Continuous
 62
     3
370
     9
100
AcDbLine
 10
-407.0945286106419
 20
235.4791457717484
 30
0.0
 11
-407.0945286106419
 21
329.4790599926098
 31
0.0
  0
LINE
  5
205
330
1F
100
AcDbEntity
  8
B-2_蓋
  6
Continuous
 62
     3
370
     9
100
AcDbLine
 10
-402.0947842984586
 20
235.4791457717484
 30
0.0
 11
-402.0947842984586
 21
329.4790599926098
 31
0.0
  0
LINE
  5
206
330
1F
100
AcDbEntity
  8
B-2_蓋
  6
Continuous
 62
     3
370
     9
100
AcDbLine
 10
-407.0945286106419
 20
335.4790797877956
 30
0.0
 11
-407.0945286106419
 21
377.9787993559967
 31
0.0
  0
LINE
  5
207
330
1F
100
AcDbEntity
  8
B-2_蓋
  6
Continuous
 62
     3
370
     9
100
AcDbLine
 10
-402.0947842984586
 20
335.4790797877956
 30
0.0
 11
-402.0947842984586
 21
377.9787993559967
 31
0.0
  0
LINE
  5
208
330
1F
100
AcDbEntity
  8
B-2_蓋
  6
Continuous
 62
     3
370
     9
100
AcDbLine
 10
-407.0945286106419
 20
-11.52067937077703
 30
0.0
 11
-407.0945286106419
 21
29.47896101668078
 31
0.0
  0
LINE
  5
209
330
1F
100
AcDbEntity
  8
B-2_蓋
  6
Continuous
 62
     3
370
     9
100
AcDbLine
 10
-402.0947842984586
 20
-11.52067937077703
 30
0.0
 11
-402.0947842984586
 21
29.47896101668078
 31
0.0
  0
LINE
  5
20A
330
1F
100
AcDbEntity
  8
B-2_蓋
  6
Continuous
 62
     3
370
     9
100
AcDbLine
 10
-407.0945286106419
 20
135.4790632918075
 30
0.0
 11
-407.0945286106419
 21
229.4789775126689
 31
0.0
  0
LINE
  5
20B
330
1F
100
AcDbEntity
  8
B-2_蓋
  6
Continuous
 62
     3
370
     9
100
AcDbLine
 10
-402.0947842984586
 20
135.4790632918075
 30
0.0
 11
-402.0947842984586
 21
229.4789775126689
 31
0.0
  0
LINE
  5
20C
330
1F
100
AcDbEntity
  8
B-2_蓋
  6
Continuous
 62
     3
370
     9
100
AcDbLine
 10
-407.0945286106419
 20
35.47912927576016
 30
0.0
 11
-407.0945286106419
 21
129.4790434966217
 31
0.0
  0
LINE
  5
20D
330
1F
100
AcDbEntity
  8
B-2_蓋
  6
Continuous
 62
     3
370
     9
100
AcDbLine
 10
-402.0947842984586
 20
35.47912927576016
 30
0.0
 11
-402.0947842984586
 21
129.4790434966217
 31
0.0
  0
LINE
  5
20E
330
1F
100
AcDbEntity
  8
B-2_蓋
  6
Continuous
 62
     3
370
     9
100
AcDbLine
 10
-392.0944791226773
 20
235.4791457717484
 30
0.0
 11
-392.0944791226773
 21
329.4790599926098
 31
0.0
  0
LINE
  5
20F
330
1F
100
AcDbEntity
  8
B-2_蓋
  6
Continuous
 62
     3
370
     9
100
AcDbLine
 10
-387.0947348104941
 20
235.4791457717484
 30
0.0
 11
-387.0947348104941
 21
329.4790599926098
 31
0.0
  0
LINE
  5
210
330
1F
100
AcDbEntity
  8
B-2_蓋
  6
Continuous
 62
     3
370
     9
100
AcDbLine
 10
-392.0944791226773
 20
335.4790797877956
 30
0.0
 11
-392.0944791226773
 21
377.9787993559967
 31
0.0
  0
LINE
  5
211
330
1F
100
AcDbEntity
  8
B-2_蓋
  6
Continuous
 62
     3
370
     9
100
AcDbLine
 10
-387.0947348104941
 20
335.4790797877956
 30
0.0
 11
-387.0947348104941
 21
377.9787993559967
 31
0.0
  0
LINE
  5
212
330
1F
100
AcDbEntity
  8
B-2_蓋
  6
Continuous
 62
     3
370
     9
100
AcDbLine
 10
-392.0944791226773
 20
-11.52067937077703
 30
0.0
 11
-392.0944791226773
 21
29.47896101668078
 31
0.0
  0
LINE
  5
213
330
1F
100
AcDbEntity
  8
B-2_蓋
  6
Continuous
 62
     3
370
     9
100
AcDbLine
 10
-387.0947348104941
 20
-11.52067937077703
 30
0.0
 11
-387.0947348104941
 21
29.47896101668078
 31
0.0
  0
LINE
  5
214
330
1F
100
AcDbEntity
  8
B-2_蓋
  6
Continuous
 62
     3
370
     9
100
AcDbLine
 10
-392.0944791226773
 20
135.4790632918075
 30
0.0
 11
-392.0944791226773
 21
229.4789775126689
 31
0.0
  0
LINE
  5
215
330
1F
100
AcDbEntity
  8
B-2_蓋
  6
Continuous
 62
     3
370
     9
100
AcDbLine
 10
-387.0947348104941
 20
135.4790632918075
 30
0.0
 11
-387.0947348104941
 21
229.4789775126689
 31
0.0
  0
LINE
  5
216
330
1F
100
AcDbEntity
  8
B-2_蓋
  6
Continuous
 62
     3
370
     9
100
AcDbLine
 10
-392.0944791226773
 20
35.47912927576016
 30
0.0
 11
-392.0944791226773
 21
129.4790434966217
 31
0.0
  0
LINE
  5
217
330
1F
100
AcDbEntity
  8
B-2_蓋
  6
Continuous
 62
     3
370
     9
100
AcDbLine
 10
-387.0947348104941
 20
35.47912927576016
 30
0.0
 11
-387.0947348104941
 21
129.4790434966217
 31
0.0
  0
LINE
  5
218
330
1F
100
AcDbEntity
  8
B-2_蓋
  6
Continuous
 62
     3
370
     9
100
AcDbLine
 10
-377.0945038666595
 20
235.4791457717484
 30
0.0
 11
-377.0945038666595
 21
329.4790599926098
 31
0.0
  0
LINE
  5
219
330
1F
100
AcDbEntity
  8
B-2_蓋
  6
Continuous
 62
     3
370
     9
100
AcDbLine
 10
-372.0947595544762
 20
235.4791457717484
 30
0.0
 11
-372.0947595544762
 21
329.4790599926098
 31
0.0
  0
LINE
  5
21A
330
1F
100
AcDbEntity
  8
B-2_蓋
  6
Continuous
 62
     3
370
     9
100
AcDbLine
 10
-377.0945038666595
 20
335.4790797877956
 30
0.0
 11
-377.0945038666595
 21
377.9787993559967
 31
0.0
  0
LINE
  5
21B
330
1F
100
AcDbEntity
  8
B-2_蓋
  6
Continuous
 62
     3
370
     9
100
AcDbLine
 10
-372.0947595544762
 20
335.4790797877956
 30
0.0
 11
-372.0947595544762
 21
377.9787993559967
 31
0.0
  0
LINE
  5
21C
330
1F
100
AcDbEntity
  8
B-2_蓋
  6
Continuous
 62
     3
370
     9
100
AcDbLine
 10
-377.0945038666595
 20
-11.52067937077703
 30
0.0
 11
-377.0945038666595
 21
29.47896101668078
 31
0.0
  0
LINE
  5
21D
330
1F
100
AcDbEntity
  8
B-2_蓋
  6
Continuous
 62
     3
370
     9
100
AcDbLine
 10
-372.0947595544762
 20
-11.52067937077703
 30
0.0
 11
-372.0947595544762
 21
29.47896101668078
 31
0.0
  0
LINE
  5
21E
330
1F
100
AcDbEntity
  8
B-2_蓋
  6
Continuous
 62
     3
370
     9
100
AcDbLine
 10
-377.0945038666595
 20
135.4790632918075
 30
0.0
 11
-377.0945038666595
 21
229.4789775126689
 31
0.0
  0
LINE
  5
21F
330
1F
100
AcDbEntity
  8
B-2_蓋
  6
Continuous
 62
     3
370
     9
100
AcDbLine
 10
-372.0947595544762
 20
135.4790632918075
 30
0.0
 11
-372.0947595544762
 21
229.4789775126689
 31
0.0
  0
LINE
  5
220
330
1F
100
AcDbEntity
  8
B-2_蓋
  6
Continuous
 62
     3
370
     9
100
AcDbLine
 10
-377.0945038666595
 20
35.47912927576016
 30
0.0
 11
-377.0945038666595
 21
129.4790434966217
 31
0.0
  0
LINE
  5
221
330
1F
100
AcDbEntity
  8
B-2_蓋
  6
Continuous
 62
     3
370
     9
100
AcDbLine
 10
-372.0947595544762
 20
35.47912927576016
 30
0.0
 11
-372.0947595544762
 21
129.4790434966217
 31
0.0
  0
LINE
  5
222
330
1F
100
AcDbEntity
  8
B-2_蓋
  6
Continuous
 62
     3
370
     9
100
AcDbLine
 10
-362.0945286106419
 20
235.4791457717484
 30
0.0
 11
-362.0945286106419
 21
329.4790599926098
 31
0.0
  0
LINE
  5
223
330
1F
100
AcDbEntity
  8
B-2_蓋
  6
Continuous
 62
     3
370
     9
100
AcDbLine
 10
-357.0947842984586
 20
235.4791457717484
 30
0.0
 11
-357.0947842984586
 21
329.4790599926098
 31
0.0
  0
LINE
  5
224
330
1F
100
AcDbEntity
  8
B-2_蓋
  6
Continuous
 62
     3
370
     9
100
AcDbLine
 10
-362.0945286106419
 20
335.4790797877956
 30
0.0
 11
-362.0945286106419
 21
377.9787993559967
 31
0.0
  0
LINE
  5
225
330
1F
100
AcDbEntity
  8
B-2_蓋
  6
Continuous
 62
     3
370
     9
100
AcDbLine
 10
-357.0947842984586
 20
335.4790797877956
 30
0.0
 11
-357.0947842984586
 21
377.9787993559967
 31
0.0
  0
LINE
  5
226
330
1F
100
AcDbEntity
  8
B-2_蓋
  6
Continuous
 62
     3
370
     9
100
AcDbLine
 10
-362.0945286106419
 20
-11.52067937077703
 30
0.0
 11
-362.0945286106419
 21
29.47896101668078
 31
0.0
  0
LINE
  5
227
330
1F
100
AcDbEntity
  8
B-2_蓋
  6
Continuous
 62
     3
370
     9
100
AcDbLine
 10
-357.0947842984586
 20
-11.52067937077703
 30
0.0
 11
-357.0947842984586
 21
29.47896101668078
 31
0.0
  0
LINE
  5
228
330
1F
100
AcDbEntity
  8
B-2_蓋
  6
Continuous
 62
     3
370
     9
100
AcDbLine
 10
-362.0945286106419
 20
135.4790632918075
 30
0.0
 11
-362.0945286106419
 21
229.4789775126689
 31
0.0
  0
LINE
  5
229
330
1F
100
AcDbEntity
  8
B-2_蓋
  6
Continuous
 62
     3
370
     9
100
AcDbLine
 10
-357.0947842984586
 20
135.4790632918075
 30
0.0
 11
-357.0947842984586
 21
229.4789775126689
 31
0.0
  0
LINE
  5
22A
330
1F
100
AcDbEntity
  8
B-2_蓋
  6
Continuous
 62
     3
370
     9
100
AcDbLine
 10
-362.0945286106419
 20
35.47912927576016
 30
0.0
 11
-362.0945286106419
 21
129.4790434966217
 31
0.0
  0
LINE
  5
22B
330
1F
100
AcDbEntity
  8
B-2_蓋
  6
Continuous
 62
     3
370
     9
100
AcDbLine
 10
-357.0947842984586
 20
35.47912927576016
 30
0.0
 11
-357.0947842984586
 21
129.4790434966217
 31
0.0
  0
LINE
  5
22C
330
1F
100
AcDbEntity
  8
B-2_蓋
  6
Continuous
 62
     3
370
     9
100
AcDbLine
 10
-347.0944791226773
 20
235.4791457717484
 30
0.0
 11
-347.0944791226773
 21
329.4790599926098
 31
0.0
  0
LINE
  5
22D
330
1F
100
AcDbEntity
  8
B-2_蓋
  6
Continuous
 62
     3
370
     9
100
AcDbLine
 10
-342.0947348104941
 20
235.4791457717484
 30
0.0
 11
-342.0947348104941
 21
329.4790599926098
 31
0.0
  0
LINE
  5
22E
330
1F
100
AcDbEntity
  8
B-2_蓋
  6
Continuous
 62
     3
370
     9
100
AcDbLine
 10
-347.0944791226773
 20
335.4790797877956
 30
0.0
 11
-347.0944791226773
 21
377.9787993559967
 31
0.0
  0
LINE
  5
22F
330
1F
100
AcDbEntity
  8
B-2_蓋
  6
Continuous
 62
     3
370
     9
100
AcDbLine
 10
-342.0947348104941
 20
335.4790797877956
 30
0.0
 11
-342.0947348104941
 21
377.9787993559967
 31
0.0
  0
LINE
  5
230
330
1F
100
AcDbEntity
  8
B-2_蓋
  6
Continuous
 62
     3
370
     9
100
AcDbLine
 10
-347.0944791226773
 20
-11.52067937077703
 30
0.0
 11
-347.0944791226773
 21
29.47896101668078
 31
0.0
  0
LINE
  5
231
330
1F
100
AcDbEntity
  8
B-2_蓋
  6
Continuous
 62
     3
370
     9
100
AcDbLine
 10
-342.0947348104941
 20
-11.52067937077703
 30
0.0
 11
-342.0947348104941
 21
29.47896101668078
 31
0.0
  0
LINE
  5
232
330
1F
100
AcDbEntity
  8
B-2_蓋
  6
Continuous
 62
     3
370
     9
100
AcDbLine
 10
-347.0944791226773
 20
135.4790632918075
 30
0.0
 11
-347.0944791226773
 21
229.4789775126689
 31
0.0
  0
LINE
  5
233
330
1F
100
AcDbEntity
  8
B-2_蓋
  6
Continuous
 62
     3
370
     9
100
AcDbLine
 10
-342.0947348104941
 20
135.4790632918075
 30
0.0
 11
-342.0947348104941
 21
229.4789775126689
 31
0.0
  0
LINE
  5
234
330
1F
100
AcDbEntity
  8
B-2_蓋
  6
Continuous
 62
     3
370
     9
100
AcDbLine
 10
-347.0944791226773
 20
35.47912927576016
 30
0.0
 11
-347.0944791226773
 21
129.4790434966217
 31
0.0
  0
LINE
  5
235
330
1F
100
AcDbEntity
  8
B-2_蓋
  6
Continuous
 62
     3
370
     9
100
AcDbLine
 10
-342.0947348104941
 20
35.47912927576016
 30
0.0
 11
-342.0947348104941
 21
129.4790434966217
 31
0.0
  0
LINE
  5
236
330
1F
100
AcDbEntity
  8
B-2_蓋
  6
Continuous
 62
     3
370
     9
100
AcDbLine
 10
-332.0945038666595
 20
235.4791457717484
 30
0.0
 11
-332.0945038666595
 21
329.4790599926098
 31
0.0
  0
LINE
  5
237
330
1F
100
AcDbEntity
  8
B-2_蓋
  6
Continuous
 62
     3
370
     9
100
AcDbLine
 10
-327.0947595544762
 20
235.4791457717484
 30
0.0
 11
-327.0947595544762
 21
329.4790599926098
 31
0.0
  0
LINE
  5
238
330
1F
100
AcDbEntity
  8
B-2_蓋
  6
Continuous
 62
     3
370
     9
100
AcDbLine
 10
-332.0945038666595
 20
335.4790797877956
 30
0.0
 11
-332.0945038666595
 21
377.9787993559967
 31
0.0
  0
LINE
  5
239
330
1F
100
AcDbEntity
  8
B-2_蓋
  6
Continuous
 62
     3
370
     9
100
AcDbLine
 10
-327.0947595544762
 20
335.4790797877956
 30
0.0
 11
-327.0947595544762
 21
377.9787993559967
 31
0.0
  0
LINE
  5
23A
330
1F
100
AcDbEntity
  8
B-2_蓋
  6
Continuous
 62
     3
370
     9
100
AcDbLine
 10
-332.0945038666595
 20
-11.52067937077703
 30
0.0
 11
-332.0945038666595
 21
29.47896101668078
 31
0.0
  0
LINE
  5
23B
330
1F
100
AcDbEntity
  8
B-2_蓋
  6
Continuous
 62
     3
370
     9
100
AcDbLine
 10
-327.0947595544762
 20
-11.52067937077703
 30
0.0
 11
-327.0947595544762
 21
29.47896101668078
 31
0.0
  0
LINE
  5
23C
330
1F
100
AcDbEntity
  8
B-2_蓋
  6
Continuous
 62
     3
370
     9
100
AcDbLine
 10
-332.0945038666595
 20
135.4790632918075
 30
0.0
 11
-332.0945038666595
 21
229.4789775126689
 31
0.0
  0
LINE
  5
23D
330
1F
100
AcDbEntity
  8
B-2_蓋
  6
Continuous
 62
     3
370
     9
100
AcDbLine
 10
-327.0947595544762
 20
135.4790632918075
 30
0.0
 11
-327.0947595544762
 21
229.4789775126689
 31
0.0
  0
LINE
  5
23E
330
1F
100
AcDbEntity
  8
B-2_蓋
  6
Continuous
 62
     3
370
     9
100
AcDbLine
 10
-332.0945038666595
 20
35.47912927576016
 30
0.0
 11
-332.0945038666595
 21
129.4790434966217
 31
0.0
  0
LINE
  5
23F
330
1F
100
AcDbEntity
  8
B-2_蓋
  6
Continuous
 62
     3
370
     9
100
AcDbLine
 10
-327.0947595544762
 20
35.47912927576016
 30
0.0
 11
-327.0947595544762
 21
129.4790434966217
 31
0.0
  0
LINE
  5
240
330
1F
100
AcDbEntity
  8
B-2_蓋
  6
Continuous
 62
     3
370
     9
100
AcDbLine
 10
-317.0945286106419
 20
235.4791457717484
 30
0.0
 11
-317.0945286106419
 21
329.4790599926098
 31
0.0
  0
LINE
  5
241
330
1F
100
AcDbEntity
  8
B-2_蓋
  6
Continuous
 62
     3
370
     9
100
AcDbLine
 10
-312.0947842984586
 20
235.4791457717484
 30
0.0
 11
-312.0947842984586
 21
329.4790599926098
 31
0.0
  0
LINE
  5
242
330
1F
100
AcDbEntity
  8
B-2_蓋
  6
Continuous
 62
     3
370
     9
100
AcDbLine
 10
-317.0945286106419
 20
335.4790797877956
 30
0.0
 11
-317.0945286106419
 21
377.9787993559967
 31
0.0
  0
LINE
  5
243
330
1F
100
AcDbEntity
  8
B-2_蓋
  6
Continuous
 62
     3
370
     9
100
AcDbLine
 10
-312.0947842984586
 20
335.4790797877956
 30
0.0
 11
-312.0947842984586
 21
377.9787993559967
 31
0.0
  0
LINE
  5
244
330
1F
100
AcDbEntity
  8
B-2_蓋
  6
Continuous
 62
     3
370
     9
100
AcDbLine
 10
-317.0945286106419
 20
-11.52067937077703
 30
0.0
 11
-317.0945286106419
 21
29.47896101668078
 31
0.0
  0
LINE
  5
245
330
1F
100
AcDbEntity
  8
B-2_蓋
  6
Continuous
 62
     3
370
     9
100
AcDbLine
 10
-312.0947842984586
 20
-11.52067937077703
 30
0.0
 11
-312.0947842984586
 21
29.47896101668078
 31
0.0
  0
LINE
  5
246
330
1F
100
AcDbEntity
  8
B-2_蓋
  6
Continuous
 62
     3
370
     9
100
AcDbLine
 10
-317.0945286106419
 20
135.4790632918075
 30
0.0
 11
-317.0945286106419
 21
229.4789775126689
 31
0.0
  0
LINE
  5
247
330
1F
100
AcDbEntity
  8
B-2_蓋
  6
Continuous
 62
     3
370
     9
100
AcDbLine
 10
-312.0947842984586
 20
135.4790632918075
 30
0.0
 11
-312.0947842984586
 21
229.4789775126689
 31
0.0
  0
LINE
  5
248
330
1F
100
AcDbEntity
  8
B-2_蓋
  6
Continuous
 62
     3
370
     9
100
AcDbLine
 10
-317.0945286106419
 20
35.47912927576016
 30
0.0
 11
-317.0945286106419
 21
129.4790434966217
 31
0.0
  0
LINE
  5
249
330
1F
100
AcDbEntity
  8
B-2_蓋
  6
Continuous
 62
     3
370
     9
100
AcDbLine
 10
-312.0947842984586
 20
35.47912927576016
 30
0.0
 11
-312.0947842984586
 21
129.4790434966217
 31
0.0
  0
LINE
  5
24A
330
1F
100
AcDbEntity
  8
B-2_蓋
  6
Continuous
 62
     3
370
     9
100
AcDbLine
 10
-302.0944791226773
 20
235.4791457717484
 30
0.0
 11
-302.0944791226773
 21
329.4790599926098
 31
0.0
  0
LINE
  5
24B
330
1F
100
AcDbEntity
  8
B-2_蓋
  6
Continuous
 62
     3
370
     9
100
AcDbLine
 10
-297.0947348104941
 20
235.4791457717484
 30
0.0
 11
-297.0947348104941
 21
329.4790599926098
 31
0.0
  0
LINE
  5
24C
330
1F
100
AcDbEntity
  8
B-2_蓋
  6
Continuous
 62
     3
370
     9
100
AcDbLine
 10
-302.0944791226773
 20
335.4790797877956
 30
0.0
 11
-302.0944791226773
 21
377.9787993559967
 31
0.0
  0
LINE
  5
24D
330
1F
100
AcDbEntity
  8
B-2_蓋
  6
Continuous
 62
     3
370
     9
100
AcDbLine
 10
-297.0947348104941
 20
335.4790797877956
 30
0.0
 11
-297.0947348104941
 21
377.9787993559967
 31
0.0
  0
LINE
  5
24E
330
1F
100
AcDbEntity
  8
B-2_蓋
  6
Continuous
 62
     3
370
     9
100
AcDbLine
 10
-302.0944791226773
 20
-11.52067937077703
 30
0.0
 11
-302.0944791226773
 21
29.47896101668078
 31
0.0
  0
LINE
  5
24F
330
1F
100
AcDbEntity
  8
B-2_蓋
  6
Continuous
 62
     3
370
     9
100
AcDbLine
 10
-297.0947348104941
 20
-11.52067937077703
 30
0.0
 11
-297.0947348104941
 21
29.47896101668078
 31
0.0
  0
LINE
  5
250
330
1F
100
AcDbEntity
  8
B-2_蓋
  6
Continuous
 62
     3
370
     9
100
AcDbLine
 10
-302.0944791226773
 20
135.4790632918075
 30
0.0
 11
-302.0944791226773
 21
229.4789775126689
 31
0.0
  0
LINE
  5
251
330
1F
100
AcDbEntity
  8
B-2_蓋
  6
Continuous
 62
     3
370
     9
100
AcDbLine
 10
-297.0947348104941
 20
135.4790632918075
 30
0.0
 11
-297.0947348104941
 21
229.4789775126689
 31
0.0
  0
LINE
  5
252
330
1F
100
AcDbEntity
  8
B-2_蓋
  6
Continuous
 62
     3
370
     9
100
AcDbLine
 10
-302.0944791226773
 20
35.47912927576016
 30
0.0
 11
-302.0944791226773
 21
129.4790434966217
 31
0.0
  0
LINE
  5
253
330
1F
100
AcDbEntity
  8
B-2_蓋
  6
Continuous
 62
     3
370
     9
100
AcDbLine
 10
-297.0947348104941
 20
35.47912927576016
 30
0.0
 11
-297.0947348104941
 21
129.4790434966217
 31
0.0
  0
LINE
  5
254
330
1F
100
AcDbEntity
  8
B-2_蓋
  6
Continuous
 62
     3
370
     9
100
AcDbLine
 10
-287.0945038666595
 20
235.4791457717484
 30
0.0
 11
-287.0945038666595
 21
329.4790599926098
 31
0.0
  0
LINE
  5
255
330
1F
100
AcDbEntity
  8
B-2_蓋
  6
Continuous
 62
     3
370
     9
100
AcDbLine
 10
-282.0947595544762
 20
235.4791457717484
 30
0.0
 11
-282.0947595544762
 21
329.4790599926098
 31
0.0
  0
LINE
  5
256
330
1F
100
AcDbEntity
  8
B-2_蓋
  6
Continuous
 62
     3
370
     9
100
AcDbLine
 10
-287.0945038666595
 20
335.4790797877956
 30
0.0
 11
-287.0945038666595
 21
377.9787993559967
 31
0.0
  0
LINE
  5
257
330
1F
100
AcDbEntity
  8
B-2_蓋
  6
Continuous
 62
     3
370
     9
100
AcDbLine
 10
-282.0947595544762
 20
335.4790797877956
 30
0.0
 11
-282.0947595544762
 21
377.9787993559967
 31
0.0
  0
LINE
  5
258
330
1F
100
AcDbEntity
  8
B-2_蓋
  6
Continuous
 62
     3
370
     9
100
AcDbLine
 10
-287.0945038666595
 20
-11.52067937077703
 30
0.0
 11
-287.0945038666595
 21
29.47896101668078
 31
0.0
  0
LINE
  5
259
330
1F
100
AcDbEntity
  8
B-2_蓋
  6
Continuous
 62
     3
370
     9
100
AcDbLine
 10
-282.0947595544762
 20
-11.52067937077703
 30
0.0
 11
-282.0947595544762
 21
29.47896101668078
 31
0.0
  0
LINE
  5
25A
330
1F
100
AcDbEntity
  8
B-2_蓋
  6
Continuous
 62
     3
370
     9
100
AcDbLine
 10
-287.0945038666595
 20
135.4790632918075
 30
0.0
 11
-287.0945038666595
 21
229.4789775126689
 31
0.0
  0
LINE
  5
25B
330
1F
100
AcDbEntity
  8
B-2_蓋
  6
Continuous
 62
     3
370
     9
100
AcDbLine
 10
-282.0947595544762
 20
135.4790632918075
 30
0.0
 11
-282.0947595544762
 21
229.4789775126689
 31
0.0
  0
LINE
  5
25C
330
1F
100
AcDbEntity
  8
B-2_蓋
  6
Continuous
 62
     3
370
     9
100
AcDbLine
 10
-287.0945038666595
 20
35.47912927576016
 30
0.0
 11
-287.0945038666595
 21
129.4790434966217
 31
0.0
  0
LINE
  5
25D
330
1F
100
AcDbEntity
  8
B-2_蓋
  6
Continuous
 62
     3
370
     9
100
AcDbLine
 10
-282.0947595544762
 20
35.47912927576016
 30
0.0
 11
-282.0947595544762
 21
129.4790434966217
 31
0.0
  0
LINE
  5
25E
330
1F
100
AcDbEntity
  8
B-2_蓋
  6
Continuous
 62
     3
370
     9
100
AcDbLine
 10
-272.0945286106419
 20
235.4791457717484
 30
0.0
 11
-272.0945286106419
 21
329.4790599926098
 31
0.0
  0
LINE
  5
25F
330
1F
100
AcDbEntity
  8
B-2_蓋
  6
Continuous
 62
     3
370
     9
100
AcDbLine
 10
-267.0947842984586
 20
235.4791457717484
 30
0.0
 11
-267.0947842984586
 21
329.4790599926098
 31
0.0
  0
LINE
  5
260
330
1F
100
AcDbEntity
  8
B-2_蓋
  6
Continuous
 62
     3
370
     9
100
AcDbLine
 10
-272.0945286106419
 20
335.4790797877956
 30
0.0
 11
-272.0945286106419
 21
377.9787993559967
 31
0.0
  0
LINE
  5
261
330
1F
100
AcDbEntity
  8
B-2_蓋
  6
Continuous
 62
     3
370
     9
100
AcDbLine
 10
-267.0947842984586
 20
335.4790797877956
 30
0.0
 11
-267.0947842984586
 21
377.9787993559967
 31
0.0
  0
LINE
  5
262
330
1F
100
AcDbEntity
  8
B-2_蓋
  6
Continuous
 62
     3
370
     9
100
AcDbLine
 10
-272.0945286106419
 20
-11.52067937077703
 30
0.0
 11
-272.0945286106419
 21
29.47896101668078
 31
0.0
  0
LINE
  5
263
330
1F
100
AcDbEntity
  8
B-2_蓋
  6
Continuous
 62
     3
370
     9
100
AcDbLine
 10
-267.0947842984586
 20
-11.52067937077703
 30
0.0
 11
-267.0947842984586
 21
29.47896101668078
 31
0.0
  0
LINE
  5
264
330
1F
100
AcDbEntity
  8
B-2_蓋
  6
Continuous
 62
     3
370
     9
100
AcDbLine
 10
-272.0945286106419
 20
135.4790632918075
 30
0.0
 11
-272.0945286106419
 21
229.4789775126689
 31
0.0
  0
LINE
  5
265
330
1F
100
AcDbEntity
  8
B-2_蓋
  6
Continuous
 62
     3
370
     9
100
AcDbLine
 10
-267.0947842984586
 20
135.4790632918075
 30
0.0
 11
-267.0947842984586
 21
229.4789775126689
 31
0.0
  0
LINE
  5
266
330
1F
100
AcDbEntity
  8
B-2_蓋
  6
Continuous
 62
     3
370
     9
100
AcDbLine
 10
-272.0945286106419
 20
35.47912927576016
 30
0.0
 11
-272.0945286106419
 21
129.4790434966217
 31
0.0
  0
LINE
  5
267
330
1F
100
AcDbEntity
  8
B-2_蓋
  6
Continuous
 62
     3
370
     9
100
AcDbLine
 10
-267.0947842984586
 20
35.47912927576016
 30
0.0
 11
-267.0947842984586
 21
129.4790434966217
 31
0.0
  0
LINE
  5
268
330
1F
100
AcDbEntity
  8
B-2_蓋
  6
Continuous
 62
     3
370
     9
100
AcDbLine
 10
-257.0944791226773
 20
235.4791457717484
 30
0.0
 11
-257.0944791226773
 21
329.4790599926098
 31
0.0
  0
LINE
  5
269
330
1F
100
AcDbEntity
  8
B-2_蓋
  6
Continuous
 62
     3
370
     9
100
AcDbLine
 10
-252.094734810494
 20
235.4791457717484
 30
0.0
 11
-252.094734810494
 21
329.4790599926098
 31
0.0
  0
LINE
  5
26A
330
1F
100
AcDbEntity
  8
B-2_蓋
  6
Continuous
 62
     3
370
     9
100
AcDbLine
 10
-257.0944791226773
 20
335.4790797877956
 30
0.0
 11
-257.0944791226773
 21
377.9787993559967
 31
0.0
  0
LINE
  5
26B
330
1F
100
AcDbEntity
  8
B-2_蓋
  6
Continuous
 62
     3
370
     9
100
AcDbLine
 10
-252.094734810494
 20
335.4790797877956
 30
0.0
 11
-252.094734810494
 21
377.9787993559967
 31
0.0
  0
LINE
  5
26C
330
1F
100
AcDbEntity
  8
B-2_蓋
  6
Continuous
 62
     3
370
     9
100
AcDbLine
 10
-257.0944791226773
 20
-11.52067937077703
 30
0.0
 11
-257.0944791226773
 21
29.47896101668078
 31
0.0
  0
LINE
  5
26D
330
1F
100
AcDbEntity
  8
B-2_蓋
  6
Continuous
 62
     3
370
     9
100
AcDbLine
 10
-252.094734810494
 20
-11.52067937077703
 30
0.0
 11
-252.094734810494
 21
29.47896101668078
 31
0.0
  0
LINE
  5
26E
330
1F
100
AcDbEntity
  8
B-2_蓋
  6
Continuous
 62
     3
370
     9
100
AcDbLine
 10
-257.0944791226773
 20
135.4790632918075
 30
0.0
 11
-257.0944791226773
 21
229.4789775126689
 31
0.0
  0
LINE
  5
26F
330
1F
100
AcDbEntity
  8
B-2_蓋
  6
Continuous
 62
     3
370
     9
100
AcDbLine
 10
-252.094734810494
 20
135.4790632918075
 30
0.0
 11
-252.094734810494
 21
229.4789775126689
 31
0.0
  0
LINE
  5
270
330
1F
100
AcDbEntity
  8
B-2_蓋
  6
Continuous
 62
     3
370
     9
100
AcDbLine
 10
-257.0944791226773
 20
35.47912927576016
 30
0.0
 11
-257.0944791226773
 21
129.4790434966217
 31
0.0
  0
LINE
  5
271
330
1F
100
AcDbEntity
  8
B-2_蓋
  6
Continuous
 62
     3
370
     9
100
AcDbLine
 10
-252.094734810494
 20
35.47912927576016
 30
0.0
 11
-252.094734810494
 21
129.4790434966217
 31
0.0
  0
LINE
  5
272
330
1F
100
AcDbEntity
  8
B-2_蓋
  6
Continuous
 62
     3
370
     9
100
AcDbLine
 10
-242.0945038666595
 20
235.4791457717484
 30
0.0
 11
-242.0945038666595
 21
329.4790599926098
 31
0.0
  0
LINE
  5
273
330
1F
100
AcDbEntity
  8
B-2_蓋
  6
Continuous
 62
     3
370
     9
100
AcDbLine
 10
-237.0947595544762
 20
235.4791457717484
 30
0.0
 11
-237.0947595544762
 21
329.4790599926098
 31
0.0
  0
LINE
  5
274
330
1F
100
AcDbEntity
  8
B-2_蓋
  6
Continuous
 62
     3
370
     9
100
AcDbLine
 10
-242.0945038666595
 20
335.4790797877956
 30
0.0
 11
-242.0945038666595
 21
377.9787993559967
 31
0.0
  0
LINE
  5
275
330
1F
100
AcDbEntity
  8
B-2_蓋
  6
Continuous
 62
     3
370
     9
100
AcDbLine
 10
-237.0947595544762
 20
335.4790797877956
 30
0.0
 11
-237.0947595544762
 21
377.9787993559967
 31
0.0
  0
LINE
  5
276
330
1F
100
AcDbEntity
  8
B-2_蓋
  6
Continuous
 62
     3
370
     9
100
AcDbLine
 10
-242.0945038666595
 20
-11.52067937077703
 30
0.0
 11
-242.0945038666595
 21
29.47896101668078
 31
0.0
  0
LINE
  5
277
330
1F
100
AcDbEntity
  8
B-2_蓋
  6
Continuous
 62
     3
370
     9
100
AcDbLine
 10
-237.0947595544762
 20
-11.52067937077703
 30
0.0
 11
-237.0947595544762
 21
29.47896101668078
 31
0.0
  0
LINE
  5
278
330
1F
100
AcDbEntity
  8
B-2_蓋
  6
Continuous
 62
     3
370
     9
100
AcDbLine
 10
-242.0945038666595
 20
135.4790632918075
 30
0.0
 11
-242.0945038666595
 21
229.4789775126689
 31
0.0
  0
LINE
  5
279
330
1F
100
AcDbEntity
  8
B-2_蓋
  6
Continuous
 62
     3
370
     9
100
AcDbLine
 10
-237.0947595544762
 20
135.4790632918075
 30
0.0
 11
-237.0947595544762
 21
229.4789775126689
 31
0.0
  0
LINE
  5
27A
330
1F
100
AcDbEntity
  8
B-2_蓋
  6
Continuous
 62
     3
370
     9
100
AcDbLine
 10
-242.0945038666595
 20
35.47912927576016
 30
0.0
 11
-242.0945038666595
 21
129.4790434966217
 31
0.0
  0
LINE
  5
27B
330
1F
100
AcDbEntity
  8
B-2_蓋
  6
Continuous
 62
     3
370
     9
100
AcDbLine
 10
-237.0947595544762
 20
35.47912927576016
 30
0.0
 11
-237.0947595544762
 21
129.4790434966217
 31
0.0
  0
LINE
  5
27C
330
1F
100
AcDbEntity
  8
B-2_蓋
  6
Continuous
 62
     3
370
     9
100
AcDbLine
 10
-227.0945286106419
 20
235.4791457717484
 30
0.0
 11
-227.0945286106419
 21
329.4790599926098
 31
0.0
  0
LINE
  5
27D
330
1F
100
AcDbEntity
  8
B-2_蓋
  6
Continuous
 62
     3
370
     9
100
AcDbLine
 10
-222.0947842984586
 20
235.4791457717484
 30
0.0
 11
-222.0947842984586
 21
329.4790599926098
 31
0.0
  0
LINE
  5
27E
330
1F
100
AcDbEntity
  8
B-2_蓋
  6
Continuous
 62
     3
370
     9
100
AcDbLine
 10
-227.0945286106419
 20
335.4790797877956
 30
0.0
 11
-227.0945286106419
 21
377.9787993559967
 31
0.0
  0
LINE
  5
27F
330
1F
100
AcDbEntity
  8
B-2_蓋
  6
Continuous
 62
     3
370
     9
100
AcDbLine
 10
-222.0947842984586
 20
335.4790797877956
 30
0.0
 11
-222.0947842984586
 21
377.9787993559967
 31
0.0
  0
LINE
  5
280
330
1F
100
AcDbEntity
  8
B-2_蓋
  6
Continuous
 62
     3
370
     9
100
AcDbLine
 10
-227.0945286106419
 20
-11.52067937077703
 30
0.0
 11
-227.0945286106419
 21
29.47896101668078
 31
0.0
  0
LINE
  5
281
330
1F
100
AcDbEntity
  8
B-2_蓋
  6
Continuous
 62
     3
370
     9
100
AcDbLine
 10
-222.0947842984586
 20
-11.52067937077703
 30
0.0
 11
-222.0947842984586
 21
29.47896101668078
 31
0.0
  0
LINE
  5
282
330
1F
100
AcDbEntity
  8
B-2_蓋
  6
Continuous
 62
     3
370
     9
100
AcDbLine
 10
-227.0945286106419
 20
135.4790632918075
 30
0.0
 11
-227.0945286106419
 21
229.4789775126689
 31
0.0
  0
LINE
  5
283
330
1F
100
AcDbEntity
  8
B-2_蓋
  6
Continuous
 62
     3
370
     9
100
AcDbLine
 10
-222.0947842984586
 20
135.4790632918075
 30
0.0
 11
-222.0947842984586
 21
229.4789775126689
 31
0.0
  0
LINE
  5
284
330
1F
100
AcDbEntity
  8
B-2_蓋
  6
Continuous
 62
     3
370
     9
100
AcDbLine
 10
-227.0945286106419
 20
35.47912927576016
 30
0.0
 11
-227.0945286106419
 21
129.4790434966217
 31
0.0
  0
LINE
  5
285
330
1F
100
AcDbEntity
  8
B-2_蓋
  6
Continuous
 62
     3
370
     9
100
AcDbLine
 10
-222.0947842984586
 20
35.47912927576016
 30
0.0
 11
-222.0947842984586
 21
129.4790434966217
 31
0.0
  0
LINE
  5
286
330
1F
100
AcDbEntity
  8
B-2_蓋
  6
Continuous
 62
     3
370
     9
100
AcDbLine
 10
-212.0944791226773
 20
235.4791457717484
 30
0.0
 11
-212.0944791226773
 21
329.4790599926098
 31
0.0
  0
LINE
  5
287
330
1F
100
AcDbEntity
  8
B-2_蓋
  6
Continuous
 62
     3
370
     9
100
AcDbLine
 10
-212.0944791226773
 20
335.4790797877956
 30
0.0
 11
-212.0944791226773
 21
377.9787993559967
 31
0.0
  0
LINE
  5
288
330
1F
100
AcDbEntity
  8
B-2_蓋
  6
Continuous
 62
     3
370
     9
100
AcDbLine
 10
-212.0944791226773
 20
-11.52067937077703
 30
0.0
 11
-212.0944791226773
 21
29.47896101668078
 31
0.0
  0
LINE
  5
289
330
1F
100
AcDbEntity
  8
B-2_蓋
  6
Continuous
 62
     3
370
     9
100
AcDbLine
 10
-212.0944791226773
 20
135.4790632918075
 30
0.0
 11
-212.0944791226773
 21
229.4789775126689
 31
0.0
  0
LINE
  5
28A
330
1F
100
AcDbEntity
  8
B-2_蓋
  6
Continuous
 62
     3
370
     9
100
AcDbLine
 10
-212.0944791226773
 20
35.47912927576016
 30
0.0
 11
-212.0944791226773
 21
129.4790434966217
 31
0.0
  0
LINE
  5
28B
330
1F
100
AcDbEntity
  8
B-2_蓋
  6
Continuous
 62
     3
370
     9
100
AcDbLine
 10
-207.094734810494
 20
-17.52069916596281
 30
0.0
 11
-602.0945038666596
 21
-17.52069916596281
 31
0.0
  0
LINE
  5
28C
330
1F
100
AcDbEntity
  8
B-2_蓋
  6
Continuous
 62
     3
370
     9
100
AcDbLine
 10
-207.094734810494
 20
-17.52069916596281
 30
0.0
 11
-207.094734810494
 21
382.4793338260136
 31
0.0
  0
LINE
  5
28D
330
1F
100
AcDbEntity
  8
B-2_蓋
  6
Continuous
 62
     3
370
     9
100
AcDbLine
 10
-602.0945038666596
 20
382.4793338260136
 30
0.0
 11
-207.094734810494
 21
382.4793338260136
 31
0.0
  0
LINE
  5
28E
330
1F
100
AcDbEntity
  8
B-4_寸法
  6
Continuous
 62
     7
370
     9
100
AcDbLine
 10
-569.5946440825591
 20
407.9751867345863
 30
0.0
 11
-554.6545740076012
 21
407.9751867345863
 31
0.0
  0
LINE
  5
28F
330
1F
100
AcDbEntity
  8
B-4_寸法
  6
Continuous
 62
     7
370
     9
100
AcDbLine
 10
-569.5946440825591
 20
367.6852037584459
 30
0.0
 11
-569.5946440825591
 21
409.7751629803633
 31
0.0
  0
LINE
  5
290
330
1F
100
AcDbEntity
  8
B-4_寸法
  6
Continuous
 62
     7
370
     9
100
AcDbLine
 10
-554.6545740076012
 20
367.065367002745
 30
0.0
 11
-554.6545740076012
 21
409.7751629803633
 31
0.0
  0
LINE
  5
291
330
1F
100
AcDbEntity
  8
B-4_寸法
  6
Continuous
 62
     7
370
     9
100
AcDbLine
 10
-608.5944758234797
 20
-134.0016100084459
 30
0.0
 11
-608.5944758234797
 21
-33.52057874524905
 31
0.0
  0
LINE
  5
292
330
1F
100
AcDbEntity
  8
B-4_寸法
  6
Continuous
 62
     7
370
     9
100
AcDbLine
 10
-608.5944758234797
 20
-132.2016337626689
 30
0.0
 11
-602.0945038666596
 21
-132.2016337626689
 31
0.0
  0
LINE
  5
293
330
1F
100
AcDbEntity
  8
B-4_寸法
  6
Continuous
 62
     7
370
     9
100
AcDbLine
 10
-207.094734810494
 20
-134.0016100084459
 30
0.0
 11
-207.094734810494
 21
-29.52066452438766
 31
0.0
  0
LINE
  5
294
330
1F
100
AcDbEntity
  8
B-4_寸法
  6
Continuous
 62
     7
370
     9
100
AcDbLine
 10
-207.094734810494
 20
-132.2016337626689
 30
0.0
 11
-200.5946143897803
 21
-132.2016337626689
 31
0.0
  0
LINE
  5
295
330
1F
100
AcDbEntity
  8
B-4_寸法
  6
Continuous
 62
     7
370
     9
100
AcDbLine
 10
-200.5946143897803
 20
-134.0016100084459
 30
0.0
 11
-200.5946143897803
 21
-33.52057874524905
 31
0.0
  0
LINE
  5
296
330
1F
100
AcDbEntity
  8
B-4_寸法
  6
Continuous
 62
     7
370
     9
100
AcDbLine
 10
-200.5946143897803
 20
-132.2016337626689
 30
0.0
 11
-175.0511045713681
 21
-132.2016337626689
 31
0.0
  0
LINE
  5
297
330
1F
100
AcDbEntity
  8
B-4_寸法
  6
Continuous
 62
     7
370
     9
100
AcDbLine
 10
-602.0945038666596
 20
-134.0016100084459
 30
0.0
 11
-602.0945038666596
 21
-29.52066452438766
 31
0.0
  0
LINE
  5
298
330
1F
100
AcDbEntity
  8
B-4_寸法
  6
Continuous
 62
     7
370
     9
100
AcDbLine
 10
-637.8191478832348
 20
-132.2016337626689
 30
0.0
 11
-608.5944758234797
 21
-132.2016337626689
 31
0.0
  0
CIRCLE
  5
299
330
1F
100
AcDbEntity
  8
B-1_ピット
  6
Continuous
 62
     2
370
     9
100
AcDbCircle
 10
-455.0947612040751
 20
-32.02176150760124
 30
0.0
 40
4.500000057993709
  0
CIRCLE
  5
29A
330
1F
100
AcDbEntity
  8
B-1_ピット
  6
Continuous
 62
     2
370
     9
100
AcDbCircle
 10
-354.0949228647592
 20
-32.02176150760124
 30
0.0
 40
4.500000057993709
  0
ARC
  5
29B
330
1F
100
AcDbEntity
  8
B-1_ピット
  6
Continuous
 62
     2
370
     9
100
AcDbCircle
 10
-449.5944708746833
 20
-38.12214289484797
 30
0.0
 40
9.999998969000739
100
AcDbArc
 50
180.0
 51
270.0
  0
ARC
  5
29C
330
1F
100
AcDbEntity
  8
B-1_ピット
  6
Continuous
 62
     2
370
     9
100
AcDbCircle
 10
-359.5946193385769
 20
-38.12214289484797
 30
0.0
 40
9.999998969000739
100
AcDbArc
 50
270.0
 51
0.0
  0
ARC
  5
29D
330
1F
100
AcDbEntity
  8
B-1_ピット
  6
Continuous
 62
     2
370
     9
100
AcDbCircle
 10
-359.5946193385769
 20
-38.12214289484797
 30
0.0
 40
0.9999999403953552
100
AcDbArc
 50
270.0
 51
0.0
  0
ARC
  5
29E
330
1F
100
AcDbEntity
  8
B-1_ピット
  6
Continuous
 62
     2
370
     9
100
AcDbCircle
 10
-449.5944708746833
 20
-38.12214289484797
 30
0.0
 40
0.9999999403953552
100
AcDbArc
 50
180.0
 51
270.0
  0
CIRCLE
  5
29F
330
1F
100
AcDbEntity
  8
B-1_ピット
  6
Continuous
 62
     2
370
     9
100
AcDbCircle
 10
-455.0947612040751
 20
396.9792084565034
 30
0.0
 40
4.500000057993709
  0
CIRCLE
  5
2A0
330
1F
100
AcDbEntity
  8
B-1_ピット
  6
Continuous
 62
     2
370
     9
100
AcDbCircle
 10
-354.0949228647592
 20
396.9792084565034
 30
0.0
 40
4.500000057993709
  0
ARC
  5
2A1
330
1F
100
AcDbEntity
  8
B-1_ピット
  6
Continuous
 62
     2
370
     9
100
AcDbCircle
 10
-449.5944708746833
 20
403.07958984375
 30
0.0
 40
9.999998969000739
100
AcDbArc
 50
90.0
 51
180.0
  0
ARC
  5
2A2
330
1F
100
AcDbEntity
  8
B-1_ピット
  6
Continuous
 62
     2
370
     9
100
AcDbCircle
 10
-359.5946193385769
 20
403.07958984375
 30
0.0
 40
9.999998969000739
100
AcDbArc
 50
0.0
 51
90.0
  0
ARC
  5
2A3
330
1F
100
AcDbEntity
  8
B-1_ピット
  6
Continuous
 62
     2
370
     9
100
AcDbCircle
 10
-359.5946193385769
 20
403.07958984375
 30
0.0
 40
0.9999999403953552
100
AcDbArc
 50
0.0
 51
90.0
  0
ARC
  5
2A4
330
1F
100
AcDbEntity
  8
B-1_ピット
  6
Continuous
 62
     2
370
     9
100
AcDbCircle
 10
-449.5944708746833
 20
403.07958984375
 30
0.0
 40
0.9999999403953552
100
AcDbArc
 50
90.0
 51
180.0
  0
ARC
  5
2A5
330
1F
100
AcDbEntity
  8
B-1_ピット
  6
Continuous
 62
     2
370
     9
100
AcDbCircle
 10
390.0676500475084
 20
388.980270798142
 30
0.0
 40
2.500000322187269
100
AcDbArc
 50
180.0
 51
270.0
  0
ARC
  5
2A6
330
1F
100
AcDbEntity
  8
B-1_ピット
  6
Continuous
 62
     2
370
     9
100
AcDbCircle
 10
422.0677061338685
 20
334.9797957136825
 30
0.0
 40
2.500000322187269
100
AcDbArc
 50
180.0
 51
270.0
  0
ARC
  5
2A7
330
1F
100
AcDbEntity
  8
B-1_ピット
  6
Continuous
 62
     2
370
     9
100
AcDbCircle
 10
415.5676599451016
 20
382.4799276815879
 30
0.0
 40
4.000000051549963
100
AcDbArc
 50
0.0
 51
90.0
  0
ARC
  5
2A8
330
1F
100
AcDbEntity
  8
B-1_ピット
  6
Continuous
 62
     2
370
     9
100
AcDbCircle
 10
419.3825881545609
 20
410.4796241554055
 30
0.0
 40
18.00000255172317
100
AcDbArc
 50
270.0
 51
285.0
  0
ARC
  5
2A9
330
1F
100
AcDbEntity
  8
B-1_ピット
  6
Continuous
 62
     2
370
     9
100
AcDbCircle
 10
481.0677028346706
 20
413.0323123416386
 30
0.0
 40
4.500000637930793
100
AcDbArc
 50
285.0001373291016
 51
104.9999084472656
  0
ARC
  5
2AA
330
1F
100
AcDbEntity
  8
B-1_ピット
  6
JWW_CENTER1
 62
     2
370
     9
100
AcDbCircle
 10
419.3825881545609
 20
410.4796241554055
 30
0.0
 40
13.500002783698
100
AcDbArc
 50
270.0
 51
284.9999542236328
  0
ARC
  5
2AB
330
1F
100
AcDbEntity
  8
B-1_ピット
  6
Continuous
 62
     2
370
     9
100
AcDbCircle
 10
419.3827366184544
 20
410.4796241554055
 30
0.0
 40
9.000001275861585
100
AcDbArc
 50
270.0
 51
285.0000152587891
  0
ARC
  5
2AC
330
1F
100
AcDbEntity
  8
B-1_ピット
  6
Continuous
 62
     2
370
     9
100
AcDbCircle
 10
422.0677061338685
 20
29.97854201858109
 30
0.0
 40
2.500000322187269
100
AcDbArc
 50
90.0
 51
180.0
  0
ARC
  5
2AD
330
1F
100
AcDbEntity
  8
B-1_ピット
  6
Continuous
 62
     2
370
     9
100
AcDbCircle
 10
415.5676599451016
 20
-17.52129302153719
 30
0.0
 40
4.000000051549963
100
AcDbArc
 50
270.0
 51
0.0
  0
ARC
  5
2AE
330
1F
100
AcDbEntity
  8
B-1_ピット
  6
Continuous
 62
     2
370
     9
100
AcDbCircle
 10
419.3825881545609
 20
-45.52128642314187
 30
0.0
 40
18.00000255172317
100
AcDbArc
 50
74.99998474121094
 51
89.99998474121094
  0
ARC
  5
2AF
330
1F
100
AcDbEntity
  8
B-1_ピット
  6
Continuous
 62
     2
370
     9
100
AcDbCircle
 10
481.0677028346706
 20
-48.07367768158781
 30
0.0
 40
4.500000637930793
100
AcDbArc
 50
255.0000762939453
 51
74.99986267089842
  0
ARC
  5
2B0
330
1F
100
AcDbEntity
  8
B-1_ピット
  6
JWW_CENTER1
 62
     2
370
     9
100
AcDbCircle
 10
419.3825881545609
 20
-45.52128642314187
 30
0.0
 40
13.500002783698
100
AcDbArc
 50
75.00004577636717
 51
90.0
  0
ARC
  5
2B1
330
1F
100
AcDbEntity
  8
B-1_ピット
  6
Continuous
 62
     2
370
     9
100
AcDbCircle
 10
419.3827366184544
 20
-45.52128642314187
 30
0.0
 40
9.000001275861585
100
AcDbArc
 50
74.99998474121094
 51
90.00000000000001
  0
ARC
  5
2B2
330
1F
100
AcDbEntity
  8
B-1_ピット
  6
Continuous
 62
     2
370
     9
100
AcDbCircle
 10
390.0676500475084
 20
-24.02193306587827
 30
0.0
 40
2.500000322187269
100
AcDbArc
 50
90.0
 51
180.0
  0
CIRCLE
  5
2B3
330
1F
100
AcDbEntity
  8
B-2_蓋
  6
Continuous
 62
     3
370
     9
100
AcDbCircle
 10
491.0674883868244
 20
432.4795977618243
 30
0.0
 40
3.000000038662472
  0
CIRCLE
  5
2B4
330
1F
100
AcDbEntity
  8
B-2_蓋
  6
Continuous
 62
     3
370
     9
100
AcDbCircle
 10
390.5675279771959
 20
332.4790698902028
 30
0.0
 40
3.000000038662472
  0
CIRCLE
  5
2B5
330
1F
100
AcDbEntity
  8
B-2_蓋
  6
Continuous
 62
     3
370
     9
100
AcDbCircle
 10
390.5675279771959
 20
232.4790616422088
 30
0.0
 40
3.000000038662472
  0
CIRCLE
  5
2B6
330
1F
100
AcDbEntity
  8
B-2_蓋
  6
Continuous
 62
     3
370
     9
100
AcDbCircle
 10
390.5675279771959
 20
132.4790533942145
 30
0.0
 40
3.000000038662472
  0
CIRCLE
  5
2B7
330
1F
100
AcDbEntity
  8
B-2_蓋
  6
Continuous
 62
     3
370
     9
100
AcDbCircle
 10
390.5675279771959
 20
32.47911937816735
 30
0.0
 40
3.000000038662472
  0
LINE
  5
2B8
330
1F
100
AcDbEntity
  8
B-4_寸法
  6
Continuous
 62
     7
370
     9
100
AcDbLine
 10
316.2162162162163
 20
-21.52194956186656
 30
0.0
 11
316.2162162162163
 21
-50.70396390232675
 31
0.0
  0
LINE
  5
2B9
330
1F
100
AcDbEntity
  8
B-4_寸法
  6
Continuous
 62
     7
370
     9
100
AcDbLine
 10
316.2162162162163
 20
412.075633666077
 30
0.0
 11
316.2162162162163
 21
386.4802872941301
 31
0.0
  0
LINE
  5
2BA
330
1F
100
AcDbEntity
  8
B-1_ピット
  6
Continuous
 62
     2
370
     9
100
AcDbLine
 10
425.5675939611488
 20
392.4798616976352
 30
0.0
 11
425.5675939611488
 21
332.4802576013514
 31
0.0
  0
LINE
  5
2BB
330
1F
100
AcDbEntity
  8
B-1_ピット
  6
Continuous
 62
     2
370
     9
100
AcDbLine
 10
425.5675939611488
 20
32.47837705869938
 30
0.0
 11
425.5675939611488
 21
-27.52152396537156
 31
0.0
  0
LINE
  5
2BC
330
1F
100
AcDbEntity
  8
B-5_仕様文
  6
Continuous
 62
     7
370
     9
100
AcDbLine
 10
483.3176731418919
 20
416.929489548142
 30
0.0
 11
515.7356550886825
 21
473.0791279560811
 31
0.0
  0
LINE
  5
2BD
330
1F
100
AcDbEntity
  8
B-5_仕様文
  6
Continuous
 62
     7
370
     9
100
AcDbLine
 10
387.5675180796031
 20
392.4798616976352
 30
0.0
 11
306.3925088418497
 21
533.0793259079392
 31
0.0
  0
LINE
  5
2BE
330
1F
100
AcDbEntity
  8
B-5_仕様文
  6
Continuous
 62
     7
370
     9
100
AcDbLine
 10
-252.3623409786739
 20
356.977393897804
 30
0.0
 11
-205.1764328415328
 21
533.0775443412163
 31
0.0
  0
LINE
  5
2BF
330
1F
100
AcDbEntity
  8
B-5_仕様文
  6
Continuous
 62
     7
370
     9
100
AcDbLine
 10
-322.8982049065667
 20
382.478146114865
 30
0.0
 11
-256.8221221099028
 21
629.077564136402
 31
0.0
  0
LINE
  5
2C0
330
1F
100
AcDbEntity
  8
B-5_仕様文
  6
Continuous
 62
     7
370
     9
100
AcDbLine
 10
-292.3455975506756
 20
335.4790797877956
 30
0.0
 11
-226.5377147777659
 21
581.0774057749156
 31
0.0
  0
LINE
  5
2C1
330
1F
100
AcDbEntity
  8
B-5_仕様文
  6
Continuous
 62
     7
370
     9
100
AcDbLine
 10
515.7356550886825
 20
473.0791279560811
 30
0.0
 11
640.1091544529066
 21
473.0791279560811
 31
0.0
  0
LINE
  5
2C2
330
1F
100
AcDbEntity
  8
B-5_仕様文
  6
Continuous
 62
     7
370
     9
100
AcDbLine
 10
170.2828496784068
 20
533.0793259079392
 30
0.0
 11
306.3925088418497
 21
533.0793259079392
 31
0.0
  0
LINE
  5
2C3
330
1F
100
AcDbEntity
  8
B-5_仕様文
  6
Continuous
 62
     7
370
     9
100
AcDbLine
 10
-205.1764328415328
 20
533.0775443412163
 30
0.0
 11
32.72201176620612
 21
533.0775443412163
 31
0.0
  0
LINE
  5
2C4
330
1F
100
AcDbEntity
  8
B-5_仕様文
  6
Continuous
 62
     7
370
     9
100
AcDbLine
 10
-226.5377147777659
 20
581.0774057749156
 30
0.0
 11
-39.91011065143585
 21
581.0774057749156
 31
0.0
  0
LINE
  5
2C5
330
1F
100
AcDbEntity
  8
B-5_仕様文
  6
Continuous
 62
     7
370
     9
100
AcDbLine
 10
-256.8221221099028
 20
629.077564136402
 30
0.0
 11
-27.80475691516219
 21
629.077564136402
 31
0.0
  0
LINE
  5
2C6
330
1F
100
AcDbEntity
  8
B-5_仕様文
  6
Continuous
 62
     7
370
     9
100
AcDbLine
 10
-322.8982049065667
 20
382.478146114865
 30
0.0
 11
-321.266629009723
 21
394.871207080294
 31
0.0
  0
LINE
  5
2C7
330
1F
100
AcDbEntity
  8
B-5_仕様文
  6
Continuous
 62
     7
370
     9
100
AcDbLine
 10
-322.8982049065667
 20
382.478146114865
 30
0.0
 11
-318.1146634052851
 21
394.0266408525144
 31
0.0
  0
LINE
  5
2C8
330
1F
100
AcDbEntity
  8
B-5_仕様文
  6
Continuous
 62
     7
370
     9
100
AcDbLine
 10
-292.3455975506756
 20
335.4790797877956
 30
0.0
 11
-290.7140196930229
 21
347.8721404950792
 31
0.0
  0
LINE
  5
2C9
330
1F
100
AcDbEntity
  8
B-5_仕様文
  6
Continuous
 62
     7
370
     9
100
AcDbLine
 10
-292.3455975506756
 20
335.4790797877956
 30
0.0
 11
-287.5620542222108
 21
347.0275737686011
 31
0.0
  0
LINE
  5
2CA
330
1F
100
AcDbEntity
  8
B-5_仕様文
  6
Continuous
 62
     7
370
     9
100
AcDbLine
 10
-252.3623409786739
 20
356.977393897804
 30
0.0
 11
-250.7307625884611
 21
369.3704545349748
 31
0.0
  0
LINE
  5
2CB
330
1F
100
AcDbEntity
  8
B-5_仕様文
  6
Continuous
 62
     7
370
     9
100
AcDbLine
 10
-252.3623409786739
 20
356.977393897804
 30
0.0
 11
-247.5787971539421
 21
368.5258876730489
 31
0.0
  0
LINE
  5
2CC
330
1F
100
AcDbEntity
  8
B-5_仕様文
  6
Continuous
 62
     7
370
     9
100
AcDbLine
 10
387.5675180796031
 20
392.4798616976352
 30
0.0
 11
379.9580070554643
 21
402.3967836986146
 31
0.0
  0
LINE
  5
2CD
330
1F
100
AcDbEntity
  8
B-5_仕様文
  6
Continuous
 62
     7
370
     9
100
AcDbLine
 10
387.5675180796031
 20
392.4798616976352
 30
0.0
 11
382.7839831386058
 21
404.0283591526402
 31
0.0
  0
LINE
  5
2CE
330
1F
100
AcDbEntity
  8
B-5_仕様文
  6
Continuous
 62
     7
370
     9
100
AcDbLine
 10
483.3176731418919
 20
416.929489548142
 30
0.0
 11
488.1012118965385
 21
428.4779854234842
 31
0.0
  0
LINE
  5
2CF
330
1F
100
AcDbEntity
  8
B-5_仕様文
  6
Continuous
 62
     7
370
     9
100
AcDbLine
 10
483.3176731418919
 20
416.929489548142
 30
0.0
 11
490.9271874408861
 21
426.8464090362393
 31
0.0
  0
LINE
  5
2D0
330
1F
100
AcDbEntity
  8
B-4_寸法
  6
Continuous
 62
     7
370
     9
100
AcDbLine
 10
-614.5944956186654
 20
446.6124696473819
 30
0.0
 11
-404.59454510663
 21
446.6124696473819
 31
0.0
  0
TEXT
  5
2D1
330
1F
100
AcDbEntity
  8
B-4_寸法
  6
Continuous
 62
     2
370
   211
100
AcDbText
 10
-525.8445203626477
 20
452.4324300570103
 30
0.0
 40
15.24
  1
210
 41
1.083333333333333
  7
ＭＳ ゴシック
100
AcDbText
  0
LINE
  5
2D2
330
1F
100
AcDbEntity
  8
B-4_寸法
  6
Continuous
 62
     7
370
     9
100
AcDbLine
 10
-404.59454510663
 20
446.6124696473819
 30
0.0
 11
-194.5945945945945
 21
446.6124696473819
 31
0.0
  0
LINE
  5
2D3
330
1F
100
AcDbEntity
  8
B-4_寸法
  6
Continuous
 62
     7
370
     9
100
AcDbLine
 10
-614.5944956186654
 20
-174.418529613598
 30
0.0
 11
-194.5945945945945
 21
-174.418529613598
 31
0.0
  0
TEXT
  5
2D4
330
1F
100
AcDbEntity
  8
B-4_寸法
  6
Continuous
 62
     2
370
   211
100
AcDbText
 10
-420.8445451066299
 20
-168.5985073440139
 30
0.0
 40
15.24
  1
420
 41
1.083333333333333
  7
ＭＳ ゴシック
100
AcDbText
  0
LINE
  5
2D5
330
1F
100
AcDbEntity
  8
B-4_寸法
  6
Continuous
 62
     7
370
     9
100
AcDbLine
 10
-554.5945945945946
 20
-91.12419829497469
 30
0.0
 11
-254.5946440825591
 21
-91.12419829497469
 31
0.0
  0
TEXT
  5
2D6
330
1F
100
AcDbEntity
  8
B-4_寸法
  6
Continuous
 62
     2
370
   211
100
AcDbText
 10
-420.8446193385768
 20
-85.30417602539057
 30
0.0
 40
15.24
  1
300
 41
1.083333333333333
  7
ＭＳ ゴシック
100
AcDbText
  0
LINE
  5
2D7
330
1F
100
AcDbEntity
  8
B-4_寸法
  6
Continuous
 62
     7
370
     9
100
AcDbLine
 10
257.837837837838
 20
392.4798616976352
 30
0.0
 11
257.837837837838
 21
-27.52093010979717
 31
0.0
  0
TEXT
  5
2D8
330
1F
100
AcDbEntity
  8
B-4_寸法
  6
Continuous
 62
     2
370
   211
100
AcDbText
 10
252.0178774282096
 20
166.229465793919
 30
0.0
 40
15.24
  1
420
 50
90.0
 41
1.083333333333333
  7
ＭＳ ゴシック
100
AcDbText
  0
LINE
  5
2D9
330
1F
100
AcDbEntity
  8
B-4_寸法
  6
Continuous
 62
     7
370
     9
100
AcDbLine
 10
510.8108108108109
 20
392.4798616976352
 30
0.0
 11
510.8108108108109
 21
332.4802576013514
 31
0.0
  0
TEXT
  5
2DA
330
1F
100
AcDbEntity
  8
B-4_寸法
  6
Continuous
 62
     2
370
   211
100
AcDbText
 10
504.9908504011826
 20
351.8550596494933
 30
0.0
 40
15.24
  1
60
 50
90.0
 41
1.0625
  7
ＭＳ ゴシック
100
AcDbText
  0
LINE
  5
2DB
330
1F
100
AcDbEntity
  8
B-4_寸法
  6
Continuous
 62
     7
370
     9
100
AcDbLine
 10
510.8108108108109
 20
332.4802576013514
 30
0.0
 11
510.8108108108109
 21
32.47837705869938
 31
0.0
  0
TEXT
  5
2DC
330
1F
100
AcDbEntity
  8
B-4_寸法
  6
Continuous
 62
     2
370
   211
100
AcDbText
 10
504.9908504011826
 20
166.2293173300254
 30
0.0
 40
15.24
  1
300
 50
90.0
 41
1.083333333333333
  7
ＭＳ ゴシック
100
AcDbText
  0
LINE
  5
2DD
330
1F
100
AcDbEntity
  8
B-4_寸法
  6
Continuous
 62
     7
370
     9
100
AcDbLine
 10
510.8108108108109
 20
32.47837705869938
 30
0.0
 11
510.8108108108109
 21
-27.52152396537156
 31
0.0
  0
TEXT
  5
2DE
330
1F
100
AcDbEntity
  8
B-4_寸法
  6
Continuous
 62
     2
370
   211
100
AcDbText
 10
504.9908504011826
 20
-8.146573453336089
 30
0.0
 40
15.24
  1
60
 50
90.0
 41
1.0625
  7
ＭＳ ゴシック
100
AcDbText
  0
LINE
  5
2DF
330
1F
100
AcDbEntity
  8
B-4_寸法
  6
Continuous
 62
     7
370
     9
100
AcDbLine
 10
387.5675180796031
 20
-133.3958773226351
 30
0.0
 11
425.5675939611488
 21
-133.3958773226351
 31
0.0
  0
TEXT
  5
2E0
330
1F
100
AcDbEntity
  8
B-4_寸法
  6
Continuous
 62
     2
370
   211
100
AcDbText
 10
395.9425560203759
 20
-127.575855053051
 30
0.0
 40
15.24
  1
38
 41
1.0625
  7
ＭＳ ゴシック
100
AcDbText
  0
LINE
  5
2E1
330
1F
100
AcDbEntity
  8
B-4_寸法
  6
Continuous
 62
     7
370
     9
100
AcDbLine
 10
387.5675180796031
 20
-90.95984876478029
 30
0.0
 11
419.5677226298566
 21
-90.95984876478029
 31
0.0
  0
TEXT
  5
2E2
330
1F
100
AcDbEntity
  8
B-4_寸法
  6
Continuous
 62
     2
370
   211
100
AcDbText
 10
392.9426203547298
 20
-85.1398264951963
 30
0.0
 40
15.24
  1
32
 41
1.0625
  7
ＭＳ ゴシック
100
AcDbText
  0
LINE
  5
2E3
330
1F
100
AcDbEntity
  8
B-4_寸法
  6
Continuous
 62
     7
370
     9
100
AcDbLine
 10
-602.0945038666596
 20
-132.2016337626689
 30
0.0
 11
-207.094734810494
 21
-132.2016337626689
 31
0.0
  0
TEXT
  5
2E4
330
1F
100
AcDbEntity
  8
B-4_寸法
  6
Continuous
 62
     2
370
   211
100
AcDbText
 10
-420.8446193385768
 20
-126.3816114930849
 30
0.0
 40
15.24
  1
395
 41
1.083333333333333
  7
ＭＳ ゴシック
100
AcDbText
  0
LINE
  5
2E5
330
1F
100
AcDbEntity
  8
B-4_寸法
  6
Continuous
 62
     7
370
     9
100
AcDbLine
 10
316.2162162162163
 20
382.4799276815879
 30
0.0
 11
316.2162162162163
 21
-17.52144148543061
 31
0.0
  0
TEXT
  5
2E6
330
1F
100
AcDbEntity
  8
B-4_寸法
  6
Continuous
 62
     2
370
   211
100
AcDbText
 10
310.3962558065879
 20
166.2292430980787
 30
0.0
 40
15.24
  1
400
 50
90.0
 41
1.083333333333333
  7
ＭＳ ゴシック
100
AcDbText
  0
TEXT
  5
2E7
330
1F
100
AcDbEntity
  8
B-4_寸法
  6
Continuous
 62
     2
370
   211
100
AcDbText
 10
-348.3186153331233
 20
452.4324300570103
 30
0.0
 40
15.24
  1
210
 41
1.083333333333333
  7
ＭＳ ゴシック
100
AcDbText
  0
TEXT
  5
2E8
330
1F
100
AcDbEntity
  8
F-5ﾚｲﾔ
  6
Continuous
 62
     2
370
     9
100
AcDbText
 10
462.3893119193414
 20
-678.6399980534734
 30
0.0
 40
15.24
  1
１：５
 41
1.083333333333333
  7
ＭＳ ゴシック
100
AcDbText
  0
LINE
  5
2E9
330
1F
100
AcDbEntity
  8
D-4_寸法
  6
Continuous
 62
     2
370
     9
100
AcDbLine
 10
226.0545931468469
 20
-262.9110809277569
 30
0.0
 11
226.0545931468469
 21
-288.9885163954512
 31
0.0
  0
LINE
  5
2EA
330
1F
100
AcDbEntity
  8
D-4_寸法
  6
Continuous
 62
     2
370
     9
100
AcDbLine
 10
226.0545931468469
 20
-288.9885163954512
 30
0.0
 11
305.8207790104449
 21
-288.9885163954512
 31
0.0
  0
LINE
  5
2EB
330
1F
100
AcDbEntity
  8
D-4_寸法
  6
Continuous
 62
     2
370
     9
100
AcDbLine
 10
305.8207790104449
 20
-288.9885163954512
 30
0.0
 11
305.8207790104449
 21
-262.9110809277569
 31
0.0
  0
LINE
  5
2EC
330
1F
100
AcDbEntity
  8
D-4_寸法
  6
Continuous
 62
     2
370
     9
100
AcDbLine
 10
305.8207790104449
 20
-262.9110809277569
 30
0.0
 11
226.0545931468469
 21
-262.9110809277569
 31
0.0
  0
TEXT
  5
2ED
330
1F
100
AcDbEntity
  8
D-4_寸法
  6
Continuous
 62
     2
370
     9
100
AcDbText
 10
256.346547393574
 20
-318.519108106547
 30
0.0
 40
15.24
  1
スチール製グレーチング　枠付正方形型　細目滑り止め模様付
 41
1.120535714285714
  7
ＭＳ ゴシック
100
AcDbText
  0
TEXT
  5
2EE
330
1F
100
AcDbEntity
  8
D-4_寸法
  6
Continuous
 62
     2
370
     9
100
AcDbText
 10
281.2269927192709
 20
-460.3410660045498
 30
0.0
 40
15.24
  1
材質：ＳＳ４００
 41
1.109375
  7
ＭＳ ゴシック
100
AcDbText
  0
TEXT
  5
2EF
330
1F
100
AcDbEntity
  8
D-4_寸法
  6
Continuous
 62
     2
370
     9
100
AcDbText
 10
246.9721659931305
 20
-435.2850783697243
 30
0.0
 40
15.24
  1
スチール製受枠　Ｌ－３２（四方受四方枠）
 41
1.11875
  7
ＭＳ ゴシック
100
AcDbText
  0
TEXT
  5
2F0
330
1F
100
AcDbEntity
  8
D-4_寸法
  6
Continuous
 62
     2
370
     9
100
AcDbText
 10
281.2267452794482
 20
-397.7010969174863
 30
0.0
 40
15.24
  1
処理：溶融亜鉛めっき
 41
1.1125
  7
ＭＳ ゴシック
100
AcDbText
  0
TEXT
  5
2F1
330
1F
100
AcDbEntity
  8
D-4_寸法
  6
Continuous
 62
     2
370
     9
100
AcDbText
 10
281.2267452794482
 20
-372.6451092826609
 30
0.0
 40
15.24
  1
材質：ＳＳ４００
 41
1.109375
  7
ＭＳ ゴシック
100
AcDbText
  0
TEXT
  5
2F2
330
1F
100
AcDbEntity
  8
D-4_寸法
  6
Continuous
 62
     2
370
     9
100
AcDbText
 10
256.346547393574
 20
-345.3782992094685
 30
0.0
 40
15.24
  1
集水桝用　ＱＸＣ　３３３２
 41
1.115384615384615
  7
ＭＳ ゴシック
100
AcDbText
  0
TEXT
  5
2F3
330
1F
100
AcDbEntity
  8
F-5ﾚｲﾔ
  6
Continuous
 62
     2
370
     9
100
AcDbText
 10
-468.1611030041312
 20
-682.970588938343
 30
0.0
 40
15.24
  1
スチール製グレーチング　枠付正方形型　細目滑り止め模様付　集水桝用　　ＱＸＣ　３３３２
 41
0.7744186046511629
  7
ＭＳ ゴシック
100
AcDbText
  0
LINE
  5
2F4
330
1F
100
AcDbEntity
  8
D-0_通り芯
  6
Continuous
 62
     3
370
     9
100
AcDbLine
 10
-295.3803236927378
 20
-433.3527526178669
 30
0.0
 11
-495.3803236927378
 21
-433.3527526178669
 31
0.0
  0
LINE
  5
2F5
330
1F
100
AcDbEntity
  8
D-0_通り芯
  6
Continuous
 62
     3
370
     9
100
AcDbLine
 10
-232.8804061726784
 20
-433.3527526178669
 30
0.0
 11
-245.3803236927378
 21
-433.3527526178669
 31
0.0
  0
LINE
  5
2F6
330
1F
100
AcDbEntity
  8
D-4_寸法
  6
Continuous
 62
     7
370
     9
100
AcDbLine
 10
-185.3804061726784
 20
-433.3527526178669
 30
0.0
 11
-187.0119835754291
 21
-420.9596918506942
 31
0.0
  0
LINE
  5
2F7
330
1F
100
AcDbEntity
  8
D-4_寸法
  6
Continuous
 62
     7
370
     9
100
AcDbLine
 10
-185.3804061726784
 20
-433.3527526178669
 30
0.0
 11
-183.7488287699277
 21
-420.9596918506942
 31
0.0
  0
LINE
  5
2F8
330
1F
100
AcDbEntity
  8
D-4_寸法
  6
Continuous
 62
     7
370
     9
100
AcDbLine
 10
-183.8804061726783
 20
-433.3527526178669
 30
0.0
 11
-222.8804061726784
 21
-433.3527526178669
 31
0.0
  0
LINE
  5
2F9
330
1F
100
AcDbEntity
  8
D-0_通り芯
  6
Continuous
 62
     7
370
     9
100
AcDbLine
 10
-561.207317067949
 20
-483.3527526178669
 30
0.0
 11
-561.207317067949
 21
-516.5783534017562
 31
0.0
  0
LINE
  5
2FA
330
1F
100
AcDbEntity
  8
D-0_通り芯
  6
Continuous
 62
     7
370
     9
100
AcDbLine
 10
-561.207317067949
 20
-516.5783534017562
 30
0.0
 11
-142.0534127974673
 21
-516.5783534017562
 31
0.0
  0
LINE
  5
2FB
330
1F
100
AcDbEntity
  8
D-0_通り芯
  6
Continuous
 62
     7
370
     9
100
AcDbLine
 10
-142.0534127974673
 20
-516.5783534017562
 30
0.0
 11
-142.0534127974673
 21
-483.3527526178669
 31
0.0
  0
LINE
  5
2FC
330
1F
100
AcDbEntity
  8
D-0_通り芯
  6
Continuous
 62
     7
370
     9
100
AcDbLine
 10
-142.0534127974673
 20
-483.3527526178669
 30
0.0
 11
-561.207317067949
 21
-483.3527526178669
 31
0.0
  0
TEXT
  5
2FD
330
1F
100
AcDbEntity
  8
D-0_通り芯
  6
Continuous
 62
     2
370
     9
100
AcDbText
 10
-552.8803649327081
 20
-507.1455530098114
 30
0.0
 40
15.24
  1
ＤＩ－３２　バー形状詳細　Ｓ＝１：２
 41
1.118055555555555
  7
ＭＳ ゴシック
100
AcDbText
  0
LINE
  5
2FE
330
1F
100
AcDbEntity
  8
D-0_通り芯
  6
Continuous
 62
     3
370
     9
100
AcDbLine
 10
-491.9418644274226
 20
-353.3525464180145
 30
0.0
 11
-490.6918644274226
 21
-349.6028433458018
 31
0.0
  0
LINE
  5
2FF
330
1F
100
AcDbEntity
  8
D-0_通り芯
  6
Continuous
 62
     3
370
     9
100
AcDbLine
 10
-474.2668644274228
 20
-349.6028433458018
 30
0.0
 11
-473.0168644274228
 21
-353.3525464180145
 31
0.0
  0
LINE
  5
300
330
1F
100
AcDbEntity
  8
D-0_通り芯
  6
Continuous
 62
     3
370
     9
100
AcDbLine
 10
-474.2668644274228
 20
-349.6028433458018
 30
0.0
 11
-490.6918644274226
 21
-349.6028433458018
 31
0.0
  0
LINE
  5
301
330
1F
100
AcDbEntity
  8
D-0_通り芯
  6
Continuous
 62
     3
370
     9
100
AcDbLine
 10
-491.9418644274226
 20
-353.3525464180145
 30
0.0
 11
-495.3803236927378
 21
-353.3525464180145
 31
0.0
  0
LINE
  5
302
330
1F
100
AcDbEntity
  8
D-0_通り芯
  6
Continuous
 62
     3
370
     9
100
AcDbLine
 10
-447.9088508491946
 20
-349.6028433458018
 30
0.0
 11
-446.6588508491946
 21
-353.3525464180145
 31
0.0
  0
LINE
  5
303
330
1F
100
AcDbEntity
  8
D-0_通り芯
  6
Continuous
 62
     3
370
     9
100
AcDbLine
 10
-460.2338508491944
 20
-353.3525464180145
 30
0.0
 11
-458.9838508491944
 21
-349.6028433458018
 31
0.0
  0
LINE
  5
304
330
1F
100
AcDbEntity
  8
D-0_通り芯
  6
Continuous
 62
     3
370
     9
100
AcDbLine
 10
-460.2338508491944
 20
-353.3525464180145
 30
0.0
 11
-473.0168644274228
 21
-353.3525464180145
 31
0.0
  0
LINE
  5
305
330
1F
100
AcDbEntity
  8
D-0_通り芯
  6
Continuous
 62
     3
370
     9
100
AcDbLine
 10
-433.8758372709661
 20
-353.3525464180145
 30
0.0
 11
-432.6258372709661
 21
-349.6028433458018
 31
0.0
  0
LINE
  5
306
330
1F
100
AcDbEntity
  8
D-0_通り芯
  6
Continuous
 62
     3
370
     9
100
AcDbLine
 10
-414.950837270966
 20
-353.3525464180145
 30
0.0
 11
-416.200837270966
 21
-349.6028433458018
 31
0.0
  0
LINE
  5
307
330
1F
100
AcDbEntity
  8
D-0_通り芯
  6
Continuous
 62
     3
370
     9
100
AcDbLine
 10
-447.9088508491946
 20
-349.6028433458018
 30
0.0
 11
-458.9838508491944
 21
-349.6028433458018
 31
0.0
  0
LINE
  5
308
330
1F
100
AcDbEntity
  8
D-0_通り芯
  6
Continuous
 62
     3
370
     9
100
AcDbLine
 10
-433.8758372709661
 20
-353.3525464180145
 30
0.0
 11
-446.6588508491946
 21
-353.3525464180145
 31
0.0
  0
LINE
  5
309
330
1F
100
AcDbEntity
  8
D-0_通り芯
  6
Continuous
 62
     3
370
     9
100
AcDbLine
 10
-389.8428236927377
 20
-349.6028433458018
 30
0.0
 11
-388.5928236927377
 21
-353.3525464180145
 31
0.0
  0
LINE
  5
30A
330
1F
100
AcDbEntity
  8
D-0_通り芯
  6
Continuous
 62
     3
370
     9
100
AcDbLine
 10
-402.1678236927379
 20
-353.3525464180145
 30
0.0
 11
-400.9178236927379
 21
-349.6028433458018
 31
0.0
  0
LINE
  5
30B
330
1F
100
AcDbEntity
  8
D-0_通り芯
  6
Continuous
 62
     3
370
     9
100
AcDbLine
 10
-402.1678236927379
 20
-353.3525464180145
 30
0.0
 11
-414.950837270966
 21
-353.3525464180145
 31
0.0
  0
LINE
  5
30C
330
1F
100
AcDbEntity
  8
D-0_通り芯
  6
Continuous
 62
     3
370
     9
100
AcDbLine
 10
-375.8098101145096
 20
-353.3525464180145
 30
0.0
 11
-374.5598101145096
 21
-349.6028433458018
 31
0.0
  0
LINE
  5
30D
330
1F
100
AcDbEntity
  8
D-0_通り芯
  6
Continuous
 62
     3
370
     9
100
AcDbLine
 10
-356.8848101145095
 20
-353.3525464180145
 30
0.0
 11
-358.1348101145095
 21
-349.6028433458018
 31
0.0
  0
LINE
  5
30E
330
1F
100
AcDbEntity
  8
D-0_通り芯
  6
Continuous
 62
     3
370
     9
100
AcDbLine
 10
-389.8428236927377
 20
-349.6028433458018
 30
0.0
 11
-400.9178236927379
 21
-349.6028433458018
 31
0.0
  0
LINE
  5
30F
330
1F
100
AcDbEntity
  8
D-0_通り芯
  6
Continuous
 62
     3
370
     9
100
AcDbLine
 10
-375.8098101145096
 20
-353.3525464180145
 30
0.0
 11
-388.5928236927377
 21
-353.3525464180145
 31
0.0
  0
LINE
  5
310
330
1F
100
AcDbEntity
  8
D-0_通り芯
  6
Continuous
 62
     3
370
     9
100
AcDbLine
 10
-331.7767965362812
 20
-349.6028433458018
 30
0.0
 11
-330.5267965362812
 21
-353.3525464180145
 31
0.0
  0
LINE
  5
311
330
1F
100
AcDbEntity
  8
D-0_通り芯
  6
Continuous
 62
     3
370
     9
100
AcDbLine
 10
-344.1017965362811
 20
-353.3525464180145
 30
0.0
 11
-342.8517965362811
 21
-349.6028433458018
 31
0.0
  0
LINE
  5
312
330
1F
100
AcDbEntity
  8
D-0_通り芯
  6
Continuous
 62
     3
370
     9
100
AcDbLine
 10
-344.1017965362811
 20
-353.3525464180145
 30
0.0
 11
-356.8848101145095
 21
-353.3525464180145
 31
0.0
  0
LINE
  5
313
330
1F
100
AcDbEntity
  8
D-0_通り芯
  6
Continuous
 62
     3
370
     9
100
AcDbLine
 10
-317.7437829580527
 20
-353.3525464180145
 30
0.0
 11
-316.4937829580527
 21
-349.6028433458018
 31
0.0
  0
LINE
  5
314
330
1F
100
AcDbEntity
  8
D-0_通り芯
  6
Continuous
 62
     3
370
     9
100
AcDbLine
 10
-298.8187829580529
 20
-353.3525464180145
 30
0.0
 11
-300.0687829580529
 21
-349.6028433458018
 31
0.0
  0
LINE
  5
315
330
1F
100
AcDbEntity
  8
D-0_通り芯
  6
Continuous
 62
     3
370
     9
100
AcDbLine
 10
-331.7767965362812
 20
-349.6028433458018
 30
0.0
 11
-342.8517965362811
 21
-349.6028433458018
 31
0.0
  0
LINE
  5
316
330
1F
100
AcDbEntity
  8
D-0_通り芯
  6
Continuous
 62
     3
370
     9
100
AcDbLine
 10
-317.7437829580527
 20
-353.3525464180145
 30
0.0
 11
-330.5267965362812
 21
-353.3525464180145
 31
0.0
  0
LINE
  5
317
330
1F
100
AcDbEntity
  8
D-0_通り芯
  6
Continuous
 62
     3
370
     9
100
AcDbLine
 10
-416.200837270966
 20
-349.6028433458018
 30
0.0
 11
-432.6258372709661
 21
-349.6028433458018
 31
0.0
  0
LINE
  5
318
330
1F
100
AcDbEntity
  8
D-0_通り芯
  6
Continuous
 62
     3
370
     9
100
AcDbLine
 10
-295.3803236927378
 20
-353.3525464180145
 30
0.0
 11
-298.8187829580529
 21
-353.3525464180145
 31
0.0
  0
LINE
  5
319
330
1F
100
AcDbEntity
  8
D-0_通り芯
  6
Continuous
 62
     3
370
     9
100
AcDbLine
 10
-374.5598101145096
 20
-349.6028433458018
 30
0.0
 11
-358.1348101145095
 21
-349.6028433458018
 31
0.0
  0
LINE
  5
31A
330
1F
100
AcDbEntity
  8
D-0_通り芯
  6
Continuous
 62
     3
370
     9
100
AcDbLine
 10
-316.4937829580527
 20
-349.6028433458018
 30
0.0
 11
-300.0687829580529
 21
-349.6028433458018
 31
0.0
  0
LINE
  5
31B
330
1F
100
AcDbEntity
  8
D-0_通り芯
  6
Continuous
 62
     3
370
     9
100
AcDbLine
 10
-245.3803236927378
 20
-353.3525464180145
 30
0.0
 11
-232.8804061726784
 21
-353.3525464180145
 31
0.0
  0
LINE
  5
31C
330
1F
100
AcDbEntity
  8
D-0_通り芯
  6
Continuous
 62
     3
370
     9
100
AcDbLine
 10
-245.3803236927378
 20
-349.6028433458018
 30
0.0
 11
-232.8804061726784
 21
-349.6028433458018
 31
0.0
  0
LINE
  5
31D
330
1F
100
AcDbEntity
  8
D-0_通り芯
  6
Continuous
 62
     3
370
     9
100
AcDbLine
 10
-245.3803236927378
 20
-349.6028433458018
 30
0.0
 11
-245.3803236927378
 21
-353.3525464180145
 31
0.0
  0
LINE
  5
31E
330
1F
100
AcDbEntity
  8
D-0_通り芯
  6
Continuous
 62
     3
370
     9
100
AcDbLine
 10
-232.8804061726784
 20
-349.6028433458018
 30
0.0
 11
-232.8804061726784
 21
-353.3525464180145
 31
0.0
  0
LINE
  5
31F
330
1F
100
AcDbEntity
  8
D-0_通り芯
  6
Continuous
 62
     3
370
     9
100
AcDbLine
 10
-491.9418644274226
 20
-299.6028433458018
 30
0.0
 11
-489.2668644274228
 21
-287.1026783859201
 31
0.0
  0
LINE
  5
320
330
1F
100
AcDbEntity
  8
D-0_通り芯
  6
Continuous
 62
     3
370
     9
100
AcDbLine
 10
-475.6918644274226
 20
-287.1026783859201
 30
0.0
 11
-473.0168644274228
 21
-299.6028433458018
 31
0.0
  0
LINE
  5
321
330
1F
100
AcDbEntity
  8
D-0_通り芯
  6
Continuous
 62
     3
370
     9
100
AcDbLine
 10
-490.6918644274226
 20
-299.6028433458018
 30
0.0
 11
-488.0168644274228
 21
-287.1026783859201
 31
0.0
  0
LINE
  5
322
330
1F
100
AcDbEntity
  8
D-0_通り芯
  6
Continuous
 62
     3
370
     9
100
AcDbLine
 10
-476.9418644274226
 20
-287.1026783859201
 30
0.0
 11
-474.2668644274228
 21
-299.6028433458018
 31
0.0
  0
LINE
  5
323
330
1F
100
AcDbEntity
  8
D-0_通り芯
  6
Continuous
 62
     3
370
     9
100
AcDbLine
 10
-443.9838508491944
 20
-287.1026783859201
 30
0.0
 11
-446.6588508491946
 21
-299.6028433458018
 31
0.0
  0
LINE
  5
324
330
1F
100
AcDbEntity
  8
D-0_通り芯
  6
Continuous
 62
     3
370
     9
100
AcDbLine
 10
-460.2338508491944
 20
-299.6028433458018
 30
0.0
 11
-462.9088508491946
 21
-287.1026783859201
 31
0.0
  0
LINE
  5
325
330
1F
100
AcDbEntity
  8
D-0_通り芯
  6
Continuous
 62
     3
370
     9
100
AcDbLine
 10
-445.2338508491944
 20
-287.1026783859201
 30
0.0
 11
-447.9088508491946
 21
-299.6028433458018
 31
0.0
  0
LINE
  5
326
330
1F
100
AcDbEntity
  8
D-0_通り芯
  6
Continuous
 62
     3
370
     9
100
AcDbLine
 10
-458.9838508491944
 20
-299.6028433458018
 30
0.0
 11
-461.6588508491946
 21
-287.1026783859201
 31
0.0
  0
LINE
  5
327
330
1F
100
AcDbEntity
  8
D-0_通り芯
  6
Continuous
 62
     3
370
     9
100
AcDbLine
 10
-433.8758372709661
 20
-299.6028433458018
 30
0.0
 11
-431.200837270966
 21
-287.1026783859201
 31
0.0
  0
LINE
  5
328
330
1F
100
AcDbEntity
  8
D-0_通り芯
  6
Continuous
 62
     3
370
     9
100
AcDbLine
 10
-417.6258372709661
 20
-287.1026783859201
 30
0.0
 11
-414.950837270966
 21
-299.6028433458018
 31
0.0
  0
LINE
  5
329
330
1F
100
AcDbEntity
  8
D-0_通り芯
  6
Continuous
 62
     3
370
     9
100
AcDbLine
 10
-432.6258372709661
 20
-299.6028433458018
 30
0.0
 11
-429.950837270966
 21
-287.1026783859201
 31
0.0
  0
LINE
  5
32A
330
1F
100
AcDbEntity
  8
D-0_通り芯
  6
Continuous
 62
     3
370
     9
100
AcDbLine
 10
-418.8758372709661
 20
-287.1026783859201
 30
0.0
 11
-416.200837270966
 21
-299.6028433458018
 31
0.0
  0
LINE
  5
32B
330
1F
100
AcDbEntity
  8
D-0_通り芯
  6
Continuous
 62
     3
370
     9
100
AcDbLine
 10
-385.9178236927379
 20
-287.1026783859201
 30
0.0
 11
-388.5928236927377
 21
-299.6028433458018
 31
0.0
  0
LINE
  5
32C
330
1F
100
AcDbEntity
  8
D-0_通り芯
  6
Continuous
 62
     3
370
     9
100
AcDbLine
 10
-402.1678236927379
 20
-299.6028433458018
 30
0.0
 11
-404.8428236927377
 21
-287.1026783859201
 31
0.0
  0
LINE
  5
32D
330
1F
100
AcDbEntity
  8
D-0_通り芯
  6
Continuous
 62
     3
370
     9
100
AcDbLine
 10
-387.1678236927379
 20
-287.1026783859201
 30
0.0
 11
-389.8428236927377
 21
-299.6028433458018
 31
0.0
  0
LINE
  5
32E
330
1F
100
AcDbEntity
  8
D-0_通り芯
  6
Continuous
 62
     3
370
     9
100
AcDbLine
 10
-400.9178236927379
 20
-299.6028433458018
 30
0.0
 11
-403.5928236927377
 21
-287.1026783859201
 31
0.0
  0
LINE
  5
32F
330
1F
100
AcDbEntity
  8
D-0_通り芯
  6
Continuous
 62
     3
370
     9
100
AcDbLine
 10
-375.8098101145096
 20
-299.6028433458018
 30
0.0
 11
-373.1348101145095
 21
-287.1026783859201
 31
0.0
  0
LINE
  5
330
330
1F
100
AcDbEntity
  8
D-0_通り芯
  6
Continuous
 62
     3
370
     9
100
AcDbLine
 10
-359.5598101145096
 20
-287.1026783859201
 30
0.0
 11
-356.8848101145095
 21
-299.6028433458018
 31
0.0
  0
LINE
  5
331
330
1F
100
AcDbEntity
  8
D-0_通り芯
  6
Continuous
 62
     3
370
     9
100
AcDbLine
 10
-374.5598101145096
 20
-299.6028433458018
 30
0.0
 11
-371.8848101145095
 21
-287.1026783859201
 31
0.0
  0
LINE
  5
332
330
1F
100
AcDbEntity
  8
D-0_通り芯
  6
Continuous
 62
     3
370
     9
100
AcDbLine
 10
-360.8098101145096
 20
-287.1026783859201
 30
0.0
 11
-358.1348101145095
 21
-299.6028433458018
 31
0.0
  0
LINE
  5
333
330
1F
100
AcDbEntity
  8
D-0_通り芯
  6
Continuous
 62
     3
370
     9
100
AcDbLine
 10
-327.8517965362811
 20
-287.1026783859201
 30
0.0
 11
-330.5267965362812
 21
-299.6028433458018
 31
0.0
  0
LINE
  5
334
330
1F
100
AcDbEntity
  8
D-0_通り芯
  6
Continuous
 62
     3
370
     9
100
AcDbLine
 10
-344.1017965362811
 20
-299.6028433458018
 30
0.0
 11
-346.7767965362812
 21
-287.1026783859201
 31
0.0
  0
LINE
  5
335
330
1F
100
AcDbEntity
  8
D-0_通り芯
  6
Continuous
 62
     3
370
     9
100
AcDbLine
 10
-329.1017965362811
 20
-287.1026783859201
 30
0.0
 11
-331.7767965362812
 21
-299.6028433458018
 31
0.0
  0
LINE
  5
336
330
1F
100
AcDbEntity
  8
D-0_通り芯
  6
Continuous
 62
     3
370
     9
100
AcDbLine
 10
-342.8517965362811
 20
-299.6028433458018
 30
0.0
 11
-345.5267965362812
 21
-287.1026783859201
 31
0.0
  0
LINE
  5
337
330
1F
100
AcDbEntity
  8
D-0_通り芯
  6
Continuous
 62
     3
370
     9
100
AcDbLine
 10
-317.7437829580527
 20
-299.6028433458018
 30
0.0
 11
-315.0687829580529
 21
-287.1026783859201
 31
0.0
  0
LINE
  5
338
330
1F
100
AcDbEntity
  8
D-0_通り芯
  6
Continuous
 62
     3
370
     9
100
AcDbLine
 10
-301.4937829580527
 20
-287.1026783859201
 30
0.0
 11
-298.8187829580529
 21
-299.6028433458018
 31
0.0
  0
LINE
  5
339
330
1F
100
AcDbEntity
  8
D-0_通り芯
  6
Continuous
 62
     3
370
     9
100
AcDbLine
 10
-316.4937829580527
 20
-299.6028433458018
 30
0.0
 11
-313.8187829580529
 21
-287.1026783859201
 31
0.0
  0
LINE
  5
33A
330
1F
100
AcDbEntity
  8
D-0_通り芯
  6
Continuous
 62
     3
370
     9
100
AcDbLine
 10
-302.7437829580527
 20
-287.1026783859201
 30
0.0
 11
-300.0687829580529
 21
-299.6028433458018
 31
0.0
  0
LINE
  5
33B
330
1F
100
AcDbEntity
  8
D-0_通り芯
  6
Continuous
 62
     3
370
     9
100
AcDbLine
 10
-434.6745412660244
 20
-299.6028433458004
 30
0.0
 11
-433.6583820734718
 21
-298.5866841532477
 31
0.0
  0
LINE
  5
33C
330
1F
100
AcDbEntity
  8
D-0_通り芯
  6
Continuous
 62
     3
370
     9
100
AcDbLine
 10
-438.2100751719578
 20
-299.6028433458004
 30
0.0
 11
-432.6957974006443
 21
-294.0885655744867
 31
0.0
  0
LINE
  5
33D
330
1F
100
AcDbEntity
  8
D-0_通り芯
  6
Continuous
 62
     3
370
     9
100
AcDbLine
 10
-441.7456090778915
 20
-299.6028433458004
 30
0.0
 11
-431.7332127278167
 21
-289.5904469957258
 31
0.0
  0
LINE
  5
33E
330
1F
100
AcDbEntity
  8
D-0_通り芯
  6
Continuous
 62
     3
370
     9
100
AcDbLine
 10
-445.2811429838248
 20
-299.6028433458005
 30
0.0
 11
-432.780978023945
 21
-287.1026783859207
 31
0.0
  0
LINE
  5
33F
330
1F
100
AcDbEntity
  8
D-0_通り芯
  6
Continuous
 62
     3
370
     9
100
AcDbLine
 10
-446.0713610022493
 20
-296.8575274582919
 30
0.0
 11
-436.3165119298775
 21
-287.1026783859201
 31
0.0
  0
LINE
  5
340
330
1F
100
AcDbEntity
  8
D-0_通り芯
  6
Continuous
 62
     3
370
     9
100
AcDbLine
 10
-445.1087763294232
 20
-292.3594088795323
 30
0.0
 11
-439.8520458358103
 21
-287.1026783859195
 31
0.0
  0
LINE
  5
341
330
1F
100
AcDbEntity
  8
D-0_通り芯
  6
Continuous
 62
     3
370
     9
100
AcDbLine
 10
-444.1461916565931
 20
-287.861290300769
 30
0.0
 11
-443.3875797417455
 21
-287.1026783859213
 31
0.0
  0
LINE
  5
342
330
1F
100
AcDbEntity
  8
D-0_通り芯
  6
Continuous
 62
     3
370
     9
100
AcDbLine
 10
-462.9588125134909
 20
-299.6028433458001
 30
0.0
 11
-460.7141930709286
 21
-297.3582239032376
 31
0.0
  0
LINE
  5
343
330
1F
100
AcDbEntity
  8
D-0_通り芯
  6
Continuous
 62
     3
370
     9
100
AcDbLine
 10
-466.4943464194137
 20
-299.6028433457986
 30
0.0
 11
-461.3374187968664
 21
-294.4459157232513
 31
0.0
  0
LINE
  5
344
330
1F
100
AcDbEntity
  8
D-0_通り芯
  6
Continuous
 62
     3
370
     9
100
AcDbLine
 10
-470.0298803253464
 20
-299.602843345798
 30
0.0
 11
-461.9606445228056
 21
-291.5336075432573
 31
0.0
  0
LINE
  5
345
330
1F
100
AcDbEntity
  8
D-0_通り芯
  6
Continuous
 62
     3
370
     9
100
AcDbLine
 10
-473.1135599644547
 20
-299.150989078973
 30
0.0
 11
-462.5838702487449
 21
-288.6212993632632
 31
0.0
  0
LINE
  5
346
330
1F
100
AcDbEntity
  8
D-0_通り芯
  6
Continuous
 62
     3
370
     9
100
AcDbLine
 10
-473.736785690394
 20
-296.2386808989789
 30
0.0
 11
-464.6007831773339
 21
-287.1026783859188
 31
0.0
  0
LINE
  5
347
330
1F
100
AcDbEntity
  8
D-0_通り芯
  6
Continuous
 62
     3
370
     9
100
AcDbLine
 10
-474.3600114163324
 20
-293.3263727189841
 30
0.0
 11
-468.1363170832673
 21
-287.1026783859189
 31
0.0
  0
LINE
  5
348
330
1F
100
AcDbEntity
  8
D-0_通り芯
  6
Continuous
 62
     3
370
     9
100
AcDbLine
 10
-474.9832371422719
 20
-290.4140645389903
 30
0.0
 11
-471.6718509892014
 21
-287.1026783859197
 31
0.0
  0
LINE
  5
349
330
1F
100
AcDbEntity
  8
D-0_通り芯
  6
Continuous
 62
     3
370
     9
100
AcDbLine
 10
-475.6064628682118
 20
-287.5017563589965
 30
0.0
 11
-475.2073848951342
 21
-287.1026783859191
 31
0.0
  0
LINE
  5
34A
330
1F
100
AcDbEntity
  8
D-0_通り芯
  6
Continuous
 62
     3
370
     9
100
AcDbLine
 10
-376.6085141095676
 20
-299.6028433458004
 30
0.0
 11
-375.5923549170153
 21
-298.5866841532477
 31
0.0
  0
LINE
  5
34B
330
1F
100
AcDbEntity
  8
D-0_通り芯
  6
Continuous
 62
     3
370
     9
100
AcDbLine
 10
-380.1440480155013
 20
-299.6028433458004
 30
0.0
 11
-374.6297702441875
 21
-294.0885655744867
 31
0.0
  0
LINE
  5
34C
330
1F
100
AcDbEntity
  8
D-0_通り芯
  6
Continuous
 62
     3
370
     9
100
AcDbLine
 10
-383.6795819214346
 20
-299.6028433458004
 30
0.0
 11
-373.6671855713599
 21
-289.5904469957258
 31
0.0
  0
LINE
  5
34D
330
1F
100
AcDbEntity
  8
D-0_通り芯
  6
Continuous
 62
     3
370
     9
100
AcDbLine
 10
-387.215115827368
 20
-299.6028433458005
 30
0.0
 11
-374.7149508674881
 21
-287.1026783859207
 31
0.0
  0
LINE
  5
34E
330
1F
100
AcDbEntity
  8
D-0_通り芯
  6
Continuous
 62
     3
370
     9
100
AcDbLine
 10
-388.0053338457925
 20
-296.8575274582919
 30
0.0
 11
-378.2504847734209
 21
-287.1026783859201
 31
0.0
  0
LINE
  5
34F
330
1F
100
AcDbEntity
  8
D-0_通り芯
  6
Continuous
 62
     3
370
     9
100
AcDbLine
 10
-387.0427491729664
 20
-292.3594088795323
 30
0.0
 11
-381.7860186793537
 21
-287.1026783859195
 31
0.0
  0
LINE
  5
350
330
1F
100
AcDbEntity
  8
D-0_通り芯
  6
Continuous
 62
     3
370
     9
100
AcDbLine
 10
-386.0801645001367
 20
-287.861290300769
 30
0.0
 11
-385.3215525852887
 21
-287.1026783859213
 31
0.0
  0
LINE
  5
351
330
1F
100
AcDbEntity
  8
D-0_通り芯
  6
Continuous
 62
     3
370
     9
100
AcDbLine
 10
-404.8927853570343
 20
-299.6028433458001
 30
0.0
 11
-402.6481659144717
 21
-297.3582239032376
 31
0.0
  0
LINE
  5
352
330
1F
100
AcDbEntity
  8
D-0_通り芯
  6
Continuous
 62
     3
370
     9
100
AcDbLine
 10
-408.4283192629568
 20
-299.6028433457986
 30
0.0
 11
-403.2713916404099
 21
-294.4459157232513
 31
0.0
  0
LINE
  5
353
330
1F
100
AcDbEntity
  8
D-0_通り芯
  6
Continuous
 62
     3
370
     9
100
AcDbLine
 10
-411.9638531688896
 20
-299.602843345798
 30
0.0
 11
-403.8946173663492
 21
-291.5336075432573
 31
0.0
  0
LINE
  5
354
330
1F
100
AcDbEntity
  8
D-0_通り芯
  6
Continuous
 62
     3
370
     9
100
AcDbLine
 10
-415.0475328079982
 20
-299.150989078973
 30
0.0
 11
-404.5178430922884
 21
-288.6212993632632
 31
0.0
  0
LINE
  5
355
330
1F
100
AcDbEntity
  8
D-0_通り芯
  6
Continuous
 62
     3
370
     9
100
AcDbLine
 10
-415.6707585339371
 20
-296.2386808989789
 30
0.0
 11
-406.5347560208771
 21
-287.1026783859188
 31
0.0
  0
LINE
  5
356
330
1F
100
AcDbEntity
  8
D-0_通り芯
  6
Continuous
 62
     3
370
     9
100
AcDbLine
 10
-416.2939842598759
 20
-293.3263727189841
 30
0.0
 11
-410.0702899268107
 21
-287.1026783859189
 31
0.0
  0
LINE
  5
357
330
1F
100
AcDbEntity
  8
D-0_通り芯
  6
Continuous
 62
     3
370
     9
100
AcDbLine
 10
-416.9172099858155
 20
-290.4140645389903
 30
0.0
 11
-413.6058238327446
 21
-287.1026783859197
 31
0.0
  0
LINE
  5
358
330
1F
100
AcDbEntity
  8
D-0_通り芯
  6
Continuous
 62
     3
370
     9
100
AcDbLine
 10
-417.540435711755
 20
-287.5017563589965
 30
0.0
 11
-417.1413577386774
 21
-287.1026783859191
 31
0.0
  0
LINE
  5
359
330
1F
100
AcDbEntity
  8
D-0_通り芯
  6
Continuous
 62
     3
370
     9
100
AcDbLine
 10
-318.5424869531112
 20
-299.6028433458004
 30
0.0
 11
-317.5263277605585
 21
-298.5866841532477
 31
0.0
  0
LINE
  5
35A
330
1F
100
AcDbEntity
  8
D-0_通り芯
  6
Continuous
 62
     3
370
     9
100
AcDbLine
 10
-322.0780208590445
 20
-299.6028433458004
 30
0.0
 11
-316.5637430877309
 21
-294.0885655744867
 31
0.0
  0
LINE
  5
35B
330
1F
100
AcDbEntity
  8
D-0_通り芯
  6
Continuous
 62
     3
370
     9
100
AcDbLine
 10
-325.6135547649781
 20
-299.6028433458004
 30
0.0
 11
-315.6011584149031
 21
-289.5904469957258
 31
0.0
  0
LINE
  5
35C
330
1F
100
AcDbEntity
  8
D-0_通り芯
  6
Continuous
 62
     3
370
     9
100
AcDbLine
 10
-329.1490886709114
 20
-299.6028433458005
 30
0.0
 11
-316.6489237110317
 21
-287.1026783859207
 31
0.0
  0
LINE
  5
35D
330
1F
100
AcDbEntity
  8
D-0_通り芯
  6
Continuous
 62
     3
370
     9
100
AcDbLine
 10
-329.939306689336
 20
-296.8575274582919
 30
0.0
 11
-320.1844576169641
 21
-287.1026783859201
 31
0.0
  0
LINE
  5
35E
330
1F
100
AcDbEntity
  8
D-0_通り芯
  6
Continuous
 62
     3
370
     9
100
AcDbLine
 10
-328.9767220165099
 20
-292.3594088795323
 30
0.0
 11
-323.7199915228969
 21
-287.1026783859195
 31
0.0
  0
LINE
  5
35F
330
1F
100
AcDbEntity
  8
D-0_通り芯
  6
Continuous
 62
     3
370
     9
100
AcDbLine
 10
-328.0141373436799
 20
-287.861290300769
 30
0.0
 11
-327.2555254288322
 21
-287.1026783859213
 31
0.0
  0
LINE
  5
360
330
1F
100
AcDbEntity
  8
D-0_通り芯
  6
Continuous
 62
     3
370
     9
100
AcDbLine
 10
-346.8267582005775
 20
-299.6028433458001
 30
0.0
 11
-344.5821387580152
 21
-297.3582239032376
 31
0.0
  0
LINE
  5
361
330
1F
100
AcDbEntity
  8
D-0_通り芯
  6
Continuous
 62
     3
370
     9
100
AcDbLine
 10
-350.3622921065004
 20
-299.6028433457986
 30
0.0
 11
-345.2053644839533
 21
-294.4459157232513
 31
0.0
  0
LINE
  5
362
330
1F
100
AcDbEntity
  8
D-0_通り芯
  6
Continuous
 62
     3
370
     9
100
AcDbLine
 10
-353.8978260124331
 20
-299.602843345798
 30
0.0
 11
-345.8285902098924
 21
-291.5336075432573
 31
0.0
  0
LINE
  5
363
330
1F
100
AcDbEntity
  8
D-0_通り芯
  6
Continuous
 62
     3
370
     9
100
AcDbLine
 10
-356.9815056515414
 20
-299.150989078973
 30
0.0
 11
-346.4518159358319
 21
-288.6212993632632
 31
0.0
  0
LINE
  5
364
330
1F
100
AcDbEntity
  8
D-0_通り芯
  6
Continuous
 62
     3
370
     9
100
AcDbLine
 10
-357.6047313774807
 20
-296.2386808989789
 30
0.0
 11
-348.4687288644205
 21
-287.1026783859188
 31
0.0
  0
LINE
  5
365
330
1F
100
AcDbEntity
  8
D-0_通り芯
  6
Continuous
 62
     3
370
     9
100
AcDbLine
 10
-358.227957103419
 20
-293.3263727189841
 30
0.0
 11
-352.0042627703539
 21
-287.1026783859189
 31
0.0
  0
LINE
  5
366
330
1F
100
AcDbEntity
  8
D-0_通り芯
  6
Continuous
 62
     3
370
     9
100
AcDbLine
 10
-358.8511828293589
 20
-290.4140645389903
 30
0.0
 11
-355.5397966762881
 21
-287.1026783859197
 31
0.0
  0
LINE
  5
367
330
1F
100
AcDbEntity
  8
D-0_通り芯
  6
Continuous
 62
     3
370
     9
100
AcDbLine
 10
-359.4744085552982
 20
-287.5017563589965
 30
0.0
 11
-359.0753305822209
 21
-287.1026783859191
 31
0.0
  0
LINE
  5
368
330
1F
100
AcDbEntity
  8
D-0_通り芯
  6
Continuous
 62
     3
370
     9
100
AcDbLine
 10
-300.7851556729021
 20
-290.4140645389903
 30
0.0
 11
-297.4737695198315
 21
-287.1026783859197
 31
0.0
  0
LINE
  5
369
330
1F
100
AcDbEntity
  8
D-0_通り芯
  6
Continuous
 62
     3
370
     9
100
AcDbLine
 10
-301.4083813988417
 20
-287.5017563589965
 30
0.0
 11
-301.0093034257643
 21
-287.1026783859191
 31
0.0
  0
LINE
  5
36A
330
1F
100
AcDbEntity
  8
D-0_通り芯
  6
Continuous
 62
     3
370
     9
100
AcDbLine
 10
-492.7405684224796
 20
-299.6028433458004
 30
0.0
 11
-491.7244092299269
 21
-298.5866841532477
 31
0.0
  0
LINE
  5
36B
330
1F
100
AcDbEntity
  8
D-0_通り芯
  6
Continuous
 62
     3
370
     9
100
AcDbLine
 10
-495.3803236927378
 20
-298.7070647101252
 30
0.0
 11
-490.7618245570991
 21
-294.0885655744867
 31
0.0
  0
LINE
  5
36C
330
1F
100
AcDbEntity
  8
D-0_通り芯
  6
Continuous
 62
     3
370
     9
100
AcDbLine
 10
-495.3803236927378
 20
-295.1715308041919
 30
0.0
 11
-489.7992398842716
 21
-289.5904469957258
 31
0.0
  0
LINE
  5
36D
330
1F
100
AcDbEntity
  8
D-0_通り芯
  6
Continuous
 62
     3
370
     9
100
AcDbLine
 10
-495.3803236927378
 20
-291.6359968982586
 30
0.0
 11
-490.8470051803998
 21
-287.1026783859207
 31
0.0
  0
LINE
  5
36E
330
1F
100
AcDbEntity
  8
D-0_通り芯
  6
Continuous
 62
     3
370
     9
100
AcDbLine
 10
-495.3803236927378
 20
-288.1004629923252
 30
0.0
 11
-494.3825390863326
 21
-287.1026783859201
 31
0.0
  0
LINE
  5
36F
330
1F
100
AcDbEntity
  8
D-0_通り芯
  6
Continuous
 62
     3
370
     9
100
AcDbLine
 10
-295.3803236927378
 20
-287.1026783859201
 30
0.0
 11
-495.3803236927378
 21
-287.1026783859201
 31
0.0
  0
LINE
  5
370
330
1F
100
AcDbEntity
  8
D-0_通り芯
  6
Continuous
 62
     3
370
     9
100
AcDbLine
 10
-295.3803236927378
 20
-299.6028433458018
 30
0.0
 11
-495.3803236927378
 21
-299.6028433458018
 31
0.0
  0
LINE
  5
371
330
1F
100
AcDbEntity
  8
D-0_通り芯
  6
Continuous
 62
     3
370
     9
100
AcDbLine
 10
-298.9154784950848
 20
-299.150989078973
 30
0.0
 11
-295.3803236927378
 21
-295.6158342766259
 31
0.0
  0
LINE
  5
372
330
1F
100
AcDbEntity
  8
D-0_通り芯
  6
Continuous
 62
     3
370
     9
100
AcDbLine
 10
-299.5387042210241
 20
-296.2386808989789
 30
0.0
 11
-295.3803236927378
 21
-292.0803003706926
 31
0.0
  0
LINE
  5
373
330
1F
100
AcDbEntity
  8
D-0_通り芯
  6
Continuous
 62
     3
370
     9
100
AcDbLine
 10
-300.1619299469622
 20
-293.3263727189841
 30
0.0
 11
-295.3803236927378
 21
-288.5447664647593
 31
0.0
  0
LINE
  5
374
330
1F
100
AcDbEntity
  8
D-0_通り芯
  6
Continuous
 62
     3
370
     9
100
AcDbLine
 10
-295.8317988559763
 20
-299.602843345798
 30
0.0
 11
-295.3803236927378
 21
-299.1513681825593
 31
0.0
  0
LINE
  5
375
330
1F
100
AcDbEntity
  8
D-4_寸法
  6
Continuous
 62
     7
370
     9
100
AcDbLine
 10
-232.8804061726784
 20
-327.1028433458018
 30
0.0
 11
-245.3803236927378
 21
-327.1028433458018
 31
0.0
  0
LINE
  5
376
330
1F
100
AcDbEntity
  8
D-4_寸法
  6
Continuous
 62
     7
370
     9
100
AcDbLine
 10
-232.8804061726784
 20
-327.1028433458018
 30
0.0
 11
-220.4873454055057
 21
-325.4712659430511
 31
0.0
  0
LINE
  5
377
330
1F
100
AcDbEntity
  8
D-4_寸法
  6
Continuous
 62
     7
370
     9
100
AcDbLine
 10
-232.8804061726784
 20
-327.1028433458018
 30
0.0
 11
-220.4873454055057
 21
-328.7344207485525
 31
0.0
  0
LINE
  5
378
330
1F
100
AcDbEntity
  8
D-4_寸法
  6
Continuous
 62
     7
370
     9
100
AcDbLine
 10
-245.3803236927378
 20
-327.1028433458018
 30
0.0
 11
-257.7733844599105
 21
-325.4712659430511
 31
0.0
  0
LINE
  5
379
330
1F
100
AcDbEntity
  8
D-4_寸法
  6
Continuous
 62
     7
370
     9
100
AcDbLine
 10
-245.3803236927378
 20
-327.1028433458018
 30
0.0
 11
-257.7733844599105
 21
-328.7344207485525
 31
0.0
  0
LINE
  5
37A
330
1F
100
AcDbEntity
  8
D-4_寸法
  6
Continuous
 62
     7
370
     9
100
AcDbLine
 10
-232.8804061726784
 20
-325.6028433458017
 30
0.0
 11
-232.8804061726784
 21
-339.6028433458018
 31
0.0
  0
LINE
  5
37B
330
1F
100
AcDbEntity
  8
D-4_寸法
  6
Continuous
 62
     7
370
     9
100
AcDbLine
 10
-245.3803236927378
 20
-325.6028433458017
 30
0.0
 11
-245.3803236927378
 21
-339.6028433458018
 31
0.0
  0
TEXT
  5
37C
330
1F
100
AcDbEntity
  8
D-4_寸法
  6
Continuous
 62
     2
370
   211
100
AcDbText
 10
-244.1303649327081
 20
-321.2828433458018
 30
0.0
 40
15.24
  1
5
 41
0.9999999999999998
  7
ＭＳ ゴシック
100
AcDbText
  0
LINE
  5
37D
330
1F
100
AcDbEntity
  8
D-4_寸法
  6
Continuous
 62
     7
370
     9
100
AcDbLine
 10
-245.3803236927378
 20
-327.1028433458018
 30
0.0
 11
-260.3803236927378
 21
-327.1028433458018
 31
0.0
  0
LINE
  5
37E
330
1F
100
AcDbEntity
  8
D-4_寸法
  6
Continuous
 62
     7
370
     9
100
AcDbLine
 10
-232.8804061726784
 20
-327.1028433458018
 30
0.0
 11
-217.8804061726784
 21
-327.1028433458018
 31
0.0
  0
LINE
  5
37F
330
1F
100
AcDbEntity
  8
D-4_寸法
  6
Continuous
 62
     7
370
     9
100
AcDbLine
 10
-337.8240170064045
 20
-328.9386488430821
 30
0.0
 11
-350.047269296938
 21
-331.5543903138639
 31
0.0
  0
LINE
  5
380
330
1F
100
AcDbEntity
  8
D-4_寸法
  6
Continuous
 62
     7
370
     9
100
AcDbLine
 10
-337.8240170064045
 20
-328.9386488430821
 30
0.0
 11
-326.0467591076928
 21
-324.7498308251647
 31
0.0
  0
LINE
  5
381
330
1F
100
AcDbEntity
  8
D-4_寸法
  6
Continuous
 62
     7
370
     9
100
AcDbLine
 10
-337.8240170064045
 20
-328.9386488430821
 30
0.0
 11
-325.3639135596661
 21
-327.9407399812214
 31
0.0
  0
LINE
  5
382
330
1F
100
AcDbEntity
  8
D-4_寸法
  6
Continuous
 62
     7
370
     9
100
AcDbLine
 10
-350.047269296938
 20
-331.5543903138639
 30
0.0
 11
-362.5073727436763
 21
-332.5522991757247
 31
0.0
  0
LINE
  5
383
330
1F
100
AcDbEntity
  8
D-4_寸法
  6
Continuous
 62
     7
370
     9
100
AcDbLine
 10
-350.047269296938
 20
-331.5543903138639
 30
0.0
 11
-361.82452719565
 21
-335.7432083317814
 31
0.0
  0
LINE
  5
384
330
1F
100
AcDbEntity
  8
D-4_寸法
  6
Continuous
 62
     7
370
     9
100
AcDbLine
 10
-337.5101280299107
 20
-330.4054391179461
 30
0.0
 11
-342.0092033596557
 21
-309.3814451782287
 31
0.0
  0
LINE
  5
385
330
1F
100
AcDbEntity
  8
D-4_寸法
  6
Continuous
 62
     7
370
     9
100
AcDbLine
 10
-349.7333803204442
 20
-333.021180588728
 30
0.0
 11
-354.7922169378841
 21
-309.3814451782287
 31
0.0
  0
TEXT
  5
386
330
1F
100
AcDbEntity
  8
D-4_寸法
  6
Continuous
 62
     2
370
   211
100
AcDbText
 10
-350.0428332966806
 20
-325.6016699003134
 30
0.0
 40
15.24
  1
5
 50
12.07894990907534
 41
0.9999999999999754
  7
ＭＳ ゴシック
100
AcDbText
  0
LINE
  5
387
330
1F
100
AcDbEntity
  8
D-4_寸法
  6
Continuous
 62
     7
370
     9
100
AcDbLine
 10
-337.8240170064045
 20
-328.9386488430821
 30
0.0
 11
-323.1561142577646
 21
-325.7997590781439
 31
0.0
  0
LINE
  5
388
330
1F
100
AcDbEntity
  8
D-4_寸法
  6
Continuous
 62
     7
370
     9
100
AcDbLine
 10
-350.047269296938
 20
-331.5543903138639
 30
0.0
 11
-364.7151720455782
 21
-334.6932800788022
 31
0.0
  0
LINE
  5
389
330
1F
100
AcDbEntity
  8
D-4_寸法
  6
Continuous
 62
     7
370
     9
100
AcDbLine
 10
-517.8803236927378
 20
-287.1026783859201
 30
0.0
 11
-517.8803236927378
 21
-299.6028433458018
 31
0.0
  0
LINE
  5
38A
330
1F
100
AcDbEntity
  8
D-4_寸法
  6
Continuous
 62
     7
370
     9
100
AcDbLine
 10
-517.8803236927378
 20
-287.1026783859201
 30
0.0
 11
-519.5119010954885
 21
-274.7096176187473
 31
0.0
  0
LINE
  5
38B
330
1F
100
AcDbEntity
  8
D-4_寸法
  6
Continuous
 62
     7
370
     9
100
AcDbLine
 10
-517.8803236927378
 20
-287.1026783859201
 30
0.0
 11
-516.2487462899871
 21
-274.7096176187473
 31
0.0
  0
LINE
  5
38C
330
1F
100
AcDbEntity
  8
D-4_寸法
  6
Continuous
 62
     7
370
     9
100
AcDbLine
 10
-517.8803236927378
 20
-299.6028433458018
 30
0.0
 11
-519.5119010954885
 21
-311.9959041129745
 31
0.0
  0
LINE
  5
38D
330
1F
100
AcDbEntity
  8
D-4_寸法
  6
Continuous
 62
     7
370
     9
100
AcDbLine
 10
-517.8803236927378
 20
-299.6028433458018
 30
0.0
 11
-516.2487462899871
 21
-311.9959041129745
 31
0.0
  0
LINE
  5
38E
330
1F
100
AcDbEntity
  8
D-4_寸法
  6
Continuous
 62
     7
370
     9
100
AcDbLine
 10
-519.3803236927375
 20
-287.1026783859201
 30
0.0
 11
-505.3803236927378
 21
-287.1026783859201
 31
0.0
  0
LINE
  5
38F
330
1F
100
AcDbEntity
  8
D-4_寸法
  6
Continuous
 62
     7
370
     9
100
AcDbLine
 10
-519.3803236927375
 20
-299.6028433458018
 30
0.0
 11
-505.3803236927378
 21
-299.6028433458018
 31
0.0
  0
TEXT
  5
390
330
1F
100
AcDbEntity
  8
D-4_寸法
  6
Continuous
 62
     2
370
   211
100
AcDbText
 10
-523.7003236927377
 20
-298.3527608658609
 30
0.0
 40
15.24
  1
5
 50
90.0
 41
0.9999999999999998
  7
ＭＳ ゴシック
100
AcDbText
  0
LINE
  5
391
330
1F
100
AcDbEntity
  8
D-4_寸法
  6
Continuous
 62
     7
370
     9
100
AcDbLine
 10
-517.8803236927378
 20
-299.6028433458018
 30
0.0
 11
-517.8803236927378
 21
-314.6028433458018
 31
0.0
  0
LINE
  5
392
330
1F
100
AcDbEntity
  8
D-4_寸法
  6
Continuous
 62
     7
370
     9
100
AcDbLine
 10
-517.8803236927378
 20
-287.1026783859201
 30
0.0
 11
-517.8803236927378
 21
-272.1026783859201
 31
0.0
  0
LINE
  5
393
330
1F
100
AcDbEntity
  8
D-4_寸法
  6
Continuous
 62
     7
370
     9
100
AcDbLine
 10
-327.8517965362811
 20
-264.6026783859201
 30
0.0
 11
-346.7767965362812
 21
-264.6026783859201
 31
0.0
  0
LINE
  5
394
330
1F
100
AcDbEntity
  8
D-4_寸法
  6
Continuous
 62
     7
370
     9
100
AcDbLine
 10
-327.8517965362811
 20
-264.6026783859201
 30
0.0
 11
-315.4587357691083
 21
-262.9711009831693
 31
0.0
  0
LINE
  5
395
330
1F
100
AcDbEntity
  8
D-4_寸法
  6
Continuous
 62
     7
370
     9
100
AcDbLine
 10
-346.7767965362812
 20
-264.6026783859201
 30
0.0
 11
-359.1698573034536
 21
-262.9711009831693
 31
0.0
  0
LINE
  5
396
330
1F
100
AcDbEntity
  8
D-4_寸法
  6
Continuous
 62
     7
370
     9
100
AcDbLine
 10
-327.8517965362811
 20
-263.1026783859199
 30
0.0
 11
-327.8517965362811
 21
-277.1026783859201
 31
0.0
  0
LINE
  5
397
330
1F
100
AcDbEntity
  8
D-4_寸法
  6
Continuous
 62
     7
370
     9
100
AcDbLine
 10
-346.7767965362812
 20
-263.1026783859199
 30
0.0
 11
-346.7767965362812
 21
-277.1026783859201
 31
0.0
  0
TEXT
  5
398
330
1F
100
AcDbEntity
  8
D-4_寸法
  6
Continuous
 62
     2
370
   211
100
AcDbText
 10
-353.5642965362809
 20
-258.7826783859201
 30
0.0
 40
15.24
  1
7.6
 41
1.083333333333333
  7
ＭＳ ゴシック
100
AcDbText
  0
LINE
  5
399
330
1F
100
AcDbEntity
  8
D-4_寸法
  6
Continuous
 62
     7
370
     9
100
AcDbLine
 10
-346.7767965362812
 20
-264.6026783859201
 30
0.0
 11
-359.1698573034536
 21
-266.2342557886707
 31
0.0
  0
LINE
  5
39A
330
1F
100
AcDbEntity
  8
D-4_寸法
  6
Continuous
 62
     7
370
     9
100
AcDbLine
 10
-327.8517965362811
 20
-264.6026783859201
 30
0.0
 11
-315.4587357691083
 21
-266.2342557886707
 31
0.0
  0
LINE
  5
39B
330
1F
100
AcDbEntity
  8
D-4_寸法
  6
Continuous
 62
     7
370
     9
100
AcDbLine
 10
-417.6258372709661
 20
-264.6026783859201
 30
0.0
 11
-431.200837270966
 21
-264.6026783859201
 31
0.0
  0
LINE
  5
39C
330
1F
100
AcDbEntity
  8
D-4_寸法
  6
Continuous
 62
     7
370
     9
100
AcDbLine
 10
-417.6258372709661
 20
-264.6026783859201
 30
0.0
 11
-405.2327765037934
 21
-262.9711009831693
 31
0.0
  0
LINE
  5
39D
330
1F
100
AcDbEntity
  8
D-4_寸法
  6
Continuous
 62
     7
370
     9
100
AcDbLine
 10
-417.6258372709661
 20
-264.6026783859201
 30
0.0
 11
-405.2327765037934
 21
-266.2342557886707
 31
0.0
  0
LINE
  5
39E
330
1F
100
AcDbEntity
  8
D-4_寸法
  6
Continuous
 62
     7
370
     9
100
AcDbLine
 10
-431.200837270966
 20
-264.6026783859201
 30
0.0
 11
-443.5938980381387
 21
-262.9711009831693
 31
0.0
  0
LINE
  5
39F
330
1F
100
AcDbEntity
  8
D-4_寸法
  6
Continuous
 62
     7
370
     9
100
AcDbLine
 10
-431.200837270966
 20
-264.6026783859201
 30
0.0
 11
-443.5938980381387
 21
-266.2342557886707
 31
0.0
  0
LINE
  5
3A0
330
1F
100
AcDbEntity
  8
D-4_寸法
  6
Continuous
 62
     7
370
     9
100
AcDbLine
 10
-417.6258372709661
 20
-263.1026783859199
 30
0.0
 11
-417.6258372709661
 21
-277.1026783859201
 31
0.0
  0
LINE
  5
3A1
330
1F
100
AcDbEntity
  8
D-4_寸法
  6
Continuous
 62
     7
370
     9
100
AcDbLine
 10
-431.200837270966
 20
-263.1026783859199
 30
0.0
 11
-431.200837270966
 21
-277.1026783859201
 31
0.0
  0
TEXT
  5
3A2
330
1F
100
AcDbEntity
  8
D-4_寸法
  6
Continuous
 62
     2
370
   211
100
AcDbText
 10
-440.6633372709662
 20
-258.7826783859201
 30
0.0
 40
15.24
  1
5.4
 41
1.083333333333333
  7
ＭＳ ゴシック
100
AcDbText
  0
LINE
  5
3A3
330
1F
100
AcDbEntity
  8
D-4_寸法
  6
Continuous
 62
     7
370
     9
100
AcDbLine
 10
-431.200837270966
 20
-264.6026783859201
 30
0.0
 11
-446.200837270966
 21
-264.6026783859201
 31
0.0
  0
LINE
  5
3A4
330
1F
100
AcDbEntity
  8
D-4_寸法
  6
Continuous
 62
     7
370
     9
100
AcDbLine
 10
-417.6258372709661
 20
-264.6026783859201
 30
0.0
 11
-402.6258372709661
 21
-264.6026783859201
 31
0.0
  0
LINE
  5
3A5
330
1F
100
AcDbEntity
  8
D-4_寸法
  6
Continuous
 62
     7
370
     9
100
AcDbLine
 10
-327.8517965362811
 20
-264.6026783859201
 30
0.0
 11
-312.8517965362811
 21
-264.6026783859201
 31
0.0
  0
LINE
  5
3A6
330
1F
100
AcDbEntity
  8
D-4_寸法
  6
Continuous
 62
     7
370
     9
100
AcDbLine
 10
-346.7767965362812
 20
-264.6026783859201
 30
0.0
 11
-361.7767965362812
 21
-264.6026783859201
 31
0.0
  0
LINE
  5
3A7
330
1F
100
AcDbEntity
  8
D-4_寸法
  6
Continuous
 62
     7
370
     9
100
AcDbLine
 10
-185.3804061726784
 20
-353.3525464180145
 30
0.0
 11
-187.0119835754291
 21
-365.7456071851873
 31
0.0
  0
LINE
  5
3A8
330
1F
100
AcDbEntity
  8
D-4_寸法
  6
Continuous
 62
     7
370
     9
100
AcDbLine
 10
-185.3804061726784
 20
-353.3525464180145
 30
0.0
 11
-183.7488287699277
 21
-365.7456071851873
 31
0.0
  0
LINE
  5
3A9
330
1F
100
AcDbEntity
  8
D-4_寸法
  6
Continuous
 62
     7
370
     9
100
AcDbLine
 10
-183.8804061726783
 20
-353.3525464180145
 30
0.0
 11
-222.8804061726784
 21
-353.3525464180145
 31
0.0
  0
LINE
  5
3AA
330
1F
100
AcDbEntity
  8
D-0_通り芯
  6
Continuous
 62
     3
370
     9
100
AcDbLine
 10
-295.3803236927378
 20
-368.3525464180145
 30
0.0
 11
-495.3803236927378
 21
-368.3525464180145
 31
0.0
  0
LINE
  5
3AB
330
1F
100
AcDbEntity
  8
D-0_通り芯
  6
Continuous
 62
     3
370
     9
100
AcDbLine
 10
-295.3803236927378
 20
-370.8524309460973
 30
0.0
 11
-495.3803236927378
 21
-370.8524309460973
 31
0.0
  0
LINE
  5
3AC
330
1F
100
AcDbEntity
  8
D-0_通り芯
  6
Continuous
 62
     3
370
     9
100
AcDbLine
 10
-245.3803236927378
 20
-368.3525464180145
 30
0.0
 11
-245.3803236927378
 21
-353.3525464180145
 31
0.0
  0
LINE
  5
3AD
330
1F
100
AcDbEntity
  8
D-0_通り芯
  6
Continuous
 62
     3
370
     9
100
AcDbLine
 10
-245.3803236927378
 20
-368.3525464180145
 30
0.0
 11
-242.880439164655
 21
-370.8524309460973
 31
0.0
  0
LINE
  5
3AE
330
1F
100
AcDbEntity
  8
D-0_通り芯
  6
Continuous
 62
     3
370
     9
100
AcDbLine
 10
-235.3805381405839
 20
-370.8524309460973
 30
0.0
 11
-232.8804061726784
 21
-368.3525464180145
 31
0.0
  0
LINE
  5
3AF
330
1F
100
AcDbEntity
  8
D-0_通り芯
  6
Continuous
 62
     3
370
     9
100
AcDbLine
 10
-232.8804061726784
 20
-353.3525464180145
 30
0.0
 11
-232.8804061726784
 21
-368.3525464180145
 31
0.0
  0
LINE
  5
3B0
330
1F
100
AcDbEntity
  8
D-0_通り芯
  6
Continuous
 62
     3
370
     9
100
AcDbLine
 10
-295.3803236927378
 20
-418.3527526178669
 30
0.0
 11
-495.3803236927378
 21
-418.3527526178669
 31
0.0
  0
LINE
  5
3B1
330
1F
100
AcDbEntity
  8
D-0_通り芯
  6
Continuous
 62
     3
370
     9
100
AcDbLine
 10
-295.3803236927378
 20
-415.8528680897841
 30
0.0
 11
-495.3803236927378
 21
-415.8528680897841
 31
0.0
  0
LINE
  5
3B2
330
1F
100
AcDbEntity
  8
D-0_通り芯
  6
Continuous
 62
     3
370
     9
100
AcDbLine
 10
-232.8804061726784
 20
-418.3527526178669
 30
0.0
 11
-232.8804061726784
 21
-433.3527526178669
 31
0.0
  0
LINE
  5
3B3
330
1F
100
AcDbEntity
  8
D-0_通り芯
  6
Continuous
 62
     3
370
     9
100
AcDbLine
 10
-235.3805381405839
 20
-415.8526206499614
 30
0.0
 11
-232.8804061726784
 21
-418.3527526178669
 31
0.0
  0
LINE
  5
3B4
330
1F
100
AcDbEntity
  8
D-0_通り芯
  6
Continuous
 62
     3
370
     9
100
AcDbLine
 10
-245.3803236927378
 20
-433.3527526178669
 30
0.0
 11
-245.3803236927378
 21
-418.3527526178669
 31
0.0
  0
LINE
  5
3B5
330
1F
100
AcDbEntity
  8
D-0_通り芯
  6
Continuous
 62
     3
370
     9
100
AcDbLine
 10
-245.3803236927378
 20
-418.3527526178669
 30
0.0
 11
-242.880439164655
 21
-415.8526206499614
 31
0.0
  0
LINE
  5
3B6
330
1F
100
AcDbEntity
  8
D-0_通り芯
  6
Continuous
 62
     3
370
     9
100
AcDbLine
 10
-242.880439164655
 20
-415.8526206499614
 30
0.0
 11
-242.880439164655
 21
-370.8524309460973
 31
0.0
  0
LINE
  5
3B7
330
1F
100
AcDbEntity
  8
D-0_通り芯
  6
Continuous
 62
     3
370
     9
100
AcDbLine
 10
-235.3805381405839
 20
-370.8524309460973
 30
0.0
 11
-235.3805381405839
 21
-415.8526206499614
 31
0.0
  0
LINE
  5
3B8
330
1F
100
AcDbEntity
  8
D-4_寸法
  6
Continuous
 62
     7
370
     9
100
AcDbLine
 10
-235.3805381405839
 20
-405.8525257980294
 30
0.0
 11
-242.880439164655
 21
-405.8525257980294
 31
0.0
  0
LINE
  5
3B9
330
1F
100
AcDbEntity
  8
D-4_寸法
  6
Continuous
 62
     7
370
     9
100
AcDbLine
 10
-235.3805381405839
 20
-405.8525257980294
 30
0.0
 11
-222.9874773734112
 21
-404.2209483952787
 31
0.0
  0
LINE
  5
3BA
330
1F
100
AcDbEntity
  8
D-4_寸法
  6
Continuous
 62
     7
370
     9
100
AcDbLine
 10
-235.3805381405839
 20
-405.8525257980294
 30
0.0
 11
-222.9874773734112
 21
-407.4841032007801
 31
0.0
  0
LINE
  5
3BB
330
1F
100
AcDbEntity
  8
D-4_寸法
  6
Continuous
 62
     7
370
     9
100
AcDbLine
 10
-242.880439164655
 20
-405.8525257980294
 30
0.0
 11
-255.2734999318277
 21
-404.2209483952787
 31
0.0
  0
LINE
  5
3BC
330
1F
100
AcDbEntity
  8
D-4_寸法
  6
Continuous
 62
     7
370
     9
100
AcDbLine
 10
-242.880439164655
 20
-405.8525257980294
 30
0.0
 11
-255.2734999318277
 21
-407.4841032007801
 31
0.0
  0
TEXT
  5
3BD
330
1F
100
AcDbEntity
  8
D-4_寸法
  6
Continuous
 62
     2
370
   211
100
AcDbText
 10
-231.6304886526196
 20
-400.0325257980294
 30
0.0
 40
15.24
  1
3
 41
0.9999999999999998
  7
ＭＳ ゴシック
100
AcDbText
  0
LINE
  5
3BE
330
1F
100
AcDbEntity
  8
D-4_寸法
  6
Continuous
 62
     7
370
     9
100
AcDbLine
 10
-242.880439164655
 20
-405.8525257980294
 30
0.0
 11
-257.8804391646549
 21
-405.8525257980294
 31
0.0
  0
LINE
  5
3BF
330
1F
100
AcDbEntity
  8
D-4_寸法
  6
Continuous
 62
     7
370
     9
100
AcDbLine
 10
-235.3805381405839
 20
-405.8525257980294
 30
0.0
 11
-215.3805381405839
 21
-405.8525257980294
 31
0.0
  0
LINE
  5
3C0
330
1F
100
AcDbEntity
  8
D-4_寸法
  6
Continuous
 62
     7
370
     9
100
AcDbLine
 10
-185.3804061726784
 20
-433.3527526178669
 30
0.0
 11
-185.3804061726784
 21
-353.3525464180145
 31
0.0
  0
TEXT
  5
3C1
330
1F
100
AcDbEntity
  8
D-4_寸法
  6
Continuous
 62
     2
370
   211
100
AcDbText
 10
-191.2004061726785
 20
-403.9776495179407
 30
0.0
 40
15.24
  1
32
 50
90.0
 41
1.0625
  7
ＭＳ ゴシック
100
AcDbText
  0
TEXT
  5
3C2
330
1F
100
AcDbEntity
  8
D-4_寸法
  6
Continuous
 62
     2
370
     9
100
AcDbText
 10
281.2269927192709
 20
-486.1339944521641
 30
0.0
 40
15.24
  1
処理：樹脂系塗装
 41
1.109375
  7
ＭＳ ゴシック
100
AcDbText
  0
TEXT
  5
3C3
330
1F
100
AcDbEntity
  8
B-4_寸法
  6
Continuous
 62
     2
370
   211
100
AcDbText
 10
-572.6522216796875
 20
417.754029244088
 30
0.0
 40
15.24
  1
15
 41
1.0625
  7
ＭＳ ゴシック
100
AcDbText
  0
TEXT
  5
3C4
330
1F
100
AcDbEntity
  8
B-4_寸法
  6
Continuous
 62
     2
370
   211
100
AcDbText
 10
-630.4368335620777
 20
-123.781607039168
 30
0.0
 40
15.24
  1
6
 41
0.9999999999999998
  7
ＭＳ ゴシック
100
AcDbText
  0
TEXT
  5
3C5
330
1F
100
AcDbEntity
  8
B-4_寸法
  6
Continuous
 62
     2
370
   211
100
AcDbText
 10
-189.7607372387034
 20
-123.781607039168
 30
0.0
 40
15.24
  1
6
 41
0.9999999999999998
  7
ＭＳ ゴシック
100
AcDbText
  0
TEXT
  5
3C6
330
1F
100
AcDbEntity
  8
B-5_仕様文
  6
Continuous
 62
     7
370
   211
100
AcDbText
 10
-221.8102983373703
 20
586.895492230923
 30
0.0
 40
11.43
  1
クロスバー φ６ ＠100
 41
1.158730158730159
  7
ＭＳ ゴシック
100
AcDbText
  0
TEXT
  5
3C7
330
1F
100
AcDbEntity
  8
B-5_仕様文
  6
Continuous
 62
     7
370
   211
100
AcDbText
 10
-256.1254658377936
 20
635.4121454825736
 30
0.0
 40
11.43
  1
エンドプレート ＦＢ4.5×25
 41
1.16025641025641
  7
ＭＳ ゴシック
100
AcDbText
  0
TEXT
  5
3C8
330
1F
100
AcDbEntity
  8
B-5_仕様文
  6
Continuous
 62
     7
370
   211
100
AcDbText
 10
-202.6327455859736
 20
540.2448641043359
 30
0.0
 40
11.43
  1
メインバー ＤⅠ－３２ ＠15
 41
1.16025641025641
  7
ＭＳ ゴシック
100
AcDbText
  0
TEXT
  5
3C9
330
1F
100
AcDbEntity
  8
B-5_仕様文
  6
Continuous
 62
     7
370
   211
100
AcDbText
 10
179.3883298884515
 20
539.1654966300345
 30
0.0
 40
11.43
  1
受枠：Ｌ－３２
 41
1.142857142857143
  7
ＭＳ ゴシック
100
AcDbText
  0
TEXT
  5
3CA
330
1F
100
AcDbEntity
  8
B-5_仕様文
  6
Continuous
 62
     7
370
     9
100
AcDbText
 10
169.2662525906107
 20
516.2975416660211
 30
0.0
 40
11.43
  1
（四方受四方枠）
 41
1.145833333333333
  7
ＭＳ ゴシック
100
AcDbText
  0
TEXT
  5
3CB
330
1F
100
AcDbEntity
  8
B-5_仕様文
  6
Continuous
 62
     7
370
   211
100
AcDbText
 10
518.807969202551
 20
479.3009570209475
 30
0.0
 40
11.43
  1
アンカー：φ９
 41
1.142857142857143
  7
ＭＳ ゴシック
100
AcDbText
  0
TEXT
  5
3CC
330
1F
100
AcDbEntity
  8
B-4_寸法
  6
Continuous
 62
     2
370
     9
100
AcDbText
 10
-594.6324347418708
 20
-123.781607039168
 30
0.0
 40
15.24
  1
6.5
 41
1.083333333333333
  7
ＭＳ ゴシック
100
AcDbText
  0
TEXT
  5
3CD
330
1F
100
AcDbEntity
  8
B-4_寸法
  6
Continuous
 62
     2
370
     9
100
AcDbText
 10
-245.773165316195
 20
-123.7816070391681
 30
0.0
 40
15.24
  1
6.5
 41
1.083333333333333
  7
ＭＳ ゴシック
100
AcDbText
  0
TEXT
  5
3CE
330
1F
100
AcDbEntity
  8
B-4_寸法
  6
Continuous
 62
     2
370
     9
100
AcDbText
 10
307.7962637246622
 20
376.0810810810812
 30
0.0
 40
15.24
  1
4
 50
90.0
 41
0.9999999999999998
  7
ＭＳ ゴシック
100
AcDbText
  0
TEXT
  5
3CF
330
1F
100
AcDbEntity
  8
B-4_寸法
  6
Continuous
 62
     2
370
   211
100
AcDbText
 10
307.7962637246622
 20
397.4471138619089
 30
0.0
 40
15.24
  1
6
 50
90.0
 41
0.9999999999999998
  7
ＭＳ ゴシック
100
AcDbText
  0
TEXT
  5
3D0
330
1F
100
AcDbEntity
  8
B-4_寸法
  6
Continuous
 62
     2
370
     9
100
AcDbText
 10
307.7962637246622
 20
-17.19813991237328
 30
0.0
 40
15.24
  1
4
 50
90.0
 41
0.9999999999999998
  7
ＭＳ ゴシック
100
AcDbText
  0
TEXT
  5
3D1
330
1F
100
AcDbEntity
  8
B-4_寸法
  6
Continuous
 62
     2
370
   211
100
AcDbText
 10
307.7962637246622
 20
-42.81855402766047
 30
0.0
 40
15.24
  1
6
 50
90.0
 41
0.9999999999999998
  7
ＭＳ ゴシック
100
AcDbText
  0
TEXT
  5
3D2
330
1F
100
AcDbEntity
  8
D-4_寸法
  6
Continuous
 62
     2
370
   211
100
AcDbText
 10
233.4377025746339
 20
-283.1297697936248
 30
0.0
 40
15.24
  1
仕　様
 41
1.083333333333333
  7
ＭＳ ゴシック
100
AcDbText
  0
ENDSEC
  0
SECTION
  2
OBJECTS
  0
DICTIONARY
  5
C
330
0
100
AcDbDictionary
281
     1
  3
ACAD_DETAILVIEWSTYLE
350
418
  3
ACAD_GROUP
350
D
  3
ACAD_LAYOUT
350
1A
  3
ACAD_MATERIAL
350
43
  3
ACAD_MLEADERSTYLE
350
6B
  3
ACAD_MLINESTYLE
350
17
  3
ACAD_PLOTSETTINGS
350
19
  3
ACAD_PLOTSTYLENAME
350
E
  3
ACAD_SCALELIST
350
47
  3
ACAD_SECTIONVIEWSTYLE
350
419
  3
ACAD_TABLESTYLE
350
69
  3
ACAD_VISUALSTYLE
350
2A
  3
ACDB_RECOMPOSE_DATA
350
415
  3
AcDbVariableDictionary
350
3D5
  0
DICTIONARY
  5
3D3
330
8
100
AcDbDictionary
280
     1
281
     1
  3
ACAD_XREC_ROUNDTRIP
360
3D4
  0
DICTIONARY
  5
418
102
{ACAD_REACTORS
330
C
102
}
330
C
100
AcDbDictionary
281
     1
  0
DICTIONARY
  5
D
102
{ACAD_REACTORS
330
C
102
}
330
C
100
AcDbDictionary
281
     1
  0
DICTIONARY
  5
1A
102
{ACAD_REACTORS
330
C
102
}
330
C
100
AcDbDictionary
281
     1
  3
Layout1
350
1E
  3
Layout2
350
26
  3
Model
350
22
  0
DICTIONARY
  5
43
102
{ACAD_REACTORS
330
C
102
}
330
C
100
AcDbDictionary
281
     1
  3
ByBlock
350
45
  3
ByLayer
350
44
  3
Global
350
46
  0
DICTIONARY
  5
6B
102
{ACAD_REACTORS
330
C
102
}
330
C
100
AcDbDictionary
281
     1
  3
Standard
350
6C
  0
DICTIONARY
  5
17
102
{ACAD_REACTORS
330
C
102
}
330
C
100
AcDbDictionary
281
     1
  3
Standard
350
18
  0
DICTIONARY
  5
19
102
{ACAD_REACTORS
330
C
102
}
330
C
100
AcDbDictionary
281
     1
  0
ACDBDICTIONARYWDFLT
  5
E
102
{ACAD_REACTORS
330
C
102
}
330
C
100
AcDbDictionary
281
     1
  3
Normal
350
F
100
AcDbDictionaryWithDefault
340
F
  0
DICTIONARY
  5
47
102
{ACAD_REACTORS
330
C
102
}
330
C
100
AcDbDictionary
281
     1
  3
A0
350
48
  3
A1
350
49
  3
A2
350
4A
  3
A3
350
4B
  3
A4
350
4C
  3
A5
350
4D
  3
A6
350
4E
  3
A7
350
4F
  3
A8
350
50
  3
A9
350
51
  3
B0
350
52
  3
B1
350
53
  3
B2
350
54
  3
B3
350
55
  3
B4
350
56
  3
B5
350
57
  3
B6
350
58
  3
B7
350
59
  3
B8
350
5A
  3
B9
350
5B
  3
C0
350
5C
  3
C1
350
5D
  3
C2
350
5E
  3
C3
350
5F
  3
C4
350
60
  3
C5
350
61
  3
C6
350
62
  3
C7
350
63
  3
C8
350
64
  3
C9
350
65
  3
D0
350
66
  3
D1
350
67
  3
D2
350
68
  0
DICTIONARY
  5
419
102
{ACAD_REACTORS
330
C
102
}
330
C
100
AcDbDictionary
281
     1
  0
DICTIONARY
  5
69
102
{ACAD_REACTORS
330
C
102
}
330
C
100
AcDbDictionary
281
     1
  3
Standard
350
6A
  0
DICTIONARY
  5
2A
102
{ACAD_REACTORS
330
C
102
}
330
C
100
AcDbDictionary
281
     1
  3
2dWireframe
350
2F
  3
Basic
350
32
  3
Brighten
350
36
  3
ColorChange
350
3A
  3
Conceptual
350
34
  3
Dim
350
35
  3
EdgeColorOff
350
3D
  3
Facepattern
350
39
  3
Flat
350
2B
  3
FlatWithEdges
350
2C
  3
Gouraud
350
2D
  3
GouraudWithEdges
350
2E
  3
Hidden
350
31
  3
JitterOff
350
3B
  3
Linepattern
350
38
  3
OverhangOff
350
3C
  3
Realistic
350
33
  3
Shaded
350
42
  3
Shaded with edges
350
41
  3
Shades of Gray
350
3E
  3
Sketchy
350
3F
  3
Thicken
350
37
  3
Wireframe
350
30
  3
X-Ray
350
40
  0
XRECORD
  5
415
102
{ACAD_REACTORS
330
C
102
}
330
C
100
AcDbXrecord
280
     1
 90
        1
330
6A
  0
DICTIONARY
  5
3D5
102
{ACAD_REACTORS
330
C
102
}
330
C
100
AcDbDictionary
281
     1
  3
CANNOSCALE
350
3D6
  3
CENTEREXE
350
41A
  3
CENTERLTYPEFILE
350
41B
  3
CMLEADERSTYLE
350
417
  3
CTABLESTYLE
350
416
  3
MSLTSCALE
350
3D7
  3
XCLIPFRAME
350
3D8
  0
XRECORD
  5
3D4
102
{ACAD_REACTORS
330
3D3
102
}
330
3D3
100
AcDbXrecord
280
     1
102
VTR_0.000_0.000_1.000_1.000_VISUALSTYLE
340
2F
102
VTR_0.000_0.000_1.000_1.000_GRIDDISPLAY
 70
     3
102
VTR_0.000_0.000_1.000_1.000_GRIDMAJOR
 70
     5
102
VTR_0.000_0.000_1.000_1.000_DEFAULTLIGHTING
280
     1
102
VTR_0.000_0.000_1.000_1.000_DEFAULTLIGHTINGTYPE
 70
     1
102
VTR_0.000_0.000_1.000_1.000_BRIGHTNESS
141
0.0
102
VTR_0.000_0.000_1.000_1.000_CONTRAST
142
0.0
  0
LAYOUT
  5
1E
102
{ACAD_REACTORS
330
1A
102
}
330
1A
100
AcDbPlotSettings
  1

  2
none_device
  4

  6

 40
0.0
 41
0.0
 42
0.0
 43
0.0
 44
0.0
 45
0.0
 46
0.0
 47
0.0
 48
0.0
 49
0.0
140
0.0
141
0.0
142
1.0
143
1.0
 70
   688
 72
     1
 73
     0
 74
     5
  7

 75
    16
 76
     0
 77
     5
 78
   300
147
1.0
148
0.0
149
0.0
100
AcDbLayout
  1
Layout1
 70
     1
 71
     1
 10
0.0
 20
0.0
 11
420.0
 21
297.0
 12
0.0
 22
0.0
 32
0.0
 14
1.000000000000000E+20
 24
1.000000000000000E+20
 34
1.000000000000000E+20
 15
-1.000000000000000E+20
 25
-1.000000000000000E+20
 35
-1.000000000000000E+20
146
0.0
 13
0.0
 23
0.0
 33
0.0
 16
1.0
 26
0.0
 36
0.0
 17
0.0
 27
1.0
 37
0.0
 76
     0
330
1B
  0
LAYOUT
  5
26
102
{ACAD_REACTORS
330
1A
102
}
330
1A
100
AcDbPlotSettings
  1

  2
none_device
  4

  6

 40
0.0
 41
0.0
 42
0.0
 43
0.0
 44
0.0
 45
0.0
 46
0.0
 47
0.0
 48
0.0
 49
0.0
140
0.0
141
0.0
142
1.0
143
1.0
 70
   688
 72
     1
 73
     0
 74
     5
  7

 75
    16
 76
     0
 77
     5
 78
   300
147
1.0
148
0.0
149
0.0
100
AcDbLayout
  1
Layout2
 70
     1
 71
     2
 10
0.0
 20
0.0
 11
0.0
 21
0.0
 12
0.0
 22
0.0
 32
0.0
 14
0.0
 24
0.0
 34
0.0
 15
0.0
 25
0.0
 35
0.0
146
0.0
 13
0.0
 23
0.0
 33
0.0
 16
1.0
 26
0.0
 36
0.0
 17
0.0
 27
1.0
 37
0.0
 76
     0
330
23
  0
LAYOUT
  5
22
102
{ACAD_REACTORS
330
1A
102
}
330
1A
100
AcDbPlotSettings
  1

  2
none_device
  4
Letter_(8.50_x_11.00_Inches)
  6

 40
6.35
 41
6.35
 42
6.35000508
 43
6.35000508
 44
215.9
 45
279.4
 46
0.0
 47
0.0
 48
0.0
 49
0.0
140
0.0
141
0.0
142
1.0
143
1.0
 70
  1712
 72
     1
 73
     0
 74
     0
  7

 75
     0
 76
     0
 77
     5
 78
   300
147
1.0
148
0.0
149
0.0
100
AcDbLayout
  1
Model
 70
     1
 71
     0
 10
-1050.0
 20
-742.5
 11
1050.0
 21
742.5
 12
0.0
 22
0.0
 32
0.0
 14
-1050.0
 24
-742.5
 34
0.0
 15
1050.0
 25
742.5
 35
0.0
146
0.0
 13
0.0
 23
0.0
 33
0.0
 16
1.0
 26
0.0
 36
0.0
 17
0.0
 27
1.0
 37
0.0
 76
     0
330
1F
331
29
  0
MATERIAL
  5
45
102
{ACAD_REACTORS
330
43
102
}
102
{ACAD_XDICTIONARY
360
40B
102
}
330
43
100
AcDbMaterial
  1
ByBlock
  0
MATERIAL
  5
44
102
{ACAD_REACTORS
330
43
102
}
102
{ACAD_XDICTIONARY
360
409
102
}
330
43
100
AcDbMaterial
  1
ByLayer
  0
MATERIAL
  5
46
102
{ACAD_REACTORS
330
43
102
}
102
{ACAD_XDICTIONARY
360
40D
102
}
330
43
100
AcDbMaterial
  1
Global
  0
MLEADERSTYLE
  5
6C
102
{ACAD_REACTORS
330
6B
102
}
102
{ACAD_XDICTIONARY
360
413
102
}
330
6B
100
AcDbMLeaderStyle
170
     2
171
     1
172
     0
 90
        2
 40
0.0
 41
0.0
173
     1
 91
-1056964608
340
14
 92
       -2
290
     1
 42
2.0
291
     1
 43
8.0
  3
Standard
341
0
 44
4.0
300

342
11
174
     1
178
     6
175
     1
176
     0
 93
-1056964608
 45
4.0
292
     0
297
     0
 46
4.0
343
0
 94
-1056964608
 47
1.0
 49
1.0
140
1.0
293
     1
141
0.0
294
     1
177
     0
142
1.0
295
     0
296
     0
143
3.75
1001
ACAD_MLEADERVER
1070
     2
  0
MLINESTYLE
  5
18
102
{ACAD_REACTORS
330
17
102
}
330
17
100
AcDbMlineStyle
  2
Standard
 70
     0
  3

 62
   256
 51
90.0
 52
90.0
 71
     2
 49
0.5
 62
   256
  6
BYLAYER
 49
-0.5
 62
   256
  6
BYLAYER
  0
ACDBPLACEHOLDER
  5
F
102
{ACAD_REACTORS
330
E
102
}
330
E
  0
SCALE
  5
48
102
{ACAD_REACTORS
330
47
102
}
330
47
100
AcDbScale
 70
     0
300
1:1
140
1.0
141
1.0
290
     1
  0
SCALE
  5
49
102
{ACAD_REACTORS
330
47
102
}
330
47
100
AcDbScale
 70
     0
300
1:2
140
1.0
141
2.0
290
     0
  0
SCALE
  5
4A
102
{ACAD_REACTORS
330
47
102
}
330
47
100
AcDbScale
 70
     0
300
1:4
140
1.0
141
4.0
290
     0
  0
SCALE
  5
4B
102
{ACAD_REACTORS
330
47
102
}
330
47
100
AcDbScale
 70
     0
300
1:5
140
1.0
141
5.0
290
     0
  0
SCALE
  5
4C
102
{ACAD_REACTORS
330
47
102
}
330
47
100
AcDbScale
 70
     0
300
1:8
140
1.0
141
8.0
290
     0
  0
SCALE
  5
4D
102
{ACAD_REACTORS
330
47
102
}
330
47
100
AcDbScale
 70
     0
300
1:10
140
1.0
141
10.0
290
     0
  0
SCALE
  5
4E
102
{ACAD_REACTORS
330
47
102
}
330
47
100
AcDbScale
 70
     0
300
1:16
140
1.0
141
16.0
290
     0
  0
SCALE
  5
4F
102
{ACAD_REACTORS
330
47
102
}
330
47
100
AcDbScale
 70
     0
300
1:20
140
1.0
141
20.0
290
     0
  0
SCALE
  5
50
102
{ACAD_REACTORS
330
47
102
}
330
47
100
AcDbScale
 70
     0
300
1:30
140
1.0
141
30.0
290
     0
  0
SCALE
  5
51
102
{ACAD_REACTORS
330
47
102
}
330
47
100
AcDbScale
 70
     0
300
1:40
140
1.0
141
40.0
290
     0
  0
SCALE
  5
52
102
{ACAD_REACTORS
330
47
102
}
330
47
100
AcDbScale
 70
     0
300
1:50
140
1.0
141
50.0
290
     0
  0
SCALE
  5
53
102
{ACAD_REACTORS
330
47
102
}
330
47
100
AcDbScale
 70
     0
300
1:100
140
1.0
141
100.0
290
     0
  0
SCALE
  5
54
102
{ACAD_REACTORS
330
47
102
}
330
47
100
AcDbScale
 70
     0
300
2:1
140
2.0
141
1.0
290
     0
  0
SCALE
  5
55
102
{ACAD_REACTORS
330
47
102
}
330
47
100
AcDbScale
 70
     0
300
4:1
140
4.0
141
1.0
290
     0
  0
SCALE
  5
56
102
{ACAD_REACTORS
330
47
102
}
330
47
100
AcDbScale
 70
     0
300
8:1
140
8.0
141
1.0
290
     0
  0
SCALE
  5
57
102
{ACAD_REACTORS
330
47
102
}
330
47
100
AcDbScale
 70
     0
300
10:1
140
10.0
141
1.0
290
     0
  0
SCALE
  5
58
102
{ACAD_REACTORS
330
47
102
}
330
47
100
AcDbScale
 70
     0
300
100:1
140
100.0
141
1.0
290
     0
  0
SCALE
  5
59
102
{ACAD_REACTORS
330
47
102
}
330
47
100
AcDbScale
 70
     0
300
1/128" = 1'-0"
140
0.0078125
141
12.0
290
     0
  0
SCALE
  5
5A
102
{ACAD_REACTORS
330
47
102
}
330
47
100
AcDbScale
 70
     0
300
1/64" = 1'-0"
140
0.015625
141
12.0
290
     0
  0
SCALE
  5
5B
102
{ACAD_REACTORS
330
47
102
}
330
47
100
AcDbScale
 70
     0
300
1/32" = 1'-0"
140
0.03125
141
12.0
290
     0
  0
SCALE
  5
5C
102
{ACAD_REACTORS
330
47
102
}
330
47
100
AcDbScale
 70
     0
300
1/16" = 1'-0"
140
0.0625
141
12.0
290
     0
  0
SCALE
  5
5D
102
{ACAD_REACTORS
330
47
102
}
330
47
100
AcDbScale
 70
     0
300
3/32" = 1'-0"
140
0.09375
141
12.0
290
     0
  0
SCALE
  5
5E
102
{ACAD_REACTORS
330
47
102
}
330
47
100
AcDbScale
 70
     0
300
1/8" = 1'-0"
140
0.125
141
12.0
290
     0
  0
SCALE
  5
5F
102
{ACAD_REACTORS
330
47
102
}
330
47
100
AcDbScale
 70
     0
300
3/16" = 1'-0"
140
0.1875
141
12.0
290
     0
  0
SCALE
  5
60
102
{ACAD_REACTORS
330
47
102
}
330
47
100
AcDbScale
 70
     0
300
1/4" = 1'-0"
140
0.25
141
12.0
290
     0
  0
SCALE
  5
61
102
{ACAD_REACTORS
330
47
102
}
330
47
100
AcDbScale
 70
     0
300
3/8" = 1'-0"
140
0.375
141
12.0
290
     0
  0
SCALE
  5
62
102
{ACAD_REACTORS
330
47
102
}
330
47
100
AcDbScale
 70
     0
300
1/2" = 1'-0"
140
0.5
141
12.0
290
     0
  0
SCALE
  5
63
102
{ACAD_REACTORS
330
47
102
}
330
47
100
AcDbScale
 70
     0
300
3/4" = 1'-0"
140
0.75
141
12.0
290
     0
  0
SCALE
  5
64
102
{ACAD_REACTORS
330
47
102
}
330
47
100
AcDbScale
 70
     0
300
1" = 1'-0"
140
1.0
141
12.0
290
     0
  0
SCALE
  5
65
102
{ACAD_REACTORS
330
47
102
}
330
47
100
AcDbScale
 70
     0
300
1-1/2" = 1'-0"
140
1.5
141
12.0
290
     0
  0
SCALE
  5
66
102
{ACAD_REACTORS
330
47
102
}
330
47
100
AcDbScale
 70
     0
300
3" = 1'-0"
140
3.0
141
12.0
290
     0
  0
SCALE
  5
67
102
{ACAD_REACTORS
330
47
102
}
330
47
100
AcDbScale
 70
     0
300
6" = 1'-0"
140
6.0
141
12.0
290
     0
  0
SCALE
  5
68
102
{ACAD_REACTORS
330
47
102
}
330
47
100
AcDbScale
 70
     0
300
1'-0" = 1'-0"
140
12.0
141
12.0
290
     0
  0
TABLESTYLE
  5
6A
102
{ACAD_REACTORS
330
69
102
}
102
{ACAD_XDICTIONARY
360
40F
102
}
330
69
100
AcDbTableStyle
  3
Standard
 70
     0
 71
     0
 40
0.06
 41
0.06
280
     0
281
     0
  7
Standard
140
4.5
170
     2
 62
     0
 63
   257
283
     0
274
    -2
284
     1
 64
     0
275
    -2
285
     1
 65
     0
276
    -2
286
     1
 66
     0
277
    -2
287
     1
 67
     0
278
    -2
288
     1
 68
     0
279
    -2
289
     1
 69
     0
  7
Standard
140
6.0
170
     5
 62
     0
 63
   257
283
     0
274
    -2
284
     1
 64
     0
275
    -2
285
     1
 65
     0
276
    -2
286
     1
 66
     0
277
    -2
287
     1
 67
     0
278
    -2
288
     1
 68
     0
279
    -2
289
     1
 69
     0
  7
Standard
140
4.5
170
     5
 62
     0
 63
   257
283
     0
274
    -2
284
     1
 64
     0
275
    -2
285
     1
 65
     0
276
    -2
286
     1
 66
     0
277
    -2
287
     1
 67
     0
278
    -2
288
     1
 68
     0
279
    -2
289
     1
 69
     0
  0
VISUALSTYLE
  5
2F
102
{ACAD_REACTORS
330
2A
102
}
102
{ACAD_XDICTIONARY
360
3E1
102
}
330
2A
100
AcDbVisualStyle
  2
2dWireframe
 70
     4
 71
     0
 72
     2
 73
     0
 90
        0
 40
0.6
 41
30.0
 62
     5
 63
     7
421
 16777215
 74
     1
 91
        4
 64
     7
 65
   257
 75
     1
175
     1
 42
1.0
 92
        0
 66
   257
 43
1.0
 76
     1
 77
     6
 78
     2
 67
     7
 79
     5
170
     0
171
     0
290
     0
174
     0
 93
        1
 44
0.0
173
     0
291
     0
 45
0.0
1001
ACAD
1000
AcDbSavedByObjectVersion
1070
     0
  0
VISUALSTYLE
  5
32
102
{ACAD_REACTORS
330
2A
102
}
102
{ACAD_XDICTIONARY
360
3E7
102
}
330
2A
100
AcDbVisualStyle
  2
Basic
 70
     7
 71
     1
 72
     0
 73
     1
 90
        0
 40
0.6
 41
30.0
 62
     5
 63
     7
421
 16777215
 74
     0
 91
        4
 64
     7
 65
   257
 75
     1
175
     1
 42
1.0
 92
        8
 66
     7
 43
1.0
 76
     1
 77
     6
 78
     2
 67
     7
 79
     5
170
     0
171
     0
290
     0
174
     0
 93
        1
 44
0.0
173
     0
291
     1
 45
0.0
1001
ACAD
1000
AcDbSavedByObjectVersion
1070
     0
  0
VISUALSTYLE
  5
36
102
{ACAD_REACTORS
330
2A
102
}
102
{ACAD_XDICTIONARY
360
3EF
102
}
330
2A
100
AcDbVisualStyle
  2
Brighten
 70
    12
 71
     2
 72
     2
 73
     0
 90
        0
 40
0.6
 41
30.0
 62
     5
 63
     7
421
 16777215
 74
     1
 91
        4
 64
     7
 65
   257
 75
     1
175
     1
 42
1.0
 92
        8
 66
     7
 43
1.0
 76
     1
 77
     6
 78
     2
 67
     7
 79
     5
170
     0
171
     0
290
     0
174
     0
 93
        1
 44
50.0
173
     0
291
     1
 45
0.0
1001
ACAD
1000
AcDbSavedByObjectVersion
1070
     0
  0
VISUALSTYLE
  5
3A
102
{ACAD_REACTORS
330
2A
102
}
102
{ACAD_XDICTIONARY
360
3F7
102
}
330
2A
100
AcDbVisualStyle
  2
ColorChange
 70
    16
 71
     2
 72
     2
 73
     3
 90
        0
 40
0.6
 41
30.0
 62
     5
 63
     8
421
  8421504
 74
     1
 91
        4
 64
     7
 65
   257
 75
     1
175
     1
 42
1.0
 92
        8
 66
     8
424
  8421504
 43
1.0
 76
     1
 77
     6
 78
     2
 67
     7
 79
     5
170
     0
171
     0
290
     0
174
     0
 93
        1
 44
0.0
173
     0
291
     1
 45
0.0
1001
ACAD
1000
AcDbSavedByObjectVersion
1070
     0
  0
VISUALSTYLE
  5
34
102
{ACAD_REACTORS
330
2A
102
}
102
{ACAD_XDICTIONARY
360
3EB
102
}
330
2A
100
AcDbVisualStyle
  2
Conceptual
 70
     9
 71
     3
 72
     2
 73
     0
 90
        0
 40
0.6
 41
30.0
 62
     5
 63
     7
421
 16777215
 74
     2
 91
        2
 64
     7
 65
   257
 75
     1
175
     1
 42
179.0
 92
        8
 66
     7
 43
1.0
 76
     1
 77
     6
 78
     2
 67
     7
 79
     3
170
     0
171
     0
290
     0
174
     0
 93
        1
 44
0.0
173
     0
291
     0
 45
0.0
1001
ACAD
1000
AcDbSavedByObjectVersion
1070
     0
  0
VISUALSTYLE
  5
35
102
{ACAD_REACTORS
330
2A
102
}
102
{ACAD_XDICTIONARY
360
3ED
102
}
330
2A
100
AcDbVisualStyle
  2
Dim
 70
    11
 71
     2
 72
     2
 73
     0
 90
        0
 40
0.6
 41
30.0
 62
     5
 63
     7
421
 16777215
 74
     1
 91
        4
 64
     7
 65
   257
 75
     1
175
     1
 42
1.0
 92
        8
 66
     7
 43
1.0
 76
     1
 77
     6
 78
     2
 67
     7
 79
     5
170
     0
171
     0
290
     0
174
     0
 93
        1
 44
-50.0
173
     0
291
     1
 45
0.0
1001
ACAD
1000
AcDbSavedByObjectVersion
1070
     0
  0
VISUALSTYLE
  5
3D
102
{ACAD_REACTORS
330
2A
102
}
102
{ACAD_XDICTIONARY
360
3FD
102
}
330
2A
100
AcDbVisualStyle
  2
EdgeColorOff
 70
    22
 71
     2
 72
     2
 73
     0
 90
        0
 40
0.6
 41
30.0
 62
     5
 63
     7
421
 16777215
 74
     1
 91
        4
 64
     7
 65
   257
 75
     1
175
     1
 42
1.0
 92
        8
 66
     7
 43
1.0
 76
     1
 77
     6
 78
     2
 67
     7
 79
     5
170
     0
171
     0
290
     0
174
     0
 93
        1
 44
0.0
173
     0
291
     1
 45
0.0
1001
ACAD
1000
AcDbSavedByObjectVersion
1070
     0
  0
VISUALSTYLE
  5
39
102
{ACAD_REACTORS
330
2A
102
}
102
{ACAD_XDICTIONARY
360
3F5
102
}
330
2A
100
AcDbVisualStyle
  2
Facepattern
 70
    15
 71
     2
 72
     2
 73
     0
 90
        0
 40
0.6
 41
30.0
 62
     5
 63
     7
421
 16777215
 74
     1
 91
        4
 64
     7
 65
   257
 75
     1
175
     1
 42
1.0
 92
        8
 66
     7
 43
1.0
 76
     1
 77
     6
 78
     2
 67
     7
 79
     5
170
     0
171
     0
290
     0
174
     0
 93
        1
 44
0.0
173
     0
291
     1
 45
0.0
1001
ACAD
1000
AcDbSavedByObjectVersion
1070
     0
  0
VISUALSTYLE
  5
2B
102
{ACAD_REACTORS
330
2A
102
}
102
{ACAD_XDICTIONARY
360
3D9
102
}
330
2A
100
AcDbVisualStyle
  2
Flat
 70
     0
 71
     2
 72
     1
 73
     1
 90
        2
 40
0.6
 41
30.0
 62
     5
 63
     7
421
 16777215
 74
     0
 91
        0
 64
     7
 65
   257
 75
     1
175
     1
 42
1.0
 92
        8
 66
     7
 43
1.0
 76
     1
 77
     6
 78
     2
 67
     7
 79
     5
170
     0
171
     0
290
     0
174
     0
 93
       13
 44
0.0
173
     0
291
     1
 45
0.0
1001
ACAD
1000
AcDbSavedByObjectVersion
1070
     0
  0
VISUALSTYLE
  5
2C
102
{ACAD_REACTORS
330
2A
102
}
102
{ACAD_XDICTIONARY
360
3DB
102
}
330
2A
100
AcDbVisualStyle
  2
FlatWithEdges
 70
     1
 71
     2
 72
     1
 73
     1
 90
        2
 40
0.6
 41
30.0
 62
     5
 63
     7
421
 16777215
 74
     1
 91
        0
 64
     7
 65
   257
 75
     1
175
     1
 42
1.0
 92
        0
 66
   257
 43
1.0
 76
     1
 77
     6
 78
     2
 67
     7
 79
     5
170
     0
171
     0
290
     0
174
     0
 93
       13
 44
0.0
173
     0
291
     1
 45
0.0
1001
ACAD
1000
AcDbSavedByObjectVersion
1070
     0
  0
VISUALSTYLE
  5
2D
102
{ACAD_REACTORS
330
2A
102
}
102
{ACAD_XDICTIONARY
360
3DD
102
}
330
2A
100
AcDbVisualStyle
  2
Gouraud
 70
     2
 71
     2
 72
     2
 73
     1
 90
        2
 40
0.6
 41
30.0
 62
     5
 63
     7
421
 16777215
 74
     0
 91
        0
 64
     7
 65
   257
 75
     1
175
     1
 42
1.0
 92
        0
 66
     7
 43
1.0
 76
     1
 77
     6
 78
     2
 67
     7
 79
     5
170
     0
171
     0
290
     0
174
     0
 93
       13
 44
0.0
173
     0
291
     1
 45
0.0
1001
ACAD
1000
AcDbSavedByObjectVersion
1070
     0
  0
VISUALSTYLE
  5
2E
102
{ACAD_REACTORS
330
2A
102
}
102
{ACAD_XDICTIONARY
360
3DF
102
}
330
2A
100
AcDbVisualStyle
  2
GouraudWithEdges
 70
     3
 71
     2
 72
     2
 73
     1
 90
        2
 40
0.6
 41
30.0
 62
     5
 63
     7
421
 16777215
 74
     1
 91
        0
 64
     7
 65
   257
 75
     1
175
     1
 42
1.0
 92
        0
 66
   257
 43
1.0
 76
     1
 77
     6
 78
     2
 67
     7
 79
     5
170
     0
171
     0
290
     0
174
     0
 93
       13
 44
0.0
173
     0
291
     1
 45
0.0
1001
ACAD
1000
AcDbSavedByObjectVersion
1070
     0
  0
VISUALSTYLE
  5
31
102
{ACAD_REACTORS
330
2A
102
}
102
{ACAD_XDICTIONARY
360
3E5
102
}
330
2A
100
AcDbVisualStyle
  2
Hidden
 70
     6
 71
     1
 72
     2
 73
     2
 90
        0
 40
0.6
 41
30.0
 62
     5
 63
     7
421
 16777215
 74
     2
 91
        2
 64
     7
 65
   257
 75
     2
175
     1
 42
40.0
 92
        0
 66
   257
 43
1.0
 76
     1
 77
     6
 78
     2
 67
     7
 79
     3
170
     0
171
     0
290
     0
174
     0
 93
        1
 44
0.0
173
     0
291
     0
 45
0.0
1001
ACAD
1000
AcDbSavedByObjectVersion
1070
     0
  0
VISUALSTYLE
  5
3B
102
{ACAD_REACTORS
330
2A
102
}
102
{ACAD_XDICTIONARY
360
3F9
102
}
330
2A
100
AcDbVisualStyle
  2
JitterOff
 70
    20
 71
     2
 72
     2
 73
     0
 90
        0
 40
0.6
 41
30.0
 62
     5
 63
     7
421
 16777215
 74
     1
 91
        4
 64
     7
 65
   257
 75
     1
175
     1
 42
1.0
 92
       10
 66
     7
 43
1.0
 76
     1
 77
     6
 78
     2
 67
     7
 79
     5
170
     0
171
     0
290
     0
174
     0
 93
        1
 44
0.0
173
     0
291
     1
 45
0.0
1001
ACAD
1000
AcDbSavedByObjectVersion
1070
     0
  0
VISUALSTYLE
  5
38
102
{ACAD_REACTORS
330
2A
102
}
102
{ACAD_XDICTIONARY
360
3F3
102
}
330
2A
100
AcDbVisualStyle
  2
Linepattern
 70
    14
 71
     2
 72
     2
 73
     0
 90
        0
 40
0.6
 41
30.0
 62
     5
 63
     7
421
 16777215
 74
     1
 91
        4
 64
     7
 65
   257
 75
     7
175
     7
 42
1.0
 92
        8
 66
     7
 43
1.0
 76
     1
 77
     6
 78
     2
 67
     7
 79
     5
170
     0
171
     0
290
     0
174
     0
 93
        1
 44
0.0
173
     0
291
     1
 45
0.0
1001
ACAD
1000
AcDbSavedByObjectVersion
1070
     0
  0
VISUALSTYLE
  5
3C
102
{ACAD_REACTORS
330
2A
102
}
102
{ACAD_XDICTIONARY
360
3FB
102
}
330
2A
100
AcDbVisualStyle
  2
OverhangOff
 70
    21
 71
     2
 72
     2
 73
     0
 90
        0
 40
0.6
 41
30.0
 62
     5
 63
     7
421
 16777215
 74
     1
 91
        4
 64
     7
 65
   257
 75
     1
175
     1
 42
1.0
 92
        9
 66
     7
 43
1.0
 76
     1
 77
     6
 78
     2
 67
     7
 79
     5
170
     0
171
     0
290
     0
174
     0
 93
        1
 44
0.0
173
     0
291
     1
 45
0.0
1001
ACAD
1000
AcDbSavedByObjectVersion
1070
     0
  0
VISUALSTYLE
  5
33
102
{ACAD_REACTORS
330
2A
102
}
102
{ACAD_XDICTIONARY
360
3E9
102
}
330
2A
100
AcDbVisualStyle
  2
Realistic
 70
     8
 71
     2
 72
     3
 73
     0
 90
        2
 40
0.6
 41
30.0
 62
     5
 63
     7
421
 16777215
 74
     0
 91
        0
 64
     7
 65
   257
 75
     1
175
     1
 42
1.0
 92
        8
 66
   257
 43
1.0
 76
     1
 77
     6
 78
     2
 67
     7
 79
     3
170
     0
171
     0
290
     0
174
     0
 93
       13
 44
0.0
173
     0
291
     0
 45
0.0
1001
ACAD
1000
AcDbSavedByObjectVersion
1070
     0
  0
VISUALSTYLE
  5
42
102
{ACAD_REACTORS
330
2A
102
}
102
{ACAD_XDICTIONARY
360
407
102
}
330
2A
100
AcDbVisualStyle
  2
Shaded
 70
    27
 71
     2
 72
     2
 73
     1
 90
        2
 40
0.6
 41
30.0
 62
     5
 63
     7
421
 16777215
 74
     0
 91
        4
 64
     7
 65
   257
 75
     1
175
     1
 42
1.0
 92
        8
 66
   257
 43
1.0
 76
     1
 77
     6
 78
     2
 67
     8
425
  7895160
 79
     3
170
     0
171
     0
290
     0
174
     0
 93
        5
 44
0.0
173
     0
291
     0
 45
0.0
1001
ACAD
1000
AcDbSavedByObjectVersion
1070
     0
  0
VISUALSTYLE
  5
41
102
{ACAD_REACTORS
330
2A
102
}
102
{ACAD_XDICTIONARY
360
405
102
}
330
2A
100
AcDbVisualStyle
  2
Shaded with edges
 70
    26
 71
     2
 72
     2
 73
     1
 90
        2
 40
0.6
 41
30.0
 62
     5
 63
     7
421
 16777215
 74
     1
 91
       10
 64
     7
 65
   257
 75
     2
175
     1
 42
1.0
 92
        8
 66
   257
 43
1.0
 76
     1
 77
     6
 78
     2
 67
     7
 79
     3
170
     0
171
     0
290
     0
174
     0
 93
        5
 44
0.0
173
     0
291
     0
 45
0.0
1001
ACAD
1000
AcDbSavedByObjectVersion
1070
     0
  0
VISUALSTYLE
  5
3E
102
{ACAD_REACTORS
330
2A
102
}
102
{ACAD_XDICTIONARY
360
3FF
102
}
330
2A
100
AcDbVisualStyle
  2
Shades of Gray
 70
    23
 71
     2
 72
     2
 73
     3
 90
        0
 40
0.6
 41
30.0
 62
     5
 63
     7
421
 16777215
 74
     2
 91
        2
 64
     7
 65
     7
 75
     1
175
     1
 42
40.0
 92
        8
 66
     7
 43
1.0
 76
     1
 77
     6
 78
     2
 67
     7
 79
     3
170
     0
171
     0
290
     0
174
     0
 93
        1
 44
0.0
173
     0
291
     0
 45
0.0
1001
ACAD
1000
AcDbSavedByObjectVersion
1070
     0
  0
VISUALSTYLE
  5
3F
102
{ACAD_REACTORS
330
2A
102
}
102
{ACAD_XDICTIONARY
360
401
102
}
330
2A
100
AcDbVisualStyle
  2
Sketchy
 70
    24
 71
     1
 72
     2
 73
     2
 90
        0
 40
0.6
 41
30.0
 62
     5
 63
     7
421
 16777215
 74
     2
 91
        2
 64
     7
 65
     7
 75
     1
175
     1
 42
40.0
 92
       11
 66
     7
 43
1.0
 76
     1
 77
     6
 78
     2
 67
     7
 79
     6
170
     0
171
     0
290
     0
174
     0
 93
        1
 44
0.0
173
     0
291
     0
 45
0.0
1001
ACAD
1000
AcDbSavedByObjectVersion
1070
     0
  0
VISUALSTYLE
  5
37
102
{ACAD_REACTORS
330
2A
102
}
102
{ACAD_XDICTIONARY
360
3F1
102
}
330
2A
100
AcDbVisualStyle
  2
Thicken
 70
    13
 71
     2
 72
     2
 73
     0
 90
        0
 40
0.6
 41
30.0
 62
     5
 63
     7
421
 16777215
 74
     1
 91
        4
 64
     7
 65
   257
 75
     1
175
     1
 42
1.0
 92
       12
 66
     7
 43
1.0
 76
     1
 77
     6
 78
     2
 67
     7
 79
     5
170
     0
171
     0
290
     0
174
     0
 93
        1
 44
0.0
173
     0
291
     1
 45
0.0
1001
ACAD
1000
AcDbSavedByObjectVersion
1070
     0
  0
VISUALSTYLE
  5
30
102
{ACAD_REACTORS
330
2A
102
}
102
{ACAD_XDICTIONARY
360
3E3
102
}
330
2A
100
AcDbVisualStyle
  2
Wireframe
 70
     5
 71
     0
 72
     2
 73
     0
 90
        0
 40
0.6
 41
30.0
 62
     5
 63
     7
421
 16777215
 74
     1
 91
        4
 64
     7
 65
   257
 75
     1
175
     1
 42
1.0
 92
        0
 66
   257
 43
1.0
 76
     1
 77
     6
 78
     2
 67
     7
 79
     3
170
     0
171
     0
290
     0
174
     0
 93
        1
 44
0.0
173
     0
291
     0
 45
0.0
1001
ACAD
1000
AcDbSavedByObjectVersion
1070
     0
  0
VISUALSTYLE
  5
40
102
{ACAD_REACTORS
330
2A
102
}
102
{ACAD_XDICTIONARY
360
403
102
}
330
2A
100
AcDbVisualStyle
  2
X-Ray
 70
    25
 71
     2
 72
     2
 73
     1
 90
        1
 40
0.5
 41
30.0
 62
     5
 63
     7
421
 16777215
 74
     1
 91
        0
 64
     7
 65
   257
 75
     1
175
     1
 42
1.0
 92
        8
 66
     7
 43
1.0
 76
     1
 77
     6
 78
     2
 67
     7
 79
     3
170
     0
171
     0
290
     0
174
     0
 93
       13
 44
0.0
173
     0
291
     0
 45
0.0
1001
ACAD
1000
AcDbSavedByObjectVersion
1070
     0
  0
DICTIONARYVAR
  5
3D6
102
{ACAD_REACTORS
330
3D5
102
}
330
3D5
100
DictionaryVariables
280
     0
  1
1:1
  0
DICTIONARYVAR
  5
41A
102
{ACAD_REACTORS
330
3D5
102
}
330
3D5
100
DictionaryVariables
280
     0
  1
3.500000
  0
DICTIONARYVAR
  5
41B
102
{ACAD_REACTORS
330
3D5
102
}
330
3D5
100
DictionaryVariables
280
     0
  1
acadiso.lin
  0
DICTIONARYVAR
  5
417
102
{ACAD_REACTORS
330
3D5
102
}
330
3D5
100
DictionaryVariables
280
     0
  1
Standard
  0
DICTIONARYVAR
  5
416
102
{ACAD_REACTORS
330
3D5
102
}
330
3D5
100
DictionaryVariables
280
     0
  1
Standard
  0
DICTIONARYVAR
  5
3D7
102
{ACAD_REACTORS
330
3D5
102
}
330
3D5
100
DictionaryVariables
280
     0
  1
1
  0
DICTIONARYVAR
  5
3D8
102
{ACAD_REACTORS
330
3D5
102
}
330
3D5
100
DictionaryVariables
280
     0
  1
2
  0
DICTIONARY
  5
40B
330
45
100
AcDbDictionary
280
     1
281
     1
  3
ACAD_XREC_ROUNDTRIP
360
40C
  0
DICTIONARY
  5
409
330
44
100
AcDbDictionary
280
     1
281
     1
  3
ACAD_XREC_ROUNDTRIP
360
40A
  0
DICTIONARY
  5
40D
330
46
100
AcDbDictionary
280
     1
281
     1
  3
ACAD_XREC_ROUNDTRIP
360
40E
  0
DICTIONARY
  5
413
330
6C
100
AcDbDictionary
280
     1
281
     1
  3
ACAD_XREC_ROUNDTRIP
360
414
  0
DICTIONARY
  5
40F
330
6A
100
AcDbDictionary
280
     1
281
     1
  3
ACAD_ROUNDTRIP_2008_TABLESTYLE_CELLSTYLEMAP
360
411
  3
ACAD_XREC_ROUNDTRIP
360
410
  0
DICTIONARY
  5
3E1
330
2F
100
AcDbDictionary
280
     1
281
     1
  3
ACAD_XREC_ROUNDTRIP
360
3E2
  0
DICTIONARY
  5
3E7
330
32
100
AcDbDictionary
280
     1
281
     1
  3
ACAD_XREC_ROUNDTRIP
360
3E8
  0
DICTIONARY
  5
3EF
330
36
100
AcDbDictionary
280
     1
281
     1
  3
ACAD_XREC_ROUNDTRIP
360
3F0
  0
DICTIONARY
  5
3F7
330
3A
100
AcDbDictionary
280
     1
281
     1
  3
ACAD_XREC_ROUNDTRIP
360
3F8
  0
DICTIONARY
  5
3EB
330
34
100
AcDbDictionary
280
     1
281
     1
  3
ACAD_XREC_ROUNDTRIP
360
3EC
  0
DICTIONARY
  5
3ED
330
35
100
AcDbDictionary
280
     1
281
     1
  3
ACAD_XREC_ROUNDTRIP
360
3EE
  0
DICTIONARY
  5
3FD
330
3D
100
AcDbDictionary
280
     1
281
     1
  3
ACAD_XREC_ROUNDTRIP
360
3FE
  0
DICTIONARY
  5
3F5
330
39
100
AcDbDictionary
280
     1
281
     1
  3
ACAD_XREC_ROUNDTRIP
360
3F6
  0
DICTIONARY
  5
3D9
330
2B
100
AcDbDictionary
280
     1
281
     1
  3
ACAD_XREC_ROUNDTRIP
360
3DA
  0
DICTIONARY
  5
3DB
330
2C
100
AcDbDictionary
280
     1
281
     1
  3
ACAD_XREC_ROUNDTRIP
360
3DC
  0
DICTIONARY
  5
3DD
330
2D
100
AcDbDictionary
280
     1
281
     1
  3
ACAD_XREC_ROUNDTRIP
360
3DE
  0
DICTIONARY
  5
3DF
330
2E
100
AcDbDictionary
280
     1
281
     1
  3
ACAD_XREC_ROUNDTRIP
360
3E0
  0
DICTIONARY
  5
3E5
330
31
100
AcDbDictionary
280
     1
281
     1
  3
ACAD_XREC_ROUNDTRIP
360
3E6
  0
DICTIONARY
  5
3F9
330
3B
100
AcDbDictionary
280
     1
281
     1
  3
ACAD_XREC_ROUNDTRIP
360
3FA
  0
DICTIONARY
  5
3F3
330
38
100
AcDbDictionary
280
     1
281
     1
  3
ACAD_XREC_ROUNDTRIP
360
3F4
  0
DICTIONARY
  5
3FB
330
3C
100
AcDbDictionary
280
     1
281
     1
  3
ACAD_XREC_ROUNDTRIP
360
3FC
  0
DICTIONARY
  5
3E9
330
33
100
AcDbDictionary
280
     1
281
     1
  3
ACAD_XREC_ROUNDTRIP
360
3EA
  0
DICTIONARY
  5
407
330
42
100
AcDbDictionary
280
     1
281
     1
  3
ACAD_XREC_ROUNDTRIP
360
408
  0
DICTIONARY
  5
405
330
41
100
AcDbDictionary
280
     1
281
     1
  3
ACAD_XREC_ROUNDTRIP
360
406
  0
DICTIONARY
  5
3FF
330
3E
100
AcDbDictionary
280
     1
281
     1
  3
ACAD_XREC_ROUNDTRIP
360
400
  0
DICTIONARY
  5
401
330
3F
100
AcDbDictionary
280
     1
281
     1
  3
ACAD_XREC_ROUNDTRIP
360
402
  0
DICTIONARY
  5
3F1
330
37
100
AcDbDictionary
280
     1
281
     1
  3
ACAD_XREC_ROUNDTRIP
360
3F2
  0
DICTIONARY
  5
3E3
330
30
100
AcDbDictionary
280
     1
281
     1
  3
ACAD_XREC_ROUNDTRIP
360
3E4
  0
DICTIONARY
  5
403
330
40
100
AcDbDictionary
280
     1
281
     1
  3
ACAD_XREC_ROUNDTRIP
360
404
  0
XRECORD
  5
40C
102
{ACAD_REACTORS
330
40B
102
}
330
40B
100
AcDbXrecord
280
     1
102
MATERIAL
148
0.0
149
0.0
149
0.0
 93
        0
 94
      127
282
     0
 72
     1
 77
     1
171
     1
175
     1
179
     1
273
     0
  0
XRECORD
  5
40A
102
{ACAD_REACTORS
330
409
102
}
330
409
100
AcDbXrecord
280
     1
102
MATERIAL
148
0.0
149
0.0
149
0.0
 93
        0
 94
      127
282
     0
 72
     1
 77
     1
171
     1
175
     1
179
     1
273
     0
  0
XRECORD
  5
40E
102
{ACAD_REACTORS
330
40D
102
}
330
40D
100
AcDbXrecord
280
     1
102
MATERIAL
148
0.0
149
0.0
149
0.0
 93
        0
 94
      127
282
     0
 72
     1
 77
     1
171
     1
175
     1
179
     1
273
     0
  0
XRECORD
  5
414
102
{ACAD_REACTORS
330
413
102
}
330
413
100
AcDbXrecord
280
     1
102
ACAD_ROUNDTRIP_2010_MLEADER_STYLE
  0
CELLSTYLEMAP
  5
411
102
{ACAD_REACTORS
330
40F
102
}
330
40F
100
AcDbCellStyleMap
 90
        3
300
CELLSTYLE
  1
TABLEFORMAT_BEGIN
 90
        5
170
     1
 91
        0
 92
    32768
 62
   257
 93
        1
300
CONTENTFORMAT
  1
CONTENTFORMAT_BEGIN
 90
        0
 91
        0
 92
        4
 93
        0
300

 40
0.0
140
1.0
 94
        5
 62
     0
340
11
144
6.0
309
CONTENTFORMAT_END
171
     1
301
MARGIN
  1
CELLMARGIN_BEGIN
 40
1.5
 40
1.5
 40
1.5
 40
1.5
 40
1.5
 40
1.5
309
CELLMARGIN_END
 94
        6
 95
        1
302
GRIDFORMAT
  1
GRIDFORMAT_BEGIN
 90
        0
 91
        1
 62
     0
 92
       -2
340
14
 93
        0
 40
0.045
309
GRIDFORMAT_END
 95
        2
302
GRIDFORMAT
  1
GRIDFORMAT_BEGIN
 90
        0
 91
        1
 62
     0
 92
       -2
340
14
 93
        0
 40
0.045
309
GRIDFORMAT_END
 95
        4
302
GRIDFORMAT
  1
GRIDFORMAT_BEGIN
 90
        0
 91
        1
 62
     0
 92
       -2
340
14
 93
        0
 40
0.045
309
GRIDFORMAT_END
 95
        8
302
GRIDFORMAT
  1
GRIDFORMAT_BEGIN
 90
        0
 91
        1
 62
     0
 92
       -2
340
14
 93
        0
 40
0.045
309
GRIDFORMAT_END
 95
       16
302
GRIDFORMAT
  1
GRIDFORMAT_BEGIN
 90
        0
 91
        1
 62
     0
 92
       -2
340
14
 93
        0
 40
0.045
309
GRIDFORMAT_END
 95
       32
302
GRIDFORMAT
  1
GRIDFORMAT_BEGIN
 90
        0
 91
        1
 62
     0
 92
       -2
340
14
 93
        0
 40
0.045
309
GRIDFORMAT_END
309
TABLEFORMAT_END
  1
CELLSTYLE_BEGIN
 90
        1
 91
        1
300
_TITLE
309
CELLSTYLE_END
300
CELLSTYLE
  1
TABLEFORMAT_BEGIN
 90
        5
170
     1
 91
        0
 92
        0
 62
   257
 93
        1
300
CONTENTFORMAT
  1
CONTENTFORMAT_BEGIN
 90
        0
 91
        0
 92
        4
 93
        0
300

 40
0.0
140
1.0
 94
        5
 62
     0
340
11
144
4.5
309
CONTENTFORMAT_END
171
     1
301
MARGIN
  1
CELLMARGIN_BEGIN
 40
1.5
 40
1.5
 40
1.5
 40
1.5
 40
1.5
 40
1.5
309
CELLMARGIN_END
 94
        6
 95
        1
302
GRIDFORMAT
  1
GRIDFORMAT_BEGIN
 90
        0
 91
        1
 62
     0
 92
       -2
340
14
 93
        0
 40
0.045
309
GRIDFORMAT_END
 95
        2
302
GRIDFORMAT
  1
GRIDFORMAT_BEGIN
 90
        0
 91
        1
 62
     0
 92
       -2
340
14
 93
        0
 40
0.045
309
GRIDFORMAT_END
 95
        4
302
GRIDFORMAT
  1
GRIDFORMAT_BEGIN
 90
        0
 91
        1
 62
     0
 92
       -2
340
14
 93
        0
 40
0.045
309
GRIDFORMAT_END
 95
        8
302
GRIDFORMAT
  1
GRIDFORMAT_BEGIN
 90
        0
 91
        1
 62
     0
 92
       -2
340
14
 93
        0
 40
0.045
309
GRIDFORMAT_END
 95
       16
302
GRIDFORMAT
  1
GRIDFORMAT_BEGIN
 90
        0
 91
        1
 62
     0
 92
       -2
340
14
 93
        0
 40
0.045
309
GRIDFORMAT_END
 95
       32
302
GRIDFORMAT
  1
GRIDFORMAT_BEGIN
 90
        0
 91
        1
 62
     0
 92
       -2
340
14
 93
        0
 40
0.045
309
GRIDFORMAT_END
309
TABLEFORMAT_END
  1
CELLSTYLE_BEGIN
 90
        2
 91
        1
300
_HEADER
309
CELLSTYLE_END
300
CELLSTYLE
  1
TABLEFORMAT_BEGIN
 90
        5
170
     1
 91
        0
 92
        0
 62
   257
 93
        1
300
CONTENTFORMAT
  1
CONTENTFORMAT_BEGIN
 90
        0
 91
        0
 92
        4
 93
        0
300

 40
0.0
140
1.0
 94
        2
 62
     0
340
11
144
4.5
309
CONTENTFORMAT_END
171
     1
301
MARGIN
  1
CELLMARGIN_BEGIN
 40
1.5
 40
1.5
 40
1.5
 40
1.5
 40
1.5
 40
1.5
309
CELLMARGIN_END
 94
        6
 95
        1
302
GRIDFORMAT
  1
GRIDFORMAT_BEGIN
 90
        0
 91
        1
 62
     0
 92
       -2
340
14
 93
        0
 40
0.045
309
GRIDFORMAT_END
 95
        2
302
GRIDFORMAT
  1
GRIDFORMAT_BEGIN
 90
        0
 91
        1
 62
     0
 92
       -2
340
14
 93
        0
 40
0.045
309
GRIDFORMAT_END
 95
        4
302
GRIDFORMAT
  1
GRIDFORMAT_BEGIN
 90
        0
 91
        1
 62
     0
 92
       -2
340
14
 93
        0
 40
0.045
309
GRIDFORMAT_END
 95
        8
302
GRIDFORMAT
  1
GRIDFORMAT_BEGIN
 90
        0
 91
        1
 62
     0
 92
       -2
340
14
 93
        0
 40
0.045
309
GRIDFORMAT_END
 95
       16
302
GRIDFORMAT
  1
GRIDFORMAT_BEGIN
 90
        0
 91
        1
 62
     0
 92
       -2
340
14
 93
        0
 40
0.045
309
GRIDFORMAT_END
 95
       32
302
GRIDFORMAT
  1
GRIDFORMAT_BEGIN
 90
        0
 91
        1
 62
     0
 92
       -2
340
14
 93
        0
 40
0.045
309
GRIDFORMAT_END
309
TABLEFORMAT_END
  1
CELLSTYLE_BEGIN
 90
        3
 91
        2
300
_DATA
309
CELLSTYLE_END
  0
XRECORD
  5
410
102
{ACAD_REACTORS
330
40F
102
}
330
40F
100
AcDbXrecord
280
     1
102
ACAD_ROUNDTRIP_PRE2007_TABLESTYLE
 90
        4
 91
        0
  1

 92
        4
 93
        0
  2

 94
        4
 95
        0
  3

  0
XRECORD
  5
3E2
102
{ACAD_REACTORS
330
3E1
102
}
330
3E1
100
AcDbXrecord
280
     1
102
RTVSPropertyOp0
 70
     1
102
RTVSPropertyOp1
 70
     1
102
RTVSPropertyOp2
 70
     1
102
RTVSPropertyOp3
 70
     1
102
RTVSPropertyOp4
 70
     1
102
RTVSPropertyOp5
 70
     1
102
RTVSPropertyOp6
 70
     1
102
RTVSPropertyOp7
 70
     1
102
RTVSPropertyOp8
 70
     1
102
RTVSPropertyOp9
 70
     1
102
RTVSPropertyOp10
 70
     1
102
RTVSPropertyOp11
 70
     1
102
RTVSPropertyOp12
 70
     1
102
RTVSPropertyOp13
 70
     1
102
RTVSPropertyOp14
 70
     1
102
RTVSPropertyOp15
 70
     1
102
RTVSPropertyOp16
 70
     1
102
RTVSPropertyOp17
 70
     1
102
RTVSPropertyOp18
 70
     1
102
RTVSPropertyOp19
 70
     1
102
RTVSPropertyOp20
 70
     1
102
RTVSPropertyOp21
 70
     1
102
RTVSPropertyOp22
 70
     1
102
RTVSPropertyOp23
 70
     1
102
RTVSPropertyOp24
 70
     1
102
RTVSPropertyOp25
 70
     1
102
RTVSPropertyOp26
 70
     1
102
RTVSPropertyOp27
 70
     1
102
RTVSPropertyOp28
 70
     1
102
RTVSPropertyOp29
 70
     1
102
RTVSPropertyOp30
 70
     1
102
RTVSPropertyOp31
 70
     1
102
RTVSPropertyOp32
 70
     1
102
RTVSPropertyOp33
 70
     1
102
RTVSPropertyOp34
 70
     1
102
RTVSPropertyOp35
 70
     1
102
RTVSPropertyOp36
 70
     1
102
RTVSPropertyOp37
 70
     1
102
RTVSPropertyOp38
 70
     1
102
RTVSPropertyOp39
 70
     1
102
RTVSPropertyOp40
 70
     1
102
RTVSPropertyOp41
 70
     1
102
RTVSPropertyOp42
 70
     1
102
RTVSPropertyOp43
 70
     1
102
RTVSPropertyOp44
 70
     1
102
RTVSPropertyOp45
 70
     1
102
RTVSPropertyOp46
 70
     1
102
RTVSPropertyOp47
 70
     1
102
RTVSPropertyOp48
 70
     1
102
RTVSPropertyOp49
 70
     1
102
RTVSPropertyOp50
 70
     1
102
RTVSPropertyOp51
 70
     0
102
RTVSPropertyOp52
 70
     0
102
RTVSPropertyOp53
 70
     1
102
RTVSPropertyOp54
 70
     1
102
RTVSPropertyOp55
 70
     1
102
RTVSPropertyOp56
 70
     1
102
RTVSPropertyOp57
 70
     1
102
RTVSPost2010Prop28
280
     1
102
RTVSPost2010PropOp28
 70
     1
102
RTVSPost2010Prop29
280
     1
102
RTVSPost2010PropOp29
 70
     1
102
RTVSPost2010Prop30
280
     0
102
RTVSPost2010PropOp30
 70
     1
102
RTVSPost2010Prop31
280
     0
102
RTVSPost2010PropOp31
 70
     1
102
RTVSPost2010Prop32
280
     0
102
RTVSPost2010PropOp32
 70
     1
102
RTVSPost2010Prop33
280
     0
102
RTVSPost2010PropOp33
 70
     1
102
RTVSPost2010Prop34
280
     0
102
RTVSPost2010PropOp34
 70
     1
102
RTVSPost2010Prop35
280
     0
102
RTVSPost2010PropOp35
 70
     1
102
RTVSPost2010Prop36
280
     0
102
RTVSPost2010PropOp36
 70
     1
102
RTVSPost2010Prop37
 90
       50
102
RTVSPost2010PropOp37
 70
     1
102
RTVSPost2010Prop38
140
0.0
102
RTVSPost2010PropOp38
 70
     1
102
RTVSPost2010Prop39
140
1.0
102
RTVSPost2010PropOp39
 70
     1
102
RTVSPost2010Prop40
 90
        0
102
RTVSPost2010PropOp40
 70
     1
102
RTVSPost2010Prop41ColorIndex
 90
       18
102
RTVSPost2010Prop41ColorRGB
 90
        0
102
RTVSPost2010PropOp41
 70
     1
102
RTVSPost2010Prop42
 90
       50
102
RTVSPost2010PropOp42
 70
     1
102
RTVSPost2010Prop43
 90
        3
102
RTVSPost2010PropOp43
 70
     1
102
RTVSPost2010Prop44ColorIndex
 90
        5
102
RTVSPost2010Prop44ColorRGB
 90
      255
102
RTVSPost2010PropOp44
 70
     1
102
RTVSPost2010Prop45
280
     0
102
RTVSPost2010PropOp45
 70
     1
102
RTVSPost2010Prop46
 90
       50
102
RTVSPost2010PropOp46
 70
     1
102
RTVSPost2010Prop47
 90
       50
102
RTVSPost2010PropOp47
 70
     1
102
RTVSPost2010Prop48
 90
       50
102
RTVSPost2010PropOp48
 70
     1
102
RTVSPost2010Prop49
280
     0
102
RTVSPost2010PropOp49
 70
     1
102
RTVSPost2010Prop50
 90
       50
102
RTVSPost2010PropOp50
 70
     1
102
RTVSPost2010Prop51ColorIndex
 90
      256
102
RTVSPost2010Prop51ColorRGB
 90
-16777216
102
RTVSPost2010PropOp51
 70
     0
102
RTVSPost2010Prop52
140
1.0
102
RTVSPost2010PropOp52
 70
     0
102
RTVSPost2010Prop53
 90
        2
102
RTVSPost2010PropOp53
 70
     1
102
RTVSPost2010Prop54
  1
strokes_ogs.tif
102
RTVSPost2010PropOp54
 70
     1
102
RTVSPost2010Prop55
280
     0
102
RTVSPost2010PropOp55
 70
     1
102
RTVSPost2010Prop56
140
1.0
102
RTVSPost2010PropOp56
 70
     1
102
RTVSPost2010Prop57
140
1.0
102
RTVSPost2010PropOp57
 70
     1
  0
XRECORD
  5
3E8
102
{ACAD_REACTORS
330
3E7
102
}
330
3E7
100
AcDbXrecord
280
     1
102
RTVSPropertyOp0
 70
     1
102
RTVSPropertyOp1
 70
     1
102
RTVSPropertyOp2
 70
     1
102
RTVSPropertyOp3
 70
     1
102
RTVSPropertyOp4
 70
     1
102
RTVSPropertyOp5
 70
     1
102
RTVSPropertyOp6
 70
     1
102
RTVSPropertyOp7
 70
     1
102
RTVSPropertyOp8
 70
     1
102
RTVSPropertyOp9
 70
     1
102
RTVSPropertyOp10
 70
     1
102
RTVSPropertyOp11
 70
     1
102
RTVSPropertyOp12
 70
     1
102
RTVSPropertyOp13
 70
     1
102
RTVSPropertyOp14
 70
     1
102
RTVSPropertyOp15
 70
     1
102
RTVSPropertyOp16
 70
     1
102
RTVSPropertyOp17
 70
     1
102
RTVSPropertyOp18
 70
     1
102
RTVSPropertyOp19
 70
     1
102
RTVSPropertyOp20
 70
     1
102
RTVSPropertyOp21
 70
     1
102
RTVSPropertyOp22
 70
     1
102
RTVSPropertyOp23
 70
     1
102
RTVSPropertyOp24
 70
     1
102
RTVSPropertyOp25
 70
     1
102
RTVSPropertyOp26
 70
     1
102
RTVSPropertyOp27
 70
     1
102
RTVSPropertyOp28
 70
     1
102
RTVSPropertyOp29
 70
     1
102
RTVSPropertyOp30
 70
     1
102
RTVSPropertyOp31
 70
     1
102
RTVSPropertyOp32
 70
     1
102
RTVSPropertyOp33
 70
     1
102
RTVSPropertyOp34
 70
     1
102
RTVSPropertyOp35
 70
     1
102
RTVSPropertyOp36
 70
     1
102
RTVSPropertyOp37
 70
     1
102
RTVSPropertyOp38
 70
     1
102
RTVSPropertyOp39
 70
     1
102
RTVSPropertyOp40
 70
     1
102
RTVSPropertyOp41
 70
     1
102
RTVSPropertyOp42
 70
     1
102
RTVSPropertyOp43
 70
     1
102
RTVSPropertyOp44
 70
     1
102
RTVSPropertyOp45
 70
     1
102
RTVSPropertyOp46
 70
     1
102
RTVSPropertyOp47
 70
     1
102
RTVSPropertyOp48
 70
     1
102
RTVSPropertyOp49
 70
     1
102
RTVSPropertyOp50
 70
     1
102
RTVSPropertyOp51
 70
     0
102
RTVSPropertyOp52
 70
     0
102
RTVSPropertyOp53
 70
     1
102
RTVSPropertyOp54
 70
     1
102
RTVSPropertyOp55
 70
     1
102
RTVSPropertyOp56
 70
     1
102
RTVSPropertyOp57
 70
     1
102
RTVSPost2010Prop28
280
     0
102
RTVSPost2010PropOp28
 70
     1
102
RTVSPost2010Prop29
280
     1
102
RTVSPost2010PropOp29
 70
     1
102
RTVSPost2010Prop30
280
     1
102
RTVSPost2010PropOp30
 70
     1
102
RTVSPost2010Prop31
280
     0
102
RTVSPost2010PropOp31
 70
     1
102
RTVSPost2010Prop32
280
     0
102
RTVSPost2010PropOp32
 70
     1
102
RTVSPost2010Prop33
280
     0
102
RTVSPost2010PropOp33
 70
     1
102
RTVSPost2010Prop34
280
     0
102
RTVSPost2010PropOp34
 70
     1
102
RTVSPost2010Prop35
280
     0
102
RTVSPost2010PropOp35
 70
     1
102
RTVSPost2010Prop36
280
     0
102
RTVSPost2010PropOp36
 70
     1
102
RTVSPost2010Prop37
 90
       50
102
RTVSPost2010PropOp37
 70
     1
102
RTVSPost2010Prop38
140
0.0
102
RTVSPost2010PropOp38
 70
     1
102
RTVSPost2010Prop39
140
1.0
102
RTVSPost2010PropOp39
 70
     1
102
RTVSPost2010Prop40
 90
        0
102
RTVSPost2010PropOp40
 70
     1
102
RTVSPost2010Prop41ColorIndex
 90
       18
102
RTVSPost2010Prop41ColorRGB
 90
        0
102
RTVSPost2010PropOp41
 70
     1
102
RTVSPost2010Prop42
 90
       50
102
RTVSPost2010PropOp42
 70
     1
102
RTVSPost2010Prop43
 90
        3
102
RTVSPost2010PropOp43
 70
     1
102
RTVSPost2010Prop44ColorIndex
 90
        5
102
RTVSPost2010Prop44ColorRGB
 90
      255
102
RTVSPost2010PropOp44
 70
     1
102
RTVSPost2010Prop45
280
     0
102
RTVSPost2010PropOp45
 70
     1
102
RTVSPost2010Prop46
 90
       50
102
RTVSPost2010PropOp46
 70
     1
102
RTVSPost2010Prop47
 90
       50
102
RTVSPost2010PropOp47
 70
     1
102
RTVSPost2010Prop48
 90
       50
102
RTVSPost2010PropOp48
 70
     1
102
RTVSPost2010Prop49
280
     0
102
RTVSPost2010PropOp49
 70
     1
102
RTVSPost2010Prop50
 90
       50
102
RTVSPost2010PropOp50
 70
     1
102
RTVSPost2010Prop51ColorIndex
 90
      256
102
RTVSPost2010Prop51ColorRGB
 90
-16777216
102
RTVSPost2010PropOp51
 70
     0
102
RTVSPost2010Prop52
140
1.0
102
RTVSPost2010PropOp52
 70
     0
102
RTVSPost2010Prop53
 90
        2
102
RTVSPost2010PropOp53
 70
     1
102
RTVSPost2010Prop54
  1
strokes_ogs.tif
102
RTVSPost2010PropOp54
 70
     1
102
RTVSPost2010Prop55
280
     0
102
RTVSPost2010PropOp55
 70
     1
102
RTVSPost2010Prop56
140
1.0
102
RTVSPost2010PropOp56
 70
     1
102
RTVSPost2010Prop57
140
1.0
102
RTVSPost2010PropOp57
 70
     1
  0
XRECORD
  5
3F0
102
{ACAD_REACTORS
330
3EF
102
}
330
3EF
100
AcDbXrecord
280
     1
102
RTVSPropertyOp0
 70
     1
102
RTVSPropertyOp1
 70
     1
102
RTVSPropertyOp2
 70
     1
102
RTVSPropertyOp3
 70
     1
102
RTVSPropertyOp4
 70
     1
102
RTVSPropertyOp5
 70
     1
102
RTVSPropertyOp6
 70
     1
102
RTVSPropertyOp7
 70
     1
102
RTVSPropertyOp8
 70
     1
102
RTVSPropertyOp9
 70
     1
102
RTVSPropertyOp10
 70
     1
102
RTVSPropertyOp11
 70
     1
102
RTVSPropertyOp12
 70
     1
102
RTVSPropertyOp13
 70
     1
102
RTVSPropertyOp14
 70
     1
102
RTVSPropertyOp15
 70
     1
102
RTVSPropertyOp16
 70
     1
102
RTVSPropertyOp17
 70
     1
102
RTVSPropertyOp18
 70
     1
102
RTVSPropertyOp19
 70
     1
102
RTVSPropertyOp20
 70
     1
102
RTVSPropertyOp21
 70
     1
102
RTVSPropertyOp22
 70
     1
102
RTVSPropertyOp23
 70
     1
102
RTVSPropertyOp24
 70
     1
102
RTVSPropertyOp25
 70
     1
102
RTVSPropertyOp26
 70
     1
102
RTVSPropertyOp27
 70
     1
102
RTVSPropertyOp28
 70
     1
102
RTVSPropertyOp29
 70
     1
102
RTVSPropertyOp30
 70
     1
102
RTVSPropertyOp31
 70
     1
102
RTVSPropertyOp32
 70
     1
102
RTVSPropertyOp33
 70
     1
102
RTVSPropertyOp34
 70
     1
102
RTVSPropertyOp35
 70
     1
102
RTVSPropertyOp36
 70
     1
102
RTVSPropertyOp37
 70
     1
102
RTVSPropertyOp38
 70
     1
102
RTVSPropertyOp39
 70
     1
102
RTVSPropertyOp40
 70
     1
102
RTVSPropertyOp41
 70
     1
102
RTVSPropertyOp42
 70
     1
102
RTVSPropertyOp43
 70
     1
102
RTVSPropertyOp44
 70
     1
102
RTVSPropertyOp45
 70
     1
102
RTVSPropertyOp46
 70
     1
102
RTVSPropertyOp47
 70
     1
102
RTVSPropertyOp48
 70
     1
102
RTVSPropertyOp49
 70
     1
102
RTVSPropertyOp50
 70
     1
102
RTVSPropertyOp51
 70
     0
102
RTVSPropertyOp52
 70
     0
102
RTVSPropertyOp53
 70
     1
102
RTVSPropertyOp54
 70
     1
102
RTVSPropertyOp55
 70
     1
102
RTVSPropertyOp56
 70
     1
102
RTVSPropertyOp57
 70
     1
102
RTVSPost2010Prop28
280
     0
102
RTVSPost2010PropOp28
 70
     1
102
RTVSPost2010Prop29
280
     1
102
RTVSPost2010PropOp29
 70
     1
102
RTVSPost2010Prop30
280
     1
102
RTVSPost2010PropOp30
 70
     1
102
RTVSPost2010Prop31
280
     0
102
RTVSPost2010PropOp31
 70
     1
102
RTVSPost2010Prop32
280
     0
102
RTVSPost2010PropOp32
 70
     1
102
RTVSPost2010Prop33
280
     0
102
RTVSPost2010PropOp33
 70
     1
102
RTVSPost2010Prop34
280
     0
102
RTVSPost2010PropOp34
 70
     1
102
RTVSPost2010Prop35
280
     0
102
RTVSPost2010PropOp35
 70
     1
102
RTVSPost2010Prop36
280
     0
102
RTVSPost2010PropOp36
 70
     1
102
RTVSPost2010Prop37
 90
       50
102
RTVSPost2010PropOp37
 70
     1
102
RTVSPost2010Prop38
140
0.0
102
RTVSPost2010PropOp38
 70
     1
102
RTVSPost2010Prop39
140
1.0
102
RTVSPost2010PropOp39
 70
     1
102
RTVSPost2010Prop40
 90
        0
102
RTVSPost2010PropOp40
 70
     1
102
RTVSPost2010Prop41ColorIndex
 90
       18
102
RTVSPost2010Prop41ColorRGB
 90
        0
102
RTVSPost2010PropOp41
 70
     1
102
RTVSPost2010Prop42
 90
       50
102
RTVSPost2010PropOp42
 70
     1
102
RTVSPost2010Prop43
 90
        3
102
RTVSPost2010PropOp43
 70
     1
102
RTVSPost2010Prop44ColorIndex
 90
        5
102
RTVSPost2010Prop44ColorRGB
 90
      255
102
RTVSPost2010PropOp44
 70
     1
102
RTVSPost2010Prop45
280
     0
102
RTVSPost2010PropOp45
 70
     1
102
RTVSPost2010Prop46
 90
       50
102
RTVSPost2010PropOp46
 70
     1
102
RTVSPost2010Prop47
 90
       50
102
RTVSPost2010PropOp47
 70
     1
102
RTVSPost2010Prop48
 90
       50
102
RTVSPost2010PropOp48
 70
     1
102
RTVSPost2010Prop49
280
     0
102
RTVSPost2010PropOp49
 70
     1
102
RTVSPost2010Prop50
 90
       50
102
RTVSPost2010PropOp50
 70
     1
102
RTVSPost2010Prop51ColorIndex
 90
      256
102
RTVSPost2010Prop51ColorRGB
 90
-16777216
102
RTVSPost2010PropOp51
 70
     0
102
RTVSPost2010Prop52
140
1.0
102
RTVSPost2010PropOp52
 70
     0
102
RTVSPost2010Prop53
 90
        2
102
RTVSPost2010PropOp53
 70
     1
102
RTVSPost2010Prop54
  1
strokes_ogs.tif
102
RTVSPost2010PropOp54
 70
     1
102
RTVSPost2010Prop55
280
     0
102
RTVSPost2010PropOp55
 70
     1
102
RTVSPost2010Prop56
140
1.0
102
RTVSPost2010PropOp56
 70
     1
102
RTVSPost2010Prop57
140
1.0
102
RTVSPost2010PropOp57
 70
     1
  0
XRECORD
  5
3F8
102
{ACAD_REACTORS
330
3F7
102
}
330
3F7
100
AcDbXrecord
280
     1
102
RTVSPropertyOp0
 70
     1
102
RTVSPropertyOp1
 70
     1
102
RTVSPropertyOp2
 70
     1
102
RTVSPropertyOp3
 70
     1
102
RTVSPropertyOp4
 70
     1
102
RTVSPropertyOp5
 70
     1
102
RTVSPropertyOp6
 70
     1
102
RTVSPropertyOp7
 70
     1
102
RTVSPropertyOp8
 70
     1
102
RTVSPropertyOp9
 70
     1
102
RTVSPropertyOp10
 70
     1
102
RTVSPropertyOp11
 70
     1
102
RTVSPropertyOp12
 70
     1
102
RTVSPropertyOp13
 70
     1
102
RTVSPropertyOp14
 70
     1
102
RTVSPropertyOp15
 70
     1
102
RTVSPropertyOp16
 70
     1
102
RTVSPropertyOp17
 70
     1
102
RTVSPropertyOp18
 70
     1
102
RTVSPropertyOp19
 70
     1
102
RTVSPropertyOp20
 70
     1
102
RTVSPropertyOp21
 70
     1
102
RTVSPropertyOp22
 70
     1
102
RTVSPropertyOp23
 70
     1
102
RTVSPropertyOp24
 70
     1
102
RTVSPropertyOp25
 70
     1
102
RTVSPropertyOp26
 70
     1
102
RTVSPropertyOp27
 70
     1
102
RTVSPropertyOp28
 70
     1
102
RTVSPropertyOp29
 70
     1
102
RTVSPropertyOp30
 70
     1
102
RTVSPropertyOp31
 70
     1
102
RTVSPropertyOp32
 70
     1
102
RTVSPropertyOp33
 70
     1
102
RTVSPropertyOp34
 70
     1
102
RTVSPropertyOp35
 70
     1
102
RTVSPropertyOp36
 70
     1
102
RTVSPropertyOp37
 70
     1
102
RTVSPropertyOp38
 70
     1
102
RTVSPropertyOp39
 70
     1
102
RTVSPropertyOp40
 70
     1
102
RTVSPropertyOp41
 70
     1
102
RTVSPropertyOp42
 70
     1
102
RTVSPropertyOp43
 70
     1
102
RTVSPropertyOp44
 70
     1
102
RTVSPropertyOp45
 70
     1
102
RTVSPropertyOp46
 70
     1
102
RTVSPropertyOp47
 70
     1
102
RTVSPropertyOp48
 70
     1
102
RTVSPropertyOp49
 70
     1
102
RTVSPropertyOp50
 70
     1
102
RTVSPropertyOp51
 70
     0
102
RTVSPropertyOp52
 70
     0
102
RTVSPropertyOp53
 70
     1
102
RTVSPropertyOp54
 70
     1
102
RTVSPropertyOp55
 70
     1
102
RTVSPropertyOp56
 70
     1
102
RTVSPropertyOp57
 70
     1
102
RTVSPost2010Prop28
280
     0
102
RTVSPost2010PropOp28
 70
     1
102
RTVSPost2010Prop29
280
     1
102
RTVSPost2010PropOp29
 70
     1
102
RTVSPost2010Prop30
280
     1
102
RTVSPost2010PropOp30
 70
     1
102
RTVSPost2010Prop31
280
     0
102
RTVSPost2010PropOp31
 70
     1
102
RTVSPost2010Prop32
280
     0
102
RTVSPost2010PropOp32
 70
     1
102
RTVSPost2010Prop33
280
     0
102
RTVSPost2010PropOp33
 70
     1
102
RTVSPost2010Prop34
280
     0
102
RTVSPost2010PropOp34
 70
     1
102
RTVSPost2010Prop35
280
     0
102
RTVSPost2010PropOp35
 70
     1
102
RTVSPost2010Prop36
280
     0
102
RTVSPost2010PropOp36
 70
     1
102
RTVSPost2010Prop37
 90
       50
102
RTVSPost2010PropOp37
 70
     1
102
RTVSPost2010Prop38
140
0.0
102
RTVSPost2010PropOp38
 70
     1
102
RTVSPost2010Prop39
140
1.0
102
RTVSPost2010PropOp39
 70
     1
102
RTVSPost2010Prop40
 90
        0
102
RTVSPost2010PropOp40
 70
     1
102
RTVSPost2010Prop41ColorIndex
 90
       18
102
RTVSPost2010Prop41ColorRGB
 90
        0
102
RTVSPost2010PropOp41
 70
     1
102
RTVSPost2010Prop42
 90
       50
102
RTVSPost2010PropOp42
 70
     1
102
RTVSPost2010Prop43
 90
        3
102
RTVSPost2010PropOp43
 70
     1
102
RTVSPost2010Prop44ColorIndex
 90
        5
102
RTVSPost2010Prop44ColorRGB
 90
      255
102
RTVSPost2010PropOp44
 70
     1
102
RTVSPost2010Prop45
280
     0
102
RTVSPost2010PropOp45
 70
     1
102
RTVSPost2010Prop46
 90
       50
102
RTVSPost2010PropOp46
 70
     1
102
RTVSPost2010Prop47
 90
       50
102
RTVSPost2010PropOp47
 70
     1
102
RTVSPost2010Prop48
 90
       50
102
RTVSPost2010PropOp48
 70
     1
102
RTVSPost2010Prop49
280
     0
102
RTVSPost2010PropOp49
 70
     1
102
RTVSPost2010Prop50
 90
       50
102
RTVSPost2010PropOp50
 70
     1
102
RTVSPost2010Prop51ColorIndex
 90
      256
102
RTVSPost2010Prop51ColorRGB
 90
-16777216
102
RTVSPost2010PropOp51
 70
     0
102
RTVSPost2010Prop52
140
1.0
102
RTVSPost2010PropOp52
 70
     0
102
RTVSPost2010Prop53
 90
        2
102
RTVSPost2010PropOp53
 70
     1
102
RTVSPost2010Prop54
  1
strokes_ogs.tif
102
RTVSPost2010PropOp54
 70
     1
102
RTVSPost2010Prop55
280
     0
102
RTVSPost2010PropOp55
 70
     1
102
RTVSPost2010Prop56
140
1.0
102
RTVSPost2010PropOp56
 70
     1
102
RTVSPost2010Prop57
140
1.0
102
RTVSPost2010PropOp57
 70
     1
  0
XRECORD
  5
3EC
102
{ACAD_REACTORS
330
3EB
102
}
330
3EB
100
AcDbXrecord
280
     1
102
RTVSPropertyOp0
 70
     1
102
RTVSPropertyOp1
 70
     1
102
RTVSPropertyOp2
 70
     1
102
RTVSPropertyOp3
 70
     1
102
RTVSPropertyOp4
 70
     1
102
RTVSPropertyOp5
 70
     1
102
RTVSPropertyOp6
 70
     1
102
RTVSPropertyOp7
 70
     1
102
RTVSPropertyOp8
 70
     1
102
RTVSPropertyOp9
 70
     1
102
RTVSPropertyOp10
 70
     1
102
RTVSPropertyOp11
 70
     1
102
RTVSPropertyOp12
 70
     1
102
RTVSPropertyOp13
 70
     1
102
RTVSPropertyOp14
 70
     1
102
RTVSPropertyOp15
 70
     1
102
RTVSPropertyOp16
 70
     1
102
RTVSPropertyOp17
 70
     1
102
RTVSPropertyOp18
 70
     1
102
RTVSPropertyOp19
 70
     1
102
RTVSPropertyOp20
 70
     1
102
RTVSPropertyOp21
 70
     1
102
RTVSPropertyOp22
 70
     1
102
RTVSPropertyOp23
 70
     1
102
RTVSPropertyOp24
 70
     1
102
RTVSPropertyOp25
 70
     1
102
RTVSPropertyOp26
 70
     1
102
RTVSPropertyOp27
 70
     1
102
RTVSPropertyOp28
 70
     1
102
RTVSPropertyOp29
 70
     1
102
RTVSPropertyOp30
 70
     1
102
RTVSPropertyOp31
 70
     1
102
RTVSPropertyOp32
 70
     1
102
RTVSPropertyOp33
 70
     1
102
RTVSPropertyOp34
 70
     1
102
RTVSPropertyOp35
 70
     1
102
RTVSPropertyOp36
 70
     1
102
RTVSPropertyOp37
 70
     1
102
RTVSPropertyOp38
 70
     1
102
RTVSPropertyOp39
 70
     1
102
RTVSPropertyOp40
 70
     1
102
RTVSPropertyOp41
 70
     1
102
RTVSPropertyOp42
 70
     1
102
RTVSPropertyOp43
 70
     1
102
RTVSPropertyOp44
 70
     1
102
RTVSPropertyOp45
 70
     1
102
RTVSPropertyOp46
 70
     1
102
RTVSPropertyOp47
 70
     1
102
RTVSPropertyOp48
 70
     1
102
RTVSPropertyOp49
 70
     1
102
RTVSPropertyOp50
 70
     1
102
RTVSPropertyOp51
 70
     0
102
RTVSPropertyOp52
 70
     0
102
RTVSPropertyOp53
 70
     1
102
RTVSPropertyOp54
 70
     1
102
RTVSPropertyOp55
 70
     1
102
RTVSPropertyOp56
 70
     1
102
RTVSPropertyOp57
 70
     1
102
RTVSPost2010Prop28
280
     0
102
RTVSPost2010PropOp28
 70
     1
102
RTVSPost2010Prop29
280
     1
102
RTVSPost2010PropOp29
 70
     1
102
RTVSPost2010Prop30
280
     1
102
RTVSPost2010PropOp30
 70
     1
102
RTVSPost2010Prop31
280
     0
102
RTVSPost2010PropOp31
 70
     1
102
RTVSPost2010Prop32
280
     0
102
RTVSPost2010PropOp32
 70
     1
102
RTVSPost2010Prop33
280
     0
102
RTVSPost2010PropOp33
 70
     1
102
RTVSPost2010Prop34
280
     0
102
RTVSPost2010PropOp34
 70
     1
102
RTVSPost2010Prop35
280
     0
102
RTVSPost2010PropOp35
 70
     1
102
RTVSPost2010Prop36
280
     0
102
RTVSPost2010PropOp36
 70
     1
102
RTVSPost2010Prop37
 90
       50
102
RTVSPost2010PropOp37
 70
     1
102
RTVSPost2010Prop38
140
0.0
102
RTVSPost2010PropOp38
 70
     1
102
RTVSPost2010Prop39
140
1.0
102
RTVSPost2010PropOp39
 70
     1
102
RTVSPost2010Prop40
 90
        0
102
RTVSPost2010PropOp40
 70
     1
102
RTVSPost2010Prop41ColorIndex
 90
       18
102
RTVSPost2010Prop41ColorRGB
 90
        0
102
RTVSPost2010PropOp41
 70
     1
102
RTVSPost2010Prop42
 90
       50
102
RTVSPost2010PropOp42
 70
     1
102
RTVSPost2010Prop43
 90
        3
102
RTVSPost2010PropOp43
 70
     1
102
RTVSPost2010Prop44ColorIndex
 90
        5
102
RTVSPost2010Prop44ColorRGB
 90
      255
102
RTVSPost2010PropOp44
 70
     1
102
RTVSPost2010Prop45
280
     0
102
RTVSPost2010PropOp45
 70
     1
102
RTVSPost2010Prop46
 90
       50
102
RTVSPost2010PropOp46
 70
     1
102
RTVSPost2010Prop47
 90
       50
102
RTVSPost2010PropOp47
 70
     1
102
RTVSPost2010Prop48
 90
       50
102
RTVSPost2010PropOp48
 70
     1
102
RTVSPost2010Prop49
280
     0
102
RTVSPost2010PropOp49
 70
     1
102
RTVSPost2010Prop50
 90
       50
102
RTVSPost2010PropOp50
 70
     1
102
RTVSPost2010Prop51ColorIndex
 90
      256
102
RTVSPost2010Prop51ColorRGB
 90
-16777216
102
RTVSPost2010PropOp51
 70
     0
102
RTVSPost2010Prop52
140
1.0
102
RTVSPost2010PropOp52
 70
     0
102
RTVSPost2010Prop53
 90
        2
102
RTVSPost2010PropOp53
 70
     1
102
RTVSPost2010Prop54
  1
strokes_ogs.tif
102
RTVSPost2010PropOp54
 70
     1
102
RTVSPost2010Prop55
280
     0
102
RTVSPost2010PropOp55
 70
     1
102
RTVSPost2010Prop56
140
1.0
102
RTVSPost2010PropOp56
 70
     1
102
RTVSPost2010Prop57
140
1.0
102
RTVSPost2010PropOp57
 70
     1
  0
XRECORD
  5
3EE
102
{ACAD_REACTORS
330
3ED
102
}
330
3ED
100
AcDbXrecord
280
     1
102
RTVSPropertyOp0
 70
     1
102
RTVSPropertyOp1
 70
     1
102
RTVSPropertyOp2
 70
     1
102
RTVSPropertyOp3
 70
     1
102
RTVSPropertyOp4
 70
     1
102
RTVSPropertyOp5
 70
     1
102
RTVSPropertyOp6
 70
     1
102
RTVSPropertyOp7
 70
     1
102
RTVSPropertyOp8
 70
     1
102
RTVSPropertyOp9
 70
     1
102
RTVSPropertyOp10
 70
     1
102
RTVSPropertyOp11
 70
     1
102
RTVSPropertyOp12
 70
     1
102
RTVSPropertyOp13
 70
     1
102
RTVSPropertyOp14
 70
     1
102
RTVSPropertyOp15
 70
     1
102
RTVSPropertyOp16
 70
     1
102
RTVSPropertyOp17
 70
     1
102
RTVSPropertyOp18
 70
     1
102
RTVSPropertyOp19
 70
     1
102
RTVSPropertyOp20
 70
     1
102
RTVSPropertyOp21
 70
     1
102
RTVSPropertyOp22
 70
     1
102
RTVSPropertyOp23
 70
     1
102
RTVSPropertyOp24
 70
     1
102
RTVSPropertyOp25
 70
     1
102
RTVSPropertyOp26
 70
     1
102
RTVSPropertyOp27
 70
     1
102
RTVSPropertyOp28
 70
     1
102
RTVSPropertyOp29
 70
     1
102
RTVSPropertyOp30
 70
     1
102
RTVSPropertyOp31
 70
     1
102
RTVSPropertyOp32
 70
     1
102
RTVSPropertyOp33
 70
     1
102
RTVSPropertyOp34
 70
     1
102
RTVSPropertyOp35
 70
     1
102
RTVSPropertyOp36
 70
     1
102
RTVSPropertyOp37
 70
     1
102
RTVSPropertyOp38
 70
     1
102
RTVSPropertyOp39
 70
     1
102
RTVSPropertyOp40
 70
     1
102
RTVSPropertyOp41
 70
     1
102
RTVSPropertyOp42
 70
     1
102
RTVSPropertyOp43
 70
     1
102
RTVSPropertyOp44
 70
     1
102
RTVSPropertyOp45
 70
     1
102
RTVSPropertyOp46
 70
     1
102
RTVSPropertyOp47
 70
     1
102
RTVSPropertyOp48
 70
     1
102
RTVSPropertyOp49
 70
     1
102
RTVSPropertyOp50
 70
     1
102
RTVSPropertyOp51
 70
     0
102
RTVSPropertyOp52
 70
     0
102
RTVSPropertyOp53
 70
     1
102
RTVSPropertyOp54
 70
     1
102
RTVSPropertyOp55
 70
     1
102
RTVSPropertyOp56
 70
     1
102
RTVSPropertyOp57
 70
     1
102
RTVSPost2010Prop28
280
     0
102
RTVSPost2010PropOp28
 70
     1
102
RTVSPost2010Prop29
280
     1
102
RTVSPost2010PropOp29
 70
     1
102
RTVSPost2010Prop30
280
     1
102
RTVSPost2010PropOp30
 70
     1
102
RTVSPost2010Prop31
280
     0
102
RTVSPost2010PropOp31
 70
     1
102
RTVSPost2010Prop32
280
     0
102
RTVSPost2010PropOp32
 70
     1
102
RTVSPost2010Prop33
280
     0
102
RTVSPost2010PropOp33
 70
     1
102
RTVSPost2010Prop34
280
     0
102
RTVSPost2010PropOp34
 70
     1
102
RTVSPost2010Prop35
280
     0
102
RTVSPost2010PropOp35
 70
     1
102
RTVSPost2010Prop36
280
     0
102
RTVSPost2010PropOp36
 70
     1
102
RTVSPost2010Prop37
 90
       50
102
RTVSPost2010PropOp37
 70
     1
102
RTVSPost2010Prop38
140
0.0
102
RTVSPost2010PropOp38
 70
     1
102
RTVSPost2010Prop39
140
1.0
102
RTVSPost2010PropOp39
 70
     1
102
RTVSPost2010Prop40
 90
        0
102
RTVSPost2010PropOp40
 70
     1
102
RTVSPost2010Prop41ColorIndex
 90
       18
102
RTVSPost2010Prop41ColorRGB
 90
        0
102
RTVSPost2010PropOp41
 70
     1
102
RTVSPost2010Prop42
 90
       50
102
RTVSPost2010PropOp42
 70
     1
102
RTVSPost2010Prop43
 90
        3
102
RTVSPost2010PropOp43
 70
     1
102
RTVSPost2010Prop44ColorIndex
 90
        5
102
RTVSPost2010Prop44ColorRGB
 90
      255
102
RTVSPost2010PropOp44
 70
     1
102
RTVSPost2010Prop45
280
     0
102
RTVSPost2010PropOp45
 70
     1
102
RTVSPost2010Prop46
 90
       50
102
RTVSPost2010PropOp46
 70
     1
102
RTVSPost2010Prop47
 90
       50
102
RTVSPost2010PropOp47
 70
     1
102
RTVSPost2010Prop48
 90
       50
102
RTVSPost2010PropOp48
 70
     1
102
RTVSPost2010Prop49
280
     0
102
RTVSPost2010PropOp49
 70
     1
102
RTVSPost2010Prop50
 90
       50
102
RTVSPost2010PropOp50
 70
     1
102
RTVSPost2010Prop51ColorIndex
 90
      256
102
RTVSPost2010Prop51ColorRGB
 90
-16777216
102
RTVSPost2010PropOp51
 70
     0
102
RTVSPost2010Prop52
140
1.0
102
RTVSPost2010PropOp52
 70
     0
102
RTVSPost2010Prop53
 90
        2
102
RTVSPost2010PropOp53
 70
     1
102
RTVSPost2010Prop54
  1
strokes_ogs.tif
102
RTVSPost2010PropOp54
 70
     1
102
RTVSPost2010Prop55
280
     0
102
RTVSPost2010PropOp55
 70
     1
102
RTVSPost2010Prop56
140
1.0
102
RTVSPost2010PropOp56
 70
     1
102
RTVSPost2010Prop57
140
1.0
102
RTVSPost2010PropOp57
 70
     1
  0
XRECORD
  5
3FE
102
{ACAD_REACTORS
330
3FD
102
}
330
3FD
100
AcDbXrecord
280
     1
102
RTVSPropertyOp0
 70
     0
102
RTVSPropertyOp1
 70
     0
102
RTVSPropertyOp2
 70
     0
102
RTVSPropertyOp3
 70
     0
102
RTVSPropertyOp4
 70
     0
102
RTVSPropertyOp5
 70
     0
102
RTVSPropertyOp6
 70
     0
102
RTVSPropertyOp7
 70
     0
102
RTVSPropertyOp8
 70
     0
102
RTVSPropertyOp9
 70
     0
102
RTVSPropertyOp10
 70
     0
102
RTVSPropertyOp11
 70
     0
102
RTVSPropertyOp12
 70
     0
102
RTVSPropertyOp13
 70
     0
102
RTVSPropertyOp14
 70
     2
102
RTVSPropertyOp15
 70
     0
102
RTVSPropertyOp16
 70
     0
102
RTVSPropertyOp17
 70
     0
102
RTVSPropertyOp18
 70
     0
102
RTVSPropertyOp19
 70
     0
102
RTVSPropertyOp20
 70
     0
102
RTVSPropertyOp21
 70
     0
102
RTVSPropertyOp22
 70
     0
102
RTVSPropertyOp23
 70
     0
102
RTVSPropertyOp24
 70
     0
102
RTVSPropertyOp25
 70
     0
102
RTVSPropertyOp26
 70
     0
102
RTVSPropertyOp27
 70
     0
102
RTVSPropertyOp28
 70
     0
102
RTVSPropertyOp29
 70
     0
102
RTVSPropertyOp30
 70
     0
102
RTVSPropertyOp31
 70
     0
102
RTVSPropertyOp32
 70
     0
102
RTVSPropertyOp33
 70
     0
102
RTVSPropertyOp34
 70
     0
102
RTVSPropertyOp35
 70
     0
102
RTVSPropertyOp36
 70
     0
102
RTVSPropertyOp37
 70
     0
102
RTVSPropertyOp38
 70
     0
102
RTVSPropertyOp39
 70
     0
102
RTVSPropertyOp40
 70
     0
102
RTVSPropertyOp41
 70
     0
102
RTVSPropertyOp42
 70
     0
102
RTVSPropertyOp43
 70
     0
102
RTVSPropertyOp44
 70
     0
102
RTVSPropertyOp45
 70
     0
102
RTVSPropertyOp46
 70
     0
102
RTVSPropertyOp47
 70
     0
102
RTVSPropertyOp48
 70
     0
102
RTVSPropertyOp49
 70
     0
102
RTVSPropertyOp50
 70
     0
102
RTVSPropertyOp51
 70
     0
102
RTVSPropertyOp52
 70
     0
102
RTVSPropertyOp53
 70
     0
102
RTVSPropertyOp54
 70
     0
102
RTVSPropertyOp55
 70
     0
102
RTVSPropertyOp56
 70
     0
102
RTVSPropertyOp57
 70
     0
102
RTVSPost2010Prop28
280
     0
102
RTVSPost2010PropOp28
 70
     0
102
RTVSPost2010Prop29
280
     1
102
RTVSPost2010PropOp29
 70
     0
102
RTVSPost2010Prop30
280
     1
102
RTVSPost2010PropOp30
 70
     0
102
RTVSPost2010Prop31
280
     0
102
RTVSPost2010PropOp31
 70
     0
102
RTVSPost2010Prop32
280
     0
102
RTVSPost2010PropOp32
 70
     0
102
RTVSPost2010Prop33
280
     0
102
RTVSPost2010PropOp33
 70
     0
102
RTVSPost2010Prop34
280
     0
102
RTVSPost2010PropOp34
 70
     0
102
RTVSPost2010Prop35
280
     0
102
RTVSPost2010PropOp35
 70
     0
102
RTVSPost2010Prop36
280
     0
102
RTVSPost2010PropOp36
 70
     0
102
RTVSPost2010Prop37
 90
       50
102
RTVSPost2010PropOp37
 70
     0
102
RTVSPost2010Prop38
140
0.0
102
RTVSPost2010PropOp38
 70
     0
102
RTVSPost2010Prop39
140
1.0
102
RTVSPost2010PropOp39
 70
     0
102
RTVSPost2010Prop40
 90
        0
102
RTVSPost2010PropOp40
 70
     0
102
RTVSPost2010Prop41ColorIndex
 90
       18
102
RTVSPost2010Prop41ColorRGB
 90
        0
102
RTVSPost2010PropOp41
 70
     0
102
RTVSPost2010Prop42
 90
       50
102
RTVSPost2010PropOp42
 70
     0
102
RTVSPost2010Prop43
 90
        3
102
RTVSPost2010PropOp43
 70
     0
102
RTVSPost2010Prop44ColorIndex
 90
        5
102
RTVSPost2010Prop44ColorRGB
 90
      255
102
RTVSPost2010PropOp44
 70
     0
102
RTVSPost2010Prop45
280
     0
102
RTVSPost2010PropOp45
 70
     0
102
RTVSPost2010Prop46
 90
       50
102
RTVSPost2010PropOp46
 70
     0
102
RTVSPost2010Prop47
 90
       50
102
RTVSPost2010PropOp47
 70
     0
102
RTVSPost2010Prop48
 90
       50
102
RTVSPost2010PropOp48
 70
     0
102
RTVSPost2010Prop49
280
     0
102
RTVSPost2010PropOp49
 70
     0
102
RTVSPost2010Prop50
 90
       50
102
RTVSPost2010PropOp50
 70
     0
102
RTVSPost2010Prop51ColorIndex
 90
      256
102
RTVSPost2010Prop51ColorRGB
 90
-16777216
102
RTVSPost2010PropOp51
 70
     0
102
RTVSPost2010Prop52
140
1.0
102
RTVSPost2010PropOp52
 70
     0
102
RTVSPost2010Prop53
 90
        2
102
RTVSPost2010PropOp53
 70
     0
102
RTVSPost2010Prop54
  1
strokes_ogs.tif
102
RTVSPost2010PropOp54
 70
     0
102
RTVSPost2010Prop55
280
     0
102
RTVSPost2010PropOp55
 70
     0
102
RTVSPost2010Prop56
140
1.0
102
RTVSPost2010PropOp56
 70
     0
102
RTVSPost2010Prop57
140
1.0
102
RTVSPost2010PropOp57
 70
     0
  0
XRECORD
  5
3F6
102
{ACAD_REACTORS
330
3F5
102
}
330
3F5
100
AcDbXrecord
280
     1
102
RTVSPropertyOp0
 70
     1
102
RTVSPropertyOp1
 70
     1
102
RTVSPropertyOp2
 70
     1
102
RTVSPropertyOp3
 70
     1
102
RTVSPropertyOp4
 70
     1
102
RTVSPropertyOp5
 70
     1
102
RTVSPropertyOp6
 70
     1
102
RTVSPropertyOp7
 70
     1
102
RTVSPropertyOp8
 70
     1
102
RTVSPropertyOp9
 70
     1
102
RTVSPropertyOp10
 70
     1
102
RTVSPropertyOp11
 70
     1
102
RTVSPropertyOp12
 70
     1
102
RTVSPropertyOp13
 70
     1
102
RTVSPropertyOp14
 70
     1
102
RTVSPropertyOp15
 70
     1
102
RTVSPropertyOp16
 70
     1
102
RTVSPropertyOp17
 70
     1
102
RTVSPropertyOp18
 70
     1
102
RTVSPropertyOp19
 70
     1
102
RTVSPropertyOp20
 70
     1
102
RTVSPropertyOp21
 70
     1
102
RTVSPropertyOp22
 70
     1
102
RTVSPropertyOp23
 70
     1
102
RTVSPropertyOp24
 70
     1
102
RTVSPropertyOp25
 70
     1
102
RTVSPropertyOp26
 70
     1
102
RTVSPropertyOp27
 70
     1
102
RTVSPropertyOp28
 70
     1
102
RTVSPropertyOp29
 70
     1
102
RTVSPropertyOp30
 70
     1
102
RTVSPropertyOp31
 70
     1
102
RTVSPropertyOp32
 70
     1
102
RTVSPropertyOp33
 70
     1
102
RTVSPropertyOp34
 70
     1
102
RTVSPropertyOp35
 70
     1
102
RTVSPropertyOp36
 70
     1
102
RTVSPropertyOp37
 70
     1
102
RTVSPropertyOp38
 70
     1
102
RTVSPropertyOp39
 70
     1
102
RTVSPropertyOp40
 70
     1
102
RTVSPropertyOp41
 70
     1
102
RTVSPropertyOp42
 70
     1
102
RTVSPropertyOp43
 70
     1
102
RTVSPropertyOp44
 70
     1
102
RTVSPropertyOp45
 70
     1
102
RTVSPropertyOp46
 70
     1
102
RTVSPropertyOp47
 70
     1
102
RTVSPropertyOp48
 70
     1
102
RTVSPropertyOp49
 70
     1
102
RTVSPropertyOp50
 70
     1
102
RTVSPropertyOp51
 70
     0
102
RTVSPropertyOp52
 70
     0
102
RTVSPropertyOp53
 70
     1
102
RTVSPropertyOp54
 70
     1
102
RTVSPropertyOp55
 70
     1
102
RTVSPropertyOp56
 70
     1
102
RTVSPropertyOp57
 70
     1
102
RTVSPost2010Prop28
280
     0
102
RTVSPost2010PropOp28
 70
     1
102
RTVSPost2010Prop29
280
     1
102
RTVSPost2010PropOp29
 70
     1
102
RTVSPost2010Prop30
280
     1
102
RTVSPost2010PropOp30
 70
     1
102
RTVSPost2010Prop31
280
     0
102
RTVSPost2010PropOp31
 70
     1
102
RTVSPost2010Prop32
280
     0
102
RTVSPost2010PropOp32
 70
     1
102
RTVSPost2010Prop33
280
     0
102
RTVSPost2010PropOp33
 70
     1
102
RTVSPost2010Prop34
280
     0
102
RTVSPost2010PropOp34
 70
     1
102
RTVSPost2010Prop35
280
     0
102
RTVSPost2010PropOp35
 70
     1
102
RTVSPost2010Prop36
280
     0
102
RTVSPost2010PropOp36
 70
     1
102
RTVSPost2010Prop37
 90
       50
102
RTVSPost2010PropOp37
 70
     1
102
RTVSPost2010Prop38
140
0.0
102
RTVSPost2010PropOp38
 70
     1
102
RTVSPost2010Prop39
140
1.0
102
RTVSPost2010PropOp39
 70
     1
102
RTVSPost2010Prop40
 90
        0
102
RTVSPost2010PropOp40
 70
     1
102
RTVSPost2010Prop41ColorIndex
 90
       18
102
RTVSPost2010Prop41ColorRGB
 90
        0
102
RTVSPost2010PropOp41
 70
     1
102
RTVSPost2010Prop42
 90
       50
102
RTVSPost2010PropOp42
 70
     1
102
RTVSPost2010Prop43
 90
        3
102
RTVSPost2010PropOp43
 70
     1
102
RTVSPost2010Prop44ColorIndex
 90
        5
102
RTVSPost2010Prop44ColorRGB
 90
      255
102
RTVSPost2010PropOp44
 70
     1
102
RTVSPost2010Prop45
280
     0
102
RTVSPost2010PropOp45
 70
     1
102
RTVSPost2010Prop46
 90
       50
102
RTVSPost2010PropOp46
 70
     1
102
RTVSPost2010Prop47
 90
       50
102
RTVSPost2010PropOp47
 70
     1
102
RTVSPost2010Prop48
 90
       50
102
RTVSPost2010PropOp48
 70
     1
102
RTVSPost2010Prop49
280
     0
102
RTVSPost2010PropOp49
 70
     1
102
RTVSPost2010Prop50
 90
       50
102
RTVSPost2010PropOp50
 70
     1
102
RTVSPost2010Prop51ColorIndex
 90
      256
102
RTVSPost2010Prop51ColorRGB
 90
-16777216
102
RTVSPost2010PropOp51
 70
     0
102
RTVSPost2010Prop52
140
1.0
102
RTVSPost2010PropOp52
 70
     0
102
RTVSPost2010Prop53
 90
        2
102
RTVSPost2010PropOp53
 70
     1
102
RTVSPost2010Prop54
  1
strokes_ogs.tif
102
RTVSPost2010PropOp54
 70
     1
102
RTVSPost2010Prop55
280
     0
102
RTVSPost2010PropOp55
 70
     1
102
RTVSPost2010Prop56
140
1.0
102
RTVSPost2010PropOp56
 70
     1
102
RTVSPost2010Prop57
140
1.0
102
RTVSPost2010PropOp57
 70
     1
  0
XRECORD
  5
3DA
102
{ACAD_REACTORS
330
3D9
102
}
330
3D9
100
AcDbXrecord
280
     1
102
RTVSPropertyOp0
 70
     1
102
RTVSPropertyOp1
 70
     1
102
RTVSPropertyOp2
 70
     1
102
RTVSPropertyOp3
 70
     1
102
RTVSPropertyOp4
 70
     1
102
RTVSPropertyOp5
 70
     1
102
RTVSPropertyOp6
 70
     1
102
RTVSPropertyOp7
 70
     1
102
RTVSPropertyOp8
 70
     1
102
RTVSPropertyOp9
 70
     1
102
RTVSPropertyOp10
 70
     1
102
RTVSPropertyOp11
 70
     1
102
RTVSPropertyOp12
 70
     1
102
RTVSPropertyOp13
 70
     1
102
RTVSPropertyOp14
 70
     1
102
RTVSPropertyOp15
 70
     1
102
RTVSPropertyOp16
 70
     1
102
RTVSPropertyOp17
 70
     1
102
RTVSPropertyOp18
 70
     1
102
RTVSPropertyOp19
 70
     1
102
RTVSPropertyOp20
 70
     1
102
RTVSPropertyOp21
 70
     1
102
RTVSPropertyOp22
 70
     1
102
RTVSPropertyOp23
 70
     1
102
RTVSPropertyOp24
 70
     1
102
RTVSPropertyOp25
 70
     1
102
RTVSPropertyOp26
 70
     1
102
RTVSPropertyOp27
 70
     1
102
RTVSPropertyOp28
 70
     1
102
RTVSPropertyOp29
 70
     1
102
RTVSPropertyOp30
 70
     1
102
RTVSPropertyOp31
 70
     1
102
RTVSPropertyOp32
 70
     1
102
RTVSPropertyOp33
 70
     1
102
RTVSPropertyOp34
 70
     1
102
RTVSPropertyOp35
 70
     1
102
RTVSPropertyOp36
 70
     1
102
RTVSPropertyOp37
 70
     1
102
RTVSPropertyOp38
 70
     1
102
RTVSPropertyOp39
 70
     1
102
RTVSPropertyOp40
 70
     1
102
RTVSPropertyOp41
 70
     1
102
RTVSPropertyOp42
 70
     1
102
RTVSPropertyOp43
 70
     1
102
RTVSPropertyOp44
 70
     1
102
RTVSPropertyOp45
 70
     1
102
RTVSPropertyOp46
 70
     1
102
RTVSPropertyOp47
 70
     1
102
RTVSPropertyOp48
 70
     1
102
RTVSPropertyOp49
 70
     1
102
RTVSPropertyOp50
 70
     1
102
RTVSPropertyOp51
 70
     0
102
RTVSPropertyOp52
 70
     0
102
RTVSPropertyOp53
 70
     1
102
RTVSPropertyOp54
 70
     1
102
RTVSPropertyOp55
 70
     1
102
RTVSPropertyOp56
 70
     1
102
RTVSPropertyOp57
 70
     1
102
RTVSPost2010Prop28
280
     0
102
RTVSPost2010PropOp28
 70
     1
102
RTVSPost2010Prop29
280
     1
102
RTVSPost2010PropOp29
 70
     1
102
RTVSPost2010Prop30
280
     1
102
RTVSPost2010PropOp30
 70
     1
102
RTVSPost2010Prop31
280
     0
102
RTVSPost2010PropOp31
 70
     1
102
RTVSPost2010Prop32
280
     0
102
RTVSPost2010PropOp32
 70
     1
102
RTVSPost2010Prop33
280
     0
102
RTVSPost2010PropOp33
 70
     1
102
RTVSPost2010Prop34
280
     0
102
RTVSPost2010PropOp34
 70
     1
102
RTVSPost2010Prop35
280
     0
102
RTVSPost2010PropOp35
 70
     1
102
RTVSPost2010Prop36
280
     0
102
RTVSPost2010PropOp36
 70
     1
102
RTVSPost2010Prop37
 90
       50
102
RTVSPost2010PropOp37
 70
     1
102
RTVSPost2010Prop38
140
0.0
102
RTVSPost2010PropOp38
 70
     1
102
RTVSPost2010Prop39
140
1.0
102
RTVSPost2010PropOp39
 70
     1
102
RTVSPost2010Prop40
 90
        0
102
RTVSPost2010PropOp40
 70
     1
102
RTVSPost2010Prop41ColorIndex
 90
       18
102
RTVSPost2010Prop41ColorRGB
 90
        0
102
RTVSPost2010PropOp41
 70
     1
102
RTVSPost2010Prop42
 90
       50
102
RTVSPost2010PropOp42
 70
     1
102
RTVSPost2010Prop43
 90
        3
102
RTVSPost2010PropOp43
 70
     1
102
RTVSPost2010Prop44ColorIndex
 90
        5
102
RTVSPost2010Prop44ColorRGB
 90
      255
102
RTVSPost2010PropOp44
 70
     1
102
RTVSPost2010Prop45
280
     0
102
RTVSPost2010PropOp45
 70
     1
102
RTVSPost2010Prop46
 90
       50
102
RTVSPost2010PropOp46
 70
     1
102
RTVSPost2010Prop47
 90
       50
102
RTVSPost2010PropOp47
 70
     1
102
RTVSPost2010Prop48
 90
       50
102
RTVSPost2010PropOp48
 70
     1
102
RTVSPost2010Prop49
280
     0
102
RTVSPost2010PropOp49
 70
     1
102
RTVSPost2010Prop50
 90
       50
102
RTVSPost2010PropOp50
 70
     1
102
RTVSPost2010Prop51ColorIndex
 90
      256
102
RTVSPost2010Prop51ColorRGB
 90
-16777216
102
RTVSPost2010PropOp51
 70
     0
102
RTVSPost2010Prop52
140
1.0
102
RTVSPost2010PropOp52
 70
     0
102
RTVSPost2010Prop53
 90
        2
102
RTVSPost2010PropOp53
 70
     1
102
RTVSPost2010Prop54
  1
strokes_ogs.tif
102
RTVSPost2010PropOp54
 70
     1
102
RTVSPost2010Prop55
280
     0
102
RTVSPost2010PropOp55
 70
     1
102
RTVSPost2010Prop56
140
1.0
102
RTVSPost2010PropOp56
 70
     1
102
RTVSPost2010Prop57
140
1.0
102
RTVSPost2010PropOp57
 70
     1
  0
XRECORD
  5
3DC
102
{ACAD_REACTORS
330
3DB
102
}
330
3DB
100
AcDbXrecord
280
     1
102
RTVSPropertyOp0
 70
     1
102
RTVSPropertyOp1
 70
     1
102
RTVSPropertyOp2
 70
     1
102
RTVSPropertyOp3
 70
     1
102
RTVSPropertyOp4
 70
     1
102
RTVSPropertyOp5
 70
     1
102
RTVSPropertyOp6
 70
     1
102
RTVSPropertyOp7
 70
     1
102
RTVSPropertyOp8
 70
     1
102
RTVSPropertyOp9
 70
     1
102
RTVSPropertyOp10
 70
     1
102
RTVSPropertyOp11
 70
     1
102
RTVSPropertyOp12
 70
     1
102
RTVSPropertyOp13
 70
     1
102
RTVSPropertyOp14
 70
     1
102
RTVSPropertyOp15
 70
     1
102
RTVSPropertyOp16
 70
     1
102
RTVSPropertyOp17
 70
     1
102
RTVSPropertyOp18
 70
     1
102
RTVSPropertyOp19
 70
     1
102
RTVSPropertyOp20
 70
     1
102
RTVSPropertyOp21
 70
     1
102
RTVSPropertyOp22
 70
     1
102
RTVSPropertyOp23
 70
     1
102
RTVSPropertyOp24
 70
     1
102
RTVSPropertyOp25
 70
     1
102
RTVSPropertyOp26
 70
     1
102
RTVSPropertyOp27
 70
     1
102
RTVSPropertyOp28
 70
     1
102
RTVSPropertyOp29
 70
     1
102
RTVSPropertyOp30
 70
     1
102
RTVSPropertyOp31
 70
     1
102
RTVSPropertyOp32
 70
     1
102
RTVSPropertyOp33
 70
     1
102
RTVSPropertyOp34
 70
     1
102
RTVSPropertyOp35
 70
     1
102
RTVSPropertyOp36
 70
     1
102
RTVSPropertyOp37
 70
     1
102
RTVSPropertyOp38
 70
     1
102
RTVSPropertyOp39
 70
     1
102
RTVSPropertyOp40
 70
     1
102
RTVSPropertyOp41
 70
     1
102
RTVSPropertyOp42
 70
     1
102
RTVSPropertyOp43
 70
     1
102
RTVSPropertyOp44
 70
     1
102
RTVSPropertyOp45
 70
     1
102
RTVSPropertyOp46
 70
     1
102
RTVSPropertyOp47
 70
     1
102
RTVSPropertyOp48
 70
     1
102
RTVSPropertyOp49
 70
     1
102
RTVSPropertyOp50
 70
     1
102
RTVSPropertyOp51
 70
     0
102
RTVSPropertyOp52
 70
     0
102
RTVSPropertyOp53
 70
     1
102
RTVSPropertyOp54
 70
     1
102
RTVSPropertyOp55
 70
     1
102
RTVSPropertyOp56
 70
     1
102
RTVSPropertyOp57
 70
     1
102
RTVSPost2010Prop28
280
     0
102
RTVSPost2010PropOp28
 70
     1
102
RTVSPost2010Prop29
280
     1
102
RTVSPost2010PropOp29
 70
     1
102
RTVSPost2010Prop30
280
     1
102
RTVSPost2010PropOp30
 70
     1
102
RTVSPost2010Prop31
280
     0
102
RTVSPost2010PropOp31
 70
     1
102
RTVSPost2010Prop32
280
     0
102
RTVSPost2010PropOp32
 70
     1
102
RTVSPost2010Prop33
280
     0
102
RTVSPost2010PropOp33
 70
     1
102
RTVSPost2010Prop34
280
     0
102
RTVSPost2010PropOp34
 70
     1
102
RTVSPost2010Prop35
280
     0
102
RTVSPost2010PropOp35
 70
     1
102
RTVSPost2010Prop36
280
     0
102
RTVSPost2010PropOp36
 70
     1
102
RTVSPost2010Prop37
 90
       50
102
RTVSPost2010PropOp37
 70
     1
102
RTVSPost2010Prop38
140
0.0
102
RTVSPost2010PropOp38
 70
     1
102
RTVSPost2010Prop39
140
1.0
102
RTVSPost2010PropOp39
 70
     1
102
RTVSPost2010Prop40
 90
        0
102
RTVSPost2010PropOp40
 70
     1
102
RTVSPost2010Prop41ColorIndex
 90
       18
102
RTVSPost2010Prop41ColorRGB
 90
        0
102
RTVSPost2010PropOp41
 70
     1
102
RTVSPost2010Prop42
 90
       50
102
RTVSPost2010PropOp42
 70
     1
102
RTVSPost2010Prop43
 90
        3
102
RTVSPost2010PropOp43
 70
     1
102
RTVSPost2010Prop44ColorIndex
 90
        5
102
RTVSPost2010Prop44ColorRGB
 90
      255
102
RTVSPost2010PropOp44
 70
     1
102
RTVSPost2010Prop45
280
     0
102
RTVSPost2010PropOp45
 70
     1
102
RTVSPost2010Prop46
 90
       50
102
RTVSPost2010PropOp46
 70
     1
102
RTVSPost2010Prop47
 90
       50
102
RTVSPost2010PropOp47
 70
     1
102
RTVSPost2010Prop48
 90
       50
102
RTVSPost2010PropOp48
 70
     1
102
RTVSPost2010Prop49
280
     0
102
RTVSPost2010PropOp49
 70
     1
102
RTVSPost2010Prop50
 90
       50
102
RTVSPost2010PropOp50
 70
     1
102
RTVSPost2010Prop51ColorIndex
 90
      256
102
RTVSPost2010Prop51ColorRGB
 90
-16777216
102
RTVSPost2010PropOp51
 70
     0
102
RTVSPost2010Prop52
140
1.0
102
RTVSPost2010PropOp52
 70
     0
102
RTVSPost2010Prop53
 90
        2
102
RTVSPost2010PropOp53
 70
     1
102
RTVSPost2010Prop54
  1
strokes_ogs.tif
102
RTVSPost2010PropOp54
 70
     1
102
RTVSPost2010Prop55
280
     0
102
RTVSPost2010PropOp55
 70
     1
102
RTVSPost2010Prop56
140
1.0
102
RTVSPost2010PropOp56
 70
     1
102
RTVSPost2010Prop57
140
1.0
102
RTVSPost2010PropOp57
 70
     1
  0
XRECORD
  5
3DE
102
{ACAD_REACTORS
330
3DD
102
}
330
3DD
100
AcDbXrecord
280
     1
102
RTVSPropertyOp0
 70
     1
102
RTVSPropertyOp1
 70
     1
102
RTVSPropertyOp2
 70
     1
102
RTVSPropertyOp3
 70
     1
102
RTVSPropertyOp4
 70
     1
102
RTVSPropertyOp5
 70
     1
102
RTVSPropertyOp6
 70
     1
102
RTVSPropertyOp7
 70
     1
102
RTVSPropertyOp8
 70
     1
102
RTVSPropertyOp9
 70
     1
102
RTVSPropertyOp10
 70
     1
102
RTVSPropertyOp11
 70
     1
102
RTVSPropertyOp12
 70
     1
102
RTVSPropertyOp13
 70
     1
102
RTVSPropertyOp14
 70
     1
102
RTVSPropertyOp15
 70
     1
102
RTVSPropertyOp16
 70
     1
102
RTVSPropertyOp17
 70
     1
102
RTVSPropertyOp18
 70
     1
102
RTVSPropertyOp19
 70
     1
102
RTVSPropertyOp20
 70
     1
102
RTVSPropertyOp21
 70
     1
102
RTVSPropertyOp22
 70
     1
102
RTVSPropertyOp23
 70
     1
102
RTVSPropertyOp24
 70
     1
102
RTVSPropertyOp25
 70
     1
102
RTVSPropertyOp26
 70
     1
102
RTVSPropertyOp27
 70
     1
102
RTVSPropertyOp28
 70
     1
102
RTVSPropertyOp29
 70
     1
102
RTVSPropertyOp30
 70
     1
102
RTVSPropertyOp31
 70
     1
102
RTVSPropertyOp32
 70
     1
102
RTVSPropertyOp33
 70
     1
102
RTVSPropertyOp34
 70
     1
102
RTVSPropertyOp35
 70
     1
102
RTVSPropertyOp36
 70
     1
102
RTVSPropertyOp37
 70
     1
102
RTVSPropertyOp38
 70
     1
102
RTVSPropertyOp39
 70
     1
102
RTVSPropertyOp40
 70
     1
102
RTVSPropertyOp41
 70
     1
102
RTVSPropertyOp42
 70
     1
102
RTVSPropertyOp43
 70
     1
102
RTVSPropertyOp44
 70
     1
102
RTVSPropertyOp45
 70
     1
102
RTVSPropertyOp46
 70
     1
102
RTVSPropertyOp47
 70
     1
102
RTVSPropertyOp48
 70
     1
102
RTVSPropertyOp49
 70
     1
102
RTVSPropertyOp50
 70
     1
102
RTVSPropertyOp51
 70
     0
102
RTVSPropertyOp52
 70
     0
102
RTVSPropertyOp53
 70
     1
102
RTVSPropertyOp54
 70
     1
102
RTVSPropertyOp55
 70
     1
102
RTVSPropertyOp56
 70
     1
102
RTVSPropertyOp57
 70
     1
102
RTVSPost2010Prop28
280
     0
102
RTVSPost2010PropOp28
 70
     1
102
RTVSPost2010Prop29
280
     1
102
RTVSPost2010PropOp29
 70
     1
102
RTVSPost2010Prop30
280
     1
102
RTVSPost2010PropOp30
 70
     1
102
RTVSPost2010Prop31
280
     0
102
RTVSPost2010PropOp31
 70
     1
102
RTVSPost2010Prop32
280
     0
102
RTVSPost2010PropOp32
 70
     1
102
RTVSPost2010Prop33
280
     0
102
RTVSPost2010PropOp33
 70
     1
102
RTVSPost2010Prop34
280
     0
102
RTVSPost2010PropOp34
 70
     1
102
RTVSPost2010Prop35
280
     0
102
RTVSPost2010PropOp35
 70
     1
102
RTVSPost2010Prop36
280
     0
102
RTVSPost2010PropOp36
 70
     1
102
RTVSPost2010Prop37
 90
       50
102
RTVSPost2010PropOp37
 70
     1
102
RTVSPost2010Prop38
140
0.0
102
RTVSPost2010PropOp38
 70
     1
102
RTVSPost2010Prop39
140
1.0
102
RTVSPost2010PropOp39
 70
     1
102
RTVSPost2010Prop40
 90
        0
102
RTVSPost2010PropOp40
 70
     1
102
RTVSPost2010Prop41ColorIndex
 90
       18
102
RTVSPost2010Prop41ColorRGB
 90
        0
102
RTVSPost2010PropOp41
 70
     1
102
RTVSPost2010Prop42
 90
       50
102
RTVSPost2010PropOp42
 70
     1
102
RTVSPost2010Prop43
 90
        3
102
RTVSPost2010PropOp43
 70
     1
102
RTVSPost2010Prop44ColorIndex
 90
        5
102
RTVSPost2010Prop44ColorRGB
 90
      255
102
RTVSPost2010PropOp44
 70
     1
102
RTVSPost2010Prop45
280
     0
102
RTVSPost2010PropOp45
 70
     1
102
RTVSPost2010Prop46
 90
       50
102
RTVSPost2010PropOp46
 70
     1
102
RTVSPost2010Prop47
 90
       50
102
RTVSPost2010PropOp47
 70
     1
102
RTVSPost2010Prop48
 90
       50
102
RTVSPost2010PropOp48
 70
     1
102
RTVSPost2010Prop49
280
     0
102
RTVSPost2010PropOp49
 70
     1
102
RTVSPost2010Prop50
 90
       50
102
RTVSPost2010PropOp50
 70
     1
102
RTVSPost2010Prop51ColorIndex
 90
      256
102
RTVSPost2010Prop51ColorRGB
 90
-16777216
102
RTVSPost2010PropOp51
 70
     0
102
RTVSPost2010Prop52
140
1.0
102
RTVSPost2010PropOp52
 70
     0
102
RTVSPost2010Prop53
 90
        2
102
RTVSPost2010PropOp53
 70
     1
102
RTVSPost2010Prop54
  1
strokes_ogs.tif
102
RTVSPost2010PropOp54
 70
     1
102
RTVSPost2010Prop55
280
     0
102
RTVSPost2010PropOp55
 70
     1
102
RTVSPost2010Prop56
140
1.0
102
RTVSPost2010PropOp56
 70
     1
102
RTVSPost2010Prop57
140
1.0
102
RTVSPost2010PropOp57
 70
     1
  0
XRECORD
  5
3E0
102
{ACAD_REACTORS
330
3DF
102
}
330
3DF
100
AcDbXrecord
280
     1
102
RTVSPropertyOp0
 70
     1
102
RTVSPropertyOp1
 70
     1
102
RTVSPropertyOp2
 70
     1
102
RTVSPropertyOp3
 70
     1
102
RTVSPropertyOp4
 70
     1
102
RTVSPropertyOp5
 70
     1
102
RTVSPropertyOp6
 70
     1
102
RTVSPropertyOp7
 70
     1
102
RTVSPropertyOp8
 70
     1
102
RTVSPropertyOp9
 70
     1
102
RTVSPropertyOp10
 70
     1
102
RTVSPropertyOp11
 70
     1
102
RTVSPropertyOp12
 70
     1
102
RTVSPropertyOp13
 70
     1
102
RTVSPropertyOp14
 70
     1
102
RTVSPropertyOp15
 70
     1
102
RTVSPropertyOp16
 70
     1
102
RTVSPropertyOp17
 70
     1
102
RTVSPropertyOp18
 70
     1
102
RTVSPropertyOp19
 70
     1
102
RTVSPropertyOp20
 70
     1
102
RTVSPropertyOp21
 70
     1
102
RTVSPropertyOp22
 70
     1
102
RTVSPropertyOp23
 70
     1
102
RTVSPropertyOp24
 70
     1
102
RTVSPropertyOp25
 70
     1
102
RTVSPropertyOp26
 70
     1
102
RTVSPropertyOp27
 70
     1
102
RTVSPropertyOp28
 70
     1
102
RTVSPropertyOp29
 70
     1
102
RTVSPropertyOp30
 70
     1
102
RTVSPropertyOp31
 70
     1
102
RTVSPropertyOp32
 70
     1
102
RTVSPropertyOp33
 70
     1
102
RTVSPropertyOp34
 70
     1
102
RTVSPropertyOp35
 70
     1
102
RTVSPropertyOp36
 70
     1
102
RTVSPropertyOp37
 70
     1
102
RTVSPropertyOp38
 70
     1
102
RTVSPropertyOp39
 70
     1
102
RTVSPropertyOp40
 70
     1
102
RTVSPropertyOp41
 70
     1
102
RTVSPropertyOp42
 70
     1
102
RTVSPropertyOp43
 70
     1
102
RTVSPropertyOp44
 70
     1
102
RTVSPropertyOp45
 70
     1
102
RTVSPropertyOp46
 70
     1
102
RTVSPropertyOp47
 70
     1
102
RTVSPropertyOp48
 70
     1
102
RTVSPropertyOp49
 70
     1
102
RTVSPropertyOp50
 70
     1
102
RTVSPropertyOp51
 70
     0
102
RTVSPropertyOp52
 70
     0
102
RTVSPropertyOp53
 70
     1
102
RTVSPropertyOp54
 70
     1
102
RTVSPropertyOp55
 70
     1
102
RTVSPropertyOp56
 70
     1
102
RTVSPropertyOp57
 70
     1
102
RTVSPost2010Prop28
280
     0
102
RTVSPost2010PropOp28
 70
     1
102
RTVSPost2010Prop29
280
     1
102
RTVSPost2010PropOp29
 70
     1
102
RTVSPost2010Prop30
280
     1
102
RTVSPost2010PropOp30
 70
     1
102
RTVSPost2010Prop31
280
     0
102
RTVSPost2010PropOp31
 70
     1
102
RTVSPost2010Prop32
280
     0
102
RTVSPost2010PropOp32
 70
     1
102
RTVSPost2010Prop33
280
     0
102
RTVSPost2010PropOp33
 70
     1
102
RTVSPost2010Prop34
280
     0
102
RTVSPost2010PropOp34
 70
     1
102
RTVSPost2010Prop35
280
     0
102
RTVSPost2010PropOp35
 70
     1
102
RTVSPost2010Prop36
280
     0
102
RTVSPost2010PropOp36
 70
     1
102
RTVSPost2010Prop37
 90
       50
102
RTVSPost2010PropOp37
 70
     1
102
RTVSPost2010Prop38
140
0.0
102
RTVSPost2010PropOp38
 70
     1
102
RTVSPost2010Prop39
140
1.0
102
RTVSPost2010PropOp39
 70
     1
102
RTVSPost2010Prop40
 90
        0
102
RTVSPost2010PropOp40
 70
     1
102
RTVSPost2010Prop41ColorIndex
 90
       18
102
RTVSPost2010Prop41ColorRGB
 90
        0
102
RTVSPost2010PropOp41
 70
     1
102
RTVSPost2010Prop42
 90
       50
102
RTVSPost2010PropOp42
 70
     1
102
RTVSPost2010Prop43
 90
        3
102
RTVSPost2010PropOp43
 70
     1
102
RTVSPost2010Prop44ColorIndex
 90
        5
102
RTVSPost2010Prop44ColorRGB
 90
      255
102
RTVSPost2010PropOp44
 70
     1
102
RTVSPost2010Prop45
280
     0
102
RTVSPost2010PropOp45
 70
     1
102
RTVSPost2010Prop46
 90
       50
102
RTVSPost2010PropOp46
 70
     1
102
RTVSPost2010Prop47
 90
       50
102
RTVSPost2010PropOp47
 70
     1
102
RTVSPost2010Prop48
 90
       50
102
RTVSPost2010PropOp48
 70
     1
102
RTVSPost2010Prop49
280
     0
102
RTVSPost2010PropOp49
 70
     1
102
RTVSPost2010Prop50
 90
       50
102
RTVSPost2010PropOp50
 70
     1
102
RTVSPost2010Prop51ColorIndex
 90
      256
102
RTVSPost2010Prop51ColorRGB
 90
-16777216
102
RTVSPost2010PropOp51
 70
     0
102
RTVSPost2010Prop52
140
1.0
102
RTVSPost2010PropOp52
 70
     0
102
RTVSPost2010Prop53
 90
        2
102
RTVSPost2010PropOp53
 70
     1
102
RTVSPost2010Prop54
  1
strokes_ogs.tif
102
RTVSPost2010PropOp54
 70
     1
102
RTVSPost2010Prop55
280
     0
102
RTVSPost2010PropOp55
 70
     1
102
RTVSPost2010Prop56
140
1.0
102
RTVSPost2010PropOp56
 70
     1
102
RTVSPost2010Prop57
140
1.0
102
RTVSPost2010PropOp57
 70
     1
  0
XRECORD
  5
3E6
102
{ACAD_REACTORS
330
3E5
102
}
330
3E5
100
AcDbXrecord
280
     1
102
RTVSPropertyOp0
 70
     1
102
RTVSPropertyOp1
 70
     1
102
RTVSPropertyOp2
 70
     1
102
RTVSPropertyOp3
 70
     1
102
RTVSPropertyOp4
 70
     1
102
RTVSPropertyOp5
 70
     1
102
RTVSPropertyOp6
 70
     1
102
RTVSPropertyOp7
 70
     1
102
RTVSPropertyOp8
 70
     1
102
RTVSPropertyOp9
 70
     1
102
RTVSPropertyOp10
 70
     1
102
RTVSPropertyOp11
 70
     1
102
RTVSPropertyOp12
 70
     1
102
RTVSPropertyOp13
 70
     1
102
RTVSPropertyOp14
 70
     1
102
RTVSPropertyOp15
 70
     1
102
RTVSPropertyOp16
 70
     1
102
RTVSPropertyOp17
 70
     1
102
RTVSPropertyOp18
 70
     1
102
RTVSPropertyOp19
 70
     1
102
RTVSPropertyOp20
 70
     1
102
RTVSPropertyOp21
 70
     1
102
RTVSPropertyOp22
 70
     1
102
RTVSPropertyOp23
 70
     1
102
RTVSPropertyOp24
 70
     1
102
RTVSPropertyOp25
 70
     1
102
RTVSPropertyOp26
 70
     1
102
RTVSPropertyOp27
 70
     1
102
RTVSPropertyOp28
 70
     1
102
RTVSPropertyOp29
 70
     1
102
RTVSPropertyOp30
 70
     1
102
RTVSPropertyOp31
 70
     1
102
RTVSPropertyOp32
 70
     1
102
RTVSPropertyOp33
 70
     1
102
RTVSPropertyOp34
 70
     1
102
RTVSPropertyOp35
 70
     1
102
RTVSPropertyOp36
 70
     1
102
RTVSPropertyOp37
 70
     1
102
RTVSPropertyOp38
 70
     1
102
RTVSPropertyOp39
 70
     1
102
RTVSPropertyOp40
 70
     1
102
RTVSPropertyOp41
 70
     1
102
RTVSPropertyOp42
 70
     1
102
RTVSPropertyOp43
 70
     1
102
RTVSPropertyOp44
 70
     1
102
RTVSPropertyOp45
 70
     1
102
RTVSPropertyOp46
 70
     1
102
RTVSPropertyOp47
 70
     1
102
RTVSPropertyOp48
 70
     1
102
RTVSPropertyOp49
 70
     1
102
RTVSPropertyOp50
 70
     1
102
RTVSPropertyOp51
 70
     0
102
RTVSPropertyOp52
 70
     0
102
RTVSPropertyOp53
 70
     1
102
RTVSPropertyOp54
 70
     1
102
RTVSPropertyOp55
 70
     1
102
RTVSPropertyOp56
 70
     1
102
RTVSPropertyOp57
 70
     1
102
RTVSPost2010Prop28
280
     0
102
RTVSPost2010PropOp28
 70
     1
102
RTVSPost2010Prop29
280
     1
102
RTVSPost2010PropOp29
 70
     1
102
RTVSPost2010Prop30
280
     1
102
RTVSPost2010PropOp30
 70
     1
102
RTVSPost2010Prop31
280
     0
102
RTVSPost2010PropOp31
 70
     1
102
RTVSPost2010Prop32
280
     0
102
RTVSPost2010PropOp32
 70
     1
102
RTVSPost2010Prop33
280
     0
102
RTVSPost2010PropOp33
 70
     1
102
RTVSPost2010Prop34
280
     0
102
RTVSPost2010PropOp34
 70
     1
102
RTVSPost2010Prop35
280
     0
102
RTVSPost2010PropOp35
 70
     1
102
RTVSPost2010Prop36
280
     0
102
RTVSPost2010PropOp36
 70
     1
102
RTVSPost2010Prop37
 90
       50
102
RTVSPost2010PropOp37
 70
     1
102
RTVSPost2010Prop38
140
0.0
102
RTVSPost2010PropOp38
 70
     1
102
RTVSPost2010Prop39
140
1.0
102
RTVSPost2010PropOp39
 70
     1
102
RTVSPost2010Prop40
 90
        0
102
RTVSPost2010PropOp40
 70
     1
102
RTVSPost2010Prop41ColorIndex
 90
       18
102
RTVSPost2010Prop41ColorRGB
 90
        0
102
RTVSPost2010PropOp41
 70
     1
102
RTVSPost2010Prop42
 90
       50
102
RTVSPost2010PropOp42
 70
     1
102
RTVSPost2010Prop43
 90
        3
102
RTVSPost2010PropOp43
 70
     1
102
RTVSPost2010Prop44ColorIndex
 90
        5
102
RTVSPost2010Prop44ColorRGB
 90
      255
102
RTVSPost2010PropOp44
 70
     1
102
RTVSPost2010Prop45
280
     0
102
RTVSPost2010PropOp45
 70
     1
102
RTVSPost2010Prop46
 90
       50
102
RTVSPost2010PropOp46
 70
     1
102
RTVSPost2010Prop47
 90
       50
102
RTVSPost2010PropOp47
 70
     1
102
RTVSPost2010Prop48
 90
       50
102
RTVSPost2010PropOp48
 70
     1
102
RTVSPost2010Prop49
280
     0
102
RTVSPost2010PropOp49
 70
     1
102
RTVSPost2010Prop50
 90
       50
102
RTVSPost2010PropOp50
 70
     1
102
RTVSPost2010Prop51ColorIndex
 90
      256
102
RTVSPost2010Prop51ColorRGB
 90
-16777216
102
RTVSPost2010PropOp51
 70
     0
102
RTVSPost2010Prop52
140
1.0
102
RTVSPost2010PropOp52
 70
     0
102
RTVSPost2010Prop53
 90
        2
102
RTVSPost2010PropOp53
 70
     1
102
RTVSPost2010Prop54
  1
strokes_ogs.tif
102
RTVSPost2010PropOp54
 70
     1
102
RTVSPost2010Prop55
280
     0
102
RTVSPost2010PropOp55
 70
     1
102
RTVSPost2010Prop56
140
1.0
102
RTVSPost2010PropOp56
 70
     1
102
RTVSPost2010Prop57
140
1.0
102
RTVSPost2010PropOp57
 70
     1
  0
XRECORD
  5
3FA
102
{ACAD_REACTORS
330
3F9
102
}
330
3F9
100
AcDbXrecord
280
     1
102
RTVSPropertyOp0
 70
     0
102
RTVSPropertyOp1
 70
     0
102
RTVSPropertyOp2
 70
     0
102
RTVSPropertyOp3
 70
     0
102
RTVSPropertyOp4
 70
     0
102
RTVSPropertyOp5
 70
     0
102
RTVSPropertyOp6
 70
     0
102
RTVSPropertyOp7
 70
     0
102
RTVSPropertyOp8
 70
     0
102
RTVSPropertyOp9
 70
     0
102
RTVSPropertyOp10
 70
     0
102
RTVSPropertyOp11
 70
     0
102
RTVSPropertyOp12
 70
     0
102
RTVSPropertyOp13
 70
     0
102
RTVSPropertyOp14
 70
     2
102
RTVSPropertyOp15
 70
     0
102
RTVSPropertyOp16
 70
     0
102
RTVSPropertyOp17
 70
     0
102
RTVSPropertyOp18
 70
     0
102
RTVSPropertyOp19
 70
     0
102
RTVSPropertyOp20
 70
     0
102
RTVSPropertyOp21
 70
     0
102
RTVSPropertyOp22
 70
     0
102
RTVSPropertyOp23
 70
     0
102
RTVSPropertyOp24
 70
     0
102
RTVSPropertyOp25
 70
     0
102
RTVSPropertyOp26
 70
     0
102
RTVSPropertyOp27
 70
     0
102
RTVSPropertyOp28
 70
     0
102
RTVSPropertyOp29
 70
     0
102
RTVSPropertyOp30
 70
     0
102
RTVSPropertyOp31
 70
     0
102
RTVSPropertyOp32
 70
     0
102
RTVSPropertyOp33
 70
     0
102
RTVSPropertyOp34
 70
     0
102
RTVSPropertyOp35
 70
     0
102
RTVSPropertyOp36
 70
     0
102
RTVSPropertyOp37
 70
     0
102
RTVSPropertyOp38
 70
     0
102
RTVSPropertyOp39
 70
     0
102
RTVSPropertyOp40
 70
     0
102
RTVSPropertyOp41
 70
     0
102
RTVSPropertyOp42
 70
     0
102
RTVSPropertyOp43
 70
     0
102
RTVSPropertyOp44
 70
     0
102
RTVSPropertyOp45
 70
     0
102
RTVSPropertyOp46
 70
     0
102
RTVSPropertyOp47
 70
     0
102
RTVSPropertyOp48
 70
     0
102
RTVSPropertyOp49
 70
     0
102
RTVSPropertyOp50
 70
     0
102
RTVSPropertyOp51
 70
     0
102
RTVSPropertyOp52
 70
     0
102
RTVSPropertyOp53
 70
     0
102
RTVSPropertyOp54
 70
     0
102
RTVSPropertyOp55
 70
     0
102
RTVSPropertyOp56
 70
     0
102
RTVSPropertyOp57
 70
     0
102
RTVSPost2010Prop28
280
     0
102
RTVSPost2010PropOp28
 70
     0
102
RTVSPost2010Prop29
280
     1
102
RTVSPost2010PropOp29
 70
     0
102
RTVSPost2010Prop30
280
     1
102
RTVSPost2010PropOp30
 70
     0
102
RTVSPost2010Prop31
280
     0
102
RTVSPost2010PropOp31
 70
     0
102
RTVSPost2010Prop32
280
     0
102
RTVSPost2010PropOp32
 70
     0
102
RTVSPost2010Prop33
280
     0
102
RTVSPost2010PropOp33
 70
     0
102
RTVSPost2010Prop34
280
     0
102
RTVSPost2010PropOp34
 70
     0
102
RTVSPost2010Prop35
280
     0
102
RTVSPost2010PropOp35
 70
     0
102
RTVSPost2010Prop36
280
     0
102
RTVSPost2010PropOp36
 70
     0
102
RTVSPost2010Prop37
 90
       50
102
RTVSPost2010PropOp37
 70
     0
102
RTVSPost2010Prop38
140
0.0
102
RTVSPost2010PropOp38
 70
     0
102
RTVSPost2010Prop39
140
1.0
102
RTVSPost2010PropOp39
 70
     0
102
RTVSPost2010Prop40
 90
        0
102
RTVSPost2010PropOp40
 70
     0
102
RTVSPost2010Prop41ColorIndex
 90
       18
102
RTVSPost2010Prop41ColorRGB
 90
        0
102
RTVSPost2010PropOp41
 70
     0
102
RTVSPost2010Prop42
 90
       50
102
RTVSPost2010PropOp42
 70
     0
102
RTVSPost2010Prop43
 90
        3
102
RTVSPost2010PropOp43
 70
     0
102
RTVSPost2010Prop44ColorIndex
 90
        5
102
RTVSPost2010Prop44ColorRGB
 90
      255
102
RTVSPost2010PropOp44
 70
     0
102
RTVSPost2010Prop45
280
     0
102
RTVSPost2010PropOp45
 70
     0
102
RTVSPost2010Prop46
 90
       50
102
RTVSPost2010PropOp46
 70
     0
102
RTVSPost2010Prop47
 90
       50
102
RTVSPost2010PropOp47
 70
     0
102
RTVSPost2010Prop48
 90
       50
102
RTVSPost2010PropOp48
 70
     0
102
RTVSPost2010Prop49
280
     0
102
RTVSPost2010PropOp49
 70
     0
102
RTVSPost2010Prop50
 90
       50
102
RTVSPost2010PropOp50
 70
     0
102
RTVSPost2010Prop51ColorIndex
 90
      256
102
RTVSPost2010Prop51ColorRGB
 90
-16777216
102
RTVSPost2010PropOp51
 70
     0
102
RTVSPost2010Prop52
140
1.0
102
RTVSPost2010PropOp52
 70
     0
102
RTVSPost2010Prop53
 90
        2
102
RTVSPost2010PropOp53
 70
     0
102
RTVSPost2010Prop54
  1
strokes_ogs.tif
102
RTVSPost2010PropOp54
 70
     0
102
RTVSPost2010Prop55
280
     0
102
RTVSPost2010PropOp55
 70
     0
102
RTVSPost2010Prop56
140
1.0
102
RTVSPost2010PropOp56
 70
     0
102
RTVSPost2010Prop57
140
1.0
102
RTVSPost2010PropOp57
 70
     0
  0
XRECORD
  5
3F4
102
{ACAD_REACTORS
330
3F3
102
}
330
3F3
100
AcDbXrecord
280
     1
102
RTVSPropertyOp0
 70
     1
102
RTVSPropertyOp1
 70
     1
102
RTVSPropertyOp2
 70
     1
102
RTVSPropertyOp3
 70
     1
102
RTVSPropertyOp4
 70
     1
102
RTVSPropertyOp5
 70
     1
102
RTVSPropertyOp6
 70
     1
102
RTVSPropertyOp7
 70
     1
102
RTVSPropertyOp8
 70
     1
102
RTVSPropertyOp9
 70
     1
102
RTVSPropertyOp10
 70
     1
102
RTVSPropertyOp11
 70
     1
102
RTVSPropertyOp12
 70
     1
102
RTVSPropertyOp13
 70
     1
102
RTVSPropertyOp14
 70
     1
102
RTVSPropertyOp15
 70
     1
102
RTVSPropertyOp16
 70
     1
102
RTVSPropertyOp17
 70
     1
102
RTVSPropertyOp18
 70
     1
102
RTVSPropertyOp19
 70
     1
102
RTVSPropertyOp20
 70
     1
102
RTVSPropertyOp21
 70
     1
102
RTVSPropertyOp22
 70
     1
102
RTVSPropertyOp23
 70
     1
102
RTVSPropertyOp24
 70
     1
102
RTVSPropertyOp25
 70
     1
102
RTVSPropertyOp26
 70
     1
102
RTVSPropertyOp27
 70
     1
102
RTVSPropertyOp28
 70
     1
102
RTVSPropertyOp29
 70
     1
102
RTVSPropertyOp30
 70
     1
102
RTVSPropertyOp31
 70
     1
102
RTVSPropertyOp32
 70
     1
102
RTVSPropertyOp33
 70
     1
102
RTVSPropertyOp34
 70
     1
102
RTVSPropertyOp35
 70
     1
102
RTVSPropertyOp36
 70
     1
102
RTVSPropertyOp37
 70
     1
102
RTVSPropertyOp38
 70
     1
102
RTVSPropertyOp39
 70
     1
102
RTVSPropertyOp40
 70
     1
102
RTVSPropertyOp41
 70
     1
102
RTVSPropertyOp42
 70
     1
102
RTVSPropertyOp43
 70
     1
102
RTVSPropertyOp44
 70
     1
102
RTVSPropertyOp45
 70
     1
102
RTVSPropertyOp46
 70
     1
102
RTVSPropertyOp47
 70
     1
102
RTVSPropertyOp48
 70
     1
102
RTVSPropertyOp49
 70
     1
102
RTVSPropertyOp50
 70
     1
102
RTVSPropertyOp51
 70
     0
102
RTVSPropertyOp52
 70
     0
102
RTVSPropertyOp53
 70
     1
102
RTVSPropertyOp54
 70
     1
102
RTVSPropertyOp55
 70
     1
102
RTVSPropertyOp56
 70
     1
102
RTVSPropertyOp57
 70
     1
102
RTVSPost2010Prop28
280
     0
102
RTVSPost2010PropOp28
 70
     1
102
RTVSPost2010Prop29
280
     1
102
RTVSPost2010PropOp29
 70
     1
102
RTVSPost2010Prop30
280
     1
102
RTVSPost2010PropOp30
 70
     1
102
RTVSPost2010Prop31
280
     0
102
RTVSPost2010PropOp31
 70
     1
102
RTVSPost2010Prop32
280
     0
102
RTVSPost2010PropOp32
 70
     1
102
RTVSPost2010Prop33
280
     0
102
RTVSPost2010PropOp33
 70
     1
102
RTVSPost2010Prop34
280
     0
102
RTVSPost2010PropOp34
 70
     1
102
RTVSPost2010Prop35
280
     0
102
RTVSPost2010PropOp35
 70
     1
102
RTVSPost2010Prop36
280
     0
102
RTVSPost2010PropOp36
 70
     1
102
RTVSPost2010Prop37
 90
       50
102
RTVSPost2010PropOp37
 70
     1
102
RTVSPost2010Prop38
140
0.0
102
RTVSPost2010PropOp38
 70
     1
102
RTVSPost2010Prop39
140
1.0
102
RTVSPost2010PropOp39
 70
     1
102
RTVSPost2010Prop40
 90
        0
102
RTVSPost2010PropOp40
 70
     1
102
RTVSPost2010Prop41ColorIndex
 90
       18
102
RTVSPost2010Prop41ColorRGB
 90
        0
102
RTVSPost2010PropOp41
 70
     1
102
RTVSPost2010Prop42
 90
       50
102
RTVSPost2010PropOp42
 70
     1
102
RTVSPost2010Prop43
 90
        3
102
RTVSPost2010PropOp43
 70
     1
102
RTVSPost2010Prop44ColorIndex
 90
        5
102
RTVSPost2010Prop44ColorRGB
 90
      255
102
RTVSPost2010PropOp44
 70
     1
102
RTVSPost2010Prop45
280
     0
102
RTVSPost2010PropOp45
 70
     1
102
RTVSPost2010Prop46
 90
       50
102
RTVSPost2010PropOp46
 70
     1
102
RTVSPost2010Prop47
 90
       50
102
RTVSPost2010PropOp47
 70
     1
102
RTVSPost2010Prop48
 90
       50
102
RTVSPost2010PropOp48
 70
     1
102
RTVSPost2010Prop49
280
     0
102
RTVSPost2010PropOp49
 70
     1
102
RTVSPost2010Prop50
 90
       50
102
RTVSPost2010PropOp50
 70
     1
102
RTVSPost2010Prop51ColorIndex
 90
      256
102
RTVSPost2010Prop51ColorRGB
 90
-16777216
102
RTVSPost2010PropOp51
 70
     0
102
RTVSPost2010Prop52
140
1.0
102
RTVSPost2010PropOp52
 70
     0
102
RTVSPost2010Prop53
 90
        2
102
RTVSPost2010PropOp53
 70
     1
102
RTVSPost2010Prop54
  1
strokes_ogs.tif
102
RTVSPost2010PropOp54
 70
     1
102
RTVSPost2010Prop55
280
     0
102
RTVSPost2010PropOp55
 70
     1
102
RTVSPost2010Prop56
140
1.0
102
RTVSPost2010PropOp56
 70
     1
102
RTVSPost2010Prop57
140
1.0
102
RTVSPost2010PropOp57
 70
     1
  0
XRECORD
  5
3FC
102
{ACAD_REACTORS
330
3FB
102
}
330
3FB
100
AcDbXrecord
280
     1
102
RTVSPropertyOp0
 70
     0
102
RTVSPropertyOp1
 70
     0
102
RTVSPropertyOp2
 70
     0
102
RTVSPropertyOp3
 70
     0
102
RTVSPropertyOp4
 70
     0
102
RTVSPropertyOp5
 70
     0
102
RTVSPropertyOp6
 70
     0
102
RTVSPropertyOp7
 70
     0
102
RTVSPropertyOp8
 70
     0
102
RTVSPropertyOp9
 70
     0
102
RTVSPropertyOp10
 70
     0
102
RTVSPropertyOp11
 70
     0
102
RTVSPropertyOp12
 70
     0
102
RTVSPropertyOp13
 70
     0
102
RTVSPropertyOp14
 70
     2
102
RTVSPropertyOp15
 70
     0
102
RTVSPropertyOp16
 70
     0
102
RTVSPropertyOp17
 70
     0
102
RTVSPropertyOp18
 70
     0
102
RTVSPropertyOp19
 70
     0
102
RTVSPropertyOp20
 70
     0
102
RTVSPropertyOp21
 70
     0
102
RTVSPropertyOp22
 70
     0
102
RTVSPropertyOp23
 70
     0
102
RTVSPropertyOp24
 70
     0
102
RTVSPropertyOp25
 70
     0
102
RTVSPropertyOp26
 70
     0
102
RTVSPropertyOp27
 70
     0
102
RTVSPropertyOp28
 70
     0
102
RTVSPropertyOp29
 70
     0
102
RTVSPropertyOp30
 70
     0
102
RTVSPropertyOp31
 70
     0
102
RTVSPropertyOp32
 70
     0
102
RTVSPropertyOp33
 70
     0
102
RTVSPropertyOp34
 70
     0
102
RTVSPropertyOp35
 70
     0
102
RTVSPropertyOp36
 70
     0
102
RTVSPropertyOp37
 70
     0
102
RTVSPropertyOp38
 70
     0
102
RTVSPropertyOp39
 70
     0
102
RTVSPropertyOp40
 70
     0
102
RTVSPropertyOp41
 70
     0
102
RTVSPropertyOp42
 70
     0
102
RTVSPropertyOp43
 70
     0
102
RTVSPropertyOp44
 70
     0
102
RTVSPropertyOp45
 70
     0
102
RTVSPropertyOp46
 70
     0
102
RTVSPropertyOp47
 70
     0
102
RTVSPropertyOp48
 70
     0
102
RTVSPropertyOp49
 70
     0
102
RTVSPropertyOp50
 70
     0
102
RTVSPropertyOp51
 70
     0
102
RTVSPropertyOp52
 70
     0
102
RTVSPropertyOp53
 70
     0
102
RTVSPropertyOp54
 70
     0
102
RTVSPropertyOp55
 70
     0
102
RTVSPropertyOp56
 70
     0
102
RTVSPropertyOp57
 70
     0
102
RTVSPost2010Prop28
280
     0
102
RTVSPost2010PropOp28
 70
     0
102
RTVSPost2010Prop29
280
     1
102
RTVSPost2010PropOp29
 70
     0
102
RTVSPost2010Prop30
280
     1
102
RTVSPost2010PropOp30
 70
     0
102
RTVSPost2010Prop31
280
     0
102
RTVSPost2010PropOp31
 70
     0
102
RTVSPost2010Prop32
280
     0
102
RTVSPost2010PropOp32
 70
     0
102
RTVSPost2010Prop33
280
     0
102
RTVSPost2010PropOp33
 70
     0
102
RTVSPost2010Prop34
280
     0
102
RTVSPost2010PropOp34
 70
     0
102
RTVSPost2010Prop35
280
     0
102
RTVSPost2010PropOp35
 70
     0
102
RTVSPost2010Prop36
280
     0
102
RTVSPost2010PropOp36
 70
     0
102
RTVSPost2010Prop37
 90
       50
102
RTVSPost2010PropOp37
 70
     0
102
RTVSPost2010Prop38
140
0.0
102
RTVSPost2010PropOp38
 70
     0
102
RTVSPost2010Prop39
140
1.0
102
RTVSPost2010PropOp39
 70
     0
102
RTVSPost2010Prop40
 90
        0
102
RTVSPost2010PropOp40
 70
     0
102
RTVSPost2010Prop41ColorIndex
 90
       18
102
RTVSPost2010Prop41ColorRGB
 90
        0
102
RTVSPost2010PropOp41
 70
     0
102
RTVSPost2010Prop42
 90
       50
102
RTVSPost2010PropOp42
 70
     0
102
RTVSPost2010Prop43
 90
        3
102
RTVSPost2010PropOp43
 70
     0
102
RTVSPost2010Prop44ColorIndex
 90
        5
102
RTVSPost2010Prop44ColorRGB
 90
      255
102
RTVSPost2010PropOp44
 70
     0
102
RTVSPost2010Prop45
280
     0
102
RTVSPost2010PropOp45
 70
     0
102
RTVSPost2010Prop46
 90
       50
102
RTVSPost2010PropOp46
 70
     0
102
RTVSPost2010Prop47
 90
       50
102
RTVSPost2010PropOp47
 70
     0
102
RTVSPost2010Prop48
 90
       50
102
RTVSPost2010PropOp48
 70
     0
102
RTVSPost2010Prop49
280
     0
102
RTVSPost2010PropOp49
 70
     0
102
RTVSPost2010Prop50
 90
       50
102
RTVSPost2010PropOp50
 70
     0
102
RTVSPost2010Prop51ColorIndex
 90
      256
102
RTVSPost2010Prop51ColorRGB
 90
-16777216
102
RTVSPost2010PropOp51
 70
     0
102
RTVSPost2010Prop52
140
1.0
102
RTVSPost2010PropOp52
 70
     0
102
RTVSPost2010Prop53
 90
        2
102
RTVSPost2010PropOp53
 70
     0
102
RTVSPost2010Prop54
  1
strokes_ogs.tif
102
RTVSPost2010PropOp54
 70
     0
102
RTVSPost2010Prop55
280
     0
102
RTVSPost2010PropOp55
 70
     0
102
RTVSPost2010Prop56
140
1.0
102
RTVSPost2010PropOp56
 70
     0
102
RTVSPost2010Prop57
140
1.0
102
RTVSPost2010PropOp57
 70
     0
  0
XRECORD
  5
3EA
102
{ACAD_REACTORS
330
3E9
102
}
330
3E9
100
AcDbXrecord
280
     1
102
RTVSPropertyOp0
 70
     1
102
RTVSPropertyOp1
 70
     1
102
RTVSPropertyOp2
 70
     1
102
RTVSPropertyOp3
 70
     1
102
RTVSPropertyOp4
 70
     1
102
RTVSPropertyOp5
 70
     1
102
RTVSPropertyOp6
 70
     1
102
RTVSPropertyOp7
 70
     1
102
RTVSPropertyOp8
 70
     1
102
RTVSPropertyOp9
 70
     1
102
RTVSPropertyOp10
 70
     1
102
RTVSPropertyOp11
 70
     1
102
RTVSPropertyOp12
 70
     1
102
RTVSPropertyOp13
 70
     1
102
RTVSPropertyOp14
 70
     1
102
RTVSPropertyOp15
 70
     1
102
RTVSPropertyOp16
 70
     1
102
RTVSPropertyOp17
 70
     1
102
RTVSPropertyOp18
 70
     1
102
RTVSPropertyOp19
 70
     1
102
RTVSPropertyOp20
 70
     1
102
RTVSPropertyOp21
 70
     1
102
RTVSPropertyOp22
 70
     1
102
RTVSPropertyOp23
 70
     1
102
RTVSPropertyOp24
 70
     1
102
RTVSPropertyOp25
 70
     1
102
RTVSPropertyOp26
 70
     1
102
RTVSPropertyOp27
 70
     1
102
RTVSPropertyOp28
 70
     1
102
RTVSPropertyOp29
 70
     1
102
RTVSPropertyOp30
 70
     1
102
RTVSPropertyOp31
 70
     1
102
RTVSPropertyOp32
 70
     1
102
RTVSPropertyOp33
 70
     1
102
RTVSPropertyOp34
 70
     1
102
RTVSPropertyOp35
 70
     1
102
RTVSPropertyOp36
 70
     1
102
RTVSPropertyOp37
 70
     1
102
RTVSPropertyOp38
 70
     1
102
RTVSPropertyOp39
 70
     1
102
RTVSPropertyOp40
 70
     1
102
RTVSPropertyOp41
 70
     1
102
RTVSPropertyOp42
 70
     1
102
RTVSPropertyOp43
 70
     1
102
RTVSPropertyOp44
 70
     1
102
RTVSPropertyOp45
 70
     1
102
RTVSPropertyOp46
 70
     1
102
RTVSPropertyOp47
 70
     1
102
RTVSPropertyOp48
 70
     1
102
RTVSPropertyOp49
 70
     1
102
RTVSPropertyOp50
 70
     1
102
RTVSPropertyOp51
 70
     0
102
RTVSPropertyOp52
 70
     0
102
RTVSPropertyOp53
 70
     1
102
RTVSPropertyOp54
 70
     1
102
RTVSPropertyOp55
 70
     1
102
RTVSPropertyOp56
 70
     1
102
RTVSPropertyOp57
 70
     1
102
RTVSPost2010Prop28
280
     0
102
RTVSPost2010PropOp28
 70
     1
102
RTVSPost2010Prop29
280
     1
102
RTVSPost2010PropOp29
 70
     1
102
RTVSPost2010Prop30
280
     1
102
RTVSPost2010PropOp30
 70
     1
102
RTVSPost2010Prop31
280
     0
102
RTVSPost2010PropOp31
 70
     1
102
RTVSPost2010Prop32
280
     0
102
RTVSPost2010PropOp32
 70
     1
102
RTVSPost2010Prop33
280
     0
102
RTVSPost2010PropOp33
 70
     1
102
RTVSPost2010Prop34
280
     0
102
RTVSPost2010PropOp34
 70
     1
102
RTVSPost2010Prop35
280
     0
102
RTVSPost2010PropOp35
 70
     1
102
RTVSPost2010Prop36
280
     0
102
RTVSPost2010PropOp36
 70
     1
102
RTVSPost2010Prop37
 90
       50
102
RTVSPost2010PropOp37
 70
     1
102
RTVSPost2010Prop38
140
0.0
102
RTVSPost2010PropOp38
 70
     1
102
RTVSPost2010Prop39
140
1.0
102
RTVSPost2010PropOp39
 70
     1
102
RTVSPost2010Prop40
 90
        0
102
RTVSPost2010PropOp40
 70
     1
102
RTVSPost2010Prop41ColorIndex
 90
       18
102
RTVSPost2010Prop41ColorRGB
 90
        0
102
RTVSPost2010PropOp41
 70
     1
102
RTVSPost2010Prop42
 90
       50
102
RTVSPost2010PropOp42
 70
     1
102
RTVSPost2010Prop43
 90
        3
102
RTVSPost2010PropOp43
 70
     1
102
RTVSPost2010Prop44ColorIndex
 90
        5
102
RTVSPost2010Prop44ColorRGB
 90
      255
102
RTVSPost2010PropOp44
 70
     1
102
RTVSPost2010Prop45
280
     0
102
RTVSPost2010PropOp45
 70
     1
102
RTVSPost2010Prop46
 90
       50
102
RTVSPost2010PropOp46
 70
     1
102
RTVSPost2010Prop47
 90
       50
102
RTVSPost2010PropOp47
 70
     1
102
RTVSPost2010Prop48
 90
       50
102
RTVSPost2010PropOp48
 70
     1
102
RTVSPost2010Prop49
280
     0
102
RTVSPost2010PropOp49
 70
     1
102
RTVSPost2010Prop50
 90
       50
102
RTVSPost2010PropOp50
 70
     1
102
RTVSPost2010Prop51ColorIndex
 90
      256
102
RTVSPost2010Prop51ColorRGB
 90
-16777216
102
RTVSPost2010PropOp51
 70
     0
102
RTVSPost2010Prop52
140
1.0
102
RTVSPost2010PropOp52
 70
     0
102
RTVSPost2010Prop53
 90
        2
102
RTVSPost2010PropOp53
 70
     1
102
RTVSPost2010Prop54
  1
strokes_ogs.tif
102
RTVSPost2010PropOp54
 70
     1
102
RTVSPost2010Prop55
280
     0
102
RTVSPost2010PropOp55
 70
     1
102
RTVSPost2010Prop56
140
1.0
102
RTVSPost2010PropOp56
 70
     1
102
RTVSPost2010Prop57
140
1.0
102
RTVSPost2010PropOp57
 70
     1
  0
XRECORD
  5
408
102
{ACAD_REACTORS
330
407
102
}
330
407
100
AcDbXrecord
280
     1
102
RTVSPropertyOp0
 70
     1
102
RTVSPropertyOp1
 70
     1
102
RTVSPropertyOp2
 70
     1
102
RTVSPropertyOp3
 70
     1
102
RTVSPropertyOp4
 70
     1
102
RTVSPropertyOp5
 70
     1
102
RTVSPropertyOp6
 70
     1
102
RTVSPropertyOp7
 70
     1
102
RTVSPropertyOp8
 70
     1
102
RTVSPropertyOp9
 70
     1
102
RTVSPropertyOp10
 70
     1
102
RTVSPropertyOp11
 70
     1
102
RTVSPropertyOp12
 70
     1
102
RTVSPropertyOp13
 70
     1
102
RTVSPropertyOp14
 70
     1
102
RTVSPropertyOp15
 70
     1
102
RTVSPropertyOp16
 70
     1
102
RTVSPropertyOp17
 70
     1
102
RTVSPropertyOp18
 70
     1
102
RTVSPropertyOp19
 70
     1
102
RTVSPropertyOp20
 70
     1
102
RTVSPropertyOp21
 70
     1
102
RTVSPropertyOp22
 70
     1
102
RTVSPropertyOp23
 70
     1
102
RTVSPropertyOp24
 70
     1
102
RTVSPropertyOp25
 70
     1
102
RTVSPropertyOp26
 70
     1
102
RTVSPropertyOp27
 70
     1
102
RTVSPropertyOp28
 70
     1
102
RTVSPropertyOp29
 70
     1
102
RTVSPropertyOp30
 70
     1
102
RTVSPropertyOp31
 70
     1
102
RTVSPropertyOp32
 70
     1
102
RTVSPropertyOp33
 70
     1
102
RTVSPropertyOp34
 70
     1
102
RTVSPropertyOp35
 70
     1
102
RTVSPropertyOp36
 70
     1
102
RTVSPropertyOp37
 70
     1
102
RTVSPropertyOp38
 70
     1
102
RTVSPropertyOp39
 70
     1
102
RTVSPropertyOp40
 70
     1
102
RTVSPropertyOp41
 70
     1
102
RTVSPropertyOp42
 70
     1
102
RTVSPropertyOp43
 70
     1
102
RTVSPropertyOp44
 70
     1
102
RTVSPropertyOp45
 70
     1
102
RTVSPropertyOp46
 70
     1
102
RTVSPropertyOp47
 70
     1
102
RTVSPropertyOp48
 70
     1
102
RTVSPropertyOp49
 70
     1
102
RTVSPropertyOp50
 70
     1
102
RTVSPropertyOp51
 70
     0
102
RTVSPropertyOp52
 70
     0
102
RTVSPropertyOp53
 70
     1
102
RTVSPropertyOp54
 70
     1
102
RTVSPropertyOp55
 70
     1
102
RTVSPropertyOp56
 70
     1
102
RTVSPropertyOp57
 70
     1
102
RTVSPost2010Prop28
280
     0
102
RTVSPost2010PropOp28
 70
     1
102
RTVSPost2010Prop29
280
     1
102
RTVSPost2010PropOp29
 70
     1
102
RTVSPost2010Prop30
280
     1
102
RTVSPost2010PropOp30
 70
     1
102
RTVSPost2010Prop31
280
     0
102
RTVSPost2010PropOp31
 70
     1
102
RTVSPost2010Prop32
280
     0
102
RTVSPost2010PropOp32
 70
     1
102
RTVSPost2010Prop33
280
     0
102
RTVSPost2010PropOp33
 70
     1
102
RTVSPost2010Prop34
280
     0
102
RTVSPost2010PropOp34
 70
     1
102
RTVSPost2010Prop35
280
     0
102
RTVSPost2010PropOp35
 70
     1
102
RTVSPost2010Prop36
280
     0
102
RTVSPost2010PropOp36
 70
     1
102
RTVSPost2010Prop37
 90
       50
102
RTVSPost2010PropOp37
 70
     1
102
RTVSPost2010Prop38
140
0.0
102
RTVSPost2010PropOp38
 70
     1
102
RTVSPost2010Prop39
140
1.0
102
RTVSPost2010PropOp39
 70
     1
102
RTVSPost2010Prop40
 90
        0
102
RTVSPost2010PropOp40
 70
     1
102
RTVSPost2010Prop41ColorIndex
 90
       18
102
RTVSPost2010Prop41ColorRGB
 90
        0
102
RTVSPost2010PropOp41
 70
     1
102
RTVSPost2010Prop42
 90
       50
102
RTVSPost2010PropOp42
 70
     1
102
RTVSPost2010Prop43
 90
        3
102
RTVSPost2010PropOp43
 70
     1
102
RTVSPost2010Prop44ColorIndex
 90
        5
102
RTVSPost2010Prop44ColorRGB
 90
      255
102
RTVSPost2010PropOp44
 70
     1
102
RTVSPost2010Prop45
280
     0
102
RTVSPost2010PropOp45
 70
     1
102
RTVSPost2010Prop46
 90
       50
102
RTVSPost2010PropOp46
 70
     1
102
RTVSPost2010Prop47
 90
       50
102
RTVSPost2010PropOp47
 70
     1
102
RTVSPost2010Prop48
 90
       50
102
RTVSPost2010PropOp48
 70
     1
102
RTVSPost2010Prop49
280
     0
102
RTVSPost2010PropOp49
 70
     1
102
RTVSPost2010Prop50
 90
       50
102
RTVSPost2010PropOp50
 70
     1
102
RTVSPost2010Prop51ColorIndex
 90
      256
102
RTVSPost2010Prop51ColorRGB
 90
-16777216
102
RTVSPost2010PropOp51
 70
     0
102
RTVSPost2010Prop52
140
1.0
102
RTVSPost2010PropOp52
 70
     0
102
RTVSPost2010Prop53
 90
        2
102
RTVSPost2010PropOp53
 70
     1
102
RTVSPost2010Prop54
  1
strokes_ogs.tif
102
RTVSPost2010PropOp54
 70
     1
102
RTVSPost2010Prop55
280
     0
102
RTVSPost2010PropOp55
 70
     1
102
RTVSPost2010Prop56
140
1.0
102
RTVSPost2010PropOp56
 70
     1
102
RTVSPost2010Prop57
140
1.0
102
RTVSPost2010PropOp57
 70
     1
  0
XRECORD
  5
406
102
{ACAD_REACTORS
330
405
102
}
330
405
100
AcDbXrecord
280
     1
102
RTVSPropertyOp0
 70
     1
102
RTVSPropertyOp1
 70
     1
102
RTVSPropertyOp2
 70
     1
102
RTVSPropertyOp3
 70
     1
102
RTVSPropertyOp4
 70
     1
102
RTVSPropertyOp5
 70
     1
102
RTVSPropertyOp6
 70
     1
102
RTVSPropertyOp7
 70
     1
102
RTVSPropertyOp8
 70
     1
102
RTVSPropertyOp9
 70
     1
102
RTVSPropertyOp10
 70
     1
102
RTVSPropertyOp11
 70
     1
102
RTVSPropertyOp12
 70
     1
102
RTVSPropertyOp13
 70
     1
102
RTVSPropertyOp14
 70
     1
102
RTVSPropertyOp15
 70
     1
102
RTVSPropertyOp16
 70
     1
102
RTVSPropertyOp17
 70
     1
102
RTVSPropertyOp18
 70
     1
102
RTVSPropertyOp19
 70
     1
102
RTVSPropertyOp20
 70
     1
102
RTVSPropertyOp21
 70
     1
102
RTVSPropertyOp22
 70
     1
102
RTVSPropertyOp23
 70
     1
102
RTVSPropertyOp24
 70
     1
102
RTVSPropertyOp25
 70
     1
102
RTVSPropertyOp26
 70
     1
102
RTVSPropertyOp27
 70
     1
102
RTVSPropertyOp28
 70
     1
102
RTVSPropertyOp29
 70
     1
102
RTVSPropertyOp30
 70
     1
102
RTVSPropertyOp31
 70
     1
102
RTVSPropertyOp32
 70
     1
102
RTVSPropertyOp33
 70
     1
102
RTVSPropertyOp34
 70
     1
102
RTVSPropertyOp35
 70
     1
102
RTVSPropertyOp36
 70
     1
102
RTVSPropertyOp37
 70
     1
102
RTVSPropertyOp38
 70
     1
102
RTVSPropertyOp39
 70
     1
102
RTVSPropertyOp40
 70
     1
102
RTVSPropertyOp41
 70
     1
102
RTVSPropertyOp42
 70
     1
102
RTVSPropertyOp43
 70
     1
102
RTVSPropertyOp44
 70
     1
102
RTVSPropertyOp45
 70
     1
102
RTVSPropertyOp46
 70
     1
102
RTVSPropertyOp47
 70
     1
102
RTVSPropertyOp48
 70
     1
102
RTVSPropertyOp49
 70
     1
102
RTVSPropertyOp50
 70
     1
102
RTVSPropertyOp51
 70
     0
102
RTVSPropertyOp52
 70
     0
102
RTVSPropertyOp53
 70
     1
102
RTVSPropertyOp54
 70
     1
102
RTVSPropertyOp55
 70
     1
102
RTVSPropertyOp56
 70
     1
102
RTVSPropertyOp57
 70
     1
102
RTVSPost2010Prop28
280
     0
102
RTVSPost2010PropOp28
 70
     1
102
RTVSPost2010Prop29
280
     1
102
RTVSPost2010PropOp29
 70
     1
102
RTVSPost2010Prop30
280
     1
102
RTVSPost2010PropOp30
 70
     1
102
RTVSPost2010Prop31
280
     0
102
RTVSPost2010PropOp31
 70
     1
102
RTVSPost2010Prop32
280
     0
102
RTVSPost2010PropOp32
 70
     1
102
RTVSPost2010Prop33
280
     0
102
RTVSPost2010PropOp33
 70
     1
102
RTVSPost2010Prop34
280
     0
102
RTVSPost2010PropOp34
 70
     1
102
RTVSPost2010Prop35
280
     0
102
RTVSPost2010PropOp35
 70
     1
102
RTVSPost2010Prop36
280
     0
102
RTVSPost2010PropOp36
 70
     1
102
RTVSPost2010Prop37
 90
       50
102
RTVSPost2010PropOp37
 70
     1
102
RTVSPost2010Prop38
140
0.0
102
RTVSPost2010PropOp38
 70
     1
102
RTVSPost2010Prop39
140
1.0
102
RTVSPost2010PropOp39
 70
     1
102
RTVSPost2010Prop40
 90
        0
102
RTVSPost2010PropOp40
 70
     1
102
RTVSPost2010Prop41ColorIndex
 90
       18
102
RTVSPost2010Prop41ColorRGB
 90
        0
102
RTVSPost2010PropOp41
 70
     1
102
RTVSPost2010Prop42
 90
       50
102
RTVSPost2010PropOp42
 70
     1
102
RTVSPost2010Prop43
 90
        3
102
RTVSPost2010PropOp43
 70
     1
102
RTVSPost2010Prop44ColorIndex
 90
        5
102
RTVSPost2010Prop44ColorRGB
 90
      255
102
RTVSPost2010PropOp44
 70
     1
102
RTVSPost2010Prop45
280
     0
102
RTVSPost2010PropOp45
 70
     1
102
RTVSPost2010Prop46
 90
       50
102
RTVSPost2010PropOp46
 70
     1
102
RTVSPost2010Prop47
 90
       50
102
RTVSPost2010PropOp47
 70
     1
102
RTVSPost2010Prop48
 90
       50
102
RTVSPost2010PropOp48
 70
     1
102
RTVSPost2010Prop49
280
     0
102
RTVSPost2010PropOp49
 70
     1
102
RTVSPost2010Prop50
 90
       50
102
RTVSPost2010PropOp50
 70
     1
102
RTVSPost2010Prop51ColorIndex
 90
      256
102
RTVSPost2010Prop51ColorRGB
 90
-16777216
102
RTVSPost2010PropOp51
 70
     0
102
RTVSPost2010Prop52
140
1.0
102
RTVSPost2010PropOp52
 70
     0
102
RTVSPost2010Prop53
 90
        2
102
RTVSPost2010PropOp53
 70
     1
102
RTVSPost2010Prop54
  1
strokes_ogs.tif
102
RTVSPost2010PropOp54
 70
     1
102
RTVSPost2010Prop55
280
     0
102
RTVSPost2010PropOp55
 70
     1
102
RTVSPost2010Prop56
140
1.0
102
RTVSPost2010PropOp56
 70
     1
102
RTVSPost2010Prop57
140
1.0
102
RTVSPost2010PropOp57
 70
     1
  0
XRECORD
  5
400
102
{ACAD_REACTORS
330
3FF
102
}
330
3FF
100
AcDbXrecord
280
     1
102
RTVSPropertyOp0
 70
     1
102
RTVSPropertyOp1
 70
     1
102
RTVSPropertyOp2
 70
     1
102
RTVSPropertyOp3
 70
     1
102
RTVSPropertyOp4
 70
     1
102
RTVSPropertyOp5
 70
     1
102
RTVSPropertyOp6
 70
     1
102
RTVSPropertyOp7
 70
     1
102
RTVSPropertyOp8
 70
     1
102
RTVSPropertyOp9
 70
     1
102
RTVSPropertyOp10
 70
     1
102
RTVSPropertyOp11
 70
     1
102
RTVSPropertyOp12
 70
     1
102
RTVSPropertyOp13
 70
     1
102
RTVSPropertyOp14
 70
     1
102
RTVSPropertyOp15
 70
     1
102
RTVSPropertyOp16
 70
     1
102
RTVSPropertyOp17
 70
     1
102
RTVSPropertyOp18
 70
     1
102
RTVSPropertyOp19
 70
     1
102
RTVSPropertyOp20
 70
     1
102
RTVSPropertyOp21
 70
     1
102
RTVSPropertyOp22
 70
     1
102
RTVSPropertyOp23
 70
     1
102
RTVSPropertyOp24
 70
     1
102
RTVSPropertyOp25
 70
     1
102
RTVSPropertyOp26
 70
     1
102
RTVSPropertyOp27
 70
     1
102
RTVSPropertyOp28
 70
     1
102
RTVSPropertyOp29
 70
     1
102
RTVSPropertyOp30
 70
     1
102
RTVSPropertyOp31
 70
     1
102
RTVSPropertyOp32
 70
     1
102
RTVSPropertyOp33
 70
     1
102
RTVSPropertyOp34
 70
     1
102
RTVSPropertyOp35
 70
     1
102
RTVSPropertyOp36
 70
     1
102
RTVSPropertyOp37
 70
     1
102
RTVSPropertyOp38
 70
     1
102
RTVSPropertyOp39
 70
     1
102
RTVSPropertyOp40
 70
     1
102
RTVSPropertyOp41
 70
     1
102
RTVSPropertyOp42
 70
     1
102
RTVSPropertyOp43
 70
     1
102
RTVSPropertyOp44
 70
     1
102
RTVSPropertyOp45
 70
     1
102
RTVSPropertyOp46
 70
     1
102
RTVSPropertyOp47
 70
     1
102
RTVSPropertyOp48
 70
     1
102
RTVSPropertyOp49
 70
     1
102
RTVSPropertyOp50
 70
     1
102
RTVSPropertyOp51
 70
     0
102
RTVSPropertyOp52
 70
     0
102
RTVSPropertyOp53
 70
     1
102
RTVSPropertyOp54
 70
     1
102
RTVSPropertyOp55
 70
     1
102
RTVSPropertyOp56
 70
     1
102
RTVSPropertyOp57
 70
     1
102
RTVSPost2010Prop28
280
     0
102
RTVSPost2010PropOp28
 70
     1
102
RTVSPost2010Prop29
280
     1
102
RTVSPost2010PropOp29
 70
     1
102
RTVSPost2010Prop30
280
     1
102
RTVSPost2010PropOp30
 70
     1
102
RTVSPost2010Prop31
280
     0
102
RTVSPost2010PropOp31
 70
     1
102
RTVSPost2010Prop32
280
     0
102
RTVSPost2010PropOp32
 70
     1
102
RTVSPost2010Prop33
280
     0
102
RTVSPost2010PropOp33
 70
     1
102
RTVSPost2010Prop34
280
     0
102
RTVSPost2010PropOp34
 70
     1
102
RTVSPost2010Prop35
280
     0
102
RTVSPost2010PropOp35
 70
     1
102
RTVSPost2010Prop36
280
     0
102
RTVSPost2010PropOp36
 70
     1
102
RTVSPost2010Prop37
 90
       50
102
RTVSPost2010PropOp37
 70
     1
102
RTVSPost2010Prop38
140
0.0
102
RTVSPost2010PropOp38
 70
     1
102
RTVSPost2010Prop39
140
1.0
102
RTVSPost2010PropOp39
 70
     1
102
RTVSPost2010Prop40
 90
        0
102
RTVSPost2010PropOp40
 70
     1
102
RTVSPost2010Prop41ColorIndex
 90
       18
102
RTVSPost2010Prop41ColorRGB
 90
        0
102
RTVSPost2010PropOp41
 70
     1
102
RTVSPost2010Prop42
 90
       50
102
RTVSPost2010PropOp42
 70
     1
102
RTVSPost2010Prop43
 90
        3
102
RTVSPost2010PropOp43
 70
     1
102
RTVSPost2010Prop44ColorIndex
 90
        5
102
RTVSPost2010Prop44ColorRGB
 90
      255
102
RTVSPost2010PropOp44
 70
     1
102
RTVSPost2010Prop45
280
     0
102
RTVSPost2010PropOp45
 70
     1
102
RTVSPost2010Prop46
 90
       50
102
RTVSPost2010PropOp46
 70
     1
102
RTVSPost2010Prop47
 90
       50
102
RTVSPost2010PropOp47
 70
     1
102
RTVSPost2010Prop48
 90
       50
102
RTVSPost2010PropOp48
 70
     1
102
RTVSPost2010Prop49
280
     0
102
RTVSPost2010PropOp49
 70
     1
102
RTVSPost2010Prop50
 90
       50
102
RTVSPost2010PropOp50
 70
     1
102
RTVSPost2010Prop51ColorIndex
 90
      256
102
RTVSPost2010Prop51ColorRGB
 90
-16777216
102
RTVSPost2010PropOp51
 70
     0
102
RTVSPost2010Prop52
140
1.0
102
RTVSPost2010PropOp52
 70
     0
102
RTVSPost2010Prop53
 90
        2
102
RTVSPost2010PropOp53
 70
     1
102
RTVSPost2010Prop54
  1
strokes_ogs.tif
102
RTVSPost2010PropOp54
 70
     1
102
RTVSPost2010Prop55
280
     0
102
RTVSPost2010PropOp55
 70
     1
102
RTVSPost2010Prop56
140
1.0
102
RTVSPost2010PropOp56
 70
     1
102
RTVSPost2010Prop57
140
1.0
102
RTVSPost2010PropOp57
 70
     1
  0
XRECORD
  5
402
102
{ACAD_REACTORS
330
401
102
}
330
401
100
AcDbXrecord
280
     1
102
RTVSPropertyOp0
 70
     1
102
RTVSPropertyOp1
 70
     1
102
RTVSPropertyOp2
 70
     1
102
RTVSPropertyOp3
 70
     1
102
RTVSPropertyOp4
 70
     1
102
RTVSPropertyOp5
 70
     1
102
RTVSPropertyOp6
 70
     1
102
RTVSPropertyOp7
 70
     1
102
RTVSPropertyOp8
 70
     1
102
RTVSPropertyOp9
 70
     1
102
RTVSPropertyOp10
 70
     1
102
RTVSPropertyOp11
 70
     1
102
RTVSPropertyOp12
 70
     1
102
RTVSPropertyOp13
 70
     1
102
RTVSPropertyOp14
 70
     1
102
RTVSPropertyOp15
 70
     1
102
RTVSPropertyOp16
 70
     1
102
RTVSPropertyOp17
 70
     1
102
RTVSPropertyOp18
 70
     1
102
RTVSPropertyOp19
 70
     1
102
RTVSPropertyOp20
 70
     1
102
RTVSPropertyOp21
 70
     1
102
RTVSPropertyOp22
 70
     1
102
RTVSPropertyOp23
 70
     1
102
RTVSPropertyOp24
 70
     1
102
RTVSPropertyOp25
 70
     1
102
RTVSPropertyOp26
 70
     1
102
RTVSPropertyOp27
 70
     1
102
RTVSPropertyOp28
 70
     1
102
RTVSPropertyOp29
 70
     1
102
RTVSPropertyOp30
 70
     1
102
RTVSPropertyOp31
 70
     1
102
RTVSPropertyOp32
 70
     1
102
RTVSPropertyOp33
 70
     1
102
RTVSPropertyOp34
 70
     1
102
RTVSPropertyOp35
 70
     1
102
RTVSPropertyOp36
 70
     1
102
RTVSPropertyOp37
 70
     1
102
RTVSPropertyOp38
 70
     1
102
RTVSPropertyOp39
 70
     1
102
RTVSPropertyOp40
 70
     1
102
RTVSPropertyOp41
 70
     1
102
RTVSPropertyOp42
 70
     1
102
RTVSPropertyOp43
 70
     1
102
RTVSPropertyOp44
 70
     1
102
RTVSPropertyOp45
 70
     1
102
RTVSPropertyOp46
 70
     1
102
RTVSPropertyOp47
 70
     1
102
RTVSPropertyOp48
 70
     1
102
RTVSPropertyOp49
 70
     1
102
RTVSPropertyOp50
 70
     1
102
RTVSPropertyOp51
 70
     0
102
RTVSPropertyOp52
 70
     0
102
RTVSPropertyOp53
 70
     1
102
RTVSPropertyOp54
 70
     1
102
RTVSPropertyOp55
 70
     1
102
RTVSPropertyOp56
 70
     1
102
RTVSPropertyOp57
 70
     1
102
RTVSPost2010Prop28
280
     0
102
RTVSPost2010PropOp28
 70
     1
102
RTVSPost2010Prop29
280
     1
102
RTVSPost2010PropOp29
 70
     1
102
RTVSPost2010Prop30
280
     1
102
RTVSPost2010PropOp30
 70
     1
102
RTVSPost2010Prop31
280
     0
102
RTVSPost2010PropOp31
 70
     1
102
RTVSPost2010Prop32
280
     0
102
RTVSPost2010PropOp32
 70
     1
102
RTVSPost2010Prop33
280
     0
102
RTVSPost2010PropOp33
 70
     1
102
RTVSPost2010Prop34
280
     0
102
RTVSPost2010PropOp34
 70
     1
102
RTVSPost2010Prop35
280
     0
102
RTVSPost2010PropOp35
 70
     1
102
RTVSPost2010Prop36
280
     0
102
RTVSPost2010PropOp36
 70
     1
102
RTVSPost2010Prop37
 90
       50
102
RTVSPost2010PropOp37
 70
     1
102
RTVSPost2010Prop38
140
0.0
102
RTVSPost2010PropOp38
 70
     1
102
RTVSPost2010Prop39
140
1.0
102
RTVSPost2010PropOp39
 70
     1
102
RTVSPost2010Prop40
 90
        0
102
RTVSPost2010PropOp40
 70
     1
102
RTVSPost2010Prop41ColorIndex
 90
       18
102
RTVSPost2010Prop41ColorRGB
 90
        0
102
RTVSPost2010PropOp41
 70
     1
102
RTVSPost2010Prop42
 90
       50
102
RTVSPost2010PropOp42
 70
     1
102
RTVSPost2010Prop43
 90
        3
102
RTVSPost2010PropOp43
 70
     1
102
RTVSPost2010Prop44ColorIndex
 90
        5
102
RTVSPost2010Prop44ColorRGB
 90
      255
102
RTVSPost2010PropOp44
 70
     1
102
RTVSPost2010Prop45
280
     0
102
RTVSPost2010PropOp45
 70
     1
102
RTVSPost2010Prop46
 90
       50
102
RTVSPost2010PropOp46
 70
     1
102
RTVSPost2010Prop47
 90
       50
102
RTVSPost2010PropOp47
 70
     1
102
RTVSPost2010Prop48
 90
       50
102
RTVSPost2010PropOp48
 70
     1
102
RTVSPost2010Prop49
280
     0
102
RTVSPost2010PropOp49
 70
     1
102
RTVSPost2010Prop50
 90
       50
102
RTVSPost2010PropOp50
 70
     1
102
RTVSPost2010Prop51ColorIndex
 90
      256
102
RTVSPost2010Prop51ColorRGB
 90
-16777216
102
RTVSPost2010PropOp51
 70
     0
102
RTVSPost2010Prop52
140
1.0
102
RTVSPost2010PropOp52
 70
     0
102
RTVSPost2010Prop53
 90
        2
102
RTVSPost2010PropOp53
 70
     1
102
RTVSPost2010Prop54
  1
strokes_ogs.tif
102
RTVSPost2010PropOp54
 70
     1
102
RTVSPost2010Prop55
280
     0
102
RTVSPost2010PropOp55
 70
     1
102
RTVSPost2010Prop56
140
1.0
102
RTVSPost2010PropOp56
 70
     1
102
RTVSPost2010Prop57
140
1.0
102
RTVSPost2010PropOp57
 70
     1
  0
XRECORD
  5
3F2
102
{ACAD_REACTORS
330
3F1
102
}
330
3F1
100
AcDbXrecord
280
     1
102
RTVSPropertyOp0
 70
     1
102
RTVSPropertyOp1
 70
     1
102
RTVSPropertyOp2
 70
     1
102
RTVSPropertyOp3
 70
     1
102
RTVSPropertyOp4
 70
     1
102
RTVSPropertyOp5
 70
     1
102
RTVSPropertyOp6
 70
     1
102
RTVSPropertyOp7
 70
     1
102
RTVSPropertyOp8
 70
     1
102
RTVSPropertyOp9
 70
     1
102
RTVSPropertyOp10
 70
     1
102
RTVSPropertyOp11
 70
     1
102
RTVSPropertyOp12
 70
     1
102
RTVSPropertyOp13
 70
     1
102
RTVSPropertyOp14
 70
     1
102
RTVSPropertyOp15
 70
     1
102
RTVSPropertyOp16
 70
     1
102
RTVSPropertyOp17
 70
     1
102
RTVSPropertyOp18
 70
     1
102
RTVSPropertyOp19
 70
     1
102
RTVSPropertyOp20
 70
     1
102
RTVSPropertyOp21
 70
     1
102
RTVSPropertyOp22
 70
     1
102
RTVSPropertyOp23
 70
     1
102
RTVSPropertyOp24
 70
     1
102
RTVSPropertyOp25
 70
     1
102
RTVSPropertyOp26
 70
     1
102
RTVSPropertyOp27
 70
     1
102
RTVSPropertyOp28
 70
     1
102
RTVSPropertyOp29
 70
     1
102
RTVSPropertyOp30
 70
     1
102
RTVSPropertyOp31
 70
     1
102
RTVSPropertyOp32
 70
     1
102
RTVSPropertyOp33
 70
     1
102
RTVSPropertyOp34
 70
     1
102
RTVSPropertyOp35
 70
     1
102
RTVSPropertyOp36
 70
     1
102
RTVSPropertyOp37
 70
     1
102
RTVSPropertyOp38
 70
     1
102
RTVSPropertyOp39
 70
     1
102
RTVSPropertyOp40
 70
     1
102
RTVSPropertyOp41
 70
     1
102
RTVSPropertyOp42
 70
     1
102
RTVSPropertyOp43
 70
     1
102
RTVSPropertyOp44
 70
     1
102
RTVSPropertyOp45
 70
     1
102
RTVSPropertyOp46
 70
     1
102
RTVSPropertyOp47
 70
     1
102
RTVSPropertyOp48
 70
     1
102
RTVSPropertyOp49
 70
     1
102
RTVSPropertyOp50
 70
     1
102
RTVSPropertyOp51
 70
     0
102
RTVSPropertyOp52
 70
     0
102
RTVSPropertyOp53
 70
     1
102
RTVSPropertyOp54
 70
     1
102
RTVSPropertyOp55
 70
     1
102
RTVSPropertyOp56
 70
     1
102
RTVSPropertyOp57
 70
     1
102
RTVSPost2010Prop28
280
     0
102
RTVSPost2010PropOp28
 70
     1
102
RTVSPost2010Prop29
280
     1
102
RTVSPost2010PropOp29
 70
     1
102
RTVSPost2010Prop30
280
     1
102
RTVSPost2010PropOp30
 70
     1
102
RTVSPost2010Prop31
280
     0
102
RTVSPost2010PropOp31
 70
     1
102
RTVSPost2010Prop32
280
     0
102
RTVSPost2010PropOp32
 70
     1
102
RTVSPost2010Prop33
280
     0
102
RTVSPost2010PropOp33
 70
     1
102
RTVSPost2010Prop34
280
     0
102
RTVSPost2010PropOp34
 70
     1
102
RTVSPost2010Prop35
280
     0
102
RTVSPost2010PropOp35
 70
     1
102
RTVSPost2010Prop36
280
     0
102
RTVSPost2010PropOp36
 70
     1
102
RTVSPost2010Prop37
 90
       50
102
RTVSPost2010PropOp37
 70
     1
102
RTVSPost2010Prop38
140
0.0
102
RTVSPost2010PropOp38
 70
     1
102
RTVSPost2010Prop39
140
1.0
102
RTVSPost2010PropOp39
 70
     1
102
RTVSPost2010Prop40
 90
        0
102
RTVSPost2010PropOp40
 70
     1
102
RTVSPost2010Prop41ColorIndex
 90
       18
102
RTVSPost2010Prop41ColorRGB
 90
        0
102
RTVSPost2010PropOp41
 70
     1
102
RTVSPost2010Prop42
 90
       50
102
RTVSPost2010PropOp42
 70
     1
102
RTVSPost2010Prop43
 90
        3
102
RTVSPost2010PropOp43
 70
     1
102
RTVSPost2010Prop44ColorIndex
 90
        5
102
RTVSPost2010Prop44ColorRGB
 90
      255
102
RTVSPost2010PropOp44
 70
     1
102
RTVSPost2010Prop45
280
     0
102
RTVSPost2010PropOp45
 70
     1
102
RTVSPost2010Prop46
 90
       50
102
RTVSPost2010PropOp46
 70
     1
102
RTVSPost2010Prop47
 90
       50
102
RTVSPost2010PropOp47
 70
     1
102
RTVSPost2010Prop48
 90
       50
102
RTVSPost2010PropOp48
 70
     1
102
RTVSPost2010Prop49
280
     0
102
RTVSPost2010PropOp49
 70
     1
102
RTVSPost2010Prop50
 90
       50
102
RTVSPost2010PropOp50
 70
     1
102
RTVSPost2010Prop51ColorIndex
 90
      256
102
RTVSPost2010Prop51ColorRGB
 90
-16777216
102
RTVSPost2010PropOp51
 70
     0
102
RTVSPost2010Prop52
140
1.0
102
RTVSPost2010PropOp52
 70
     0
102
RTVSPost2010Prop53
 90
        2
102
RTVSPost2010PropOp53
 70
     1
102
RTVSPost2010Prop54
  1
strokes_ogs.tif
102
RTVSPost2010PropOp54
 70
     1
102
RTVSPost2010Prop55
280
     0
102
RTVSPost2010PropOp55
 70
     1
102
RTVSPost2010Prop56
140
1.0
102
RTVSPost2010PropOp56
 70
     1
102
RTVSPost2010Prop57
140
1.0
102
RTVSPost2010PropOp57
 70
     1
  0
XRECORD
  5
3E4
102
{ACAD_REACTORS
330
3E3
102
}
330
3E3
100
AcDbXrecord
280
     1
102
RTVSPropertyOp0
 70
     1
102
RTVSPropertyOp1
 70
     1
102
RTVSPropertyOp2
 70
     1
102
RTVSPropertyOp3
 70
     1
102
RTVSPropertyOp4
 70
     1
102
RTVSPropertyOp5
 70
     1
102
RTVSPropertyOp6
 70
     1
102
RTVSPropertyOp7
 70
     1
102
RTVSPropertyOp8
 70
     1
102
RTVSPropertyOp9
 70
     1
102
RTVSPropertyOp10
 70
     1
102
RTVSPropertyOp11
 70
     1
102
RTVSPropertyOp12
 70
     1
102
RTVSPropertyOp13
 70
     1
102
RTVSPropertyOp14
 70
     1
102
RTVSPropertyOp15
 70
     1
102
RTVSPropertyOp16
 70
     1
102
RTVSPropertyOp17
 70
     1
102
RTVSPropertyOp18
 70
     1
102
RTVSPropertyOp19
 70
     1
102
RTVSPropertyOp20
 70
     1
102
RTVSPropertyOp21
 70
     1
102
RTVSPropertyOp22
 70
     1
102
RTVSPropertyOp23
 70
     1
102
RTVSPropertyOp24
 70
     1
102
RTVSPropertyOp25
 70
     1
102
RTVSPropertyOp26
 70
     1
102
RTVSPropertyOp27
 70
     1
102
RTVSPropertyOp28
 70
     1
102
RTVSPropertyOp29
 70
     1
102
RTVSPropertyOp30
 70
     1
102
RTVSPropertyOp31
 70
     1
102
RTVSPropertyOp32
 70
     1
102
RTVSPropertyOp33
 70
     1
102
RTVSPropertyOp34
 70
     1
102
RTVSPropertyOp35
 70
     1
102
RTVSPropertyOp36
 70
     1
102
RTVSPropertyOp37
 70
     1
102
RTVSPropertyOp38
 70
     1
102
RTVSPropertyOp39
 70
     1
102
RTVSPropertyOp40
 70
     1
102
RTVSPropertyOp41
 70
     1
102
RTVSPropertyOp42
 70
     1
102
RTVSPropertyOp43
 70
     1
102
RTVSPropertyOp44
 70
     1
102
RTVSPropertyOp45
 70
     1
102
RTVSPropertyOp46
 70
     1
102
RTVSPropertyOp47
 70
     1
102
RTVSPropertyOp48
 70
     1
102
RTVSPropertyOp49
 70
     1
102
RTVSPropertyOp50
 70
     1
102
RTVSPropertyOp51
 70
     0
102
RTVSPropertyOp52
 70
     0
102
RTVSPropertyOp53
 70
     1
102
RTVSPropertyOp54
 70
     1
102
RTVSPropertyOp55
 70
     1
102
RTVSPropertyOp56
 70
     1
102
RTVSPropertyOp57
 70
     1
102
RTVSPost2010Prop28
280
     0
102
RTVSPost2010PropOp28
 70
     1
102
RTVSPost2010Prop29
280
     1
102
RTVSPost2010PropOp29
 70
     1
102
RTVSPost2010Prop30
280
     1
102
RTVSPost2010PropOp30
 70
     1
102
RTVSPost2010Prop31
280
     0
102
RTVSPost2010PropOp31
 70
     1
102
RTVSPost2010Prop32
280
     0
102
RTVSPost2010PropOp32
 70
     1
102
RTVSPost2010Prop33
280
     0
102
RTVSPost2010PropOp33
 70
     1
102
RTVSPost2010Prop34
280
     0
102
RTVSPost2010PropOp34
 70
     1
102
RTVSPost2010Prop35
280
     0
102
RTVSPost2010PropOp35
 70
     1
102
RTVSPost2010Prop36
280
     0
102
RTVSPost2010PropOp36
 70
     1
102
RTVSPost2010Prop37
 90
       50
102
RTVSPost2010PropOp37
 70
     1
102
RTVSPost2010Prop38
140
0.0
102
RTVSPost2010PropOp38
 70
     1
102
RTVSPost2010Prop39
140
1.0
102
RTVSPost2010PropOp39
 70
     1
102
RTVSPost2010Prop40
 90
        0
102
RTVSPost2010PropOp40
 70
     1
102
RTVSPost2010Prop41ColorIndex
 90
       18
102
RTVSPost2010Prop41ColorRGB
 90
        0
102
RTVSPost2010PropOp41
 70
     1
102
RTVSPost2010Prop42
 90
       50
102
RTVSPost2010PropOp42
 70
     1
102
RTVSPost2010Prop43
 90
        3
102
RTVSPost2010PropOp43
 70
     1
102
RTVSPost2010Prop44ColorIndex
 90
        5
102
RTVSPost2010Prop44ColorRGB
 90
      255
102
RTVSPost2010PropOp44
 70
     1
102
RTVSPost2010Prop45
280
     0
102
RTVSPost2010PropOp45
 70
     1
102
RTVSPost2010Prop46
 90
       50
102
RTVSPost2010PropOp46
 70
     1
102
RTVSPost2010Prop47
 90
       50
102
RTVSPost2010PropOp47
 70
     1
102
RTVSPost2010Prop48
 90
       50
102
RTVSPost2010PropOp48
 70
     1
102
RTVSPost2010Prop49
280
     0
102
RTVSPost2010PropOp49
 70
     1
102
RTVSPost2010Prop50
 90
       50
102
RTVSPost2010PropOp50
 70
     1
102
RTVSPost2010Prop51ColorIndex
 90
      256
102
RTVSPost2010Prop51ColorRGB
 90
-16777216
102
RTVSPost2010PropOp51
 70
     0
102
RTVSPost2010Prop52
140
1.0
102
RTVSPost2010PropOp52
 70
     0
102
RTVSPost2010Prop53
 90
        2
102
RTVSPost2010PropOp53
 70
     1
102
RTVSPost2010Prop54
  1
strokes_ogs.tif
102
RTVSPost2010PropOp54
 70
     1
102
RTVSPost2010Prop55
280
     0
102
RTVSPost2010PropOp55
 70
     1
102
RTVSPost2010Prop56
140
1.0
102
RTVSPost2010PropOp56
 70
     1
102
RTVSPost2010Prop57
140
1.0
102
RTVSPost2010PropOp57
 70
     1
  0
XRECORD
  5
404
102
{ACAD_REACTORS
330
403
102
}
330
403
100
AcDbXrecord
280
     1
102
RTVSPropertyOp0
 70
     1
102
RTVSPropertyOp1
 70
     1
102
RTVSPropertyOp2
 70
     1
102
RTVSPropertyOp3
 70
     1
102
RTVSPropertyOp4
 70
     1
102
RTVSPropertyOp5
 70
     1
102
RTVSPropertyOp6
 70
     1
102
RTVSPropertyOp7
 70
     1
102
RTVSPropertyOp8
 70
     1
102
RTVSPropertyOp9
 70
     1
102
RTVSPropertyOp10
 70
     1
102
RTVSPropertyOp11
 70
     1
102
RTVSPropertyOp12
 70
     1
102
RTVSPropertyOp13
 70
     1
102
RTVSPropertyOp14
 70
     1
102
RTVSPropertyOp15
 70
     1
102
RTVSPropertyOp16
 70
     1
102
RTVSPropertyOp17
 70
     1
102
RTVSPropertyOp18
 70
     1
102
RTVSPropertyOp19
 70
     1
102
RTVSPropertyOp20
 70
     1
102
RTVSPropertyOp21
 70
     1
102
RTVSPropertyOp22
 70
     1
102
RTVSPropertyOp23
 70
     1
102
RTVSPropertyOp24
 70
     1
102
RTVSPropertyOp25
 70
     1
102
RTVSPropertyOp26
 70
     1
102
RTVSPropertyOp27
 70
     1
102
RTVSPropertyOp28
 70
     1
102
RTVSPropertyOp29
 70
     1
102
RTVSPropertyOp30
 70
     1
102
RTVSPropertyOp31
 70
     1
102
RTVSPropertyOp32
 70
     1
102
RTVSPropertyOp33
 70
     1
102
RTVSPropertyOp34
 70
     1
102
RTVSPropertyOp35
 70
     1
102
RTVSPropertyOp36
 70
     1
102
RTVSPropertyOp37
 70
     1
102
RTVSPropertyOp38
 70
     1
102
RTVSPropertyOp39
 70
     1
102
RTVSPropertyOp40
 70
     1
102
RTVSPropertyOp41
 70
     1
102
RTVSPropertyOp42
 70
     1
102
RTVSPropertyOp43
 70
     1
102
RTVSPropertyOp44
 70
     1
102
RTVSPropertyOp45
 70
     1
102
RTVSPropertyOp46
 70
     1
102
RTVSPropertyOp47
 70
     1
102
RTVSPropertyOp48
 70
     1
102
RTVSPropertyOp49
 70
     1
102
RTVSPropertyOp50
 70
     1
102
RTVSPropertyOp51
 70
     0
102
RTVSPropertyOp52
 70
     0
102
RTVSPropertyOp53
 70
     1
102
RTVSPropertyOp54
 70
     1
102
RTVSPropertyOp55
 70
     1
102
RTVSPropertyOp56
 70
     1
102
RTVSPropertyOp57
 70
     1
102
RTVSPost2010Prop28
280
     0
102
RTVSPost2010PropOp28
 70
     1
102
RTVSPost2010Prop29
280
     1
102
RTVSPost2010PropOp29
 70
     1
102
RTVSPost2010Prop30
280
     1
102
RTVSPost2010PropOp30
 70
     1
102
RTVSPost2010Prop31
280
     0
102
RTVSPost2010PropOp31
 70
     1
102
RTVSPost2010Prop32
280
     0
102
RTVSPost2010PropOp32
 70
     1
102
RTVSPost2010Prop33
280
     0
102
RTVSPost2010PropOp33
 70
     1
102
RTVSPost2010Prop34
280
     0
102
RTVSPost2010PropOp34
 70
     1
102
RTVSPost2010Prop35
280
     0
102
RTVSPost2010PropOp35
 70
     1
102
RTVSPost2010Prop36
280
     0
102
RTVSPost2010PropOp36
 70
     1
102
RTVSPost2010Prop37
 90
       50
102
RTVSPost2010PropOp37
 70
     1
102
RTVSPost2010Prop38
140
0.0
102
RTVSPost2010PropOp38
 70
     1
102
RTVSPost2010Prop39
140
1.0
102
RTVSPost2010PropOp39
 70
     1
102
RTVSPost2010Prop40
 90
        0
102
RTVSPost2010PropOp40
 70
     1
102
RTVSPost2010Prop41ColorIndex
 90
       18
102
RTVSPost2010Prop41ColorRGB
 90
        0
102
RTVSPost2010PropOp41
 70
     1
102
RTVSPost2010Prop42
 90
       50
102
RTVSPost2010PropOp42
 70
     1
102
RTVSPost2010Prop43
 90
        3
102
RTVSPost2010PropOp43
 70
     1
102
RTVSPost2010Prop44ColorIndex
 90
        5
102
RTVSPost2010Prop44ColorRGB
 90
      255
102
RTVSPost2010PropOp44
 70
     1
102
RTVSPost2010Prop45
280
     0
102
RTVSPost2010PropOp45
 70
     1
102
RTVSPost2010Prop46
 90
       50
102
RTVSPost2010PropOp46
 70
     1
102
RTVSPost2010Prop47
 90
       50
102
RTVSPost2010PropOp47
 70
     1
102
RTVSPost2010Prop48
 90
       50
102
RTVSPost2010PropOp48
 70
     1
102
RTVSPost2010Prop49
280
     0
102
RTVSPost2010PropOp49
 70
     1
102
RTVSPost2010Prop50
 90
       50
102
RTVSPost2010PropOp50
 70
     1
102
RTVSPost2010Prop51ColorIndex
 90
      256
102
RTVSPost2010Prop51ColorRGB
 90
-16777216
102
RTVSPost2010PropOp51
 70
     0
102
RTVSPost2010Prop52
140
1.0
102
RTVSPost2010PropOp52
 70
     0
102
RTVSPost2010Prop53
 90
        2
102
RTVSPost2010PropOp53
 70
     1
102
RTVSPost2010Prop54
  1
strokes_ogs.tif
102
RTVSPost2010PropOp54
 70
     1
102
RTVSPost2010Prop55
280
     0
102
RTVSPost2010PropOp55
 70
     1
102
RTVSPost2010Prop56
140
1.0
102
RTVSPost2010PropOp56
 70
     1
102
RTVSPost2010Prop57
140
1.0
102
RTVSPost2010PropOp57
 70
     1
  0
ENDSEC
  0
EOF
