  0
SECTION
  2
HEADER
  9
$ACADVER
  1
AC1018
  9
$ACADMAINTVER
 70
     0
  9
$DWGCODEPAGE
  3
ANSI_932
  9
$INSBASE
 10
0.0
 20
0.0
 30
0.0
  9
$EXTMIN
 10
-1050.0
 20
-742.5
 30
0.0
  9
$EXTMAX
 10
1050.0
 20
742.5
 30
0.0
  9
$LIMMIN
 10
-1050.0
 20
-742.5
  9
$LIMMAX
 10
1050.0
 20
742.5
  9
$ORTHOMODE
 70
     0
  9
$REGENMODE
 70
     1
  9
$FILLMODE
 70
     1
  9
$QTEXTMODE
 70
     0
  9
$MIRRTEXT
 70
     1
  9
$LTSCALE
 40
5.0
  9
$ATTMODE
 70
     1
  9
$TEXTSIZE
 40
2.5
  9
$TRACEWID
 40
1.0
  9
$TEXTSTYLE
  7
Standard
  9
$CLAYER
  8
0
  9
$CELTYPE
  6
ByLayer
  9
$CECOLOR
 62
   256
  9
$CELTSCALE
 40
1.0
  9
$DISPSILH
 70
     0
  9
$DIMSCALE
 40
1.0
  9
$DIMASZ
 40
2.5
  9
$DIMEXO
 40
0.625
  9
$DIMDLI
 40
3.75
  9
$DIMRND
 40
0.0
  9
$DIMDLE
 40
0.0
  9
$DIMEXE
 40
1.25
  9
$DIMTP
 40
0.0
  9
$DIMTM
 40
0.0
  9
$DIMTXT
 40
2.5
  9
$DIMCEN
 40
2.5
  9
$DIMTSZ
 40
0.0
  9
$DIMTOL
 70
     0
  9
$DIMLIM
 70
     0
  9
$DIMTIH
 70
     0
  9
$DIMTOH
 70
     0
  9
$DIMSE1
 70
     0
  9
$DIMSE2
 70
     0
  9
$DIMTAD
 70
     1
  9
$DIMZIN
 70
     8
  9
$DIMBLK
  1

  9
$DIMASO
 70
     1
  9
$DIMSHO
 70
     1
  9
$DIMPOST
  1

  9
$DIMAPOST
  1

  9
$DIMALT
 70
     0
  9
$DIMALTD
 70
     3
  9
$DIMALTF
 40
0.03937007874016
  9
$DIMLFAC
 40
1.0
  9
$DIMTOFL
 70
     1
  9
$DIMTVP
 40
0.0
  9
$DIMTIX
 70
     0
  9
$DIMSOXD
 70
     0
  9
$DIMSAH
 70
     0
  9
$DIMBLK1
  1

  9
$DIMBLK2
  1

  9
$DIMSTYLE
  2
ISO-25
  9
$DIMCLRD
 70
     0
  9
$DIMCLRE
 70
     0
  9
$DIMCLRT
 70
     0
  9
$DIMTFAC
 40
1.0
  9
$DIMGAP
 40
0.625
  9
$DIMJUST
 70
     0
  9
$DIMSD1
 70
     0
  9
$DIMSD2
 70
     0
  9
$DIMTOLJ
 70
     0
  9
$DIMTZIN
 70
     8
  9
$DIMALTZ
 70
     0
  9
$DIMALTTZ
 70
     0
  9
$DIMUPT
 70
     0
  9
$DIMDEC
 70
     2
  9
$DIMTDEC
 70
     2
  9
$DIMALTU
 70
     2
  9
$DIMALTTD
 70
     3
  9
$DIMTXSTY
  7
Standard
  9
$DIMAUNIT
 70
     0
  9
$DIMADEC
 70
     0
  9
$DIMALTRND
 40
0.0
  9
$DIMAZIN
 70
     0
  9
$DIMDSEP
 70
    44
  9
$DIMATFIT
 70
     3
  9
$DIMFRAC
 70
     0
  9
$DIMLDRBLK
  1

  9
$DIMLUNIT
 70
     2
  9
$DIMLWD
 70
    -2
  9
$DIMLWE
 70
    -2
  9
$DIMTMOVE
 70
     0
  9
$LUNITS
 70
     2
  9
$LUPREC
 70
     4
  9
$SKETCHINC
 40
1.0
  9
$FILLETRAD
 40
10.0
  9
$AUNITS
 70
     0
  9
$AUPREC
 70
     0
  9
$MENU
  1
.
  9
$ELEVATION
 40
0.0
  9
$PELEVATION
 40
0.0
  9
$THICKNESS
 40
0.0
  9
$LIMCHECK
 70
     0
  9
$CHAMFERA
 40
0.0
  9
$CHAMFERB
 40
0.0
  9
$CHAMFERC
 40
0.0
  9
$CHAMFERD
 40
0.0
  9
$SKPOLY
 70
     0
  9
$TDCREATE
 40
2459387.629069213
  9
$TDUCREATE
 40
2459387.254069213
  9
$TDUPDATE
 40
2459387.629069363
  9
$TDUUPDATE
 40
2459387.254069363
  9
$TDINDWG
 40
0.0000000116
  9
$TDUSRTIMER
 40
0.0000000116
  9
$USRTIMER
 70
     1
  9
$ANGBASE
 50
0.0
  9
$ANGDIR
 70
     0
  9
$PDMODE
 70
     0
  9
$PDSIZE
 40
0.0
  9
$PLINEWID
 40
0.0
  9
$SPLFRAME
 70
     0
  9
$SPLINETYPE
 70
     6
  9
$SPLINESEGS
 70
     8
  9
$HANDSEED
  5
3E4
  9
$SURFTAB1
 70
     6
  9
$SURFTAB2
 70
     6
  9
$SURFTYPE
 70
     6
  9
$SURFU
 70
     6
  9
$SURFV
 70
     6
  9
$UCSBASE
  2

  9
$UCSNAME
  2

  9
$UCSORG
 10
0.0
 20
0.0
 30
0.0
  9
$UCSXDIR
 10
1.0
 20
0.0
 30
0.0
  9
$UCSYDIR
 10
0.0
 20
1.0
 30
0.0
  9
$UCSORTHOREF
  2

  9
$UCSORTHOVIEW
 70
     0
  9
$UCSORGTOP
 10
0.0
 20
0.0
 30
0.0
  9
$UCSORGBOTTOM
 10
0.0
 20
0.0
 30
0.0
  9
$UCSORGLEFT
 10
0.0
 20
0.0
 30
0.0
  9
$UCSORGRIGHT
 10
0.0
 20
0.0
 30
0.0
  9
$UCSORGFRONT
 10
0.0
 20
0.0
 30
0.0
  9
$UCSORGBACK
 10
0.0
 20
0.0
 30
0.0
  9
$PUCSBASE
  2

  9
$PUCSNAME
  2

  9
$PUCSORG
 10
0.0
 20
0.0
 30
0.0
  9
$PUCSXDIR
 10
1.0
 20
0.0
 30
0.0
  9
$PUCSYDIR
 10
0.0
 20
1.0
 30
0.0
  9
$PUCSORTHOREF
  2

  9
$PUCSORTHOVIEW
 70
     0
  9
$PUCSORGTOP
 10
0.0
 20
0.0
 30
0.0
  9
$PUCSORGBOTTOM
 10
0.0
 20
0.0
 30
0.0
  9
$PUCSORGLEFT
 10
0.0
 20
0.0
 30
0.0
  9
$PUCSORGRIGHT
 10
0.0
 20
0.0
 30
0.0
  9
$PUCSORGFRONT
 10
0.0
 20
0.0
 30
0.0
  9
$PUCSORGBACK
 10
0.0
 20
0.0
 30
0.0
  9
$USERI1
 70
     0
  9
$USERI2
 70
     0
  9
$USERI3
 70
     0
  9
$USERI4
 70
     0
  9
$USERI5
 70
     0
  9
$USERR1
 40
0.0
  9
$USERR2
 40
0.0
  9
$USERR3
 40
0.0
  9
$USERR4
 40
0.0
  9
$USERR5
 40
0.0
  9
$WORLDVIEW
 70
     1
  9
$SHADEDGE
 70
     3
  9
$SHADEDIF
 70
    70
  9
$TILEMODE
 70
     1
  9
$MAXACTVP
 70
    64
  9
$PINSBASE
 10
0.0
 20
0.0
 30
0.0
  9
$PLIMCHECK
 70
     0
  9
$PEXTMIN
 10
1.000000000000000E+20
 20
1.000000000000000E+20
 30
1.000000000000000E+20
  9
$PEXTMAX
 10
-1.000000000000000E+20
 20
-1.000000000000000E+20
 30
-1.000000000000000E+20
  9
$PLIMMIN
 10
0.0
 20
0.0
  9
$PLIMMAX
 10
420.0
 20
297.0
  9
$UNITMODE
 70
     0
  9
$VISRETAIN
 70
     1
  9
$PLINEGEN
 70
     0
  9
$PSLTSCALE
 70
     1
  9
$TREEDEPTH
 70
  3020
  9
$CMLSTYLE
  2
Standard
  9
$CMLJUST
 70
     0
  9
$CMLSCALE
 40
20.0
  9
$PROXYGRAPHICS
 70
     1
  9
$MEASUREMENT
 70
     1
  9
$CELWEIGHT
370
    -1
  9
$ENDCAPS
280
     0
  9
$JOINSTYLE
280
     0
  9
$LWDISPLAY
290
     0
  9
$INSUNITS
 70
     4
  9
$HYPERLINKBASE
  1

  9
$STYLESHEET
  1

  9
$XEDIT
290
     1
  9
$CEPSNTYPE
380
     0
  9
$PSTYLEMODE
290
     1
  9
$FINGERPRINTGUID
  2
{E6844DB3-9AD5-4CE9-B5E9-0F60B0204830}
  9
$VERSIONGUID
  2
{FAEB1C32-E019-11D5-929B-00C0DF256EC4}
  9
$EXTNAMES
290
     1
  9
$PSVPSCALE
 40
0.0
  9
$OLESTARTUP
290
     0
  9
$SORTENTS
280
   127
  9
$INDEXCTL
280
     0
  9
$HIDETEXT
280
     1
  9
$XCLIPFRAME
290
     0
  9
$HALOGAP
280
     0
  9
$OBSCOLOR
 70
   257
  9
$OBSLTYPE
280
     0
  9
$INTERSECTIONDISPLAY
280
     0
  9
$INTERSECTIONCOLOR
 70
   257
  9
$DIMASSOC
280
     2
  9
$PROJECTNAME
  1

  0
ENDSEC
  0
SECTION
  2
CLASSES
  0
CLASS
  1
ACDBDICTIONARYWDFLT
  2
AcDbDictionaryWithDefault
  3
ObjectDBX Classes
 90
        0
 91
        4
280
     0
281
     0
  0
CLASS
  1
VISUALSTYLE
  2
AcDbVisualStyle
  3
ObjectDBX Classes
 90
     4095
 91
        4
280
     0
281
     0
  0
CLASS
  1
MATERIAL
  2
AcDbMaterial
  3
ObjectDBX Classes
 90
     1153
 91
        4
280
     0
281
     0
  0
CLASS
  1
SCALE
  2
AcDbScale
  3
ObjectDBX Classes
 90
     1153
 91
        4
280
     0
281
     0
  0
CLASS
  1
TABLESTYLE
  2
AcDbTableStyle
  3
ObjectDBX Classes
 90
     4095
 91
        4
280
     0
281
     0
  0
CLASS
  1
MLEADERSTYLE
  2
AcDbMLeaderStyle
  3
ACDB_MLEADERSTYLE_CLASS
 90
     4095
 91
        4
280
     0
281
     0
  0
CLASS
  1
SUN
  2
AcDbSun
  3
SCENEOE
 90
     1153
 91
        4
280
     0
281
     0
  0
CLASS
  1
DICTIONARYVAR
  2
AcDbDictionaryVar
  3
ObjectDBX Classes
 90
        0
 91
        4
280
     0
281
     0
  0
CLASS
  1
CELLSTYLEMAP
  2
AcDbCellStyleMap
  3
ObjectDBX Classes
 90
     1152
 91
        4
280
     0
281
     0
  0
ENDSEC
  0
SECTION
  2
TABLES
  0
TABLE
  2
VPORT
  5
8
102
{ACAD_XDICTIONARY
360
39B
102
}
330
0
100
AcDbSymbolTable
 70
     1
  0
VPORT
  5
29
330
8
100
AcDbSymbolTableRecord
100
AcDbViewportTableRecord
  2
*Active
 70
     0
 10
0.0
 20
0.0
 11
1.0
 21
1.0
 12
0.0
 22
0.0
 13
0.0
 23
0.0
 14
10.0
 24
10.0
 15
10.0
 25
10.0
 16
0.0
 26
0.0
 36
1.0
 17
0.0
 27
0.0
 37
0.0
 40
1633.5
 41
1.414141414141414
 42
50.0
 43
0.0
 44
0.0
 50
0.0
 51
0.0
 71
     0
 72
 10000
 73
     1
 74
     3
 75
     0
 76
     0
 77
     0
 78
     0
281
     0
 65
     1
110
0.0
120
0.0
130
0.0
111
1.0
121
0.0
131
0.0
112
0.0
122
1.0
132
0.0
 79
     0
146
0.0
  0
ENDTAB
  0
TABLE
  2
LTYPE
  5
5
330
0
100
AcDbSymbolTable
 70
     3
  0
LTYPE
  5
14
330
5
100
AcDbSymbolTableRecord
100
AcDbLinetypeTableRecord
  2
ByBlock
 70
     0
  3

 72
    65
 73
     0
 40
0.0
  0
LTYPE
  5
15
330
5
100
AcDbSymbolTableRecord
100
AcDbLinetypeTableRecord
  2
ByLayer
 70
     0
  3

 72
    65
 73
     0
 40
0.0
  0
LTYPE
  5
16
330
5
100
AcDbSymbolTableRecord
100
AcDbLinetypeTableRecord
  2
Continuous
 70
     0
  3
Solid line
 72
    65
 73
     0
 40
0.0
  0
LTYPE
  5
6F
330
5
100
AcDbSymbolTableRecord
100
AcDbLinetypeTableRecord
  2
JWW_CENTER1
 70
     0
  3
-----  --  ----------  --  -----
 72
    65
 73
     4
 40
6.773333333333333
 49
4.233333333333333
 74
     0
 49
-0.8466666666666667
 74
     0
 49
0.8466666666666667
 74
     0
 49
-0.8466666666666667
 74
     0
  0
LTYPE
  5
70
330
5
100
AcDbSymbolTableRecord
100
AcDbLinetypeTableRecord
  2
JWW_DASHED3
 70
     0
  3
---  ------  ------  ------  ---
 72
    65
 73
     2
 40
3.386666666666667
 49
2.54
 74
     0
 49
-0.8466666666666667
 74
     0
  0
ENDTAB
  0
TABLE
  2
LAYER
  5
2
330
0
100
AcDbSymbolTable
 70
     9
  0
LAYER
  5
10
330
2
100
AcDbSymbolTableRecord
100
AcDbLayerTableRecord
  2
0
 70
     0
 62
     7
  6
Continuous
370
    -3
390
F
  0
LAYER
  5
71
330
2
100
AcDbSymbolTableRecord
100
AcDbLayerTableRecord
  2
1-2ﾚｲﾔ
 70
     0
 62
     7
  6
Continuous
370
    -3
390
F
  0
LAYER
  5
72
330
2
100
AcDbSymbolTableRecord
100
AcDbLayerTableRecord
  2
1-1ﾚｲﾔ
 70
     0
 62
     7
  6
Continuous
370
    -3
390
F
  0
LAYER
  5
73
330
2
100
AcDbSymbolTableRecord
100
AcDbLayerTableRecord
  2
1-4ﾚｲﾔ
 70
     0
 62
     7
  6
Continuous
370
    -3
390
F
  0
LAYER
  5
74
330
2
100
AcDbSymbolTableRecord
100
AcDbLayerTableRecord
  2
F-5ﾚｲﾔ
 70
     0
 62
     7
  6
Continuous
370
    -3
390
F
  0
LAYER
  5
75
330
2
100
AcDbSymbolTableRecord
100
AcDbLayerTableRecord
  2
1-5ﾚｲﾔ
 70
     0
 62
     7
  6
Continuous
370
    -3
390
F
  0
LAYER
  5
76
330
2
100
AcDbSymbolTableRecord
100
AcDbLayerTableRecord
  2
D-0
 70
     0
 62
     7
  6
Continuous
370
    -3
390
F
  0
LAYER
  5
77
330
2
100
AcDbSymbolTableRecord
100
AcDbLayerTableRecord
  2
D-4
 70
     0
 62
     7
  6
Continuous
370
    -3
390
F
  0
LAYER
  5
78
330
2
100
AcDbSymbolTableRecord
100
AcDbLayerTableRecord
  2
F-4ﾚｲﾔ
 70
     0
 62
     7
  6
Continuous
370
    -3
390
F
  0
ENDTAB
  0
TABLE
  2
STYLE
  5
3
330
0
100
AcDbSymbolTable
 70
     2
  0
STYLE
  5
11
330
3
100
AcDbSymbolTableRecord
100
AcDbTextStyleTableRecord
  2
Standard
 70
     0
 40
0.0
 41
1.0
 50
0.0
 71
     0
 42
2.5
  3
txt
  4

  0
STYLE
  5
6E
330
3
100
AcDbSymbolTableRecord
100
AcDbTextStyleTableRecord
  2
ＭＳ ゴシック
 70
     0
 40
1.0
 41
1.0
 50
0.0
 71
     0
 42
2.5
  3

  4

1001
ACAD
1000
MS Gothic
1071
    32817
  0
ENDTAB
  0
TABLE
  2
VIEW
  5
6
330
0
100
AcDbSymbolTable
 70
     0
  0
ENDTAB
  0
TABLE
  2
UCS
  5
7
330
0
100
AcDbSymbolTable
 70
     0
  0
ENDTAB
  0
TABLE
  2
APPID
  5
9
330
0
100
AcDbSymbolTable
 70
     2
  0
APPID
  5
12
330
9
100
AcDbSymbolTableRecord
100
AcDbRegAppTableRecord
  2
ACAD
 70
     0
  0
APPID
  5
3DA
330
9
100
AcDbSymbolTableRecord
100
AcDbRegAppTableRecord
  2
ACAD_MLEADERVER
 70
     0
  0
ENDTAB
  0
TABLE
  2
DIMSTYLE
  5
A
330
0
100
AcDbSymbolTable
 70
     1
100
AcDbDimStyleTable
  0
DIMSTYLE
105
27
330
A
100
AcDbSymbolTableRecord
100
AcDbDimStyleTableRecord
  2
ISO-25
 70
     0
 41
2.5
 42
0.625
 43
3.75
 44
1.25
 73
     0
 74
     0
 77
     1
 78
     8
140
2.5
141
2.5
143
0.03937007874016
147
0.625
171
     3
172
     1
178
     0
271
     2
272
     2
274
     3
278
    44
283
     0
284
     8
340
11
  0
ENDTAB
  0
TABLE
  2
BLOCK_RECORD
  5
1
330
0
100
AcDbSymbolTable
 70
     1
  0
BLOCK_RECORD
  5
1F
330
1
100
AcDbSymbolTableRecord
100
AcDbBlockTableRecord
  2
*Model_Space
340
22
  0
BLOCK_RECORD
  5
1B
330
1
100
AcDbSymbolTableRecord
100
AcDbBlockTableRecord
  2
*Paper_Space
340
1E
  0
BLOCK_RECORD
  5
23
330
1
100
AcDbSymbolTableRecord
100
AcDbBlockTableRecord
  2
*Paper_Space0
340
26
  0
ENDTAB
  0
ENDSEC
  0
SECTION
  2
BLOCKS
  0
BLOCK
  5
20
330
1F
100
AcDbEntity
  8
0
100
AcDbBlockBegin
  2
*Model_Space
 70
     0
 10
0.0
 20
0.0
 30
0.0
  3
*Model_Space
  1

  0
ENDBLK
  5
21
330
1F
100
AcDbEntity
  8
0
100
AcDbBlockEnd
  0
BLOCK
  5
1C
330
1B
100
AcDbEntity
 67
     1
  8
0
100
AcDbBlockBegin
  2
*Paper_Space
 70
     0
 10
0.0
 20
0.0
 30
0.0
  3
*Paper_Space
  1

  0
ENDBLK
  5
1D
330
1B
100
AcDbEntity
 67
     1
  8
0
100
AcDbBlockEnd
  0
BLOCK
  5
24
330
23
100
AcDbEntity
  8
0
100
AcDbBlockBegin
  2
*Paper_Space0
 70
     0
 10
0.0
 20
0.0
 30
0.0
  3
*Paper_Space0
  1

  0
ENDBLK
  5
25
330
23
100
AcDbEntity
  8
0
100
AcDbBlockEnd
  0
ENDSEC
  0
SECTION
  2
ENTITIES
  0
LINE
  5
79
330
1F
100
AcDbEntity
  8
1-2ﾚｲﾔ
  6
Continuous
 62
     3
370
     9
100
AcDbLine
 10
291.7095287426099
 20
385.1583697344806
 30
0.0
 11
-703.2904135214314
 21
385.1583697344806
 31
0.0
  0
LINE
  5
7A
330
1F
100
AcDbEntity
  8
1-2ﾚｲﾔ
  6
Continuous
 62
     3
370
     9
100
AcDbLine
 10
291.7095287426099
 20
391.1582905537374
 30
0.0
 11
-703.2904135214314
 21
391.1582905537374
 31
0.0
  0
LINE
  5
7B
330
1F
100
AcDbEntity
  8
1-2ﾚｲﾔ
  6
Continuous
 62
     3
370
     9
100
AcDbLine
 10
604.0540540540542
 20
414.1798442118878
 30
0.0
 11
604.0540540540542
 21
409.066623997044
 31
0.0
  0
LINE
  5
7C
330
1F
100
AcDbEntity
  8
1-2ﾚｲﾔ
  6
Continuous
 62
     3
370
     9
100
AcDbLine
 10
602.5539501293287
 20
408.5552896035685
 30
0.0
 11
604.0540540540542
 21
409.066623997044
 31
0.0
  0
LINE
  5
7D
330
1F
100
AcDbEntity
  8
1-2ﾚｲﾔ
  6
Continuous
 62
     3
370
     9
100
AcDbLine
 10
602.5539501293287
 20
408.5552896035685
 30
0.0
 11
602.5539501293287
 21
402.0079081767315
 31
0.0
  0
LINE
  5
7E
330
1F
100
AcDbEntity
  8
1-2ﾚｲﾔ
  6
Continuous
 62
     3
370
     9
100
AcDbLine
 10
602.5539501293287
 20
402.0079081767315
 30
0.0
 11
604.0540540540542
 21
401.496573783256
 31
0.0
  0
LINE
  5
7F
330
1F
100
AcDbEntity
  8
1-2ﾚｲﾔ
  6
Continuous
 62
     3
370
     9
100
AcDbLine
 10
602.5539501293287
 20
395.8720191749367
 30
0.0
 11
602.5539501293287
 21
391.4646210541596
 31
0.0
  0
LINE
  5
80
330
1F
100
AcDbEntity
  8
1-2ﾚｲﾔ
  6
Continuous
 62
     3
370
     9
100
AcDbLine
 10
602.5539501293287
 20
391.4646210541596
 30
0.0
 11
604.0540540540542
 21
390.9534103805954
 31
0.0
  0
LINE
  5
81
330
1F
100
AcDbEntity
  8
1-2ﾚｲﾔ
  6
Continuous
 62
     3
370
     9
100
AcDbLine
 10
602.5539501293287
 20
395.8720191749367
 30
0.0
 11
604.0540540540542
 21
396.3833535684122
 31
0.0
  0
LINE
  5
82
330
1F
100
AcDbEntity
  8
1-2ﾚｲﾔ
  6
Continuous
 62
     3
370
     9
100
AcDbLine
 10
604.0540540540542
 20
401.496573783256
 30
0.0
 11
604.0540540540542
 21
396.3833535684122
 31
0.0
  0
LINE
  5
83
330
1F
100
AcDbEntity
  8
1-2ﾚｲﾔ
  6
Continuous
 62
     3
370
     9
100
AcDbLine
 10
604.0540540540542
 20
390.9534103805954
 30
0.0
 11
604.0540540540542
 21
385.8401901657517
 31
0.0
  0
LINE
  5
84
330
1F
100
AcDbEntity
  8
1-2ﾚｲﾔ
  6
JWW_CENTER1
 62
     3
370
     9
100
AcDbLine
 10
591.5881595096073
 20
363.1583713840794
 30
0.0
 11
647.5883690086573
 21
363.1583713840794
 31
0.0
  0
LINE
  5
85
330
1F
100
AcDbEntity
  8
1-2ﾚｲﾔ
  6
Continuous
 62
     3
370
     9
100
AcDbLine
 10
602.5539501293287
 20
385.3288557722763
 30
0.0
 11
604.0540540540542
 21
385.8401901657517
 31
0.0
  0
LINE
  5
86
330
1F
100
AcDbEntity
  8
1-2ﾚｲﾔ
  6
Continuous
 62
     3
370
     9
100
AcDbLine
 10
602.5539501293287
 20
385.3288557722763
 30
0.0
 11
602.5539501293287
 21
378.7814743454392
 31
0.0
  0
LINE
  5
87
330
1F
100
AcDbEntity
  8
1-2ﾚｲﾔ
  6
Continuous
 62
     3
370
     9
100
AcDbLine
 10
602.5539501293287
 20
378.7814743454392
 30
0.0
 11
604.0540540540542
 21
378.2701399519638
 31
0.0
  0
LINE
  5
88
330
1F
100
AcDbEntity
  8
1-2ﾚｲﾔ
  6
Continuous
 62
     3
370
     9
100
AcDbLine
 10
602.5539501293287
 20
372.6455853436445
 30
0.0
 11
602.5539501293287
 21
368.2381872228675
 31
0.0
  0
LINE
  5
89
330
1F
100
AcDbEntity
  8
1-2ﾚｲﾔ
  6
Continuous
 62
     3
370
     9
100
AcDbLine
 10
602.5539501293287
 20
368.2381872228675
 30
0.0
 11
604.0540540540542
 21
367.7269765493032
 31
0.0
  0
LINE
  5
8A
330
1F
100
AcDbEntity
  8
1-2ﾚｲﾔ
  6
Continuous
 62
     3
370
     9
100
AcDbLine
 10
602.5539501293287
 20
372.6455853436445
 30
0.0
 11
604.0540540540542
 21
373.1569197371201
 31
0.0
  0
LINE
  5
8B
330
1F
100
AcDbEntity
  8
1-2ﾚｲﾔ
  6
Continuous
 62
     3
370
     9
100
AcDbLine
 10
604.0540540540542
 20
378.2701399519638
 30
0.0
 11
604.0540540540542
 21
373.1569197371201
 31
0.0
  0
LINE
  5
8C
330
1F
100
AcDbEntity
  8
1-2ﾚｲﾔ
  6
Continuous
 62
     3
370
     9
100
AcDbLine
 10
604.0540540540542
 20
367.7269765493032
 30
0.0
 11
604.0540540540542
 21
362.6137563344595
 31
0.0
  0
LINE
  5
8D
330
1F
100
AcDbEntity
  8
1-2ﾚｲﾔ
  6
Continuous
 62
     3
370
     9
100
AcDbLine
 10
602.5539501293287
 20
362.102421940984
 30
0.0
 11
604.0540540540542
 21
362.6137563344595
 31
0.0
  0
LINE
  5
8E
330
1F
100
AcDbEntity
  8
1-2ﾚｲﾔ
  6
Continuous
 62
     3
370
     9
100
AcDbLine
 10
602.5539501293287
 20
362.102421940984
 30
0.0
 11
602.5539501293287
 21
355.555040514147
 31
0.0
  0
LINE
  5
8F
330
1F
100
AcDbEntity
  8
1-2ﾚｲﾔ
  6
Continuous
 62
     3
370
     9
100
AcDbLine
 10
602.5539501293287
 20
355.555040514147
 30
0.0
 11
604.0540540540542
 21
355.0438298405828
 31
0.0
  0
LINE
  5
90
330
1F
100
AcDbEntity
  8
1-2ﾚｲﾔ
  6
Continuous
 62
     3
370
     9
100
AcDbLine
 10
602.5539501293287
 20
349.4192752322635
 30
0.0
 11
602.5539501293287
 21
345.0118771114866
 31
0.0
  0
LINE
  5
91
330
1F
100
AcDbEntity
  8
1-2ﾚｲﾔ
  6
Continuous
 62
     3
370
     9
100
AcDbLine
 10
602.5539501293287
 20
345.0118771114866
 30
0.0
 11
604.0540540540542
 21
344.5006664379224
 31
0.0
  0
LINE
  5
92
330
1F
100
AcDbEntity
  8
1-2ﾚｲﾔ
  6
Continuous
 62
     3
370
     9
100
AcDbLine
 10
602.5539501293287
 20
349.4192752322635
 30
0.0
 11
604.0540540540542
 21
349.9304859058277
 31
0.0
  0
LINE
  5
93
330
1F
100
AcDbEntity
  8
1-2ﾚｲﾔ
  6
Continuous
 62
     3
370
     9
100
AcDbLine
 10
604.0540540540542
 20
355.0438298405828
 30
0.0
 11
604.0540540540542
 21
349.9304859058277
 31
0.0
  0
LINE
  5
94
330
1F
100
AcDbEntity
  8
1-2ﾚｲﾔ
  6
Continuous
 62
     3
370
     9
100
AcDbLine
 10
604.0540540540542
 20
344.5006664379224
 30
0.0
 11
604.0540540540542
 21
339.3873225031673
 31
0.0
  0
LINE
  5
95
330
1F
100
AcDbEntity
  8
1-2ﾚｲﾔ
  6
Continuous
 62
     3
370
     9
100
AcDbLine
 10
602.5539501293287
 20
338.8761118296031
 30
0.0
 11
604.0540540540542
 21
339.3873225031673
 31
0.0
  0
LINE
  5
96
330
1F
100
AcDbEntity
  8
1-2ﾚｲﾔ
  6
Continuous
 62
     3
370
     9
100
AcDbLine
 10
602.5539501293287
 20
338.8761118296031
 30
0.0
 11
602.5539501293287
 21
332.3286066828548
 31
0.0
  0
LINE
  5
97
330
1F
100
AcDbEntity
  8
1-2ﾚｲﾔ
  6
Continuous
 62
     3
370
     9
100
AcDbLine
 10
602.5539501293287
 20
332.3286066828548
 30
0.0
 11
604.0540540540542
 21
331.8173960092906
 31
0.0
  0
LINE
  5
98
330
1F
100
AcDbEntity
  8
1-2ﾚｲﾔ
  6
Continuous
 62
     3
370
     9
100
AcDbLine
 10
602.5539501293287
 20
326.1928414009714
 30
0.0
 11
602.5539501293287
 21
321.7854432801943
 31
0.0
  0
LINE
  5
99
330
1F
100
AcDbEntity
  8
1-2ﾚｲﾔ
  6
Continuous
 62
     3
370
     9
100
AcDbLine
 10
602.5539501293287
 20
321.7854432801943
 30
0.0
 11
604.0540540540542
 21
321.2742326066301
 31
0.0
  0
LINE
  5
9A
330
1F
100
AcDbEntity
  8
1-2ﾚｲﾔ
  6
Continuous
 62
     3
370
     9
100
AcDbLine
 10
602.5539501293287
 20
326.1928414009714
 30
0.0
 11
604.0540540540542
 21
326.7040520745355
 31
0.0
  0
LINE
  5
9B
330
1F
100
AcDbEntity
  8
1-2ﾚｲﾔ
  6
Continuous
 62
     3
370
     9
100
AcDbLine
 10
604.0540540540542
 20
331.8173960092906
 30
0.0
 11
604.0540540540542
 21
326.7040520745355
 31
0.0
  0
LINE
  5
9C
330
1F
100
AcDbEntity
  8
1-2ﾚｲﾔ
  6
Continuous
 62
     3
370
     9
100
AcDbLine
 10
604.0540540540542
 20
321.2742326066301
 30
0.0
 11
604.0540540540542
 21
316.160888671875
 31
0.0
  0
LINE
  5
9D
330
1F
100
AcDbEntity
  8
1-2ﾚｲﾔ
  6
Continuous
 62
     3
370
     9
100
AcDbLine
 10
602.5539501293287
 20
315.6496779983108
 30
0.0
 11
604.0540540540542
 21
316.160888671875
 31
0.0
  0
LINE
  5
9E
330
1F
100
AcDbEntity
  8
1-2ﾚｲﾔ
  6
Continuous
 62
     3
370
     9
100
AcDbLine
 10
602.5539501293287
 20
315.6496779983108
 30
0.0
 11
602.5539501293287
 21
309.1021728515625
 31
0.0
  0
LINE
  5
9F
330
1F
100
AcDbEntity
  8
1-2ﾚｲﾔ
  6
Continuous
 62
     3
370
     9
100
AcDbLine
 10
602.5539501293287
 20
309.1021728515625
 30
0.0
 11
604.0540540540542
 21
308.5909621779983
 31
0.0
  0
LINE
  5
A0
330
1F
100
AcDbEntity
  8
1-2ﾚｲﾔ
  6
Continuous
 62
     3
370
     9
100
AcDbLine
 10
602.5539501293287
 20
302.9664075696792
 30
0.0
 11
602.5539501293287
 21
298.5590094489021
 31
0.0
  0
LINE
  5
A1
330
1F
100
AcDbEntity
  8
1-2ﾚｲﾔ
  6
Continuous
 62
     3
370
     9
100
AcDbLine
 10
602.5539501293287
 20
302.9664075696792
 30
0.0
 11
604.0540540540542
 21
303.4776182432433
 31
0.0
  0
LINE
  5
A2
330
1F
100
AcDbEntity
  8
1-2ﾚｲﾔ
  6
Continuous
 62
     3
370
     9
100
AcDbLine
 10
604.0540540540542
 20
308.5909621779983
 30
0.0
 11
604.0540540540542
 21
303.4776182432433
 31
0.0
  0
LINE
  5
A3
330
1F
100
AcDbEntity
  8
1-1ﾚｲﾔ
  6
Continuous
 62
     2
370
     9
100
AcDbLine
 10
-703.2904135214314
 20
428.1583383921031
 30
0.0
 11
291.7095287426099
 21
428.1583383921031
 31
0.0
  0
LINE
  5
A4
330
1F
100
AcDbEntity
  8
1-1ﾚｲﾔ
  6
JWW_DASHED3
 62
     2
370
     9
100
AcDbLine
 10
-703.2904135214314
 20
433.1583548880913
 30
0.0
 11
291.7095287426099
 21
433.1583548880913
 31
0.0
  0
LINE
  5
A5
330
1F
100
AcDbEntity
  8
1-1ﾚｲﾔ
  6
Continuous
 62
     2
370
     9
100
AcDbLine
 10
-703.2904135214314
 20
468.1583466400971
 30
0.0
 11
-703.2904135214314
 21
428.1583383921031
 31
0.0
  0
LINE
  5
A6
330
1F
100
AcDbEntity
  8
1-1ﾚｲﾔ
  6
Continuous
 62
     2
370
     9
100
AcDbLine
 10
-703.2904135214314
 20
468.1583466400971
 30
0.0
 11
291.7095287426099
 21
468.1583466400971
 31
0.0
  0
LINE
  5
A7
330
1F
100
AcDbEntity
  8
1-1ﾚｲﾔ
  6
Continuous
 62
     2
370
     9
100
AcDbLine
 10
291.7095287426099
 20
428.1583383921031
 30
0.0
 11
291.7095287426099
 21
468.1583466400971
 31
0.0
  0
LINE
  5
A8
330
1F
100
AcDbEntity
  8
1-1ﾚｲﾔ
  6
Continuous
 62
     2
370
     9
100
AcDbLine
 10
641.0541018924198
 20
433.15823116818
 30
0.0
 11
613.554134884396
 21
433.15823116818
 31
0.0
  0
LINE
  5
A9
330
1F
100
AcDbEntity
  8
1-1ﾚｲﾔ
  6
Continuous
 62
     2
370
     9
100
AcDbLine
 10
609.0541942699537
 20
465.1582625105576
 30
0.0
 11
609.0541942699537
 21
437.6582955025339
 31
0.0
  0
LINE
  5
AA
330
1F
100
AcDbEntity
  8
1-1ﾚｲﾔ
  6
Continuous
 62
     2
370
     9
100
AcDbLine
 10
606.0542338603252
 20
468.1583466400971
 30
0.0
 11
604.0540540540542
 21
468.1583466400971
 31
0.0
  0
LINE
  5
AB
330
1F
100
AcDbEntity
  8
1-1ﾚｲﾔ
  6
Continuous
 62
     2
370
     9
100
AcDbLine
 10
644.0540623020481
 20
430.1582707585516
 30
0.0
 11
644.0540623020481
 21
428.1585858319258
 31
0.0
  0
LINE
  5
AC
330
1F
100
AcDbEntity
  8
1-1ﾚｲﾔ
  6
Continuous
 62
     2
370
     9
100
AcDbLine
 10
604.0540540540542
 20
428.1585858319258
 30
0.0
 11
644.0540623020481
 21
428.1585858319258
 31
0.0
  0
LINE
  5
AD
330
1F
100
AcDbEntity
  8
1-1ﾚｲﾔ
  6
Continuous
 62
     2
370
     9
100
AcDbLine
 10
604.0540540540542
 20
468.1583466400971
 30
0.0
 11
604.0540540540542
 21
428.1585858319258
 31
0.0
  0
LINE
  5
AE
330
1F
100
AcDbEntity
  8
1-1ﾚｲﾔ
  6
Continuous
 62
     2
370
     9
100
AcDbLine
 10
641.0541018924198
 20
293.1584497400233
 30
0.0
 11
613.554134884396
 21
293.1584497400233
 31
0.0
  0
LINE
  5
AF
330
1F
100
AcDbEntity
  8
1-1ﾚｲﾔ
  6
Continuous
 62
     2
370
     9
100
AcDbLine
 10
609.0541942699537
 20
261.1584183976457
 30
0.0
 11
609.0541942699537
 21
288.6583854056694
 31
0.0
  0
LINE
  5
B0
330
1F
100
AcDbEntity
  8
1-1ﾚｲﾔ
  6
Continuous
 62
     2
370
     9
100
AcDbLine
 10
644.0540623020481
 20
296.1584720096073
 30
0.0
 11
644.0540623020481
 21
298.1581569362332
 31
0.0
  0
LINE
  5
B1
330
1F
100
AcDbEntity
  8
1-1ﾚｲﾔ
  6
Continuous
 62
     2
370
     9
100
AcDbLine
 10
604.0540540540542
 20
298.1581569362332
 30
0.0
 11
644.0540623020481
 21
298.1581569362332
 31
0.0
  0
LINE
  5
B2
330
1F
100
AcDbEntity
  8
1-1ﾚｲﾔ
  6
Continuous
 62
     2
370
     9
100
AcDbLine
 10
604.0540540540542
 20
258.158334268106
 30
0.0
 11
604.0540540540542
 21
298.1581569362332
 31
0.0
  0
LINE
  5
B3
330
1F
100
AcDbEntity
  8
1-1ﾚｲﾔ
  6
Continuous
 62
     2
370
     9
100
AcDbLine
 10
-703.2904135214314
 20
298.1584043760558
 30
0.0
 11
291.7095287426099
 21
298.1584043760558
 31
0.0
  0
LINE
  5
B4
330
1F
100
AcDbEntity
  8
1-1ﾚｲﾔ
  6
JWW_DASHED3
 62
     2
370
     9
100
AcDbLine
 10
-703.2904135214314
 20
293.158326020112
 30
0.0
 11
291.7095287426099
 21
293.158326020112
 31
0.0
  0
LINE
  5
B5
330
1F
100
AcDbEntity
  8
1-1ﾚｲﾔ
  6
Continuous
 62
     2
370
     9
100
AcDbLine
 10
-703.2904135214314
 20
258.158334268106
 30
0.0
 11
-703.2904135214314
 21
298.1584043760558
 31
0.0
  0
LINE
  5
B6
330
1F
100
AcDbEntity
  8
1-1ﾚｲﾔ
  6
Continuous
 62
     2
370
     9
100
AcDbLine
 10
-703.2904135214314
 20
258.158334268106
 30
0.0
 11
291.7095287426099
 21
258.158334268106
 31
0.0
  0
LINE
  5
B7
330
1F
100
AcDbEntity
  8
1-1ﾚｲﾔ
  6
Continuous
 62
     2
370
     9
100
AcDbLine
 10
291.7095287426099
 20
298.1584043760558
 30
0.0
 11
291.7095287426099
 21
258.158334268106
 31
0.0
  0
LINE
  5
B8
330
1F
100
AcDbEntity
  8
1-2ﾚｲﾔ
  6
Continuous
 62
     3
370
     9
100
AcDbLine
 10
-698.2901495856208
 20
391.1582905537374
 30
0.0
 11
-698.2901495856208
 21
428.1583383921031
 31
0.0
  0
LINE
  5
B9
330
1F
100
AcDbEntity
  8
1-2ﾚｲﾔ
  6
Continuous
 62
     3
370
     9
100
AcDbLine
 10
286.7097596864443
 20
391.1582905537374
 30
0.0
 11
286.7097596864443
 21
428.1583383921031
 31
0.0
  0
LINE
  5
BA
330
1F
100
AcDbEntity
  8
1-2ﾚｲﾔ
  6
Continuous
 62
     3
370
     9
100
AcDbLine
 10
-683.2902238175676
 20
391.1582905537374
 30
0.0
 11
-683.2902238175676
 21
428.1583383921031
 31
0.0
  0
LINE
  5
BB
330
1F
100
AcDbEntity
  8
1-2ﾚｲﾔ
  6
Continuous
 62
     3
370
     9
100
AcDbLine
 10
-688.2904877533783
 20
391.1582905537374
 30
0.0
 11
-688.2904877533783
 21
428.1583383921031
 31
0.0
  0
LINE
  5
BC
330
1F
100
AcDbEntity
  8
1-2ﾚｲﾔ
  6
Continuous
 62
     3
370
     9
100
AcDbLine
 10
-668.290174329603
 20
391.1582905537374
 30
0.0
 11
-668.290174329603
 21
428.1583383921031
 31
0.0
  0
LINE
  5
BD
330
1F
100
AcDbEntity
  8
1-2ﾚｲﾔ
  6
Continuous
 62
     3
370
     9
100
AcDbLine
 10
-673.2904382654137
 20
391.1582905537374
 30
0.0
 11
-673.2904382654137
 21
428.1583383921031
 31
0.0
  0
LINE
  5
BE
330
1F
100
AcDbEntity
  8
1-2ﾚｲﾔ
  6
Continuous
 62
     3
370
     9
100
AcDbLine
 10
-653.2901248416385
 20
391.1582905537374
 30
0.0
 11
-653.2901248416385
 21
428.1583383921031
 31
0.0
  0
LINE
  5
BF
330
1F
100
AcDbEntity
  8
1-2ﾚｲﾔ
  6
Continuous
 62
     3
370
     9
100
AcDbLine
 10
-658.2903887774492
 20
391.1582905537374
 30
0.0
 11
-658.2903887774492
 21
428.1583383921031
 31
0.0
  0
LINE
  5
C0
330
1F
100
AcDbEntity
  8
1-2ﾚｲﾔ
  6
Continuous
 62
     3
370
     9
100
AcDbLine
 10
-638.290075353674
 20
391.1582905537374
 30
0.0
 11
-638.290075353674
 21
428.1583383921031
 31
0.0
  0
LINE
  5
C1
330
1F
100
AcDbEntity
  8
1-2ﾚｲﾔ
  6
Continuous
 62
     3
370
     9
100
AcDbLine
 10
-643.2903392894848
 20
391.1582905537374
 30
0.0
 11
-643.2903392894848
 21
428.1583383921031
 31
0.0
  0
LINE
  5
C2
330
1F
100
AcDbEntity
  8
1-2ﾚｲﾔ
  6
Continuous
 62
     3
370
     9
100
AcDbLine
 10
-623.2901495856207
 20
391.1582905537374
 30
0.0
 11
-623.2901495856207
 21
428.1583383921031
 31
0.0
  0
LINE
  5
C3
330
1F
100
AcDbEntity
  8
1-2ﾚｲﾔ
  6
Continuous
 62
     3
370
     9
100
AcDbLine
 10
-628.2904135214316
 20
391.1582905537374
 30
0.0
 11
-628.2904135214316
 21
428.1583383921031
 31
0.0
  0
LINE
  5
C4
330
1F
100
AcDbEntity
  8
1-2ﾚｲﾔ
  6
Continuous
 62
     3
370
     9
100
AcDbLine
 10
-608.2902238175675
 20
391.1582905537374
 30
0.0
 11
-608.2902238175675
 21
428.1583383921031
 31
0.0
  0
LINE
  5
C5
330
1F
100
AcDbEntity
  8
1-2ﾚｲﾔ
  6
Continuous
 62
     3
370
     9
100
AcDbLine
 10
-613.2904877533783
 20
391.1582905537374
 30
0.0
 11
-613.2904877533783
 21
428.1583383921031
 31
0.0
  0
LINE
  5
C6
330
1F
100
AcDbEntity
  8
1-2ﾚｲﾔ
  6
Continuous
 62
     3
370
     9
100
AcDbLine
 10
-593.290174329603
 20
391.1582905537374
 30
0.0
 11
-593.290174329603
 21
428.1583383921031
 31
0.0
  0
LINE
  5
C7
330
1F
100
AcDbEntity
  8
1-2ﾚｲﾔ
  6
Continuous
 62
     3
370
     9
100
AcDbLine
 10
-598.2904382654137
 20
391.1582905537374
 30
0.0
 11
-598.2904382654137
 21
428.1583383921031
 31
0.0
  0
LINE
  5
C8
330
1F
100
AcDbEntity
  8
1-2ﾚｲﾔ
  6
Continuous
 62
     3
370
     9
100
AcDbLine
 10
-578.2901248416384
 20
391.1582905537374
 30
0.0
 11
-578.2901248416384
 21
428.1583383921031
 31
0.0
  0
LINE
  5
C9
330
1F
100
AcDbEntity
  8
1-2ﾚｲﾔ
  6
Continuous
 62
     3
370
     9
100
AcDbLine
 10
-583.2903887774493
 20
391.1582905537374
 30
0.0
 11
-583.2903887774493
 21
428.1583383921031
 31
0.0
  0
LINE
  5
CA
330
1F
100
AcDbEntity
  8
1-2ﾚｲﾔ
  6
Continuous
 62
     3
370
     9
100
AcDbLine
 10
-563.290075353674
 20
391.1582905537374
 30
0.0
 11
-563.290075353674
 21
428.1583383921031
 31
0.0
  0
LINE
  5
CB
330
1F
100
AcDbEntity
  8
1-2ﾚｲﾔ
  6
Continuous
 62
     3
370
     9
100
AcDbLine
 10
-568.2903392894848
 20
391.1582905537374
 30
0.0
 11
-568.2903392894848
 21
428.1583383921031
 31
0.0
  0
LINE
  5
CC
330
1F
100
AcDbEntity
  8
1-2ﾚｲﾔ
  6
Continuous
 62
     3
370
     9
100
AcDbLine
 10
-548.2901495856207
 20
391.1582905537374
 30
0.0
 11
-548.2901495856207
 21
428.1583383921031
 31
0.0
  0
LINE
  5
CD
330
1F
100
AcDbEntity
  8
1-2ﾚｲﾔ
  6
Continuous
 62
     3
370
     9
100
AcDbLine
 10
-553.2904135214316
 20
391.1582905537374
 30
0.0
 11
-553.2904135214316
 21
428.1583383921031
 31
0.0
  0
LINE
  5
CE
330
1F
100
AcDbEntity
  8
1-2ﾚｲﾔ
  6
Continuous
 62
     3
370
     9
100
AcDbLine
 10
-533.2901000976562
 20
391.1582905537374
 30
0.0
 11
-533.2901000976562
 21
428.1583383921031
 31
0.0
  0
LINE
  5
CF
330
1F
100
AcDbEntity
  8
1-2ﾚｲﾔ
  6
Continuous
 62
     3
370
     9
100
AcDbLine
 10
-538.2903640334671
 20
391.1582905537374
 30
0.0
 11
-538.2903640334671
 21
428.1583383921031
 31
0.0
  0
LINE
  5
D0
330
1F
100
AcDbEntity
  8
1-2ﾚｲﾔ
  6
Continuous
 62
     3
370
     9
100
AcDbLine
 10
-518.2901124696473
 20
391.1582905537374
 30
0.0
 11
-518.2901124696473
 21
428.1583383921031
 31
0.0
  0
LINE
  5
D1
330
1F
100
AcDbEntity
  8
1-2ﾚｲﾔ
  6
Continuous
 62
     3
370
     9
100
AcDbLine
 10
-523.2904382654137
 20
391.1582905537374
 30
0.0
 11
-523.2904382654137
 21
428.1583383921031
 31
0.0
  0
LINE
  5
D2
330
1F
100
AcDbEntity
  8
1-2ﾚｲﾔ
  6
Continuous
 62
     3
370
     9
100
AcDbLine
 10
-503.2901248416385
 20
391.1582905537374
 30
0.0
 11
-503.2901248416385
 21
428.1583383921031
 31
0.0
  0
LINE
  5
D3
330
1F
100
AcDbEntity
  8
1-2ﾚｲﾔ
  6
Continuous
 62
     3
370
     9
100
AcDbLine
 10
-508.2903887774493
 20
391.1582905537374
 30
0.0
 11
-508.2903887774493
 21
428.1583383921031
 31
0.0
  0
LINE
  5
D4
330
1F
100
AcDbEntity
  8
1-2ﾚｲﾔ
  6
Continuous
 62
     3
370
     9
100
AcDbLine
 10
-488.2901372136296
 20
391.1582905537374
 30
0.0
 11
-488.2901372136296
 21
428.1583383921031
 31
0.0
  0
LINE
  5
D5
330
1F
100
AcDbEntity
  8
1-2ﾚｲﾔ
  6
Continuous
 62
     3
370
     9
100
AcDbLine
 10
-493.2904011494404
 20
391.1582905537374
 30
0.0
 11
-493.2904011494404
 21
428.1583383921031
 31
0.0
  0
LINE
  5
D6
330
1F
100
AcDbEntity
  8
1-2ﾚｲﾔ
  6
Continuous
 62
     3
370
     9
100
AcDbLine
 10
-473.2901495856208
 20
391.1582905537374
 30
0.0
 11
-473.2901495856208
 21
428.1583383921031
 31
0.0
  0
LINE
  5
D7
330
1F
100
AcDbEntity
  8
1-2ﾚｲﾔ
  6
Continuous
 62
     3
370
     9
100
AcDbLine
 10
-478.2904135214316
 20
391.1582905537374
 30
0.0
 11
-478.2904135214316
 21
428.1583383921031
 31
0.0
  0
LINE
  5
D8
330
1F
100
AcDbEntity
  8
1-2ﾚｲﾔ
  6
Continuous
 62
     3
370
     9
100
AcDbLine
 10
-458.2901000976562
 20
391.1582905537374
 30
0.0
 11
-458.2901000976562
 21
428.1583383921031
 31
0.0
  0
LINE
  5
D9
330
1F
100
AcDbEntity
  8
1-2ﾚｲﾔ
  6
Continuous
 62
     3
370
     9
100
AcDbLine
 10
-463.2903640334671
 20
391.1582905537374
 30
0.0
 11
-463.2903640334671
 21
428.1583383921031
 31
0.0
  0
LINE
  5
DA
330
1F
100
AcDbEntity
  8
1-2ﾚｲﾔ
  6
Continuous
 62
     3
370
     9
100
AcDbLine
 10
-443.2901124696473
 20
391.1582905537374
 30
0.0
 11
-443.2901124696473
 21
428.1583383921031
 31
0.0
  0
LINE
  5
DB
330
1F
100
AcDbEntity
  8
1-2ﾚｲﾔ
  6
Continuous
 62
     3
370
     9
100
AcDbLine
 10
-448.2904382654138
 20
391.1582905537374
 30
0.0
 11
-448.2904382654138
 21
428.1583383921031
 31
0.0
  0
LINE
  5
DC
330
1F
100
AcDbEntity
  8
1-2ﾚｲﾔ
  6
Continuous
 62
     3
370
     9
100
AcDbLine
 10
-428.2901248416385
 20
391.1582905537374
 30
0.0
 11
-428.2901248416385
 21
428.1583383921031
 31
0.0
  0
LINE
  5
DD
330
1F
100
AcDbEntity
  8
1-2ﾚｲﾔ
  6
Continuous
 62
     3
370
     9
100
AcDbLine
 10
-433.2903887774493
 20
391.1582905537374
 30
0.0
 11
-433.2903887774493
 21
428.1583383921031
 31
0.0
  0
LINE
  5
DE
330
1F
100
AcDbEntity
  8
1-2ﾚｲﾔ
  6
Continuous
 62
     3
370
     9
100
AcDbLine
 10
-413.2901372136296
 20
391.1582905537374
 30
0.0
 11
-413.2901372136296
 21
428.1583383921031
 31
0.0
  0
LINE
  5
DF
330
1F
100
AcDbEntity
  8
1-2ﾚｲﾔ
  6
Continuous
 62
     3
370
     9
100
AcDbLine
 10
-418.2904011494404
 20
391.1582905537374
 30
0.0
 11
-418.2904011494404
 21
428.1583383921031
 31
0.0
  0
LINE
  5
E0
330
1F
100
AcDbEntity
  8
1-2ﾚｲﾔ
  6
Continuous
 62
     3
370
     9
100
AcDbLine
 10
-398.2901495856207
 20
391.1582905537374
 30
0.0
 11
-398.2901495856207
 21
428.1583383921031
 31
0.0
  0
LINE
  5
E1
330
1F
100
AcDbEntity
  8
1-2ﾚｲﾔ
  6
Continuous
 62
     3
370
     9
100
AcDbLine
 10
-403.2904135214315
 20
391.1582905537374
 30
0.0
 11
-403.2904135214315
 21
428.1583383921031
 31
0.0
  0
LINE
  5
E2
330
1F
100
AcDbEntity
  8
1-2ﾚｲﾔ
  6
Continuous
 62
     3
370
     9
100
AcDbLine
 10
-383.2901619576119
 20
391.1582905537374
 30
0.0
 11
-383.2901619576119
 21
428.1583383921031
 31
0.0
  0
LINE
  5
E3
330
1F
100
AcDbEntity
  8
1-2ﾚｲﾔ
  6
Continuous
 62
     3
370
     9
100
AcDbLine
 10
-388.2904258934227
 20
391.1582905537374
 30
0.0
 11
-388.2904258934227
 21
428.1583383921031
 31
0.0
  0
LINE
  5
E4
330
1F
100
AcDbEntity
  8
1-2ﾚｲﾔ
  6
Continuous
 62
     3
370
     9
100
AcDbLine
 10
-368.290174329603
 20
391.1582905537374
 30
0.0
 11
-368.290174329603
 21
428.1583383921031
 31
0.0
  0
LINE
  5
E5
330
1F
100
AcDbEntity
  8
1-2ﾚｲﾔ
  6
Continuous
 62
     3
370
     9
100
AcDbLine
 10
-373.2904382654138
 20
391.1582905537374
 30
0.0
 11
-373.2904382654138
 21
428.1583383921031
 31
0.0
  0
LINE
  5
E6
330
1F
100
AcDbEntity
  8
1-2ﾚｲﾔ
  6
Continuous
 62
     3
370
     9
100
AcDbLine
 10
-353.2901867015942
 20
391.1582905537374
 30
0.0
 11
-353.2901867015942
 21
428.1583383921031
 31
0.0
  0
LINE
  5
E7
330
1F
100
AcDbEntity
  8
1-2ﾚｲﾔ
  6
Continuous
 62
     3
370
     9
100
AcDbLine
 10
-358.2904506374049
 20
391.1582905537374
 30
0.0
 11
-358.2904506374049
 21
428.1583383921031
 31
0.0
  0
LINE
  5
E8
330
1F
100
AcDbEntity
  8
1-2ﾚｲﾔ
  6
Continuous
 62
     3
370
     9
100
AcDbLine
 10
-338.2901990735853
 20
391.1582905537374
 30
0.0
 11
-338.2901990735853
 21
428.1583383921031
 31
0.0
  0
LINE
  5
E9
330
1F
100
AcDbEntity
  8
1-2ﾚｲﾔ
  6
Continuous
 62
     3
370
     9
100
AcDbLine
 10
-343.2904630093961
 20
391.1582905537374
 30
0.0
 11
-343.2904630093961
 21
428.1583383921031
 31
0.0
  0
LINE
  5
EA
330
1F
100
AcDbEntity
  8
1-2ﾚｲﾔ
  6
Continuous
 62
     3
370
     9
100
AcDbLine
 10
-323.2902114455765
 20
391.1582905537374
 30
0.0
 11
-323.2902114455765
 21
428.1583383921031
 31
0.0
  0
LINE
  5
EB
330
1F
100
AcDbEntity
  8
1-2ﾚｲﾔ
  6
Continuous
 62
     3
370
     9
100
AcDbLine
 10
-328.2904753813872
 20
391.1582905537374
 30
0.0
 11
-328.2904753813872
 21
428.1583383921031
 31
0.0
  0
LINE
  5
EC
330
1F
100
AcDbEntity
  8
1-2ﾚｲﾔ
  6
Continuous
 62
     3
370
     9
100
AcDbLine
 10
-308.2902238175676
 20
391.1582905537374
 30
0.0
 11
-308.2902238175676
 21
428.1583383921031
 31
0.0
  0
LINE
  5
ED
330
1F
100
AcDbEntity
  8
1-2ﾚｲﾔ
  6
Continuous
 62
     3
370
     9
100
AcDbLine
 10
-313.2904877533784
 20
391.1582905537374
 30
0.0
 11
-313.2904877533784
 21
428.1583383921031
 31
0.0
  0
LINE
  5
EE
330
1F
100
AcDbEntity
  8
1-2ﾚｲﾔ
  6
Continuous
 62
     3
370
     9
100
AcDbLine
 10
-293.2902361895588
 20
391.1582905537374
 30
0.0
 11
-293.2902361895588
 21
428.1583383921031
 31
0.0
  0
LINE
  5
EF
330
1F
100
AcDbEntity
  8
1-2ﾚｲﾔ
  6
Continuous
 62
     3
370
     9
100
AcDbLine
 10
-298.2905001253695
 20
391.1582905537374
 30
0.0
 11
-298.2905001253695
 21
428.1583383921031
 31
0.0
  0
LINE
  5
F0
330
1F
100
AcDbEntity
  8
1-2ﾚｲﾔ
  6
Continuous
 62
     3
370
     9
100
AcDbLine
 10
-278.2902485615497
 20
391.1582905537374
 30
0.0
 11
-278.2902485615497
 21
428.1583383921031
 31
0.0
  0
LINE
  5
F1
330
1F
100
AcDbEntity
  8
1-2ﾚｲﾔ
  6
Continuous
 62
     3
370
     9
100
AcDbLine
 10
-283.2905124973605
 20
391.1582905537374
 30
0.0
 11
-283.2905124973605
 21
428.1583383921031
 31
0.0
  0
LINE
  5
F2
330
1F
100
AcDbEntity
  8
1-2ﾚｲﾔ
  6
Continuous
 62
     3
370
     9
100
AcDbLine
 10
-263.2902609335409
 20
391.1582905537374
 30
0.0
 11
-263.2902609335409
 21
428.1583383921031
 31
0.0
  0
LINE
  5
F3
330
1F
100
AcDbEntity
  8
1-2ﾚｲﾔ
  6
Continuous
 62
     3
370
     9
100
AcDbLine
 10
-268.2905248693517
 20
391.1582905537374
 30
0.0
 11
-268.2905248693517
 21
428.1583383921031
 31
0.0
  0
LINE
  5
F4
330
1F
100
AcDbEntity
  8
1-2ﾚｲﾔ
  6
Continuous
 62
     3
370
     9
100
AcDbLine
 10
-248.290273305532
 20
391.1582905537374
 30
0.0
 11
-248.290273305532
 21
428.1583383921031
 31
0.0
  0
LINE
  5
F5
330
1F
100
AcDbEntity
  8
1-2ﾚｲﾔ
  6
Continuous
 62
     3
370
     9
100
AcDbLine
 10
-253.2905372413428
 20
391.1582905537374
 30
0.0
 11
-253.2905372413428
 21
428.1583383921031
 31
0.0
  0
LINE
  5
F6
330
1F
100
AcDbEntity
  8
1-2ﾚｲﾔ
  6
Continuous
 62
     3
370
     9
100
AcDbLine
 10
-233.2902856775232
 20
391.1582905537374
 30
0.0
 11
-233.2902856775232
 21
428.1583383921031
 31
0.0
  0
LINE
  5
F7
330
1F
100
AcDbEntity
  8
1-2ﾚｲﾔ
  6
Continuous
 62
     3
370
     9
100
AcDbLine
 10
-238.290549613334
 20
391.1582905537374
 30
0.0
 11
-238.290549613334
 21
428.1583383921031
 31
0.0
  0
LINE
  5
F8
330
1F
100
AcDbEntity
  8
1-2ﾚｲﾔ
  6
Continuous
 62
     3
370
     9
100
AcDbLine
 10
-218.2902980495143
 20
391.1582905537374
 30
0.0
 11
-218.2902980495143
 21
428.1583383921031
 31
0.0
  0
LINE
  5
F9
330
1F
100
AcDbEntity
  8
1-2ﾚｲﾔ
  6
Continuous
 62
     3
370
     9
100
AcDbLine
 10
-223.2905619853251
 20
391.1582905537374
 30
0.0
 11
-223.2905619853251
 21
428.1583383921031
 31
0.0
  0
LINE
  5
FA
330
1F
100
AcDbEntity
  8
1-2ﾚｲﾔ
  6
Continuous
 62
     3
370
     9
100
AcDbLine
 10
-203.2903104215055
 20
391.1582905537374
 30
0.0
 11
-203.2903104215055
 21
428.1583383921031
 31
0.0
  0
LINE
  5
FB
330
1F
100
AcDbEntity
  8
1-2ﾚｲﾔ
  6
Continuous
 62
     3
370
     9
100
AcDbLine
 10
-208.2905743573163
 20
391.1582905537374
 30
0.0
 11
-208.2905743573163
 21
428.1583383921031
 31
0.0
  0
LINE
  5
FC
330
1F
100
AcDbEntity
  8
1-2ﾚｲﾔ
  6
Continuous
 62
     3
370
     9
100
AcDbLine
 10
-188.2903227934966
 20
391.1582905537374
 30
0.0
 11
-188.2903227934966
 21
428.1583383921031
 31
0.0
  0
LINE
  5
FD
330
1F
100
AcDbEntity
  8
1-2ﾚｲﾔ
  6
Continuous
 62
     3
370
     9
100
AcDbLine
 10
-173.2903351654878
 20
391.1582905537374
 30
0.0
 11
-173.2903351654878
 21
428.1583383921031
 31
0.0
  0
LINE
  5
FE
330
1F
100
AcDbEntity
  8
1-2ﾚｲﾔ
  6
Continuous
 62
     3
370
     9
100
AcDbLine
 10
-178.2905991012986
 20
391.1582905537374
 30
0.0
 11
-178.2905991012986
 21
428.1583383921031
 31
0.0
  0
LINE
  5
FF
330
1F
100
AcDbEntity
  8
1-2ﾚｲﾔ
  6
Continuous
 62
     3
370
     9
100
AcDbLine
 10
-158.2903475374788
 20
391.1582905537374
 30
0.0
 11
-158.2903475374788
 21
428.1583383921031
 31
0.0
  0
LINE
  5
100
330
1F
100
AcDbEntity
  8
1-2ﾚｲﾔ
  6
Continuous
 62
     3
370
     9
100
AcDbLine
 10
-163.2906114732897
 20
391.1582905537374
 30
0.0
 11
-163.2906114732897
 21
428.1583383921031
 31
0.0
  0
LINE
  5
101
330
1F
100
AcDbEntity
  8
1-2ﾚｲﾔ
  6
Continuous
 62
     3
370
     9
100
AcDbLine
 10
-143.2903599094699
 20
391.1582905537374
 30
0.0
 11
-143.2903599094699
 21
428.1583383921031
 31
0.0
  0
LINE
  5
102
330
1F
100
AcDbEntity
  8
1-2ﾚｲﾔ
  6
Continuous
 62
     3
370
     9
100
AcDbLine
 10
-148.2906238452807
 20
391.1582905537374
 30
0.0
 11
-148.2906238452807
 21
428.1583383921031
 31
0.0
  0
LINE
  5
103
330
1F
100
AcDbEntity
  8
1-2ﾚｲﾔ
  6
Continuous
 62
     3
370
     9
100
AcDbLine
 10
-128.2903722814611
 20
391.1582905537374
 30
0.0
 11
-128.2903722814611
 21
428.1583383921031
 31
0.0
  0
LINE
  5
104
330
1F
100
AcDbEntity
  8
1-2ﾚｲﾔ
  6
Continuous
 62
     3
370
     9
100
AcDbLine
 10
-113.2903846534522
 20
391.1582905537374
 30
0.0
 11
-113.2903846534522
 21
428.1583383921031
 31
0.0
  0
LINE
  5
105
330
1F
100
AcDbEntity
  8
1-2ﾚｲﾔ
  6
Continuous
 62
     3
370
     9
100
AcDbLine
 10
-118.290648589263
 20
391.1582905537374
 30
0.0
 11
-118.290648589263
 21
428.1583383921031
 31
0.0
  0
LINE
  5
106
330
1F
100
AcDbEntity
  8
1-2ﾚｲﾔ
  6
Continuous
 62
     3
370
     9
100
AcDbLine
 10
-98.29039702544335
 20
391.1582905537374
 30
0.0
 11
-98.29039702544335
 21
428.1583383921031
 31
0.0
  0
LINE
  5
107
330
1F
100
AcDbEntity
  8
1-2ﾚｲﾔ
  6
Continuous
 62
     3
370
     9
100
AcDbLine
 10
-103.2906609612542
 20
391.1582905537374
 30
0.0
 11
-103.2906609612542
 21
428.1583383921031
 31
0.0
  0
LINE
  5
108
330
1F
100
AcDbEntity
  8
1-2ﾚｲﾔ
  6
Continuous
 62
     3
370
     9
100
AcDbLine
 10
-83.2904712573901
 20
391.1582905537374
 30
0.0
 11
-83.2904712573901
 21
428.1583383921031
 31
0.0
  0
LINE
  5
109
330
1F
100
AcDbEntity
  8
1-2ﾚｲﾔ
  6
Continuous
 62
     3
370
     9
100
AcDbLine
 10
-88.29067333324531
 20
391.1582905537374
 30
0.0
 11
-88.29067333324531
 21
428.1583383921031
 31
0.0
  0
LINE
  5
10A
330
1F
100
AcDbEntity
  8
1-2ﾚｲﾔ
  6
Continuous
 62
     3
370
     9
100
AcDbLine
 10
-68.29042176942565
 20
391.1582905537374
 30
0.0
 11
-68.29042176942565
 21
428.1583383921031
 31
0.0
  0
LINE
  5
10B
330
1F
100
AcDbEntity
  8
1-2ﾚｲﾔ
  6
Continuous
 62
     3
370
     9
100
AcDbLine
 10
-73.29068570523646
 20
391.1582905537374
 30
0.0
 11
-73.29068570523646
 21
428.1583383921031
 31
0.0
  0
LINE
  5
10C
330
1F
100
AcDbEntity
  8
1-2ﾚｲﾔ
  6
Continuous
 62
     3
370
     9
100
AcDbLine
 10
-53.2904341414168
 20
391.1582905537374
 30
0.0
 11
-53.2904341414168
 21
428.1583383921031
 31
0.0
  0
LINE
  5
10D
330
1F
100
AcDbEntity
  8
1-2ﾚｲﾔ
  6
Continuous
 62
     3
370
     9
100
AcDbLine
 10
-58.2906980772276
 20
391.1582905537374
 30
0.0
 11
-58.2906980772276
 21
428.1583383921031
 31
0.0
  0
LINE
  5
10E
330
1F
100
AcDbEntity
  8
1-2ﾚｲﾔ
  6
Continuous
 62
     3
370
     9
100
AcDbLine
 10
-38.29044651340794
 20
391.1582905537374
 30
0.0
 11
-38.29044651340794
 21
428.1583383921031
 31
0.0
  0
LINE
  5
10F
330
1F
100
AcDbEntity
  8
1-2ﾚｲﾔ
  6
Continuous
 62
     3
370
     9
100
AcDbLine
 10
-43.29071044921875
 20
391.1582905537374
 30
0.0
 11
-43.29071044921875
 21
428.1583383921031
 31
0.0
  0
LINE
  5
110
330
1F
100
AcDbEntity
  8
1-2ﾚｲﾔ
  6
Continuous
 62
     3
370
     9
100
AcDbLine
 10
-23.29052074535468
 20
391.1582905537374
 30
0.0
 11
-23.29052074535468
 21
428.1583383921031
 31
0.0
  0
LINE
  5
111
330
1F
100
AcDbEntity
  8
1-2ﾚｲﾔ
  6
Continuous
 62
     3
370
     9
100
AcDbLine
 10
-28.29078468116549
 20
391.1582905537374
 30
0.0
 11
-28.29078468116549
 21
428.1583383921031
 31
0.0
  0
LINE
  5
112
330
1F
100
AcDbEntity
  8
1-2ﾚｲﾔ
  6
Continuous
 62
     3
370
     9
100
AcDbLine
 10
-8.290471257390095
 20
391.1582905537374
 30
0.0
 11
-8.290471257390095
 21
428.1583383921031
 31
0.0
  0
LINE
  5
113
330
1F
100
AcDbEntity
  8
1-2ﾚｲﾔ
  6
Continuous
 62
     3
370
     9
100
AcDbLine
 10
-13.2907351932009
 20
391.1582905537374
 30
0.0
 11
-13.2907351932009
 21
428.1583383921031
 31
0.0
  0
LINE
  5
114
330
1F
100
AcDbEntity
  8
1-2ﾚｲﾔ
  6
Continuous
 62
     3
370
     9
100
AcDbLine
 10
6.709578230574351
 20
391.1582905537374
 30
0.0
 11
6.709578230574351
 21
428.1583383921031
 31
0.0
  0
LINE
  5
115
330
1F
100
AcDbEntity
  8
1-2ﾚｲﾔ
  6
Continuous
 62
     3
370
     9
100
AcDbLine
 10
1.709314294763544
 20
391.1582905537374
 30
0.0
 11
1.709314294763544
 21
428.1583383921031
 31
0.0
  0
LINE
  5
116
330
1F
100
AcDbEntity
  8
1-2ﾚｲﾔ
  6
Continuous
 62
     3
370
     9
100
AcDbLine
 10
21.70950399862761
 20
391.1582905537374
 30
0.0
 11
21.70950399862761
 21
428.1583383921031
 31
0.0
  0
LINE
  5
117
330
1F
100
AcDbEntity
  8
1-2ﾚｲﾔ
  6
Continuous
 62
     3
370
     9
100
AcDbLine
 10
16.7092400628168
 20
391.1582905537374
 30
0.0
 11
16.7092400628168
 21
428.1583383921031
 31
0.0
  0
LINE
  5
118
330
1F
100
AcDbEntity
  8
1-2ﾚｲﾔ
  6
Continuous
 62
     3
370
     9
100
AcDbLine
 10
36.70942976668087
 20
391.1582905537374
 30
0.0
 11
36.70942976668087
 21
428.1583383921031
 31
0.0
  0
LINE
  5
119
330
1F
100
AcDbEntity
  8
1-2ﾚｲﾔ
  6
Continuous
 62
     3
370
     9
100
AcDbLine
 10
31.70916583087006
 20
391.1582905537374
 30
0.0
 11
31.70916583087006
 21
428.1583383921031
 31
0.0
  0
LINE
  5
11A
330
1F
100
AcDbEntity
  8
1-2ﾚｲﾔ
  6
Continuous
 62
     3
370
     9
100
AcDbLine
 10
51.70947925464532
 20
391.1582905537374
 30
0.0
 11
51.70947925464532
 21
428.1583383921031
 31
0.0
  0
LINE
  5
11B
330
1F
100
AcDbEntity
  8
1-2ﾚｲﾔ
  6
Continuous
 62
     3
370
     9
100
AcDbLine
 10
46.70921531883451
 20
391.1582905537374
 30
0.0
 11
46.70921531883451
 21
428.1583383921031
 31
0.0
  0
LINE
  5
11C
330
1F
100
AcDbEntity
  8
1-2ﾚｲﾔ
  6
Continuous
 62
     3
370
     9
100
AcDbLine
 10
66.7095287426099
 20
391.1582905537374
 30
0.0
 11
66.7095287426099
 21
428.1583383921031
 31
0.0
  0
LINE
  5
11D
330
1F
100
AcDbEntity
  8
1-2ﾚｲﾔ
  6
Continuous
 62
     3
370
     9
100
AcDbLine
 10
61.7092648067991
 20
391.1582905537374
 30
0.0
 11
61.7092648067991
 21
428.1583383921031
 31
0.0
  0
LINE
  5
11E
330
1F
100
AcDbEntity
  8
1-2ﾚｲﾔ
  6
Continuous
 62
     3
370
     9
100
AcDbLine
 10
81.70945451066302
 20
391.1582905537374
 30
0.0
 11
81.70945451066302
 21
428.1583383921031
 31
0.0
  0
LINE
  5
11F
330
1F
100
AcDbEntity
  8
1-2ﾚｲﾔ
  6
Continuous
 62
     3
370
     9
100
AcDbLine
 10
76.70919057485222
 20
391.1582905537374
 30
0.0
 11
76.70919057485222
 21
428.1583383921031
 31
0.0
  0
LINE
  5
120
330
1F
100
AcDbEntity
  8
1-2ﾚｲﾔ
  6
Continuous
 62
     3
370
     9
100
AcDbLine
 10
96.70938027871628
 20
391.1582905537374
 30
0.0
 11
96.70938027871628
 21
428.1583383921031
 31
0.0
  0
LINE
  5
121
330
1F
100
AcDbEntity
  8
1-2ﾚｲﾔ
  6
Continuous
 62
     3
370
     9
100
AcDbLine
 10
91.70911634290547
 20
391.1582905537374
 30
0.0
 11
91.70911634290547
 21
428.1583383921031
 31
0.0
  0
LINE
  5
122
330
1F
100
AcDbEntity
  8
1-2ﾚｲﾔ
  6
Continuous
 62
     3
370
     9
100
AcDbLine
 10
111.7094297666809
 20
391.1582905537374
 30
0.0
 11
111.7094297666809
 21
428.1583383921031
 31
0.0
  0
LINE
  5
123
330
1F
100
AcDbEntity
  8
1-2ﾚｲﾔ
  6
Continuous
 62
     3
370
     9
100
AcDbLine
 10
106.7091658308701
 20
391.1582905537374
 30
0.0
 11
106.7091658308701
 21
428.1583383921031
 31
0.0
  0
LINE
  5
124
330
1F
100
AcDbEntity
  8
1-2ﾚｲﾔ
  6
Continuous
 62
     3
370
     9
100
AcDbLine
 10
126.7094792546453
 20
391.1582905537374
 30
0.0
 11
126.7094792546453
 21
428.1583383921031
 31
0.0
  0
LINE
  5
125
330
1F
100
AcDbEntity
  8
1-2ﾚｲﾔ
  6
Continuous
 62
     3
370
     9
100
AcDbLine
 10
121.7092153188345
 20
391.1582905537374
 30
0.0
 11
121.7092153188345
 21
428.1583383921031
 31
0.0
  0
LINE
  5
126
330
1F
100
AcDbEntity
  8
1-2ﾚｲﾔ
  6
Continuous
 62
     3
370
     9
100
AcDbLine
 10
141.7094050226986
 20
391.1582905537374
 30
0.0
 11
141.7094050226986
 21
428.1583383921031
 31
0.0
  0
LINE
  5
127
330
1F
100
AcDbEntity
  8
1-2ﾚｲﾔ
  6
Continuous
 62
     3
370
     9
100
AcDbLine
 10
136.7091410868878
 20
391.1582905537374
 30
0.0
 11
136.7091410868878
 21
428.1583383921031
 31
0.0
  0
LINE
  5
128
330
1F
100
AcDbEntity
  8
1-2ﾚｲﾔ
  6
Continuous
 62
     3
370
     9
100
AcDbLine
 10
156.7093307907517
 20
391.1582905537374
 30
0.0
 11
156.7093307907517
 21
428.1583383921031
 31
0.0
  0
LINE
  5
129
330
1F
100
AcDbEntity
  8
1-2ﾚｲﾔ
  6
Continuous
 62
     3
370
     9
100
AcDbLine
 10
151.7090668549409
 20
391.1582905537374
 30
0.0
 11
151.7090668549409
 21
428.1583383921031
 31
0.0
  0
LINE
  5
12A
330
1F
100
AcDbEntity
  8
1-2ﾚｲﾔ
  6
Continuous
 62
     3
370
     9
100
AcDbLine
 10
171.7093802787163
 20
391.1582905537374
 30
0.0
 11
171.7093802787163
 21
428.1583383921031
 31
0.0
  0
LINE
  5
12B
330
1F
100
AcDbEntity
  8
1-2ﾚｲﾔ
  6
Continuous
 62
     3
370
     9
100
AcDbLine
 10
166.7091163429055
 20
391.1582905537374
 30
0.0
 11
166.7091163429055
 21
428.1583383921031
 31
0.0
  0
LINE
  5
12C
330
1F
100
AcDbEntity
  8
1-2ﾚｲﾔ
  6
Continuous
 62
     3
370
     9
100
AcDbLine
 10
186.7094297666809
 20
391.1582905537374
 30
0.0
 11
186.7094297666809
 21
428.1583383921031
 31
0.0
  0
LINE
  5
12D
330
1F
100
AcDbEntity
  8
1-2ﾚｲﾔ
  6
Continuous
 62
     3
370
     9
100
AcDbLine
 10
181.7091658308701
 20
391.1582905537374
 30
0.0
 11
181.7091658308701
 21
428.1583383921031
 31
0.0
  0
LINE
  5
12E
330
1F
100
AcDbEntity
  8
1-2ﾚｲﾔ
  6
Continuous
 62
     3
370
     9
100
AcDbLine
 10
201.709355534734
 20
391.1582905537374
 30
0.0
 11
201.709355534734
 21
428.1583383921031
 31
0.0
  0
LINE
  5
12F
330
1F
100
AcDbEntity
  8
1-2ﾚｲﾔ
  6
Continuous
 62
     3
370
     9
100
AcDbLine
 10
196.7090915989232
 20
391.1582905537374
 30
0.0
 11
196.7090915989232
 21
428.1583383921031
 31
0.0
  0
LINE
  5
130
330
1F
100
AcDbEntity
  8
1-2ﾚｲﾔ
  6
Continuous
 62
     3
370
     9
100
AcDbLine
 10
216.7094050226986
 20
391.1582905537374
 30
0.0
 11
216.7094050226986
 21
428.1583383921031
 31
0.0
  0
LINE
  5
131
330
1F
100
AcDbEntity
  8
1-2ﾚｲﾔ
  6
Continuous
 62
     3
370
     9
100
AcDbLine
 10
211.7091410868878
 20
391.1582905537374
 30
0.0
 11
211.7091410868878
 21
428.1583383921031
 31
0.0
  0
LINE
  5
132
330
1F
100
AcDbEntity
  8
1-2ﾚｲﾔ
  6
Continuous
 62
     3
370
     9
100
AcDbLine
 10
231.7093307907518
 20
391.1582905537374
 30
0.0
 11
231.7093307907518
 21
428.1583383921031
 31
0.0
  0
LINE
  5
133
330
1F
100
AcDbEntity
  8
1-2ﾚｲﾔ
  6
Continuous
 62
     3
370
     9
100
AcDbLine
 10
226.7090668549409
 20
391.1582905537374
 30
0.0
 11
226.7090668549409
 21
428.1583383921031
 31
0.0
  0
LINE
  5
134
330
1F
100
AcDbEntity
  8
1-2ﾚｲﾔ
  6
Continuous
 62
     3
370
     9
100
AcDbLine
 10
246.7093802787164
 20
391.1582905537374
 30
0.0
 11
246.7093802787164
 21
428.1583383921031
 31
0.0
  0
LINE
  5
135
330
1F
100
AcDbEntity
  8
1-2ﾚｲﾔ
  6
Continuous
 62
     3
370
     9
100
AcDbLine
 10
241.7091163429055
 20
391.1582905537374
 30
0.0
 11
241.7091163429055
 21
428.1583383921031
 31
0.0
  0
LINE
  5
136
330
1F
100
AcDbEntity
  8
1-2ﾚｲﾔ
  6
Continuous
 62
     3
370
     9
100
AcDbLine
 10
261.7093060467695
 20
391.1582905537374
 30
0.0
 11
261.7093060467695
 21
428.1583383921031
 31
0.0
  0
LINE
  5
137
330
1F
100
AcDbEntity
  8
1-2ﾚｲﾔ
  6
Continuous
 62
     3
370
     9
100
AcDbLine
 10
256.7090421109586
 20
391.1582905537374
 30
0.0
 11
256.7090421109586
 21
428.1583383921031
 31
0.0
  0
LINE
  5
138
330
1F
100
AcDbEntity
  8
1-2ﾚｲﾔ
  6
Continuous
 62
     3
370
     9
100
AcDbLine
 10
276.7093555347341
 20
391.1582905537374
 30
0.0
 11
276.7093555347341
 21
428.1583383921031
 31
0.0
  0
LINE
  5
139
330
1F
100
AcDbEntity
  8
1-2ﾚｲﾔ
  6
Continuous
 62
     3
370
     9
100
AcDbLine
 10
271.7090915989232
 20
391.1582905537374
 30
0.0
 11
271.7090915989232
 21
428.1583383921031
 31
0.0
  0
LINE
  5
13A
330
1F
100
AcDbEntity
  8
1-1ﾚｲﾔ
  6
Continuous
 62
     2
370
     9
100
AcDbLine
 10
604.0540540540542
 20
258.158334268106
 30
0.0
 11
606.0542338603252
 21
258.158334268106
 31
0.0
  0
LINE
  5
13B
330
1F
100
AcDbEntity
  8
1-2ﾚｲﾔ
  6
Continuous
 62
     3
370
     9
100
AcDbLine
 10
610.053974873311
 20
428.1585858319258
 30
0.0
 11
610.053974873311
 21
298.1581569362332
 31
0.0
  0
LINE
  5
13C
330
1F
100
AcDbEntity
  8
1-2ﾚｲﾔ
  6
Continuous
 62
     3
370
     9
100
AcDbLine
 10
611.0540029164908
 20
428.1585858319258
 30
0.0
 11
611.0540029164908
 21
298.1581569362332
 31
0.0
  0
LINE
  5
13D
330
1F
100
AcDbEntity
  8
1-2ﾚｲﾔ
  6
Continuous
 62
     3
370
     9
100
AcDbLine
 10
622.0540639516471
 20
428.1585858319258
 30
0.0
 11
622.0540639516471
 21
298.1581569362332
 31
0.0
  0
LINE
  5
13E
330
1F
100
AcDbEntity
  8
1-2ﾚｲﾔ
  6
Continuous
 62
     3
370
     9
100
AcDbLine
 10
623.0540919948269
 20
428.1585858319258
 30
0.0
 11
623.0540919948269
 21
298.1581569362332
 31
0.0
  0
LINE
  5
13F
330
1F
100
AcDbEntity
  8
1-2ﾚｲﾔ
  6
Continuous
 62
     3
370
     9
100
AcDbLine
 10
629.0540128140835
 20
428.1585858319258
 30
0.0
 11
629.0540128140835
 21
298.1581569362332
 31
0.0
  0
LINE
  5
140
330
1F
100
AcDbEntity
  8
1-2ﾚｲﾔ
  6
Continuous
 62
     3
370
     9
100
AcDbLine
 10
602.5539501293287
 20
425.2343420080237
 30
0.0
 11
604.0540540540542
 21
424.7230076145482
 31
0.0
  0
LINE
  5
141
330
1F
100
AcDbEntity
  8
1-2ﾚｲﾔ
  6
Continuous
 62
     3
370
     9
100
AcDbLine
 10
602.5539501293287
 20
419.0984530062289
 30
0.0
 11
602.5539501293287
 21
414.691054885452
 31
0.0
  0
LINE
  5
142
330
1F
100
AcDbEntity
  8
1-2ﾚｲﾔ
  6
Continuous
 62
     3
370
     9
100
AcDbLine
 10
602.5539501293287
 20
414.691054885452
 30
0.0
 11
604.0540540540542
 21
414.1798442118878
 31
0.0
  0
LINE
  5
143
330
1F
100
AcDbEntity
  8
1-2ﾚｲﾔ
  6
Continuous
 62
     3
370
     9
100
AcDbLine
 10
602.5539501293287
 20
419.0984530062289
 30
0.0
 11
604.0540540540542
 21
419.6097873997044
 31
0.0
  0
LINE
  5
144
330
1F
100
AcDbEntity
  8
1-2ﾚｲﾔ
  6
Continuous
 62
     3
370
     9
100
AcDbLine
 10
604.0540540540542
 20
424.7230076145482
 30
0.0
 11
604.0540540540542
 21
419.6097873997044
 31
0.0
  0
LINE
  5
145
330
1F
100
AcDbEntity
  8
1-2ﾚｲﾔ
  6
Continuous
 62
     3
370
     9
100
AcDbLine
 10
604.0540540540542
 20
428.1585858319258
 30
0.0
 11
602.5539501293287
 21
428.1585858319258
 31
0.0
  0
LINE
  5
146
330
1F
100
AcDbEntity
  8
1-2ﾚｲﾔ
  6
Continuous
 62
     3
370
     9
100
AcDbLine
 10
602.5539501293287
 20
428.1585858319258
 30
0.0
 11
602.5539501293287
 21
425.2343420080237
 31
0.0
  0
LINE
  5
147
330
1F
100
AcDbEntity
  8
1-4ﾚｲﾔ
  6
Continuous
 62
     7
370
     9
100
AcDbLine
 10
-703.2904135214314
 20
174.5270146550359
 30
0.0
 11
291.7095287426099
 21
174.5270146550359
 31
0.0
  0
LINE
  5
148
330
1F
100
AcDbEntity
  8
1-4ﾚｲﾔ
  6
Continuous
 62
     7
370
     9
100
AcDbLine
 10
-703.2904135214314
 20
250.6583095241238
 30
0.0
 11
-703.2904135214314
 21
173.0270344502217
 31
0.0
  0
LINE
  5
149
330
1F
100
AcDbEntity
  8
1-4ﾚｲﾔ
  6
Continuous
 62
     7
370
     9
100
AcDbLine
 10
291.7095287426099
 20
250.6583095241238
 30
0.0
 11
291.7095287426099
 21
173.0270344502217
 31
0.0
  0
LINE
  5
14A
330
1F
100
AcDbEntity
  8
1-4ﾚｲﾔ
  6
Continuous
 62
     7
370
     9
100
AcDbLine
 10
604.0540540540542
 20
250.6583095241238
 30
0.0
 11
604.0540540540542
 21
173.0270344502217
 31
0.0
  0
LINE
  5
14B
330
1F
100
AcDbEntity
  8
1-4ﾚｲﾔ
  6
Continuous
 62
     7
370
     9
100
AcDbLine
 10
629.0540128140835
 20
290.6580703322952
 30
0.0
 11
629.0540128140835
 21
173.0270344502217
 31
0.0
  0
LINE
  5
14C
330
1F
100
AcDbEntity
  8
1-4ﾚｲﾔ
  6
Continuous
 62
     7
370
     9
100
AcDbLine
 10
686.2432943808068
 20
293.1583878800676
 30
0.0
 11
686.2432943808068
 21
433.15823116818
 31
0.0
  0
LINE
  5
14D
330
1F
100
AcDbEntity
  8
1-4ﾚｲﾔ
  6
Continuous
 62
     7
370
     9
100
AcDbLine
 10
547.2972972972974
 20
298.1581569362332
 30
0.0
 11
547.2972972972974
 21
428.1585858319258
 31
0.0
  0
LINE
  5
14E
330
1F
100
AcDbEntity
  8
1-4ﾚｲﾔ
  6
Continuous
 62
     7
370
     9
100
AcDbLine
 10
596.5540293100719
 20
298.1581569362332
 30
0.0
 11
545.7973170924831
 21
298.1581569362332
 31
0.0
  0
LINE
  5
14F
330
1F
100
AcDbEntity
  8
1-4ﾚｲﾔ
  6
Continuous
 62
     7
370
     9
100
AcDbLine
 10
596.5540293100719
 20
428.1585858319258
 30
0.0
 11
545.7973170924831
 21
428.1585858319258
 31
0.0
  0
LINE
  5
150
330
1F
100
AcDbEntity
  8
1-4ﾚｲﾔ
  6
Continuous
 62
     7
370
     9
100
AcDbLine
 10
510.8108108108109
 20
258.158334268106
 30
0.0
 11
510.8108108108109
 21
468.1583466400971
 31
0.0
  0
LINE
  5
151
330
1F
100
AcDbEntity
  8
1-4ﾚｲﾔ
  6
Continuous
 62
     7
370
     9
100
AcDbLine
 10
596.5540293100719
 20
258.158334268106
 30
0.0
 11
509.3108306059966
 21
258.158334268106
 31
0.0
  0
LINE
  5
152
330
1F
100
AcDbEntity
  8
1-4ﾚｲﾔ
  6
Continuous
 62
     7
370
     9
100
AcDbLine
 10
596.5540293100719
 20
468.1583466400971
 30
0.0
 11
509.3108306059966
 21
468.1583466400971
 31
0.0
  0
LINE
  5
153
330
1F
100
AcDbEntity
  8
1-2ﾚｲﾔ
  6
Continuous
 62
     3
370
     9
100
AcDbLine
 10
-133.2906362172719
 20
391.1582905537374
 30
0.0
 11
-133.2906362172719
 21
428.1583383921031
 31
0.0
  0
LINE
  5
154
330
1F
100
AcDbEntity
  8
1-4ﾚｲﾔ
  6
Continuous
 62
     7
370
     9
100
AcDbLine
 10
576.8863987278294
 20
174.5270146550359
 30
0.0
 11
631.2271530563769
 21
174.5270146550359
 31
0.0
  0
LINE
  5
155
330
1F
100
AcDbEntity
  8
1-2ﾚｲﾔ
  6
Continuous
 62
     3
370
     9
100
AcDbLine
 10
-193.2905867293074
 20
391.1582905537374
 30
0.0
 11
-193.2905867293074
 21
428.1583383921031
 31
0.0
  0
LINE
  5
156
330
1F
100
AcDbEntity
  8
1-2ﾚｲﾔ
  6
Continuous
 62
     3
370
     9
100
AcDbLine
 10
-703.2904135214314
 20
298.1584043760558
 30
0.0
 11
-703.2904135214314
 21
428.1583383921031
 31
0.0
  0
LINE
  5
157
330
1F
100
AcDbEntity
  8
1-2ﾚｲﾔ
  6
Continuous
 62
     3
370
     9
100
AcDbLine
 10
291.7095287426099
 20
298.1584043760558
 30
0.0
 11
291.7095287426099
 21
428.1583383921031
 31
0.0
  0
LINE
  5
158
330
1F
100
AcDbEntity
  8
1-2ﾚｲﾔ
  6
Continuous
 62
     3
370
     9
100
AcDbLine
 10
602.5539501293287
 20
298.5590094489021
 30
0.0
 11
604.0540540540542
 21
298.1581569362332
 31
0.0
  0
LINE
  5
159
330
1F
100
AcDbEntity
  8
1-2ﾚｲﾔ
  6
Continuous
 62
     3
370
     9
100
AcDbLine
 10
291.7095287426099
 20
335.1583284945102
 30
0.0
 11
-703.2904135214314
 21
335.1583284945102
 31
0.0
  0
LINE
  5
15A
330
1F
100
AcDbEntity
  8
1-2ﾚｲﾔ
  6
Continuous
 62
     3
370
     9
100
AcDbLine
 10
291.7095287426099
 20
341.1582493137669
 30
0.0
 11
-703.2904135214314
 21
341.1582493137669
 31
0.0
  0
LINE
  5
15B
330
1F
100
AcDbEntity
  8
1-2ﾚｲﾔ
  6
Continuous
 62
     3
370
     9
100
AcDbLine
 10
-698.2901495856208
 20
298.1584043760558
 30
0.0
 11
-698.2901495856208
 21
335.1583284945102
 31
0.0
  0
LINE
  5
15C
330
1F
100
AcDbEntity
  8
1-2ﾚｲﾔ
  6
Continuous
 62
     3
370
     9
100
AcDbLine
 10
-698.2901495856208
 20
341.1582493137669
 30
0.0
 11
-698.2901495856208
 21
385.1583697344806
 31
0.0
  0
LINE
  5
15D
330
1F
100
AcDbEntity
  8
1-2ﾚｲﾔ
  6
Continuous
 62
     3
370
     9
100
AcDbLine
 10
-683.2902238175676
 20
298.1584043760558
 30
0.0
 11
-683.2902238175676
 21
335.1583284945102
 31
0.0
  0
LINE
  5
15E
330
1F
100
AcDbEntity
  8
1-2ﾚｲﾔ
  6
Continuous
 62
     3
370
     9
100
AcDbLine
 10
-683.2902238175676
 20
341.1582493137669
 30
0.0
 11
-683.2902238175676
 21
385.1583697344806
 31
0.0
  0
LINE
  5
15F
330
1F
100
AcDbEntity
  8
1-2ﾚｲﾔ
  6
Continuous
 62
     3
370
     9
100
AcDbLine
 10
-688.2904877533783
 20
298.1584043760558
 30
0.0
 11
-688.2904877533783
 21
335.1583284945102
 31
0.0
  0
LINE
  5
160
330
1F
100
AcDbEntity
  8
1-2ﾚｲﾔ
  6
Continuous
 62
     3
370
     9
100
AcDbLine
 10
-688.2904877533783
 20
341.1582493137669
 30
0.0
 11
-688.2904877533783
 21
385.1583697344806
 31
0.0
  0
LINE
  5
161
330
1F
100
AcDbEntity
  8
1-2ﾚｲﾔ
  6
Continuous
 62
     3
370
     9
100
AcDbLine
 10
-668.290174329603
 20
298.1584043760558
 30
0.0
 11
-668.290174329603
 21
335.1583284945102
 31
0.0
  0
LINE
  5
162
330
1F
100
AcDbEntity
  8
1-2ﾚｲﾔ
  6
Continuous
 62
     3
370
     9
100
AcDbLine
 10
-668.290174329603
 20
341.1582493137669
 30
0.0
 11
-668.290174329603
 21
385.1583697344806
 31
0.0
  0
LINE
  5
163
330
1F
100
AcDbEntity
  8
1-2ﾚｲﾔ
  6
Continuous
 62
     3
370
     9
100
AcDbLine
 10
-673.2904382654137
 20
298.1584043760558
 30
0.0
 11
-673.2904382654137
 21
335.1583284945102
 31
0.0
  0
LINE
  5
164
330
1F
100
AcDbEntity
  8
1-2ﾚｲﾔ
  6
Continuous
 62
     3
370
     9
100
AcDbLine
 10
-673.2904382654137
 20
341.1582493137669
 30
0.0
 11
-673.2904382654137
 21
385.1583697344806
 31
0.0
  0
LINE
  5
165
330
1F
100
AcDbEntity
  8
1-2ﾚｲﾔ
  6
Continuous
 62
     3
370
     9
100
AcDbLine
 10
-653.2901248416385
 20
298.1584043760558
 30
0.0
 11
-653.2901248416385
 21
335.1583284945102
 31
0.0
  0
LINE
  5
166
330
1F
100
AcDbEntity
  8
1-2ﾚｲﾔ
  6
Continuous
 62
     3
370
     9
100
AcDbLine
 10
-653.2901248416385
 20
341.1582493137669
 30
0.0
 11
-653.2901248416385
 21
385.1583697344806
 31
0.0
  0
LINE
  5
167
330
1F
100
AcDbEntity
  8
1-2ﾚｲﾔ
  6
Continuous
 62
     3
370
     9
100
AcDbLine
 10
-658.2903887774492
 20
298.1584043760558
 30
0.0
 11
-658.2903887774492
 21
335.1583284945102
 31
0.0
  0
LINE
  5
168
330
1F
100
AcDbEntity
  8
1-2ﾚｲﾔ
  6
Continuous
 62
     3
370
     9
100
AcDbLine
 10
-658.2903887774492
 20
341.1582493137669
 30
0.0
 11
-658.2903887774492
 21
385.1583697344806
 31
0.0
  0
LINE
  5
169
330
1F
100
AcDbEntity
  8
1-2ﾚｲﾔ
  6
Continuous
 62
     3
370
     9
100
AcDbLine
 10
-638.290075353674
 20
298.1584043760558
 30
0.0
 11
-638.290075353674
 21
335.1583284945102
 31
0.0
  0
LINE
  5
16A
330
1F
100
AcDbEntity
  8
1-2ﾚｲﾔ
  6
Continuous
 62
     3
370
     9
100
AcDbLine
 10
-638.290075353674
 20
341.1582493137669
 30
0.0
 11
-638.290075353674
 21
385.1583697344806
 31
0.0
  0
LINE
  5
16B
330
1F
100
AcDbEntity
  8
1-2ﾚｲﾔ
  6
Continuous
 62
     3
370
     9
100
AcDbLine
 10
-643.2903392894848
 20
298.1584043760558
 30
0.0
 11
-643.2903392894848
 21
335.1583284945102
 31
0.0
  0
LINE
  5
16C
330
1F
100
AcDbEntity
  8
1-2ﾚｲﾔ
  6
Continuous
 62
     3
370
     9
100
AcDbLine
 10
-643.2903392894848
 20
341.1582493137669
 30
0.0
 11
-643.2903392894848
 21
385.1583697344806
 31
0.0
  0
LINE
  5
16D
330
1F
100
AcDbEntity
  8
1-2ﾚｲﾔ
  6
Continuous
 62
     3
370
     9
100
AcDbLine
 10
-623.2901495856207
 20
298.1584043760558
 30
0.0
 11
-623.2901495856207
 21
335.1583284945102
 31
0.0
  0
LINE
  5
16E
330
1F
100
AcDbEntity
  8
1-2ﾚｲﾔ
  6
Continuous
 62
     3
370
     9
100
AcDbLine
 10
-623.2901495856207
 20
341.1582493137669
 30
0.0
 11
-623.2901495856207
 21
385.1583697344806
 31
0.0
  0
LINE
  5
16F
330
1F
100
AcDbEntity
  8
1-2ﾚｲﾔ
  6
Continuous
 62
     3
370
     9
100
AcDbLine
 10
-628.2904135214316
 20
298.1584043760558
 30
0.0
 11
-628.2904135214316
 21
335.1583284945102
 31
0.0
  0
LINE
  5
170
330
1F
100
AcDbEntity
  8
1-2ﾚｲﾔ
  6
Continuous
 62
     3
370
     9
100
AcDbLine
 10
-628.2904135214316
 20
341.1582493137669
 30
0.0
 11
-628.2904135214316
 21
385.1583697344806
 31
0.0
  0
LINE
  5
171
330
1F
100
AcDbEntity
  8
1-2ﾚｲﾔ
  6
Continuous
 62
     3
370
     9
100
AcDbLine
 10
-608.2902238175675
 20
298.1584043760558
 30
0.0
 11
-608.2902238175675
 21
335.1583284945102
 31
0.0
  0
LINE
  5
172
330
1F
100
AcDbEntity
  8
1-2ﾚｲﾔ
  6
Continuous
 62
     3
370
     9
100
AcDbLine
 10
-608.2902238175675
 20
341.1582493137669
 30
0.0
 11
-608.2902238175675
 21
385.1583697344806
 31
0.0
  0
LINE
  5
173
330
1F
100
AcDbEntity
  8
1-2ﾚｲﾔ
  6
Continuous
 62
     3
370
     9
100
AcDbLine
 10
-613.2904877533783
 20
298.1584043760558
 30
0.0
 11
-613.2904877533783
 21
335.1583284945102
 31
0.0
  0
LINE
  5
174
330
1F
100
AcDbEntity
  8
1-2ﾚｲﾔ
  6
Continuous
 62
     3
370
     9
100
AcDbLine
 10
-613.2904877533783
 20
341.1582493137669
 30
0.0
 11
-613.2904877533783
 21
385.1583697344806
 31
0.0
  0
LINE
  5
175
330
1F
100
AcDbEntity
  8
1-2ﾚｲﾔ
  6
Continuous
 62
     3
370
     9
100
AcDbLine
 10
-593.290174329603
 20
298.1584043760558
 30
0.0
 11
-593.290174329603
 21
335.1583284945102
 31
0.0
  0
LINE
  5
176
330
1F
100
AcDbEntity
  8
1-2ﾚｲﾔ
  6
Continuous
 62
     3
370
     9
100
AcDbLine
 10
-593.290174329603
 20
341.1582493137669
 30
0.0
 11
-593.290174329603
 21
385.1583697344806
 31
0.0
  0
LINE
  5
177
330
1F
100
AcDbEntity
  8
1-2ﾚｲﾔ
  6
Continuous
 62
     3
370
     9
100
AcDbLine
 10
-598.2904382654137
 20
298.1584043760558
 30
0.0
 11
-598.2904382654137
 21
335.1583284945102
 31
0.0
  0
LINE
  5
178
330
1F
100
AcDbEntity
  8
1-2ﾚｲﾔ
  6
Continuous
 62
     3
370
     9
100
AcDbLine
 10
-598.2904382654137
 20
341.1582493137669
 30
0.0
 11
-598.2904382654137
 21
385.1583697344806
 31
0.0
  0
LINE
  5
179
330
1F
100
AcDbEntity
  8
1-2ﾚｲﾔ
  6
Continuous
 62
     3
370
     9
100
AcDbLine
 10
-578.2901248416384
 20
298.1584043760558
 30
0.0
 11
-578.2901248416384
 21
335.1583284945102
 31
0.0
  0
LINE
  5
17A
330
1F
100
AcDbEntity
  8
1-2ﾚｲﾔ
  6
Continuous
 62
     3
370
     9
100
AcDbLine
 10
-578.2901248416384
 20
341.1582493137669
 30
0.0
 11
-578.2901248416384
 21
385.1583697344806
 31
0.0
  0
LINE
  5
17B
330
1F
100
AcDbEntity
  8
1-2ﾚｲﾔ
  6
Continuous
 62
     3
370
     9
100
AcDbLine
 10
-583.2903887774493
 20
298.1584043760558
 30
0.0
 11
-583.2903887774493
 21
335.1583284945102
 31
0.0
  0
LINE
  5
17C
330
1F
100
AcDbEntity
  8
1-2ﾚｲﾔ
  6
Continuous
 62
     3
370
     9
100
AcDbLine
 10
-583.2903887774493
 20
341.1582493137669
 30
0.0
 11
-583.2903887774493
 21
385.1583697344806
 31
0.0
  0
LINE
  5
17D
330
1F
100
AcDbEntity
  8
1-2ﾚｲﾔ
  6
Continuous
 62
     3
370
     9
100
AcDbLine
 10
-563.290075353674
 20
298.1584043760558
 30
0.0
 11
-563.290075353674
 21
335.1583284945102
 31
0.0
  0
LINE
  5
17E
330
1F
100
AcDbEntity
  8
1-2ﾚｲﾔ
  6
Continuous
 62
     3
370
     9
100
AcDbLine
 10
-563.290075353674
 20
341.1582493137669
 30
0.0
 11
-563.290075353674
 21
385.1583697344806
 31
0.0
  0
LINE
  5
17F
330
1F
100
AcDbEntity
  8
1-2ﾚｲﾔ
  6
Continuous
 62
     3
370
     9
100
AcDbLine
 10
-568.2903392894848
 20
298.1584043760558
 30
0.0
 11
-568.2903392894848
 21
335.1583284945102
 31
0.0
  0
LINE
  5
180
330
1F
100
AcDbEntity
  8
1-2ﾚｲﾔ
  6
Continuous
 62
     3
370
     9
100
AcDbLine
 10
-568.2903392894848
 20
341.1582493137669
 30
0.0
 11
-568.2903392894848
 21
385.1583697344806
 31
0.0
  0
LINE
  5
181
330
1F
100
AcDbEntity
  8
1-2ﾚｲﾔ
  6
Continuous
 62
     3
370
     9
100
AcDbLine
 10
-548.2901495856207
 20
298.1584043760558
 30
0.0
 11
-548.2901495856207
 21
335.1583284945102
 31
0.0
  0
LINE
  5
182
330
1F
100
AcDbEntity
  8
1-2ﾚｲﾔ
  6
Continuous
 62
     3
370
     9
100
AcDbLine
 10
-548.2901495856207
 20
341.1582493137669
 30
0.0
 11
-548.2901495856207
 21
385.1583697344806
 31
0.0
  0
LINE
  5
183
330
1F
100
AcDbEntity
  8
1-2ﾚｲﾔ
  6
Continuous
 62
     3
370
     9
100
AcDbLine
 10
-553.2904135214316
 20
298.1584043760558
 30
0.0
 11
-553.2904135214316
 21
335.1583284945102
 31
0.0
  0
LINE
  5
184
330
1F
100
AcDbEntity
  8
1-2ﾚｲﾔ
  6
Continuous
 62
     3
370
     9
100
AcDbLine
 10
-553.2904135214316
 20
341.1582493137669
 30
0.0
 11
-553.2904135214316
 21
385.1583697344806
 31
0.0
  0
LINE
  5
185
330
1F
100
AcDbEntity
  8
1-2ﾚｲﾔ
  6
Continuous
 62
     3
370
     9
100
AcDbLine
 10
-533.2901000976562
 20
298.1584043760558
 30
0.0
 11
-533.2901000976562
 21
335.1583284945102
 31
0.0
  0
LINE
  5
186
330
1F
100
AcDbEntity
  8
1-2ﾚｲﾔ
  6
Continuous
 62
     3
370
     9
100
AcDbLine
 10
-533.2901000976562
 20
341.1582493137669
 30
0.0
 11
-533.2901000976562
 21
385.1583697344806
 31
0.0
  0
LINE
  5
187
330
1F
100
AcDbEntity
  8
1-2ﾚｲﾔ
  6
Continuous
 62
     3
370
     9
100
AcDbLine
 10
-538.2903640334671
 20
298.1584043760558
 30
0.0
 11
-538.2903640334671
 21
335.1583284945102
 31
0.0
  0
LINE
  5
188
330
1F
100
AcDbEntity
  8
1-2ﾚｲﾔ
  6
Continuous
 62
     3
370
     9
100
AcDbLine
 10
-538.2903640334671
 20
341.1582493137669
 30
0.0
 11
-538.2903640334671
 21
385.1583697344806
 31
0.0
  0
LINE
  5
189
330
1F
100
AcDbEntity
  8
1-2ﾚｲﾔ
  6
Continuous
 62
     3
370
     9
100
AcDbLine
 10
-518.2901124696473
 20
298.1584043760558
 30
0.0
 11
-518.2901124696473
 21
335.1583284945102
 31
0.0
  0
LINE
  5
18A
330
1F
100
AcDbEntity
  8
1-2ﾚｲﾔ
  6
Continuous
 62
     3
370
     9
100
AcDbLine
 10
-518.2901124696473
 20
341.1582493137669
 30
0.0
 11
-518.2901124696473
 21
385.1583697344806
 31
0.0
  0
LINE
  5
18B
330
1F
100
AcDbEntity
  8
1-2ﾚｲﾔ
  6
Continuous
 62
     3
370
     9
100
AcDbLine
 10
-523.2904382654137
 20
298.1584043760558
 30
0.0
 11
-523.2904382654137
 21
335.1583284945102
 31
0.0
  0
LINE
  5
18C
330
1F
100
AcDbEntity
  8
1-2ﾚｲﾔ
  6
Continuous
 62
     3
370
     9
100
AcDbLine
 10
-523.2904382654137
 20
341.1582493137669
 30
0.0
 11
-523.2904382654137
 21
385.1583697344806
 31
0.0
  0
LINE
  5
18D
330
1F
100
AcDbEntity
  8
1-2ﾚｲﾔ
  6
Continuous
 62
     3
370
     9
100
AcDbLine
 10
-503.2901248416385
 20
298.1584043760558
 30
0.0
 11
-503.2901248416385
 21
335.1583284945102
 31
0.0
  0
LINE
  5
18E
330
1F
100
AcDbEntity
  8
1-2ﾚｲﾔ
  6
Continuous
 62
     3
370
     9
100
AcDbLine
 10
-503.2901248416385
 20
341.1582493137669
 30
0.0
 11
-503.2901248416385
 21
385.1583697344806
 31
0.0
  0
LINE
  5
18F
330
1F
100
AcDbEntity
  8
1-2ﾚｲﾔ
  6
Continuous
 62
     3
370
     9
100
AcDbLine
 10
-508.2903887774493
 20
298.1584043760558
 30
0.0
 11
-508.2903887774493
 21
335.1583284945102
 31
0.0
  0
LINE
  5
190
330
1F
100
AcDbEntity
  8
1-2ﾚｲﾔ
  6
Continuous
 62
     3
370
     9
100
AcDbLine
 10
-508.2903887774493
 20
341.1582493137669
 30
0.0
 11
-508.2903887774493
 21
385.1583697344806
 31
0.0
  0
LINE
  5
191
330
1F
100
AcDbEntity
  8
1-2ﾚｲﾔ
  6
Continuous
 62
     3
370
     9
100
AcDbLine
 10
-488.2901372136296
 20
298.1584043760558
 30
0.0
 11
-488.2901372136296
 21
335.1583284945102
 31
0.0
  0
LINE
  5
192
330
1F
100
AcDbEntity
  8
1-2ﾚｲﾔ
  6
Continuous
 62
     3
370
     9
100
AcDbLine
 10
-488.2901372136296
 20
341.1582493137669
 30
0.0
 11
-488.2901372136296
 21
385.1583697344806
 31
0.0
  0
LINE
  5
193
330
1F
100
AcDbEntity
  8
1-2ﾚｲﾔ
  6
Continuous
 62
     3
370
     9
100
AcDbLine
 10
-493.2904011494404
 20
298.1584043760558
 30
0.0
 11
-493.2904011494404
 21
335.1583284945102
 31
0.0
  0
LINE
  5
194
330
1F
100
AcDbEntity
  8
1-2ﾚｲﾔ
  6
Continuous
 62
     3
370
     9
100
AcDbLine
 10
-493.2904011494404
 20
341.1582493137669
 30
0.0
 11
-493.2904011494404
 21
385.1583697344806
 31
0.0
  0
LINE
  5
195
330
1F
100
AcDbEntity
  8
1-2ﾚｲﾔ
  6
Continuous
 62
     3
370
     9
100
AcDbLine
 10
-473.2901495856208
 20
298.1584043760558
 30
0.0
 11
-473.2901495856208
 21
335.1583284945102
 31
0.0
  0
LINE
  5
196
330
1F
100
AcDbEntity
  8
1-2ﾚｲﾔ
  6
Continuous
 62
     3
370
     9
100
AcDbLine
 10
-473.2901495856208
 20
341.1582493137669
 30
0.0
 11
-473.2901495856208
 21
385.1583697344806
 31
0.0
  0
LINE
  5
197
330
1F
100
AcDbEntity
  8
1-2ﾚｲﾔ
  6
Continuous
 62
     3
370
     9
100
AcDbLine
 10
-478.2904135214316
 20
298.1584043760558
 30
0.0
 11
-478.2904135214316
 21
335.1583284945102
 31
0.0
  0
LINE
  5
198
330
1F
100
AcDbEntity
  8
1-2ﾚｲﾔ
  6
Continuous
 62
     3
370
     9
100
AcDbLine
 10
-478.2904135214316
 20
341.1582493137669
 30
0.0
 11
-478.2904135214316
 21
385.1583697344806
 31
0.0
  0
LINE
  5
199
330
1F
100
AcDbEntity
  8
1-2ﾚｲﾔ
  6
Continuous
 62
     3
370
     9
100
AcDbLine
 10
-458.2901000976562
 20
298.1584043760558
 30
0.0
 11
-458.2901000976562
 21
335.1583284945102
 31
0.0
  0
LINE
  5
19A
330
1F
100
AcDbEntity
  8
1-2ﾚｲﾔ
  6
Continuous
 62
     3
370
     9
100
AcDbLine
 10
-458.2901000976562
 20
341.1582493137669
 30
0.0
 11
-458.2901000976562
 21
385.1583697344806
 31
0.0
  0
LINE
  5
19B
330
1F
100
AcDbEntity
  8
1-2ﾚｲﾔ
  6
Continuous
 62
     3
370
     9
100
AcDbLine
 10
-463.2903640334671
 20
298.1584043760558
 30
0.0
 11
-463.2903640334671
 21
335.1583284945102
 31
0.0
  0
LINE
  5
19C
330
1F
100
AcDbEntity
  8
1-2ﾚｲﾔ
  6
Continuous
 62
     3
370
     9
100
AcDbLine
 10
-463.2903640334671
 20
341.1582493137669
 30
0.0
 11
-463.2903640334671
 21
385.1583697344806
 31
0.0
  0
LINE
  5
19D
330
1F
100
AcDbEntity
  8
1-2ﾚｲﾔ
  6
Continuous
 62
     3
370
     9
100
AcDbLine
 10
-443.2901124696473
 20
298.1584043760558
 30
0.0
 11
-443.2901124696473
 21
335.1583284945102
 31
0.0
  0
LINE
  5
19E
330
1F
100
AcDbEntity
  8
1-2ﾚｲﾔ
  6
Continuous
 62
     3
370
     9
100
AcDbLine
 10
-443.2901124696473
 20
341.1582493137669
 30
0.0
 11
-443.2901124696473
 21
385.1583697344806
 31
0.0
  0
LINE
  5
19F
330
1F
100
AcDbEntity
  8
1-2ﾚｲﾔ
  6
Continuous
 62
     3
370
     9
100
AcDbLine
 10
-448.2904382654138
 20
298.1584043760558
 30
0.0
 11
-448.2904382654138
 21
335.1583284945102
 31
0.0
  0
LINE
  5
1A0
330
1F
100
AcDbEntity
  8
1-2ﾚｲﾔ
  6
Continuous
 62
     3
370
     9
100
AcDbLine
 10
-448.2904382654138
 20
341.1582493137669
 30
0.0
 11
-448.2904382654138
 21
385.1583697344806
 31
0.0
  0
LINE
  5
1A1
330
1F
100
AcDbEntity
  8
1-2ﾚｲﾔ
  6
Continuous
 62
     3
370
     9
100
AcDbLine
 10
-428.2901248416385
 20
298.1584043760558
 30
0.0
 11
-428.2901248416385
 21
335.1583284945102
 31
0.0
  0
LINE
  5
1A2
330
1F
100
AcDbEntity
  8
1-2ﾚｲﾔ
  6
Continuous
 62
     3
370
     9
100
AcDbLine
 10
-428.2901248416385
 20
341.1582493137669
 30
0.0
 11
-428.2901248416385
 21
385.1583697344806
 31
0.0
  0
LINE
  5
1A3
330
1F
100
AcDbEntity
  8
1-2ﾚｲﾔ
  6
Continuous
 62
     3
370
     9
100
AcDbLine
 10
-433.2903887774493
 20
298.1584043760558
 30
0.0
 11
-433.2903887774493
 21
335.1583284945102
 31
0.0
  0
LINE
  5
1A4
330
1F
100
AcDbEntity
  8
1-2ﾚｲﾔ
  6
Continuous
 62
     3
370
     9
100
AcDbLine
 10
-433.2903887774493
 20
341.1582493137669
 30
0.0
 11
-433.2903887774493
 21
385.1583697344806
 31
0.0
  0
LINE
  5
1A5
330
1F
100
AcDbEntity
  8
1-2ﾚｲﾔ
  6
Continuous
 62
     3
370
     9
100
AcDbLine
 10
-413.2901372136296
 20
298.1584043760558
 30
0.0
 11
-413.2901372136296
 21
335.1583284945102
 31
0.0
  0
LINE
  5
1A6
330
1F
100
AcDbEntity
  8
1-2ﾚｲﾔ
  6
Continuous
 62
     3
370
     9
100
AcDbLine
 10
-413.2901372136296
 20
341.1582493137669
 30
0.0
 11
-413.2901372136296
 21
385.1583697344806
 31
0.0
  0
LINE
  5
1A7
330
1F
100
AcDbEntity
  8
1-2ﾚｲﾔ
  6
Continuous
 62
     3
370
     9
100
AcDbLine
 10
-418.2904011494404
 20
298.1584043760558
 30
0.0
 11
-418.2904011494404
 21
335.1583284945102
 31
0.0
  0
LINE
  5
1A8
330
1F
100
AcDbEntity
  8
1-2ﾚｲﾔ
  6
Continuous
 62
     3
370
     9
100
AcDbLine
 10
-418.2904011494404
 20
341.1582493137669
 30
0.0
 11
-418.2904011494404
 21
385.1583697344806
 31
0.0
  0
LINE
  5
1A9
330
1F
100
AcDbEntity
  8
1-2ﾚｲﾔ
  6
Continuous
 62
     3
370
     9
100
AcDbLine
 10
-398.2901495856207
 20
298.1584043760558
 30
0.0
 11
-398.2901495856207
 21
335.1583284945102
 31
0.0
  0
LINE
  5
1AA
330
1F
100
AcDbEntity
  8
1-2ﾚｲﾔ
  6
Continuous
 62
     3
370
     9
100
AcDbLine
 10
-398.2901495856207
 20
341.1582493137669
 30
0.0
 11
-398.2901495856207
 21
385.1583697344806
 31
0.0
  0
LINE
  5
1AB
330
1F
100
AcDbEntity
  8
1-2ﾚｲﾔ
  6
Continuous
 62
     3
370
     9
100
AcDbLine
 10
-403.2904135214315
 20
298.1584043760558
 30
0.0
 11
-403.2904135214315
 21
335.1583284945102
 31
0.0
  0
LINE
  5
1AC
330
1F
100
AcDbEntity
  8
1-2ﾚｲﾔ
  6
Continuous
 62
     3
370
     9
100
AcDbLine
 10
-403.2904135214315
 20
341.1582493137669
 30
0.0
 11
-403.2904135214315
 21
385.1583697344806
 31
0.0
  0
LINE
  5
1AD
330
1F
100
AcDbEntity
  8
1-2ﾚｲﾔ
  6
Continuous
 62
     3
370
     9
100
AcDbLine
 10
-383.2901619576119
 20
298.1584043760558
 30
0.0
 11
-383.2901619576119
 21
335.1583284945102
 31
0.0
  0
LINE
  5
1AE
330
1F
100
AcDbEntity
  8
1-2ﾚｲﾔ
  6
Continuous
 62
     3
370
     9
100
AcDbLine
 10
-383.2901619576119
 20
341.1582493137669
 30
0.0
 11
-383.2901619576119
 21
385.1583697344806
 31
0.0
  0
LINE
  5
1AF
330
1F
100
AcDbEntity
  8
1-2ﾚｲﾔ
  6
Continuous
 62
     3
370
     9
100
AcDbLine
 10
-388.2904258934227
 20
298.1584043760558
 30
0.0
 11
-388.2904258934227
 21
335.1583284945102
 31
0.0
  0
LINE
  5
1B0
330
1F
100
AcDbEntity
  8
1-2ﾚｲﾔ
  6
Continuous
 62
     3
370
     9
100
AcDbLine
 10
-388.2904258934227
 20
341.1582493137669
 30
0.0
 11
-388.2904258934227
 21
385.1583697344806
 31
0.0
  0
LINE
  5
1B1
330
1F
100
AcDbEntity
  8
1-2ﾚｲﾔ
  6
Continuous
 62
     3
370
     9
100
AcDbLine
 10
-368.290174329603
 20
298.1584043760558
 30
0.0
 11
-368.290174329603
 21
335.1583284945102
 31
0.0
  0
LINE
  5
1B2
330
1F
100
AcDbEntity
  8
1-2ﾚｲﾔ
  6
Continuous
 62
     3
370
     9
100
AcDbLine
 10
-368.290174329603
 20
341.1582493137669
 30
0.0
 11
-368.290174329603
 21
385.1583697344806
 31
0.0
  0
LINE
  5
1B3
330
1F
100
AcDbEntity
  8
1-2ﾚｲﾔ
  6
Continuous
 62
     3
370
     9
100
AcDbLine
 10
-373.2904382654138
 20
298.1584043760558
 30
0.0
 11
-373.2904382654138
 21
335.1583284945102
 31
0.0
  0
LINE
  5
1B4
330
1F
100
AcDbEntity
  8
1-2ﾚｲﾔ
  6
Continuous
 62
     3
370
     9
100
AcDbLine
 10
-373.2904382654138
 20
341.1582493137669
 30
0.0
 11
-373.2904382654138
 21
385.1583697344806
 31
0.0
  0
LINE
  5
1B5
330
1F
100
AcDbEntity
  8
1-2ﾚｲﾔ
  6
Continuous
 62
     3
370
     9
100
AcDbLine
 10
-353.2901867015942
 20
298.1584043760558
 30
0.0
 11
-353.2901867015942
 21
335.1583284945102
 31
0.0
  0
LINE
  5
1B6
330
1F
100
AcDbEntity
  8
1-2ﾚｲﾔ
  6
Continuous
 62
     3
370
     9
100
AcDbLine
 10
-353.2901867015942
 20
341.1582493137669
 30
0.0
 11
-353.2901867015942
 21
385.1583697344806
 31
0.0
  0
LINE
  5
1B7
330
1F
100
AcDbEntity
  8
1-2ﾚｲﾔ
  6
Continuous
 62
     3
370
     9
100
AcDbLine
 10
-358.2904506374049
 20
298.1584043760558
 30
0.0
 11
-358.2904506374049
 21
335.1583284945102
 31
0.0
  0
LINE
  5
1B8
330
1F
100
AcDbEntity
  8
1-2ﾚｲﾔ
  6
Continuous
 62
     3
370
     9
100
AcDbLine
 10
-358.2904506374049
 20
341.1582493137669
 30
0.0
 11
-358.2904506374049
 21
385.1583697344806
 31
0.0
  0
LINE
  5
1B9
330
1F
100
AcDbEntity
  8
1-2ﾚｲﾔ
  6
Continuous
 62
     3
370
     9
100
AcDbLine
 10
-338.2901990735853
 20
298.1584043760558
 30
0.0
 11
-338.2901990735853
 21
335.1583284945102
 31
0.0
  0
LINE
  5
1BA
330
1F
100
AcDbEntity
  8
1-2ﾚｲﾔ
  6
Continuous
 62
     3
370
     9
100
AcDbLine
 10
-338.2901990735853
 20
341.1582493137669
 30
0.0
 11
-338.2901990735853
 21
385.1583697344806
 31
0.0
  0
LINE
  5
1BB
330
1F
100
AcDbEntity
  8
1-2ﾚｲﾔ
  6
Continuous
 62
     3
370
     9
100
AcDbLine
 10
-343.2904630093961
 20
298.1584043760558
 30
0.0
 11
-343.2904630093961
 21
335.1583284945102
 31
0.0
  0
LINE
  5
1BC
330
1F
100
AcDbEntity
  8
1-2ﾚｲﾔ
  6
Continuous
 62
     3
370
     9
100
AcDbLine
 10
-343.2904630093961
 20
341.1582493137669
 30
0.0
 11
-343.2904630093961
 21
385.1583697344806
 31
0.0
  0
LINE
  5
1BD
330
1F
100
AcDbEntity
  8
1-2ﾚｲﾔ
  6
Continuous
 62
     3
370
     9
100
AcDbLine
 10
-323.2902114455765
 20
298.1584043760558
 30
0.0
 11
-323.2902114455765
 21
335.1583284945102
 31
0.0
  0
LINE
  5
1BE
330
1F
100
AcDbEntity
  8
1-2ﾚｲﾔ
  6
Continuous
 62
     3
370
     9
100
AcDbLine
 10
-323.2902114455765
 20
341.1582493137669
 30
0.0
 11
-323.2902114455765
 21
385.1583697344806
 31
0.0
  0
LINE
  5
1BF
330
1F
100
AcDbEntity
  8
1-2ﾚｲﾔ
  6
Continuous
 62
     3
370
     9
100
AcDbLine
 10
-328.2904753813872
 20
298.1584043760558
 30
0.0
 11
-328.2904753813872
 21
335.1583284945102
 31
0.0
  0
LINE
  5
1C0
330
1F
100
AcDbEntity
  8
1-2ﾚｲﾔ
  6
Continuous
 62
     3
370
     9
100
AcDbLine
 10
-328.2904753813872
 20
341.1582493137669
 30
0.0
 11
-328.2904753813872
 21
385.1583697344806
 31
0.0
  0
LINE
  5
1C1
330
1F
100
AcDbEntity
  8
1-2ﾚｲﾔ
  6
Continuous
 62
     3
370
     9
100
AcDbLine
 10
-308.2902238175676
 20
298.1584043760558
 30
0.0
 11
-308.2902238175676
 21
335.1583284945102
 31
0.0
  0
LINE
  5
1C2
330
1F
100
AcDbEntity
  8
1-2ﾚｲﾔ
  6
Continuous
 62
     3
370
     9
100
AcDbLine
 10
-308.2902238175676
 20
341.1582493137669
 30
0.0
 11
-308.2902238175676
 21
385.1583697344806
 31
0.0
  0
LINE
  5
1C3
330
1F
100
AcDbEntity
  8
1-2ﾚｲﾔ
  6
Continuous
 62
     3
370
     9
100
AcDbLine
 10
-313.2904877533784
 20
298.1584043760558
 30
0.0
 11
-313.2904877533784
 21
335.1583284945102
 31
0.0
  0
LINE
  5
1C4
330
1F
100
AcDbEntity
  8
1-2ﾚｲﾔ
  6
Continuous
 62
     3
370
     9
100
AcDbLine
 10
-313.2904877533784
 20
341.1582493137669
 30
0.0
 11
-313.2904877533784
 21
385.1583697344806
 31
0.0
  0
LINE
  5
1C5
330
1F
100
AcDbEntity
  8
1-2ﾚｲﾔ
  6
Continuous
 62
     3
370
     9
100
AcDbLine
 10
-293.2902361895588
 20
298.1584043760558
 30
0.0
 11
-293.2902361895588
 21
335.1583284945102
 31
0.0
  0
LINE
  5
1C6
330
1F
100
AcDbEntity
  8
1-2ﾚｲﾔ
  6
Continuous
 62
     3
370
     9
100
AcDbLine
 10
-293.2902361895588
 20
341.1582493137669
 30
0.0
 11
-293.2902361895588
 21
385.1583697344806
 31
0.0
  0
LINE
  5
1C7
330
1F
100
AcDbEntity
  8
1-2ﾚｲﾔ
  6
Continuous
 62
     3
370
     9
100
AcDbLine
 10
-298.2905001253695
 20
298.1584043760558
 30
0.0
 11
-298.2905001253695
 21
335.1583284945102
 31
0.0
  0
LINE
  5
1C8
330
1F
100
AcDbEntity
  8
1-2ﾚｲﾔ
  6
Continuous
 62
     3
370
     9
100
AcDbLine
 10
-298.2905001253695
 20
341.1582493137669
 30
0.0
 11
-298.2905001253695
 21
385.1583697344806
 31
0.0
  0
LINE
  5
1C9
330
1F
100
AcDbEntity
  8
1-2ﾚｲﾔ
  6
Continuous
 62
     3
370
     9
100
AcDbLine
 10
-278.2902485615497
 20
298.1584043760558
 30
0.0
 11
-278.2902485615497
 21
335.1583284945102
 31
0.0
  0
LINE
  5
1CA
330
1F
100
AcDbEntity
  8
1-2ﾚｲﾔ
  6
Continuous
 62
     3
370
     9
100
AcDbLine
 10
-278.2902485615497
 20
341.1582493137669
 30
0.0
 11
-278.2902485615497
 21
385.1583697344806
 31
0.0
  0
LINE
  5
1CB
330
1F
100
AcDbEntity
  8
1-2ﾚｲﾔ
  6
Continuous
 62
     3
370
     9
100
AcDbLine
 10
-283.2905124973605
 20
298.1584043760558
 30
0.0
 11
-283.2905124973605
 21
335.1583284945102
 31
0.0
  0
LINE
  5
1CC
330
1F
100
AcDbEntity
  8
1-2ﾚｲﾔ
  6
Continuous
 62
     3
370
     9
100
AcDbLine
 10
-283.2905124973605
 20
341.1582493137669
 30
0.0
 11
-283.2905124973605
 21
385.1583697344806
 31
0.0
  0
LINE
  5
1CD
330
1F
100
AcDbEntity
  8
1-2ﾚｲﾔ
  6
Continuous
 62
     3
370
     9
100
AcDbLine
 10
-263.2902609335409
 20
298.1584043760558
 30
0.0
 11
-263.2902609335409
 21
335.1583284945102
 31
0.0
  0
LINE
  5
1CE
330
1F
100
AcDbEntity
  8
1-2ﾚｲﾔ
  6
Continuous
 62
     3
370
     9
100
AcDbLine
 10
-263.2902609335409
 20
341.1582493137669
 30
0.0
 11
-263.2902609335409
 21
385.1583697344806
 31
0.0
  0
LINE
  5
1CF
330
1F
100
AcDbEntity
  8
1-2ﾚｲﾔ
  6
Continuous
 62
     3
370
     9
100
AcDbLine
 10
-268.2905248693517
 20
298.1584043760558
 30
0.0
 11
-268.2905248693517
 21
335.1583284945102
 31
0.0
  0
LINE
  5
1D0
330
1F
100
AcDbEntity
  8
1-2ﾚｲﾔ
  6
Continuous
 62
     3
370
     9
100
AcDbLine
 10
-268.2905248693517
 20
341.1582493137669
 30
0.0
 11
-268.2905248693517
 21
385.1583697344806
 31
0.0
  0
LINE
  5
1D1
330
1F
100
AcDbEntity
  8
1-2ﾚｲﾔ
  6
Continuous
 62
     3
370
     9
100
AcDbLine
 10
-248.290273305532
 20
298.1584043760558
 30
0.0
 11
-248.290273305532
 21
335.1583284945102
 31
0.0
  0
LINE
  5
1D2
330
1F
100
AcDbEntity
  8
1-2ﾚｲﾔ
  6
Continuous
 62
     3
370
     9
100
AcDbLine
 10
-248.290273305532
 20
341.1582493137669
 30
0.0
 11
-248.290273305532
 21
385.1583697344806
 31
0.0
  0
LINE
  5
1D3
330
1F
100
AcDbEntity
  8
1-2ﾚｲﾔ
  6
Continuous
 62
     3
370
     9
100
AcDbLine
 10
-253.2905372413428
 20
298.1584043760558
 30
0.0
 11
-253.2905372413428
 21
335.1583284945102
 31
0.0
  0
LINE
  5
1D4
330
1F
100
AcDbEntity
  8
1-2ﾚｲﾔ
  6
Continuous
 62
     3
370
     9
100
AcDbLine
 10
-253.2905372413428
 20
341.1582493137669
 30
0.0
 11
-253.2905372413428
 21
385.1583697344806
 31
0.0
  0
LINE
  5
1D5
330
1F
100
AcDbEntity
  8
1-2ﾚｲﾔ
  6
Continuous
 62
     3
370
     9
100
AcDbLine
 10
-233.2902856775232
 20
298.1584043760558
 30
0.0
 11
-233.2902856775232
 21
335.1583284945102
 31
0.0
  0
LINE
  5
1D6
330
1F
100
AcDbEntity
  8
1-2ﾚｲﾔ
  6
Continuous
 62
     3
370
     9
100
AcDbLine
 10
-233.2902856775232
 20
341.1582493137669
 30
0.0
 11
-233.2902856775232
 21
385.1583697344806
 31
0.0
  0
LINE
  5
1D7
330
1F
100
AcDbEntity
  8
1-2ﾚｲﾔ
  6
Continuous
 62
     3
370
     9
100
AcDbLine
 10
-238.290549613334
 20
298.1584043760558
 30
0.0
 11
-238.290549613334
 21
335.1583284945102
 31
0.0
  0
LINE
  5
1D8
330
1F
100
AcDbEntity
  8
1-2ﾚｲﾔ
  6
Continuous
 62
     3
370
     9
100
AcDbLine
 10
-238.290549613334
 20
341.1582493137669
 30
0.0
 11
-238.290549613334
 21
385.1583697344806
 31
0.0
  0
LINE
  5
1D9
330
1F
100
AcDbEntity
  8
1-2ﾚｲﾔ
  6
Continuous
 62
     3
370
     9
100
AcDbLine
 10
-218.2902980495143
 20
298.1584043760558
 30
0.0
 11
-218.2902980495143
 21
335.1583284945102
 31
0.0
  0
LINE
  5
1DA
330
1F
100
AcDbEntity
  8
1-2ﾚｲﾔ
  6
Continuous
 62
     3
370
     9
100
AcDbLine
 10
-218.2902980495143
 20
341.1582493137669
 30
0.0
 11
-218.2902980495143
 21
385.1583697344806
 31
0.0
  0
LINE
  5
1DB
330
1F
100
AcDbEntity
  8
1-2ﾚｲﾔ
  6
Continuous
 62
     3
370
     9
100
AcDbLine
 10
-223.2905619853251
 20
298.1584043760558
 30
0.0
 11
-223.2905619853251
 21
335.1583284945102
 31
0.0
  0
LINE
  5
1DC
330
1F
100
AcDbEntity
  8
1-2ﾚｲﾔ
  6
Continuous
 62
     3
370
     9
100
AcDbLine
 10
-223.2905619853251
 20
341.1582493137669
 30
0.0
 11
-223.2905619853251
 21
385.1583697344806
 31
0.0
  0
LINE
  5
1DD
330
1F
100
AcDbEntity
  8
1-2ﾚｲﾔ
  6
Continuous
 62
     3
370
     9
100
AcDbLine
 10
-203.2903104215055
 20
298.1584043760558
 30
0.0
 11
-203.2903104215055
 21
335.1583284945102
 31
0.0
  0
LINE
  5
1DE
330
1F
100
AcDbEntity
  8
1-2ﾚｲﾔ
  6
Continuous
 62
     3
370
     9
100
AcDbLine
 10
-203.2903104215055
 20
341.1582493137669
 30
0.0
 11
-203.2903104215055
 21
385.1583697344806
 31
0.0
  0
LINE
  5
1DF
330
1F
100
AcDbEntity
  8
1-2ﾚｲﾔ
  6
Continuous
 62
     3
370
     9
100
AcDbLine
 10
-208.2905743573163
 20
298.1584043760558
 30
0.0
 11
-208.2905743573163
 21
335.1583284945102
 31
0.0
  0
LINE
  5
1E0
330
1F
100
AcDbEntity
  8
1-2ﾚｲﾔ
  6
Continuous
 62
     3
370
     9
100
AcDbLine
 10
-208.2905743573163
 20
341.1582493137669
 30
0.0
 11
-208.2905743573163
 21
385.1583697344806
 31
0.0
  0
LINE
  5
1E1
330
1F
100
AcDbEntity
  8
1-2ﾚｲﾔ
  6
Continuous
 62
     3
370
     9
100
AcDbLine
 10
-188.2903227934966
 20
298.1584043760558
 30
0.0
 11
-188.2903227934966
 21
335.1583284945102
 31
0.0
  0
LINE
  5
1E2
330
1F
100
AcDbEntity
  8
1-2ﾚｲﾔ
  6
Continuous
 62
     3
370
     9
100
AcDbLine
 10
-188.2903227934966
 20
341.1582493137669
 30
0.0
 11
-188.2903227934966
 21
385.1583697344806
 31
0.0
  0
LINE
  5
1E3
330
1F
100
AcDbEntity
  8
1-2ﾚｲﾔ
  6
Continuous
 62
     3
370
     9
100
AcDbLine
 10
-193.2905867293074
 20
298.1584043760558
 30
0.0
 11
-193.2905867293074
 21
335.1583284945102
 31
0.0
  0
LINE
  5
1E4
330
1F
100
AcDbEntity
  8
1-2ﾚｲﾔ
  6
Continuous
 62
     3
370
     9
100
AcDbLine
 10
-193.2905867293074
 20
341.1582493137669
 30
0.0
 11
-193.2905867293074
 21
385.1583697344806
 31
0.0
  0
LINE
  5
1E5
330
1F
100
AcDbEntity
  8
1-2ﾚｲﾔ
  6
Continuous
 62
     3
370
     9
100
AcDbLine
 10
-173.2903351654878
 20
298.1584043760558
 30
0.0
 11
-173.2903351654878
 21
335.1583284945102
 31
0.0
  0
LINE
  5
1E6
330
1F
100
AcDbEntity
  8
1-2ﾚｲﾔ
  6
Continuous
 62
     3
370
     9
100
AcDbLine
 10
-173.2903351654878
 20
341.1582493137669
 30
0.0
 11
-173.2903351654878
 21
385.1583697344806
 31
0.0
  0
LINE
  5
1E7
330
1F
100
AcDbEntity
  8
1-2ﾚｲﾔ
  6
Continuous
 62
     3
370
     9
100
AcDbLine
 10
-178.2905991012986
 20
298.1584043760558
 30
0.0
 11
-178.2905991012986
 21
335.1583284945102
 31
0.0
  0
LINE
  5
1E8
330
1F
100
AcDbEntity
  8
1-2ﾚｲﾔ
  6
Continuous
 62
     3
370
     9
100
AcDbLine
 10
-178.2905991012986
 20
341.1582493137669
 30
0.0
 11
-178.2905991012986
 21
385.1583697344806
 31
0.0
  0
LINE
  5
1E9
330
1F
100
AcDbEntity
  8
1-2ﾚｲﾔ
  6
Continuous
 62
     3
370
     9
100
AcDbLine
 10
-158.2903475374788
 20
298.1584043760558
 30
0.0
 11
-158.2903475374788
 21
335.1583284945102
 31
0.0
  0
LINE
  5
1EA
330
1F
100
AcDbEntity
  8
1-2ﾚｲﾔ
  6
Continuous
 62
     3
370
     9
100
AcDbLine
 10
-158.2903475374788
 20
341.1582493137669
 30
0.0
 11
-158.2903475374788
 21
385.1583697344806
 31
0.0
  0
LINE
  5
1EB
330
1F
100
AcDbEntity
  8
1-2ﾚｲﾔ
  6
Continuous
 62
     3
370
     9
100
AcDbLine
 10
-163.2906114732897
 20
298.1584043760558
 30
0.0
 11
-163.2906114732897
 21
335.1583284945102
 31
0.0
  0
LINE
  5
1EC
330
1F
100
AcDbEntity
  8
1-2ﾚｲﾔ
  6
Continuous
 62
     3
370
     9
100
AcDbLine
 10
-163.2906114732897
 20
341.1582493137669
 30
0.0
 11
-163.2906114732897
 21
385.1583697344806
 31
0.0
  0
LINE
  5
1ED
330
1F
100
AcDbEntity
  8
1-2ﾚｲﾔ
  6
Continuous
 62
     3
370
     9
100
AcDbLine
 10
-143.2903599094699
 20
298.1584043760558
 30
0.0
 11
-143.2903599094699
 21
335.1583284945102
 31
0.0
  0
LINE
  5
1EE
330
1F
100
AcDbEntity
  8
1-2ﾚｲﾔ
  6
Continuous
 62
     3
370
     9
100
AcDbLine
 10
-143.2903599094699
 20
341.1582493137669
 30
0.0
 11
-143.2903599094699
 21
385.1583697344806
 31
0.0
  0
LINE
  5
1EF
330
1F
100
AcDbEntity
  8
1-2ﾚｲﾔ
  6
Continuous
 62
     3
370
     9
100
AcDbLine
 10
-148.2906238452807
 20
298.1584043760558
 30
0.0
 11
-148.2906238452807
 21
335.1583284945102
 31
0.0
  0
LINE
  5
1F0
330
1F
100
AcDbEntity
  8
1-2ﾚｲﾔ
  6
Continuous
 62
     3
370
     9
100
AcDbLine
 10
-148.2906238452807
 20
341.1582493137669
 30
0.0
 11
-148.2906238452807
 21
385.1583697344806
 31
0.0
  0
LINE
  5
1F1
330
1F
100
AcDbEntity
  8
1-2ﾚｲﾔ
  6
Continuous
 62
     3
370
     9
100
AcDbLine
 10
-128.2903722814611
 20
298.1584043760558
 30
0.0
 11
-128.2903722814611
 21
335.1583284945102
 31
0.0
  0
LINE
  5
1F2
330
1F
100
AcDbEntity
  8
1-2ﾚｲﾔ
  6
Continuous
 62
     3
370
     9
100
AcDbLine
 10
-128.2903722814611
 20
341.1582493137669
 30
0.0
 11
-128.2903722814611
 21
385.1583697344806
 31
0.0
  0
LINE
  5
1F3
330
1F
100
AcDbEntity
  8
1-2ﾚｲﾔ
  6
Continuous
 62
     3
370
     9
100
AcDbLine
 10
-133.2906362172719
 20
298.1584043760558
 30
0.0
 11
-133.2906362172719
 21
335.1583284945102
 31
0.0
  0
LINE
  5
1F4
330
1F
100
AcDbEntity
  8
1-2ﾚｲﾔ
  6
Continuous
 62
     3
370
     9
100
AcDbLine
 10
-133.2906362172719
 20
341.1582493137669
 30
0.0
 11
-133.2906362172719
 21
385.1583697344806
 31
0.0
  0
LINE
  5
1F5
330
1F
100
AcDbEntity
  8
1-2ﾚｲﾔ
  6
Continuous
 62
     3
370
     9
100
AcDbLine
 10
-113.2903846534522
 20
298.1584043760558
 30
0.0
 11
-113.2903846534522
 21
335.1583284945102
 31
0.0
  0
LINE
  5
1F6
330
1F
100
AcDbEntity
  8
1-2ﾚｲﾔ
  6
Continuous
 62
     3
370
     9
100
AcDbLine
 10
-113.2903846534522
 20
341.1582493137669
 30
0.0
 11
-113.2903846534522
 21
385.1583697344806
 31
0.0
  0
LINE
  5
1F7
330
1F
100
AcDbEntity
  8
1-2ﾚｲﾔ
  6
Continuous
 62
     3
370
     9
100
AcDbLine
 10
-118.290648589263
 20
298.1584043760558
 30
0.0
 11
-118.290648589263
 21
335.1583284945102
 31
0.0
  0
LINE
  5
1F8
330
1F
100
AcDbEntity
  8
1-2ﾚｲﾔ
  6
Continuous
 62
     3
370
     9
100
AcDbLine
 10
-118.290648589263
 20
341.1582493137669
 30
0.0
 11
-118.290648589263
 21
385.1583697344806
 31
0.0
  0
LINE
  5
1F9
330
1F
100
AcDbEntity
  8
1-2ﾚｲﾔ
  6
Continuous
 62
     3
370
     9
100
AcDbLine
 10
-98.29039702544335
 20
298.1584043760558
 30
0.0
 11
-98.29039702544335
 21
335.1583284945102
 31
0.0
  0
LINE
  5
1FA
330
1F
100
AcDbEntity
  8
1-2ﾚｲﾔ
  6
Continuous
 62
     3
370
     9
100
AcDbLine
 10
-98.29039702544335
 20
341.1582493137669
 30
0.0
 11
-98.29039702544335
 21
385.1583697344806
 31
0.0
  0
LINE
  5
1FB
330
1F
100
AcDbEntity
  8
1-2ﾚｲﾔ
  6
Continuous
 62
     3
370
     9
100
AcDbLine
 10
-103.2906609612542
 20
298.1584043760558
 30
0.0
 11
-103.2906609612542
 21
335.1583284945102
 31
0.0
  0
LINE
  5
1FC
330
1F
100
AcDbEntity
  8
1-2ﾚｲﾔ
  6
Continuous
 62
     3
370
     9
100
AcDbLine
 10
-103.2906609612542
 20
341.1582493137669
 30
0.0
 11
-103.2906609612542
 21
385.1583697344806
 31
0.0
  0
LINE
  5
1FD
330
1F
100
AcDbEntity
  8
1-2ﾚｲﾔ
  6
Continuous
 62
     3
370
     9
100
AcDbLine
 10
-83.2904712573901
 20
298.1584043760558
 30
0.0
 11
-83.2904712573901
 21
335.1583284945102
 31
0.0
  0
LINE
  5
1FE
330
1F
100
AcDbEntity
  8
1-2ﾚｲﾔ
  6
Continuous
 62
     3
370
     9
100
AcDbLine
 10
-83.2904712573901
 20
341.1582493137669
 30
0.0
 11
-83.2904712573901
 21
385.1583697344806
 31
0.0
  0
LINE
  5
1FF
330
1F
100
AcDbEntity
  8
1-2ﾚｲﾔ
  6
Continuous
 62
     3
370
     9
100
AcDbLine
 10
-88.29067333324531
 20
298.1584043760558
 30
0.0
 11
-88.29067333324531
 21
335.1583284945102
 31
0.0
  0
LINE
  5
200
330
1F
100
AcDbEntity
  8
1-2ﾚｲﾔ
  6
Continuous
 62
     3
370
     9
100
AcDbLine
 10
-88.29067333324531
 20
341.1582493137669
 30
0.0
 11
-88.29067333324531
 21
385.1583697344806
 31
0.0
  0
LINE
  5
201
330
1F
100
AcDbEntity
  8
1-2ﾚｲﾔ
  6
Continuous
 62
     3
370
     9
100
AcDbLine
 10
-68.29042176942565
 20
298.1584043760558
 30
0.0
 11
-68.29042176942565
 21
335.1583284945102
 31
0.0
  0
LINE
  5
202
330
1F
100
AcDbEntity
  8
1-2ﾚｲﾔ
  6
Continuous
 62
     3
370
     9
100
AcDbLine
 10
-68.29042176942565
 20
341.1582493137669
 30
0.0
 11
-68.29042176942565
 21
385.1583697344806
 31
0.0
  0
LINE
  5
203
330
1F
100
AcDbEntity
  8
1-2ﾚｲﾔ
  6
Continuous
 62
     3
370
     9
100
AcDbLine
 10
-73.29068570523646
 20
298.1584043760558
 30
0.0
 11
-73.29068570523646
 21
335.1583284945102
 31
0.0
  0
LINE
  5
204
330
1F
100
AcDbEntity
  8
1-2ﾚｲﾔ
  6
Continuous
 62
     3
370
     9
100
AcDbLine
 10
-73.29068570523646
 20
341.1582493137669
 30
0.0
 11
-73.29068570523646
 21
385.1583697344806
 31
0.0
  0
LINE
  5
205
330
1F
100
AcDbEntity
  8
1-2ﾚｲﾔ
  6
Continuous
 62
     3
370
     9
100
AcDbLine
 10
-53.2904341414168
 20
298.1584043760558
 30
0.0
 11
-53.2904341414168
 21
335.1583284945102
 31
0.0
  0
LINE
  5
206
330
1F
100
AcDbEntity
  8
1-2ﾚｲﾔ
  6
Continuous
 62
     3
370
     9
100
AcDbLine
 10
-53.2904341414168
 20
341.1582493137669
 30
0.0
 11
-53.2904341414168
 21
385.1583697344806
 31
0.0
  0
LINE
  5
207
330
1F
100
AcDbEntity
  8
1-2ﾚｲﾔ
  6
Continuous
 62
     3
370
     9
100
AcDbLine
 10
-58.2906980772276
 20
298.1584043760558
 30
0.0
 11
-58.2906980772276
 21
335.1583284945102
 31
0.0
  0
LINE
  5
208
330
1F
100
AcDbEntity
  8
1-2ﾚｲﾔ
  6
Continuous
 62
     3
370
     9
100
AcDbLine
 10
-58.2906980772276
 20
341.1582493137669
 30
0.0
 11
-58.2906980772276
 21
385.1583697344806
 31
0.0
  0
LINE
  5
209
330
1F
100
AcDbEntity
  8
1-2ﾚｲﾔ
  6
Continuous
 62
     3
370
     9
100
AcDbLine
 10
-38.29044651340794
 20
298.1584043760558
 30
0.0
 11
-38.29044651340794
 21
335.1583284945102
 31
0.0
  0
LINE
  5
20A
330
1F
100
AcDbEntity
  8
1-2ﾚｲﾔ
  6
Continuous
 62
     3
370
     9
100
AcDbLine
 10
-38.29044651340794
 20
341.1582493137669
 30
0.0
 11
-38.29044651340794
 21
385.1583697344806
 31
0.0
  0
LINE
  5
20B
330
1F
100
AcDbEntity
  8
1-2ﾚｲﾔ
  6
Continuous
 62
     3
370
     9
100
AcDbLine
 10
-43.29071044921875
 20
298.1584043760558
 30
0.0
 11
-43.29071044921875
 21
335.1583284945102
 31
0.0
  0
LINE
  5
20C
330
1F
100
AcDbEntity
  8
1-2ﾚｲﾔ
  6
Continuous
 62
     3
370
     9
100
AcDbLine
 10
-43.29071044921875
 20
341.1582493137669
 30
0.0
 11
-43.29071044921875
 21
385.1583697344806
 31
0.0
  0
LINE
  5
20D
330
1F
100
AcDbEntity
  8
1-2ﾚｲﾔ
  6
Continuous
 62
     3
370
     9
100
AcDbLine
 10
-23.29052074535468
 20
298.1584043760558
 30
0.0
 11
-23.29052074535468
 21
335.1583284945102
 31
0.0
  0
LINE
  5
20E
330
1F
100
AcDbEntity
  8
1-2ﾚｲﾔ
  6
Continuous
 62
     3
370
     9
100
AcDbLine
 10
-23.29052074535468
 20
341.1582493137669
 30
0.0
 11
-23.29052074535468
 21
385.1583697344806
 31
0.0
  0
LINE
  5
20F
330
1F
100
AcDbEntity
  8
1-2ﾚｲﾔ
  6
Continuous
 62
     3
370
     9
100
AcDbLine
 10
-28.29078468116549
 20
298.1584043760558
 30
0.0
 11
-28.29078468116549
 21
335.1583284945102
 31
0.0
  0
LINE
  5
210
330
1F
100
AcDbEntity
  8
1-2ﾚｲﾔ
  6
Continuous
 62
     3
370
     9
100
AcDbLine
 10
-28.29078468116549
 20
341.1582493137669
 30
0.0
 11
-28.29078468116549
 21
385.1583697344806
 31
0.0
  0
LINE
  5
211
330
1F
100
AcDbEntity
  8
1-2ﾚｲﾔ
  6
Continuous
 62
     3
370
     9
100
AcDbLine
 10
-8.290471257390095
 20
298.1584043760558
 30
0.0
 11
-8.290471257390095
 21
335.1583284945102
 31
0.0
  0
LINE
  5
212
330
1F
100
AcDbEntity
  8
1-2ﾚｲﾔ
  6
Continuous
 62
     3
370
     9
100
AcDbLine
 10
-8.290471257390095
 20
341.1582493137669
 30
0.0
 11
-8.290471257390095
 21
385.1583697344806
 31
0.0
  0
LINE
  5
213
330
1F
100
AcDbEntity
  8
1-2ﾚｲﾔ
  6
Continuous
 62
     3
370
     9
100
AcDbLine
 10
-13.2907351932009
 20
298.1584043760558
 30
0.0
 11
-13.2907351932009
 21
335.1583284945102
 31
0.0
  0
LINE
  5
214
330
1F
100
AcDbEntity
  8
1-2ﾚｲﾔ
  6
Continuous
 62
     3
370
     9
100
AcDbLine
 10
-13.2907351932009
 20
341.1582493137669
 30
0.0
 11
-13.2907351932009
 21
385.1583697344806
 31
0.0
  0
LINE
  5
215
330
1F
100
AcDbEntity
  8
1-2ﾚｲﾔ
  6
Continuous
 62
     3
370
     9
100
AcDbLine
 10
6.709578230574351
 20
298.1584043760558
 30
0.0
 11
6.709578230574351
 21
335.1583284945102
 31
0.0
  0
LINE
  5
216
330
1F
100
AcDbEntity
  8
1-2ﾚｲﾔ
  6
Continuous
 62
     3
370
     9
100
AcDbLine
 10
6.709578230574351
 20
341.1582493137669
 30
0.0
 11
6.709578230574351
 21
385.1583697344806
 31
0.0
  0
LINE
  5
217
330
1F
100
AcDbEntity
  8
1-2ﾚｲﾔ
  6
Continuous
 62
     3
370
     9
100
AcDbLine
 10
1.709314294763544
 20
298.1584043760558
 30
0.0
 11
1.709314294763544
 21
335.1583284945102
 31
0.0
  0
LINE
  5
218
330
1F
100
AcDbEntity
  8
1-2ﾚｲﾔ
  6
Continuous
 62
     3
370
     9
100
AcDbLine
 10
1.709314294763544
 20
341.1582493137669
 30
0.0
 11
1.709314294763544
 21
385.1583697344806
 31
0.0
  0
LINE
  5
219
330
1F
100
AcDbEntity
  8
1-2ﾚｲﾔ
  6
Continuous
 62
     3
370
     9
100
AcDbLine
 10
21.70950399862761
 20
298.1584043760558
 30
0.0
 11
21.70950399862761
 21
335.1583284945102
 31
0.0
  0
LINE
  5
21A
330
1F
100
AcDbEntity
  8
1-2ﾚｲﾔ
  6
Continuous
 62
     3
370
     9
100
AcDbLine
 10
21.70950399862761
 20
341.1582493137669
 30
0.0
 11
21.70950399862761
 21
385.1583697344806
 31
0.0
  0
LINE
  5
21B
330
1F
100
AcDbEntity
  8
1-2ﾚｲﾔ
  6
Continuous
 62
     3
370
     9
100
AcDbLine
 10
16.7092400628168
 20
298.1584043760558
 30
0.0
 11
16.7092400628168
 21
335.1583284945102
 31
0.0
  0
LINE
  5
21C
330
1F
100
AcDbEntity
  8
1-2ﾚｲﾔ
  6
Continuous
 62
     3
370
     9
100
AcDbLine
 10
16.7092400628168
 20
341.1582493137669
 30
0.0
 11
16.7092400628168
 21
385.1583697344806
 31
0.0
  0
LINE
  5
21D
330
1F
100
AcDbEntity
  8
1-2ﾚｲﾔ
  6
Continuous
 62
     3
370
     9
100
AcDbLine
 10
36.70942976668087
 20
298.1584043760558
 30
0.0
 11
36.70942976668087
 21
335.1583284945102
 31
0.0
  0
LINE
  5
21E
330
1F
100
AcDbEntity
  8
1-2ﾚｲﾔ
  6
Continuous
 62
     3
370
     9
100
AcDbLine
 10
36.70942976668087
 20
341.1582493137669
 30
0.0
 11
36.70942976668087
 21
385.1583697344806
 31
0.0
  0
LINE
  5
21F
330
1F
100
AcDbEntity
  8
1-2ﾚｲﾔ
  6
Continuous
 62
     3
370
     9
100
AcDbLine
 10
31.70916583087006
 20
298.1584043760558
 30
0.0
 11
31.70916583087006
 21
335.1583284945102
 31
0.0
  0
LINE
  5
220
330
1F
100
AcDbEntity
  8
1-2ﾚｲﾔ
  6
Continuous
 62
     3
370
     9
100
AcDbLine
 10
31.70916583087006
 20
341.1582493137669
 30
0.0
 11
31.70916583087006
 21
385.1583697344806
 31
0.0
  0
LINE
  5
221
330
1F
100
AcDbEntity
  8
1-2ﾚｲﾔ
  6
Continuous
 62
     3
370
     9
100
AcDbLine
 10
51.70947925464532
 20
298.1584043760558
 30
0.0
 11
51.70947925464532
 21
335.1583284945102
 31
0.0
  0
LINE
  5
222
330
1F
100
AcDbEntity
  8
1-2ﾚｲﾔ
  6
Continuous
 62
     3
370
     9
100
AcDbLine
 10
51.70947925464532
 20
341.1582493137669
 30
0.0
 11
51.70947925464532
 21
385.1583697344806
 31
0.0
  0
LINE
  5
223
330
1F
100
AcDbEntity
  8
1-2ﾚｲﾔ
  6
Continuous
 62
     3
370
     9
100
AcDbLine
 10
46.70921531883451
 20
298.1584043760558
 30
0.0
 11
46.70921531883451
 21
335.1583284945102
 31
0.0
  0
LINE
  5
224
330
1F
100
AcDbEntity
  8
1-2ﾚｲﾔ
  6
Continuous
 62
     3
370
     9
100
AcDbLine
 10
46.70921531883451
 20
341.1582493137669
 30
0.0
 11
46.70921531883451
 21
385.1583697344806
 31
0.0
  0
LINE
  5
225
330
1F
100
AcDbEntity
  8
1-2ﾚｲﾔ
  6
Continuous
 62
     3
370
     9
100
AcDbLine
 10
66.7095287426099
 20
298.1584043760558
 30
0.0
 11
66.7095287426099
 21
335.1583284945102
 31
0.0
  0
LINE
  5
226
330
1F
100
AcDbEntity
  8
1-2ﾚｲﾔ
  6
Continuous
 62
     3
370
     9
100
AcDbLine
 10
66.7095287426099
 20
341.1582493137669
 30
0.0
 11
66.7095287426099
 21
385.1583697344806
 31
0.0
  0
LINE
  5
227
330
1F
100
AcDbEntity
  8
1-2ﾚｲﾔ
  6
Continuous
 62
     3
370
     9
100
AcDbLine
 10
61.7092648067991
 20
298.1584043760558
 30
0.0
 11
61.7092648067991
 21
335.1583284945102
 31
0.0
  0
LINE
  5
228
330
1F
100
AcDbEntity
  8
1-2ﾚｲﾔ
  6
Continuous
 62
     3
370
     9
100
AcDbLine
 10
61.7092648067991
 20
341.1582493137669
 30
0.0
 11
61.7092648067991
 21
385.1583697344806
 31
0.0
  0
LINE
  5
229
330
1F
100
AcDbEntity
  8
1-2ﾚｲﾔ
  6
Continuous
 62
     3
370
     9
100
AcDbLine
 10
81.70945451066302
 20
298.1584043760558
 30
0.0
 11
81.70945451066302
 21
335.1583284945102
 31
0.0
  0
LINE
  5
22A
330
1F
100
AcDbEntity
  8
1-2ﾚｲﾔ
  6
Continuous
 62
     3
370
     9
100
AcDbLine
 10
81.70945451066302
 20
341.1582493137669
 30
0.0
 11
81.70945451066302
 21
385.1583697344806
 31
0.0
  0
LINE
  5
22B
330
1F
100
AcDbEntity
  8
1-2ﾚｲﾔ
  6
Continuous
 62
     3
370
     9
100
AcDbLine
 10
76.70919057485222
 20
298.1584043760558
 30
0.0
 11
76.70919057485222
 21
335.1583284945102
 31
0.0
  0
LINE
  5
22C
330
1F
100
AcDbEntity
  8
1-2ﾚｲﾔ
  6
Continuous
 62
     3
370
     9
100
AcDbLine
 10
76.70919057485222
 20
341.1582493137669
 30
0.0
 11
76.70919057485222
 21
385.1583697344806
 31
0.0
  0
LINE
  5
22D
330
1F
100
AcDbEntity
  8
1-2ﾚｲﾔ
  6
Continuous
 62
     3
370
     9
100
AcDbLine
 10
96.70938027871628
 20
298.1584043760558
 30
0.0
 11
96.70938027871628
 21
335.1583284945102
 31
0.0
  0
LINE
  5
22E
330
1F
100
AcDbEntity
  8
1-2ﾚｲﾔ
  6
Continuous
 62
     3
370
     9
100
AcDbLine
 10
96.70938027871628
 20
341.1582493137669
 30
0.0
 11
96.70938027871628
 21
385.1583697344806
 31
0.0
  0
LINE
  5
22F
330
1F
100
AcDbEntity
  8
1-2ﾚｲﾔ
  6
Continuous
 62
     3
370
     9
100
AcDbLine
 10
91.70911634290547
 20
298.1584043760558
 30
0.0
 11
91.70911634290547
 21
335.1583284945102
 31
0.0
  0
LINE
  5
230
330
1F
100
AcDbEntity
  8
1-2ﾚｲﾔ
  6
Continuous
 62
     3
370
     9
100
AcDbLine
 10
91.70911634290547
 20
341.1582493137669
 30
0.0
 11
91.70911634290547
 21
385.1583697344806
 31
0.0
  0
LINE
  5
231
330
1F
100
AcDbEntity
  8
1-2ﾚｲﾔ
  6
Continuous
 62
     3
370
     9
100
AcDbLine
 10
111.7094297666809
 20
298.1584043760558
 30
0.0
 11
111.7094297666809
 21
335.1583284945102
 31
0.0
  0
LINE
  5
232
330
1F
100
AcDbEntity
  8
1-2ﾚｲﾔ
  6
Continuous
 62
     3
370
     9
100
AcDbLine
 10
111.7094297666809
 20
341.1582493137669
 30
0.0
 11
111.7094297666809
 21
385.1583697344806
 31
0.0
  0
LINE
  5
233
330
1F
100
AcDbEntity
  8
1-2ﾚｲﾔ
  6
Continuous
 62
     3
370
     9
100
AcDbLine
 10
106.7091658308701
 20
298.1584043760558
 30
0.0
 11
106.7091658308701
 21
335.1583284945102
 31
0.0
  0
LINE
  5
234
330
1F
100
AcDbEntity
  8
1-2ﾚｲﾔ
  6
Continuous
 62
     3
370
     9
100
AcDbLine
 10
106.7091658308701
 20
341.1582493137669
 30
0.0
 11
106.7091658308701
 21
385.1583697344806
 31
0.0
  0
LINE
  5
235
330
1F
100
AcDbEntity
  8
1-2ﾚｲﾔ
  6
Continuous
 62
     3
370
     9
100
AcDbLine
 10
126.7094792546453
 20
298.1584043760558
 30
0.0
 11
126.7094792546453
 21
335.1583284945102
 31
0.0
  0
LINE
  5
236
330
1F
100
AcDbEntity
  8
1-2ﾚｲﾔ
  6
Continuous
 62
     3
370
     9
100
AcDbLine
 10
126.7094792546453
 20
341.1582493137669
 30
0.0
 11
126.7094792546453
 21
385.1583697344806
 31
0.0
  0
LINE
  5
237
330
1F
100
AcDbEntity
  8
1-2ﾚｲﾔ
  6
Continuous
 62
     3
370
     9
100
AcDbLine
 10
121.7092153188345
 20
298.1584043760558
 30
0.0
 11
121.7092153188345
 21
335.1583284945102
 31
0.0
  0
LINE
  5
238
330
1F
100
AcDbEntity
  8
1-2ﾚｲﾔ
  6
Continuous
 62
     3
370
     9
100
AcDbLine
 10
121.7092153188345
 20
341.1582493137669
 30
0.0
 11
121.7092153188345
 21
385.1583697344806
 31
0.0
  0
LINE
  5
239
330
1F
100
AcDbEntity
  8
1-2ﾚｲﾔ
  6
Continuous
 62
     3
370
     9
100
AcDbLine
 10
141.7094050226986
 20
298.1584043760558
 30
0.0
 11
141.7094050226986
 21
335.1583284945102
 31
0.0
  0
LINE
  5
23A
330
1F
100
AcDbEntity
  8
1-2ﾚｲﾔ
  6
Continuous
 62
     3
370
     9
100
AcDbLine
 10
141.7094050226986
 20
341.1582493137669
 30
0.0
 11
141.7094050226986
 21
385.1583697344806
 31
0.0
  0
LINE
  5
23B
330
1F
100
AcDbEntity
  8
1-2ﾚｲﾔ
  6
Continuous
 62
     3
370
     9
100
AcDbLine
 10
136.7091410868878
 20
298.1584043760558
 30
0.0
 11
136.7091410868878
 21
335.1583284945102
 31
0.0
  0
LINE
  5
23C
330
1F
100
AcDbEntity
  8
1-2ﾚｲﾔ
  6
Continuous
 62
     3
370
     9
100
AcDbLine
 10
136.7091410868878
 20
341.1582493137669
 30
0.0
 11
136.7091410868878
 21
385.1583697344806
 31
0.0
  0
LINE
  5
23D
330
1F
100
AcDbEntity
  8
1-2ﾚｲﾔ
  6
Continuous
 62
     3
370
     9
100
AcDbLine
 10
156.7093307907517
 20
298.1584043760558
 30
0.0
 11
156.7093307907517
 21
335.1583284945102
 31
0.0
  0
LINE
  5
23E
330
1F
100
AcDbEntity
  8
1-2ﾚｲﾔ
  6
Continuous
 62
     3
370
     9
100
AcDbLine
 10
156.7093307907517
 20
341.1582493137669
 30
0.0
 11
156.7093307907517
 21
385.1583697344806
 31
0.0
  0
LINE
  5
23F
330
1F
100
AcDbEntity
  8
1-2ﾚｲﾔ
  6
Continuous
 62
     3
370
     9
100
AcDbLine
 10
151.7090668549409
 20
298.1584043760558
 30
0.0
 11
151.7090668549409
 21
335.1583284945102
 31
0.0
  0
LINE
  5
240
330
1F
100
AcDbEntity
  8
1-2ﾚｲﾔ
  6
Continuous
 62
     3
370
     9
100
AcDbLine
 10
151.7090668549409
 20
341.1582493137669
 30
0.0
 11
151.7090668549409
 21
385.1583697344806
 31
0.0
  0
LINE
  5
241
330
1F
100
AcDbEntity
  8
1-2ﾚｲﾔ
  6
Continuous
 62
     3
370
     9
100
AcDbLine
 10
171.7093802787163
 20
298.1584043760558
 30
0.0
 11
171.7093802787163
 21
335.1583284945102
 31
0.0
  0
LINE
  5
242
330
1F
100
AcDbEntity
  8
1-2ﾚｲﾔ
  6
Continuous
 62
     3
370
     9
100
AcDbLine
 10
171.7093802787163
 20
341.1582493137669
 30
0.0
 11
171.7093802787163
 21
385.1583697344806
 31
0.0
  0
LINE
  5
243
330
1F
100
AcDbEntity
  8
1-2ﾚｲﾔ
  6
Continuous
 62
     3
370
     9
100
AcDbLine
 10
166.7091163429055
 20
298.1584043760558
 30
0.0
 11
166.7091163429055
 21
335.1583284945102
 31
0.0
  0
LINE
  5
244
330
1F
100
AcDbEntity
  8
1-2ﾚｲﾔ
  6
Continuous
 62
     3
370
     9
100
AcDbLine
 10
166.7091163429055
 20
341.1582493137669
 30
0.0
 11
166.7091163429055
 21
385.1583697344806
 31
0.0
  0
LINE
  5
245
330
1F
100
AcDbEntity
  8
1-2ﾚｲﾔ
  6
Continuous
 62
     3
370
     9
100
AcDbLine
 10
286.7097596864443
 20
298.1584043760558
 30
0.0
 11
286.7097596864443
 21
335.1583284945102
 31
0.0
  0
LINE
  5
246
330
1F
100
AcDbEntity
  8
1-2ﾚｲﾔ
  6
Continuous
 62
     3
370
     9
100
AcDbLine
 10
286.7097596864443
 20
341.1582493137669
 30
0.0
 11
286.7097596864443
 21
385.1583697344806
 31
0.0
  0
LINE
  5
247
330
1F
100
AcDbEntity
  8
1-2ﾚｲﾔ
  6
Continuous
 62
     3
370
     9
100
AcDbLine
 10
186.7094297666809
 20
298.1584043760558
 30
0.0
 11
186.7094297666809
 21
335.1583284945102
 31
0.0
  0
LINE
  5
248
330
1F
100
AcDbEntity
  8
1-2ﾚｲﾔ
  6
Continuous
 62
     3
370
     9
100
AcDbLine
 10
186.7094297666809
 20
341.1582493137669
 30
0.0
 11
186.7094297666809
 21
385.1583697344806
 31
0.0
  0
LINE
  5
249
330
1F
100
AcDbEntity
  8
1-2ﾚｲﾔ
  6
Continuous
 62
     3
370
     9
100
AcDbLine
 10
181.7091658308701
 20
298.1584043760558
 30
0.0
 11
181.7091658308701
 21
335.1583284945102
 31
0.0
  0
LINE
  5
24A
330
1F
100
AcDbEntity
  8
1-2ﾚｲﾔ
  6
Continuous
 62
     3
370
     9
100
AcDbLine
 10
181.7091658308701
 20
341.1582493137669
 30
0.0
 11
181.7091658308701
 21
385.1583697344806
 31
0.0
  0
LINE
  5
24B
330
1F
100
AcDbEntity
  8
1-2ﾚｲﾔ
  6
Continuous
 62
     3
370
     9
100
AcDbLine
 10
201.709355534734
 20
298.1584043760558
 30
0.0
 11
201.709355534734
 21
335.1583284945102
 31
0.0
  0
LINE
  5
24C
330
1F
100
AcDbEntity
  8
1-2ﾚｲﾔ
  6
Continuous
 62
     3
370
     9
100
AcDbLine
 10
201.709355534734
 20
341.1582493137669
 30
0.0
 11
201.709355534734
 21
385.1583697344806
 31
0.0
  0
LINE
  5
24D
330
1F
100
AcDbEntity
  8
1-2ﾚｲﾔ
  6
Continuous
 62
     3
370
     9
100
AcDbLine
 10
196.7090915989232
 20
298.1584043760558
 30
0.0
 11
196.7090915989232
 21
335.1583284945102
 31
0.0
  0
LINE
  5
24E
330
1F
100
AcDbEntity
  8
1-2ﾚｲﾔ
  6
Continuous
 62
     3
370
     9
100
AcDbLine
 10
196.7090915989232
 20
341.1582493137669
 30
0.0
 11
196.7090915989232
 21
385.1583697344806
 31
0.0
  0
LINE
  5
24F
330
1F
100
AcDbEntity
  8
1-2ﾚｲﾔ
  6
Continuous
 62
     3
370
     9
100
AcDbLine
 10
216.7094050226986
 20
298.1584043760558
 30
0.0
 11
216.7094050226986
 21
335.1583284945102
 31
0.0
  0
LINE
  5
250
330
1F
100
AcDbEntity
  8
1-2ﾚｲﾔ
  6
Continuous
 62
     3
370
     9
100
AcDbLine
 10
216.7094050226986
 20
341.1582493137669
 30
0.0
 11
216.7094050226986
 21
385.1583697344806
 31
0.0
  0
LINE
  5
251
330
1F
100
AcDbEntity
  8
1-2ﾚｲﾔ
  6
Continuous
 62
     3
370
     9
100
AcDbLine
 10
211.7091410868878
 20
298.1584043760558
 30
0.0
 11
211.7091410868878
 21
335.1583284945102
 31
0.0
  0
LINE
  5
252
330
1F
100
AcDbEntity
  8
1-2ﾚｲﾔ
  6
Continuous
 62
     3
370
     9
100
AcDbLine
 10
211.7091410868878
 20
341.1582493137669
 30
0.0
 11
211.7091410868878
 21
385.1583697344806
 31
0.0
  0
LINE
  5
253
330
1F
100
AcDbEntity
  8
1-2ﾚｲﾔ
  6
Continuous
 62
     3
370
     9
100
AcDbLine
 10
231.7093307907518
 20
298.1584043760558
 30
0.0
 11
231.7093307907518
 21
335.1583284945102
 31
0.0
  0
LINE
  5
254
330
1F
100
AcDbEntity
  8
1-2ﾚｲﾔ
  6
Continuous
 62
     3
370
     9
100
AcDbLine
 10
231.7093307907518
 20
341.1582493137669
 30
0.0
 11
231.7093307907518
 21
385.1583697344806
 31
0.0
  0
LINE
  5
255
330
1F
100
AcDbEntity
  8
1-2ﾚｲﾔ
  6
Continuous
 62
     3
370
     9
100
AcDbLine
 10
226.7090668549409
 20
298.1584043760558
 30
0.0
 11
226.7090668549409
 21
335.1583284945102
 31
0.0
  0
LINE
  5
256
330
1F
100
AcDbEntity
  8
1-2ﾚｲﾔ
  6
Continuous
 62
     3
370
     9
100
AcDbLine
 10
226.7090668549409
 20
341.1582493137669
 30
0.0
 11
226.7090668549409
 21
385.1583697344806
 31
0.0
  0
LINE
  5
257
330
1F
100
AcDbEntity
  8
1-2ﾚｲﾔ
  6
Continuous
 62
     3
370
     9
100
AcDbLine
 10
246.7093802787164
 20
298.1584043760558
 30
0.0
 11
246.7093802787164
 21
335.1583284945102
 31
0.0
  0
LINE
  5
258
330
1F
100
AcDbEntity
  8
1-2ﾚｲﾔ
  6
Continuous
 62
     3
370
     9
100
AcDbLine
 10
246.7093802787164
 20
341.1582493137669
 30
0.0
 11
246.7093802787164
 21
385.1583697344806
 31
0.0
  0
LINE
  5
259
330
1F
100
AcDbEntity
  8
1-2ﾚｲﾔ
  6
Continuous
 62
     3
370
     9
100
AcDbLine
 10
241.7091163429055
 20
298.1584043760558
 30
0.0
 11
241.7091163429055
 21
335.1583284945102
 31
0.0
  0
LINE
  5
25A
330
1F
100
AcDbEntity
  8
1-2ﾚｲﾔ
  6
Continuous
 62
     3
370
     9
100
AcDbLine
 10
241.7091163429055
 20
341.1582493137669
 30
0.0
 11
241.7091163429055
 21
385.1583697344806
 31
0.0
  0
LINE
  5
25B
330
1F
100
AcDbEntity
  8
1-2ﾚｲﾔ
  6
Continuous
 62
     3
370
     9
100
AcDbLine
 10
261.7093060467695
 20
298.1584043760558
 30
0.0
 11
261.7093060467695
 21
335.1583284945102
 31
0.0
  0
LINE
  5
25C
330
1F
100
AcDbEntity
  8
1-2ﾚｲﾔ
  6
Continuous
 62
     3
370
     9
100
AcDbLine
 10
261.7093060467695
 20
341.1582493137669
 30
0.0
 11
261.7093060467695
 21
385.1583697344806
 31
0.0
  0
LINE
  5
25D
330
1F
100
AcDbEntity
  8
1-2ﾚｲﾔ
  6
Continuous
 62
     3
370
     9
100
AcDbLine
 10
256.7090421109586
 20
298.1584043760558
 30
0.0
 11
256.7090421109586
 21
335.1583284945102
 31
0.0
  0
LINE
  5
25E
330
1F
100
AcDbEntity
  8
1-2ﾚｲﾔ
  6
Continuous
 62
     3
370
     9
100
AcDbLine
 10
256.7090421109586
 20
341.1582493137669
 30
0.0
 11
256.7090421109586
 21
385.1583697344806
 31
0.0
  0
LINE
  5
25F
330
1F
100
AcDbEntity
  8
1-2ﾚｲﾔ
  6
Continuous
 62
     3
370
     9
100
AcDbLine
 10
276.7093555347341
 20
298.1584043760558
 30
0.0
 11
276.7093555347341
 21
335.1583284945102
 31
0.0
  0
LINE
  5
260
330
1F
100
AcDbEntity
  8
1-2ﾚｲﾔ
  6
Continuous
 62
     3
370
     9
100
AcDbLine
 10
276.7093555347341
 20
341.1582493137669
 30
0.0
 11
276.7093555347341
 21
385.1583697344806
 31
0.0
  0
LINE
  5
261
330
1F
100
AcDbEntity
  8
1-2ﾚｲﾔ
  6
Continuous
 62
     3
370
     9
100
AcDbLine
 10
271.7090915989232
 20
298.1584043760558
 30
0.0
 11
271.7090915989232
 21
335.1583284945102
 31
0.0
  0
LINE
  5
262
330
1F
100
AcDbEntity
  8
1-2ﾚｲﾔ
  6
Continuous
 62
     3
370
     9
100
AcDbLine
 10
271.7090915989232
 20
341.1582493137669
 30
0.0
 11
271.7090915989232
 21
385.1583697344806
 31
0.0
  0
CIRCLE
  5
263
330
1F
100
AcDbEntity
  8
1-2ﾚｲﾔ
  6
Continuous
 62
     3
370
     9
100
AcDbCircle
 10
607.0540144636825
 20
388.1585775839317
 30
0.0
 40
2.999999797022021
  0
ARC
  5
264
330
1F
100
AcDbEntity
  8
1-1ﾚｲﾔ
  6
Continuous
 62
     2
370
     9
100
AcDbCircle
 10
613.554134884396
 20
437.6582955025339
 30
0.0
 40
4.500000057993709
100
AcDbArc
 50
180.0
 51
270.0
  0
ARC
  5
265
330
1F
100
AcDbEntity
  8
1-1ﾚｲﾔ
  6
Continuous
 62
     2
370
     9
100
AcDbCircle
 10
641.0541018924198
 20
430.1582707585516
 30
0.0
 40
3.000000038662472
100
AcDbArc
 50
0.0
 51
90.0
  0
ARC
  5
266
330
1F
100
AcDbEntity
  8
1-1ﾚｲﾔ
  6
Continuous
 62
     2
370
     9
100
AcDbCircle
 10
606.0542338603252
 20
465.1582625105576
 30
0.0
 40
3.000000038662472
100
AcDbArc
 50
0.0
 51
90.0
  0
ARC
  5
267
330
1F
100
AcDbEntity
  8
1-1ﾚｲﾔ
  6
Continuous
 62
     2
370
     9
100
AcDbCircle
 10
613.554134884396
 20
288.6583854056694
 30
0.0
 40
4.500000057993709
100
AcDbArc
 50
90.0
 51
180.0
  0
ARC
  5
268
330
1F
100
AcDbEntity
  8
1-1ﾚｲﾔ
  6
Continuous
 62
     2
370
     9
100
AcDbCircle
 10
641.0541018924198
 20
296.1584720096073
 30
0.0
 40
3.000000038662472
100
AcDbArc
 50
270.0
 51
0.0
  0
ARC
  5
269
330
1F
100
AcDbEntity
  8
1-1ﾚｲﾔ
  6
Continuous
 62
     2
370
     9
100
AcDbCircle
 10
606.0542338603252
 20
261.1584183976457
 30
0.0
 40
3.000000038662472
100
AcDbArc
 50
270.0
 51
0.0
  0
CIRCLE
  5
26A
330
1F
100
AcDbEntity
  8
1-2ﾚｲﾔ
  6
Continuous
 62
     3
370
     9
100
AcDbCircle
 10
607.0540144636825
 20
338.1585363439612
 30
0.0
 40
2.999999797022021
  0
TEXT
  5
26B
330
1F
100
AcDbEntity
  8
1-4ﾚｲﾔ
  6
Continuous
 62
     2
370
     9
100
AcDbText
 10
-222.0404423894109
 20
179.8470229030301
 30
0.0
 40
15.24
  1
995
 41
1.083333333333333
  7
ＭＳ ゴシック
100
AcDbText
  0
TEXT
  5
26C
330
1F
100
AcDbEntity
  8
1-4ﾚｲﾔ
  6
Continuous
 62
     2
370
     9
100
AcDbText
 10
580.3146815944364
 20
179.1536965200064
 30
0.0
 40
15.24
  1
25
 41
1.0625
  7
ＭＳ ゴシック
100
AcDbText
  0
TEXT
  5
26D
330
1F
100
AcDbEntity
  8
1-4ﾚｲﾔ
  6
Continuous
 62
     2
370
     9
100
AcDbText
 10
541.9772890493033
 20
346.9083713840795
 30
0.0
 40
15.24
  1
130
 50
90.0
 41
1.083333333333333
  7
ＭＳ ゴシック
100
AcDbText
  0
TEXT
  5
26E
330
1F
100
AcDbEntity
  8
1-4ﾚｲﾔ
  6
Continuous
 62
     2
370
     9
100
AcDbText
 10
680.9232861328124
 20
346.9082476641682
 30
0.0
 40
15.24
  1
140
 50
90.0
 41
1.083333333333333
  7
ＭＳ ゴシック
100
AcDbText
  0
TEXT
  5
26F
330
1F
100
AcDbEntity
  8
1-4ﾚｲﾔ
  6
Continuous
 62
     2
370
     9
100
AcDbText
 10
505.490802562817
 20
346.9083713840795
 30
0.0
 40
15.24
  1
210
 50
90.0
 41
1.083333333333333
  7
ＭＳ ゴシック
100
AcDbText
  0
LWPOLYLINE
  5
270
330
1F
100
AcDbEntity
  8
1-4ﾚｲﾔ
  6
Continuous
 62
     7
370
     9
100
AcDbPolyline
 90
        4
 70
     1
 43
1.0
 10
-702.7904135214316
 20
174.5270146550359
 42
0.4142135623731
 10
-703.2904135214314
 20
175.0270146550359
 42
0.4142135623731
 10
-703.7904135214314
 20
174.5270146550359
 42
0.4142135623731
 10
-703.2904135214314
 20
174.0270146550359
 42
0.4142135623731
  0
LWPOLYLINE
  5
271
330
1F
100
AcDbEntity
  8
1-4ﾚｲﾔ
  6
Continuous
 62
     7
370
     9
100
AcDbPolyline
 90
        4
 70
     1
 43
1.0
 10
292.2095287426099
 20
174.5270146550359
 42
0.4142135623731
 10
291.7095287426099
 20
175.0270146550359
 42
0.4142135623731
 10
291.2095287426099
 20
174.5270146550359
 42
0.4142135623731
 10
291.7095287426099
 20
174.0270146550359
 42
0.4142135623731
  0
LWPOLYLINE
  5
272
330
1F
100
AcDbEntity
  8
1-4ﾚｲﾔ
  6
Continuous
 62
     7
370
     9
100
AcDbPolyline
 90
        4
 70
     1
 43
1.0
 10
604.5540540540542
 20
174.5270146550359
 42
0.4142135623731
 10
604.0540540540542
 20
175.0270146550359
 42
0.4142135623731
 10
603.5540540540542
 20
174.5270146550359
 42
0.4142135623731
 10
604.0540540540542
 20
174.0270146550359
 42
0.4142135623731
  0
LWPOLYLINE
  5
273
330
1F
100
AcDbEntity
  8
1-4ﾚｲﾔ
  6
Continuous
 62
     7
370
     9
100
AcDbPolyline
 90
        4
 70
     1
 43
1.0
 10
629.5540128140835
 20
174.5270146550359
 42
0.4142135623731
 10
629.0540128140835
 20
175.0270146550359
 42
0.4142135623731
 10
628.5540128140836
 20
174.5270146550359
 42
0.4142135623731
 10
629.0540128140835
 20
174.0270146550359
 42
0.4142135623731
  0
LWPOLYLINE
  5
274
330
1F
100
AcDbEntity
  8
1-4ﾚｲﾔ
  6
Continuous
 62
     7
370
     9
100
AcDbPolyline
 90
        4
 70
     1
 43
1.0
 10
686.7432943808068
 20
293.1583878800676
 42
0.4142135623731
 10
686.2432943808068
 20
293.6583878800676
 42
0.4142135623731
 10
685.7432943808068
 20
293.1583878800676
 42
0.4142135623731
 10
686.2432943808068
 20
292.6583878800676
 42
0.4142135623731
  0
LWPOLYLINE
  5
275
330
1F
100
AcDbEntity
  8
1-4ﾚｲﾔ
  6
Continuous
 62
     7
370
     9
100
AcDbPolyline
 90
        4
 70
     1
 43
1.0
 10
686.7432943808068
 20
433.15823116818
 42
0.4142135623731
 10
686.2432943808068
 20
433.6582311681799
 42
0.4142135623731
 10
685.7432943808068
 20
433.15823116818
 42
0.4142135623731
 10
686.2432943808068
 20
432.65823116818
 42
0.4142135623731
  0
LWPOLYLINE
  5
276
330
1F
100
AcDbEntity
  8
1-4ﾚｲﾔ
  6
Continuous
 62
     7
370
     9
100
AcDbPolyline
 90
        4
 70
     1
 43
1.0
 10
547.7972972972974
 20
298.1581569362332
 42
0.4142135623731
 10
547.2972972972974
 20
298.6581569362332
 42
0.4142135623731
 10
546.7972972972974
 20
298.1581569362332
 42
0.4142135623731
 10
547.2972972972974
 20
297.6581569362332
 42
0.4142135623731
  0
LWPOLYLINE
  5
277
330
1F
100
AcDbEntity
  8
1-4ﾚｲﾔ
  6
Continuous
 62
     7
370
     9
100
AcDbPolyline
 90
        4
 70
     1
 43
1.0
 10
547.7972972972974
 20
428.1585858319258
 42
0.4142135623731
 10
547.2972972972974
 20
428.6585858319257
 42
0.4142135623731
 10
546.7972972972974
 20
428.1585858319258
 42
0.4142135623731
 10
547.2972972972974
 20
427.6585858319258
 42
0.4142135623731
  0
LWPOLYLINE
  5
278
330
1F
100
AcDbEntity
  8
1-4ﾚｲﾔ
  6
Continuous
 62
     7
370
     9
100
AcDbPolyline
 90
        4
 70
     1
 43
1.0
 10
511.3108108108109
 20
258.158334268106
 42
0.4142135623731
 10
510.8108108108109
 20
258.658334268106
 42
0.4142135623731
 10
510.3108108108109
 20
258.158334268106
 42
0.4142135623731
 10
510.8108108108109
 20
257.658334268106
 42
0.4142135623731
  0
LWPOLYLINE
  5
279
330
1F
100
AcDbEntity
  8
1-4ﾚｲﾔ
  6
Continuous
 62
     7
370
     9
100
AcDbPolyline
 90
        4
 70
     1
 43
1.0
 10
511.3108108108109
 20
468.1583466400971
 42
0.4142135623731
 10
510.8108108108109
 20
468.6583466400971
 42
0.4142135623731
 10
510.3108108108109
 20
468.1583466400971
 42
0.4142135623731
 10
510.8108108108109
 20
467.6583466400972
 42
0.4142135623731
  0
TEXT
  5
27A
330
1F
100
AcDbEntity
  8
F-5ﾚｲﾔ
  6
Continuous
 62
     2
370
     9
100
AcDbText
 10
454.8894562592379
 20
-681.1399980534734
 30
0.0
 40
15.24
  1
１：５
 41
1.083333333333333
  7
ＭＳ ゴシック
100
AcDbText
  0
LINE
  5
27B
330
1F
100
AcDbEntity
  8
1-2ﾚｲﾔ
  6
Continuous
 62
     7
370
     9
100
AcDbLine
 10
-475.7902815535261
 20
502.8615661231322
 30
0.0
 11
-460.7902320655617
 21
502.8615661231322
 31
0.0
  0
LWPOLYLINE
  5
27C
330
1F
100
AcDbEntity
  8
1-2ﾚｲﾔ
  6
Continuous
 62
     7
370
     9
100
AcDbPolyline
 90
        4
 70
     1
 43
1.0
 10
-475.2902815535262
 20
502.8615661231322
 42
0.4142135623731
 10
-475.7902815535261
 20
503.3615661231322
 42
0.4142135623731
 10
-476.2902815535261
 20
502.8615661231322
 42
0.4142135623731
 10
-475.7902815535261
 20
502.3615661231322
 42
0.4142135623731
  0
LWPOLYLINE
  5
27D
330
1F
100
AcDbEntity
  8
1-2ﾚｲﾔ
  6
Continuous
 62
     7
370
     9
100
AcDbPolyline
 90
        4
 70
     1
 43
1.0
 10
-460.2902320655617
 20
502.8615661231322
 42
0.4142135623731
 10
-460.7902320655617
 20
503.3615661231322
 42
0.4142135623731
 10
-461.2902320655616
 20
502.8615661231322
 42
0.4142135623731
 10
-460.7902320655617
 20
502.3615661231322
 42
0.4142135623731
  0
TEXT
  5
27E
330
1F
100
AcDbEntity
  8
1-2ﾚｲﾔ
  6
Continuous
 62
     2
370
   211
100
AcDbText
 10
-478.9152568095438
 20
508.1815661231322
 30
0.0
 40
15.24
  1
15
 41
1.0625
  7
ＭＳ ゴシック
100
AcDbText
  0
LINE
  5
27F
330
1F
100
AcDbEntity
  8
1-2ﾚｲﾔ
  6
Continuous
 62
     7
370
     9
100
AcDbLine
 10
-475.7902815535261
 20
504.3615661827369
 30
0.0
 11
-475.7902815535261
 21
417.4527337514518
 31
0.0
  0
LINE
  5
280
330
1F
100
AcDbEntity
  8
1-2ﾚｲﾔ
  6
Continuous
 62
     7
370
     9
100
AcDbLine
 10
-460.7902320655617
 20
504.3615661827369
 30
0.0
 11
-460.7902320655617
 21
417.4527337514518
 31
0.0
  0
LINE
  5
281
330
1F
100
AcDbEntity
  8
1-4ﾚｲﾔ
  6
Continuous
 62
     7
370
     9
100
AcDbLine
 10
648.9511687023376
 20
433.15823116818
 30
0.0
 11
687.7432745856208
 21
433.15823116818
 31
0.0
  0
LINE
  5
282
330
1F
100
AcDbEntity
  8
1-4ﾚｲﾔ
  6
Continuous
 62
     7
370
     9
100
AcDbLine
 10
648.9511687023376
 20
293.1583878800676
 30
0.0
 11
687.7432745856208
 21
293.1583878800676
 31
0.0
  0
TEXT
  5
283
330
1F
100
AcDbEntity
  8
F-5ﾚｲﾔ
  6
Continuous
 62
     7
370
     9
100
AcDbText
 10
39.5586239814233
 20
-287.775394526582
 30
0.0
 40
15.24
  1
適用Ｕ形側溝および、設置場所について
 41
0.8750000000000007
  7
ＭＳ ゴシック
100
AcDbText
  0
TEXT
  5
284
330
1F
100
AcDbEntity
  8
F-5ﾚｲﾔ
  6
Continuous
 62
     7
370
     9
100
AcDbText
 10
56.47444030795441
 20
-328.5530305810038
 30
0.0
 40
15.24
  1
・適用Ｕ形側溝
 41
0.8749999999999998
  7
ＭＳ ゴシック
100
AcDbText
  0
TEXT
  5
285
330
1F
100
AcDbEntity
  8
F-5ﾚｲﾔ
  6
Continuous
 62
     7
370
     9
100
AcDbText
 10
56.47444030795441
 20
-475.3693571116156
 30
0.0
 40
15.24
  1
　車両が乗り入れる可能性のある場所に設置できます。 
 41
0.8749999999999999
  7
ＭＳ ゴシック
100
AcDbText
  0
TEXT
  5
286
330
1F
100
AcDbEntity
  8
F-5ﾚｲﾔ
  6
Continuous
 62
     7
370
     9
100
AcDbText
 10
56.47444030795441
 20
-401.9611938463098
 30
0.0
 40
15.24
  1
・設置場所
 41
0.8749999999999999
  7
ＭＳ ゴシック
100
AcDbText
  0
TEXT
  5
287
330
1F
100
AcDbEntity
  8
F-5ﾚｲﾔ
  6
Continuous
 62
     7
370
     9
100
AcDbText
 10
56.47444030795441
 20
-499.8387448667175
 30
0.0
 40
15.24
  1
　※車両が頻繁に通行する場所や、フォークリフト等の特殊車両が通行する場所には適しません。
 41
0.8749999999999999
  7
ＭＳ ゴシック
100
AcDbText
  0
TEXT
  5
288
330
1F
100
AcDbEntity
  8
F-5ﾚｲﾔ
  6
Continuous
 62
     7
370
     9
100
AcDbText
 10
56.47444030795441
 20
-450.8999693565135
 30
0.0
 40
15.24
  1
　車両が走行することはまれで、走行することがあっても一時待避などで低速で走行するような、
 41
0.8749999999999999
  7
ＭＳ ゴシック
100
AcDbText
  0
TEXT
  5
289
330
1F
100
AcDbEntity
  8
F-5ﾚｲﾔ
  6
Continuous
 62
     7
370
     9
100
AcDbText
 10
56.47444030795441
 20
-353.0224183361058
 30
0.0
 40
15.24
  1
　JIS A 5372 推奨仕様E-1 U形側溝、推奨仕様E-2 上ぶた式U形側溝の本体に適用します。
 41
0.8749999999999999
  7
ＭＳ ゴシック
100
AcDbText
  0
LINE
  5
28A
330
1F
100
AcDbEntity
  8
F-5ﾚｲﾔ
  6
Continuous
 62
     2
370
     9
100
AcDbLine
 10
39.9999505120357
 20
-296.6612958871262
 30
0.0
 11
909.9999505120356
 21
-296.6612958871262
 31
0.0
  0
TEXT
  5
28B
330
1F
100
AcDbEntity
  8
F-5ﾚｲﾔ
  6
Continuous
 62
     7
370
     9
100
AcDbText
 10
56.47444030795441
 20
-426.4305816014116
 30
0.0
 40
15.24
  1
　適用荷重 T-14・T-6・T-2は、建物内、建物敷地内、公園敷地内、車道以外で、
 41
0.8749999999999999
  7
ＭＳ ゴシック
100
AcDbText
  0
LINE
  5
28C
330
1F
100
AcDbEntity
  8
F-5ﾚｲﾔ
  6
Continuous
 62
     2
370
     9
100
AcDbLine
 10
39.9999505120357
 20
-539.0541530299831
 30
0.0
 11
39.9999505120357
 21
-296.6612958871262
 31
0.0
  0
LINE
  5
28D
330
1F
100
AcDbEntity
  8
F-5ﾚｲﾔ
  6
Continuous
 62
     2
370
     9
100
AcDbLine
 10
909.9999505120356
 20
-296.6612958871262
 30
0.0
 11
909.9999505120356
 21
-539.0541530299831
 31
0.0
  0
LINE
  5
28E
330
1F
100
AcDbEntity
  8
F-5ﾚｲﾔ
  6
Continuous
 62
     2
370
     9
100
AcDbLine
 10
909.9999505120356
 20
-539.0541530299831
 30
0.0
 11
39.9999505120357
 21
-539.0541530299831
 31
0.0
  0
LINE
  5
28F
330
1F
100
AcDbEntity
  8
F-5ﾚｲﾔ
  6
Continuous
 62
     2
370
     9
100
AcDbLine
 10
39.9999505120357
 20
-87.05491301065607
 30
0.0
 11
39.9999505120357
 21
-237.0549130106561
 31
0.0
  0
LINE
  5
290
330
1F
100
AcDbEntity
  8
F-5ﾚｲﾔ
  6
Continuous
 62
     2
370
     9
100
AcDbLine
 10
149.9999505120357
 20
-87.05491301065607
 30
0.0
 11
149.9999505120357
 21
-237.0549130106561
 31
0.0
  0
LINE
  5
291
330
1F
100
AcDbEntity
  8
F-5ﾚｲﾔ
  6
Continuous
 62
     2
370
     9
100
AcDbLine
 10
249.9999505120357
 20
-87.05491301065607
 30
0.0
 11
249.9999505120357
 21
-237.0549130106561
 31
0.0
  0
TEXT
  5
292
330
1F
100
AcDbEntity
  8
F-5ﾚｲﾔ
  6
Continuous
 62
     7
370
     9
100
AcDbText
 10
182.4999505120357
 20
-106.2349130106561
 30
0.0
 40
15.24
  1
T-14
 41
0.8749999999999999
  7
ＭＳ ゴシック
100
AcDbText
  0
TEXT
  5
293
330
1F
100
AcDbEntity
  8
F-5ﾚｲﾔ
  6
Continuous
 62
     7
370
     9
100
AcDbText
 10
160.6249505120357
 20
-131.2349130106561
 30
0.0
 40
15.24
  1
14,000kgf
 41
0.8749999999999999
  7
ＭＳ ゴシック
100
AcDbText
  0
TEXT
  5
294
330
1F
100
AcDbEntity
  8
F-5ﾚｲﾔ
  6
Continuous
 62
     7
370
     9
100
AcDbText
 10
173.7499505120357
 20
-156.2349130106561
 30
0.0
 40
15.24
  1
54.9kN
 41
0.8749999999999999
  7
ＭＳ ゴシック
100
AcDbText
  0
TEXT
  5
295
330
1F
100
AcDbEntity
  8
F-5ﾚｲﾔ
  6
Continuous
 62
     7
370
     9
100
AcDbText
 10
173.7499505120357
 20
-231.2349130106561
 30
0.0
 40
15.24
  1
縦　断
 41
0.8749999999999999
  7
ＭＳ ゴシック
100
AcDbText
  0
LINE
  5
296
330
1F
100
AcDbEntity
  8
F-5ﾚｲﾔ
  6
Continuous
 62
     2
370
     9
100
AcDbLine
 10
39.9999505120357
 20
-87.05491301065607
 30
0.0
 11
249.9999505120357
 21
-87.05491301065607
 31
0.0
  0
LINE
  5
297
330
1F
100
AcDbEntity
  8
F-5ﾚｲﾔ
  6
Continuous
 62
     2
370
     9
100
AcDbLine
 10
39.9999505120357
 20
-237.0549130106561
 30
0.0
 11
249.9999505120357
 21
-237.0549130106561
 31
0.0
  0
LINE
  5
298
330
1F
100
AcDbEntity
  8
F-5ﾚｲﾔ
  6
Continuous
 62
     2
370
     9
100
AcDbLine
 10
39.9999505120357
 20
-212.0549130106561
 30
0.0
 11
249.9999505120357
 21
-212.0549130106561
 31
0.0
  0
LINE
  5
299
330
1F
100
AcDbEntity
  8
F-5ﾚｲﾔ
  6
Continuous
 62
     2
370
     9
100
AcDbLine
 10
39.9999505120357
 20
-187.0549130106561
 30
0.0
 11
249.9999505120357
 21
-187.0549130106561
 31
0.0
  0
LINE
  5
29A
330
1F
100
AcDbEntity
  8
F-5ﾚｲﾔ
  6
Continuous
 62
     2
370
     9
100
AcDbLine
 10
39.9999505120357
 20
-162.0549130106561
 30
0.0
 11
249.9999505120357
 21
-162.0549130106561
 31
0.0
  0
LINE
  5
29B
330
1F
100
AcDbEntity
  8
F-5ﾚｲﾔ
  6
Continuous
 62
     2
370
     9
100
AcDbLine
 10
39.9999505120357
 20
-137.0549130106561
 30
0.0
 11
249.9999505120357
 21
-137.0549130106561
 31
0.0
  0
LINE
  5
29C
330
1F
100
AcDbEntity
  8
F-5ﾚｲﾔ
  6
Continuous
 62
     2
370
     9
100
AcDbLine
 10
39.9999505120357
 20
-112.0549130106561
 30
0.0
 11
249.9999505120357
 21
-112.0549130106561
 31
0.0
  0
TEXT
  5
29D
330
1F
100
AcDbEntity
  8
F-5ﾚｲﾔ
  6
Continuous
 62
     7
370
     9
100
AcDbText
 10
68.7499505120357
 20
-106.2349130106561
 30
0.0
 40
15.24
  1
強　度
 41
0.8749999999999999
  7
ＭＳ ゴシック
100
AcDbText
  0
TEXT
  5
29E
330
1F
100
AcDbEntity
  8
F-5ﾚｲﾔ
  6
Continuous
 62
     7
370
     9
100
AcDbText
 10
51.2499505120357
 20
-131.2349130106561
 30
0.0
 40
15.24
  1
車両総重量
 41
0.8749999999999999
  7
ＭＳ ゴシック
100
AcDbText
  0
TEXT
  5
29F
330
1F
100
AcDbEntity
  8
F-5ﾚｲﾔ
  6
Continuous
 62
     7
370
     9
100
AcDbText
 10
42.4999505120357
 20
-156.2349130106561
 30
0.0
 40
15.24
  1
後輪一輪荷重
 41
0.8749999999999999
  7
ＭＳ ゴシック
100
AcDbText
  0
TEXT
  5
2A0
330
1F
100
AcDbEntity
  8
F-5ﾚｲﾔ
  6
Continuous
 62
     7
370
     9
100
AcDbText
 10
42.4999505120357
 20
-231.2349130106561
 30
0.0
 40
15.24
  1
車両進行方向
 41
0.8749999999999999
  7
ＭＳ ゴシック
100
AcDbText
  0
TEXT
  5
2A1
330
1F
100
AcDbEntity
  8
F-5ﾚｲﾔ
  6
Continuous
 62
     7
370
     9
100
AcDbText
 10
164.9999505120357
 20
-206.2349130106561
 30
0.0
 40
15.24
  1
200×500
 41
0.8749999999999999
  7
ＭＳ ゴシック
100
AcDbText
  0
TEXT
  5
2A2
330
1F
100
AcDbEntity
  8
F-5ﾚｲﾔ
  6
Continuous
 62
     7
370
     9
100
AcDbText
 10
59.9999505120357
 20
-181.2349130106561
 30
0.0
 40
15.24
  1
衝撃係数
 41
0.8749999999999999
  7
ＭＳ ゴシック
100
AcDbText
  0
TEXT
  5
2A3
330
1F
100
AcDbEntity
  8
F-5ﾚｲﾔ
  6
Continuous
 62
     7
370
     9
100
AcDbText
 10
195.6249505120357
 20
-181.2349130106561
 30
0.0
 40
15.24
  1
0
 41
0.8749999999999999
  7
ＭＳ ゴシック
100
AcDbText
  0
TEXT
  5
2A4
330
1F
100
AcDbEntity
  8
F-5ﾚｲﾔ
  6
Continuous
 62
     7
370
     9
100
AcDbText
 10
42.4999505120357
 20
-206.2349130106561
 30
0.0
 40
15.24
  1
後輪設置面積
 41
0.8749999999999976
  7
ＭＳ ゴシック
100
AcDbText
  0
LINE
  5
2A5
330
1F
100
AcDbEntity
  8
1-5ﾚｲﾔ
  6
Continuous
 62
     7
370
     9
100
AcDbLine
 10
-326.7343199404313
 20
97.1584836582295
 30
0.0
 11
-296.4281974914517
 21
66.85236120924998
 31
0.0
  0
LINE
  5
2A6
330
1F
100
AcDbEntity
  8
1-5ﾚｲﾔ
  6
Continuous
 62
     7
370
     9
100
AcDbLine
 10
-296.4281974914517
 20
127.4646061072092
 30
0.0
 11
-326.7343199404313
 21
97.1584836582295
 31
0.0
  0
LINE
  5
2A7
330
1F
100
AcDbEntity
  8
1-5ﾚｲﾔ
  6
Continuous
 62
     7
370
     9
100
AcDbLine
 10
-84.84656483839039
 20
97.1584836582295
 30
0.0
 11
-115.15268728737
 21
66.85236120924998
 31
0.0
  0
LINE
  5
2A8
330
1F
100
AcDbEntity
  8
1-5ﾚｲﾔ
  6
Continuous
 62
     7
370
     9
100
AcDbLine
 10
-115.15268728737
 20
127.4646061072092
 30
0.0
 11
-84.84656483839039
 21
97.1584836582295
 31
0.0
  0
LINE
  5
2A9
330
1F
100
AcDbEntity
  8
1-5ﾚｲﾔ
  6
Continuous
 62
     7
370
     9
100
AcDbLine
 10
-296.4281974914517
 20
127.4646061072092
 30
0.0
 11
-296.4281974914517
 21
112.1584836582295
 31
0.0
  0
LINE
  5
2AA
330
1F
100
AcDbEntity
  8
1-5ﾚｲﾔ
  6
Continuous
 62
     7
370
     9
100
AcDbLine
 10
-296.4281974914517
 20
82.1584836582295
 30
0.0
 11
-296.4281974914517
 21
66.85236120924998
 31
0.0
  0
LINE
  5
2AB
330
1F
100
AcDbEntity
  8
1-5ﾚｲﾔ
  6
Continuous
 62
     7
370
     9
100
AcDbLine
 10
-296.4281974914517
 20
112.1584836582295
 30
0.0
 11
-115.15268728737
 21
112.1584836582295
 31
0.0
  0
LINE
  5
2AC
330
1F
100
AcDbEntity
  8
1-5ﾚｲﾔ
  6
Continuous
 62
     7
370
     9
100
AcDbLine
 10
-296.4281974914517
 20
82.1584836582295
 30
0.0
 11
-115.15268728737
 21
82.1584836582295
 31
0.0
  0
LINE
  5
2AD
330
1F
100
AcDbEntity
  8
1-5ﾚｲﾔ
  6
Continuous
 62
     7
370
     9
100
AcDbLine
 10
-115.15268728737
 20
127.4646061072092
 30
0.0
 11
-115.15268728737
 21
112.1584836582295
 31
0.0
  0
LINE
  5
2AE
330
1F
100
AcDbEntity
  8
1-5ﾚｲﾔ
  6
Continuous
 62
     7
370
     9
100
AcDbLine
 10
-115.15268728737
 20
82.1584836582295
 30
0.0
 11
-115.15268728737
 21
66.85236120924998
 31
0.0
  0
TEXT
  5
2AF
330
1F
100
AcDbEntity
  8
1-5ﾚｲﾔ
  6
Continuous
 62
     2
370
     9
100
AcDbText
 10
-317.0404423894109
 20
36.01759930448797
 30
0.0
 40
15.24
  1
縦断方向（側溝方向）
 41
1.1125
  7
ＭＳ ゴシック
100
AcDbText
  0
TEXT
  5
2B0
330
1F
100
AcDbEntity
  8
D-0
  6
Continuous
 62
     2
370
     9
100
AcDbText
 10
-876.6733285704174
 20
-412.7969293700037
 30
0.0
 40
15.24
  1
ＤＩ－２５　バー形状詳細　Ｓ＝１：２
 41
1.118055555555555
  7
ＭＳ ゴシック
100
AcDbText
  0
TEXT
  5
2B1
330
1F
100
AcDbEntity
  8
D-4
  6
Continuous
 62
     2
370
     9
100
AcDbText
 10
-514.993360876135
 20
-318.3790218451833
 30
0.0
 40
15.24
  1
25
 50
90.00000250447829
 41
1.062499999999999
  7
ＭＳ ゴシック
100
AcDbText
  0
TEXT
  5
2B2
330
1F
100
AcDbEntity
  8
D-4
  6
Continuous
 62
     2
370
     9
100
AcDbText
 10
-764.4563046017208
 20
-181.934048424798
 30
0.0
 40
15.24
  1
5.4
 41
1.083333333333333
  7
ＭＳ ゴシック
100
AcDbText
  0
TEXT
  5
2B3
330
1F
100
AcDbEntity
  8
D-4
  6
Continuous
 62
     2
370
     9
100
AcDbText
 10
-677.3572674313107
 20
-181.934048424798
 30
0.0
 40
15.24
  1
7.6
 41
1.083333333333333
  7
ＭＳ ゴシック
100
AcDbText
  0
TEXT
  5
2B4
330
1F
100
AcDbEntity
  8
D-4
  6
Continuous
 62
     2
370
     9
100
AcDbText
 10
-847.4932893505612
 20
-221.5041362861013
 30
0.0
 40
15.24
  1
5
 50
90.00000250447816
 41
1.000000000000001
  7
ＭＳ ゴシック
100
AcDbText
  0
TEXT
  5
2B5
330
1F
100
AcDbEntity
  8
D-4
  6
Continuous
 62
     2
370
     9
100
AcDbText
 10
-673.8358063118745
 20
-248.7530562200412
 30
0.0
 40
15.24
  1
5
 50
12.079026476401
 41
0.9999999999999918
  7
ＭＳ ゴシック
100
AcDbText
  0
TEXT
  5
2B6
330
1F
100
AcDbEntity
  8
D-4
  6
Continuous
 62
     2
370
     9
100
AcDbText
 10
-567.9233303585568
 20
-244.434220086175
 30
0.0
 40
15.24
  1
5
 41
0.9999999999999998
  7
ＭＳ ゴシック
100
AcDbText
  0
TEXT
  5
2B7
330
1F
100
AcDbEntity
  8
D-4
  6
Continuous
 62
     2
370
     9
100
AcDbText
 10
-555.4234447994747
 20
-314.4339053736506
 30
0.0
 40
15.24
  1
3
 41
0.9999999999999998
  7
ＭＳ ゴシック
100
AcDbText
  0
LINE
  5
2B8
330
1F
100
AcDbEntity
  8
D-0
  6
Continuous
 62
     7
370
     9
100
AcDbLine
 10
-465.8463802853146
 20
-389.0041290102778
 30
0.0
 11
-885.000280431799
 21
-389.0041290102778
 31
0.0
  0
LINE
  5
2B9
330
1F
100
AcDbEntity
  8
D-0
  6
Continuous
 62
     7
370
     9
100
AcDbLine
 10
-465.8463802853146
 20
-422.2297297297297
 30
0.0
 11
-465.8463802853146
 21
-389.0041290102778
 31
0.0
  0
LINE
  5
2BA
330
1F
100
AcDbEntity
  8
D-0
  6
Continuous
 62
     7
370
     9
100
AcDbLine
 10
-885.000280431799
 20
-422.2297297297297
 30
0.0
 11
-465.8463802853146
 21
-422.2297297297297
 31
0.0
  0
LINE
  5
2BB
330
1F
100
AcDbEntity
  8
D-0
  6
Continuous
 62
     7
370
     9
100
AcDbLine
 10
-885.000280431799
 20
-389.0041290102778
 30
0.0
 11
-885.000280431799
 21
-422.2297297297297
 31
0.0
  0
LINE
  5
2BC
330
1F
100
AcDbEntity
  8
D-4
  6
Continuous
 62
     7
370
     9
100
AcDbLine
 10
-507.6733532467404
 20
-276.5039263544855
 30
0.0
 11
-546.6733685055294
 21
-276.5039263544855
 31
0.0
  0
LINE
  5
2BD
330
1F
100
AcDbEntity
  8
D-4
  6
Continuous
 62
     7
370
     9
100
AcDbLine
 10
-507.6733532467404
 20
-339.004126626092
 30
0.0
 11
-546.6733685055294
 21
-339.004126626092
 31
0.0
  0
LINE
  5
2BE
330
1F
100
AcDbEntity
  8
D-4
  6
Continuous
 62
     7
370
     9
100
AcDbLine
 10
-509.1733685055294
 20
-276.5039263544855
 30
0.0
 11
-507.541784338049
 21
-288.8969813166437
 31
0.0
  0
LINE
  5
2BF
330
1F
100
AcDbEntity
  8
D-4
  6
Continuous
 62
     7
370
     9
100
AcDbLine
 10
-509.1733685055294
 20
-276.5039263544855
 30
0.0
 11
-510.8049526730099
 21
-288.8969813166437
 31
0.0
  0
LINE
  5
2C0
330
1F
100
AcDbEntity
  8
D-4
  6
Continuous
 62
     7
370
     9
100
AcDbLine
 10
-509.1733685055294
 20
-339.004126626092
 30
0.0
 11
-507.541784338049
 21
-326.6110716639338
 31
0.0
  0
LINE
  5
2C1
330
1F
100
AcDbEntity
  8
D-4
  6
Continuous
 62
     7
370
     9
100
AcDbLine
 10
-509.1733685055294
 20
-339.004126626092
 30
0.0
 11
-510.8049526730099
 21
-326.6110716639338
 31
0.0
  0
LINE
  5
2C2
330
1F
100
AcDbEntity
  8
D-4
  6
Continuous
 62
     7
370
     9
100
AcDbLine
 10
-509.1733685055294
 20
-339.004126626092
 30
0.0
 11
-509.1733685055294
 21
-276.5039263544855
 31
0.0
  0
LINE
  5
2C3
330
1F
100
AcDbEntity
  8
D-4
  6
Continuous
 62
     7
370
     9
100
AcDbLine
 10
-670.5697575130978
 20
-187.7540598688898
 30
0.0
 11
-685.5697575130978
 21
-187.7540598688898
 31
0.0
  0
LINE
  5
2C4
330
1F
100
AcDbEntity
  8
D-4
  6
Continuous
 62
     7
370
     9
100
AcDbLine
 10
-651.6447582760372
 20
-187.7540598688898
 30
0.0
 11
-636.6447582760372
 21
-187.7540598688898
 31
0.0
  0
LINE
  5
2C5
330
1F
100
AcDbEntity
  8
D-4
  6
Continuous
 62
     7
370
     9
100
AcDbLine
 10
-741.4188042202511
 20
-187.7540598688898
 30
0.0
 11
-726.4188042202511
 21
-187.7540598688898
 31
0.0
  0
LINE
  5
2C6
330
1F
100
AcDbEntity
  8
D-4
  6
Continuous
 62
     7
370
     9
100
AcDbLine
 10
-754.9938049831906
 20
-187.7540598688898
 30
0.0
 11
-769.9938049831906
 21
-187.7540598688898
 31
0.0
  0
LINE
  5
2C7
330
1F
100
AcDbEntity
  8
D-4
  6
Continuous
 62
     7
370
     9
100
AcDbLine
 10
-754.9938049831906
 20
-186.2540636835871
 30
0.0
 11
-754.9938049831906
 21
-200.2540598688898
 31
0.0
  0
LINE
  5
2C8
330
1F
100
AcDbEntity
  8
D-4
  6
Continuous
 62
     7
370
     9
100
AcDbLine
 10
-741.4188042202511
 20
-186.2540636835871
 30
0.0
 11
-741.4188042202511
 21
-200.2540598688898
 31
0.0
  0
LINE
  5
2C9
330
1F
100
AcDbEntity
  8
D-4
  6
Continuous
 62
     7
370
     9
100
AcDbLine
 10
-754.9938049831906
 20
-187.7540598688898
 30
0.0
 11
-767.3868599453488
 21
-189.385624962884
 31
0.0
  0
LINE
  5
2CA
330
1F
100
AcDbEntity
  8
D-4
  6
Continuous
 62
     7
370
     9
100
AcDbLine
 10
-754.9938049831906
 20
-187.7540598688898
 30
0.0
 11
-767.3868599453488
 21
-186.1224757014094
 31
0.0
  0
LINE
  5
2CB
330
1F
100
AcDbEntity
  8
D-4
  6
Continuous
 62
     7
370
     9
100
AcDbLine
 10
-741.4188042202511
 20
-187.7540598688898
 30
0.0
 11
-729.0257397213497
 21
-189.385624962884
 31
0.0
  0
LINE
  5
2CC
330
1F
100
AcDbEntity
  8
D-4
  6
Continuous
 62
     7
370
     9
100
AcDbLine
 10
-741.4188042202511
 20
-187.7540598688898
 30
0.0
 11
-729.0257397213497
 21
-186.1224757014094
 31
0.0
  0
LINE
  5
2CD
330
1F
100
AcDbEntity
  8
D-4
  6
Continuous
 62
     7
370
     9
100
AcDbLine
 10
-741.4188042202511
 20
-187.7540598688898
 30
0.0
 11
-754.9938049831906
 21
-187.7540598688898
 31
0.0
  0
LINE
  5
2CE
330
1F
100
AcDbEntity
  8
D-4
  6
Continuous
 62
     7
370
     9
100
AcDbLine
 10
-651.6447582760372
 20
-187.7540598688898
 30
0.0
 11
-639.251703313879
 21
-189.385624962884
 31
0.0
  0
LINE
  5
2CF
330
1F
100
AcDbEntity
  8
D-4
  6
Continuous
 62
     7
370
     9
100
AcDbLine
 10
-670.5697575130978
 20
-187.7540598688898
 30
0.0
 11
-682.962812475256
 21
-189.385624962884
 31
0.0
  0
LINE
  5
2D0
330
1F
100
AcDbEntity
  8
D-4
  6
Continuous
 62
     7
370
     9
100
AcDbLine
 10
-670.5697575130978
 20
-186.2540636835871
 30
0.0
 11
-670.5697575130978
 21
-200.2540598688898
 31
0.0
  0
LINE
  5
2D1
330
1F
100
AcDbEntity
  8
D-4
  6
Continuous
 62
     7
370
     9
100
AcDbLine
 10
-651.6447582760372
 20
-186.2540636835871
 30
0.0
 11
-651.6447582760372
 21
-200.2540598688898
 31
0.0
  0
LINE
  5
2D2
330
1F
100
AcDbEntity
  8
D-4
  6
Continuous
 62
     7
370
     9
100
AcDbLine
 10
-670.5697575130978
 20
-187.7540598688898
 30
0.0
 11
-682.962812475256
 21
-186.1224757014094
 31
0.0
  0
LINE
  5
2D3
330
1F
100
AcDbEntity
  8
D-4
  6
Continuous
 62
     7
370
     9
100
AcDbLine
 10
-651.6447582760372
 20
-187.7540598688898
 30
0.0
 11
-639.251703313879
 21
-186.1224757014094
 31
0.0
  0
LINE
  5
2D4
330
1F
100
AcDbEntity
  8
D-4
  6
Continuous
 62
     7
370
     9
100
AcDbLine
 10
-651.6447582760372
 20
-187.7540598688898
 30
0.0
 11
-670.5697575130978
 21
-187.7540598688898
 31
0.0
  0
LINE
  5
2D5
330
1F
100
AcDbEntity
  8
D-4
  6
Continuous
 62
     7
370
     9
100
AcDbLine
 10
-841.6732874432125
 20
-210.2540598688898
 30
0.0
 11
-841.6732874432125
 21
-195.2540598688898
 31
0.0
  0
LINE
  5
2D6
330
1F
100
AcDbEntity
  8
D-4
  6
Continuous
 62
     7
370
     9
100
AcDbLine
 10
-841.6732874432125
 20
-222.7542124567805
 30
0.0
 11
-841.6732874432125
 21
-237.7542124567805
 31
0.0
  0
LINE
  5
2D7
330
1F
100
AcDbEntity
  8
D-4
  6
Continuous
 62
     7
370
     9
100
AcDbLine
 10
-843.1732883968868
 20
-222.7542124567805
 30
0.0
 11
-829.1732874432125
 21
-222.7542124567805
 31
0.0
  0
LINE
  5
2D8
330
1F
100
AcDbEntity
  8
D-4
  6
Continuous
 62
     7
370
     9
100
AcDbLine
 10
-843.1732883968868
 20
-210.2540598688898
 30
0.0
 11
-829.1732874432125
 21
-210.2540598688898
 31
0.0
  0
LINE
  5
2D9
330
1F
100
AcDbEntity
  8
D-4
  6
Continuous
 62
     7
370
     9
100
AcDbLine
 10
-841.6732874432125
 20
-222.7542124567805
 30
0.0
 11
-840.0417080441036
 21
-235.147286492425
 31
0.0
  0
LINE
  5
2DA
330
1F
100
AcDbEntity
  8
D-4
  6
Continuous
 62
     7
370
     9
100
AcDbLine
 10
-841.6732874432125
 20
-222.7542124567805
 30
0.0
 11
-843.3048668423214
 21
-235.147286492425
 31
0.0
  0
LINE
  5
2DB
330
1F
100
AcDbEntity
  8
D-4
  6
Continuous
 62
     7
370
     9
100
AcDbLine
 10
-841.6732874432125
 20
-210.2540598688898
 30
0.0
 11
-840.0417080441036
 21
-197.8609858332453
 31
0.0
  0
LINE
  5
2DC
330
1F
100
AcDbEntity
  8
D-4
  6
Continuous
 62
     7
370
     9
100
AcDbLine
 10
-841.6732874432125
 20
-210.2540598688898
 30
0.0
 11
-843.3048668423214
 21
-197.8609858332453
 31
0.0
  0
LINE
  5
2DD
330
1F
100
AcDbEntity
  8
D-4
  6
Continuous
 62
     7
370
     9
100
AcDbLine
 10
-841.6732874432125
 20
-210.2540598688898
 30
0.0
 11
-841.6732874432125
 21
-222.7542124567805
 31
0.0
  0
LINE
  5
2DE
330
1F
100
AcDbEntity
  8
D-4
  6
Continuous
 62
     7
370
     9
100
AcDbLine
 10
-673.8402309933224
 20
-254.7057734309016
 30
0.0
 11
-688.5081425228634
 21
-257.8446589289484
 31
0.0
  0
LINE
  5
2DF
330
1F
100
AcDbEntity
  8
D-4
  6
Continuous
 62
     7
370
     9
100
AcDbLine
 10
-661.6169872799435
 20
-252.0900164423762
 30
0.0
 11
-646.9490757504025
 21
-248.9511309443293
 31
0.0
  0
LINE
  5
2E0
330
1F
100
AcDbEntity
  8
D-4
  6
Continuous
 62
     7
370
     9
100
AcDbLine
 10
-673.5263386288204
 20
-256.172562676507
 30
0.0
 11
-678.5851803341427
 21
-232.5328265009699
 31
0.0
  0
LINE
  5
2E1
330
1F
100
AcDbEntity
  8
D-4
  6
Continuous
 62
     7
370
     9
100
AcDbLine
 10
-661.3030949154415
 20
-253.556824761468
 30
0.0
 11
-665.802167944006
 21
-232.5328265009699
 31
0.0
  0
LINE
  5
2E2
330
1F
100
AcDbEntity
  8
D-4
  6
Continuous
 62
     7
370
     9
100
AcDbLine
 10
-673.8402309933224
 20
-254.7057734309016
 30
0.0
 11
-685.6174984493771
 21
-258.8945780573664
 31
0.0
  0
LINE
  5
2E3
330
1F
100
AcDbEntity
  8
D-4
  6
Continuous
 62
     7
370
     9
100
AcDbLine
 10
-673.8402309933224
 20
-254.7057734309016
 30
0.0
 11
-686.300329259924
 21
-255.7036791621027
 31
0.0
  0
LINE
  5
2E4
330
1F
100
AcDbEntity
  8
D-4
  6
Continuous
 62
     7
370
     9
100
AcDbLine
 10
-661.6169872799435
 20
-252.0900164423762
 30
0.0
 11
-649.1568699398556
 21
-251.092110711175
 31
0.0
  0
LINE
  5
2E5
330
1F
100
AcDbEntity
  8
D-4
  6
Continuous
 62
     7
370
     9
100
AcDbLine
 10
-661.6169872799435
 20
-252.0900164423762
 30
0.0
 11
-649.8397198238888
 21
-247.9012118159113
 31
0.0
  0
LINE
  5
2E6
330
1F
100
AcDbEntity
  8
D-4
  6
Continuous
 62
     7
370
     9
100
AcDbLine
 10
-661.6169872799435
 20
-252.0900164423762
 30
0.0
 11
-673.8402309933224
 21
-254.7057734309016
 31
0.0
  0
LINE
  5
2E7
330
1F
100
AcDbEntity
  8
D-4
  6
Continuous
 62
     7
370
     9
100
AcDbLine
 10
-556.6733685055294
 20
-250.2542124567805
 30
0.0
 11
-541.6733685055294
 21
-250.2542124567805
 31
0.0
  0
LINE
  5
2E8
330
1F
100
AcDbEntity
  8
D-4
  6
Continuous
 62
     7
370
     9
100
AcDbLine
 10
-569.1732922115841
 20
-250.2542124567805
 30
0.0
 11
-584.1732922115841
 21
-250.2542124567805
 31
0.0
  0
LINE
  5
2E9
330
1F
100
AcDbEntity
  8
D-4
  6
Continuous
 62
     7
370
     9
100
AcDbLine
 10
-569.1732922115841
 20
-248.7542162714777
 30
0.0
 11
-569.1732922115841
 21
-262.7542219935236
 31
0.0
  0
LINE
  5
2EA
330
1F
100
AcDbEntity
  8
D-4
  6
Continuous
 62
     7
370
     9
100
AcDbLine
 10
-556.6733685055294
 20
-248.7542162714777
 30
0.0
 11
-556.6733685055294
 21
-262.7542219935236
 31
0.0
  0
LINE
  5
2EB
330
1F
100
AcDbEntity
  8
D-4
  6
Continuous
 62
     7
370
     9
100
AcDbLine
 10
-569.1732922115841
 20
-250.2542124567805
 30
0.0
 11
-581.5663471737423
 21
-251.8857966242609
 31
0.0
  0
LINE
  5
2EC
330
1F
100
AcDbEntity
  8
D-4
  6
Continuous
 62
     7
370
     9
100
AcDbLine
 10
-569.1732922115841
 20
-250.2542124567805
 30
0.0
 11
-581.5663471737423
 21
-248.6226473627863
 31
0.0
  0
LINE
  5
2ED
330
1F
100
AcDbEntity
  8
D-4
  6
Continuous
 62
     7
370
     9
100
AcDbLine
 10
-556.6733685055294
 20
-250.2542124567805
 30
0.0
 11
-544.2802944698849
 21
-251.8857966242609
 31
0.0
  0
LINE
  5
2EE
330
1F
100
AcDbEntity
  8
D-4
  6
Continuous
 62
     7
370
     9
100
AcDbLine
 10
-556.6733685055294
 20
-250.2542124567805
 30
0.0
 11
-544.2802944698849
 21
-248.6226473627863
 31
0.0
  0
LINE
  5
2EF
330
1F
100
AcDbEntity
  8
D-4
  6
Continuous
 62
     7
370
     9
100
AcDbLine
 10
-556.6733685055294
 20
-250.2542124567805
 30
0.0
 11
-569.1732922115841
 21
-250.2542124567805
 31
0.0
  0
LINE
  5
2F0
330
1F
100
AcDbEntity
  8
D-4
  6
Continuous
 62
     7
370
     9
100
AcDbLine
 10
-559.1734829464474
 20
-320.2538977442561
 30
0.0
 11
-539.1734829464474
 21
-320.2538977442561
 31
0.0
  0
LINE
  5
2F1
330
1F
100
AcDbEntity
  8
D-4
  6
Continuous
 62
     7
370
     9
100
AcDbLine
 10
-566.6734066525021
 20
-320.2538977442561
 30
0.0
 11
-581.6734066525021
 21
-320.2538977442561
 31
0.0
  0
LINE
  5
2F2
330
1F
100
AcDbEntity
  8
D-4
  6
Continuous
 62
     7
370
     9
100
AcDbLine
 10
-566.6734066525021
 20
-320.2538977442561
 30
0.0
 11
-579.0664616146603
 21
-321.8854819117365
 31
0.0
  0
LINE
  5
2F3
330
1F
100
AcDbEntity
  8
D-4
  6
Continuous
 62
     7
370
     9
100
AcDbLine
 10
-566.6734066525021
 20
-320.2538977442561
 30
0.0
 11
-579.0664616146603
 21
-318.6223231135187
 31
0.0
  0
LINE
  5
2F4
330
1F
100
AcDbEntity
  8
D-4
  6
Continuous
 62
     7
370
     9
100
AcDbLine
 10
-559.1734829464474
 20
-320.2538977442561
 30
0.0
 11
-546.7804470577755
 21
-321.8854819117365
 31
0.0
  0
LINE
  5
2F5
330
1F
100
AcDbEntity
  8
D-4
  6
Continuous
 62
     7
370
     9
100
AcDbLine
 10
-559.1734829464474
 20
-320.2538977442561
 30
0.0
 11
-546.7804470577755
 21
-318.6223231135187
 31
0.0
  0
LINE
  5
2F6
330
1F
100
AcDbEntity
  8
D-4
  6
Continuous
 62
     7
370
     9
100
AcDbLine
 10
-559.1734829464474
 20
-320.2538977442561
 30
0.0
 11
-566.6734066525021
 21
-320.2538977442561
 31
0.0
  0
LINE
  5
2F7
330
1F
100
AcDbEntity
  8
D-0
  6
Continuous
 62
     3
370
     9
100
AcDbLine
 10
-619.6247616329708
 20
-222.7542124567805
 30
0.0
 11
-619.1732922115841
 21
-222.3027430353937
 31
0.0
  0
LINE
  5
2F8
330
1F
100
AcDbEntity
  8
D-0
  6
Continuous
 62
     3
370
     9
100
AcDbLine
 10
-623.9549007931271
 20
-216.4777575312434
 30
0.0
 11
-619.1732922115841
 21
-211.6961489497004
 31
0.0
  0
LINE
  5
2F9
330
1F
100
AcDbEntity
  8
D-0
  6
Continuous
 62
     3
370
     9
100
AcDbLine
 10
-623.3316746273556
 20
-219.3900500117121
 30
0.0
 11
-619.1732922115841
 21
-215.2316675959406
 31
0.0
  0
LINE
  5
2FA
330
1F
100
AcDbEntity
  8
D-0
  6
Continuous
 62
     3
370
     9
100
AcDbLine
 10
-622.7084484615841
 20
-222.3023615656672
 30
0.0
 11
-619.1732922115841
 21
-218.7672053156672
 31
0.0
  0
LINE
  5
2FB
330
1F
100
AcDbEntity
  8
D-0
  6
Continuous
 62
     3
370
     9
100
AcDbLine
 10
-619.1732922115841
 20
-222.7542124567805
 30
0.0
 11
-819.1732874432125
 21
-222.7542124567805
 31
0.0
  0
LINE
  5
2FC
330
1F
100
AcDbEntity
  8
D-0
  6
Continuous
 62
     3
370
     9
100
AcDbLine
 10
-619.1732922115841
 20
-210.2540598688898
 30
0.0
 11
-819.1732874432125
 21
-210.2540598688898
 31
0.0
  0
LINE
  5
2FD
330
1F
100
AcDbEntity
  8
D-0
  6
Continuous
 62
     3
370
     9
100
AcDbLine
 10
-819.1732874432125
 20
-211.2518320856867
 30
0.0
 11
-818.1755009213009
 21
-210.2540598688898
 31
0.0
  0
LINE
  5
2FE
330
1F
100
AcDbEntity
  8
D-0
  6
Continuous
 62
     3
370
     9
100
AcDbLine
 10
-819.1732874432125
 20
-214.7873698054133
 30
0.0
 11
-814.6399679699459
 21
-210.2540598688898
 31
0.0
  0
LINE
  5
2FF
330
1F
100
AcDbEntity
  8
D-0
  6
Continuous
 62
     3
370
     9
100
AcDbLine
 10
-819.1732874432125
 20
-218.3229075251398
 30
0.0
 11
-813.592204145483
 21
-212.7418146906672
 31
0.0
  0
LINE
  5
300
330
1F
100
AcDbEntity
  8
D-0
  6
Continuous
 62
     3
370
     9
100
AcDbLine
 10
-819.1732874432125
 20
-221.8584452448664
 30
0.0
 11
-814.5547857800045
 21
-217.2399340449152
 31
0.0
  0
LINE
  5
301
330
1F
100
AcDbEntity
  8
D-0
  6
Continuous
 62
     3
370
     9
100
AcDbLine
 10
-816.5335312405148
 20
-222.7542124567805
 30
0.0
 11
-815.5173721828976
 21
-221.7380533991633
 31
0.0
  0
LINE
  5
302
330
1F
100
AcDbEntity
  8
D-0
  6
Continuous
 62
     3
370
     9
100
AcDbLine
 10
-625.20135312467
 20
-210.6531344233332
 30
0.0
 11
-624.8022594967404
 21
-210.2540598688898
 31
0.0
  0
LINE
  5
303
330
1F
100
AcDbEntity
  8
D-0
  6
Continuous
 62
     3
370
     9
100
AcDbLine
 10
-624.5781269588986
 20
-213.5654459772883
 30
0.0
 11
-621.2667408505001
 21
-210.2540598688898
 31
0.0
  0
LINE
  5
304
330
1F
100
AcDbEntity
  8
D-0
  6
Continuous
 62
     3
370
     9
100
AcDbLine
 10
-683.2673779049435
 20
-210.6531344233332
 30
0.0
 11
-682.8683033505001
 21
-210.2540598688898
 31
0.0
  0
LINE
  5
305
330
1F
100
AcDbEntity
  8
D-0
  6
Continuous
 62
     3
370
     9
100
AcDbLine
 10
-682.644151739172
 20
-213.5654459772883
 30
0.0
 11
-679.3327656307736
 21
-210.2540598688898
 31
0.0
  0
LINE
  5
306
330
1F
100
AcDbEntity
  8
D-0
  6
Continuous
 62
     3
370
     9
100
AcDbLine
 10
-682.0209255734005
 20
-216.4777575312434
 30
0.0
 11
-675.797227911047
 21
-210.2540598688898
 31
0.0
  0
LINE
  5
307
330
1F
100
AcDbEntity
  8
D-0
  6
Continuous
 62
     3
370
     9
100
AcDbLine
 10
-681.397699407629
 20
-219.3900500117121
 30
0.0
 11
-672.2616901913204
 21
-210.2540598688898
 31
0.0
  0
LINE
  5
308
330
1F
100
AcDbEntity
  8
D-0
  6
Continuous
 62
     3
370
     9
100
AcDbLine
 10
-680.7744732418575
 20
-222.3023615656672
 30
0.0
 11
-670.2447834530392
 21
-211.7726717768488
 31
0.0
  0
LINE
  5
309
330
1F
100
AcDbEntity
  8
D-0
  6
Continuous
 62
     3
370
     9
100
AcDbLine
 10
-677.6907864132443
 20
-222.7542124567805
 30
0.0
 11
-669.6215572872677
 21
-214.6849833308039
 31
0.0
  0
LINE
  5
30A
330
1F
100
AcDbEntity
  8
D-0
  6
Continuous
 62
     3
370
     9
100
AcDbLine
 10
-674.1552486935177
 20
-222.7542124567805
 30
0.0
 11
-668.9983311214962
 21
-217.597294884759
 31
0.0
  0
LINE
  5
30B
330
1F
100
AcDbEntity
  8
D-0
  6
Continuous
 62
     3
370
     9
100
AcDbLine
 10
-670.6197300472775
 20
-222.7542124567805
 30
0.0
 11
-668.3751049557247
 21
-220.5096064387141
 31
0.0
  0
LINE
  5
30C
330
1F
100
AcDbEntity
  8
D-0
  6
Continuous
 62
     3
370
     9
100
AcDbLine
 10
-651.8070927181759
 20
-211.0126696406184
 30
0.0
 11
-651.0484829464474
 21
-210.2540598688898
 31
0.0
  0
LINE
  5
30D
330
1F
100
AcDbEntity
  8
D-0
  6
Continuous
 62
     3
370
     9
100
AcDbLine
 10
-652.7696934261837
 20
-215.5107889948664
 30
0.0
 11
-647.5129643002072
 21
-210.2540598688898
 31
0.0
  0
LINE
  5
30E
330
1F
100
AcDbEntity
  8
D-0
  6
Continuous
 62
     3
370
     9
100
AcDbLine
 10
-653.7322750607052
 20
-220.0089083491144
 30
0.0
 11
-643.9774265804806
 21
-210.2540598688898
 31
0.0
  0
LINE
  5
30F
330
1F
100
AcDbEntity
  8
D-0
  6
Continuous
 62
     3
370
     9
100
AcDbLine
 10
-652.942060522131
 20
-222.7542124567805
 30
0.0
 11
-640.441888860754
 21
-210.2540598688898
 31
0.0
  0
LINE
  5
310
330
1F
100
AcDbEntity
  8
D-0
  6
Continuous
 62
     3
370
     9
100
AcDbLine
 10
-649.4065228024044
 20
-222.7542124567805
 30
0.0
 11
-639.3941250362911
 21
-212.7418146906672
 31
0.0
  0
LINE
  5
311
330
1F
100
AcDbEntity
  8
D-0
  6
Continuous
 62
     3
370
     9
100
AcDbLine
 10
-645.8709850826779
 20
-222.7542124567805
 30
0.0
 11
-640.3567066708126
 21
-217.2399340449152
 31
0.0
  0
LINE
  5
312
330
1F
100
AcDbEntity
  8
D-0
  6
Continuous
 62
     3
370
     9
100
AcDbLine
 10
-642.3354473629513
 20
-222.7542124567805
 30
0.0
 11
-641.3192883053341
 21
-221.7380533991633
 31
0.0
  0
LINE
  5
313
330
1F
100
AcDbEntity
  8
D-0
  6
Continuous
 62
     3
370
     9
100
AcDbLine
 10
-741.3334026852169
 20
-210.6531344233332
 30
0.0
 11
-740.9343185940304
 21
-210.2540598688898
 31
0.0
  0
LINE
  5
314
330
1F
100
AcDbEntity
  8
D-0
  6
Continuous
 62
     3
370
     9
100
AcDbLine
 10
-740.7101765194454
 20
-213.5654459772883
 30
0.0
 11
-737.398790411047
 21
-210.2540598688898
 31
0.0
  0
LINE
  5
315
330
1F
100
AcDbEntity
  8
D-0
  6
Continuous
 62
     3
370
     9
100
AcDbLine
 10
-740.086950353674
 20
-216.4777575312434
 30
0.0
 11
-733.8632526913204
 21
-210.2540598688898
 31
0.0
  0
LINE
  5
316
330
1F
100
AcDbEntity
  8
D-0
  6
Continuous
 62
     3
370
     9
100
AcDbLine
 10
-739.4637241879025
 20
-219.3900500117121
 30
0.0
 11
-730.3277149715939
 21
-210.2540598688898
 31
0.0
  0
LINE
  5
317
330
1F
100
AcDbEntity
  8
D-0
  6
Continuous
 62
     3
370
     9
100
AcDbLine
 10
-738.840498022131
 20
-222.3023615656672
 30
0.0
 11
-728.3108082333126
 21
-211.7726717768488
 31
0.0
  0
LINE
  5
318
330
1F
100
AcDbEntity
  8
D-0
  6
Continuous
 62
     3
370
     9
100
AcDbLine
 10
-735.7568207302609
 20
-222.7542124567805
 30
0.0
 11
-727.6875820675411
 21
-214.6849833308039
 31
0.0
  0
LINE
  5
319
330
1F
100
AcDbEntity
  8
D-0
  6
Continuous
 62
     3
370
     9
100
AcDbLine
 10
-732.2212830105343
 20
-222.7542124567805
 30
0.0
 11
-727.0643559017697
 21
-217.597294884759
 31
0.0
  0
LINE
  5
31A
330
1F
100
AcDbEntity
  8
D-0
  6
Continuous
 62
     3
370
     9
100
AcDbLine
 10
-728.6857452908077
 20
-222.7542124567805
 30
0.0
 11
-726.4411297359982
 21
-220.5096064387141
 31
0.0
  0
LINE
  5
31B
330
1F
100
AcDbEntity
  8
D-0
  6
Continuous
 62
     3
370
     9
100
AcDbLine
 10
-709.8731365719357
 20
-211.0126696406184
 30
0.0
 11
-709.1145077267208
 21
-210.2540598688898
 31
0.0
  0
LINE
  5
31C
330
1F
100
AcDbEntity
  8
D-0
  6
Continuous
 62
     3
370
     9
100
AcDbLine
 10
-710.8357182064572
 20
-215.5107889948664
 30
0.0
 11
-705.5789890804806
 21
-210.2540598688898
 31
0.0
  0
LINE
  5
31D
330
1F
100
AcDbEntity
  8
D-0
  6
Continuous
 62
     3
370
     9
100
AcDbLine
 10
-711.7982998409786
 20
-220.0089083491144
 30
0.0
 11
-702.043451360754
 21
-210.2540598688898
 31
0.0
  0
LINE
  5
31E
330
1F
100
AcDbEntity
  8
D-0
  6
Continuous
 62
     3
370
     9
100
AcDbLine
 10
-711.0080853024044
 20
-222.7542124567805
 30
0.0
 11
-698.5079136410275
 21
-210.2540598688898
 31
0.0
  0
LINE
  5
31F
330
1F
100
AcDbEntity
  8
D-0
  6
Continuous
 62
     3
370
     9
100
AcDbLine
 10
-707.4725475826779
 20
-222.7542124567805
 30
0.0
 11
-697.4601498165646
 21
-212.7418146906672
 31
0.0
  0
LINE
  5
320
330
1F
100
AcDbEntity
  8
D-0
  6
Continuous
 62
     3
370
     9
100
AcDbLine
 10
-703.9370098629513
 20
-222.7542124567805
 30
0.0
 11
-698.4227314510861
 21
-217.2399340449152
 31
0.0
  0
LINE
  5
321
330
1F
100
AcDbEntity
  8
D-0
  6
Continuous
 62
     3
370
     9
100
AcDbLine
 10
-700.4014721432247
 20
-222.7542124567805
 30
0.0
 11
-699.3853130856075
 21
-221.7380533991633
 31
0.0
  0
LINE
  5
322
330
1F
100
AcDbEntity
  8
D-0
  6
Continuous
 62
     3
370
     9
100
AcDbLine
 10
-799.3994274654904
 20
-210.6531344233332
 30
0.0
 11
-799.000352911047
 21
-210.2540598688898
 31
0.0
  0
LINE
  5
323
330
1F
100
AcDbEntity
  8
D-0
  6
Continuous
 62
     3
370
     9
100
AcDbLine
 10
-798.7762012997189
 20
-213.5654459772883
 30
0.0
 11
-795.4648151913204
 21
-210.2540598688898
 31
0.0
  0
LINE
  5
324
330
1F
100
AcDbEntity
  8
D-0
  6
Continuous
 62
     3
370
     9
100
AcDbLine
 10
-798.1529751339474
 20
-216.4777575312434
 30
0.0
 11
-791.9292774715939
 21
-210.2540598688898
 31
0.0
  0
LINE
  5
325
330
1F
100
AcDbEntity
  8
D-0
  6
Continuous
 62
     3
370
     9
100
AcDbLine
 10
-797.5297489681759
 20
-219.3900500117121
 30
0.0
 11
-788.3937492886105
 21
-210.2540598688898
 31
0.0
  0
LINE
  5
326
330
1F
100
AcDbEntity
  8
D-0
  6
Continuous
 62
     3
370
     9
100
AcDbLine
 10
-796.9065228024044
 20
-222.3023615656672
 30
0.0
 11
-786.3768330135861
 21
-211.7726717768488
 31
0.0
  0
LINE
  5
327
330
1F
100
AcDbEntity
  8
D-0
  6
Continuous
 62
     3
370
     9
100
AcDbLine
 10
-793.8228455105343
 20
-222.7542124567805
 30
0.0
 11
-785.7536068478146
 21
-214.6849833308039
 31
0.0
  0
LINE
  5
328
330
1F
100
AcDbEntity
  8
D-0
  6
Continuous
 62
     3
370
     9
100
AcDbLine
 10
-790.2873077908077
 20
-222.7542124567805
 30
0.0
 11
-785.1303806820431
 21
-217.597294884759
 31
0.0
  0
LINE
  5
329
330
1F
100
AcDbEntity
  8
D-0
  6
Continuous
 62
     3
370
     9
100
AcDbLine
 10
-786.7517796078243
 20
-222.7542124567805
 30
0.0
 11
-784.5071545162716
 21
-220.5096064387141
 31
0.0
  0
LINE
  5
32A
330
1F
100
AcDbEntity
  8
D-0
  6
Continuous
 62
     3
370
     9
100
AcDbLine
 10
-767.939151815466
 20
-211.0126696406184
 30
0.0
 11
-767.1805420437374
 21
-210.2540598688898
 31
0.0
  0
LINE
  5
32B
330
1F
100
AcDbEntity
  8
D-0
  6
Continuous
 62
     3
370
     9
100
AcDbLine
 10
-768.9017429867306
 20
-215.5107889948664
 30
0.0
 11
-763.645013860754
 21
-210.2540598688898
 31
0.0
  0
LINE
  5
32C
330
1F
100
AcDbEntity
  8
D-0
  6
Continuous
 62
     3
370
     9
100
AcDbLine
 10
-769.8643246212521
 20
-220.0089083491144
 30
0.0
 11
-760.1094761410275
 21
-210.2540598688898
 31
0.0
  0
LINE
  5
32D
330
1F
100
AcDbEntity
  8
D-0
  6
Continuous
 62
     3
370
     9
100
AcDbLine
 10
-769.0741100826779
 20
-222.7542124567805
 30
0.0
 11
-756.5739384213009
 21
-210.2540598688898
 31
0.0
  0
LINE
  5
32E
330
1F
100
AcDbEntity
  8
D-0
  6
Continuous
 62
     3
370
     9
100
AcDbLine
 10
-765.5385723629513
 20
-222.7542124567805
 30
0.0
 11
-755.526174596838
 21
-212.7418146906672
 31
0.0
  0
LINE
  5
32F
330
1F
100
AcDbEntity
  8
D-0
  6
Continuous
 62
     3
370
     9
100
AcDbLine
 10
-762.0030346432247
 20
-222.7542124567805
 30
0.0
 11
-756.4887562313595
 21
-217.2399340449152
 31
0.0
  0
LINE
  5
330
330
1F
100
AcDbEntity
  8
D-0
  6
Continuous
 62
     3
370
     9
100
AcDbLine
 10
-758.4675064602413
 20
-222.7542124567805
 30
0.0
 11
-757.4513474026242
 21
-221.7380533991633
 31
0.0
  0
LINE
  5
331
330
1F
100
AcDbEntity
  8
D-0
  6
Continuous
 62
     3
370
     9
100
AcDbLine
 10
-626.5367451229611
 20
-210.2540598688898
 30
0.0
 11
-623.8617458859005
 21
-222.7542124567805
 31
0.0
  0
LINE
  5
332
330
1F
100
AcDbEntity
  8
D-0
  6
Continuous
 62
     3
370
     9
100
AcDbLine
 10
-640.2867451229611
 20
-222.7542124567805
 30
0.0
 11
-637.6117458859005
 21
-210.2540598688898
 31
0.0
  0
LINE
  5
333
330
1F
100
AcDbEntity
  8
D-0
  6
Continuous
 62
     3
370
     9
100
AcDbLine
 10
-625.2867451229611
 20
-210.2540598688898
 30
0.0
 11
-622.6117458859005
 21
-222.7542124567805
 31
0.0
  0
LINE
  5
334
330
1F
100
AcDbEntity
  8
D-0
  6
Continuous
 62
     3
370
     9
100
AcDbLine
 10
-641.5367451229611
 20
-222.7542124567805
 30
0.0
 11
-638.8617458859005
 21
-210.2540598688898
 31
0.0
  0
LINE
  5
335
330
1F
100
AcDbEntity
  8
D-0
  6
Continuous
 62
     3
370
     9
100
AcDbLine
 10
-666.6447582760372
 20
-222.7542124567805
 30
0.0
 11
-669.3197575130978
 21
-210.2540598688898
 31
0.0
  0
LINE
  5
336
330
1F
100
AcDbEntity
  8
D-0
  6
Continuous
 62
     3
370
     9
100
AcDbLine
 10
-652.8947582760372
 20
-210.2540598688898
 30
0.0
 11
-655.5697575130978
 21
-222.7542124567805
 31
0.0
  0
LINE
  5
337
330
1F
100
AcDbEntity
  8
D-0
  6
Continuous
 62
     3
370
     9
100
AcDbLine
 10
-667.8947582760372
 20
-222.7542124567805
 30
0.0
 11
-670.5697575130978
 21
-210.2540598688898
 31
0.0
  0
LINE
  5
338
330
1F
100
AcDbEntity
  8
D-0
  6
Continuous
 62
     3
370
     9
100
AcDbLine
 10
-651.6447582760372
 20
-210.2540598688898
 30
0.0
 11
-654.3197575130978
 21
-222.7542124567805
 31
0.0
  0
LINE
  5
339
330
1F
100
AcDbEntity
  8
D-0
  6
Continuous
 62
     3
370
     9
100
AcDbLine
 10
-684.6027699032345
 20
-210.2540598688898
 30
0.0
 11
-681.927770666174
 21
-222.7542124567805
 31
0.0
  0
LINE
  5
33A
330
1F
100
AcDbEntity
  8
D-0
  6
Continuous
 62
     3
370
     9
100
AcDbLine
 10
-698.3527699032345
 20
-222.7542124567805
 30
0.0
 11
-695.677770666174
 21
-210.2540598688898
 31
0.0
  0
LINE
  5
33B
330
1F
100
AcDbEntity
  8
D-0
  6
Continuous
 62
     3
370
     9
100
AcDbLine
 10
-683.3527699032345
 20
-210.2540598688898
 30
0.0
 11
-680.677770666174
 21
-222.7542124567805
 31
0.0
  0
LINE
  5
33C
330
1F
100
AcDbEntity
  8
D-0
  6
Continuous
 62
     3
370
     9
100
AcDbLine
 10
-699.6027699032345
 20
-222.7542124567805
 30
0.0
 11
-696.927770666174
 21
-210.2540598688898
 31
0.0
  0
LINE
  5
33D
330
1F
100
AcDbEntity
  8
D-0
  6
Continuous
 62
     3
370
     9
100
AcDbLine
 10
-724.7107830563107
 20
-222.7542124567805
 30
0.0
 11
-727.3857822933712
 21
-210.2540598688898
 31
0.0
  0
LINE
  5
33E
330
1F
100
AcDbEntity
  8
D-0
  6
Continuous
 62
     3
370
     9
100
AcDbLine
 10
-710.9607830563107
 20
-210.2540598688898
 30
0.0
 11
-713.6357822933712
 21
-222.7542124567805
 31
0.0
  0
LINE
  5
33F
330
1F
100
AcDbEntity
  8
D-0
  6
Continuous
 62
     3
370
     9
100
AcDbLine
 10
-725.9607830563107
 20
-222.7542124567805
 30
0.0
 11
-728.6357822933712
 21
-210.2540598688898
 31
0.0
  0
LINE
  5
340
330
1F
100
AcDbEntity
  8
D-0
  6
Continuous
 62
     3
370
     9
100
AcDbLine
 10
-709.7107830563107
 20
-210.2540598688898
 30
0.0
 11
-712.3857822933712
 21
-222.7542124567805
 31
0.0
  0
LINE
  5
341
330
1F
100
AcDbEntity
  8
D-0
  6
Continuous
 62
     3
370
     9
100
AcDbLine
 10
-742.6688042202511
 20
-210.2540598688898
 30
0.0
 11
-739.9938049831906
 21
-222.7542124567805
 31
0.0
  0
LINE
  5
342
330
1F
100
AcDbEntity
  8
D-0
  6
Continuous
 62
     3
370
     9
100
AcDbLine
 10
-756.4188042202511
 20
-222.7542124567805
 30
0.0
 11
-753.7438049831906
 21
-210.2540598688898
 31
0.0
  0
LINE
  5
343
330
1F
100
AcDbEntity
  8
D-0
  6
Continuous
 62
     3
370
     9
100
AcDbLine
 10
-741.4188042202511
 20
-210.2540598688898
 30
0.0
 11
-738.7438049831906
 21
-222.7542124567805
 31
0.0
  0
LINE
  5
344
330
1F
100
AcDbEntity
  8
D-0
  6
Continuous
 62
     3
370
     9
100
AcDbLine
 10
-757.6688042202511
 20
-222.7542124567805
 30
0.0
 11
-754.9938049831906
 21
-210.2540598688898
 31
0.0
  0
LINE
  5
345
330
1F
100
AcDbEntity
  8
D-0
  6
Continuous
 62
     3
370
     9
100
AcDbLine
 10
-782.7768173733273
 20
-222.7542124567805
 30
0.0
 11
-785.4518166103878
 21
-210.2540598688898
 31
0.0
  0
LINE
  5
346
330
1F
100
AcDbEntity
  8
D-0
  6
Continuous
 62
     3
370
     9
100
AcDbLine
 10
-769.0268173733273
 20
-210.2540598688898
 30
0.0
 11
-771.7018166103878
 21
-222.7542124567805
 31
0.0
  0
LINE
  5
347
330
1F
100
AcDbEntity
  8
D-0
  6
Continuous
 62
     3
370
     9
100
AcDbLine
 10
-784.0268173733273
 20
-222.7542124567805
 30
0.0
 11
-786.7018166103878
 21
-210.2540598688898
 31
0.0
  0
LINE
  5
348
330
1F
100
AcDbEntity
  8
D-0
  6
Continuous
 62
     3
370
     9
100
AcDbLine
 10
-767.7768173733273
 20
-210.2540598688898
 30
0.0
 11
-770.4518166103878
 21
-222.7542124567805
 31
0.0
  0
LINE
  5
349
330
1F
100
AcDbEntity
  8
D-0
  6
Continuous
 62
     3
370
     9
100
AcDbLine
 10
-800.7348290005245
 20
-210.2540598688898
 30
0.0
 11
-798.059829763464
 21
-222.7542124567805
 31
0.0
  0
LINE
  5
34A
330
1F
100
AcDbEntity
  8
D-0
  6
Continuous
 62
     3
370
     9
100
AcDbLine
 10
-814.4848290005245
 20
-222.7542124567805
 30
0.0
 11
-811.809829763464
 21
-210.2540598688898
 31
0.0
  0
LINE
  5
34B
330
1F
100
AcDbEntity
  8
D-0
  6
Continuous
 62
     3
370
     9
100
AcDbLine
 10
-799.4848290005245
 20
-210.2540598688898
 30
0.0
 11
-796.809829763464
 21
-222.7542124567805
 31
0.0
  0
LINE
  5
34C
330
1F
100
AcDbEntity
  8
D-0
  6
Continuous
 62
     3
370
     9
100
AcDbLine
 10
-815.7348290005245
 20
-222.7542124567805
 30
0.0
 11
-813.059829763464
 21
-210.2540598688898
 31
0.0
  0
LINE
  5
34D
330
1F
100
AcDbEntity
  8
D-0
  6
Continuous
 62
     3
370
     9
100
AcDbLine
 10
-556.6733685055294
 20
-272.7542219935236
 30
0.0
 11
-556.6733685055294
 21
-276.5039263544855
 31
0.0
  0
LINE
  5
34E
330
1F
100
AcDbEntity
  8
D-0
  6
Continuous
 62
     3
370
     9
100
AcDbLine
 10
-569.1732922115841
 20
-272.7542219935236
 30
0.0
 11
-569.1732922115841
 21
-276.5039263544855
 31
0.0
  0
LINE
  5
34F
330
1F
100
AcDbEntity
  8
D-0
  6
Continuous
 62
     3
370
     9
100
AcDbLine
 10
-569.1732922115841
 20
-272.7542219935236
 30
0.0
 11
-556.6733685055294
 21
-272.7542219935236
 31
0.0
  0
LINE
  5
350
330
1F
100
AcDbEntity
  8
D-0
  6
Continuous
 62
     3
370
     9
100
AcDbLine
 10
-556.6733685055294
 20
-276.5039263544855
 30
0.0
 11
-556.6733685055294
 21
-287.7540217219172
 31
0.0
  0
LINE
  5
351
330
1F
100
AcDbEntity
  8
D-0
  6
Continuous
 62
     3
370
     9
100
AcDbLine
 10
-559.1734829464474
 20
-290.2539072809992
 30
0.0
 11
-556.6733685055294
 21
-287.7540217219172
 31
0.0
  0
LINE
  5
352
330
1F
100
AcDbEntity
  8
D-0
  6
Continuous
 62
     3
370
     9
100
AcDbLine
 10
-559.1734829464474
 20
-290.2539072809992
 30
0.0
 11
-559.1734829464474
 21
-325.2538977442561
 31
0.0
  0
LINE
  5
353
330
1F
100
AcDbEntity
  8
D-0
  6
Continuous
 62
     3
370
     9
100
AcDbLine
 10
-566.6734066525021
 20
-325.2538977442561
 30
0.0
 11
-566.6734066525021
 21
-290.2539072809992
 31
0.0
  0
LINE
  5
354
330
1F
100
AcDbEntity
  8
D-0
  6
Continuous
 62
     3
370
     9
100
AcDbLine
 10
-569.1732922115841
 20
-287.7540217219172
 30
0.0
 11
-566.6734066525021
 21
-290.2539072809992
 31
0.0
  0
LINE
  5
355
330
1F
100
AcDbEntity
  8
D-0
  6
Continuous
 62
     3
370
     9
100
AcDbLine
 10
-569.1732922115841
 20
-287.7540217219172
 30
0.0
 11
-569.1732922115841
 21
-276.5039263544855
 31
0.0
  0
LINE
  5
356
330
1F
100
AcDbEntity
  8
D-0
  6
Continuous
 62
     3
370
     9
100
AcDbLine
 10
-569.1732922115841
 20
-327.7540312586603
 30
0.0
 11
-566.6734066525021
 21
-325.2538977442561
 31
0.0
  0
LINE
  5
357
330
1F
100
AcDbEntity
  8
D-0
  6
Continuous
 62
     3
370
     9
100
AcDbLine
 10
-569.1732922115841
 20
-339.004126626092
 30
0.0
 11
-569.1732922115841
 21
-327.7540312586603
 31
0.0
  0
LINE
  5
358
330
1F
100
AcDbEntity
  8
D-0
  6
Continuous
 62
     3
370
     9
100
AcDbLine
 10
-559.1734829464474
 20
-325.2538977442561
 30
0.0
 11
-556.6733685055294
 21
-327.7540312586603
 31
0.0
  0
LINE
  5
359
330
1F
100
AcDbEntity
  8
D-0
  6
Continuous
 62
     3
370
     9
100
AcDbLine
 10
-556.6733685055294
 20
-327.7540312586603
 30
0.0
 11
-556.6733685055294
 21
-339.004126626092
 31
0.0
  0
LINE
  5
35A
330
1F
100
AcDbEntity
  8
D-0
  6
Continuous
 62
     3
370
     9
100
AcDbLine
 10
-556.6733685055294
 20
-339.004126626092
 30
0.0
 11
-569.1732922115841
 21
-339.004126626092
 31
0.0
  0
LINE
  5
35B
330
1F
100
AcDbEntity
  8
D-0
  6
Continuous
 62
     3
370
     9
100
AcDbLine
 10
-569.1732922115841
 20
-276.5039263544855
 30
0.0
 11
-556.6733685055294
 21
-276.5039263544855
 31
0.0
  0
LINE
  5
35C
330
1F
100
AcDbEntity
  8
D-0
  6
Continuous
 62
     3
370
     9
100
AcDbLine
 10
-640.2867451229611
 20
-272.7542219935236
 30
0.0
 11
-623.8617458859005
 21
-272.7542219935236
 31
0.0
  0
LINE
  5
35D
330
1F
100
AcDbEntity
  8
D-0
  6
Continuous
 62
     3
370
     9
100
AcDbLine
 10
-698.3527699032345
 20
-272.7542219935236
 30
0.0
 11
-681.927770666174
 21
-272.7542219935236
 31
0.0
  0
LINE
  5
35E
330
1F
100
AcDbEntity
  8
D-0
  6
Continuous
 62
     3
370
     9
100
AcDbLine
 10
-619.1732922115841
 20
-276.5039263544855
 30
0.0
 11
-622.6117458859005
 21
-276.5039263544855
 31
0.0
  0
LINE
  5
35F
330
1F
100
AcDbEntity
  8
D-0
  6
Continuous
 62
     3
370
     9
100
AcDbLine
 10
-739.9938049831906
 20
-272.7542219935236
 30
0.0
 11
-756.4188042202511
 21
-272.7542219935236
 31
0.0
  0
LINE
  5
360
330
1F
100
AcDbEntity
  8
D-0
  6
Continuous
 62
     3
370
     9
100
AcDbLine
 10
-641.5367451229611
 20
-276.5039263544855
 30
0.0
 11
-654.3197575130978
 21
-276.5039263544855
 31
0.0
  0
LINE
  5
361
330
1F
100
AcDbEntity
  8
D-0
  6
Continuous
 62
     3
370
     9
100
AcDbLine
 10
-655.5697575130978
 20
-272.7542219935236
 30
0.0
 11
-666.6447582760372
 21
-272.7542219935236
 31
0.0
  0
LINE
  5
362
330
1F
100
AcDbEntity
  8
D-0
  6
Continuous
 62
     3
370
     9
100
AcDbLine
 10
-622.6117458859005
 20
-276.5039263544855
 30
0.0
 11
-623.8617458859005
 21
-272.7542219935236
 31
0.0
  0
LINE
  5
363
330
1F
100
AcDbEntity
  8
D-0
  6
Continuous
 62
     3
370
     9
100
AcDbLine
 10
-641.5367451229611
 20
-276.5039263544855
 30
0.0
 11
-640.2867451229611
 21
-272.7542219935236
 31
0.0
  0
LINE
  5
364
330
1F
100
AcDbEntity
  8
D-0
  6
Continuous
 62
     3
370
     9
100
AcDbLine
 10
-667.8947582760372
 20
-276.5039263544855
 30
0.0
 11
-680.677770666174
 21
-276.5039263544855
 31
0.0
  0
LINE
  5
365
330
1F
100
AcDbEntity
  8
D-0
  6
Continuous
 62
     3
370
     9
100
AcDbLine
 10
-667.8947582760372
 20
-276.5039263544855
 30
0.0
 11
-666.6447582760372
 21
-272.7542219935236
 31
0.0
  0
LINE
  5
366
330
1F
100
AcDbEntity
  8
D-0
  6
Continuous
 62
     3
370
     9
100
AcDbLine
 10
-655.5697575130978
 20
-272.7542219935236
 30
0.0
 11
-654.3197575130978
 21
-276.5039263544855
 31
0.0
  0
LINE
  5
367
330
1F
100
AcDbEntity
  8
D-0
  6
Continuous
 62
     3
370
     9
100
AcDbLine
 10
-699.6027699032345
 20
-276.5039263544855
 30
0.0
 11
-712.3857822933712
 21
-276.5039263544855
 31
0.0
  0
LINE
  5
368
330
1F
100
AcDbEntity
  8
D-0
  6
Continuous
 62
     3
370
     9
100
AcDbLine
 10
-713.6357822933712
 20
-272.7542219935236
 30
0.0
 11
-724.7107830563107
 21
-272.7542219935236
 31
0.0
  0
LINE
  5
369
330
1F
100
AcDbEntity
  8
D-0
  6
Continuous
 62
     3
370
     9
100
AcDbLine
 10
-680.677770666174
 20
-276.5039263544855
 30
0.0
 11
-681.927770666174
 21
-272.7542219935236
 31
0.0
  0
LINE
  5
36A
330
1F
100
AcDbEntity
  8
D-0
  6
Continuous
 62
     3
370
     9
100
AcDbLine
 10
-699.6027699032345
 20
-276.5039263544855
 30
0.0
 11
-698.3527699032345
 21
-272.7542219935236
 31
0.0
  0
LINE
  5
36B
330
1F
100
AcDbEntity
  8
D-0
  6
Continuous
 62
     3
370
     9
100
AcDbLine
 10
-725.9607830563107
 20
-276.5039263544855
 30
0.0
 11
-738.7438049831906
 21
-276.5039263544855
 31
0.0
  0
LINE
  5
36C
330
1F
100
AcDbEntity
  8
D-0
  6
Continuous
 62
     3
370
     9
100
AcDbLine
 10
-725.9607830563107
 20
-276.5039263544855
 30
0.0
 11
-724.7107830563107
 21
-272.7542219935236
 31
0.0
  0
LINE
  5
36D
330
1F
100
AcDbEntity
  8
D-0
  6
Continuous
 62
     3
370
     9
100
AcDbLine
 10
-713.6357822933712
 20
-272.7542219935236
 30
0.0
 11
-712.3857822933712
 21
-276.5039263544855
 31
0.0
  0
LINE
  5
36E
330
1F
100
AcDbEntity
  8
D-0
  6
Continuous
 62
     3
370
     9
100
AcDbLine
 10
-757.6688042202511
 20
-276.5039263544855
 30
0.0
 11
-770.4518166103878
 21
-276.5039263544855
 31
0.0
  0
LINE
  5
36F
330
1F
100
AcDbEntity
  8
D-0
  6
Continuous
 62
     3
370
     9
100
AcDbLine
 10
-771.7018166103878
 20
-272.7542219935236
 30
0.0
 11
-782.7768173733273
 21
-272.7542219935236
 31
0.0
  0
LINE
  5
370
330
1F
100
AcDbEntity
  8
D-0
  6
Continuous
 62
     3
370
     9
100
AcDbLine
 10
-738.7438049831906
 20
-276.5039263544855
 30
0.0
 11
-739.9938049831906
 21
-272.7542219935236
 31
0.0
  0
LINE
  5
371
330
1F
100
AcDbEntity
  8
D-0
  6
Continuous
 62
     3
370
     9
100
AcDbLine
 10
-757.6688042202511
 20
-276.5039263544855
 30
0.0
 11
-756.4188042202511
 21
-272.7542219935236
 31
0.0
  0
LINE
  5
372
330
1F
100
AcDbEntity
  8
D-0
  6
Continuous
 62
     3
370
     9
100
AcDbLine
 10
-784.0268173733273
 20
-276.5039263544855
 30
0.0
 11
-796.809829763464
 21
-276.5039263544855
 31
0.0
  0
LINE
  5
373
330
1F
100
AcDbEntity
  8
D-0
  6
Continuous
 62
     3
370
     9
100
AcDbLine
 10
-784.0268173733273
 20
-276.5039263544855
 30
0.0
 11
-782.7768173733273
 21
-272.7542219935236
 31
0.0
  0
LINE
  5
374
330
1F
100
AcDbEntity
  8
D-0
  6
Continuous
 62
     3
370
     9
100
AcDbLine
 10
-771.7018166103878
 20
-272.7542219935236
 30
0.0
 11
-770.4518166103878
 21
-276.5039263544855
 31
0.0
  0
LINE
  5
375
330
1F
100
AcDbEntity
  8
D-0
  6
Continuous
 62
     3
370
     9
100
AcDbLine
 10
-815.7348290005245
 20
-276.5039263544855
 30
0.0
 11
-819.1732874432125
 21
-276.5039263544855
 31
0.0
  0
LINE
  5
376
330
1F
100
AcDbEntity
  8
D-0
  6
Continuous
 62
     3
370
     9
100
AcDbLine
 10
-798.059829763464
 20
-272.7542219935236
 30
0.0
 11
-814.4848290005245
 21
-272.7542219935236
 31
0.0
  0
LINE
  5
377
330
1F
100
AcDbEntity
  8
D-0
  6
Continuous
 62
     3
370
     9
100
AcDbLine
 10
-798.059829763464
 20
-272.7542219935236
 30
0.0
 11
-796.809829763464
 21
-276.5039263544855
 31
0.0
  0
LINE
  5
378
330
1F
100
AcDbEntity
  8
D-0
  6
Continuous
 62
     3
370
     9
100
AcDbLine
 10
-815.7348290005245
 20
-276.5039263544855
 30
0.0
 11
-814.4848290005245
 21
-272.7542219935236
 31
0.0
  0
LINE
  5
379
330
1F
100
AcDbEntity
  8
D-0
  6
Continuous
 62
     3
370
     9
100
AcDbLine
 10
-619.1732922115841
 20
-290.2539072809992
 30
0.0
 11
-819.1732874432125
 21
-290.2539072809992
 31
0.0
  0
LINE
  5
37A
330
1F
100
AcDbEntity
  8
D-0
  6
Continuous
 62
     3
370
     9
100
AcDbLine
 10
-619.1732922115841
 20
-287.7540217219172
 30
0.0
 11
-819.1732874432125
 21
-287.7540217219172
 31
0.0
  0
LINE
  5
37B
330
1F
100
AcDbEntity
  8
D-0
  6
Continuous
 62
     3
370
     9
100
AcDbLine
 10
-619.1732922115841
 20
-325.2541456995783
 30
0.0
 11
-819.1732874432125
 21
-325.2541456995783
 31
0.0
  0
LINE
  5
37C
330
1F
100
AcDbEntity
  8
D-0
  6
Continuous
 62
     3
370
     9
100
AcDbLine
 10
-619.1732922115841
 20
-327.7540312586603
 30
0.0
 11
-819.1732874432125
 21
-327.7540312586603
 31
0.0
  0
LINE
  5
37D
330
1F
100
AcDbEntity
  8
D-0
  6
Continuous
 62
     3
370
     9
100
AcDbLine
 10
-619.1732922115841
 20
-339.004126626092
 30
0.0
 11
-819.1732874432125
 21
-339.004126626092
 31
0.0
  0
LINE
  5
37E
330
1F
100
AcDbEntity
  8
1-5ﾚｲﾔ
  6
Continuous
 62
     7
370
     9
100
AcDbLine
 10
-116.872737435935
 20
558.1586435678844
 30
0.0
 11
-213.2904362034153
 21
391.1582905537374
 31
0.0
  0
LINE
  5
37F
330
1F
100
AcDbEntity
  8
1-5ﾚｲﾔ
  6
Continuous
 62
     7
370
     9
100
AcDbLine
 10
-213.2904362034153
 20
391.1582905537374
 30
0.0
 11
-207.550184717939
 21
405.0164835414067
 31
0.0
  0
LINE
  5
380
330
1F
100
AcDbEntity
  8
1-5ﾚｲﾔ
  6
Continuous
 62
     7
370
     9
100
AcDbLine
 10
-213.2904362034153
 20
391.1582905537374
 30
0.0
 11
-204.1590147682845
 21
403.0585906581059
 31
0.0
  0
LINE
  5
381
330
1F
100
AcDbEntity
  8
1-5ﾚｲﾔ
  6
Continuous
 62
     7
370
     9
100
AcDbLine
 10
-116.872737435935
 20
558.1586435678844
 30
0.0
 11
56.87726256406499
 21
558.1586435678844
 31
0.0
  0
TEXT
  5
382
330
1F
100
AcDbEntity
  8
1-5ﾚｲﾔ
  6
Continuous
 62
     7
370
     9
100
AcDbText
 10
-116.872737435935
 20
566.2629244747677
 30
0.0
 40
11.43
  1
クロスバー φ６ ＠50
 41
1.158333333333333
  7
ＭＳ ゴシック
100
AcDbText
  0
LINE
  5
383
330
1F
100
AcDbEntity
  8
1-5ﾚｲﾔ
  6
Continuous
 62
     7
370
     9
100
AcDbLine
 10
-133.7787219063684
 20
598.1586518158783
 30
0.0
 11
-208.8344330943392
 21
468.1583466400971
 31
0.0
  0
LINE
  5
384
330
1F
100
AcDbEntity
  8
1-5ﾚｲﾔ
  6
Continuous
 62
     7
370
     9
100
AcDbLine
 10
-208.8344330943392
 20
468.1583466400971
 30
0.0
 11
-203.0941816088629
 21
482.0165396277665
 31
0.0
  0
LINE
  5
385
330
1F
100
AcDbEntity
  8
1-5ﾚｲﾔ
  6
Continuous
 62
     7
370
     9
100
AcDbLine
 10
-208.8344330943392
 20
468.1583466400971
 30
0.0
 11
-199.7030116592084
 21
480.0586467444656
 31
0.0
  0
LINE
  5
386
330
1F
100
AcDbEntity
  8
1-5ﾚｲﾔ
  6
Continuous
 62
     7
370
     9
100
AcDbLine
 10
-133.7787219063684
 20
598.1586518158783
 30
0.0
 11
152.4712780936316
 21
598.1586518158783
 31
0.0
  0
TEXT
  5
387
330
1F
100
AcDbEntity
  8
1-5ﾚｲﾔ
  6
Continuous
 62
     7
370
     9
100
AcDbText
 10
-133.7787219063684
 20
606.9869416437922
 30
0.0
 40
11.43
  1
受けつばアングル Ｌ４０×４０×５
 41
1.156565656565657
  7
ＭＳ ゴシック
100
AcDbText
  0
TEXT
  5
388
330
1F
100
AcDbEntity
  8
1-5ﾚｲﾔ
  6
Continuous
 62
     7
370
     9
100
AcDbText
 10
-99.96675296550168
 20
527.5092706133869
 30
0.0
 40
11.43
  1
メインバー ＤⅠ－２５　＠15
 41
1.160493827160494
  7
ＭＳ ゴシック
100
AcDbText
  0
LINE
  5
389
330
1F
100
AcDbEntity
  8
1-5ﾚｲﾔ
  6
Continuous
 62
     7
370
     9
100
AcDbLine
 10
-99.96675296550168
 20
518.1586353198902
 30
0.0
 11
135.0332470344983
 21
518.1586353198902
 31
0.0
  0
LINE
  5
38A
330
1F
100
AcDbEntity
  8
1-5ﾚｲﾔ
  6
Continuous
 62
     7
370
     9
100
AcDbLine
 10
-99.96675296550168
 20
518.1586353198902
 30
0.0
 11
-158.2903475374788
 21
417.1392062411775
 31
0.0
  0
LINE
  5
38B
330
1F
100
AcDbEntity
  8
1-5ﾚｲﾔ
  6
Continuous
 62
     7
370
     9
100
AcDbLine
 10
-158.2903475374788
 20
417.1392062411775
 30
0.0
 11
-149.1589261023479
 21
429.039506345546
 31
0.0
  0
LINE
  5
38C
330
1F
100
AcDbEntity
  8
1-5ﾚｲﾔ
  6
Continuous
 62
     7
370
     9
100
AcDbLine
 10
-158.2903475374788
 20
417.1392062411775
 30
0.0
 11
-152.5500960520024
 21
430.9973992288468
 31
0.0
  0
LINE
  5
38D
330
1F
100
AcDbEntity
  8
1-5ﾚｲﾔ
  6
Continuous
 62
     2
370
     9
100
AcDbLine
 10
-409.9821625100159
 20
-232.4708237898486
 30
0.0
 11
-409.9821625100159
 21
-207.4704629401073
 31
0.0
  0
LINE
  5
38E
330
1F
100
AcDbEntity
  8
1-5ﾚｲﾔ
  6
Continuous
 62
     2
370
     9
100
AcDbLine
 10
-409.9821625100159
 20
-207.4704629401073
 30
0.0
 11
-297.4821625100159
 21
-207.4704629401073
 31
0.0
  0
LINE
  5
38F
330
1F
100
AcDbEntity
  8
1-5ﾚｲﾔ
  6
Continuous
 62
     2
370
     9
100
AcDbLine
 10
-297.4821625100159
 20
-207.4704629401073
 30
0.0
 11
-297.4821625100159
 21
-232.4708237898486
 31
0.0
  0
LINE
  5
390
330
1F
100
AcDbEntity
  8
1-5ﾚｲﾔ
  6
Continuous
 62
     2
370
     9
100
AcDbLine
 10
-297.4821625100159
 20
-232.4708237898486
 30
0.0
 11
-409.9821625100159
 21
-232.4708237898486
 31
0.0
  0
TEXT
  5
391
330
1F
100
AcDbEntity
  8
1-5ﾚｲﾔ
  6
Continuous
 62
     2
370
     9
100
AcDbText
 10
-386.2320387901048
 20
-227.1506918219432
 30
0.0
 40
15.24
  1
仕　様
 41
1.083333333333333
  7
ＭＳ ゴシック
100
AcDbText
  0
TEXT
  5
392
330
1F
100
AcDbEntity
  8
1-5ﾚｲﾔ
  6
Continuous
 62
     2
370
     9
100
AcDbText
 10
-329.08134624774
 20
-366.9094946618996
 30
0.0
 40
15.24
  1
処理：溶融亜鉛めっき
 50
0.0000159295034464
 41
1.112499999999999
  7
ＭＳ ゴシック
100
AcDbText
  0
TEXT
  5
393
330
1F
100
AcDbEntity
  8
1-5ﾚｲﾔ
  6
Continuous
 62
     2
370
     9
100
AcDbText
 10
-329.0813588184968
 20
-339.4092802140579
 30
0.0
 40
15.24
  1
材質：ＳＳ４００
 50
0.0000199679720619
 41
1.109375000000001
  7
ＭＳ ゴシック
100
AcDbText
  0
TEXT
  5
394
330
1F
100
AcDbEntity
  8
1-5ﾚｲﾔ
  6
Continuous
 62
     2
370
     9
100
AcDbText
 10
-329.0813083477482
 20
-394.4097091097445
 30
0.0
 40
15.24
  1
定尺：９９５
 41
1.104166666666667
  7
ＭＳ ゴシック
100
AcDbText
  0
TEXT
  5
395
330
1F
100
AcDbEntity
  8
1-5ﾚｲﾔ
  6
Continuous
 62
     2
370
     9
100
AcDbText
 10
-374.0813087397597
 20
-311.9096225058071
 30
0.0
 40
15.24
  1
ＱＸＨＵ　１５２５
 50
0.000007964751711
 41
1.111111111111112
  7
ＭＳ ゴシック
100
AcDbText
  0
TEXT
  5
396
330
1F
100
AcDbEntity
  8
1-5ﾚｲﾔ
  6
Continuous
 62
     2
370
     9
100
AcDbText
 10
-373.3642672632629
 20
-284.4095884480775
 30
0.0
 40
15.24
  1
細目滑り止め模様付　歩道Ｕ字溝用
 41
1.1171875
  7
ＭＳ ゴシック
100
AcDbText
  0
TEXT
  5
397
330
1F
100
AcDbEntity
  8
1-5ﾚｲﾔ
  6
Continuous
 62
     2
370
     9
100
AcDbText
 10
-373.3642672632629
 20
-256.9099585420644
 30
0.0
 40
15.24
  1
スチール製グレーチング
 41
1.113636363636364
  7
ＭＳ ゴシック
100
AcDbText
  0
TEXT
  5
398
330
1F
100
AcDbEntity
  8
1-5ﾚｲﾔ
  6
Continuous
 62
     2
370
     9
100
AcDbText
 10
-374.0813083477482
 20
-419.4097297297297
 30
0.0
 40
15.24
  1
　　質量：１３．２ｋｇ／枚
 41
1.115384615384615
  7
ＭＳ ゴシック
100
AcDbText
  0
TEXT
  5
399
330
1F
100
AcDbEntity
  8
F-4ﾚｲﾔ
  6
Continuous
 62
     2
370
     9
100
AcDbText
 10
-409.446742289775
 20
-662.4841200380067
 30
0.0
 40
15.24
  1
スチール製グレーチング　細目滑り止め模様付　歩道Ｕ字溝用
 41
0.8991071428571425
  7
ＭＳ ゴシック
100
AcDbText
  0
TEXT
  5
39A
330
1F
100
AcDbEntity
  8
F-4ﾚｲﾔ
  6
Continuous
 62
     2
370
     9
100
AcDbText
 10
-409.446742289775
 20
-683.7341200380067
 30
0.0
 40
15.24
  1
ＱＸＨＵ１５２５
 41
0.8968749999999995
  7
ＭＳ ゴシック
100
AcDbText
  0
ENDSEC
  0
SECTION
  2
OBJECTS
  0
DICTIONARY
  5
C
330
0
100
AcDbDictionary
281
     1
  3
ACAD_DETAILVIEWSTYLE
350
3E0
  3
ACAD_GROUP
350
D
  3
ACAD_LAYOUT
350
1A
  3
ACAD_MATERIAL
350
43
  3
ACAD_MLEADERSTYLE
350
6B
  3
ACAD_MLINESTYLE
350
17
  3
ACAD_PLOTSETTINGS
350
19
  3
ACAD_PLOTSTYLENAME
350
E
  3
ACAD_SCALELIST
350
47
  3
ACAD_SECTIONVIEWSTYLE
350
3E1
  3
ACAD_TABLESTYLE
350
69
  3
ACAD_VISUALSTYLE
350
2A
  3
ACDB_RECOMPOSE_DATA
350
3DD
  3
AcDbVariableDictionary
350
39D
  0
DICTIONARY
  5
39B
330
8
100
AcDbDictionary
280
     1
281
     1
  3
ACAD_XREC_ROUNDTRIP
360
39C
  0
DICTIONARY
  5
3E0
102
{ACAD_REACTORS
330
C
102
}
330
C
100
AcDbDictionary
281
     1
  0
DICTIONARY
  5
D
102
{ACAD_REACTORS
330
C
102
}
330
C
100
AcDbDictionary
281
     1
  0
DICTIONARY
  5
1A
102
{ACAD_REACTORS
330
C
102
}
330
C
100
AcDbDictionary
281
     1
  3
Layout1
350
1E
  3
Layout2
350
26
  3
Model
350
22
  0
DICTIONARY
  5
43
102
{ACAD_REACTORS
330
C
102
}
330
C
100
AcDbDictionary
281
     1
  3
ByBlock
350
45
  3
ByLayer
350
44
  3
Global
350
46
  0
DICTIONARY
  5
6B
102
{ACAD_REACTORS
330
C
102
}
330
C
100
AcDbDictionary
281
     1
  3
Standard
350
6C
  0
DICTIONARY
  5
17
102
{ACAD_REACTORS
330
C
102
}
330
C
100
AcDbDictionary
281
     1
  3
Standard
350
18
  0
DICTIONARY
  5
19
102
{ACAD_REACTORS
330
C
102
}
330
C
100
AcDbDictionary
281
     1
  0
ACDBDICTIONARYWDFLT
  5
E
102
{ACAD_REACTORS
330
C
102
}
330
C
100
AcDbDictionary
281
     1
  3
Normal
350
F
100
AcDbDictionaryWithDefault
340
F
  0
DICTIONARY
  5
47
102
{ACAD_REACTORS
330
C
102
}
330
C
100
AcDbDictionary
281
     1
  3
A0
350
48
  3
A1
350
49
  3
A2
350
4A
  3
A3
350
4B
  3
A4
350
4C
  3
A5
350
4D
  3
A6
350
4E
  3
A7
350
4F
  3
A8
350
50
  3
A9
350
51
  3
B0
350
52
  3
B1
350
53
  3
B2
350
54
  3
B3
350
55
  3
B4
350
56
  3
B5
350
57
  3
B6
350
58
  3
B7
350
59
  3
B8
350
5A
  3
B9
350
5B
  3
C0
350
5C
  3
C1
350
5D
  3
C2
350
5E
  3
C3
350
5F
  3
C4
350
60
  3
C5
350
61
  3
C6
350
62
  3
C7
350
63
  3
C8
350
64
  3
C9
350
65
  3
D0
350
66
  3
D1
350
67
  3
D2
350
68
  0
DICTIONARY
  5
3E1
102
{ACAD_REACTORS
330
C
102
}
330
C
100
AcDbDictionary
281
     1
  0
DICTIONARY
  5
69
102
{ACAD_REACTORS
330
C
102
}
330
C
100
AcDbDictionary
281
     1
  3
Standard
350
6A
  0
DICTIONARY
  5
2A
102
{ACAD_REACTORS
330
C
102
}
330
C
100
AcDbDictionary
281
     1
  3
2dWireframe
350
2F
  3
Basic
350
32
  3
Brighten
350
36
  3
ColorChange
350
3A
  3
Conceptual
350
34
  3
Dim
350
35
  3
EdgeColorOff
350
3D
  3
Facepattern
350
39
  3
Flat
350
2B
  3
FlatWithEdges
350
2C
  3
Gouraud
350
2D
  3
GouraudWithEdges
350
2E
  3
Hidden
350
31
  3
JitterOff
350
3B
  3
Linepattern
350
38
  3
OverhangOff
350
3C
  3
Realistic
350
33
  3
Shaded
350
42
  3
Shaded with edges
350
41
  3
Shades of Gray
350
3E
  3
Sketchy
350
3F
  3
Thicken
350
37
  3
Wireframe
350
30
  3
X-Ray
350
40
  0
XRECORD
  5
3DD
102
{ACAD_REACTORS
330
C
102
}
330
C
100
AcDbXrecord
280
     1
 90
        1
330
6A
  0
DICTIONARY
  5
39D
102
{ACAD_REACTORS
330
C
102
}
330
C
100
AcDbDictionary
281
     1
  3
CANNOSCALE
350
39E
  3
CENTEREXE
350
3E2
  3
CENTERLTYPEFILE
350
3E3
  3
CMLEADERSTYLE
350
3DF
  3
CTABLESTYLE
350
3DE
  3
MSLTSCALE
350
39F
  3
XCLIPFRAME
350
3A0
  0
XRECORD
  5
39C
102
{ACAD_REACTORS
330
39B
102
}
330
39B
100
AcDbXrecord
280
     1
102
VTR_0.000_0.000_1.000_1.000_VISUALSTYLE
340
2F
102
VTR_0.000_0.000_1.000_1.000_GRIDDISPLAY
 70
     3
102
VTR_0.000_0.000_1.000_1.000_GRIDMAJOR
 70
     5
102
VTR_0.000_0.000_1.000_1.000_DEFAULTLIGHTING
280
     1
102
VTR_0.000_0.000_1.000_1.000_DEFAULTLIGHTINGTYPE
 70
     1
102
VTR_0.000_0.000_1.000_1.000_BRIGHTNESS
141
0.0
102
VTR_0.000_0.000_1.000_1.000_CONTRAST
142
0.0
  0
LAYOUT
  5
1E
102
{ACAD_REACTORS
330
1A
102
}
330
1A
100
AcDbPlotSettings
  1

  2
none_device
  4

  6

 40
0.0
 41
0.0
 42
0.0
 43
0.0
 44
0.0
 45
0.0
 46
0.0
 47
0.0
 48
0.0
 49
0.0
140
0.0
141
0.0
142
1.0
143
1.0
 70
   688
 72
     1
 73
     0
 74
     5
  7

 75
    16
 76
     0
 77
     5
 78
   300
147
1.0
148
0.0
149
0.0
100
AcDbLayout
  1
Layout1
 70
     1
 71
     1
 10
0.0
 20
0.0
 11
420.0
 21
297.0
 12
0.0
 22
0.0
 32
0.0
 14
1.000000000000000E+20
 24
1.000000000000000E+20
 34
1.000000000000000E+20
 15
-1.000000000000000E+20
 25
-1.000000000000000E+20
 35
-1.000000000000000E+20
146
0.0
 13
0.0
 23
0.0
 33
0.0
 16
1.0
 26
0.0
 36
0.0
 17
0.0
 27
1.0
 37
0.0
 76
     0
330
1B
  0
LAYOUT
  5
26
102
{ACAD_REACTORS
330
1A
102
}
330
1A
100
AcDbPlotSettings
  1

  2
none_device
  4

  6

 40
0.0
 41
0.0
 42
0.0
 43
0.0
 44
0.0
 45
0.0
 46
0.0
 47
0.0
 48
0.0
 49
0.0
140
0.0
141
0.0
142
1.0
143
1.0
 70
   688
 72
     1
 73
     0
 74
     5
  7

 75
    16
 76
     0
 77
     5
 78
   300
147
1.0
148
0.0
149
0.0
100
AcDbLayout
  1
Layout2
 70
     1
 71
     2
 10
0.0
 20
0.0
 11
0.0
 21
0.0
 12
0.0
 22
0.0
 32
0.0
 14
0.0
 24
0.0
 34
0.0
 15
0.0
 25
0.0
 35
0.0
146
0.0
 13
0.0
 23
0.0
 33
0.0
 16
1.0
 26
0.0
 36
0.0
 17
0.0
 27
1.0
 37
0.0
 76
     0
330
23
  0
LAYOUT
  5
22
102
{ACAD_REACTORS
330
1A
102
}
330
1A
100
AcDbPlotSettings
  1

  2
none_device
  4
Letter_(8.50_x_11.00_Inches)
  6

 40
6.35
 41
6.35
 42
6.35000508
 43
6.35000508
 44
215.9
 45
279.4
 46
0.0
 47
0.0
 48
0.0
 49
0.0
140
0.0
141
0.0
142
1.0
143
1.0
 70
  1712
 72
     1
 73
     0
 74
     0
  7

 75
     0
 76
     0
 77
     5
 78
   300
147
1.0
148
0.0
149
0.0
100
AcDbLayout
  1
Model
 70
     1
 71
     0
 10
-1050.0
 20
-742.5
 11
1050.0
 21
742.5
 12
0.0
 22
0.0
 32
0.0
 14
-1050.0
 24
-742.5
 34
0.0
 15
1050.0
 25
742.5
 35
0.0
146
0.0
 13
0.0
 23
0.0
 33
0.0
 16
1.0
 26
0.0
 36
0.0
 17
0.0
 27
1.0
 37
0.0
 76
     0
330
1F
331
29
  0
MATERIAL
  5
45
102
{ACAD_REACTORS
330
43
102
}
102
{ACAD_XDICTIONARY
360
3D3
102
}
330
43
100
AcDbMaterial
  1
ByBlock
  0
MATERIAL
  5
44
102
{ACAD_REACTORS
330
43
102
}
102
{ACAD_XDICTIONARY
360
3D1
102
}
330
43
100
AcDbMaterial
  1
ByLayer
  0
MATERIAL
  5
46
102
{ACAD_REACTORS
330
43
102
}
102
{ACAD_XDICTIONARY
360
3D5
102
}
330
43
100
AcDbMaterial
  1
Global
  0
MLEADERSTYLE
  5
6C
102
{ACAD_REACTORS
330
6B
102
}
102
{ACAD_XDICTIONARY
360
3DB
102
}
330
6B
100
AcDbMLeaderStyle
170
     2
171
     1
172
     0
 90
        2
 40
0.0
 41
0.0
173
     1
 91
-1056964608
340
14
 92
       -2
290
     1
 42
2.0
291
     1
 43
8.0
  3
Standard
341
0
 44
4.0
300

342
11
174
     1
178
     6
175
     1
176
     0
 93
-1056964608
 45
4.0
292
     0
297
     0
 46
4.0
343
0
 94
-1056964608
 47
1.0
 49
1.0
140
1.0
293
     1
141
0.0
294
     1
177
     0
142
1.0
295
     0
296
     0
143
3.75
1001
ACAD_MLEADERVER
1070
     2
  0
MLINESTYLE
  5
18
102
{ACAD_REACTORS
330
17
102
}
330
17
100
AcDbMlineStyle
  2
Standard
 70
     0
  3

 62
   256
 51
90.0
 52
90.0
 71
     2
 49
0.5
 62
   256
  6
BYLAYER
 49
-0.5
 62
   256
  6
BYLAYER
  0
ACDBPLACEHOLDER
  5
F
102
{ACAD_REACTORS
330
E
102
}
330
E
  0
SCALE
  5
48
102
{ACAD_REACTORS
330
47
102
}
330
47
100
AcDbScale
 70
     0
300
1:1
140
1.0
141
1.0
290
     1
  0
SCALE
  5
49
102
{ACAD_REACTORS
330
47
102
}
330
47
100
AcDbScale
 70
     0
300
1:2
140
1.0
141
2.0
290
     0
  0
SCALE
  5
4A
102
{ACAD_REACTORS
330
47
102
}
330
47
100
AcDbScale
 70
     0
300
1:4
140
1.0
141
4.0
290
     0
  0
SCALE
  5
4B
102
{ACAD_REACTORS
330
47
102
}
330
47
100
AcDbScale
 70
     0
300
1:5
140
1.0
141
5.0
290
     0
  0
SCALE
  5
4C
102
{ACAD_REACTORS
330
47
102
}
330
47
100
AcDbScale
 70
     0
300
1:8
140
1.0
141
8.0
290
     0
  0
SCALE
  5
4D
102
{ACAD_REACTORS
330
47
102
}
330
47
100
AcDbScale
 70
     0
300
1:10
140
1.0
141
10.0
290
     0
  0
SCALE
  5
4E
102
{ACAD_REACTORS
330
47
102
}
330
47
100
AcDbScale
 70
     0
300
1:16
140
1.0
141
16.0
290
     0
  0
SCALE
  5
4F
102
{ACAD_REACTORS
330
47
102
}
330
47
100
AcDbScale
 70
     0
300
1:20
140
1.0
141
20.0
290
     0
  0
SCALE
  5
50
102
{ACAD_REACTORS
330
47
102
}
330
47
100
AcDbScale
 70
     0
300
1:30
140
1.0
141
30.0
290
     0
  0
SCALE
  5
51
102
{ACAD_REACTORS
330
47
102
}
330
47
100
AcDbScale
 70
     0
300
1:40
140
1.0
141
40.0
290
     0
  0
SCALE
  5
52
102
{ACAD_REACTORS
330
47
102
}
330
47
100
AcDbScale
 70
     0
300
1:50
140
1.0
141
50.0
290
     0
  0
SCALE
  5
53
102
{ACAD_REACTORS
330
47
102
}
330
47
100
AcDbScale
 70
     0
300
1:100
140
1.0
141
100.0
290
     0
  0
SCALE
  5
54
102
{ACAD_REACTORS
330
47
102
}
330
47
100
AcDbScale
 70
     0
300
2:1
140
2.0
141
1.0
290
     0
  0
SCALE
  5
55
102
{ACAD_REACTORS
330
47
102
}
330
47
100
AcDbScale
 70
     0
300
4:1
140
4.0
141
1.0
290
     0
  0
SCALE
  5
56
102
{ACAD_REACTORS
330
47
102
}
330
47
100
AcDbScale
 70
     0
300
8:1
140
8.0
141
1.0
290
     0
  0
SCALE
  5
57
102
{ACAD_REACTORS
330
47
102
}
330
47
100
AcDbScale
 70
     0
300
10:1
140
10.0
141
1.0
290
     0
  0
SCALE
  5
58
102
{ACAD_REACTORS
330
47
102
}
330
47
100
AcDbScale
 70
     0
300
100:1
140
100.0
141
1.0
290
     0
  0
SCALE
  5
59
102
{ACAD_REACTORS
330
47
102
}
330
47
100
AcDbScale
 70
     0
300
1/128" = 1'-0"
140
0.0078125
141
12.0
290
     0
  0
SCALE
  5
5A
102
{ACAD_REACTORS
330
47
102
}
330
47
100
AcDbScale
 70
     0
300
1/64" = 1'-0"
140
0.015625
141
12.0
290
     0
  0
SCALE
  5
5B
102
{ACAD_REACTORS
330
47
102
}
330
47
100
AcDbScale
 70
     0
300
1/32" = 1'-0"
140
0.03125
141
12.0
290
     0
  0
SCALE
  5
5C
102
{ACAD_REACTORS
330
47
102
}
330
47
100
AcDbScale
 70
     0
300
1/16" = 1'-0"
140
0.0625
141
12.0
290
     0
  0
SCALE
  5
5D
102
{ACAD_REACTORS
330
47
102
}
330
47
100
AcDbScale
 70
     0
300
3/32" = 1'-0"
140
0.09375
141
12.0
290
     0
  0
SCALE
  5
5E
102
{ACAD_REACTORS
330
47
102
}
330
47
100
AcDbScale
 70
     0
300
1/8" = 1'-0"
140
0.125
141
12.0
290
     0
  0
SCALE
  5
5F
102
{ACAD_REACTORS
330
47
102
}
330
47
100
AcDbScale
 70
     0
300
3/16" = 1'-0"
140
0.1875
141
12.0
290
     0
  0
SCALE
  5
60
102
{ACAD_REACTORS
330
47
102
}
330
47
100
AcDbScale
 70
     0
300
1/4" = 1'-0"
140
0.25
141
12.0
290
     0
  0
SCALE
  5
61
102
{ACAD_REACTORS
330
47
102
}
330
47
100
AcDbScale
 70
     0
300
3/8" = 1'-0"
140
0.375
141
12.0
290
     0
  0
SCALE
  5
62
102
{ACAD_REACTORS
330
47
102
}
330
47
100
AcDbScale
 70
     0
300
1/2" = 1'-0"
140
0.5
141
12.0
290
     0
  0
SCALE
  5
63
102
{ACAD_REACTORS
330
47
102
}
330
47
100
AcDbScale
 70
     0
300
3/4" = 1'-0"
140
0.75
141
12.0
290
     0
  0
SCALE
  5
64
102
{ACAD_REACTORS
330
47
102
}
330
47
100
AcDbScale
 70
     0
300
1" = 1'-0"
140
1.0
141
12.0
290
     0
  0
SCALE
  5
65
102
{ACAD_REACTORS
330
47
102
}
330
47
100
AcDbScale
 70
     0
300
1-1/2" = 1'-0"
140
1.5
141
12.0
290
     0
  0
SCALE
  5
66
102
{ACAD_REACTORS
330
47
102
}
330
47
100
AcDbScale
 70
     0
300
3" = 1'-0"
140
3.0
141
12.0
290
     0
  0
SCALE
  5
67
102
{ACAD_REACTORS
330
47
102
}
330
47
100
AcDbScale
 70
     0
300
6" = 1'-0"
140
6.0
141
12.0
290
     0
  0
SCALE
  5
68
102
{ACAD_REACTORS
330
47
102
}
330
47
100
AcDbScale
 70
     0
300
1'-0" = 1'-0"
140
12.0
141
12.0
290
     0
  0
TABLESTYLE
  5
6A
102
{ACAD_REACTORS
330
69
102
}
102
{ACAD_XDICTIONARY
360
3D7
102
}
330
69
100
AcDbTableStyle
  3
Standard
 70
     0
 71
     0
 40
0.06
 41
0.06
280
     0
281
     0
  7
Standard
140
4.5
170
     2
 62
     0
 63
   257
283
     0
274
    -2
284
     1
 64
     0
275
    -2
285
     1
 65
     0
276
    -2
286
     1
 66
     0
277
    -2
287
     1
 67
     0
278
    -2
288
     1
 68
     0
279
    -2
289
     1
 69
     0
  7
Standard
140
6.0
170
     5
 62
     0
 63
   257
283
     0
274
    -2
284
     1
 64
     0
275
    -2
285
     1
 65
     0
276
    -2
286
     1
 66
     0
277
    -2
287
     1
 67
     0
278
    -2
288
     1
 68
     0
279
    -2
289
     1
 69
     0
  7
Standard
140
4.5
170
     5
 62
     0
 63
   257
283
     0
274
    -2
284
     1
 64
     0
275
    -2
285
     1
 65
     0
276
    -2
286
     1
 66
     0
277
    -2
287
     1
 67
     0
278
    -2
288
     1
 68
     0
279
    -2
289
     1
 69
     0
  0
VISUALSTYLE
  5
2F
102
{ACAD_REACTORS
330
2A
102
}
102
{ACAD_XDICTIONARY
360
3A9
102
}
330
2A
100
AcDbVisualStyle
  2
2dWireframe
 70
     4
 71
     0
 72
     2
 73
     0
 90
        0
 40
0.6
 41
30.0
 62
     5
 63
     7
421
 16777215
 74
     1
 91
        4
 64
     7
 65
   257
 75
     1
175
     1
 42
1.0
 92
        0
 66
   257
 43
1.0
 76
     1
 77
     6
 78
     2
 67
     7
 79
     5
170
     0
171
     0
290
     0
174
     0
 93
        1
 44
0.0
173
     0
291
     0
 45
0.0
1001
ACAD
1000
AcDbSavedByObjectVersion
1070
     0
  0
VISUALSTYLE
  5
32
102
{ACAD_REACTORS
330
2A
102
}
102
{ACAD_XDICTIONARY
360
3AF
102
}
330
2A
100
AcDbVisualStyle
  2
Basic
 70
     7
 71
     1
 72
     0
 73
     1
 90
        0
 40
0.6
 41
30.0
 62
     5
 63
     7
421
 16777215
 74
     0
 91
        4
 64
     7
 65
   257
 75
     1
175
     1
 42
1.0
 92
        8
 66
     7
 43
1.0
 76
     1
 77
     6
 78
     2
 67
     7
 79
     5
170
     0
171
     0
290
     0
174
     0
 93
        1
 44
0.0
173
     0
291
     1
 45
0.0
1001
ACAD
1000
AcDbSavedByObjectVersion
1070
     0
  0
VISUALSTYLE
  5
36
102
{ACAD_REACTORS
330
2A
102
}
102
{ACAD_XDICTIONARY
360
3B7
102
}
330
2A
100
AcDbVisualStyle
  2
Brighten
 70
    12
 71
     2
 72
     2
 73
     0
 90
        0
 40
0.6
 41
30.0
 62
     5
 63
     7
421
 16777215
 74
     1
 91
        4
 64
     7
 65
   257
 75
     1
175
     1
 42
1.0
 92
        8
 66
     7
 43
1.0
 76
     1
 77
     6
 78
     2
 67
     7
 79
     5
170
     0
171
     0
290
     0
174
     0
 93
        1
 44
50.0
173
     0
291
     1
 45
0.0
1001
ACAD
1000
AcDbSavedByObjectVersion
1070
     0
  0
VISUALSTYLE
  5
3A
102
{ACAD_REACTORS
330
2A
102
}
102
{ACAD_XDICTIONARY
360
3BF
102
}
330
2A
100
AcDbVisualStyle
  2
ColorChange
 70
    16
 71
     2
 72
     2
 73
     3
 90
        0
 40
0.6
 41
30.0
 62
     5
 63
     8
421
  8421504
 74
     1
 91
        4
 64
     7
 65
   257
 75
     1
175
     1
 42
1.0
 92
        8
 66
     8
424
  8421504
 43
1.0
 76
     1
 77
     6
 78
     2
 67
     7
 79
     5
170
     0
171
     0
290
     0
174
     0
 93
        1
 44
0.0
173
     0
291
     1
 45
0.0
1001
ACAD
1000
AcDbSavedByObjectVersion
1070
     0
  0
VISUALSTYLE
  5
34
102
{ACAD_REACTORS
330
2A
102
}
102
{ACAD_XDICTIONARY
360
3B3
102
}
330
2A
100
AcDbVisualStyle
  2
Conceptual
 70
     9
 71
     3
 72
     2
 73
     0
 90
        0
 40
0.6
 41
30.0
 62
     5
 63
     7
421
 16777215
 74
     2
 91
        2
 64
     7
 65
   257
 75
     1
175
     1
 42
179.0
 92
        8
 66
     7
 43
1.0
 76
     1
 77
     6
 78
     2
 67
     7
 79
     3
170
     0
171
     0
290
     0
174
     0
 93
        1
 44
0.0
173
     0
291
     0
 45
0.0
1001
ACAD
1000
AcDbSavedByObjectVersion
1070
     0
  0
VISUALSTYLE
  5
35
102
{ACAD_REACTORS
330
2A
102
}
102
{ACAD_XDICTIONARY
360
3B5
102
}
330
2A
100
AcDbVisualStyle
  2
Dim
 70
    11
 71
     2
 72
     2
 73
     0
 90
        0
 40
0.6
 41
30.0
 62
     5
 63
     7
421
 16777215
 74
     1
 91
        4
 64
     7
 65
   257
 75
     1
175
     1
 42
1.0
 92
        8
 66
     7
 43
1.0
 76
     1
 77
     6
 78
     2
 67
     7
 79
     5
170
     0
171
     0
290
     0
174
     0
 93
        1
 44
-50.0
173
     0
291
     1
 45
0.0
1001
ACAD
1000
AcDbSavedByObjectVersion
1070
     0
  0
VISUALSTYLE
  5
3D
102
{ACAD_REACTORS
330
2A
102
}
102
{ACAD_XDICTIONARY
360
3C5
102
}
330
2A
100
AcDbVisualStyle
  2
EdgeColorOff
 70
    22
 71
     2
 72
     2
 73
     0
 90
        0
 40
0.6
 41
30.0
 62
     5
 63
     7
421
 16777215
 74
     1
 91
        4
 64
     7
 65
   257
 75
     1
175
     1
 42
1.0
 92
        8
 66
     7
 43
1.0
 76
     1
 77
     6
 78
     2
 67
     7
 79
     5
170
     0
171
     0
290
     0
174
     0
 93
        1
 44
0.0
173
     0
291
     1
 45
0.0
1001
ACAD
1000
AcDbSavedByObjectVersion
1070
     0
  0
VISUALSTYLE
  5
39
102
{ACAD_REACTORS
330
2A
102
}
102
{ACAD_XDICTIONARY
360
3BD
102
}
330
2A
100
AcDbVisualStyle
  2
Facepattern
 70
    15
 71
     2
 72
     2
 73
     0
 90
        0
 40
0.6
 41
30.0
 62
     5
 63
     7
421
 16777215
 74
     1
 91
        4
 64
     7
 65
   257
 75
     1
175
     1
 42
1.0
 92
        8
 66
     7
 43
1.0
 76
     1
 77
     6
 78
     2
 67
     7
 79
     5
170
     0
171
     0
290
     0
174
     0
 93
        1
 44
0.0
173
     0
291
     1
 45
0.0
1001
ACAD
1000
AcDbSavedByObjectVersion
1070
     0
  0
VISUALSTYLE
  5
2B
102
{ACAD_REACTORS
330
2A
102
}
102
{ACAD_XDICTIONARY
360
3A1
102
}
330
2A
100
AcDbVisualStyle
  2
Flat
 70
     0
 71
     2
 72
     1
 73
     1
 90
        2
 40
0.6
 41
30.0
 62
     5
 63
     7
421
 16777215
 74
     0
 91
        0
 64
     7
 65
   257
 75
     1
175
     1
 42
1.0
 92
        8
 66
     7
 43
1.0
 76
     1
 77
     6
 78
     2
 67
     7
 79
     5
170
     0
171
     0
290
     0
174
     0
 93
       13
 44
0.0
173
     0
291
     1
 45
0.0
1001
ACAD
1000
AcDbSavedByObjectVersion
1070
     0
  0
VISUALSTYLE
  5
2C
102
{ACAD_REACTORS
330
2A
102
}
102
{ACAD_XDICTIONARY
360
3A3
102
}
330
2A
100
AcDbVisualStyle
  2
FlatWithEdges
 70
     1
 71
     2
 72
     1
 73
     1
 90
        2
 40
0.6
 41
30.0
 62
     5
 63
     7
421
 16777215
 74
     1
 91
        0
 64
     7
 65
   257
 75
     1
175
     1
 42
1.0
 92
        0
 66
   257
 43
1.0
 76
     1
 77
     6
 78
     2
 67
     7
 79
     5
170
     0
171
     0
290
     0
174
     0
 93
       13
 44
0.0
173
     0
291
     1
 45
0.0
1001
ACAD
1000
AcDbSavedByObjectVersion
1070
     0
  0
VISUALSTYLE
  5
2D
102
{ACAD_REACTORS
330
2A
102
}
102
{ACAD_XDICTIONARY
360
3A5
102
}
330
2A
100
AcDbVisualStyle
  2
Gouraud
 70
     2
 71
     2
 72
     2
 73
     1
 90
        2
 40
0.6
 41
30.0
 62
     5
 63
     7
421
 16777215
 74
     0
 91
        0
 64
     7
 65
   257
 75
     1
175
     1
 42
1.0
 92
        0
 66
     7
 43
1.0
 76
     1
 77
     6
 78
     2
 67
     7
 79
     5
170
     0
171
     0
290
     0
174
     0
 93
       13
 44
0.0
173
     0
291
     1
 45
0.0
1001
ACAD
1000
AcDbSavedByObjectVersion
1070
     0
  0
VISUALSTYLE
  5
2E
102
{ACAD_REACTORS
330
2A
102
}
102
{ACAD_XDICTIONARY
360
3A7
102
}
330
2A
100
AcDbVisualStyle
  2
GouraudWithEdges
 70
     3
 71
     2
 72
     2
 73
     1
 90
        2
 40
0.6
 41
30.0
 62
     5
 63
     7
421
 16777215
 74
     1
 91
        0
 64
     7
 65
   257
 75
     1
175
     1
 42
1.0
 92
        0
 66
   257
 43
1.0
 76
     1
 77
     6
 78
     2
 67
     7
 79
     5
170
     0
171
     0
290
     0
174
     0
 93
       13
 44
0.0
173
     0
291
     1
 45
0.0
1001
ACAD
1000
AcDbSavedByObjectVersion
1070
     0
  0
VISUALSTYLE
  5
31
102
{ACAD_REACTORS
330
2A
102
}
102
{ACAD_XDICTIONARY
360
3AD
102
}
330
2A
100
AcDbVisualStyle
  2
Hidden
 70
     6
 71
     1
 72
     2
 73
     2
 90
        0
 40
0.6
 41
30.0
 62
     5
 63
     7
421
 16777215
 74
     2
 91
        2
 64
     7
 65
   257
 75
     2
175
     1
 42
40.0
 92
        0
 66
   257
 43
1.0
 76
     1
 77
     6
 78
     2
 67
     7
 79
     3
170
     0
171
     0
290
     0
174
     0
 93
        1
 44
0.0
173
     0
291
     0
 45
0.0
1001
ACAD
1000
AcDbSavedByObjectVersion
1070
     0
  0
VISUALSTYLE
  5
3B
102
{ACAD_REACTORS
330
2A
102
}
102
{ACAD_XDICTIONARY
360
3C1
102
}
330
2A
100
AcDbVisualStyle
  2
JitterOff
 70
    20
 71
     2
 72
     2
 73
     0
 90
        0
 40
0.6
 41
30.0
 62
     5
 63
     7
421
 16777215
 74
     1
 91
        4
 64
     7
 65
   257
 75
     1
175
     1
 42
1.0
 92
       10
 66
     7
 43
1.0
 76
     1
 77
     6
 78
     2
 67
     7
 79
     5
170
     0
171
     0
290
     0
174
     0
 93
        1
 44
0.0
173
     0
291
     1
 45
0.0
1001
ACAD
1000
AcDbSavedByObjectVersion
1070
     0
  0
VISUALSTYLE
  5
38
102
{ACAD_REACTORS
330
2A
102
}
102
{ACAD_XDICTIONARY
360
3BB
102
}
330
2A
100
AcDbVisualStyle
  2
Linepattern
 70
    14
 71
     2
 72
     2
 73
     0
 90
        0
 40
0.6
 41
30.0
 62
     5
 63
     7
421
 16777215
 74
     1
 91
        4
 64
     7
 65
   257
 75
     7
175
     7
 42
1.0
 92
        8
 66
     7
 43
1.0
 76
     1
 77
     6
 78
     2
 67
     7
 79
     5
170
     0
171
     0
290
     0
174
     0
 93
        1
 44
0.0
173
     0
291
     1
 45
0.0
1001
ACAD
1000
AcDbSavedByObjectVersion
1070
     0
  0
VISUALSTYLE
  5
3C
102
{ACAD_REACTORS
330
2A
102
}
102
{ACAD_XDICTIONARY
360
3C3
102
}
330
2A
100
AcDbVisualStyle
  2
OverhangOff
 70
    21
 71
     2
 72
     2
 73
     0
 90
        0
 40
0.6
 41
30.0
 62
     5
 63
     7
421
 16777215
 74
     1
 91
        4
 64
     7
 65
   257
 75
     1
175
     1
 42
1.0
 92
        9
 66
     7
 43
1.0
 76
     1
 77
     6
 78
     2
 67
     7
 79
     5
170
     0
171
     0
290
     0
174
     0
 93
        1
 44
0.0
173
     0
291
     1
 45
0.0
1001
ACAD
1000
AcDbSavedByObjectVersion
1070
     0
  0
VISUALSTYLE
  5
33
102
{ACAD_REACTORS
330
2A
102
}
102
{ACAD_XDICTIONARY
360
3B1
102
}
330
2A
100
AcDbVisualStyle
  2
Realistic
 70
     8
 71
     2
 72
     3
 73
     0
 90
        2
 40
0.6
 41
30.0
 62
     5
 63
     7
421
 16777215
 74
     0
 91
        0
 64
     7
 65
   257
 75
     1
175
     1
 42
1.0
 92
        8
 66
   257
 43
1.0
 76
     1
 77
     6
 78
     2
 67
     7
 79
     3
170
     0
171
     0
290
     0
174
     0
 93
       13
 44
0.0
173
     0
291
     0
 45
0.0
1001
ACAD
1000
AcDbSavedByObjectVersion
1070
     0
  0
VISUALSTYLE
  5
42
102
{ACAD_REACTORS
330
2A
102
}
102
{ACAD_XDICTIONARY
360
3CF
102
}
330
2A
100
AcDbVisualStyle
  2
Shaded
 70
    27
 71
     2
 72
     2
 73
     1
 90
        2
 40
0.6
 41
30.0
 62
     5
 63
     7
421
 16777215
 74
     0
 91
        4
 64
     7
 65
   257
 75
     1
175
     1
 42
1.0
 92
        8
 66
   257
 43
1.0
 76
     1
 77
     6
 78
     2
 67
     8
425
  7895160
 79
     3
170
     0
171
     0
290
     0
174
     0
 93
        5
 44
0.0
173
     0
291
     0
 45
0.0
1001
ACAD
1000
AcDbSavedByObjectVersion
1070
     0
  0
VISUALSTYLE
  5
41
102
{ACAD_REACTORS
330
2A
102
}
102
{ACAD_XDICTIONARY
360
3CD
102
}
330
2A
100
AcDbVisualStyle
  2
Shaded with edges
 70
    26
 71
     2
 72
     2
 73
     1
 90
        2
 40
0.6
 41
30.0
 62
     5
 63
     7
421
 16777215
 74
     1
 91
       10
 64
     7
 65
   257
 75
     2
175
     1
 42
1.0
 92
        8
 66
   257
 43
1.0
 76
     1
 77
     6
 78
     2
 67
     7
 79
     3
170
     0
171
     0
290
     0
174
     0
 93
        5
 44
0.0
173
     0
291
     0
 45
0.0
1001
ACAD
1000
AcDbSavedByObjectVersion
1070
     0
  0
VISUALSTYLE
  5
3E
102
{ACAD_REACTORS
330
2A
102
}
102
{ACAD_XDICTIONARY
360
3C7
102
}
330
2A
100
AcDbVisualStyle
  2
Shades of Gray
 70
    23
 71
     2
 72
     2
 73
     3
 90
        0
 40
0.6
 41
30.0
 62
     5
 63
     7
421
 16777215
 74
     2
 91
        2
 64
     7
 65
     7
 75
     1
175
     1
 42
40.0
 92
        8
 66
     7
 43
1.0
 76
     1
 77
     6
 78
     2
 67
     7
 79
     3
170
     0
171
     0
290
     0
174
     0
 93
        1
 44
0.0
173
     0
291
     0
 45
0.0
1001
ACAD
1000
AcDbSavedByObjectVersion
1070
     0
  0
VISUALSTYLE
  5
3F
102
{ACAD_REACTORS
330
2A
102
}
102
{ACAD_XDICTIONARY
360
3C9
102
}
330
2A
100
AcDbVisualStyle
  2
Sketchy
 70
    24
 71
     1
 72
     2
 73
     2
 90
        0
 40
0.6
 41
30.0
 62
     5
 63
     7
421
 16777215
 74
     2
 91
        2
 64
     7
 65
     7
 75
     1
175
     1
 42
40.0
 92
       11
 66
     7
 43
1.0
 76
     1
 77
     6
 78
     2
 67
     7
 79
     6
170
     0
171
     0
290
     0
174
     0
 93
        1
 44
0.0
173
     0
291
     0
 45
0.0
1001
ACAD
1000
AcDbSavedByObjectVersion
1070
     0
  0
VISUALSTYLE
  5
37
102
{ACAD_REACTORS
330
2A
102
}
102
{ACAD_XDICTIONARY
360
3B9
102
}
330
2A
100
AcDbVisualStyle
  2
Thicken
 70
    13
 71
     2
 72
     2
 73
     0
 90
        0
 40
0.6
 41
30.0
 62
     5
 63
     7
421
 16777215
 74
     1
 91
        4
 64
     7
 65
   257
 75
     1
175
     1
 42
1.0
 92
       12
 66
     7
 43
1.0
 76
     1
 77
     6
 78
     2
 67
     7
 79
     5
170
     0
171
     0
290
     0
174
     0
 93
        1
 44
0.0
173
     0
291
     1
 45
0.0
1001
ACAD
1000
AcDbSavedByObjectVersion
1070
     0
  0
VISUALSTYLE
  5
30
102
{ACAD_REACTORS
330
2A
102
}
102
{ACAD_XDICTIONARY
360
3AB
102
}
330
2A
100
AcDbVisualStyle
  2
Wireframe
 70
     5
 71
     0
 72
     2
 73
     0
 90
        0
 40
0.6
 41
30.0
 62
     5
 63
     7
421
 16777215
 74
     1
 91
        4
 64
     7
 65
   257
 75
     1
175
     1
 42
1.0
 92
        0
 66
   257
 43
1.0
 76
     1
 77
     6
 78
     2
 67
     7
 79
     3
170
     0
171
     0
290
     0
174
     0
 93
        1
 44
0.0
173
     0
291
     0
 45
0.0
1001
ACAD
1000
AcDbSavedByObjectVersion
1070
     0
  0
VISUALSTYLE
  5
40
102
{ACAD_REACTORS
330
2A
102
}
102
{ACAD_XDICTIONARY
360
3CB
102
}
330
2A
100
AcDbVisualStyle
  2
X-Ray
 70
    25
 71
     2
 72
     2
 73
     1
 90
        1
 40
0.5
 41
30.0
 62
     5
 63
     7
421
 16777215
 74
     1
 91
        0
 64
     7
 65
   257
 75
     1
175
     1
 42
1.0
 92
        8
 66
     7
 43
1.0
 76
     1
 77
     6
 78
     2
 67
     7
 79
     3
170
     0
171
     0
290
     0
174
     0
 93
       13
 44
0.0
173
     0
291
     0
 45
0.0
1001
ACAD
1000
AcDbSavedByObjectVersion
1070
     0
  0
DICTIONARYVAR
  5
39E
102
{ACAD_REACTORS
330
39D
102
}
330
39D
100
DictionaryVariables
280
     0
  1
1:1
  0
DICTIONARYVAR
  5
3E2
102
{ACAD_REACTORS
330
39D
102
}
330
39D
100
DictionaryVariables
280
     0
  1
3.500000
  0
DICTIONARYVAR
  5
3E3
102
{ACAD_REACTORS
330
39D
102
}
330
39D
100
DictionaryVariables
280
     0
  1
acadiso.lin
  0
DICTIONARYVAR
  5
3DF
102
{ACAD_REACTORS
330
39D
102
}
330
39D
100
DictionaryVariables
280
     0
  1
Standard
  0
DICTIONARYVAR
  5
3DE
102
{ACAD_REACTORS
330
39D
102
}
330
39D
100
DictionaryVariables
280
     0
  1
Standard
  0
DICTIONARYVAR
  5
39F
102
{ACAD_REACTORS
330
39D
102
}
330
39D
100
DictionaryVariables
280
     0
  1
1
  0
DICTIONARYVAR
  5
3A0
102
{ACAD_REACTORS
330
39D
102
}
330
39D
100
DictionaryVariables
280
     0
  1
2
  0
DICTIONARY
  5
3D3
330
45
100
AcDbDictionary
280
     1
281
     1
  3
ACAD_XREC_ROUNDTRIP
360
3D4
  0
DICTIONARY
  5
3D1
330
44
100
AcDbDictionary
280
     1
281
     1
  3
ACAD_XREC_ROUNDTRIP
360
3D2
  0
DICTIONARY
  5
3D5
330
46
100
AcDbDictionary
280
     1
281
     1
  3
ACAD_XREC_ROUNDTRIP
360
3D6
  0
DICTIONARY
  5
3DB
330
6C
100
AcDbDictionary
280
     1
281
     1
  3
ACAD_XREC_ROUNDTRIP
360
3DC
  0
DICTIONARY
  5
3D7
330
6A
100
AcDbDictionary
280
     1
281
     1
  3
ACAD_ROUNDTRIP_2008_TABLESTYLE_CELLSTYLEMAP
360
3D9
  3
ACAD_XREC_ROUNDTRIP
360
3D8
  0
DICTIONARY
  5
3A9
330
2F
100
AcDbDictionary
280
     1
281
     1
  3
ACAD_XREC_ROUNDTRIP
360
3AA
  0
DICTIONARY
  5
3AF
330
32
100
AcDbDictionary
280
     1
281
     1
  3
ACAD_XREC_ROUNDTRIP
360
3B0
  0
DICTIONARY
  5
3B7
330
36
100
AcDbDictionary
280
     1
281
     1
  3
ACAD_XREC_ROUNDTRIP
360
3B8
  0
DICTIONARY
  5
3BF
330
3A
100
AcDbDictionary
280
     1
281
     1
  3
ACAD_XREC_ROUNDTRIP
360
3C0
  0
DICTIONARY
  5
3B3
330
34
100
AcDbDictionary
280
     1
281
     1
  3
ACAD_XREC_ROUNDTRIP
360
3B4
  0
DICTIONARY
  5
3B5
330
35
100
AcDbDictionary
280
     1
281
     1
  3
ACAD_XREC_ROUNDTRIP
360
3B6
  0
DICTIONARY
  5
3C5
330
3D
100
AcDbDictionary
280
     1
281
     1
  3
ACAD_XREC_ROUNDTRIP
360
3C6
  0
DICTIONARY
  5
3BD
330
39
100
AcDbDictionary
280
     1
281
     1
  3
ACAD_XREC_ROUNDTRIP
360
3BE
  0
DICTIONARY
  5
3A1
330
2B
100
AcDbDictionary
280
     1
281
     1
  3
ACAD_XREC_ROUNDTRIP
360
3A2
  0
DICTIONARY
  5
3A3
330
2C
100
AcDbDictionary
280
     1
281
     1
  3
ACAD_XREC_ROUNDTRIP
360
3A4
  0
DICTIONARY
  5
3A5
330
2D
100
AcDbDictionary
280
     1
281
     1
  3
ACAD_XREC_ROUNDTRIP
360
3A6
  0
DICTIONARY
  5
3A7
330
2E
100
AcDbDictionary
280
     1
281
     1
  3
ACAD_XREC_ROUNDTRIP
360
3A8
  0
DICTIONARY
  5
3AD
330
31
100
AcDbDictionary
280
     1
281
     1
  3
ACAD_XREC_ROUNDTRIP
360
3AE
  0
DICTIONARY
  5
3C1
330
3B
100
AcDbDictionary
280
     1
281
     1
  3
ACAD_XREC_ROUNDTRIP
360
3C2
  0
DICTIONARY
  5
3BB
330
38
100
AcDbDictionary
280
     1
281
     1
  3
ACAD_XREC_ROUNDTRIP
360
3BC
  0
DICTIONARY
  5
3C3
330
3C
100
AcDbDictionary
280
     1
281
     1
  3
ACAD_XREC_ROUNDTRIP
360
3C4
  0
DICTIONARY
  5
3B1
330
33
100
AcDbDictionary
280
     1
281
     1
  3
ACAD_XREC_ROUNDTRIP
360
3B2
  0
DICTIONARY
  5
3CF
330
42
100
AcDbDictionary
280
     1
281
     1
  3
ACAD_XREC_ROUNDTRIP
360
3D0
  0
DICTIONARY
  5
3CD
330
41
100
AcDbDictionary
280
     1
281
     1
  3
ACAD_XREC_ROUNDTRIP
360
3CE
  0
DICTIONARY
  5
3C7
330
3E
100
AcDbDictionary
280
     1
281
     1
  3
ACAD_XREC_ROUNDTRIP
360
3C8
  0
DICTIONARY
  5
3C9
330
3F
100
AcDbDictionary
280
     1
281
     1
  3
ACAD_XREC_ROUNDTRIP
360
3CA
  0
DICTIONARY
  5
3B9
330
37
100
AcDbDictionary
280
     1
281
     1
  3
ACAD_XREC_ROUNDTRIP
360
3BA
  0
DICTIONARY
  5
3AB
330
30
100
AcDbDictionary
280
     1
281
     1
  3
ACAD_XREC_ROUNDTRIP
360
3AC
  0
DICTIONARY
  5
3CB
330
40
100
AcDbDictionary
280
     1
281
     1
  3
ACAD_XREC_ROUNDTRIP
360
3CC
  0
XRECORD
  5
3D4
102
{ACAD_REACTORS
330
3D3
102
}
330
3D3
100
AcDbXrecord
280
     1
102
MATERIAL
148
0.0
149
0.0
149
0.0
 93
        0
 94
      127
282
     0
 72
     1
 77
     1
171
     1
175
     1
179
     1
273
     0
  0
XRECORD
  5
3D2
102
{ACAD_REACTORS
330
3D1
102
}
330
3D1
100
AcDbXrecord
280
     1
102
MATERIAL
148
0.0
149
0.0
149
0.0
 93
        0
 94
      127
282
     0
 72
     1
 77
     1
171
     1
175
     1
179
     1
273
     0
  0
XRECORD
  5
3D6
102
{ACAD_REACTORS
330
3D5
102
}
330
3D5
100
AcDbXrecord
280
     1
102
MATERIAL
148
0.0
149
0.0
149
0.0
 93
        0
 94
      127
282
     0
 72
     1
 77
     1
171
     1
175
     1
179
     1
273
     0
  0
XRECORD
  5
3DC
102
{ACAD_REACTORS
330
3DB
102
}
330
3DB
100
AcDbXrecord
280
     1
102
ACAD_ROUNDTRIP_2010_MLEADER_STYLE
  0
CELLSTYLEMAP
  5
3D9
102
{ACAD_REACTORS
330
3D7
102
}
330
3D7
100
AcDbCellStyleMap
 90
        3
300
CELLSTYLE
  1
TABLEFORMAT_BEGIN
 90
        5
170
     1
 91
        0
 92
    32768
 62
   257
 93
        1
300
CONTENTFORMAT
  1
CONTENTFORMAT_BEGIN
 90
        0
 91
        0
 92
        4
 93
        0
300

 40
0.0
140
1.0
 94
        5
 62
     0
340
11
144
6.0
309
CONTENTFORMAT_END
171
     1
301
MARGIN
  1
CELLMARGIN_BEGIN
 40
1.5
 40
1.5
 40
1.5
 40
1.5
 40
1.5
 40
1.5
309
CELLMARGIN_END
 94
        6
 95
        1
302
GRIDFORMAT
  1
GRIDFORMAT_BEGIN
 90
        0
 91
        1
 62
     0
 92
       -2
340
14
 93
        0
 40
0.045
309
GRIDFORMAT_END
 95
        2
302
GRIDFORMAT
  1
GRIDFORMAT_BEGIN
 90
        0
 91
        1
 62
     0
 92
       -2
340
14
 93
        0
 40
0.045
309
GRIDFORMAT_END
 95
        4
302
GRIDFORMAT
  1
GRIDFORMAT_BEGIN
 90
        0
 91
        1
 62
     0
 92
       -2
340
14
 93
        0
 40
0.045
309
GRIDFORMAT_END
 95
        8
302
GRIDFORMAT
  1
GRIDFORMAT_BEGIN
 90
        0
 91
        1
 62
     0
 92
       -2
340
14
 93
        0
 40
0.045
309
GRIDFORMAT_END
 95
       16
302
GRIDFORMAT
  1
GRIDFORMAT_BEGIN
 90
        0
 91
        1
 62
     0
 92
       -2
340
14
 93
        0
 40
0.045
309
GRIDFORMAT_END
 95
       32
302
GRIDFORMAT
  1
GRIDFORMAT_BEGIN
 90
        0
 91
        1
 62
     0
 92
       -2
340
14
 93
        0
 40
0.045
309
GRIDFORMAT_END
309
TABLEFORMAT_END
  1
CELLSTYLE_BEGIN
 90
        1
 91
        1
300
_TITLE
309
CELLSTYLE_END
300
CELLSTYLE
  1
TABLEFORMAT_BEGIN
 90
        5
170
     1
 91
        0
 92
        0
 62
   257
 93
        1
300
CONTENTFORMAT
  1
CONTENTFORMAT_BEGIN
 90
        0
 91
        0
 92
        4
 93
        0
300

 40
0.0
140
1.0
 94
        5
 62
     0
340
11
144
4.5
309
CONTENTFORMAT_END
171
     1
301
MARGIN
  1
CELLMARGIN_BEGIN
 40
1.5
 40
1.5
 40
1.5
 40
1.5
 40
1.5
 40
1.5
309
CELLMARGIN_END
 94
        6
 95
        1
302
GRIDFORMAT
  1
GRIDFORMAT_BEGIN
 90
        0
 91
        1
 62
     0
 92
       -2
340
14
 93
        0
 40
0.045
309
GRIDFORMAT_END
 95
        2
302
GRIDFORMAT
  1
GRIDFORMAT_BEGIN
 90
        0
 91
        1
 62
     0
 92
       -2
340
14
 93
        0
 40
0.045
309
GRIDFORMAT_END
 95
        4
302
GRIDFORMAT
  1
GRIDFORMAT_BEGIN
 90
        0
 91
        1
 62
     0
 92
       -2
340
14
 93
        0
 40
0.045
309
GRIDFORMAT_END
 95
        8
302
GRIDFORMAT
  1
GRIDFORMAT_BEGIN
 90
        0
 91
        1
 62
     0
 92
       -2
340
14
 93
        0
 40
0.045
309
GRIDFORMAT_END
 95
       16
302
GRIDFORMAT
  1
GRIDFORMAT_BEGIN
 90
        0
 91
        1
 62
     0
 92
       -2
340
14
 93
        0
 40
0.045
309
GRIDFORMAT_END
 95
       32
302
GRIDFORMAT
  1
GRIDFORMAT_BEGIN
 90
        0
 91
        1
 62
     0
 92
       -2
340
14
 93
        0
 40
0.045
309
GRIDFORMAT_END
309
TABLEFORMAT_END
  1
CELLSTYLE_BEGIN
 90
        2
 91
        1
300
_HEADER
309
CELLSTYLE_END
300
CELLSTYLE
  1
TABLEFORMAT_BEGIN
 90
        5
170
     1
 91
        0
 92
        0
 62
   257
 93
        1
300
CONTENTFORMAT
  1
CONTENTFORMAT_BEGIN
 90
        0
 91
        0
 92
        4
 93
        0
300

 40
0.0
140
1.0
 94
        2
 62
     0
340
11
144
4.5
309
CONTENTFORMAT_END
171
     1
301
MARGIN
  1
CELLMARGIN_BEGIN
 40
1.5
 40
1.5
 40
1.5
 40
1.5
 40
1.5
 40
1.5
309
CELLMARGIN_END
 94
        6
 95
        1
302
GRIDFORMAT
  1
GRIDFORMAT_BEGIN
 90
        0
 91
        1
 62
     0
 92
       -2
340
14
 93
        0
 40
0.045
309
GRIDFORMAT_END
 95
        2
302
GRIDFORMAT
  1
GRIDFORMAT_BEGIN
 90
        0
 91
        1
 62
     0
 92
       -2
340
14
 93
        0
 40
0.045
309
GRIDFORMAT_END
 95
        4
302
GRIDFORMAT
  1
GRIDFORMAT_BEGIN
 90
        0
 91
        1
 62
     0
 92
       -2
340
14
 93
        0
 40
0.045
309
GRIDFORMAT_END
 95
        8
302
GRIDFORMAT
  1
GRIDFORMAT_BEGIN
 90
        0
 91
        1
 62
     0
 92
       -2
340
14
 93
        0
 40
0.045
309
GRIDFORMAT_END
 95
       16
302
GRIDFORMAT
  1
GRIDFORMAT_BEGIN
 90
        0
 91
        1
 62
     0
 92
       -2
340
14
 93
        0
 40
0.045
309
GRIDFORMAT_END
 95
       32
302
GRIDFORMAT
  1
GRIDFORMAT_BEGIN
 90
        0
 91
        1
 62
     0
 92
       -2
340
14
 93
        0
 40
0.045
309
GRIDFORMAT_END
309
TABLEFORMAT_END
  1
CELLSTYLE_BEGIN
 90
        3
 91
        2
300
_DATA
309
CELLSTYLE_END
  0
XRECORD
  5
3D8
102
{ACAD_REACTORS
330
3D7
102
}
330
3D7
100
AcDbXrecord
280
     1
102
ACAD_ROUNDTRIP_PRE2007_TABLESTYLE
 90
        4
 91
        0
  1

 92
        4
 93
        0
  2

 94
        4
 95
        0
  3

  0
XRECORD
  5
3AA
102
{ACAD_REACTORS
330
3A9
102
}
330
3A9
100
AcDbXrecord
280
     1
102
RTVSPropertyOp0
 70
     1
102
RTVSPropertyOp1
 70
     1
102
RTVSPropertyOp2
 70
     1
102
RTVSPropertyOp3
 70
     1
102
RTVSPropertyOp4
 70
     1
102
RTVSPropertyOp5
 70
     1
102
RTVSPropertyOp6
 70
     1
102
RTVSPropertyOp7
 70
     1
102
RTVSPropertyOp8
 70
     1
102
RTVSPropertyOp9
 70
     1
102
RTVSPropertyOp10
 70
     1
102
RTVSPropertyOp11
 70
     1
102
RTVSPropertyOp12
 70
     1
102
RTVSPropertyOp13
 70
     1
102
RTVSPropertyOp14
 70
     1
102
RTVSPropertyOp15
 70
     1
102
RTVSPropertyOp16
 70
     1
102
RTVSPropertyOp17
 70
     1
102
RTVSPropertyOp18
 70
     1
102
RTVSPropertyOp19
 70
     1
102
RTVSPropertyOp20
 70
     1
102
RTVSPropertyOp21
 70
     1
102
RTVSPropertyOp22
 70
     1
102
RTVSPropertyOp23
 70
     1
102
RTVSPropertyOp24
 70
     1
102
RTVSPropertyOp25
 70
     1
102
RTVSPropertyOp26
 70
     1
102
RTVSPropertyOp27
 70
     1
102
RTVSPropertyOp28
 70
     1
102
RTVSPropertyOp29
 70
     1
102
RTVSPropertyOp30
 70
     1
102
RTVSPropertyOp31
 70
     1
102
RTVSPropertyOp32
 70
     1
102
RTVSPropertyOp33
 70
     1
102
RTVSPropertyOp34
 70
     1
102
RTVSPropertyOp35
 70
     1
102
RTVSPropertyOp36
 70
     1
102
RTVSPropertyOp37
 70
     1
102
RTVSPropertyOp38
 70
     1
102
RTVSPropertyOp39
 70
     1
102
RTVSPropertyOp40
 70
     1
102
RTVSPropertyOp41
 70
     1
102
RTVSPropertyOp42
 70
     1
102
RTVSPropertyOp43
 70
     1
102
RTVSPropertyOp44
 70
     1
102
RTVSPropertyOp45
 70
     1
102
RTVSPropertyOp46
 70
     1
102
RTVSPropertyOp47
 70
     1
102
RTVSPropertyOp48
 70
     1
102
RTVSPropertyOp49
 70
     1
102
RTVSPropertyOp50
 70
     1
102
RTVSPropertyOp51
 70
     0
102
RTVSPropertyOp52
 70
     0
102
RTVSPropertyOp53
 70
     1
102
RTVSPropertyOp54
 70
     1
102
RTVSPropertyOp55
 70
     1
102
RTVSPropertyOp56
 70
     1
102
RTVSPropertyOp57
 70
     1
102
RTVSPost2010Prop28
280
     1
102
RTVSPost2010PropOp28
 70
     1
102
RTVSPost2010Prop29
280
     1
102
RTVSPost2010PropOp29
 70
     1
102
RTVSPost2010Prop30
280
     0
102
RTVSPost2010PropOp30
 70
     1
102
RTVSPost2010Prop31
280
     0
102
RTVSPost2010PropOp31
 70
     1
102
RTVSPost2010Prop32
280
     0
102
RTVSPost2010PropOp32
 70
     1
102
RTVSPost2010Prop33
280
     0
102
RTVSPost2010PropOp33
 70
     1
102
RTVSPost2010Prop34
280
     0
102
RTVSPost2010PropOp34
 70
     1
102
RTVSPost2010Prop35
280
     0
102
RTVSPost2010PropOp35
 70
     1
102
RTVSPost2010Prop36
280
     0
102
RTVSPost2010PropOp36
 70
     1
102
RTVSPost2010Prop37
 90
       50
102
RTVSPost2010PropOp37
 70
     1
102
RTVSPost2010Prop38
140
0.0
102
RTVSPost2010PropOp38
 70
     1
102
RTVSPost2010Prop39
140
1.0
102
RTVSPost2010PropOp39
 70
     1
102
RTVSPost2010Prop40
 90
        0
102
RTVSPost2010PropOp40
 70
     1
102
RTVSPost2010Prop41ColorIndex
 90
       18
102
RTVSPost2010Prop41ColorRGB
 90
        0
102
RTVSPost2010PropOp41
 70
     1
102
RTVSPost2010Prop42
 90
       50
102
RTVSPost2010PropOp42
 70
     1
102
RTVSPost2010Prop43
 90
        3
102
RTVSPost2010PropOp43
 70
     1
102
RTVSPost2010Prop44ColorIndex
 90
        5
102
RTVSPost2010Prop44ColorRGB
 90
      255
102
RTVSPost2010PropOp44
 70
     1
102
RTVSPost2010Prop45
280
     0
102
RTVSPost2010PropOp45
 70
     1
102
RTVSPost2010Prop46
 90
       50
102
RTVSPost2010PropOp46
 70
     1
102
RTVSPost2010Prop47
 90
       50
102
RTVSPost2010PropOp47
 70
     1
102
RTVSPost2010Prop48
 90
       50
102
RTVSPost2010PropOp48
 70
     1
102
RTVSPost2010Prop49
280
     0
102
RTVSPost2010PropOp49
 70
     1
102
RTVSPost2010Prop50
 90
       50
102
RTVSPost2010PropOp50
 70
     1
102
RTVSPost2010Prop51ColorIndex
 90
      256
102
RTVSPost2010Prop51ColorRGB
 90
-16777216
102
RTVSPost2010PropOp51
 70
     0
102
RTVSPost2010Prop52
140
1.0
102
RTVSPost2010PropOp52
 70
     0
102
RTVSPost2010Prop53
 90
        2
102
RTVSPost2010PropOp53
 70
     1
102
RTVSPost2010Prop54
  1
strokes_ogs.tif
102
RTVSPost2010PropOp54
 70
     1
102
RTVSPost2010Prop55
280
     0
102
RTVSPost2010PropOp55
 70
     1
102
RTVSPost2010Prop56
140
1.0
102
RTVSPost2010PropOp56
 70
     1
102
RTVSPost2010Prop57
140
1.0
102
RTVSPost2010PropOp57
 70
     1
  0
XRECORD
  5
3B0
102
{ACAD_REACTORS
330
3AF
102
}
330
3AF
100
AcDbXrecord
280
     1
102
RTVSPropertyOp0
 70
     1
102
RTVSPropertyOp1
 70
     1
102
RTVSPropertyOp2
 70
     1
102
RTVSPropertyOp3
 70
     1
102
RTVSPropertyOp4
 70
     1
102
RTVSPropertyOp5
 70
     1
102
RTVSPropertyOp6
 70
     1
102
RTVSPropertyOp7
 70
     1
102
RTVSPropertyOp8
 70
     1
102
RTVSPropertyOp9
 70
     1
102
RTVSPropertyOp10
 70
     1
102
RTVSPropertyOp11
 70
     1
102
RTVSPropertyOp12
 70
     1
102
RTVSPropertyOp13
 70
     1
102
RTVSPropertyOp14
 70
     1
102
RTVSPropertyOp15
 70
     1
102
RTVSPropertyOp16
 70
     1
102
RTVSPropertyOp17
 70
     1
102
RTVSPropertyOp18
 70
     1
102
RTVSPropertyOp19
 70
     1
102
RTVSPropertyOp20
 70
     1
102
RTVSPropertyOp21
 70
     1
102
RTVSPropertyOp22
 70
     1
102
RTVSPropertyOp23
 70
     1
102
RTVSPropertyOp24
 70
     1
102
RTVSPropertyOp25
 70
     1
102
RTVSPropertyOp26
 70
     1
102
RTVSPropertyOp27
 70
     1
102
RTVSPropertyOp28
 70
     1
102
RTVSPropertyOp29
 70
     1
102
RTVSPropertyOp30
 70
     1
102
RTVSPropertyOp31
 70
     1
102
RTVSPropertyOp32
 70
     1
102
RTVSPropertyOp33
 70
     1
102
RTVSPropertyOp34
 70
     1
102
RTVSPropertyOp35
 70
     1
102
RTVSPropertyOp36
 70
     1
102
RTVSPropertyOp37
 70
     1
102
RTVSPropertyOp38
 70
     1
102
RTVSPropertyOp39
 70
     1
102
RTVSPropertyOp40
 70
     1
102
RTVSPropertyOp41
 70
     1
102
RTVSPropertyOp42
 70
     1
102
RTVSPropertyOp43
 70
     1
102
RTVSPropertyOp44
 70
     1
102
RTVSPropertyOp45
 70
     1
102
RTVSPropertyOp46
 70
     1
102
RTVSPropertyOp47
 70
     1
102
RTVSPropertyOp48
 70
     1
102
RTVSPropertyOp49
 70
     1
102
RTVSPropertyOp50
 70
     1
102
RTVSPropertyOp51
 70
     0
102
RTVSPropertyOp52
 70
     0
102
RTVSPropertyOp53
 70
     1
102
RTVSPropertyOp54
 70
     1
102
RTVSPropertyOp55
 70
     1
102
RTVSPropertyOp56
 70
     1
102
RTVSPropertyOp57
 70
     1
102
RTVSPost2010Prop28
280
     0
102
RTVSPost2010PropOp28
 70
     1
102
RTVSPost2010Prop29
280
     1
102
RTVSPost2010PropOp29
 70
     1
102
RTVSPost2010Prop30
280
     1
102
RTVSPost2010PropOp30
 70
     1
102
RTVSPost2010Prop31
280
     0
102
RTVSPost2010PropOp31
 70
     1
102
RTVSPost2010Prop32
280
     0
102
RTVSPost2010PropOp32
 70
     1
102
RTVSPost2010Prop33
280
     0
102
RTVSPost2010PropOp33
 70
     1
102
RTVSPost2010Prop34
280
     0
102
RTVSPost2010PropOp34
 70
     1
102
RTVSPost2010Prop35
280
     0
102
RTVSPost2010PropOp35
 70
     1
102
RTVSPost2010Prop36
280
     0
102
RTVSPost2010PropOp36
 70
     1
102
RTVSPost2010Prop37
 90
       50
102
RTVSPost2010PropOp37
 70
     1
102
RTVSPost2010Prop38
140
0.0
102
RTVSPost2010PropOp38
 70
     1
102
RTVSPost2010Prop39
140
1.0
102
RTVSPost2010PropOp39
 70
     1
102
RTVSPost2010Prop40
 90
        0
102
RTVSPost2010PropOp40
 70
     1
102
RTVSPost2010Prop41ColorIndex
 90
       18
102
RTVSPost2010Prop41ColorRGB
 90
        0
102
RTVSPost2010PropOp41
 70
     1
102
RTVSPost2010Prop42
 90
       50
102
RTVSPost2010PropOp42
 70
     1
102
RTVSPost2010Prop43
 90
        3
102
RTVSPost2010PropOp43
 70
     1
102
RTVSPost2010Prop44ColorIndex
 90
        5
102
RTVSPost2010Prop44ColorRGB
 90
      255
102
RTVSPost2010PropOp44
 70
     1
102
RTVSPost2010Prop45
280
     0
102
RTVSPost2010PropOp45
 70
     1
102
RTVSPost2010Prop46
 90
       50
102
RTVSPost2010PropOp46
 70
     1
102
RTVSPost2010Prop47
 90
       50
102
RTVSPost2010PropOp47
 70
     1
102
RTVSPost2010Prop48
 90
       50
102
RTVSPost2010PropOp48
 70
     1
102
RTVSPost2010Prop49
280
     0
102
RTVSPost2010PropOp49
 70
     1
102
RTVSPost2010Prop50
 90
       50
102
RTVSPost2010PropOp50
 70
     1
102
RTVSPost2010Prop51ColorIndex
 90
      256
102
RTVSPost2010Prop51ColorRGB
 90
-16777216
102
RTVSPost2010PropOp51
 70
     0
102
RTVSPost2010Prop52
140
1.0
102
RTVSPost2010PropOp52
 70
     0
102
RTVSPost2010Prop53
 90
        2
102
RTVSPost2010PropOp53
 70
     1
102
RTVSPost2010Prop54
  1
strokes_ogs.tif
102
RTVSPost2010PropOp54
 70
     1
102
RTVSPost2010Prop55
280
     0
102
RTVSPost2010PropOp55
 70
     1
102
RTVSPost2010Prop56
140
1.0
102
RTVSPost2010PropOp56
 70
     1
102
RTVSPost2010Prop57
140
1.0
102
RTVSPost2010PropOp57
 70
     1
  0
XRECORD
  5
3B8
102
{ACAD_REACTORS
330
3B7
102
}
330
3B7
100
AcDbXrecord
280
     1
102
RTVSPropertyOp0
 70
     1
102
RTVSPropertyOp1
 70
     1
102
RTVSPropertyOp2
 70
     1
102
RTVSPropertyOp3
 70
     1
102
RTVSPropertyOp4
 70
     1
102
RTVSPropertyOp5
 70
     1
102
RTVSPropertyOp6
 70
     1
102
RTVSPropertyOp7
 70
     1
102
RTVSPropertyOp8
 70
     1
102
RTVSPropertyOp9
 70
     1
102
RTVSPropertyOp10
 70
     1
102
RTVSPropertyOp11
 70
     1
102
RTVSPropertyOp12
 70
     1
102
RTVSPropertyOp13
 70
     1
102
RTVSPropertyOp14
 70
     1
102
RTVSPropertyOp15
 70
     1
102
RTVSPropertyOp16
 70
     1
102
RTVSPropertyOp17
 70
     1
102
RTVSPropertyOp18
 70
     1
102
RTVSPropertyOp19
 70
     1
102
RTVSPropertyOp20
 70
     1
102
RTVSPropertyOp21
 70
     1
102
RTVSPropertyOp22
 70
     1
102
RTVSPropertyOp23
 70
     1
102
RTVSPropertyOp24
 70
     1
102
RTVSPropertyOp25
 70
     1
102
RTVSPropertyOp26
 70
     1
102
RTVSPropertyOp27
 70
     1
102
RTVSPropertyOp28
 70
     1
102
RTVSPropertyOp29
 70
     1
102
RTVSPropertyOp30
 70
     1
102
RTVSPropertyOp31
 70
     1
102
RTVSPropertyOp32
 70
     1
102
RTVSPropertyOp33
 70
     1
102
RTVSPropertyOp34
 70
     1
102
RTVSPropertyOp35
 70
     1
102
RTVSPropertyOp36
 70
     1
102
RTVSPropertyOp37
 70
     1
102
RTVSPropertyOp38
 70
     1
102
RTVSPropertyOp39
 70
     1
102
RTVSPropertyOp40
 70
     1
102
RTVSPropertyOp41
 70
     1
102
RTVSPropertyOp42
 70
     1
102
RTVSPropertyOp43
 70
     1
102
RTVSPropertyOp44
 70
     1
102
RTVSPropertyOp45
 70
     1
102
RTVSPropertyOp46
 70
     1
102
RTVSPropertyOp47
 70
     1
102
RTVSPropertyOp48
 70
     1
102
RTVSPropertyOp49
 70
     1
102
RTVSPropertyOp50
 70
     1
102
RTVSPropertyOp51
 70
     0
102
RTVSPropertyOp52
 70
     0
102
RTVSPropertyOp53
 70
     1
102
RTVSPropertyOp54
 70
     1
102
RTVSPropertyOp55
 70
     1
102
RTVSPropertyOp56
 70
     1
102
RTVSPropertyOp57
 70
     1
102
RTVSPost2010Prop28
280
     0
102
RTVSPost2010PropOp28
 70
     1
102
RTVSPost2010Prop29
280
     1
102
RTVSPost2010PropOp29
 70
     1
102
RTVSPost2010Prop30
280
     1
102
RTVSPost2010PropOp30
 70
     1
102
RTVSPost2010Prop31
280
     0
102
RTVSPost2010PropOp31
 70
     1
102
RTVSPost2010Prop32
280
     0
102
RTVSPost2010PropOp32
 70
     1
102
RTVSPost2010Prop33
280
     0
102
RTVSPost2010PropOp33
 70
     1
102
RTVSPost2010Prop34
280
     0
102
RTVSPost2010PropOp34
 70
     1
102
RTVSPost2010Prop35
280
     0
102
RTVSPost2010PropOp35
 70
     1
102
RTVSPost2010Prop36
280
     0
102
RTVSPost2010PropOp36
 70
     1
102
RTVSPost2010Prop37
 90
       50
102
RTVSPost2010PropOp37
 70
     1
102
RTVSPost2010Prop38
140
0.0
102
RTVSPost2010PropOp38
 70
     1
102
RTVSPost2010Prop39
140
1.0
102
RTVSPost2010PropOp39
 70
     1
102
RTVSPost2010Prop40
 90
        0
102
RTVSPost2010PropOp40
 70
     1
102
RTVSPost2010Prop41ColorIndex
 90
       18
102
RTVSPost2010Prop41ColorRGB
 90
        0
102
RTVSPost2010PropOp41
 70
     1
102
RTVSPost2010Prop42
 90
       50
102
RTVSPost2010PropOp42
 70
     1
102
RTVSPost2010Prop43
 90
        3
102
RTVSPost2010PropOp43
 70
     1
102
RTVSPost2010Prop44ColorIndex
 90
        5
102
RTVSPost2010Prop44ColorRGB
 90
      255
102
RTVSPost2010PropOp44
 70
     1
102
RTVSPost2010Prop45
280
     0
102
RTVSPost2010PropOp45
 70
     1
102
RTVSPost2010Prop46
 90
       50
102
RTVSPost2010PropOp46
 70
     1
102
RTVSPost2010Prop47
 90
       50
102
RTVSPost2010PropOp47
 70
     1
102
RTVSPost2010Prop48
 90
       50
102
RTVSPost2010PropOp48
 70
     1
102
RTVSPost2010Prop49
280
     0
102
RTVSPost2010PropOp49
 70
     1
102
RTVSPost2010Prop50
 90
       50
102
RTVSPost2010PropOp50
 70
     1
102
RTVSPost2010Prop51ColorIndex
 90
      256
102
RTVSPost2010Prop51ColorRGB
 90
-16777216
102
RTVSPost2010PropOp51
 70
     0
102
RTVSPost2010Prop52
140
1.0
102
RTVSPost2010PropOp52
 70
     0
102
RTVSPost2010Prop53
 90
        2
102
RTVSPost2010PropOp53
 70
     1
102
RTVSPost2010Prop54
  1
strokes_ogs.tif
102
RTVSPost2010PropOp54
 70
     1
102
RTVSPost2010Prop55
280
     0
102
RTVSPost2010PropOp55
 70
     1
102
RTVSPost2010Prop56
140
1.0
102
RTVSPost2010PropOp56
 70
     1
102
RTVSPost2010Prop57
140
1.0
102
RTVSPost2010PropOp57
 70
     1
  0
XRECORD
  5
3C0
102
{ACAD_REACTORS
330
3BF
102
}
330
3BF
100
AcDbXrecord
280
     1
102
RTVSPropertyOp0
 70
     1
102
RTVSPropertyOp1
 70
     1
102
RTVSPropertyOp2
 70
     1
102
RTVSPropertyOp3
 70
     1
102
RTVSPropertyOp4
 70
     1
102
RTVSPropertyOp5
 70
     1
102
RTVSPropertyOp6
 70
     1
102
RTVSPropertyOp7
 70
     1
102
RTVSPropertyOp8
 70
     1
102
RTVSPropertyOp9
 70
     1
102
RTVSPropertyOp10
 70
     1
102
RTVSPropertyOp11
 70
     1
102
RTVSPropertyOp12
 70
     1
102
RTVSPropertyOp13
 70
     1
102
RTVSPropertyOp14
 70
     1
102
RTVSPropertyOp15
 70
     1
102
RTVSPropertyOp16
 70
     1
102
RTVSPropertyOp17
 70
     1
102
RTVSPropertyOp18
 70
     1
102
RTVSPropertyOp19
 70
     1
102
RTVSPropertyOp20
 70
     1
102
RTVSPropertyOp21
 70
     1
102
RTVSPropertyOp22
 70
     1
102
RTVSPropertyOp23
 70
     1
102
RTVSPropertyOp24
 70
     1
102
RTVSPropertyOp25
 70
     1
102
RTVSPropertyOp26
 70
     1
102
RTVSPropertyOp27
 70
     1
102
RTVSPropertyOp28
 70
     1
102
RTVSPropertyOp29
 70
     1
102
RTVSPropertyOp30
 70
     1
102
RTVSPropertyOp31
 70
     1
102
RTVSPropertyOp32
 70
     1
102
RTVSPropertyOp33
 70
     1
102
RTVSPropertyOp34
 70
     1
102
RTVSPropertyOp35
 70
     1
102
RTVSPropertyOp36
 70
     1
102
RTVSPropertyOp37
 70
     1
102
RTVSPropertyOp38
 70
     1
102
RTVSPropertyOp39
 70
     1
102
RTVSPropertyOp40
 70
     1
102
RTVSPropertyOp41
 70
     1
102
RTVSPropertyOp42
 70
     1
102
RTVSPropertyOp43
 70
     1
102
RTVSPropertyOp44
 70
     1
102
RTVSPropertyOp45
 70
     1
102
RTVSPropertyOp46
 70
     1
102
RTVSPropertyOp47
 70
     1
102
RTVSPropertyOp48
 70
     1
102
RTVSPropertyOp49
 70
     1
102
RTVSPropertyOp50
 70
     1
102
RTVSPropertyOp51
 70
     0
102
RTVSPropertyOp52
 70
     0
102
RTVSPropertyOp53
 70
     1
102
RTVSPropertyOp54
 70
     1
102
RTVSPropertyOp55
 70
     1
102
RTVSPropertyOp56
 70
     1
102
RTVSPropertyOp57
 70
     1
102
RTVSPost2010Prop28
280
     0
102
RTVSPost2010PropOp28
 70
     1
102
RTVSPost2010Prop29
280
     1
102
RTVSPost2010PropOp29
 70
     1
102
RTVSPost2010Prop30
280
     1
102
RTVSPost2010PropOp30
 70
     1
102
RTVSPost2010Prop31
280
     0
102
RTVSPost2010PropOp31
 70
     1
102
RTVSPost2010Prop32
280
     0
102
RTVSPost2010PropOp32
 70
     1
102
RTVSPost2010Prop33
280
     0
102
RTVSPost2010PropOp33
 70
     1
102
RTVSPost2010Prop34
280
     0
102
RTVSPost2010PropOp34
 70
     1
102
RTVSPost2010Prop35
280
     0
102
RTVSPost2010PropOp35
 70
     1
102
RTVSPost2010Prop36
280
     0
102
RTVSPost2010PropOp36
 70
     1
102
RTVSPost2010Prop37
 90
       50
102
RTVSPost2010PropOp37
 70
     1
102
RTVSPost2010Prop38
140
0.0
102
RTVSPost2010PropOp38
 70
     1
102
RTVSPost2010Prop39
140
1.0
102
RTVSPost2010PropOp39
 70
     1
102
RTVSPost2010Prop40
 90
        0
102
RTVSPost2010PropOp40
 70
     1
102
RTVSPost2010Prop41ColorIndex
 90
       18
102
RTVSPost2010Prop41ColorRGB
 90
        0
102
RTVSPost2010PropOp41
 70
     1
102
RTVSPost2010Prop42
 90
       50
102
RTVSPost2010PropOp42
 70
     1
102
RTVSPost2010Prop43
 90
        3
102
RTVSPost2010PropOp43
 70
     1
102
RTVSPost2010Prop44ColorIndex
 90
        5
102
RTVSPost2010Prop44ColorRGB
 90
      255
102
RTVSPost2010PropOp44
 70
     1
102
RTVSPost2010Prop45
280
     0
102
RTVSPost2010PropOp45
 70
     1
102
RTVSPost2010Prop46
 90
       50
102
RTVSPost2010PropOp46
 70
     1
102
RTVSPost2010Prop47
 90
       50
102
RTVSPost2010PropOp47
 70
     1
102
RTVSPost2010Prop48
 90
       50
102
RTVSPost2010PropOp48
 70
     1
102
RTVSPost2010Prop49
280
     0
102
RTVSPost2010PropOp49
 70
     1
102
RTVSPost2010Prop50
 90
       50
102
RTVSPost2010PropOp50
 70
     1
102
RTVSPost2010Prop51ColorIndex
 90
      256
102
RTVSPost2010Prop51ColorRGB
 90
-16777216
102
RTVSPost2010PropOp51
 70
     0
102
RTVSPost2010Prop52
140
1.0
102
RTVSPost2010PropOp52
 70
     0
102
RTVSPost2010Prop53
 90
        2
102
RTVSPost2010PropOp53
 70
     1
102
RTVSPost2010Prop54
  1
strokes_ogs.tif
102
RTVSPost2010PropOp54
 70
     1
102
RTVSPost2010Prop55
280
     0
102
RTVSPost2010PropOp55
 70
     1
102
RTVSPost2010Prop56
140
1.0
102
RTVSPost2010PropOp56
 70
     1
102
RTVSPost2010Prop57
140
1.0
102
RTVSPost2010PropOp57
 70
     1
  0
XRECORD
  5
3B4
102
{ACAD_REACTORS
330
3B3
102
}
330
3B3
100
AcDbXrecord
280
     1
102
RTVSPropertyOp0
 70
     1
102
RTVSPropertyOp1
 70
     1
102
RTVSPropertyOp2
 70
     1
102
RTVSPropertyOp3
 70
     1
102
RTVSPropertyOp4
 70
     1
102
RTVSPropertyOp5
 70
     1
102
RTVSPropertyOp6
 70
     1
102
RTVSPropertyOp7
 70
     1
102
RTVSPropertyOp8
 70
     1
102
RTVSPropertyOp9
 70
     1
102
RTVSPropertyOp10
 70
     1
102
RTVSPropertyOp11
 70
     1
102
RTVSPropertyOp12
 70
     1
102
RTVSPropertyOp13
 70
     1
102
RTVSPropertyOp14
 70
     1
102
RTVSPropertyOp15
 70
     1
102
RTVSPropertyOp16
 70
     1
102
RTVSPropertyOp17
 70
     1
102
RTVSPropertyOp18
 70
     1
102
RTVSPropertyOp19
 70
     1
102
RTVSPropertyOp20
 70
     1
102
RTVSPropertyOp21
 70
     1
102
RTVSPropertyOp22
 70
     1
102
RTVSPropertyOp23
 70
     1
102
RTVSPropertyOp24
 70
     1
102
RTVSPropertyOp25
 70
     1
102
RTVSPropertyOp26
 70
     1
102
RTVSPropertyOp27
 70
     1
102
RTVSPropertyOp28
 70
     1
102
RTVSPropertyOp29
 70
     1
102
RTVSPropertyOp30
 70
     1
102
RTVSPropertyOp31
 70
     1
102
RTVSPropertyOp32
 70
     1
102
RTVSPropertyOp33
 70
     1
102
RTVSPropertyOp34
 70
     1
102
RTVSPropertyOp35
 70
     1
102
RTVSPropertyOp36
 70
     1
102
RTVSPropertyOp37
 70
     1
102
RTVSPropertyOp38
 70
     1
102
RTVSPropertyOp39
 70
     1
102
RTVSPropertyOp40
 70
     1
102
RTVSPropertyOp41
 70
     1
102
RTVSPropertyOp42
 70
     1
102
RTVSPropertyOp43
 70
     1
102
RTVSPropertyOp44
 70
     1
102
RTVSPropertyOp45
 70
     1
102
RTVSPropertyOp46
 70
     1
102
RTVSPropertyOp47
 70
     1
102
RTVSPropertyOp48
 70
     1
102
RTVSPropertyOp49
 70
     1
102
RTVSPropertyOp50
 70
     1
102
RTVSPropertyOp51
 70
     0
102
RTVSPropertyOp52
 70
     0
102
RTVSPropertyOp53
 70
     1
102
RTVSPropertyOp54
 70
     1
102
RTVSPropertyOp55
 70
     1
102
RTVSPropertyOp56
 70
     1
102
RTVSPropertyOp57
 70
     1
102
RTVSPost2010Prop28
280
     0
102
RTVSPost2010PropOp28
 70
     1
102
RTVSPost2010Prop29
280
     1
102
RTVSPost2010PropOp29
 70
     1
102
RTVSPost2010Prop30
280
     1
102
RTVSPost2010PropOp30
 70
     1
102
RTVSPost2010Prop31
280
     0
102
RTVSPost2010PropOp31
 70
     1
102
RTVSPost2010Prop32
280
     0
102
RTVSPost2010PropOp32
 70
     1
102
RTVSPost2010Prop33
280
     0
102
RTVSPost2010PropOp33
 70
     1
102
RTVSPost2010Prop34
280
     0
102
RTVSPost2010PropOp34
 70
     1
102
RTVSPost2010Prop35
280
     0
102
RTVSPost2010PropOp35
 70
     1
102
RTVSPost2010Prop36
280
     0
102
RTVSPost2010PropOp36
 70
     1
102
RTVSPost2010Prop37
 90
       50
102
RTVSPost2010PropOp37
 70
     1
102
RTVSPost2010Prop38
140
0.0
102
RTVSPost2010PropOp38
 70
     1
102
RTVSPost2010Prop39
140
1.0
102
RTVSPost2010PropOp39
 70
     1
102
RTVSPost2010Prop40
 90
        0
102
RTVSPost2010PropOp40
 70
     1
102
RTVSPost2010Prop41ColorIndex
 90
       18
102
RTVSPost2010Prop41ColorRGB
 90
        0
102
RTVSPost2010PropOp41
 70
     1
102
RTVSPost2010Prop42
 90
       50
102
RTVSPost2010PropOp42
 70
     1
102
RTVSPost2010Prop43
 90
        3
102
RTVSPost2010PropOp43
 70
     1
102
RTVSPost2010Prop44ColorIndex
 90
        5
102
RTVSPost2010Prop44ColorRGB
 90
      255
102
RTVSPost2010PropOp44
 70
     1
102
RTVSPost2010Prop45
280
     0
102
RTVSPost2010PropOp45
 70
     1
102
RTVSPost2010Prop46
 90
       50
102
RTVSPost2010PropOp46
 70
     1
102
RTVSPost2010Prop47
 90
       50
102
RTVSPost2010PropOp47
 70
     1
102
RTVSPost2010Prop48
 90
       50
102
RTVSPost2010PropOp48
 70
     1
102
RTVSPost2010Prop49
280
     0
102
RTVSPost2010PropOp49
 70
     1
102
RTVSPost2010Prop50
 90
       50
102
RTVSPost2010PropOp50
 70
     1
102
RTVSPost2010Prop51ColorIndex
 90
      256
102
RTVSPost2010Prop51ColorRGB
 90
-16777216
102
RTVSPost2010PropOp51
 70
     0
102
RTVSPost2010Prop52
140
1.0
102
RTVSPost2010PropOp52
 70
     0
102
RTVSPost2010Prop53
 90
        2
102
RTVSPost2010PropOp53
 70
     1
102
RTVSPost2010Prop54
  1
strokes_ogs.tif
102
RTVSPost2010PropOp54
 70
     1
102
RTVSPost2010Prop55
280
     0
102
RTVSPost2010PropOp55
 70
     1
102
RTVSPost2010Prop56
140
1.0
102
RTVSPost2010PropOp56
 70
     1
102
RTVSPost2010Prop57
140
1.0
102
RTVSPost2010PropOp57
 70
     1
  0
XRECORD
  5
3B6
102
{ACAD_REACTORS
330
3B5
102
}
330
3B5
100
AcDbXrecord
280
     1
102
RTVSPropertyOp0
 70
     1
102
RTVSPropertyOp1
 70
     1
102
RTVSPropertyOp2
 70
     1
102
RTVSPropertyOp3
 70
     1
102
RTVSPropertyOp4
 70
     1
102
RTVSPropertyOp5
 70
     1
102
RTVSPropertyOp6
 70
     1
102
RTVSPropertyOp7
 70
     1
102
RTVSPropertyOp8
 70
     1
102
RTVSPropertyOp9
 70
     1
102
RTVSPropertyOp10
 70
     1
102
RTVSPropertyOp11
 70
     1
102
RTVSPropertyOp12
 70
     1
102
RTVSPropertyOp13
 70
     1
102
RTVSPropertyOp14
 70
     1
102
RTVSPropertyOp15
 70
     1
102
RTVSPropertyOp16
 70
     1
102
RTVSPropertyOp17
 70
     1
102
RTVSPropertyOp18
 70
     1
102
RTVSPropertyOp19
 70
     1
102
RTVSPropertyOp20
 70
     1
102
RTVSPropertyOp21
 70
     1
102
RTVSPropertyOp22
 70
     1
102
RTVSPropertyOp23
 70
     1
102
RTVSPropertyOp24
 70
     1
102
RTVSPropertyOp25
 70
     1
102
RTVSPropertyOp26
 70
     1
102
RTVSPropertyOp27
 70
     1
102
RTVSPropertyOp28
 70
     1
102
RTVSPropertyOp29
 70
     1
102
RTVSPropertyOp30
 70
     1
102
RTVSPropertyOp31
 70
     1
102
RTVSPropertyOp32
 70
     1
102
RTVSPropertyOp33
 70
     1
102
RTVSPropertyOp34
 70
     1
102
RTVSPropertyOp35
 70
     1
102
RTVSPropertyOp36
 70
     1
102
RTVSPropertyOp37
 70
     1
102
RTVSPropertyOp38
 70
     1
102
RTVSPropertyOp39
 70
     1
102
RTVSPropertyOp40
 70
     1
102
RTVSPropertyOp41
 70
     1
102
RTVSPropertyOp42
 70
     1
102
RTVSPropertyOp43
 70
     1
102
RTVSPropertyOp44
 70
     1
102
RTVSPropertyOp45
 70
     1
102
RTVSPropertyOp46
 70
     1
102
RTVSPropertyOp47
 70
     1
102
RTVSPropertyOp48
 70
     1
102
RTVSPropertyOp49
 70
     1
102
RTVSPropertyOp50
 70
     1
102
RTVSPropertyOp51
 70
     0
102
RTVSPropertyOp52
 70
     0
102
RTVSPropertyOp53
 70
     1
102
RTVSPropertyOp54
 70
     1
102
RTVSPropertyOp55
 70
     1
102
RTVSPropertyOp56
 70
     1
102
RTVSPropertyOp57
 70
     1
102
RTVSPost2010Prop28
280
     0
102
RTVSPost2010PropOp28
 70
     1
102
RTVSPost2010Prop29
280
     1
102
RTVSPost2010PropOp29
 70
     1
102
RTVSPost2010Prop30
280
     1
102
RTVSPost2010PropOp30
 70
     1
102
RTVSPost2010Prop31
280
     0
102
RTVSPost2010PropOp31
 70
     1
102
RTVSPost2010Prop32
280
     0
102
RTVSPost2010PropOp32
 70
     1
102
RTVSPost2010Prop33
280
     0
102
RTVSPost2010PropOp33
 70
     1
102
RTVSPost2010Prop34
280
     0
102
RTVSPost2010PropOp34
 70
     1
102
RTVSPost2010Prop35
280
     0
102
RTVSPost2010PropOp35
 70
     1
102
RTVSPost2010Prop36
280
     0
102
RTVSPost2010PropOp36
 70
     1
102
RTVSPost2010Prop37
 90
       50
102
RTVSPost2010PropOp37
 70
     1
102
RTVSPost2010Prop38
140
0.0
102
RTVSPost2010PropOp38
 70
     1
102
RTVSPost2010Prop39
140
1.0
102
RTVSPost2010PropOp39
 70
     1
102
RTVSPost2010Prop40
 90
        0
102
RTVSPost2010PropOp40
 70
     1
102
RTVSPost2010Prop41ColorIndex
 90
       18
102
RTVSPost2010Prop41ColorRGB
 90
        0
102
RTVSPost2010PropOp41
 70
     1
102
RTVSPost2010Prop42
 90
       50
102
RTVSPost2010PropOp42
 70
     1
102
RTVSPost2010Prop43
 90
        3
102
RTVSPost2010PropOp43
 70
     1
102
RTVSPost2010Prop44ColorIndex
 90
        5
102
RTVSPost2010Prop44ColorRGB
 90
      255
102
RTVSPost2010PropOp44
 70
     1
102
RTVSPost2010Prop45
280
     0
102
RTVSPost2010PropOp45
 70
     1
102
RTVSPost2010Prop46
 90
       50
102
RTVSPost2010PropOp46
 70
     1
102
RTVSPost2010Prop47
 90
       50
102
RTVSPost2010PropOp47
 70
     1
102
RTVSPost2010Prop48
 90
       50
102
RTVSPost2010PropOp48
 70
     1
102
RTVSPost2010Prop49
280
     0
102
RTVSPost2010PropOp49
 70
     1
102
RTVSPost2010Prop50
 90
       50
102
RTVSPost2010PropOp50
 70
     1
102
RTVSPost2010Prop51ColorIndex
 90
      256
102
RTVSPost2010Prop51ColorRGB
 90
-16777216
102
RTVSPost2010PropOp51
 70
     0
102
RTVSPost2010Prop52
140
1.0
102
RTVSPost2010PropOp52
 70
     0
102
RTVSPost2010Prop53
 90
        2
102
RTVSPost2010PropOp53
 70
     1
102
RTVSPost2010Prop54
  1
strokes_ogs.tif
102
RTVSPost2010PropOp54
 70
     1
102
RTVSPost2010Prop55
280
     0
102
RTVSPost2010PropOp55
 70
     1
102
RTVSPost2010Prop56
140
1.0
102
RTVSPost2010PropOp56
 70
     1
102
RTVSPost2010Prop57
140
1.0
102
RTVSPost2010PropOp57
 70
     1
  0
XRECORD
  5
3C6
102
{ACAD_REACTORS
330
3C5
102
}
330
3C5
100
AcDbXrecord
280
     1
102
RTVSPropertyOp0
 70
     0
102
RTVSPropertyOp1
 70
     0
102
RTVSPropertyOp2
 70
     0
102
RTVSPropertyOp3
 70
     0
102
RTVSPropertyOp4
 70
     0
102
RTVSPropertyOp5
 70
     0
102
RTVSPropertyOp6
 70
     0
102
RTVSPropertyOp7
 70
     0
102
RTVSPropertyOp8
 70
     0
102
RTVSPropertyOp9
 70
     0
102
RTVSPropertyOp10
 70
     0
102
RTVSPropertyOp11
 70
     0
102
RTVSPropertyOp12
 70
     0
102
RTVSPropertyOp13
 70
     0
102
RTVSPropertyOp14
 70
     2
102
RTVSPropertyOp15
 70
     0
102
RTVSPropertyOp16
 70
     0
102
RTVSPropertyOp17
 70
     0
102
RTVSPropertyOp18
 70
     0
102
RTVSPropertyOp19
 70
     0
102
RTVSPropertyOp20
 70
     0
102
RTVSPropertyOp21
 70
     0
102
RTVSPropertyOp22
 70
     0
102
RTVSPropertyOp23
 70
     0
102
RTVSPropertyOp24
 70
     0
102
RTVSPropertyOp25
 70
     0
102
RTVSPropertyOp26
 70
     0
102
RTVSPropertyOp27
 70
     0
102
RTVSPropertyOp28
 70
     0
102
RTVSPropertyOp29
 70
     0
102
RTVSPropertyOp30
 70
     0
102
RTVSPropertyOp31
 70
     0
102
RTVSPropertyOp32
 70
     0
102
RTVSPropertyOp33
 70
     0
102
RTVSPropertyOp34
 70
     0
102
RTVSPropertyOp35
 70
     0
102
RTVSPropertyOp36
 70
     0
102
RTVSPropertyOp37
 70
     0
102
RTVSPropertyOp38
 70
     0
102
RTVSPropertyOp39
 70
     0
102
RTVSPropertyOp40
 70
     0
102
RTVSPropertyOp41
 70
     0
102
RTVSPropertyOp42
 70
     0
102
RTVSPropertyOp43
 70
     0
102
RTVSPropertyOp44
 70
     0
102
RTVSPropertyOp45
 70
     0
102
RTVSPropertyOp46
 70
     0
102
RTVSPropertyOp47
 70
     0
102
RTVSPropertyOp48
 70
     0
102
RTVSPropertyOp49
 70
     0
102
RTVSPropertyOp50
 70
     0
102
RTVSPropertyOp51
 70
     0
102
RTVSPropertyOp52
 70
     0
102
RTVSPropertyOp53
 70
     0
102
RTVSPropertyOp54
 70
     0
102
RTVSPropertyOp55
 70
     0
102
RTVSPropertyOp56
 70
     0
102
RTVSPropertyOp57
 70
     0
102
RTVSPost2010Prop28
280
     0
102
RTVSPost2010PropOp28
 70
     0
102
RTVSPost2010Prop29
280
     1
102
RTVSPost2010PropOp29
 70
     0
102
RTVSPost2010Prop30
280
     1
102
RTVSPost2010PropOp30
 70
     0
102
RTVSPost2010Prop31
280
     0
102
RTVSPost2010PropOp31
 70
     0
102
RTVSPost2010Prop32
280
     0
102
RTVSPost2010PropOp32
 70
     0
102
RTVSPost2010Prop33
280
     0
102
RTVSPost2010PropOp33
 70
     0
102
RTVSPost2010Prop34
280
     0
102
RTVSPost2010PropOp34
 70
     0
102
RTVSPost2010Prop35
280
     0
102
RTVSPost2010PropOp35
 70
     0
102
RTVSPost2010Prop36
280
     0
102
RTVSPost2010PropOp36
 70
     0
102
RTVSPost2010Prop37
 90
       50
102
RTVSPost2010PropOp37
 70
     0
102
RTVSPost2010Prop38
140
0.0
102
RTVSPost2010PropOp38
 70
     0
102
RTVSPost2010Prop39
140
1.0
102
RTVSPost2010PropOp39
 70
     0
102
RTVSPost2010Prop40
 90
        0
102
RTVSPost2010PropOp40
 70
     0
102
RTVSPost2010Prop41ColorIndex
 90
       18
102
RTVSPost2010Prop41ColorRGB
 90
        0
102
RTVSPost2010PropOp41
 70
     0
102
RTVSPost2010Prop42
 90
       50
102
RTVSPost2010PropOp42
 70
     0
102
RTVSPost2010Prop43
 90
        3
102
RTVSPost2010PropOp43
 70
     0
102
RTVSPost2010Prop44ColorIndex
 90
        5
102
RTVSPost2010Prop44ColorRGB
 90
      255
102
RTVSPost2010PropOp44
 70
     0
102
RTVSPost2010Prop45
280
     0
102
RTVSPost2010PropOp45
 70
     0
102
RTVSPost2010Prop46
 90
       50
102
RTVSPost2010PropOp46
 70
     0
102
RTVSPost2010Prop47
 90
       50
102
RTVSPost2010PropOp47
 70
     0
102
RTVSPost2010Prop48
 90
       50
102
RTVSPost2010PropOp48
 70
     0
102
RTVSPost2010Prop49
280
     0
102
RTVSPost2010PropOp49
 70
     0
102
RTVSPost2010Prop50
 90
       50
102
RTVSPost2010PropOp50
 70
     0
102
RTVSPost2010Prop51ColorIndex
 90
      256
102
RTVSPost2010Prop51ColorRGB
 90
-16777216
102
RTVSPost2010PropOp51
 70
     0
102
RTVSPost2010Prop52
140
1.0
102
RTVSPost2010PropOp52
 70
     0
102
RTVSPost2010Prop53
 90
        2
102
RTVSPost2010PropOp53
 70
     0
102
RTVSPost2010Prop54
  1
strokes_ogs.tif
102
RTVSPost2010PropOp54
 70
     0
102
RTVSPost2010Prop55
280
     0
102
RTVSPost2010PropOp55
 70
     0
102
RTVSPost2010Prop56
140
1.0
102
RTVSPost2010PropOp56
 70
     0
102
RTVSPost2010Prop57
140
1.0
102
RTVSPost2010PropOp57
 70
     0
  0
XRECORD
  5
3BE
102
{ACAD_REACTORS
330
3BD
102
}
330
3BD
100
AcDbXrecord
280
     1
102
RTVSPropertyOp0
 70
     1
102
RTVSPropertyOp1
 70
     1
102
RTVSPropertyOp2
 70
     1
102
RTVSPropertyOp3
 70
     1
102
RTVSPropertyOp4
 70
     1
102
RTVSPropertyOp5
 70
     1
102
RTVSPropertyOp6
 70
     1
102
RTVSPropertyOp7
 70
     1
102
RTVSPropertyOp8
 70
     1
102
RTVSPropertyOp9
 70
     1
102
RTVSPropertyOp10
 70
     1
102
RTVSPropertyOp11
 70
     1
102
RTVSPropertyOp12
 70
     1
102
RTVSPropertyOp13
 70
     1
102
RTVSPropertyOp14
 70
     1
102
RTVSPropertyOp15
 70
     1
102
RTVSPropertyOp16
 70
     1
102
RTVSPropertyOp17
 70
     1
102
RTVSPropertyOp18
 70
     1
102
RTVSPropertyOp19
 70
     1
102
RTVSPropertyOp20
 70
     1
102
RTVSPropertyOp21
 70
     1
102
RTVSPropertyOp22
 70
     1
102
RTVSPropertyOp23
 70
     1
102
RTVSPropertyOp24
 70
     1
102
RTVSPropertyOp25
 70
     1
102
RTVSPropertyOp26
 70
     1
102
RTVSPropertyOp27
 70
     1
102
RTVSPropertyOp28
 70
     1
102
RTVSPropertyOp29
 70
     1
102
RTVSPropertyOp30
 70
     1
102
RTVSPropertyOp31
 70
     1
102
RTVSPropertyOp32
 70
     1
102
RTVSPropertyOp33
 70
     1
102
RTVSPropertyOp34
 70
     1
102
RTVSPropertyOp35
 70
     1
102
RTVSPropertyOp36
 70
     1
102
RTVSPropertyOp37
 70
     1
102
RTVSPropertyOp38
 70
     1
102
RTVSPropertyOp39
 70
     1
102
RTVSPropertyOp40
 70
     1
102
RTVSPropertyOp41
 70
     1
102
RTVSPropertyOp42
 70
     1
102
RTVSPropertyOp43
 70
     1
102
RTVSPropertyOp44
 70
     1
102
RTVSPropertyOp45
 70
     1
102
RTVSPropertyOp46
 70
     1
102
RTVSPropertyOp47
 70
     1
102
RTVSPropertyOp48
 70
     1
102
RTVSPropertyOp49
 70
     1
102
RTVSPropertyOp50
 70
     1
102
RTVSPropertyOp51
 70
     0
102
RTVSPropertyOp52
 70
     0
102
RTVSPropertyOp53
 70
     1
102
RTVSPropertyOp54
 70
     1
102
RTVSPropertyOp55
 70
     1
102
RTVSPropertyOp56
 70
     1
102
RTVSPropertyOp57
 70
     1
102
RTVSPost2010Prop28
280
     0
102
RTVSPost2010PropOp28
 70
     1
102
RTVSPost2010Prop29
280
     1
102
RTVSPost2010PropOp29
 70
     1
102
RTVSPost2010Prop30
280
     1
102
RTVSPost2010PropOp30
 70
     1
102
RTVSPost2010Prop31
280
     0
102
RTVSPost2010PropOp31
 70
     1
102
RTVSPost2010Prop32
280
     0
102
RTVSPost2010PropOp32
 70
     1
102
RTVSPost2010Prop33
280
     0
102
RTVSPost2010PropOp33
 70
     1
102
RTVSPost2010Prop34
280
     0
102
RTVSPost2010PropOp34
 70
     1
102
RTVSPost2010Prop35
280
     0
102
RTVSPost2010PropOp35
 70
     1
102
RTVSPost2010Prop36
280
     0
102
RTVSPost2010PropOp36
 70
     1
102
RTVSPost2010Prop37
 90
       50
102
RTVSPost2010PropOp37
 70
     1
102
RTVSPost2010Prop38
140
0.0
102
RTVSPost2010PropOp38
 70
     1
102
RTVSPost2010Prop39
140
1.0
102
RTVSPost2010PropOp39
 70
     1
102
RTVSPost2010Prop40
 90
        0
102
RTVSPost2010PropOp40
 70
     1
102
RTVSPost2010Prop41ColorIndex
 90
       18
102
RTVSPost2010Prop41ColorRGB
 90
        0
102
RTVSPost2010PropOp41
 70
     1
102
RTVSPost2010Prop42
 90
       50
102
RTVSPost2010PropOp42
 70
     1
102
RTVSPost2010Prop43
 90
        3
102
RTVSPost2010PropOp43
 70
     1
102
RTVSPost2010Prop44ColorIndex
 90
        5
102
RTVSPost2010Prop44ColorRGB
 90
      255
102
RTVSPost2010PropOp44
 70
     1
102
RTVSPost2010Prop45
280
     0
102
RTVSPost2010PropOp45
 70
     1
102
RTVSPost2010Prop46
 90
       50
102
RTVSPost2010PropOp46
 70
     1
102
RTVSPost2010Prop47
 90
       50
102
RTVSPost2010PropOp47
 70
     1
102
RTVSPost2010Prop48
 90
       50
102
RTVSPost2010PropOp48
 70
     1
102
RTVSPost2010Prop49
280
     0
102
RTVSPost2010PropOp49
 70
     1
102
RTVSPost2010Prop50
 90
       50
102
RTVSPost2010PropOp50
 70
     1
102
RTVSPost2010Prop51ColorIndex
 90
      256
102
RTVSPost2010Prop51ColorRGB
 90
-16777216
102
RTVSPost2010PropOp51
 70
     0
102
RTVSPost2010Prop52
140
1.0
102
RTVSPost2010PropOp52
 70
     0
102
RTVSPost2010Prop53
 90
        2
102
RTVSPost2010PropOp53
 70
     1
102
RTVSPost2010Prop54
  1
strokes_ogs.tif
102
RTVSPost2010PropOp54
 70
     1
102
RTVSPost2010Prop55
280
     0
102
RTVSPost2010PropOp55
 70
     1
102
RTVSPost2010Prop56
140
1.0
102
RTVSPost2010PropOp56
 70
     1
102
RTVSPost2010Prop57
140
1.0
102
RTVSPost2010PropOp57
 70
     1
  0
XRECORD
  5
3A2
102
{ACAD_REACTORS
330
3A1
102
}
330
3A1
100
AcDbXrecord
280
     1
102
RTVSPropertyOp0
 70
     1
102
RTVSPropertyOp1
 70
     1
102
RTVSPropertyOp2
 70
     1
102
RTVSPropertyOp3
 70
     1
102
RTVSPropertyOp4
 70
     1
102
RTVSPropertyOp5
 70
     1
102
RTVSPropertyOp6
 70
     1
102
RTVSPropertyOp7
 70
     1
102
RTVSPropertyOp8
 70
     1
102
RTVSPropertyOp9
 70
     1
102
RTVSPropertyOp10
 70
     1
102
RTVSPropertyOp11
 70
     1
102
RTVSPropertyOp12
 70
     1
102
RTVSPropertyOp13
 70
     1
102
RTVSPropertyOp14
 70
     1
102
RTVSPropertyOp15
 70
     1
102
RTVSPropertyOp16
 70
     1
102
RTVSPropertyOp17
 70
     1
102
RTVSPropertyOp18
 70
     1
102
RTVSPropertyOp19
 70
     1
102
RTVSPropertyOp20
 70
     1
102
RTVSPropertyOp21
 70
     1
102
RTVSPropertyOp22
 70
     1
102
RTVSPropertyOp23
 70
     1
102
RTVSPropertyOp24
 70
     1
102
RTVSPropertyOp25
 70
     1
102
RTVSPropertyOp26
 70
     1
102
RTVSPropertyOp27
 70
     1
102
RTVSPropertyOp28
 70
     1
102
RTVSPropertyOp29
 70
     1
102
RTVSPropertyOp30
 70
     1
102
RTVSPropertyOp31
 70
     1
102
RTVSPropertyOp32
 70
     1
102
RTVSPropertyOp33
 70
     1
102
RTVSPropertyOp34
 70
     1
102
RTVSPropertyOp35
 70
     1
102
RTVSPropertyOp36
 70
     1
102
RTVSPropertyOp37
 70
     1
102
RTVSPropertyOp38
 70
     1
102
RTVSPropertyOp39
 70
     1
102
RTVSPropertyOp40
 70
     1
102
RTVSPropertyOp41
 70
     1
102
RTVSPropertyOp42
 70
     1
102
RTVSPropertyOp43
 70
     1
102
RTVSPropertyOp44
 70
     1
102
RTVSPropertyOp45
 70
     1
102
RTVSPropertyOp46
 70
     1
102
RTVSPropertyOp47
 70
     1
102
RTVSPropertyOp48
 70
     1
102
RTVSPropertyOp49
 70
     1
102
RTVSPropertyOp50
 70
     1
102
RTVSPropertyOp51
 70
     0
102
RTVSPropertyOp52
 70
     0
102
RTVSPropertyOp53
 70
     1
102
RTVSPropertyOp54
 70
     1
102
RTVSPropertyOp55
 70
     1
102
RTVSPropertyOp56
 70
     1
102
RTVSPropertyOp57
 70
     1
102
RTVSPost2010Prop28
280
     0
102
RTVSPost2010PropOp28
 70
     1
102
RTVSPost2010Prop29
280
     1
102
RTVSPost2010PropOp29
 70
     1
102
RTVSPost2010Prop30
280
     1
102
RTVSPost2010PropOp30
 70
     1
102
RTVSPost2010Prop31
280
     0
102
RTVSPost2010PropOp31
 70
     1
102
RTVSPost2010Prop32
280
     0
102
RTVSPost2010PropOp32
 70
     1
102
RTVSPost2010Prop33
280
     0
102
RTVSPost2010PropOp33
 70
     1
102
RTVSPost2010Prop34
280
     0
102
RTVSPost2010PropOp34
 70
     1
102
RTVSPost2010Prop35
280
     0
102
RTVSPost2010PropOp35
 70
     1
102
RTVSPost2010Prop36
280
     0
102
RTVSPost2010PropOp36
 70
     1
102
RTVSPost2010Prop37
 90
       50
102
RTVSPost2010PropOp37
 70
     1
102
RTVSPost2010Prop38
140
0.0
102
RTVSPost2010PropOp38
 70
     1
102
RTVSPost2010Prop39
140
1.0
102
RTVSPost2010PropOp39
 70
     1
102
RTVSPost2010Prop40
 90
        0
102
RTVSPost2010PropOp40
 70
     1
102
RTVSPost2010Prop41ColorIndex
 90
       18
102
RTVSPost2010Prop41ColorRGB
 90
        0
102
RTVSPost2010PropOp41
 70
     1
102
RTVSPost2010Prop42
 90
       50
102
RTVSPost2010PropOp42
 70
     1
102
RTVSPost2010Prop43
 90
        3
102
RTVSPost2010PropOp43
 70
     1
102
RTVSPost2010Prop44ColorIndex
 90
        5
102
RTVSPost2010Prop44ColorRGB
 90
      255
102
RTVSPost2010PropOp44
 70
     1
102
RTVSPost2010Prop45
280
     0
102
RTVSPost2010PropOp45
 70
     1
102
RTVSPost2010Prop46
 90
       50
102
RTVSPost2010PropOp46
 70
     1
102
RTVSPost2010Prop47
 90
       50
102
RTVSPost2010PropOp47
 70
     1
102
RTVSPost2010Prop48
 90
       50
102
RTVSPost2010PropOp48
 70
     1
102
RTVSPost2010Prop49
280
     0
102
RTVSPost2010PropOp49
 70
     1
102
RTVSPost2010Prop50
 90
       50
102
RTVSPost2010PropOp50
 70
     1
102
RTVSPost2010Prop51ColorIndex
 90
      256
102
RTVSPost2010Prop51ColorRGB
 90
-16777216
102
RTVSPost2010PropOp51
 70
     0
102
RTVSPost2010Prop52
140
1.0
102
RTVSPost2010PropOp52
 70
     0
102
RTVSPost2010Prop53
 90
        2
102
RTVSPost2010PropOp53
 70
     1
102
RTVSPost2010Prop54
  1
strokes_ogs.tif
102
RTVSPost2010PropOp54
 70
     1
102
RTVSPost2010Prop55
280
     0
102
RTVSPost2010PropOp55
 70
     1
102
RTVSPost2010Prop56
140
1.0
102
RTVSPost2010PropOp56
 70
     1
102
RTVSPost2010Prop57
140
1.0
102
RTVSPost2010PropOp57
 70
     1
  0
XRECORD
  5
3A4
102
{ACAD_REACTORS
330
3A3
102
}
330
3A3
100
AcDbXrecord
280
     1
102
RTVSPropertyOp0
 70
     1
102
RTVSPropertyOp1
 70
     1
102
RTVSPropertyOp2
 70
     1
102
RTVSPropertyOp3
 70
     1
102
RTVSPropertyOp4
 70
     1
102
RTVSPropertyOp5
 70
     1
102
RTVSPropertyOp6
 70
     1
102
RTVSPropertyOp7
 70
     1
102
RTVSPropertyOp8
 70
     1
102
RTVSPropertyOp9
 70
     1
102
RTVSPropertyOp10
 70
     1
102
RTVSPropertyOp11
 70
     1
102
RTVSPropertyOp12
 70
     1
102
RTVSPropertyOp13
 70
     1
102
RTVSPropertyOp14
 70
     1
102
RTVSPropertyOp15
 70
     1
102
RTVSPropertyOp16
 70
     1
102
RTVSPropertyOp17
 70
     1
102
RTVSPropertyOp18
 70
     1
102
RTVSPropertyOp19
 70
     1
102
RTVSPropertyOp20
 70
     1
102
RTVSPropertyOp21
 70
     1
102
RTVSPropertyOp22
 70
     1
102
RTVSPropertyOp23
 70
     1
102
RTVSPropertyOp24
 70
     1
102
RTVSPropertyOp25
 70
     1
102
RTVSPropertyOp26
 70
     1
102
RTVSPropertyOp27
 70
     1
102
RTVSPropertyOp28
 70
     1
102
RTVSPropertyOp29
 70
     1
102
RTVSPropertyOp30
 70
     1
102
RTVSPropertyOp31
 70
     1
102
RTVSPropertyOp32
 70
     1
102
RTVSPropertyOp33
 70
     1
102
RTVSPropertyOp34
 70
     1
102
RTVSPropertyOp35
 70
     1
102
RTVSPropertyOp36
 70
     1
102
RTVSPropertyOp37
 70
     1
102
RTVSPropertyOp38
 70
     1
102
RTVSPropertyOp39
 70
     1
102
RTVSPropertyOp40
 70
     1
102
RTVSPropertyOp41
 70
     1
102
RTVSPropertyOp42
 70
     1
102
RTVSPropertyOp43
 70
     1
102
RTVSPropertyOp44
 70
     1
102
RTVSPropertyOp45
 70
     1
102
RTVSPropertyOp46
 70
     1
102
RTVSPropertyOp47
 70
     1
102
RTVSPropertyOp48
 70
     1
102
RTVSPropertyOp49
 70
     1
102
RTVSPropertyOp50
 70
     1
102
RTVSPropertyOp51
 70
     0
102
RTVSPropertyOp52
 70
     0
102
RTVSPropertyOp53
 70
     1
102
RTVSPropertyOp54
 70
     1
102
RTVSPropertyOp55
 70
     1
102
RTVSPropertyOp56
 70
     1
102
RTVSPropertyOp57
 70
     1
102
RTVSPost2010Prop28
280
     0
102
RTVSPost2010PropOp28
 70
     1
102
RTVSPost2010Prop29
280
     1
102
RTVSPost2010PropOp29
 70
     1
102
RTVSPost2010Prop30
280
     1
102
RTVSPost2010PropOp30
 70
     1
102
RTVSPost2010Prop31
280
     0
102
RTVSPost2010PropOp31
 70
     1
102
RTVSPost2010Prop32
280
     0
102
RTVSPost2010PropOp32
 70
     1
102
RTVSPost2010Prop33
280
     0
102
RTVSPost2010PropOp33
 70
     1
102
RTVSPost2010Prop34
280
     0
102
RTVSPost2010PropOp34
 70
     1
102
RTVSPost2010Prop35
280
     0
102
RTVSPost2010PropOp35
 70
     1
102
RTVSPost2010Prop36
280
     0
102
RTVSPost2010PropOp36
 70
     1
102
RTVSPost2010Prop37
 90
       50
102
RTVSPost2010PropOp37
 70
     1
102
RTVSPost2010Prop38
140
0.0
102
RTVSPost2010PropOp38
 70
     1
102
RTVSPost2010Prop39
140
1.0
102
RTVSPost2010PropOp39
 70
     1
102
RTVSPost2010Prop40
 90
        0
102
RTVSPost2010PropOp40
 70
     1
102
RTVSPost2010Prop41ColorIndex
 90
       18
102
RTVSPost2010Prop41ColorRGB
 90
        0
102
RTVSPost2010PropOp41
 70
     1
102
RTVSPost2010Prop42
 90
       50
102
RTVSPost2010PropOp42
 70
     1
102
RTVSPost2010Prop43
 90
        3
102
RTVSPost2010PropOp43
 70
     1
102
RTVSPost2010Prop44ColorIndex
 90
        5
102
RTVSPost2010Prop44ColorRGB
 90
      255
102
RTVSPost2010PropOp44
 70
     1
102
RTVSPost2010Prop45
280
     0
102
RTVSPost2010PropOp45
 70
     1
102
RTVSPost2010Prop46
 90
       50
102
RTVSPost2010PropOp46
 70
     1
102
RTVSPost2010Prop47
 90
       50
102
RTVSPost2010PropOp47
 70
     1
102
RTVSPost2010Prop48
 90
       50
102
RTVSPost2010PropOp48
 70
     1
102
RTVSPost2010Prop49
280
     0
102
RTVSPost2010PropOp49
 70
     1
102
RTVSPost2010Prop50
 90
       50
102
RTVSPost2010PropOp50
 70
     1
102
RTVSPost2010Prop51ColorIndex
 90
      256
102
RTVSPost2010Prop51ColorRGB
 90
-16777216
102
RTVSPost2010PropOp51
 70
     0
102
RTVSPost2010Prop52
140
1.0
102
RTVSPost2010PropOp52
 70
     0
102
RTVSPost2010Prop53
 90
        2
102
RTVSPost2010PropOp53
 70
     1
102
RTVSPost2010Prop54
  1
strokes_ogs.tif
102
RTVSPost2010PropOp54
 70
     1
102
RTVSPost2010Prop55
280
     0
102
RTVSPost2010PropOp55
 70
     1
102
RTVSPost2010Prop56
140
1.0
102
RTVSPost2010PropOp56
 70
     1
102
RTVSPost2010Prop57
140
1.0
102
RTVSPost2010PropOp57
 70
     1
  0
XRECORD
  5
3A6
102
{ACAD_REACTORS
330
3A5
102
}
330
3A5
100
AcDbXrecord
280
     1
102
RTVSPropertyOp0
 70
     1
102
RTVSPropertyOp1
 70
     1
102
RTVSPropertyOp2
 70
     1
102
RTVSPropertyOp3
 70
     1
102
RTVSPropertyOp4
 70
     1
102
RTVSPropertyOp5
 70
     1
102
RTVSPropertyOp6
 70
     1
102
RTVSPropertyOp7
 70
     1
102
RTVSPropertyOp8
 70
     1
102
RTVSPropertyOp9
 70
     1
102
RTVSPropertyOp10
 70
     1
102
RTVSPropertyOp11
 70
     1
102
RTVSPropertyOp12
 70
     1
102
RTVSPropertyOp13
 70
     1
102
RTVSPropertyOp14
 70
     1
102
RTVSPropertyOp15
 70
     1
102
RTVSPropertyOp16
 70
     1
102
RTVSPropertyOp17
 70
     1
102
RTVSPropertyOp18
 70
     1
102
RTVSPropertyOp19
 70
     1
102
RTVSPropertyOp20
 70
     1
102
RTVSPropertyOp21
 70
     1
102
RTVSPropertyOp22
 70
     1
102
RTVSPropertyOp23
 70
     1
102
RTVSPropertyOp24
 70
     1
102
RTVSPropertyOp25
 70
     1
102
RTVSPropertyOp26
 70
     1
102
RTVSPropertyOp27
 70
     1
102
RTVSPropertyOp28
 70
     1
102
RTVSPropertyOp29
 70
     1
102
RTVSPropertyOp30
 70
     1
102
RTVSPropertyOp31
 70
     1
102
RTVSPropertyOp32
 70
     1
102
RTVSPropertyOp33
 70
     1
102
RTVSPropertyOp34
 70
     1
102
RTVSPropertyOp35
 70
     1
102
RTVSPropertyOp36
 70
     1
102
RTVSPropertyOp37
 70
     1
102
RTVSPropertyOp38
 70
     1
102
RTVSPropertyOp39
 70
     1
102
RTVSPropertyOp40
 70
     1
102
RTVSPropertyOp41
 70
     1
102
RTVSPropertyOp42
 70
     1
102
RTVSPropertyOp43
 70
     1
102
RTVSPropertyOp44
 70
     1
102
RTVSPropertyOp45
 70
     1
102
RTVSPropertyOp46
 70
     1
102
RTVSPropertyOp47
 70
     1
102
RTVSPropertyOp48
 70
     1
102
RTVSPropertyOp49
 70
     1
102
RTVSPropertyOp50
 70
     1
102
RTVSPropertyOp51
 70
     0
102
RTVSPropertyOp52
 70
     0
102
RTVSPropertyOp53
 70
     1
102
RTVSPropertyOp54
 70
     1
102
RTVSPropertyOp55
 70
     1
102
RTVSPropertyOp56
 70
     1
102
RTVSPropertyOp57
 70
     1
102
RTVSPost2010Prop28
280
     0
102
RTVSPost2010PropOp28
 70
     1
102
RTVSPost2010Prop29
280
     1
102
RTVSPost2010PropOp29
 70
     1
102
RTVSPost2010Prop30
280
     1
102
RTVSPost2010PropOp30
 70
     1
102
RTVSPost2010Prop31
280
     0
102
RTVSPost2010PropOp31
 70
     1
102
RTVSPost2010Prop32
280
     0
102
RTVSPost2010PropOp32
 70
     1
102
RTVSPost2010Prop33
280
     0
102
RTVSPost2010PropOp33
 70
     1
102
RTVSPost2010Prop34
280
     0
102
RTVSPost2010PropOp34
 70
     1
102
RTVSPost2010Prop35
280
     0
102
RTVSPost2010PropOp35
 70
     1
102
RTVSPost2010Prop36
280
     0
102
RTVSPost2010PropOp36
 70
     1
102
RTVSPost2010Prop37
 90
       50
102
RTVSPost2010PropOp37
 70
     1
102
RTVSPost2010Prop38
140
0.0
102
RTVSPost2010PropOp38
 70
     1
102
RTVSPost2010Prop39
140
1.0
102
RTVSPost2010PropOp39
 70
     1
102
RTVSPost2010Prop40
 90
        0
102
RTVSPost2010PropOp40
 70
     1
102
RTVSPost2010Prop41ColorIndex
 90
       18
102
RTVSPost2010Prop41ColorRGB
 90
        0
102
RTVSPost2010PropOp41
 70
     1
102
RTVSPost2010Prop42
 90
       50
102
RTVSPost2010PropOp42
 70
     1
102
RTVSPost2010Prop43
 90
        3
102
RTVSPost2010PropOp43
 70
     1
102
RTVSPost2010Prop44ColorIndex
 90
        5
102
RTVSPost2010Prop44ColorRGB
 90
      255
102
RTVSPost2010PropOp44
 70
     1
102
RTVSPost2010Prop45
280
     0
102
RTVSPost2010PropOp45
 70
     1
102
RTVSPost2010Prop46
 90
       50
102
RTVSPost2010PropOp46
 70
     1
102
RTVSPost2010Prop47
 90
       50
102
RTVSPost2010PropOp47
 70
     1
102
RTVSPost2010Prop48
 90
       50
102
RTVSPost2010PropOp48
 70
     1
102
RTVSPost2010Prop49
280
     0
102
RTVSPost2010PropOp49
 70
     1
102
RTVSPost2010Prop50
 90
       50
102
RTVSPost2010PropOp50
 70
     1
102
RTVSPost2010Prop51ColorIndex
 90
      256
102
RTVSPost2010Prop51ColorRGB
 90
-16777216
102
RTVSPost2010PropOp51
 70
     0
102
RTVSPost2010Prop52
140
1.0
102
RTVSPost2010PropOp52
 70
     0
102
RTVSPost2010Prop53
 90
        2
102
RTVSPost2010PropOp53
 70
     1
102
RTVSPost2010Prop54
  1
strokes_ogs.tif
102
RTVSPost2010PropOp54
 70
     1
102
RTVSPost2010Prop55
280
     0
102
RTVSPost2010PropOp55
 70
     1
102
RTVSPost2010Prop56
140
1.0
102
RTVSPost2010PropOp56
 70
     1
102
RTVSPost2010Prop57
140
1.0
102
RTVSPost2010PropOp57
 70
     1
  0
XRECORD
  5
3A8
102
{ACAD_REACTORS
330
3A7
102
}
330
3A7
100
AcDbXrecord
280
     1
102
RTVSPropertyOp0
 70
     1
102
RTVSPropertyOp1
 70
     1
102
RTVSPropertyOp2
 70
     1
102
RTVSPropertyOp3
 70
     1
102
RTVSPropertyOp4
 70
     1
102
RTVSPropertyOp5
 70
     1
102
RTVSPropertyOp6
 70
     1
102
RTVSPropertyOp7
 70
     1
102
RTVSPropertyOp8
 70
     1
102
RTVSPropertyOp9
 70
     1
102
RTVSPropertyOp10
 70
     1
102
RTVSPropertyOp11
 70
     1
102
RTVSPropertyOp12
 70
     1
102
RTVSPropertyOp13
 70
     1
102
RTVSPropertyOp14
 70
     1
102
RTVSPropertyOp15
 70
     1
102
RTVSPropertyOp16
 70
     1
102
RTVSPropertyOp17
 70
     1
102
RTVSPropertyOp18
 70
     1
102
RTVSPropertyOp19
 70
     1
102
RTVSPropertyOp20
 70
     1
102
RTVSPropertyOp21
 70
     1
102
RTVSPropertyOp22
 70
     1
102
RTVSPropertyOp23
 70
     1
102
RTVSPropertyOp24
 70
     1
102
RTVSPropertyOp25
 70
     1
102
RTVSPropertyOp26
 70
     1
102
RTVSPropertyOp27
 70
     1
102
RTVSPropertyOp28
 70
     1
102
RTVSPropertyOp29
 70
     1
102
RTVSPropertyOp30
 70
     1
102
RTVSPropertyOp31
 70
     1
102
RTVSPropertyOp32
 70
     1
102
RTVSPropertyOp33
 70
     1
102
RTVSPropertyOp34
 70
     1
102
RTVSPropertyOp35
 70
     1
102
RTVSPropertyOp36
 70
     1
102
RTVSPropertyOp37
 70
     1
102
RTVSPropertyOp38
 70
     1
102
RTVSPropertyOp39
 70
     1
102
RTVSPropertyOp40
 70
     1
102
RTVSPropertyOp41
 70
     1
102
RTVSPropertyOp42
 70
     1
102
RTVSPropertyOp43
 70
     1
102
RTVSPropertyOp44
 70
     1
102
RTVSPropertyOp45
 70
     1
102
RTVSPropertyOp46
 70
     1
102
RTVSPropertyOp47
 70
     1
102
RTVSPropertyOp48
 70
     1
102
RTVSPropertyOp49
 70
     1
102
RTVSPropertyOp50
 70
     1
102
RTVSPropertyOp51
 70
     0
102
RTVSPropertyOp52
 70
     0
102
RTVSPropertyOp53
 70
     1
102
RTVSPropertyOp54
 70
     1
102
RTVSPropertyOp55
 70
     1
102
RTVSPropertyOp56
 70
     1
102
RTVSPropertyOp57
 70
     1
102
RTVSPost2010Prop28
280
     0
102
RTVSPost2010PropOp28
 70
     1
102
RTVSPost2010Prop29
280
     1
102
RTVSPost2010PropOp29
 70
     1
102
RTVSPost2010Prop30
280
     1
102
RTVSPost2010PropOp30
 70
     1
102
RTVSPost2010Prop31
280
     0
102
RTVSPost2010PropOp31
 70
     1
102
RTVSPost2010Prop32
280
     0
102
RTVSPost2010PropOp32
 70
     1
102
RTVSPost2010Prop33
280
     0
102
RTVSPost2010PropOp33
 70
     1
102
RTVSPost2010Prop34
280
     0
102
RTVSPost2010PropOp34
 70
     1
102
RTVSPost2010Prop35
280
     0
102
RTVSPost2010PropOp35
 70
     1
102
RTVSPost2010Prop36
280
     0
102
RTVSPost2010PropOp36
 70
     1
102
RTVSPost2010Prop37
 90
       50
102
RTVSPost2010PropOp37
 70
     1
102
RTVSPost2010Prop38
140
0.0
102
RTVSPost2010PropOp38
 70
     1
102
RTVSPost2010Prop39
140
1.0
102
RTVSPost2010PropOp39
 70
     1
102
RTVSPost2010Prop40
 90
        0
102
RTVSPost2010PropOp40
 70
     1
102
RTVSPost2010Prop41ColorIndex
 90
       18
102
RTVSPost2010Prop41ColorRGB
 90
        0
102
RTVSPost2010PropOp41
 70
     1
102
RTVSPost2010Prop42
 90
       50
102
RTVSPost2010PropOp42
 70
     1
102
RTVSPost2010Prop43
 90
        3
102
RTVSPost2010PropOp43
 70
     1
102
RTVSPost2010Prop44ColorIndex
 90
        5
102
RTVSPost2010Prop44ColorRGB
 90
      255
102
RTVSPost2010PropOp44
 70
     1
102
RTVSPost2010Prop45
280
     0
102
RTVSPost2010PropOp45
 70
     1
102
RTVSPost2010Prop46
 90
       50
102
RTVSPost2010PropOp46
 70
     1
102
RTVSPost2010Prop47
 90
       50
102
RTVSPost2010PropOp47
 70
     1
102
RTVSPost2010Prop48
 90
       50
102
RTVSPost2010PropOp48
 70
     1
102
RTVSPost2010Prop49
280
     0
102
RTVSPost2010PropOp49
 70
     1
102
RTVSPost2010Prop50
 90
       50
102
RTVSPost2010PropOp50
 70
     1
102
RTVSPost2010Prop51ColorIndex
 90
      256
102
RTVSPost2010Prop51ColorRGB
 90
-16777216
102
RTVSPost2010PropOp51
 70
     0
102
RTVSPost2010Prop52
140
1.0
102
RTVSPost2010PropOp52
 70
     0
102
RTVSPost2010Prop53
 90
        2
102
RTVSPost2010PropOp53
 70
     1
102
RTVSPost2010Prop54
  1
strokes_ogs.tif
102
RTVSPost2010PropOp54
 70
     1
102
RTVSPost2010Prop55
280
     0
102
RTVSPost2010PropOp55
 70
     1
102
RTVSPost2010Prop56
140
1.0
102
RTVSPost2010PropOp56
 70
     1
102
RTVSPost2010Prop57
140
1.0
102
RTVSPost2010PropOp57
 70
     1
  0
XRECORD
  5
3AE
102
{ACAD_REACTORS
330
3AD
102
}
330
3AD
100
AcDbXrecord
280
     1
102
RTVSPropertyOp0
 70
     1
102
RTVSPropertyOp1
 70
     1
102
RTVSPropertyOp2
 70
     1
102
RTVSPropertyOp3
 70
     1
102
RTVSPropertyOp4
 70
     1
102
RTVSPropertyOp5
 70
     1
102
RTVSPropertyOp6
 70
     1
102
RTVSPropertyOp7
 70
     1
102
RTVSPropertyOp8
 70
     1
102
RTVSPropertyOp9
 70
     1
102
RTVSPropertyOp10
 70
     1
102
RTVSPropertyOp11
 70
     1
102
RTVSPropertyOp12
 70
     1
102
RTVSPropertyOp13
 70
     1
102
RTVSPropertyOp14
 70
     1
102
RTVSPropertyOp15
 70
     1
102
RTVSPropertyOp16
 70
     1
102
RTVSPropertyOp17
 70
     1
102
RTVSPropertyOp18
 70
     1
102
RTVSPropertyOp19
 70
     1
102
RTVSPropertyOp20
 70
     1
102
RTVSPropertyOp21
 70
     1
102
RTVSPropertyOp22
 70
     1
102
RTVSPropertyOp23
 70
     1
102
RTVSPropertyOp24
 70
     1
102
RTVSPropertyOp25
 70
     1
102
RTVSPropertyOp26
 70
     1
102
RTVSPropertyOp27
 70
     1
102
RTVSPropertyOp28
 70
     1
102
RTVSPropertyOp29
 70
     1
102
RTVSPropertyOp30
 70
     1
102
RTVSPropertyOp31
 70
     1
102
RTVSPropertyOp32
 70
     1
102
RTVSPropertyOp33
 70
     1
102
RTVSPropertyOp34
 70
     1
102
RTVSPropertyOp35
 70
     1
102
RTVSPropertyOp36
 70
     1
102
RTVSPropertyOp37
 70
     1
102
RTVSPropertyOp38
 70
     1
102
RTVSPropertyOp39
 70
     1
102
RTVSPropertyOp40
 70
     1
102
RTVSPropertyOp41
 70
     1
102
RTVSPropertyOp42
 70
     1
102
RTVSPropertyOp43
 70
     1
102
RTVSPropertyOp44
 70
     1
102
RTVSPropertyOp45
 70
     1
102
RTVSPropertyOp46
 70
     1
102
RTVSPropertyOp47
 70
     1
102
RTVSPropertyOp48
 70
     1
102
RTVSPropertyOp49
 70
     1
102
RTVSPropertyOp50
 70
     1
102
RTVSPropertyOp51
 70
     0
102
RTVSPropertyOp52
 70
     0
102
RTVSPropertyOp53
 70
     1
102
RTVSPropertyOp54
 70
     1
102
RTVSPropertyOp55
 70
     1
102
RTVSPropertyOp56
 70
     1
102
RTVSPropertyOp57
 70
     1
102
RTVSPost2010Prop28
280
     0
102
RTVSPost2010PropOp28
 70
     1
102
RTVSPost2010Prop29
280
     1
102
RTVSPost2010PropOp29
 70
     1
102
RTVSPost2010Prop30
280
     1
102
RTVSPost2010PropOp30
 70
     1
102
RTVSPost2010Prop31
280
     0
102
RTVSPost2010PropOp31
 70
     1
102
RTVSPost2010Prop32
280
     0
102
RTVSPost2010PropOp32
 70
     1
102
RTVSPost2010Prop33
280
     0
102
RTVSPost2010PropOp33
 70
     1
102
RTVSPost2010Prop34
280
     0
102
RTVSPost2010PropOp34
 70
     1
102
RTVSPost2010Prop35
280
     0
102
RTVSPost2010PropOp35
 70
     1
102
RTVSPost2010Prop36
280
     0
102
RTVSPost2010PropOp36
 70
     1
102
RTVSPost2010Prop37
 90
       50
102
RTVSPost2010PropOp37
 70
     1
102
RTVSPost2010Prop38
140
0.0
102
RTVSPost2010PropOp38
 70
     1
102
RTVSPost2010Prop39
140
1.0
102
RTVSPost2010PropOp39
 70
     1
102
RTVSPost2010Prop40
 90
        0
102
RTVSPost2010PropOp40
 70
     1
102
RTVSPost2010Prop41ColorIndex
 90
       18
102
RTVSPost2010Prop41ColorRGB
 90
        0
102
RTVSPost2010PropOp41
 70
     1
102
RTVSPost2010Prop42
 90
       50
102
RTVSPost2010PropOp42
 70
     1
102
RTVSPost2010Prop43
 90
        3
102
RTVSPost2010PropOp43
 70
     1
102
RTVSPost2010Prop44ColorIndex
 90
        5
102
RTVSPost2010Prop44ColorRGB
 90
      255
102
RTVSPost2010PropOp44
 70
     1
102
RTVSPost2010Prop45
280
     0
102
RTVSPost2010PropOp45
 70
     1
102
RTVSPost2010Prop46
 90
       50
102
RTVSPost2010PropOp46
 70
     1
102
RTVSPost2010Prop47
 90
       50
102
RTVSPost2010PropOp47
 70
     1
102
RTVSPost2010Prop48
 90
       50
102
RTVSPost2010PropOp48
 70
     1
102
RTVSPost2010Prop49
280
     0
102
RTVSPost2010PropOp49
 70
     1
102
RTVSPost2010Prop50
 90
       50
102
RTVSPost2010PropOp50
 70
     1
102
RTVSPost2010Prop51ColorIndex
 90
      256
102
RTVSPost2010Prop51ColorRGB
 90
-16777216
102
RTVSPost2010PropOp51
 70
     0
102
RTVSPost2010Prop52
140
1.0
102
RTVSPost2010PropOp52
 70
     0
102
RTVSPost2010Prop53
 90
        2
102
RTVSPost2010PropOp53
 70
     1
102
RTVSPost2010Prop54
  1
strokes_ogs.tif
102
RTVSPost2010PropOp54
 70
     1
102
RTVSPost2010Prop55
280
     0
102
RTVSPost2010PropOp55
 70
     1
102
RTVSPost2010Prop56
140
1.0
102
RTVSPost2010PropOp56
 70
     1
102
RTVSPost2010Prop57
140
1.0
102
RTVSPost2010PropOp57
 70
     1
  0
XRECORD
  5
3C2
102
{ACAD_REACTORS
330
3C1
102
}
330
3C1
100
AcDbXrecord
280
     1
102
RTVSPropertyOp0
 70
     0
102
RTVSPropertyOp1
 70
     0
102
RTVSPropertyOp2
 70
     0
102
RTVSPropertyOp3
 70
     0
102
RTVSPropertyOp4
 70
     0
102
RTVSPropertyOp5
 70
     0
102
RTVSPropertyOp6
 70
     0
102
RTVSPropertyOp7
 70
     0
102
RTVSPropertyOp8
 70
     0
102
RTVSPropertyOp9
 70
     0
102
RTVSPropertyOp10
 70
     0
102
RTVSPropertyOp11
 70
     0
102
RTVSPropertyOp12
 70
     0
102
RTVSPropertyOp13
 70
     0
102
RTVSPropertyOp14
 70
     2
102
RTVSPropertyOp15
 70
     0
102
RTVSPropertyOp16
 70
     0
102
RTVSPropertyOp17
 70
     0
102
RTVSPropertyOp18
 70
     0
102
RTVSPropertyOp19
 70
     0
102
RTVSPropertyOp20
 70
     0
102
RTVSPropertyOp21
 70
     0
102
RTVSPropertyOp22
 70
     0
102
RTVSPropertyOp23
 70
     0
102
RTVSPropertyOp24
 70
     0
102
RTVSPropertyOp25
 70
     0
102
RTVSPropertyOp26
 70
     0
102
RTVSPropertyOp27
 70
     0
102
RTVSPropertyOp28
 70
     0
102
RTVSPropertyOp29
 70
     0
102
RTVSPropertyOp30
 70
     0
102
RTVSPropertyOp31
 70
     0
102
RTVSPropertyOp32
 70
     0
102
RTVSPropertyOp33
 70
     0
102
RTVSPropertyOp34
 70
     0
102
RTVSPropertyOp35
 70
     0
102
RTVSPropertyOp36
 70
     0
102
RTVSPropertyOp37
 70
     0
102
RTVSPropertyOp38
 70
     0
102
RTVSPropertyOp39
 70
     0
102
RTVSPropertyOp40
 70
     0
102
RTVSPropertyOp41
 70
     0
102
RTVSPropertyOp42
 70
     0
102
RTVSPropertyOp43
 70
     0
102
RTVSPropertyOp44
 70
     0
102
RTVSPropertyOp45
 70
     0
102
RTVSPropertyOp46
 70
     0
102
RTVSPropertyOp47
 70
     0
102
RTVSPropertyOp48
 70
     0
102
RTVSPropertyOp49
 70
     0
102
RTVSPropertyOp50
 70
     0
102
RTVSPropertyOp51
 70
     0
102
RTVSPropertyOp52
 70
     0
102
RTVSPropertyOp53
 70
     0
102
RTVSPropertyOp54
 70
     0
102
RTVSPropertyOp55
 70
     0
102
RTVSPropertyOp56
 70
     0
102
RTVSPropertyOp57
 70
     0
102
RTVSPost2010Prop28
280
     0
102
RTVSPost2010PropOp28
 70
     0
102
RTVSPost2010Prop29
280
     1
102
RTVSPost2010PropOp29
 70
     0
102
RTVSPost2010Prop30
280
     1
102
RTVSPost2010PropOp30
 70
     0
102
RTVSPost2010Prop31
280
     0
102
RTVSPost2010PropOp31
 70
     0
102
RTVSPost2010Prop32
280
     0
102
RTVSPost2010PropOp32
 70
     0
102
RTVSPost2010Prop33
280
     0
102
RTVSPost2010PropOp33
 70
     0
102
RTVSPost2010Prop34
280
     0
102
RTVSPost2010PropOp34
 70
     0
102
RTVSPost2010Prop35
280
     0
102
RTVSPost2010PropOp35
 70
     0
102
RTVSPost2010Prop36
280
     0
102
RTVSPost2010PropOp36
 70
     0
102
RTVSPost2010Prop37
 90
       50
102
RTVSPost2010PropOp37
 70
     0
102
RTVSPost2010Prop38
140
0.0
102
RTVSPost2010PropOp38
 70
     0
102
RTVSPost2010Prop39
140
1.0
102
RTVSPost2010PropOp39
 70
     0
102
RTVSPost2010Prop40
 90
        0
102
RTVSPost2010PropOp40
 70
     0
102
RTVSPost2010Prop41ColorIndex
 90
       18
102
RTVSPost2010Prop41ColorRGB
 90
        0
102
RTVSPost2010PropOp41
 70
     0
102
RTVSPost2010Prop42
 90
       50
102
RTVSPost2010PropOp42
 70
     0
102
RTVSPost2010Prop43
 90
        3
102
RTVSPost2010PropOp43
 70
     0
102
RTVSPost2010Prop44ColorIndex
 90
        5
102
RTVSPost2010Prop44ColorRGB
 90
      255
102
RTVSPost2010PropOp44
 70
     0
102
RTVSPost2010Prop45
280
     0
102
RTVSPost2010PropOp45
 70
     0
102
RTVSPost2010Prop46
 90
       50
102
RTVSPost2010PropOp46
 70
     0
102
RTVSPost2010Prop47
 90
       50
102
RTVSPost2010PropOp47
 70
     0
102
RTVSPost2010Prop48
 90
       50
102
RTVSPost2010PropOp48
 70
     0
102
RTVSPost2010Prop49
280
     0
102
RTVSPost2010PropOp49
 70
     0
102
RTVSPost2010Prop50
 90
       50
102
RTVSPost2010PropOp50
 70
     0
102
RTVSPost2010Prop51ColorIndex
 90
      256
102
RTVSPost2010Prop51ColorRGB
 90
-16777216
102
RTVSPost2010PropOp51
 70
     0
102
RTVSPost2010Prop52
140
1.0
102
RTVSPost2010PropOp52
 70
     0
102
RTVSPost2010Prop53
 90
        2
102
RTVSPost2010PropOp53
 70
     0
102
RTVSPost2010Prop54
  1
strokes_ogs.tif
102
RTVSPost2010PropOp54
 70
     0
102
RTVSPost2010Prop55
280
     0
102
RTVSPost2010PropOp55
 70
     0
102
RTVSPost2010Prop56
140
1.0
102
RTVSPost2010PropOp56
 70
     0
102
RTVSPost2010Prop57
140
1.0
102
RTVSPost2010PropOp57
 70
     0
  0
XRECORD
  5
3BC
102
{ACAD_REACTORS
330
3BB
102
}
330
3BB
100
AcDbXrecord
280
     1
102
RTVSPropertyOp0
 70
     1
102
RTVSPropertyOp1
 70
     1
102
RTVSPropertyOp2
 70
     1
102
RTVSPropertyOp3
 70
     1
102
RTVSPropertyOp4
 70
     1
102
RTVSPropertyOp5
 70
     1
102
RTVSPropertyOp6
 70
     1
102
RTVSPropertyOp7
 70
     1
102
RTVSPropertyOp8
 70
     1
102
RTVSPropertyOp9
 70
     1
102
RTVSPropertyOp10
 70
     1
102
RTVSPropertyOp11
 70
     1
102
RTVSPropertyOp12
 70
     1
102
RTVSPropertyOp13
 70
     1
102
RTVSPropertyOp14
 70
     1
102
RTVSPropertyOp15
 70
     1
102
RTVSPropertyOp16
 70
     1
102
RTVSPropertyOp17
 70
     1
102
RTVSPropertyOp18
 70
     1
102
RTVSPropertyOp19
 70
     1
102
RTVSPropertyOp20
 70
     1
102
RTVSPropertyOp21
 70
     1
102
RTVSPropertyOp22
 70
     1
102
RTVSPropertyOp23
 70
     1
102
RTVSPropertyOp24
 70
     1
102
RTVSPropertyOp25
 70
     1
102
RTVSPropertyOp26
 70
     1
102
RTVSPropertyOp27
 70
     1
102
RTVSPropertyOp28
 70
     1
102
RTVSPropertyOp29
 70
     1
102
RTVSPropertyOp30
 70
     1
102
RTVSPropertyOp31
 70
     1
102
RTVSPropertyOp32
 70
     1
102
RTVSPropertyOp33
 70
     1
102
RTVSPropertyOp34
 70
     1
102
RTVSPropertyOp35
 70
     1
102
RTVSPropertyOp36
 70
     1
102
RTVSPropertyOp37
 70
     1
102
RTVSPropertyOp38
 70
     1
102
RTVSPropertyOp39
 70
     1
102
RTVSPropertyOp40
 70
     1
102
RTVSPropertyOp41
 70
     1
102
RTVSPropertyOp42
 70
     1
102
RTVSPropertyOp43
 70
     1
102
RTVSPropertyOp44
 70
     1
102
RTVSPropertyOp45
 70
     1
102
RTVSPropertyOp46
 70
     1
102
RTVSPropertyOp47
 70
     1
102
RTVSPropertyOp48
 70
     1
102
RTVSPropertyOp49
 70
     1
102
RTVSPropertyOp50
 70
     1
102
RTVSPropertyOp51
 70
     0
102
RTVSPropertyOp52
 70
     0
102
RTVSPropertyOp53
 70
     1
102
RTVSPropertyOp54
 70
     1
102
RTVSPropertyOp55
 70
     1
102
RTVSPropertyOp56
 70
     1
102
RTVSPropertyOp57
 70
     1
102
RTVSPost2010Prop28
280
     0
102
RTVSPost2010PropOp28
 70
     1
102
RTVSPost2010Prop29
280
     1
102
RTVSPost2010PropOp29
 70
     1
102
RTVSPost2010Prop30
280
     1
102
RTVSPost2010PropOp30
 70
     1
102
RTVSPost2010Prop31
280
     0
102
RTVSPost2010PropOp31
 70
     1
102
RTVSPost2010Prop32
280
     0
102
RTVSPost2010PropOp32
 70
     1
102
RTVSPost2010Prop33
280
     0
102
RTVSPost2010PropOp33
 70
     1
102
RTVSPost2010Prop34
280
     0
102
RTVSPost2010PropOp34
 70
     1
102
RTVSPost2010Prop35
280
     0
102
RTVSPost2010PropOp35
 70
     1
102
RTVSPost2010Prop36
280
     0
102
RTVSPost2010PropOp36
 70
     1
102
RTVSPost2010Prop37
 90
       50
102
RTVSPost2010PropOp37
 70
     1
102
RTVSPost2010Prop38
140
0.0
102
RTVSPost2010PropOp38
 70
     1
102
RTVSPost2010Prop39
140
1.0
102
RTVSPost2010PropOp39
 70
     1
102
RTVSPost2010Prop40
 90
        0
102
RTVSPost2010PropOp40
 70
     1
102
RTVSPost2010Prop41ColorIndex
 90
       18
102
RTVSPost2010Prop41ColorRGB
 90
        0
102
RTVSPost2010PropOp41
 70
     1
102
RTVSPost2010Prop42
 90
       50
102
RTVSPost2010PropOp42
 70
     1
102
RTVSPost2010Prop43
 90
        3
102
RTVSPost2010PropOp43
 70
     1
102
RTVSPost2010Prop44ColorIndex
 90
        5
102
RTVSPost2010Prop44ColorRGB
 90
      255
102
RTVSPost2010PropOp44
 70
     1
102
RTVSPost2010Prop45
280
     0
102
RTVSPost2010PropOp45
 70
     1
102
RTVSPost2010Prop46
 90
       50
102
RTVSPost2010PropOp46
 70
     1
102
RTVSPost2010Prop47
 90
       50
102
RTVSPost2010PropOp47
 70
     1
102
RTVSPost2010Prop48
 90
       50
102
RTVSPost2010PropOp48
 70
     1
102
RTVSPost2010Prop49
280
     0
102
RTVSPost2010PropOp49
 70
     1
102
RTVSPost2010Prop50
 90
       50
102
RTVSPost2010PropOp50
 70
     1
102
RTVSPost2010Prop51ColorIndex
 90
      256
102
RTVSPost2010Prop51ColorRGB
 90
-16777216
102
RTVSPost2010PropOp51
 70
     0
102
RTVSPost2010Prop52
140
1.0
102
RTVSPost2010PropOp52
 70
     0
102
RTVSPost2010Prop53
 90
        2
102
RTVSPost2010PropOp53
 70
     1
102
RTVSPost2010Prop54
  1
strokes_ogs.tif
102
RTVSPost2010PropOp54
 70
     1
102
RTVSPost2010Prop55
280
     0
102
RTVSPost2010PropOp55
 70
     1
102
RTVSPost2010Prop56
140
1.0
102
RTVSPost2010PropOp56
 70
     1
102
RTVSPost2010Prop57
140
1.0
102
RTVSPost2010PropOp57
 70
     1
  0
XRECORD
  5
3C4
102
{ACAD_REACTORS
330
3C3
102
}
330
3C3
100
AcDbXrecord
280
     1
102
RTVSPropertyOp0
 70
     0
102
RTVSPropertyOp1
 70
     0
102
RTVSPropertyOp2
 70
     0
102
RTVSPropertyOp3
 70
     0
102
RTVSPropertyOp4
 70
     0
102
RTVSPropertyOp5
 70
     0
102
RTVSPropertyOp6
 70
     0
102
RTVSPropertyOp7
 70
     0
102
RTVSPropertyOp8
 70
     0
102
RTVSPropertyOp9
 70
     0
102
RTVSPropertyOp10
 70
     0
102
RTVSPropertyOp11
 70
     0
102
RTVSPropertyOp12
 70
     0
102
RTVSPropertyOp13
 70
     0
102
RTVSPropertyOp14
 70
     2
102
RTVSPropertyOp15
 70
     0
102
RTVSPropertyOp16
 70
     0
102
RTVSPropertyOp17
 70
     0
102
RTVSPropertyOp18
 70
     0
102
RTVSPropertyOp19
 70
     0
102
RTVSPropertyOp20
 70
     0
102
RTVSPropertyOp21
 70
     0
102
RTVSPropertyOp22
 70
     0
102
RTVSPropertyOp23
 70
     0
102
RTVSPropertyOp24
 70
     0
102
RTVSPropertyOp25
 70
     0
102
RTVSPropertyOp26
 70
     0
102
RTVSPropertyOp27
 70
     0
102
RTVSPropertyOp28
 70
     0
102
RTVSPropertyOp29
 70
     0
102
RTVSPropertyOp30
 70
     0
102
RTVSPropertyOp31
 70
     0
102
RTVSPropertyOp32
 70
     0
102
RTVSPropertyOp33
 70
     0
102
RTVSPropertyOp34
 70
     0
102
RTVSPropertyOp35
 70
     0
102
RTVSPropertyOp36
 70
     0
102
RTVSPropertyOp37
 70
     0
102
RTVSPropertyOp38
 70
     0
102
RTVSPropertyOp39
 70
     0
102
RTVSPropertyOp40
 70
     0
102
RTVSPropertyOp41
 70
     0
102
RTVSPropertyOp42
 70
     0
102
RTVSPropertyOp43
 70
     0
102
RTVSPropertyOp44
 70
     0
102
RTVSPropertyOp45
 70
     0
102
RTVSPropertyOp46
 70
     0
102
RTVSPropertyOp47
 70
     0
102
RTVSPropertyOp48
 70
     0
102
RTVSPropertyOp49
 70
     0
102
RTVSPropertyOp50
 70
     0
102
RTVSPropertyOp51
 70
     0
102
RTVSPropertyOp52
 70
     0
102
RTVSPropertyOp53
 70
     0
102
RTVSPropertyOp54
 70
     0
102
RTVSPropertyOp55
 70
     0
102
RTVSPropertyOp56
 70
     0
102
RTVSPropertyOp57
 70
     0
102
RTVSPost2010Prop28
280
     0
102
RTVSPost2010PropOp28
 70
     0
102
RTVSPost2010Prop29
280
     1
102
RTVSPost2010PropOp29
 70
     0
102
RTVSPost2010Prop30
280
     1
102
RTVSPost2010PropOp30
 70
     0
102
RTVSPost2010Prop31
280
     0
102
RTVSPost2010PropOp31
 70
     0
102
RTVSPost2010Prop32
280
     0
102
RTVSPost2010PropOp32
 70
     0
102
RTVSPost2010Prop33
280
     0
102
RTVSPost2010PropOp33
 70
     0
102
RTVSPost2010Prop34
280
     0
102
RTVSPost2010PropOp34
 70
     0
102
RTVSPost2010Prop35
280
     0
102
RTVSPost2010PropOp35
 70
     0
102
RTVSPost2010Prop36
280
     0
102
RTVSPost2010PropOp36
 70
     0
102
RTVSPost2010Prop37
 90
       50
102
RTVSPost2010PropOp37
 70
     0
102
RTVSPost2010Prop38
140
0.0
102
RTVSPost2010PropOp38
 70
     0
102
RTVSPost2010Prop39
140
1.0
102
RTVSPost2010PropOp39
 70
     0
102
RTVSPost2010Prop40
 90
        0
102
RTVSPost2010PropOp40
 70
     0
102
RTVSPost2010Prop41ColorIndex
 90
       18
102
RTVSPost2010Prop41ColorRGB
 90
        0
102
RTVSPost2010PropOp41
 70
     0
102
RTVSPost2010Prop42
 90
       50
102
RTVSPost2010PropOp42
 70
     0
102
RTVSPost2010Prop43
 90
        3
102
RTVSPost2010PropOp43
 70
     0
102
RTVSPost2010Prop44ColorIndex
 90
        5
102
RTVSPost2010Prop44ColorRGB
 90
      255
102
RTVSPost2010PropOp44
 70
     0
102
RTVSPost2010Prop45
280
     0
102
RTVSPost2010PropOp45
 70
     0
102
RTVSPost2010Prop46
 90
       50
102
RTVSPost2010PropOp46
 70
     0
102
RTVSPost2010Prop47
 90
       50
102
RTVSPost2010PropOp47
 70
     0
102
RTVSPost2010Prop48
 90
       50
102
RTVSPost2010PropOp48
 70
     0
102
RTVSPost2010Prop49
280
     0
102
RTVSPost2010PropOp49
 70
     0
102
RTVSPost2010Prop50
 90
       50
102
RTVSPost2010PropOp50
 70
     0
102
RTVSPost2010Prop51ColorIndex
 90
      256
102
RTVSPost2010Prop51ColorRGB
 90
-16777216
102
RTVSPost2010PropOp51
 70
     0
102
RTVSPost2010Prop52
140
1.0
102
RTVSPost2010PropOp52
 70
     0
102
RTVSPost2010Prop53
 90
        2
102
RTVSPost2010PropOp53
 70
     0
102
RTVSPost2010Prop54
  1
strokes_ogs.tif
102
RTVSPost2010PropOp54
 70
     0
102
RTVSPost2010Prop55
280
     0
102
RTVSPost2010PropOp55
 70
     0
102
RTVSPost2010Prop56
140
1.0
102
RTVSPost2010PropOp56
 70
     0
102
RTVSPost2010Prop57
140
1.0
102
RTVSPost2010PropOp57
 70
     0
  0
XRECORD
  5
3B2
102
{ACAD_REACTORS
330
3B1
102
}
330
3B1
100
AcDbXrecord
280
     1
102
RTVSPropertyOp0
 70
     1
102
RTVSPropertyOp1
 70
     1
102
RTVSPropertyOp2
 70
     1
102
RTVSPropertyOp3
 70
     1
102
RTVSPropertyOp4
 70
     1
102
RTVSPropertyOp5
 70
     1
102
RTVSPropertyOp6
 70
     1
102
RTVSPropertyOp7
 70
     1
102
RTVSPropertyOp8
 70
     1
102
RTVSPropertyOp9
 70
     1
102
RTVSPropertyOp10
 70
     1
102
RTVSPropertyOp11
 70
     1
102
RTVSPropertyOp12
 70
     1
102
RTVSPropertyOp13
 70
     1
102
RTVSPropertyOp14
 70
     1
102
RTVSPropertyOp15
 70
     1
102
RTVSPropertyOp16
 70
     1
102
RTVSPropertyOp17
 70
     1
102
RTVSPropertyOp18
 70
     1
102
RTVSPropertyOp19
 70
     1
102
RTVSPropertyOp20
 70
     1
102
RTVSPropertyOp21
 70
     1
102
RTVSPropertyOp22
 70
     1
102
RTVSPropertyOp23
 70
     1
102
RTVSPropertyOp24
 70
     1
102
RTVSPropertyOp25
 70
     1
102
RTVSPropertyOp26
 70
     1
102
RTVSPropertyOp27
 70
     1
102
RTVSPropertyOp28
 70
     1
102
RTVSPropertyOp29
 70
     1
102
RTVSPropertyOp30
 70
     1
102
RTVSPropertyOp31
 70
     1
102
RTVSPropertyOp32
 70
     1
102
RTVSPropertyOp33
 70
     1
102
RTVSPropertyOp34
 70
     1
102
RTVSPropertyOp35
 70
     1
102
RTVSPropertyOp36
 70
     1
102
RTVSPropertyOp37
 70
     1
102
RTVSPropertyOp38
 70
     1
102
RTVSPropertyOp39
 70
     1
102
RTVSPropertyOp40
 70
     1
102
RTVSPropertyOp41
 70
     1
102
RTVSPropertyOp42
 70
     1
102
RTVSPropertyOp43
 70
     1
102
RTVSPropertyOp44
 70
     1
102
RTVSPropertyOp45
 70
     1
102
RTVSPropertyOp46
 70
     1
102
RTVSPropertyOp47
 70
     1
102
RTVSPropertyOp48
 70
     1
102
RTVSPropertyOp49
 70
     1
102
RTVSPropertyOp50
 70
     1
102
RTVSPropertyOp51
 70
     0
102
RTVSPropertyOp52
 70
     0
102
RTVSPropertyOp53
 70
     1
102
RTVSPropertyOp54
 70
     1
102
RTVSPropertyOp55
 70
     1
102
RTVSPropertyOp56
 70
     1
102
RTVSPropertyOp57
 70
     1
102
RTVSPost2010Prop28
280
     0
102
RTVSPost2010PropOp28
 70
     1
102
RTVSPost2010Prop29
280
     1
102
RTVSPost2010PropOp29
 70
     1
102
RTVSPost2010Prop30
280
     1
102
RTVSPost2010PropOp30
 70
     1
102
RTVSPost2010Prop31
280
     0
102
RTVSPost2010PropOp31
 70
     1
102
RTVSPost2010Prop32
280
     0
102
RTVSPost2010PropOp32
 70
     1
102
RTVSPost2010Prop33
280
     0
102
RTVSPost2010PropOp33
 70
     1
102
RTVSPost2010Prop34
280
     0
102
RTVSPost2010PropOp34
 70
     1
102
RTVSPost2010Prop35
280
     0
102
RTVSPost2010PropOp35
 70
     1
102
RTVSPost2010Prop36
280
     0
102
RTVSPost2010PropOp36
 70
     1
102
RTVSPost2010Prop37
 90
       50
102
RTVSPost2010PropOp37
 70
     1
102
RTVSPost2010Prop38
140
0.0
102
RTVSPost2010PropOp38
 70
     1
102
RTVSPost2010Prop39
140
1.0
102
RTVSPost2010PropOp39
 70
     1
102
RTVSPost2010Prop40
 90
        0
102
RTVSPost2010PropOp40
 70
     1
102
RTVSPost2010Prop41ColorIndex
 90
       18
102
RTVSPost2010Prop41ColorRGB
 90
        0
102
RTVSPost2010PropOp41
 70
     1
102
RTVSPost2010Prop42
 90
       50
102
RTVSPost2010PropOp42
 70
     1
102
RTVSPost2010Prop43
 90
        3
102
RTVSPost2010PropOp43
 70
     1
102
RTVSPost2010Prop44ColorIndex
 90
        5
102
RTVSPost2010Prop44ColorRGB
 90
      255
102
RTVSPost2010PropOp44
 70
     1
102
RTVSPost2010Prop45
280
     0
102
RTVSPost2010PropOp45
 70
     1
102
RTVSPost2010Prop46
 90
       50
102
RTVSPost2010PropOp46
 70
     1
102
RTVSPost2010Prop47
 90
       50
102
RTVSPost2010PropOp47
 70
     1
102
RTVSPost2010Prop48
 90
       50
102
RTVSPost2010PropOp48
 70
     1
102
RTVSPost2010Prop49
280
     0
102
RTVSPost2010PropOp49
 70
     1
102
RTVSPost2010Prop50
 90
       50
102
RTVSPost2010PropOp50
 70
     1
102
RTVSPost2010Prop51ColorIndex
 90
      256
102
RTVSPost2010Prop51ColorRGB
 90
-16777216
102
RTVSPost2010PropOp51
 70
     0
102
RTVSPost2010Prop52
140
1.0
102
RTVSPost2010PropOp52
 70
     0
102
RTVSPost2010Prop53
 90
        2
102
RTVSPost2010PropOp53
 70
     1
102
RTVSPost2010Prop54
  1
strokes_ogs.tif
102
RTVSPost2010PropOp54
 70
     1
102
RTVSPost2010Prop55
280
     0
102
RTVSPost2010PropOp55
 70
     1
102
RTVSPost2010Prop56
140
1.0
102
RTVSPost2010PropOp56
 70
     1
102
RTVSPost2010Prop57
140
1.0
102
RTVSPost2010PropOp57
 70
     1
  0
XRECORD
  5
3D0
102
{ACAD_REACTORS
330
3CF
102
}
330
3CF
100
AcDbXrecord
280
     1
102
RTVSPropertyOp0
 70
     1
102
RTVSPropertyOp1
 70
     1
102
RTVSPropertyOp2
 70
     1
102
RTVSPropertyOp3
 70
     1
102
RTVSPropertyOp4
 70
     1
102
RTVSPropertyOp5
 70
     1
102
RTVSPropertyOp6
 70
     1
102
RTVSPropertyOp7
 70
     1
102
RTVSPropertyOp8
 70
     1
102
RTVSPropertyOp9
 70
     1
102
RTVSPropertyOp10
 70
     1
102
RTVSPropertyOp11
 70
     1
102
RTVSPropertyOp12
 70
     1
102
RTVSPropertyOp13
 70
     1
102
RTVSPropertyOp14
 70
     1
102
RTVSPropertyOp15
 70
     1
102
RTVSPropertyOp16
 70
     1
102
RTVSPropertyOp17
 70
     1
102
RTVSPropertyOp18
 70
     1
102
RTVSPropertyOp19
 70
     1
102
RTVSPropertyOp20
 70
     1
102
RTVSPropertyOp21
 70
     1
102
RTVSPropertyOp22
 70
     1
102
RTVSPropertyOp23
 70
     1
102
RTVSPropertyOp24
 70
     1
102
RTVSPropertyOp25
 70
     1
102
RTVSPropertyOp26
 70
     1
102
RTVSPropertyOp27
 70
     1
102
RTVSPropertyOp28
 70
     1
102
RTVSPropertyOp29
 70
     1
102
RTVSPropertyOp30
 70
     1
102
RTVSPropertyOp31
 70
     1
102
RTVSPropertyOp32
 70
     1
102
RTVSPropertyOp33
 70
     1
102
RTVSPropertyOp34
 70
     1
102
RTVSPropertyOp35
 70
     1
102
RTVSPropertyOp36
 70
     1
102
RTVSPropertyOp37
 70
     1
102
RTVSPropertyOp38
 70
     1
102
RTVSPropertyOp39
 70
     1
102
RTVSPropertyOp40
 70
     1
102
RTVSPropertyOp41
 70
     1
102
RTVSPropertyOp42
 70
     1
102
RTVSPropertyOp43
 70
     1
102
RTVSPropertyOp44
 70
     1
102
RTVSPropertyOp45
 70
     1
102
RTVSPropertyOp46
 70
     1
102
RTVSPropertyOp47
 70
     1
102
RTVSPropertyOp48
 70
     1
102
RTVSPropertyOp49
 70
     1
102
RTVSPropertyOp50
 70
     1
102
RTVSPropertyOp51
 70
     0
102
RTVSPropertyOp52
 70
     0
102
RTVSPropertyOp53
 70
     1
102
RTVSPropertyOp54
 70
     1
102
RTVSPropertyOp55
 70
     1
102
RTVSPropertyOp56
 70
     1
102
RTVSPropertyOp57
 70
     1
102
RTVSPost2010Prop28
280
     0
102
RTVSPost2010PropOp28
 70
     1
102
RTVSPost2010Prop29
280
     1
102
RTVSPost2010PropOp29
 70
     1
102
RTVSPost2010Prop30
280
     1
102
RTVSPost2010PropOp30
 70
     1
102
RTVSPost2010Prop31
280
     0
102
RTVSPost2010PropOp31
 70
     1
102
RTVSPost2010Prop32
280
     0
102
RTVSPost2010PropOp32
 70
     1
102
RTVSPost2010Prop33
280
     0
102
RTVSPost2010PropOp33
 70
     1
102
RTVSPost2010Prop34
280
     0
102
RTVSPost2010PropOp34
 70
     1
102
RTVSPost2010Prop35
280
     0
102
RTVSPost2010PropOp35
 70
     1
102
RTVSPost2010Prop36
280
     0
102
RTVSPost2010PropOp36
 70
     1
102
RTVSPost2010Prop37
 90
       50
102
RTVSPost2010PropOp37
 70
     1
102
RTVSPost2010Prop38
140
0.0
102
RTVSPost2010PropOp38
 70
     1
102
RTVSPost2010Prop39
140
1.0
102
RTVSPost2010PropOp39
 70
     1
102
RTVSPost2010Prop40
 90
        0
102
RTVSPost2010PropOp40
 70
     1
102
RTVSPost2010Prop41ColorIndex
 90
       18
102
RTVSPost2010Prop41ColorRGB
 90
        0
102
RTVSPost2010PropOp41
 70
     1
102
RTVSPost2010Prop42
 90
       50
102
RTVSPost2010PropOp42
 70
     1
102
RTVSPost2010Prop43
 90
        3
102
RTVSPost2010PropOp43
 70
     1
102
RTVSPost2010Prop44ColorIndex
 90
        5
102
RTVSPost2010Prop44ColorRGB
 90
      255
102
RTVSPost2010PropOp44
 70
     1
102
RTVSPost2010Prop45
280
     0
102
RTVSPost2010PropOp45
 70
     1
102
RTVSPost2010Prop46
 90
       50
102
RTVSPost2010PropOp46
 70
     1
102
RTVSPost2010Prop47
 90
       50
102
RTVSPost2010PropOp47
 70
     1
102
RTVSPost2010Prop48
 90
       50
102
RTVSPost2010PropOp48
 70
     1
102
RTVSPost2010Prop49
280
     0
102
RTVSPost2010PropOp49
 70
     1
102
RTVSPost2010Prop50
 90
       50
102
RTVSPost2010PropOp50
 70
     1
102
RTVSPost2010Prop51ColorIndex
 90
      256
102
RTVSPost2010Prop51ColorRGB
 90
-16777216
102
RTVSPost2010PropOp51
 70
     0
102
RTVSPost2010Prop52
140
1.0
102
RTVSPost2010PropOp52
 70
     0
102
RTVSPost2010Prop53
 90
        2
102
RTVSPost2010PropOp53
 70
     1
102
RTVSPost2010Prop54
  1
strokes_ogs.tif
102
RTVSPost2010PropOp54
 70
     1
102
RTVSPost2010Prop55
280
     0
102
RTVSPost2010PropOp55
 70
     1
102
RTVSPost2010Prop56
140
1.0
102
RTVSPost2010PropOp56
 70
     1
102
RTVSPost2010Prop57
140
1.0
102
RTVSPost2010PropOp57
 70
     1
  0
XRECORD
  5
3CE
102
{ACAD_REACTORS
330
3CD
102
}
330
3CD
100
AcDbXrecord
280
     1
102
RTVSPropertyOp0
 70
     1
102
RTVSPropertyOp1
 70
     1
102
RTVSPropertyOp2
 70
     1
102
RTVSPropertyOp3
 70
     1
102
RTVSPropertyOp4
 70
     1
102
RTVSPropertyOp5
 70
     1
102
RTVSPropertyOp6
 70
     1
102
RTVSPropertyOp7
 70
     1
102
RTVSPropertyOp8
 70
     1
102
RTVSPropertyOp9
 70
     1
102
RTVSPropertyOp10
 70
     1
102
RTVSPropertyOp11
 70
     1
102
RTVSPropertyOp12
 70
     1
102
RTVSPropertyOp13
 70
     1
102
RTVSPropertyOp14
 70
     1
102
RTVSPropertyOp15
 70
     1
102
RTVSPropertyOp16
 70
     1
102
RTVSPropertyOp17
 70
     1
102
RTVSPropertyOp18
 70
     1
102
RTVSPropertyOp19
 70
     1
102
RTVSPropertyOp20
 70
     1
102
RTVSPropertyOp21
 70
     1
102
RTVSPropertyOp22
 70
     1
102
RTVSPropertyOp23
 70
     1
102
RTVSPropertyOp24
 70
     1
102
RTVSPropertyOp25
 70
     1
102
RTVSPropertyOp26
 70
     1
102
RTVSPropertyOp27
 70
     1
102
RTVSPropertyOp28
 70
     1
102
RTVSPropertyOp29
 70
     1
102
RTVSPropertyOp30
 70
     1
102
RTVSPropertyOp31
 70
     1
102
RTVSPropertyOp32
 70
     1
102
RTVSPropertyOp33
 70
     1
102
RTVSPropertyOp34
 70
     1
102
RTVSPropertyOp35
 70
     1
102
RTVSPropertyOp36
 70
     1
102
RTVSPropertyOp37
 70
     1
102
RTVSPropertyOp38
 70
     1
102
RTVSPropertyOp39
 70
     1
102
RTVSPropertyOp40
 70
     1
102
RTVSPropertyOp41
 70
     1
102
RTVSPropertyOp42
 70
     1
102
RTVSPropertyOp43
 70
     1
102
RTVSPropertyOp44
 70
     1
102
RTVSPropertyOp45
 70
     1
102
RTVSPropertyOp46
 70
     1
102
RTVSPropertyOp47
 70
     1
102
RTVSPropertyOp48
 70
     1
102
RTVSPropertyOp49
 70
     1
102
RTVSPropertyOp50
 70
     1
102
RTVSPropertyOp51
 70
     0
102
RTVSPropertyOp52
 70
     0
102
RTVSPropertyOp53
 70
     1
102
RTVSPropertyOp54
 70
     1
102
RTVSPropertyOp55
 70
     1
102
RTVSPropertyOp56
 70
     1
102
RTVSPropertyOp57
 70
     1
102
RTVSPost2010Prop28
280
     0
102
RTVSPost2010PropOp28
 70
     1
102
RTVSPost2010Prop29
280
     1
102
RTVSPost2010PropOp29
 70
     1
102
RTVSPost2010Prop30
280
     1
102
RTVSPost2010PropOp30
 70
     1
102
RTVSPost2010Prop31
280
     0
102
RTVSPost2010PropOp31
 70
     1
102
RTVSPost2010Prop32
280
     0
102
RTVSPost2010PropOp32
 70
     1
102
RTVSPost2010Prop33
280
     0
102
RTVSPost2010PropOp33
 70
     1
102
RTVSPost2010Prop34
280
     0
102
RTVSPost2010PropOp34
 70
     1
102
RTVSPost2010Prop35
280
     0
102
RTVSPost2010PropOp35
 70
     1
102
RTVSPost2010Prop36
280
     0
102
RTVSPost2010PropOp36
 70
     1
102
RTVSPost2010Prop37
 90
       50
102
RTVSPost2010PropOp37
 70
     1
102
RTVSPost2010Prop38
140
0.0
102
RTVSPost2010PropOp38
 70
     1
102
RTVSPost2010Prop39
140
1.0
102
RTVSPost2010PropOp39
 70
     1
102
RTVSPost2010Prop40
 90
        0
102
RTVSPost2010PropOp40
 70
     1
102
RTVSPost2010Prop41ColorIndex
 90
       18
102
RTVSPost2010Prop41ColorRGB
 90
        0
102
RTVSPost2010PropOp41
 70
     1
102
RTVSPost2010Prop42
 90
       50
102
RTVSPost2010PropOp42
 70
     1
102
RTVSPost2010Prop43
 90
        3
102
RTVSPost2010PropOp43
 70
     1
102
RTVSPost2010Prop44ColorIndex
 90
        5
102
RTVSPost2010Prop44ColorRGB
 90
      255
102
RTVSPost2010PropOp44
 70
     1
102
RTVSPost2010Prop45
280
     0
102
RTVSPost2010PropOp45
 70
     1
102
RTVSPost2010Prop46
 90
       50
102
RTVSPost2010PropOp46
 70
     1
102
RTVSPost2010Prop47
 90
       50
102
RTVSPost2010PropOp47
 70
     1
102
RTVSPost2010Prop48
 90
       50
102
RTVSPost2010PropOp48
 70
     1
102
RTVSPost2010Prop49
280
     0
102
RTVSPost2010PropOp49
 70
     1
102
RTVSPost2010Prop50
 90
       50
102
RTVSPost2010PropOp50
 70
     1
102
RTVSPost2010Prop51ColorIndex
 90
      256
102
RTVSPost2010Prop51ColorRGB
 90
-16777216
102
RTVSPost2010PropOp51
 70
     0
102
RTVSPost2010Prop52
140
1.0
102
RTVSPost2010PropOp52
 70
     0
102
RTVSPost2010Prop53
 90
        2
102
RTVSPost2010PropOp53
 70
     1
102
RTVSPost2010Prop54
  1
strokes_ogs.tif
102
RTVSPost2010PropOp54
 70
     1
102
RTVSPost2010Prop55
280
     0
102
RTVSPost2010PropOp55
 70
     1
102
RTVSPost2010Prop56
140
1.0
102
RTVSPost2010PropOp56
 70
     1
102
RTVSPost2010Prop57
140
1.0
102
RTVSPost2010PropOp57
 70
     1
  0
XRECORD
  5
3C8
102
{ACAD_REACTORS
330
3C7
102
}
330
3C7
100
AcDbXrecord
280
     1
102
RTVSPropertyOp0
 70
     1
102
RTVSPropertyOp1
 70
     1
102
RTVSPropertyOp2
 70
     1
102
RTVSPropertyOp3
 70
     1
102
RTVSPropertyOp4
 70
     1
102
RTVSPropertyOp5
 70
     1
102
RTVSPropertyOp6
 70
     1
102
RTVSPropertyOp7
 70
     1
102
RTVSPropertyOp8
 70
     1
102
RTVSPropertyOp9
 70
     1
102
RTVSPropertyOp10
 70
     1
102
RTVSPropertyOp11
 70
     1
102
RTVSPropertyOp12
 70
     1
102
RTVSPropertyOp13
 70
     1
102
RTVSPropertyOp14
 70
     1
102
RTVSPropertyOp15
 70
     1
102
RTVSPropertyOp16
 70
     1
102
RTVSPropertyOp17
 70
     1
102
RTVSPropertyOp18
 70
     1
102
RTVSPropertyOp19
 70
     1
102
RTVSPropertyOp20
 70
     1
102
RTVSPropertyOp21
 70
     1
102
RTVSPropertyOp22
 70
     1
102
RTVSPropertyOp23
 70
     1
102
RTVSPropertyOp24
 70
     1
102
RTVSPropertyOp25
 70
     1
102
RTVSPropertyOp26
 70
     1
102
RTVSPropertyOp27
 70
     1
102
RTVSPropertyOp28
 70
     1
102
RTVSPropertyOp29
 70
     1
102
RTVSPropertyOp30
 70
     1
102
RTVSPropertyOp31
 70
     1
102
RTVSPropertyOp32
 70
     1
102
RTVSPropertyOp33
 70
     1
102
RTVSPropertyOp34
 70
     1
102
RTVSPropertyOp35
 70
     1
102
RTVSPropertyOp36
 70
     1
102
RTVSPropertyOp37
 70
     1
102
RTVSPropertyOp38
 70
     1
102
RTVSPropertyOp39
 70
     1
102
RTVSPropertyOp40
 70
     1
102
RTVSPropertyOp41
 70
     1
102
RTVSPropertyOp42
 70
     1
102
RTVSPropertyOp43
 70
     1
102
RTVSPropertyOp44
 70
     1
102
RTVSPropertyOp45
 70
     1
102
RTVSPropertyOp46
 70
     1
102
RTVSPropertyOp47
 70
     1
102
RTVSPropertyOp48
 70
     1
102
RTVSPropertyOp49
 70
     1
102
RTVSPropertyOp50
 70
     1
102
RTVSPropertyOp51
 70
     0
102
RTVSPropertyOp52
 70
     0
102
RTVSPropertyOp53
 70
     1
102
RTVSPropertyOp54
 70
     1
102
RTVSPropertyOp55
 70
     1
102
RTVSPropertyOp56
 70
     1
102
RTVSPropertyOp57
 70
     1
102
RTVSPost2010Prop28
280
     0
102
RTVSPost2010PropOp28
 70
     1
102
RTVSPost2010Prop29
280
     1
102
RTVSPost2010PropOp29
 70
     1
102
RTVSPost2010Prop30
280
     1
102
RTVSPost2010PropOp30
 70
     1
102
RTVSPost2010Prop31
280
     0
102
RTVSPost2010PropOp31
 70
     1
102
RTVSPost2010Prop32
280
     0
102
RTVSPost2010PropOp32
 70
     1
102
RTVSPost2010Prop33
280
     0
102
RTVSPost2010PropOp33
 70
     1
102
RTVSPost2010Prop34
280
     0
102
RTVSPost2010PropOp34
 70
     1
102
RTVSPost2010Prop35
280
     0
102
RTVSPost2010PropOp35
 70
     1
102
RTVSPost2010Prop36
280
     0
102
RTVSPost2010PropOp36
 70
     1
102
RTVSPost2010Prop37
 90
       50
102
RTVSPost2010PropOp37
 70
     1
102
RTVSPost2010Prop38
140
0.0
102
RTVSPost2010PropOp38
 70
     1
102
RTVSPost2010Prop39
140
1.0
102
RTVSPost2010PropOp39
 70
     1
102
RTVSPost2010Prop40
 90
        0
102
RTVSPost2010PropOp40
 70
     1
102
RTVSPost2010Prop41ColorIndex
 90
       18
102
RTVSPost2010Prop41ColorRGB
 90
        0
102
RTVSPost2010PropOp41
 70
     1
102
RTVSPost2010Prop42
 90
       50
102
RTVSPost2010PropOp42
 70
     1
102
RTVSPost2010Prop43
 90
        3
102
RTVSPost2010PropOp43
 70
     1
102
RTVSPost2010Prop44ColorIndex
 90
        5
102
RTVSPost2010Prop44ColorRGB
 90
      255
102
RTVSPost2010PropOp44
 70
     1
102
RTVSPost2010Prop45
280
     0
102
RTVSPost2010PropOp45
 70
     1
102
RTVSPost2010Prop46
 90
       50
102
RTVSPost2010PropOp46
 70
     1
102
RTVSPost2010Prop47
 90
       50
102
RTVSPost2010PropOp47
 70
     1
102
RTVSPost2010Prop48
 90
       50
102
RTVSPost2010PropOp48
 70
     1
102
RTVSPost2010Prop49
280
     0
102
RTVSPost2010PropOp49
 70
     1
102
RTVSPost2010Prop50
 90
       50
102
RTVSPost2010PropOp50
 70
     1
102
RTVSPost2010Prop51ColorIndex
 90
      256
102
RTVSPost2010Prop51ColorRGB
 90
-16777216
102
RTVSPost2010PropOp51
 70
     0
102
RTVSPost2010Prop52
140
1.0
102
RTVSPost2010PropOp52
 70
     0
102
RTVSPost2010Prop53
 90
        2
102
RTVSPost2010PropOp53
 70
     1
102
RTVSPost2010Prop54
  1
strokes_ogs.tif
102
RTVSPost2010PropOp54
 70
     1
102
RTVSPost2010Prop55
280
     0
102
RTVSPost2010PropOp55
 70
     1
102
RTVSPost2010Prop56
140
1.0
102
RTVSPost2010PropOp56
 70
     1
102
RTVSPost2010Prop57
140
1.0
102
RTVSPost2010PropOp57
 70
     1
  0
XRECORD
  5
3CA
102
{ACAD_REACTORS
330
3C9
102
}
330
3C9
100
AcDbXrecord
280
     1
102
RTVSPropertyOp0
 70
     1
102
RTVSPropertyOp1
 70
     1
102
RTVSPropertyOp2
 70
     1
102
RTVSPropertyOp3
 70
     1
102
RTVSPropertyOp4
 70
     1
102
RTVSPropertyOp5
 70
     1
102
RTVSPropertyOp6
 70
     1
102
RTVSPropertyOp7
 70
     1
102
RTVSPropertyOp8
 70
     1
102
RTVSPropertyOp9
 70
     1
102
RTVSPropertyOp10
 70
     1
102
RTVSPropertyOp11
 70
     1
102
RTVSPropertyOp12
 70
     1
102
RTVSPropertyOp13
 70
     1
102
RTVSPropertyOp14
 70
     1
102
RTVSPropertyOp15
 70
     1
102
RTVSPropertyOp16
 70
     1
102
RTVSPropertyOp17
 70
     1
102
RTVSPropertyOp18
 70
     1
102
RTVSPropertyOp19
 70
     1
102
RTVSPropertyOp20
 70
     1
102
RTVSPropertyOp21
 70
     1
102
RTVSPropertyOp22
 70
     1
102
RTVSPropertyOp23
 70
     1
102
RTVSPropertyOp24
 70
     1
102
RTVSPropertyOp25
 70
     1
102
RTVSPropertyOp26
 70
     1
102
RTVSPropertyOp27
 70
     1
102
RTVSPropertyOp28
 70
     1
102
RTVSPropertyOp29
 70
     1
102
RTVSPropertyOp30
 70
     1
102
RTVSPropertyOp31
 70
     1
102
RTVSPropertyOp32
 70
     1
102
RTVSPropertyOp33
 70
     1
102
RTVSPropertyOp34
 70
     1
102
RTVSPropertyOp35
 70
     1
102
RTVSPropertyOp36
 70
     1
102
RTVSPropertyOp37
 70
     1
102
RTVSPropertyOp38
 70
     1
102
RTVSPropertyOp39
 70
     1
102
RTVSPropertyOp40
 70
     1
102
RTVSPropertyOp41
 70
     1
102
RTVSPropertyOp42
 70
     1
102
RTVSPropertyOp43
 70
     1
102
RTVSPropertyOp44
 70
     1
102
RTVSPropertyOp45
 70
     1
102
RTVSPropertyOp46
 70
     1
102
RTVSPropertyOp47
 70
     1
102
RTVSPropertyOp48
 70
     1
102
RTVSPropertyOp49
 70
     1
102
RTVSPropertyOp50
 70
     1
102
RTVSPropertyOp51
 70
     0
102
RTVSPropertyOp52
 70
     0
102
RTVSPropertyOp53
 70
     1
102
RTVSPropertyOp54
 70
     1
102
RTVSPropertyOp55
 70
     1
102
RTVSPropertyOp56
 70
     1
102
RTVSPropertyOp57
 70
     1
102
RTVSPost2010Prop28
280
     0
102
RTVSPost2010PropOp28
 70
     1
102
RTVSPost2010Prop29
280
     1
102
RTVSPost2010PropOp29
 70
     1
102
RTVSPost2010Prop30
280
     1
102
RTVSPost2010PropOp30
 70
     1
102
RTVSPost2010Prop31
280
     0
102
RTVSPost2010PropOp31
 70
     1
102
RTVSPost2010Prop32
280
     0
102
RTVSPost2010PropOp32
 70
     1
102
RTVSPost2010Prop33
280
     0
102
RTVSPost2010PropOp33
 70
     1
102
RTVSPost2010Prop34
280
     0
102
RTVSPost2010PropOp34
 70
     1
102
RTVSPost2010Prop35
280
     0
102
RTVSPost2010PropOp35
 70
     1
102
RTVSPost2010Prop36
280
     0
102
RTVSPost2010PropOp36
 70
     1
102
RTVSPost2010Prop37
 90
       50
102
RTVSPost2010PropOp37
 70
     1
102
RTVSPost2010Prop38
140
0.0
102
RTVSPost2010PropOp38
 70
     1
102
RTVSPost2010Prop39
140
1.0
102
RTVSPost2010PropOp39
 70
     1
102
RTVSPost2010Prop40
 90
        0
102
RTVSPost2010PropOp40
 70
     1
102
RTVSPost2010Prop41ColorIndex
 90
       18
102
RTVSPost2010Prop41ColorRGB
 90
        0
102
RTVSPost2010PropOp41
 70
     1
102
RTVSPost2010Prop42
 90
       50
102
RTVSPost2010PropOp42
 70
     1
102
RTVSPost2010Prop43
 90
        3
102
RTVSPost2010PropOp43
 70
     1
102
RTVSPost2010Prop44ColorIndex
 90
        5
102
RTVSPost2010Prop44ColorRGB
 90
      255
102
RTVSPost2010PropOp44
 70
     1
102
RTVSPost2010Prop45
280
     0
102
RTVSPost2010PropOp45
 70
     1
102
RTVSPost2010Prop46
 90
       50
102
RTVSPost2010PropOp46
 70
     1
102
RTVSPost2010Prop47
 90
       50
102
RTVSPost2010PropOp47
 70
     1
102
RTVSPost2010Prop48
 90
       50
102
RTVSPost2010PropOp48
 70
     1
102
RTVSPost2010Prop49
280
     0
102
RTVSPost2010PropOp49
 70
     1
102
RTVSPost2010Prop50
 90
       50
102
RTVSPost2010PropOp50
 70
     1
102
RTVSPost2010Prop51ColorIndex
 90
      256
102
RTVSPost2010Prop51ColorRGB
 90
-16777216
102
RTVSPost2010PropOp51
 70
     0
102
RTVSPost2010Prop52
140
1.0
102
RTVSPost2010PropOp52
 70
     0
102
RTVSPost2010Prop53
 90
        2
102
RTVSPost2010PropOp53
 70
     1
102
RTVSPost2010Prop54
  1
strokes_ogs.tif
102
RTVSPost2010PropOp54
 70
     1
102
RTVSPost2010Prop55
280
     0
102
RTVSPost2010PropOp55
 70
     1
102
RTVSPost2010Prop56
140
1.0
102
RTVSPost2010PropOp56
 70
     1
102
RTVSPost2010Prop57
140
1.0
102
RTVSPost2010PropOp57
 70
     1
  0
XRECORD
  5
3BA
102
{ACAD_REACTORS
330
3B9
102
}
330
3B9
100
AcDbXrecord
280
     1
102
RTVSPropertyOp0
 70
     1
102
RTVSPropertyOp1
 70
     1
102
RTVSPropertyOp2
 70
     1
102
RTVSPropertyOp3
 70
     1
102
RTVSPropertyOp4
 70
     1
102
RTVSPropertyOp5
 70
     1
102
RTVSPropertyOp6
 70
     1
102
RTVSPropertyOp7
 70
     1
102
RTVSPropertyOp8
 70
     1
102
RTVSPropertyOp9
 70
     1
102
RTVSPropertyOp10
 70
     1
102
RTVSPropertyOp11
 70
     1
102
RTVSPropertyOp12
 70
     1
102
RTVSPropertyOp13
 70
     1
102
RTVSPropertyOp14
 70
     1
102
RTVSPropertyOp15
 70
     1
102
RTVSPropertyOp16
 70
     1
102
RTVSPropertyOp17
 70
     1
102
RTVSPropertyOp18
 70
     1
102
RTVSPropertyOp19
 70
     1
102
RTVSPropertyOp20
 70
     1
102
RTVSPropertyOp21
 70
     1
102
RTVSPropertyOp22
 70
     1
102
RTVSPropertyOp23
 70
     1
102
RTVSPropertyOp24
 70
     1
102
RTVSPropertyOp25
 70
     1
102
RTVSPropertyOp26
 70
     1
102
RTVSPropertyOp27
 70
     1
102
RTVSPropertyOp28
 70
     1
102
RTVSPropertyOp29
 70
     1
102
RTVSPropertyOp30
 70
     1
102
RTVSPropertyOp31
 70
     1
102
RTVSPropertyOp32
 70
     1
102
RTVSPropertyOp33
 70
     1
102
RTVSPropertyOp34
 70
     1
102
RTVSPropertyOp35
 70
     1
102
RTVSPropertyOp36
 70
     1
102
RTVSPropertyOp37
 70
     1
102
RTVSPropertyOp38
 70
     1
102
RTVSPropertyOp39
 70
     1
102
RTVSPropertyOp40
 70
     1
102
RTVSPropertyOp41
 70
     1
102
RTVSPropertyOp42
 70
     1
102
RTVSPropertyOp43
 70
     1
102
RTVSPropertyOp44
 70
     1
102
RTVSPropertyOp45
 70
     1
102
RTVSPropertyOp46
 70
     1
102
RTVSPropertyOp47
 70
     1
102
RTVSPropertyOp48
 70
     1
102
RTVSPropertyOp49
 70
     1
102
RTVSPropertyOp50
 70
     1
102
RTVSPropertyOp51
 70
     0
102
RTVSPropertyOp52
 70
     0
102
RTVSPropertyOp53
 70
     1
102
RTVSPropertyOp54
 70
     1
102
RTVSPropertyOp55
 70
     1
102
RTVSPropertyOp56
 70
     1
102
RTVSPropertyOp57
 70
     1
102
RTVSPost2010Prop28
280
     0
102
RTVSPost2010PropOp28
 70
     1
102
RTVSPost2010Prop29
280
     1
102
RTVSPost2010PropOp29
 70
     1
102
RTVSPost2010Prop30
280
     1
102
RTVSPost2010PropOp30
 70
     1
102
RTVSPost2010Prop31
280
     0
102
RTVSPost2010PropOp31
 70
     1
102
RTVSPost2010Prop32
280
     0
102
RTVSPost2010PropOp32
 70
     1
102
RTVSPost2010Prop33
280
     0
102
RTVSPost2010PropOp33
 70
     1
102
RTVSPost2010Prop34
280
     0
102
RTVSPost2010PropOp34
 70
     1
102
RTVSPost2010Prop35
280
     0
102
RTVSPost2010PropOp35
 70
     1
102
RTVSPost2010Prop36
280
     0
102
RTVSPost2010PropOp36
 70
     1
102
RTVSPost2010Prop37
 90
       50
102
RTVSPost2010PropOp37
 70
     1
102
RTVSPost2010Prop38
140
0.0
102
RTVSPost2010PropOp38
 70
     1
102
RTVSPost2010Prop39
140
1.0
102
RTVSPost2010PropOp39
 70
     1
102
RTVSPost2010Prop40
 90
        0
102
RTVSPost2010PropOp40
 70
     1
102
RTVSPost2010Prop41ColorIndex
 90
       18
102
RTVSPost2010Prop41ColorRGB
 90
        0
102
RTVSPost2010PropOp41
 70
     1
102
RTVSPost2010Prop42
 90
       50
102
RTVSPost2010PropOp42
 70
     1
102
RTVSPost2010Prop43
 90
        3
102
RTVSPost2010PropOp43
 70
     1
102
RTVSPost2010Prop44ColorIndex
 90
        5
102
RTVSPost2010Prop44ColorRGB
 90
      255
102
RTVSPost2010PropOp44
 70
     1
102
RTVSPost2010Prop45
280
     0
102
RTVSPost2010PropOp45
 70
     1
102
RTVSPost2010Prop46
 90
       50
102
RTVSPost2010PropOp46
 70
     1
102
RTVSPost2010Prop47
 90
       50
102
RTVSPost2010PropOp47
 70
     1
102
RTVSPost2010Prop48
 90
       50
102
RTVSPost2010PropOp48
 70
     1
102
RTVSPost2010Prop49
280
     0
102
RTVSPost2010PropOp49
 70
     1
102
RTVSPost2010Prop50
 90
       50
102
RTVSPost2010PropOp50
 70
     1
102
RTVSPost2010Prop51ColorIndex
 90
      256
102
RTVSPost2010Prop51ColorRGB
 90
-16777216
102
RTVSPost2010PropOp51
 70
     0
102
RTVSPost2010Prop52
140
1.0
102
RTVSPost2010PropOp52
 70
     0
102
RTVSPost2010Prop53
 90
        2
102
RTVSPost2010PropOp53
 70
     1
102
RTVSPost2010Prop54
  1
strokes_ogs.tif
102
RTVSPost2010PropOp54
 70
     1
102
RTVSPost2010Prop55
280
     0
102
RTVSPost2010PropOp55
 70
     1
102
RTVSPost2010Prop56
140
1.0
102
RTVSPost2010PropOp56
 70
     1
102
RTVSPost2010Prop57
140
1.0
102
RTVSPost2010PropOp57
 70
     1
  0
XRECORD
  5
3AC
102
{ACAD_REACTORS
330
3AB
102
}
330
3AB
100
AcDbXrecord
280
     1
102
RTVSPropertyOp0
 70
     1
102
RTVSPropertyOp1
 70
     1
102
RTVSPropertyOp2
 70
     1
102
RTVSPropertyOp3
 70
     1
102
RTVSPropertyOp4
 70
     1
102
RTVSPropertyOp5
 70
     1
102
RTVSPropertyOp6
 70
     1
102
RTVSPropertyOp7
 70
     1
102
RTVSPropertyOp8
 70
     1
102
RTVSPropertyOp9
 70
     1
102
RTVSPropertyOp10
 70
     1
102
RTVSPropertyOp11
 70
     1
102
RTVSPropertyOp12
 70
     1
102
RTVSPropertyOp13
 70
     1
102
RTVSPropertyOp14
 70
     1
102
RTVSPropertyOp15
 70
     1
102
RTVSPropertyOp16
 70
     1
102
RTVSPropertyOp17
 70
     1
102
RTVSPropertyOp18
 70
     1
102
RTVSPropertyOp19
 70
     1
102
RTVSPropertyOp20
 70
     1
102
RTVSPropertyOp21
 70
     1
102
RTVSPropertyOp22
 70
     1
102
RTVSPropertyOp23
 70
     1
102
RTVSPropertyOp24
 70
     1
102
RTVSPropertyOp25
 70
     1
102
RTVSPropertyOp26
 70
     1
102
RTVSPropertyOp27
 70
     1
102
RTVSPropertyOp28
 70
     1
102
RTVSPropertyOp29
 70
     1
102
RTVSPropertyOp30
 70
     1
102
RTVSPropertyOp31
 70
     1
102
RTVSPropertyOp32
 70
     1
102
RTVSPropertyOp33
 70
     1
102
RTVSPropertyOp34
 70
     1
102
RTVSPropertyOp35
 70
     1
102
RTVSPropertyOp36
 70
     1
102
RTVSPropertyOp37
 70
     1
102
RTVSPropertyOp38
 70
     1
102
RTVSPropertyOp39
 70
     1
102
RTVSPropertyOp40
 70
     1
102
RTVSPropertyOp41
 70
     1
102
RTVSPropertyOp42
 70
     1
102
RTVSPropertyOp43
 70
     1
102
RTVSPropertyOp44
 70
     1
102
RTVSPropertyOp45
 70
     1
102
RTVSPropertyOp46
 70
     1
102
RTVSPropertyOp47
 70
     1
102
RTVSPropertyOp48
 70
     1
102
RTVSPropertyOp49
 70
     1
102
RTVSPropertyOp50
 70
     1
102
RTVSPropertyOp51
 70
     0
102
RTVSPropertyOp52
 70
     0
102
RTVSPropertyOp53
 70
     1
102
RTVSPropertyOp54
 70
     1
102
RTVSPropertyOp55
 70
     1
102
RTVSPropertyOp56
 70
     1
102
RTVSPropertyOp57
 70
     1
102
RTVSPost2010Prop28
280
     0
102
RTVSPost2010PropOp28
 70
     1
102
RTVSPost2010Prop29
280
     1
102
RTVSPost2010PropOp29
 70
     1
102
RTVSPost2010Prop30
280
     1
102
RTVSPost2010PropOp30
 70
     1
102
RTVSPost2010Prop31
280
     0
102
RTVSPost2010PropOp31
 70
     1
102
RTVSPost2010Prop32
280
     0
102
RTVSPost2010PropOp32
 70
     1
102
RTVSPost2010Prop33
280
     0
102
RTVSPost2010PropOp33
 70
     1
102
RTVSPost2010Prop34
280
     0
102
RTVSPost2010PropOp34
 70
     1
102
RTVSPost2010Prop35
280
     0
102
RTVSPost2010PropOp35
 70
     1
102
RTVSPost2010Prop36
280
     0
102
RTVSPost2010PropOp36
 70
     1
102
RTVSPost2010Prop37
 90
       50
102
RTVSPost2010PropOp37
 70
     1
102
RTVSPost2010Prop38
140
0.0
102
RTVSPost2010PropOp38
 70
     1
102
RTVSPost2010Prop39
140
1.0
102
RTVSPost2010PropOp39
 70
     1
102
RTVSPost2010Prop40
 90
        0
102
RTVSPost2010PropOp40
 70
     1
102
RTVSPost2010Prop41ColorIndex
 90
       18
102
RTVSPost2010Prop41ColorRGB
 90
        0
102
RTVSPost2010PropOp41
 70
     1
102
RTVSPost2010Prop42
 90
       50
102
RTVSPost2010PropOp42
 70
     1
102
RTVSPost2010Prop43
 90
        3
102
RTVSPost2010PropOp43
 70
     1
102
RTVSPost2010Prop44ColorIndex
 90
        5
102
RTVSPost2010Prop44ColorRGB
 90
      255
102
RTVSPost2010PropOp44
 70
     1
102
RTVSPost2010Prop45
280
     0
102
RTVSPost2010PropOp45
 70
     1
102
RTVSPost2010Prop46
 90
       50
102
RTVSPost2010PropOp46
 70
     1
102
RTVSPost2010Prop47
 90
       50
102
RTVSPost2010PropOp47
 70
     1
102
RTVSPost2010Prop48
 90
       50
102
RTVSPost2010PropOp48
 70
     1
102
RTVSPost2010Prop49
280
     0
102
RTVSPost2010PropOp49
 70
     1
102
RTVSPost2010Prop50
 90
       50
102
RTVSPost2010PropOp50
 70
     1
102
RTVSPost2010Prop51ColorIndex
 90
      256
102
RTVSPost2010Prop51ColorRGB
 90
-16777216
102
RTVSPost2010PropOp51
 70
     0
102
RTVSPost2010Prop52
140
1.0
102
RTVSPost2010PropOp52
 70
     0
102
RTVSPost2010Prop53
 90
        2
102
RTVSPost2010PropOp53
 70
     1
102
RTVSPost2010Prop54
  1
strokes_ogs.tif
102
RTVSPost2010PropOp54
 70
     1
102
RTVSPost2010Prop55
280
     0
102
RTVSPost2010PropOp55
 70
     1
102
RTVSPost2010Prop56
140
1.0
102
RTVSPost2010PropOp56
 70
     1
102
RTVSPost2010Prop57
140
1.0
102
RTVSPost2010PropOp57
 70
     1
  0
XRECORD
  5
3CC
102
{ACAD_REACTORS
330
3CB
102
}
330
3CB
100
AcDbXrecord
280
     1
102
RTVSPropertyOp0
 70
     1
102
RTVSPropertyOp1
 70
     1
102
RTVSPropertyOp2
 70
     1
102
RTVSPropertyOp3
 70
     1
102
RTVSPropertyOp4
 70
     1
102
RTVSPropertyOp5
 70
     1
102
RTVSPropertyOp6
 70
     1
102
RTVSPropertyOp7
 70
     1
102
RTVSPropertyOp8
 70
     1
102
RTVSPropertyOp9
 70
     1
102
RTVSPropertyOp10
 70
     1
102
RTVSPropertyOp11
 70
     1
102
RTVSPropertyOp12
 70
     1
102
RTVSPropertyOp13
 70
     1
102
RTVSPropertyOp14
 70
     1
102
RTVSPropertyOp15
 70
     1
102
RTVSPropertyOp16
 70
     1
102
RTVSPropertyOp17
 70
     1
102
RTVSPropertyOp18
 70
     1
102
RTVSPropertyOp19
 70
     1
102
RTVSPropertyOp20
 70
     1
102
RTVSPropertyOp21
 70
     1
102
RTVSPropertyOp22
 70
     1
102
RTVSPropertyOp23
 70
     1
102
RTVSPropertyOp24
 70
     1
102
RTVSPropertyOp25
 70
     1
102
RTVSPropertyOp26
 70
     1
102
RTVSPropertyOp27
 70
     1
102
RTVSPropertyOp28
 70
     1
102
RTVSPropertyOp29
 70
     1
102
RTVSPropertyOp30
 70
     1
102
RTVSPropertyOp31
 70
     1
102
RTVSPropertyOp32
 70
     1
102
RTVSPropertyOp33
 70
     1
102
RTVSPropertyOp34
 70
     1
102
RTVSPropertyOp35
 70
     1
102
RTVSPropertyOp36
 70
     1
102
RTVSPropertyOp37
 70
     1
102
RTVSPropertyOp38
 70
     1
102
RTVSPropertyOp39
 70
     1
102
RTVSPropertyOp40
 70
     1
102
RTVSPropertyOp41
 70
     1
102
RTVSPropertyOp42
 70
     1
102
RTVSPropertyOp43
 70
     1
102
RTVSPropertyOp44
 70
     1
102
RTVSPropertyOp45
 70
     1
102
RTVSPropertyOp46
 70
     1
102
RTVSPropertyOp47
 70
     1
102
RTVSPropertyOp48
 70
     1
102
RTVSPropertyOp49
 70
     1
102
RTVSPropertyOp50
 70
     1
102
RTVSPropertyOp51
 70
     0
102
RTVSPropertyOp52
 70
     0
102
RTVSPropertyOp53
 70
     1
102
RTVSPropertyOp54
 70
     1
102
RTVSPropertyOp55
 70
     1
102
RTVSPropertyOp56
 70
     1
102
RTVSPropertyOp57
 70
     1
102
RTVSPost2010Prop28
280
     0
102
RTVSPost2010PropOp28
 70
     1
102
RTVSPost2010Prop29
280
     1
102
RTVSPost2010PropOp29
 70
     1
102
RTVSPost2010Prop30
280
     1
102
RTVSPost2010PropOp30
 70
     1
102
RTVSPost2010Prop31
280
     0
102
RTVSPost2010PropOp31
 70
     1
102
RTVSPost2010Prop32
280
     0
102
RTVSPost2010PropOp32
 70
     1
102
RTVSPost2010Prop33
280
     0
102
RTVSPost2010PropOp33
 70
     1
102
RTVSPost2010Prop34
280
     0
102
RTVSPost2010PropOp34
 70
     1
102
RTVSPost2010Prop35
280
     0
102
RTVSPost2010PropOp35
 70
     1
102
RTVSPost2010Prop36
280
     0
102
RTVSPost2010PropOp36
 70
     1
102
RTVSPost2010Prop37
 90
       50
102
RTVSPost2010PropOp37
 70
     1
102
RTVSPost2010Prop38
140
0.0
102
RTVSPost2010PropOp38
 70
     1
102
RTVSPost2010Prop39
140
1.0
102
RTVSPost2010PropOp39
 70
     1
102
RTVSPost2010Prop40
 90
        0
102
RTVSPost2010PropOp40
 70
     1
102
RTVSPost2010Prop41ColorIndex
 90
       18
102
RTVSPost2010Prop41ColorRGB
 90
        0
102
RTVSPost2010PropOp41
 70
     1
102
RTVSPost2010Prop42
 90
       50
102
RTVSPost2010PropOp42
 70
     1
102
RTVSPost2010Prop43
 90
        3
102
RTVSPost2010PropOp43
 70
     1
102
RTVSPost2010Prop44ColorIndex
 90
        5
102
RTVSPost2010Prop44ColorRGB
 90
      255
102
RTVSPost2010PropOp44
 70
     1
102
RTVSPost2010Prop45
280
     0
102
RTVSPost2010PropOp45
 70
     1
102
RTVSPost2010Prop46
 90
       50
102
RTVSPost2010PropOp46
 70
     1
102
RTVSPost2010Prop47
 90
       50
102
RTVSPost2010PropOp47
 70
     1
102
RTVSPost2010Prop48
 90
       50
102
RTVSPost2010PropOp48
 70
     1
102
RTVSPost2010Prop49
280
     0
102
RTVSPost2010PropOp49
 70
     1
102
RTVSPost2010Prop50
 90
       50
102
RTVSPost2010PropOp50
 70
     1
102
RTVSPost2010Prop51ColorIndex
 90
      256
102
RTVSPost2010Prop51ColorRGB
 90
-16777216
102
RTVSPost2010PropOp51
 70
     0
102
RTVSPost2010Prop52
140
1.0
102
RTVSPost2010PropOp52
 70
     0
102
RTVSPost2010Prop53
 90
        2
102
RTVSPost2010PropOp53
 70
     1
102
RTVSPost2010Prop54
  1
strokes_ogs.tif
102
RTVSPost2010PropOp54
 70
     1
102
RTVSPost2010Prop55
280
     0
102
RTVSPost2010PropOp55
 70
     1
102
RTVSPost2010Prop56
140
1.0
102
RTVSPost2010PropOp56
 70
     1
102
RTVSPost2010Prop57
140
1.0
102
RTVSPost2010PropOp57
 70
     1
  0
ENDSEC
  0
EOF
