  0
SECTION
  2
HEADER
  9
$ACADVER
  1
AC1018
  9
$ACADMAINTVER
 70
     0
  9
$DWGCODEPAGE
  3
ANSI_932
  9
$INSBASE
 10
0.0
 20
0.0
 30
0.0
  9
$EXTMIN
 10
-2100.0
 20
-1485.0
 30
0.0
  9
$EXTMAX
 10
2100.0
 20
1485.0
 30
0.0
  9
$LIMMIN
 10
-2100.0
 20
-1485.0
  9
$LIMMAX
 10
2100.0
 20
1485.0
  9
$ORTHOMODE
 70
     0
  9
$REGENMODE
 70
     1
  9
$FILLMODE
 70
     1
  9
$QTEXTMODE
 70
     0
  9
$MIRRTEXT
 70
     1
  9
$LTSCALE
 40
10.0
  9
$ATTMODE
 70
     1
  9
$TEXTSIZE
 40
2.5
  9
$TRACEWID
 40
1.0
  9
$TEXTSTYLE
  7
Standard
  9
$CLAYER
  8
0
  9
$CELTYPE
  6
ByLayer
  9
$CECOLOR
 62
   256
  9
$CELTSCALE
 40
1.0
  9
$DISPSILH
 70
     0
  9
$DIMSCALE
 40
1.0
  9
$DIMASZ
 40
2.5
  9
$DIMEXO
 40
0.625
  9
$DIMDLI
 40
3.75
  9
$DIMRND
 40
0.0
  9
$DIMDLE
 40
0.0
  9
$DIMEXE
 40
1.25
  9
$DIMTP
 40
0.0
  9
$DIMTM
 40
0.0
  9
$DIMTXT
 40
2.5
  9
$DIMCEN
 40
2.5
  9
$DIMTSZ
 40
0.0
  9
$DIMTOL
 70
     0
  9
$DIMLIM
 70
     0
  9
$DIMTIH
 70
     0
  9
$DIMTOH
 70
     0
  9
$DIMSE1
 70
     0
  9
$DIMSE2
 70
     0
  9
$DIMTAD
 70
     1
  9
$DIMZIN
 70
     8
  9
$DIMBLK
  1

  9
$DIMASO
 70
     1
  9
$DIMSHO
 70
     1
  9
$DIMPOST
  1

  9
$DIMAPOST
  1

  9
$DIMALT
 70
     0
  9
$DIMALTD
 70
     3
  9
$DIMALTF
 40
0.03937007874016
  9
$DIMLFAC
 40
1.0
  9
$DIMTOFL
 70
     1
  9
$DIMTVP
 40
0.0
  9
$DIMTIX
 70
     0
  9
$DIMSOXD
 70
     0
  9
$DIMSAH
 70
     0
  9
$DIMBLK1
  1

  9
$DIMBLK2
  1

  9
$DIMSTYLE
  2
ISO-25
  9
$DIMCLRD
 70
     0
  9
$DIMCLRE
 70
     0
  9
$DIMCLRT
 70
     0
  9
$DIMTFAC
 40
1.0
  9
$DIMGAP
 40
0.625
  9
$DIMJUST
 70
     0
  9
$DIMSD1
 70
     0
  9
$DIMSD2
 70
     0
  9
$DIMTOLJ
 70
     0
  9
$DIMTZIN
 70
     8
  9
$DIMALTZ
 70
     0
  9
$DIMALTTZ
 70
     0
  9
$DIMUPT
 70
     0
  9
$DIMDEC
 70
     2
  9
$DIMTDEC
 70
     2
  9
$DIMALTU
 70
     2
  9
$DIMALTTD
 70
     3
  9
$DIMTXSTY
  7
Standard
  9
$DIMAUNIT
 70
     0
  9
$DIMADEC
 70
     0
  9
$DIMALTRND
 40
0.0
  9
$DIMAZIN
 70
     0
  9
$DIMDSEP
 70
    44
  9
$DIMATFIT
 70
     3
  9
$DIMFRAC
 70
     0
  9
$DIMLDRBLK
  1

  9
$DIMLUNIT
 70
     2
  9
$DIMLWD
 70
    -2
  9
$DIMLWE
 70
    -2
  9
$DIMTMOVE
 70
     0
  9
$LUNITS
 70
     2
  9
$LUPREC
 70
     4
  9
$SKETCHINC
 40
1.0
  9
$FILLETRAD
 40
10.0
  9
$AUNITS
 70
     0
  9
$AUPREC
 70
     0
  9
$MENU
  1
.
  9
$ELEVATION
 40
0.0
  9
$PELEVATION
 40
0.0
  9
$THICKNESS
 40
0.0
  9
$LIMCHECK
 70
     0
  9
$CHAMFERA
 40
10.0
  9
$CHAMFERB
 40
10.0
  9
$CHAMFERC
 40
20.0
  9
$CHAMFERD
 40
0.0
  9
$SKPOLY
 70
     0
  9
$TDCREATE
 40
2457421.718366459
  9
$TDUCREATE
 40
2457421.343366459
  9
$TDUPDATE
 40
2457421.71836647
  9
$TDUUPDATE
 40
2457421.34336647
  9
$TDINDWG
 40
0.0000000116
  9
$TDUSRTIMER
 40
0.0000000116
  9
$USRTIMER
 70
     1
  9
$ANGBASE
 50
0.0
  9
$ANGDIR
 70
     0
  9
$PDMODE
 70
     0
  9
$PDSIZE
 40
0.0
  9
$PLINEWID
 40
0.0
  9
$SPLFRAME
 70
     0
  9
$SPLINETYPE
 70
     6
  9
$SPLINESEGS
 70
     8
  9
$HANDSEED
  5
338
  9
$SURFTAB1
 70
     6
  9
$SURFTAB2
 70
     6
  9
$SURFTYPE
 70
     6
  9
$SURFU
 70
     6
  9
$SURFV
 70
     6
  9
$UCSBASE
  2

  9
$UCSNAME
  2

  9
$UCSORG
 10
0.0
 20
0.0
 30
0.0
  9
$UCSXDIR
 10
1.0
 20
0.0
 30
0.0
  9
$UCSYDIR
 10
0.0
 20
1.0
 30
0.0
  9
$UCSORTHOREF
  2

  9
$UCSORTHOVIEW
 70
     0
  9
$UCSORGTOP
 10
0.0
 20
0.0
 30
0.0
  9
$UCSORGBOTTOM
 10
0.0
 20
0.0
 30
0.0
  9
$UCSORGLEFT
 10
0.0
 20
0.0
 30
0.0
  9
$UCSORGRIGHT
 10
0.0
 20
0.0
 30
0.0
  9
$UCSORGFRONT
 10
0.0
 20
0.0
 30
0.0
  9
$UCSORGBACK
 10
0.0
 20
0.0
 30
0.0
  9
$PUCSBASE
  2

  9
$PUCSNAME
  2

  9
$PUCSORG
 10
0.0
 20
0.0
 30
0.0
  9
$PUCSXDIR
 10
1.0
 20
0.0
 30
0.0
  9
$PUCSYDIR
 10
0.0
 20
1.0
 30
0.0
  9
$PUCSORTHOREF
  2

  9
$PUCSORTHOVIEW
 70
     0
  9
$PUCSORGTOP
 10
0.0
 20
0.0
 30
0.0
  9
$PUCSORGBOTTOM
 10
0.0
 20
0.0
 30
0.0
  9
$PUCSORGLEFT
 10
0.0
 20
0.0
 30
0.0
  9
$PUCSORGRIGHT
 10
0.0
 20
0.0
 30
0.0
  9
$PUCSORGFRONT
 10
0.0
 20
0.0
 30
0.0
  9
$PUCSORGBACK
 10
0.0
 20
0.0
 30
0.0
  9
$USERI1
 70
     0
  9
$USERI2
 70
     0
  9
$USERI3
 70
     0
  9
$USERI4
 70
     0
  9
$USERI5
 70
     0
  9
$USERR1
 40
0.0
  9
$USERR2
 40
0.0
  9
$USERR3
 40
0.0
  9
$USERR4
 40
0.0
  9
$USERR5
 40
0.0
  9
$WORLDVIEW
 70
     1
  9
$SHADEDGE
 70
     3
  9
$SHADEDIF
 70
    70
  9
$TILEMODE
 70
     1
  9
$MAXACTVP
 70
    64
  9
$PINSBASE
 10
0.0
 20
0.0
 30
0.0
  9
$PLIMCHECK
 70
     0
  9
$PEXTMIN
 10
1.000000000000000E+20
 20
1.000000000000000E+20
 30
1.000000000000000E+20
  9
$PEXTMAX
 10
-1.000000000000000E+20
 20
-1.000000000000000E+20
 30
-1.000000000000000E+20
  9
$PLIMMIN
 10
0.0
 20
0.0
  9
$PLIMMAX
 10
420.0
 20
297.0
  9
$UNITMODE
 70
     0
  9
$VISRETAIN
 70
     1
  9
$PLINEGEN
 70
     0
  9
$PSLTSCALE
 70
     1
  9
$TREEDEPTH
 70
  3020
  9
$CMLSTYLE
  2
Standard
  9
$CMLJUST
 70
     0
  9
$CMLSCALE
 40
20.0
  9
$PROXYGRAPHICS
 70
     1
  9
$MEASUREMENT
 70
     1
  9
$CELWEIGHT
370
    -1
  9
$ENDCAPS
280
     0
  9
$JOINSTYLE
280
     0
  9
$LWDISPLAY
290
     0
  9
$INSUNITS
 70
     4
  9
$HYPERLINKBASE
  1

  9
$STYLESHEET
  1

  9
$XEDIT
290
     1
  9
$CEPSNTYPE
380
     0
  9
$PSTYLEMODE
290
     1
  9
$FINGERPRINTGUID
  2
{E7B684ED-94AF-4507-90D1-D58230D4110B}
  9
$VERSIONGUID
  2
{FAEB1C32-E019-11D5-929B-00C0DF256EC4}
  9
$EXTNAMES
290
     1
  9
$PSVPSCALE
 40
0.0
  9
$OLESTARTUP
290
     0
  9
$SORTENTS
280
   127
  9
$INDEXCTL
280
     0
  9
$HIDETEXT
280
     1
  9
$XCLIPFRAME
290
     0
  9
$HALOGAP
280
     0
  9
$OBSCOLOR
 70
   257
  9
$OBSLTYPE
280
     0
  9
$INTERSECTIONDISPLAY
280
     0
  9
$INTERSECTIONCOLOR
 70
   257
  9
$DIMASSOC
280
     2
  9
$PROJECTNAME
  1

  0
ENDSEC
  0
SECTION
  2
CLASSES
  0
CLASS
  1
ACDBDICTIONARYWDFLT
  2
AcDbDictionaryWithDefault
  3
ObjectDBX Classes
 90
        0
 91
        4
280
     0
281
     0
  0
CLASS
  1
VISUALSTYLE
  2
AcDbVisualStyle
  3
ObjectDBX Classes
 90
     4095
 91
        4
280
     0
281
     0
  0
ENDSEC
  0
SECTION
  2
TABLES
  0
TABLE
  2
VPORT
  5
8
330
0
100
AcDbSymbolTable
 70
     1
  0
VPORT
  5
29
330
8
100
AcDbSymbolTableRecord
100
AcDbViewportTableRecord
  2
*Active
 70
     0
 10
0.0
 20
0.0
 11
1.0
 21
1.0
 12
0.0
 22
0.0
 13
0.0
 23
0.0
 14
10.0
 24
10.0
 15
10.0
 25
10.0
 16
0.0
 26
0.0
 36
1.0
 17
0.0
 27
0.0
 37
0.0
 40
3267.0
 41
1.414141414141414
 42
50.0
 43
0.0
 44
0.0
 50
0.0
 51
0.0
 71
     0
 72
 10000
 73
     1
 74
     3
 75
     0
 76
     0
 77
     0
 78
     0
281
     0
 65
     1
110
0.0
120
0.0
130
0.0
111
1.0
121
0.0
131
0.0
112
0.0
122
1.0
132
0.0
 79
     0
146
0.0
  0
ENDTAB
  0
TABLE
  2
LTYPE
  5
5
330
0
100
AcDbSymbolTable
 70
     4
  0
LTYPE
  5
14
330
5
100
AcDbSymbolTableRecord
100
AcDbLinetypeTableRecord
  2
ByBlock
 70
     0
  3

 72
    65
 73
     0
 40
0.0
  0
LTYPE
  5
15
330
5
100
AcDbSymbolTableRecord
100
AcDbLinetypeTableRecord
  2
ByLayer
 70
     0
  3

 72
    65
 73
     0
 40
0.0
  0
LTYPE
  5
16
330
5
100
AcDbSymbolTableRecord
100
AcDbLinetypeTableRecord
  2
Continuous
 70
     0
  3
Solid line
 72
    65
 73
     0
 40
0.0
  0
LTYPE
  5
3C
330
5
100
AcDbSymbolTableRecord
100
AcDbLinetypeTableRecord
  2
JWW_DASHED3
 70
     0
  3
---  ------  ------  ------  ---
 72
    65
 73
     2
 40
3.386666666666667
 49
2.54
 74
     0
 49
-0.8466666666666667
 74
     0
  0
LTYPE
  5
3D
330
5
100
AcDbSymbolTableRecord
100
AcDbLinetypeTableRecord
  2
JWW_CENTER2
 70
     0
  3
-------------  --  -------------
 72
    65
 73
     4
 40
13.54666666666667
 49
11.00666666666667
 74
     0
 49
-0.8466666666666667
 74
     0
 49
0.8466666666666667
 74
     0
 49
-0.8466666666666667
 74
     0
  0
LTYPE
  5
3E
330
5
100
AcDbSymbolTableRecord
100
AcDbLinetypeTableRecord
  2
JWW_CENTER1
 70
     0
  3
-----  --  ----------  --  -----
 72
    65
 73
     4
 40
6.773333333333333
 49
4.233333333333333
 74
     0
 49
-0.8466666666666667
 74
     0
 49
0.8466666666666667
 74
     0
 49
-0.8466666666666667
 74
     0
  0
ENDTAB
  0
TABLE
  2
LAYER
  5
2
330
0
100
AcDbSymbolTable
 70
    16
  0
LAYER
  5
10
330
2
100
AcDbSymbolTableRecord
100
AcDbLayerTableRecord
  2
0
 70
     0
 62
     7
  6
Continuous
370
    -3
390
F
  0
LAYER
  5
3F
330
2
100
AcDbSymbolTableRecord
100
AcDbLayerTableRecord
  2
D-A
 70
     0
 62
     7
  6
Continuous
370
    -3
390
F
  0
LAYER
  5
40
330
2
100
AcDbSymbolTableRecord
100
AcDbLayerTableRecord
  2
D-9
 70
     0
 62
     7
  6
Continuous
370
    -3
390
F
  0
LAYER
  5
41
330
2
100
AcDbSymbolTableRecord
100
AcDbLayerTableRecord
  2
D-1
 70
     0
 62
     7
  6
Continuous
370
    -3
390
F
  0
LAYER
  5
42
330
2
100
AcDbSymbolTableRecord
100
AcDbLayerTableRecord
  2
D-4
 70
     0
 62
     7
  6
Continuous
370
    -3
390
F
  0
LAYER
  5
43
330
2
100
AcDbSymbolTableRecord
100
AcDbLayerTableRecord
  2
D-5
 70
     0
 62
     7
  6
Continuous
370
    -3
390
F
  0
LAYER
  5
44
330
2
100
AcDbSymbolTableRecord
100
AcDbLayerTableRecord
  2
D-6
 70
     0
 62
     7
  6
Continuous
370
    -3
390
F
  0
LAYER
  5
45
330
2
100
AcDbSymbolTableRecord
100
AcDbLayerTableRecord
  2
D-2
 70
     0
 62
     7
  6
Continuous
370
    -3
390
F
  0
LAYER
  5
46
330
2
100
AcDbSymbolTableRecord
100
AcDbLayerTableRecord
  2
C-2
 70
     0
 62
     7
  6
Continuous
370
    -3
390
F
  0
LAYER
  5
47
330
2
100
AcDbSymbolTableRecord
100
AcDbLayerTableRecord
  2
C-1
 70
     0
 62
     7
  6
Continuous
370
    -3
390
F
  0
LAYER
  5
48
330
2
100
AcDbSymbolTableRecord
100
AcDbLayerTableRecord
  2
C-4
 70
     0
 62
     7
  6
Continuous
370
    -3
390
F
  0
LAYER
  5
49
330
2
100
AcDbSymbolTableRecord
100
AcDbLayerTableRecord
  2
C-5
 70
     0
 62
     7
  6
Continuous
370
    -3
390
F
  0
LAYER
  5
4A
330
2
100
AcDbSymbolTableRecord
100
AcDbLayerTableRecord
  2
C-A
 70
     0
 62
     7
  6
Continuous
370
    -3
390
F
  0
LAYER
  5
4B
330
2
100
AcDbSymbolTableRecord
100
AcDbLayerTableRecord
  2
C-0
 70
     0
 62
     7
  6
Continuous
370
    -3
390
F
  0
LAYER
  5
4C
330
2
100
AcDbSymbolTableRecord
100
AcDbLayerTableRecord
  2
D-0
 70
     0
 62
     7
  6
Continuous
370
    -3
390
F
  0
LAYER
  5
4D
330
2
100
AcDbSymbolTableRecord
100
AcDbLayerTableRecord
  2
F-5ﾚｲﾔ
 70
     0
 62
     7
  6
Continuous
370
    -3
390
F
  0
ENDTAB
  0
TABLE
  2
STYLE
  5
3
330
0
100
AcDbSymbolTable
 70
     2
  0
STYLE
  5
11
330
3
100
AcDbSymbolTableRecord
100
AcDbTextStyleTableRecord
  2
Standard
 70
     0
 40
0.0
 41
1.0
 50
0.0
 71
     0
 42
2.5
  3
txt
  4

1001
ACAD
1000

1071
        0
  0
STYLE
  5
3B
330
3
100
AcDbSymbolTableRecord
100
AcDbTextStyleTableRecord
  2
ＭＳ ゴシック
 70
     0
 40
1.0
 41
1.0
 50
0.0
 71
     0
 42
10.0
  3

  4

1001
ACAD
1000
MS Gothic
1071
    32817
  0
ENDTAB
  0
TABLE
  2
VIEW
  5
6
330
0
100
AcDbSymbolTable
 70
     0
  0
ENDTAB
  0
TABLE
  2
UCS
  5
7
330
0
100
AcDbSymbolTable
 70
     0
  0
ENDTAB
  0
TABLE
  2
APPID
  5
9
330
0
100
AcDbSymbolTable
 70
     1
  0
APPID
  5
12
330
9
100
AcDbSymbolTableRecord
100
AcDbRegAppTableRecord
  2
ACAD
 70
     0
  0
ENDTAB
  0
TABLE
  2
DIMSTYLE
  5
A
330
0
100
AcDbSymbolTable
 70
     1
100
AcDbDimStyleTable
  0
DIMSTYLE
105
27
330
A
100
AcDbSymbolTableRecord
100
AcDbDimStyleTableRecord
  2
ISO-25
 70
     0
 41
2.5
 42
0.625
 43
3.75
 44
1.25
 73
     0
 74
     0
 77
     1
 78
     8
140
2.5
141
2.5
143
0.03937007874016
147
0.625
171
     3
172
     1
271
     2
272
     2
274
     3
278
    44
283
     0
284
     8
340
11
  0
ENDTAB
  0
TABLE
  2
BLOCK_RECORD
  5
1
330
0
100
AcDbSymbolTable
 70
     1
  0
BLOCK_RECORD
  5
1F
330
1
100
AcDbSymbolTableRecord
100
AcDbBlockTableRecord
  2
*Model_Space
340
22
  0
BLOCK_RECORD
  5
1B
330
1
100
AcDbSymbolTableRecord
100
AcDbBlockTableRecord
  2
*Paper_Space
340
1E
  0
BLOCK_RECORD
  5
23
330
1
100
AcDbSymbolTableRecord
100
AcDbBlockTableRecord
  2
*Paper_Space0
340
26
  0
ENDTAB
  0
ENDSEC
  0
SECTION
  2
BLOCKS
  0
BLOCK
  5
20
330
1F
100
AcDbEntity
  8
0
100
AcDbBlockBegin
  2
*Model_Space
 70
     0
 10
0.0
 20
0.0
 30
0.0
  3
*Model_Space
  1

  0
ENDBLK
  5
21
330
1F
100
AcDbEntity
  8
0
100
AcDbBlockEnd
  0
BLOCK
  5
1C
330
1B
100
AcDbEntity
 67
     1
  8
0
100
AcDbBlockBegin
  2
*Paper_Space
 70
     0
 10
0.0
 20
0.0
 30
0.0
  3
*Paper_Space
  1

  0
ENDBLK
  5
1D
330
1B
100
AcDbEntity
 67
     1
  8
0
100
AcDbBlockEnd
  0
BLOCK
  5
24
330
23
100
AcDbEntity
  8
0
100
AcDbBlockBegin
  2
*Paper_Space0
 70
     0
 10
0.0
 20
0.0
 30
0.0
  3
*Paper_Space0
  1

  0
ENDBLK
  5
25
330
23
100
AcDbEntity
  8
0
100
AcDbBlockEnd
  0
ENDSEC
  0
SECTION
  2
ENTITIES
  0
LINE
  5
4E
330
1F
100
AcDbEntity
  8
D-A
  6
Continuous
 62
     3
370
     9
100
AcDbLine
 10
-581.4996667810387
 20
-376.8240521405194
 30
0.0
 11
-583.7501319679052
 21
-376.8240521405194
 31
0.0
  0
LINE
  5
4F
330
1F
100
AcDbEntity
  8
D-A
  6
Continuous
 62
     3
370
     9
100
AcDbLine
 10
-581.4996667810387
 20
-375.574481036212
 30
0.0
 11
-585.0001979518581
 21
-375.574481036212
 31
0.0
  0
LINE
  5
50
330
1F
100
AcDbEntity
  8
D-A
  6
Continuous
 62
     3
370
     9
100
AcDbLine
 10
-581.4996667810387
 20
-356.8243573163006
 30
0.0
 11
-583.7501319679052
 21
-356.8243573163006
 31
0.0
  0
LINE
  5
51
330
1F
100
AcDbEntity
  8
D-A
  6
Continuous
 62
     3
370
     9
100
AcDbLine
 10
-581.4996667810387
 20
-358.0736809807854
 30
0.0
 11
-585.0001979518581
 21
-358.0736809807854
 31
0.0
  0
LINE
  5
52
330
1F
100
AcDbEntity
  8
D-9
  6
Continuous
 62
     4
370
     9
100
AcDbLine
 10
-632.499736064189
 20
-356.6004242768159
 30
0.0
 11
-632.499736064189
 21
-351.8240933804898
 31
0.0
  0
LINE
  5
53
330
1F
100
AcDbEntity
  8
D-9
  6
Continuous
 62
     4
370
     9
100
AcDbLine
 10
-638.7495711043073
 20
-351.8240933804898
 30
0.0
 11
-638.7495711043073
 21
-339.3239284206081
 31
0.0
  0
LINE
  5
54
330
1F
100
AcDbEntity
  8
D-9
  6
Continuous
 62
     4
370
     9
100
AcDbLine
 10
-645.0003959037161
 20
-356.2214701884501
 30
0.0
 11
-645.0003959037161
 21
-339.3239284206081
 31
0.0
  0
LINE
  5
55
330
1F
100
AcDbEntity
  8
D-9
  6
Continuous
 62
     4
370
     9
100
AcDbLine
 10
-675.0001237199112
 20
-356.2214701884501
 30
0.0
 11
-675.0001237199112
 21
-339.3239284206081
 31
0.0
  0
LINE
  5
56
330
1F
100
AcDbEntity
  8
D-9
  6
Continuous
 62
     4
370
     9
100
AcDbLine
 10
-681.2499587600294
 20
-351.8240933804898
 30
0.0
 11
-681.2499587600294
 21
-339.3239284206081
 31
0.0
  0
LINE
  5
57
330
1F
100
AcDbEntity
  8
D-9
  6
Continuous
 62
     4
370
     9
100
AcDbLine
 10
-687.4997938001477
 20
-356.6004242768159
 30
0.0
 11
-687.4997938001477
 21
-351.8240933804898
 31
0.0
  0
LINE
  5
58
330
1F
100
AcDbEntity
  8
D-A
  6
JWW_DASHED3
 62
     3
370
     9
100
AcDbLine
 10
-583.7501319679052
 20
-356.8243573163006
 30
0.0
 11
-583.7501319679052
 21
-376.8240521405194
 31
0.0
  0
LINE
  5
59
330
1F
100
AcDbEntity
  8
D-A
  6
Continuous
 62
     3
370
     9
100
AcDbLine
 10
-583.7501319679052
 20
-376.8240521405194
 30
0.0
 11
-585.0001979518581
 21
-375.574481036212
 31
0.0
  0
LINE
  5
5A
330
1F
100
AcDbEntity
  8
D-A
  6
Continuous
 62
     3
370
     9
100
AcDbLine
 10
-583.7501319679052
 20
-356.8243573163006
 30
0.0
 11
-585.0001979518581
 21
-358.0736809807854
 31
0.0
  0
LINE
  5
5B
330
1F
100
AcDbEntity
  8
D-A
  6
JWW_DASHED3
 62
     3
370
     9
100
AcDbLine
 10
-544.9999422640415
 20
-384.8244002058699
 30
0.0
 11
-544.9999422640415
 21
-364.3241346204603
 31
0.0
  0
LINE
  5
5C
330
1F
100
AcDbEntity
  8
D-A
  6
JWW_CENTER2
 62
     3
370
     9
100
AcDbLine
 10
-527.0045100031672
 20
-366.824019148543
 30
0.0
 11
-587.4230049751898
 21
-366.824019148543
 31
0.0
  0
LINE
  5
5D
330
1F
100
AcDbEntity
  8
D-A
  6
Continuous
 62
     3
370
     9
100
AcDbLine
 10
-581.4996667810387
 20
-321.8239944045608
 30
0.0
 11
-581.4996667810387
 21
-409.3242830843537
 31
0.0
  0
LINE
  5
5E
330
1F
100
AcDbEntity
  8
D-1
  6
Continuous
 62
     2
370
     9
100
AcDbLine
 10
-569.9999010240708
 20
-319.3238624366553
 30
0.0
 11
-585.0001979518581
 21
-319.3238624366553
 31
0.0
  0
LINE
  5
5F
330
1F
100
AcDbEntity
  8
D-A
  6
Continuous
 62
     3
370
     9
100
AcDbLine
 10
-569.9999010240708
 20
-339.3236809807854
 30
0.0
 11
-527.322717615076
 21
-382.0016067092483
 31
0.0
  0
LINE
  5
60
330
1F
100
AcDbEntity
  8
D-A
  6
Continuous
 62
     3
370
     9
100
AcDbLine
 10
-509.6448743665539
 20
-389.3242171004011
 30
0.0
 11
-429.9996865762245
 21
-389.3242171004011
 31
0.0
  0
LINE
  5
61
330
1F
100
AcDbEntity
  8
D-A
  6
Continuous
 62
     3
370
     9
100
AcDbLine
 10
-419.9996535842482
 20
-399.3242500923775
 30
0.0
 11
-419.9996535842482
 21
-439.3243820602829
 31
0.0
  0
LINE
  5
62
330
1F
100
AcDbEntity
  8
D-A
  6
Continuous
 62
     3
370
     9
100
AcDbLine
 10
-419.9996535842482
 20
-439.3243820602829
 30
0.0
 11
-544.9999422640415
 21
-439.3243820602829
 31
0.0
  0
LINE
  5
63
330
1F
100
AcDbEntity
  8
D-9
  6
Continuous
 62
     4
370
     9
100
AcDbLine
 10
-632.499736064189
 20
-351.8240933804898
 30
0.0
 11
-638.7495711043073
 21
-351.8240933804898
 31
0.0
  0
LINE
  5
64
330
1F
100
AcDbEntity
  8
D-A
  6
Continuous
 62
     3
370
     9
100
AcDbLine
 10
-547.9292586043073
 20
-411.3953543998099
 30
0.0
 11
-569.9999010240708
 21
-389.3242171004011
 31
0.0
  0
LINE
  5
65
330
1F
100
AcDbEntity
  8
D-9
  6
Continuous
 62
     4
370
     9
100
AcDbLine
 10
-645.0003959037161
 20
-339.3239284206081
 30
0.0
 11
-675.0001237199112
 21
-339.3239284206081
 31
0.0
  0
LINE
  5
66
330
1F
100
AcDbEntity
  8
D-9
  6
Continuous
 62
     4
370
     9
100
AcDbLine
 10
-681.2499587600294
 20
-351.8240933804898
 30
0.0
 11
-687.4997938001477
 21
-351.8240933804898
 31
0.0
  0
LINE
  5
67
330
1F
100
AcDbEntity
  8
D-9
  6
Continuous
 62
     4
370
     9
100
AcDbLine
 10
-600.0
 20
-339.3239284206081
 30
0.0
 11
-605.0002639358106
 21
-334.3241593644424
 31
0.0
  0
LINE
  5
68
330
1F
100
AcDbEntity
  8
D-9
  6
Continuous
 62
     4
370
     9
100
AcDbLine
 10
-614.9998020481419
 20
-339.3239284206081
 30
0.0
 11
-620.0000659839526
 21
-334.3241593644424
 31
0.0
  0
LINE
  5
69
330
1F
100
AcDbEntity
  8
D-9
  6
Continuous
 62
     4
370
     9
100
AcDbLine
 10
-629.9996040962835
 20
-339.3239284206081
 30
0.0
 11
-635.0003629117398
 21
-334.3241593644424
 31
0.0
  0
LINE
  5
6A
330
1F
100
AcDbEntity
  8
D-9
  6
Continuous
 62
     4
370
     9
100
AcDbLine
 10
-638.7495711043073
 20
-345.5737634607263
 30
0.0
 11
-649.9997938001477
 21
-334.3241593644424
 31
0.0
  0
LINE
  5
6B
330
1F
100
AcDbEntity
  8
D-9
  6
Continuous
 62
     4
370
     9
100
AcDbLine
 10
-640.1691333667651
 20
-359.1551167256122
 30
0.0
 11
-645.0003959037161
 21
-354.3242253483952
 31
0.0
  0
LINE
  5
6C
330
1F
100
AcDbEntity
  8
D-9
  6
Continuous
 62
     4
370
     9
100
AcDbLine
 10
-652.8422587626687
 20
-361.4817933778504
 30
0.0
 11
-656.5825591216217
 21
-357.7414930188978
 31
0.0
  0
LINE
  5
6D
330
1F
100
AcDbEntity
  8
D-9
  6
Continuous
 62
     4
370
     9
100
AcDbLine
 10
-667.9188908757391
 20
-361.4045921531883
 30
0.0
 11
-672.6327432168495
 21
-356.6911109718116
 31
0.0
  0
LINE
  5
6E
330
1F
100
AcDbEntity
  8
D-9
  6
Continuous
 62
     4
370
     9
100
AcDbLine
 10
-659.9998267921239
 20
-339.3239284206081
 30
0.0
 11
-665.0000907279349
 21
-334.3241593644424
 31
0.0
  0
LINE
  5
6F
330
1F
100
AcDbEntity
  8
D-9
  6
Continuous
 62
     4
370
     9
100
AcDbLine
 10
-675.0001237199112
 20
-339.3239284206081
 30
0.0
 11
-680.0003876557221
 21
-334.3241593644424
 31
0.0
  0
LINE
  5
70
330
1F
100
AcDbEntity
  8
D-9
  6
Continuous
 62
     4
370
     9
100
AcDbLine
 10
-675.0001237199112
 20
-354.3242253483952
 30
0.0
 11
-681.2499587600294
 21
-348.0738954286317
 31
0.0
  0
LINE
  5
71
330
1F
100
AcDbEntity
  8
D-9
  6
Continuous
 62
     4
370
     9
100
AcDbLine
 10
-689.9999257680531
 20
-339.3239284206081
 30
0.0
 11
-695.0001897038641
 21
-334.3241593644424
 31
0.0
  0
LINE
  5
72
330
1F
100
AcDbEntity
  8
D-9
  6
Continuous
 62
     4
370
     9
100
AcDbLine
 10
-600.0
 20
-334.3241593644424
 30
0.0
 11
-724.9997938001477
 21
-334.3241593644424
 31
0.0
  0
LINE
  5
73
330
1F
100
AcDbEntity
  8
D-1
  6
Continuous
 62
     2
370
     9
100
AcDbLine
 10
-560.0003629117398
 20
-309.3243243243242
 30
0.0
 11
-595.0002309438344
 21
-309.3243243243242
 31
0.0
  0
LINE
  5
74
330
1F
100
AcDbEntity
  8
D-1
  6
Continuous
 62
     2
370
     9
100
AcDbLine
 10
-661.5000544367609
 20
-412.8243193755279
 30
0.0
 11
-658.499970307221
 21
-412.8243193755279
 31
0.0
  0
LINE
  5
75
330
1F
100
AcDbEntity
  8
D-1
  6
Continuous
 62
     2
370
     9
100
AcDbLine
 10
-658.499970307221
 20
-418.3240405933276
 30
0.0
 11
-661.5000544367609
 21
-418.3240405933276
 31
0.0
  0
LINE
  5
76
330
1F
100
AcDbEntity
  8
D-1
  6
Continuous
 62
     2
370
     9
100
AcDbLine
 10
-661.5000544367609
 20
-418.3240405933276
 30
0.0
 11
-661.5000544367609
 21
-419.3243160763302
 31
0.0
  0
LINE
  5
77
330
1F
100
AcDbEntity
  8
D-1
  6
Continuous
 62
     2
370
     9
100
AcDbLine
 10
-658.499970307221
 20
-418.3240405933276
 30
0.0
 11
-658.499970307221
 21
-419.3243160763302
 31
0.0
  0
LINE
  5
78
330
1F
100
AcDbEntity
  8
D-1
  6
Continuous
 62
     2
370
     9
100
AcDbLine
 10
-658.499970307221
 20
-419.3243160763302
 30
0.0
 11
-560.0003629117398
 21
-419.3243160763302
 31
0.0
  0
LINE
  5
79
330
1F
100
AcDbEntity
  8
D-1
  6
Continuous
 62
     2
370
     9
100
AcDbLine
 10
-595.0002309438344
 20
-309.3243243243242
 30
0.0
 11
-595.0002309438344
 21
-339.3239284206081
 31
0.0
  0
LINE
  5
7A
330
1F
100
AcDbEntity
  8
D-1
  6
Continuous
 62
     2
370
     9
100
AcDbLine
 10
-595.0002309438344
 20
-339.3239284206081
 30
0.0
 11
-633.7498020481419
 21
-339.3239284206081
 31
0.0
  0
LINE
  5
7B
330
1F
100
AcDbEntity
  8
D-1
  6
Continuous
 62
     2
370
     9
100
AcDbLine
 10
-633.7498020481419
 20
-346.8238294446791
 30
0.0
 11
-600.0
 21
-346.8238294446791
 31
0.0
  0
LINE
  5
7C
330
1F
100
AcDbEntity
  8
D-1
  6
Continuous
 62
     2
370
     9
100
AcDbLine
 10
-595.0002309438344
 20
-351.8240933804898
 30
0.0
 11
-595.0002309438344
 21
-406.8241511164484
 31
0.0
  0
LINE
  5
7D
330
1F
100
AcDbEntity
  8
D-1
  6
Continuous
 62
     2
370
     9
100
AcDbLine
 10
-600.0
 20
-411.823920172614
 30
0.0
 11
-658.499970307221
 21
-411.823920172614
 31
0.0
  0
LINE
  5
7E
330
1F
100
AcDbEntity
  8
D-1
  6
Continuous
 62
     2
370
     9
100
AcDbLine
 10
-658.499970307221
 20
-411.823920172614
 30
0.0
 11
-658.499970307221
 21
-412.8243193755279
 31
0.0
  0
LINE
  5
7F
330
1F
100
AcDbEntity
  8
D-1
  6
Continuous
 62
     2
370
     9
100
AcDbLine
 10
-661.5000544367609
 20
-412.8243193755279
 30
0.0
 11
-661.5000544367609
 21
-411.823920172614
 31
0.0
  0
LINE
  5
80
330
1F
100
AcDbEntity
  8
D-1
  6
Continuous
 62
     2
370
     9
100
AcDbLine
 10
-661.5000544367609
 20
-411.823920172614
 30
0.0
 11
-709.9999917520057
 21
-411.823920172614
 31
0.0
  0
LINE
  5
81
330
1F
100
AcDbEntity
  8
D-1
  6
Continuous
 62
     2
370
     9
100
AcDbLine
 10
-715.0002556878167
 20
-406.8241511164484
 30
0.0
 11
-715.0002556878167
 21
-394.3239861565667
 31
0.0
  0
LINE
  5
82
330
1F
100
AcDbEntity
  8
D-1
  6
Continuous
 62
     2
370
     9
100
AcDbLine
 10
-709.9999917520057
 20
-389.3242171004011
 30
0.0
 11
-695.0001897038641
 21
-389.3242171004011
 31
0.0
  0
LINE
  5
83
330
1F
100
AcDbEntity
  8
D-1
  6
Continuous
 62
     2
370
     9
100
AcDbLine
 10
-689.9999257680531
 20
-384.3239531645904
 30
0.0
 11
-689.9999257680531
 21
-346.8238294446791
 31
0.0
  0
LINE
  5
84
330
1F
100
AcDbEntity
  8
D-1
  6
Continuous
 62
     2
370
     9
100
AcDbLine
 10
-689.9999257680531
 20
-346.8238294446791
 30
0.0
 11
-686.249727816195
 21
-346.8238294446791
 31
0.0
  0
LINE
  5
85
330
1F
100
AcDbEntity
  8
D-1
  6
Continuous
 62
     2
370
     9
100
AcDbLine
 10
-686.249727816195
 20
-339.3239284206081
 30
0.0
 11
-724.9997938001477
 21
-339.3239284206081
 31
0.0
  0
LINE
  5
86
330
1F
100
AcDbEntity
  8
D-1
  6
Continuous
 62
     2
370
     9
100
AcDbLine
 10
-697.4998267921239
 20
-339.3239284206081
 30
0.0
 11
-699.9999587600294
 21
-343.3239168734162
 31
0.0
  0
LINE
  5
87
330
1F
100
AcDbEntity
  8
D-1
  6
Continuous
 62
     2
370
     9
100
AcDbLine
 10
-699.9999587600294
 20
-343.3239168734162
 30
0.0
 11
-697.4998267921239
 21
-347.3242764859586
 31
0.0
  0
LINE
  5
88
330
1F
100
AcDbEntity
  8
D-1
  6
Continuous
 62
     2
370
     9
100
AcDbLine
 10
-697.4998267921239
 20
-347.3242764859586
 30
0.0
 11
-699.9999587600294
 21
-351.3242649387668
 31
0.0
  0
LINE
  5
89
330
1F
100
AcDbEntity
  8
D-1
  6
Continuous
 62
     2
370
     9
100
AcDbLine
 10
-699.9999587600294
 20
-351.3242649387668
 30
0.0
 11
-697.4998267921239
 21
-355.3241296716638
 31
0.0
  0
LINE
  5
8A
330
1F
100
AcDbEntity
  8
D-1
  6
Continuous
 62
     2
370
     9
100
AcDbLine
 10
-697.4998267921239
 20
-355.3241296716638
 30
0.0
 11
-699.9999587600294
 21
-359.3241181244721
 31
0.0
  0
LINE
  5
8B
330
1F
100
AcDbEntity
  8
D-1
  6
Continuous
 62
     2
370
     9
100
AcDbLine
 10
-699.9999587600294
 20
-359.3241181244721
 30
0.0
 11
-697.4998267921239
 21
-363.323982857369
 31
0.0
  0
LINE
  5
8C
330
1F
100
AcDbEntity
  8
D-1
  6
Continuous
 62
     2
370
     9
100
AcDbLine
 10
-697.4998267921239
 20
-363.323982857369
 30
0.0
 11
-699.9999587600294
 21
-367.323847590266
 31
0.0
  0
LINE
  5
8D
330
1F
100
AcDbEntity
  8
D-1
  6
Continuous
 62
     2
370
     9
100
AcDbLine
 10
-699.9999587600294
 20
-367.323847590266
 30
0.0
 11
-697.4998267921239
 21
-371.3243309227195
 31
0.0
  0
LINE
  5
8E
330
1F
100
AcDbEntity
  8
D-1
  6
Continuous
 62
     2
370
     9
100
AcDbLine
 10
-697.4998267921239
 20
-371.3243309227195
 30
0.0
 11
-699.9999587600294
 21
-375.3241956556166
 31
0.0
  0
LINE
  5
8F
330
1F
100
AcDbEntity
  8
D-1
  6
Continuous
 62
     2
370
     9
100
AcDbLine
 10
-699.9999587600294
 20
-375.3241956556166
 30
0.0
 11
-697.4998267921239
 21
-379.3241841084247
 31
0.0
  0
LINE
  5
90
330
1F
100
AcDbEntity
  8
D-1
  6
Continuous
 62
     2
370
     9
100
AcDbLine
 10
-717.5003876557221
 20
-379.3241841084247
 30
0.0
 11
-715.0002556878167
 21
-375.3241956556166
 31
0.0
  0
LINE
  5
91
330
1F
100
AcDbEntity
  8
D-1
  6
Continuous
 62
     2
370
     9
100
AcDbLine
 10
-715.0002556878167
 20
-375.3241956556166
 30
0.0
 11
-717.5003876557221
 21
-371.3243309227195
 31
0.0
  0
LINE
  5
92
330
1F
100
AcDbEntity
  8
D-1
  6
Continuous
 62
     2
370
     9
100
AcDbLine
 10
-717.5003876557221
 20
-371.3243309227195
 30
0.0
 11
-715.0002556878167
 21
-367.323847590266
 31
0.0
  0
LINE
  5
93
330
1F
100
AcDbEntity
  8
D-1
  6
Continuous
 62
     2
370
     9
100
AcDbLine
 10
-715.0002556878167
 20
-367.323847590266
 30
0.0
 11
-717.5003876557221
 21
-363.323982857369
 31
0.0
  0
LINE
  5
94
330
1F
100
AcDbEntity
  8
D-1
  6
Continuous
 62
     2
370
     9
100
AcDbLine
 10
-717.5003876557221
 20
-363.323982857369
 30
0.0
 11
-715.0002556878167
 21
-359.3241181244721
 31
0.0
  0
LINE
  5
95
330
1F
100
AcDbEntity
  8
D-1
  6
Continuous
 62
     2
370
     9
100
AcDbLine
 10
-715.0002556878167
 20
-359.3241181244721
 30
0.0
 11
-717.5003876557221
 21
-355.3241296716638
 31
0.0
  0
LINE
  5
96
330
1F
100
AcDbEntity
  8
D-1
  6
Continuous
 62
     2
370
     9
100
AcDbLine
 10
-717.5003876557221
 20
-355.3241296716638
 30
0.0
 11
-715.0002556878167
 21
-351.3242649387668
 31
0.0
  0
LINE
  5
97
330
1F
100
AcDbEntity
  8
D-1
  6
Continuous
 62
     2
370
     9
100
AcDbLine
 10
-715.0002556878167
 20
-351.3242649387668
 30
0.0
 11
-717.5003876557221
 21
-347.3242764859586
 31
0.0
  0
LINE
  5
98
330
1F
100
AcDbEntity
  8
D-1
  6
Continuous
 62
     2
370
     9
100
AcDbLine
 10
-717.5003876557221
 20
-347.3242764859586
 30
0.0
 11
-715.0002556878167
 21
-343.3239168734162
 31
0.0
  0
LINE
  5
99
330
1F
100
AcDbEntity
  8
D-1
  6
Continuous
 62
     2
370
     9
100
AcDbLine
 10
-715.0002556878167
 20
-343.3239168734162
 30
0.0
 11
-717.5003876557221
 21
-339.3239284206081
 31
0.0
  0
LINE
  5
9A
330
1F
100
AcDbEntity
  8
D-1
  6
Continuous
 62
     2
370
     9
100
AcDbLine
 10
-724.9997938001477
 20
-339.3239284206081
 30
0.0
 11
-724.9997938001477
 21
-419.3243160763302
 31
0.0
  0
LINE
  5
9B
330
1F
100
AcDbEntity
  8
D-1
  6
Continuous
 62
     2
370
     9
100
AcDbLine
 10
-724.9997938001477
 20
-419.3243160763302
 30
0.0
 11
-661.5000544367609
 21
-419.3243160763302
 31
0.0
  0
LINE
  5
9C
330
1F
100
AcDbEntity
  8
D-1
  6
Continuous
 62
     2
370
     9
100
AcDbLine
 10
-560.0003629117398
 20
-419.3243160763302
 30
0.0
 11
-560.0003629117398
 21
-404.324019148543
 31
0.0
  0
LINE
  5
9D
330
1F
100
AcDbEntity
  8
D-9
  6
Continuous
 62
     4
370
     9
100
AcDbLine
 10
-700.6000003299198
 20
-339.3239284206081
 30
0.0
 11
-705.6002642657304
 21
-334.3241593644424
 31
0.0
  0
LINE
  5
9E
330
1F
100
AcDbEntity
  8
D-9
  6
Continuous
 62
     4
370
     9
100
AcDbLine
 10
-711.2000748917862
 20
-339.3239284206081
 30
0.0
 11
-716.2003388275971
 21
-334.3241593644424
 31
0.0
  0
LINE
  5
9F
330
1F
100
AcDbEntity
  8
D-1
  6
Continuous
 62
     2
370
     9
100
AcDbLine
 10
-570.0003959037161
 20
-409.3242830843537
 30
0.0
 11
-585.0001979518581
 21
-409.3242830843537
 31
0.0
  0
LINE
  5
A0
330
1F
100
AcDbEntity
  8
D-1
  6
Continuous
 62
     2
370
     9
100
AcDbLine
 10
-585.0001979518581
 20
-409.3242830843537
 30
0.0
 11
-585.0001979518581
 21
-319.3238624366553
 31
0.0
  0
LINE
  5
A1
330
1F
100
AcDbEntity
  8
D-A
  6
Continuous
 62
     3
370
     9
100
AcDbLine
 10
-570.0003959037161
 20
-321.8239944045608
 30
0.0
 11
-570.0003959037161
 21
-339.3236809807854
 31
0.0
  0
LINE
  5
A2
330
1F
100
AcDbEntity
  8
D-1
  6
Continuous
 62
     2
370
     9
100
AcDbLine
 10
-560.0003629117398
 20
-324.3241263724661
 30
0.0
 11
-560.0003629117398
 21
-309.3243243243242
 31
0.0
  0
LINE
  5
A3
330
1F
100
AcDbEntity
  8
D-A
  6
Continuous
 62
     3
370
     9
100
AcDbLine
 10
-419.9996535842482
 20
-427.8241214236697
 30
0.0
 11
-544.9999422640415
 21
-427.8241214236697
 31
0.0
  0
LINE
  5
A4
330
1F
100
AcDbEntity
  8
D-A
  6
Continuous
 62
     3
370
     9
100
AcDbLine
 10
-544.9999422640415
 20
-364.3241346204603
 30
0.0
 11
-544.9999422640415
 21
-348.8241329708615
 31
0.0
  0
LINE
  5
A5
330
1F
100
AcDbEntity
  8
D-A
  6
JWW_DASHED3
 62
     3
370
     9
100
AcDbLine
 10
-569.9999010240708
 20
-389.3242171004011
 30
0.0
 11
-569.9999010240708
 21
-339.3236809807854
 31
0.0
  0
LINE
  5
A6
330
1F
100
AcDbEntity
  8
D-1
  6
Continuous
 62
     2
370
     9
100
AcDbLine
 10
-717.5003876557221
 20
-379.3241841084247
 30
0.0
 11
-697.4998267921239
 21
-379.3241841084247
 31
0.0
  0
LINE
  5
A7
330
1F
100
AcDbEntity
  8
D-A
  6
Continuous
 62
     3
370
     9
100
AcDbLine
 10
-538.4999455632391
 20
-348.8241329708615
 30
0.0
 11
-544.9999422640415
 21
-348.8241329708615
 31
0.0
  0
LINE
  5
A8
330
1F
100
AcDbEntity
  8
D-A
  6
JWW_DASHED3
 62
     3
370
     9
100
AcDbLine
 10
-538.4999455632391
 20
-384.8244002058699
 30
0.0
 11
-544.9999422640415
 21
-384.8244002058699
 31
0.0
  0
LINE
  5
A9
330
1F
100
AcDbEntity
  8
D-A
  6
Continuous
 62
     3
370
     9
100
AcDbLine
 10
-531.9998251425252
 20
-355.3241296716638
 30
0.0
 11
-531.9998251425252
 21
-377.324499181799
 31
0.0
  0
LINE
  5
AA
330
1F
100
AcDbEntity
  8
D-A
  6
JWW_DASHED3
 62
     3
370
     9
100
AcDbLine
 10
-531.9998251425252
 20
-378.3242797851562
 30
0.0
 11
-531.9998251425252
 21
-377.324499181799
 31
0.0
  0
LINE
  5
AB
330
1F
100
AcDbEntity
  8
D-A
  6
Continuous
 62
     3
370
     9
100
AcDbLine
 10
-544.9999422640415
 20
-356.8243573163006
 30
0.0
 11
-552.4999670080238
 21
-356.8243573163006
 31
0.0
  0
LINE
  5
AC
330
1F
100
AcDbEntity
  8
D-A
  6
Continuous
 62
     3
370
     9
100
AcDbLine
 10
-544.9999422640415
 20
-358.0736809807854
 30
0.0
 11
-551.2499010240708
 21
-358.0736809807854
 31
0.0
  0
LINE
  5
AD
330
1F
100
AcDbEntity
  8
D-A
  6
JWW_DASHED3
 62
     3
370
     9
100
AcDbLine
 10
-552.4999670080238
 20
-356.8243573163006
 30
0.0
 11
-581.4996667810387
 21
-356.8243573163006
 31
0.0
  0
LINE
  5
AE
330
1F
100
AcDbEntity
  8
D-A
  6
JWW_DASHED3
 62
     3
370
     9
100
AcDbLine
 10
-551.2499010240708
 20
-358.0736809807854
 30
0.0
 11
-581.4996667810387
 21
-358.0736809807854
 31
0.0
  0
LINE
  5
AF
330
1F
100
AcDbEntity
  8
D-A
  6
JWW_DASHED3
 62
     3
370
     9
100
AcDbLine
 10
-544.9999422640415
 20
-375.574481036212
 30
0.0
 11
-581.4996667810387
 21
-375.574481036212
 31
0.0
  0
LINE
  5
B0
330
1F
100
AcDbEntity
  8
D-A
  6
JWW_DASHED3
 62
     3
370
     9
100
AcDbLine
 10
-544.9999422640415
 20
-376.8240521405194
 30
0.0
 11
-581.4996667810387
 21
-376.8240521405194
 31
0.0
  0
LINE
  5
B1
330
1F
100
AcDbEntity
  8
D-4
  6
Continuous
 62
     7
370
     9
100
AcDbLine
 10
-1297.668642611117
 20
28.54275265255495
 30
0.0
 11
-560.0008577913852
 21
28.54275265255495
 31
0.0
  0
LINE
  5
B2
330
1F
100
AcDbEntity
  8
D-4
  6
Continuous
 62
     7
370
     9
100
AcDbLine
 10
-1297.668642611117
 20
-190.9053163270693
 30
0.0
 11
-725.0007835594383
 21
-190.9053163270693
 31
0.0
  0
LINE
  5
B3
330
1F
100
AcDbEntity
  8
D-4
  6
Continuous
 62
     7
370
     9
100
AcDbLine
 10
-725.0007835594383
 20
-296.3687463708825
 30
0.0
 11
-725.0007835594383
 21
-187.9047373178841
 31
0.0
  0
LINE
  5
B4
330
1F
100
AcDbEntity
  8
D-4
  6
Continuous
 62
     7
370
     9
100
AcDbLine
 10
-725.0007835594383
 20
-190.9053163270693
 30
0.0
 11
-600.0
 21
-190.9053163270693
 31
0.0
  0
LINE
  5
B5
330
1F
100
AcDbEntity
  8
D-4
  6
Continuous
 62
     7
370
     9
100
AcDbLine
 10
-600.0
 20
-296.3687463708825
 30
0.0
 11
-600.0
 21
-79.15332691089532
 31
0.0
  0
LINE
  5
B6
330
1F
100
AcDbEntity
  8
D-4
  6
Continuous
 62
     7
370
     9
100
AcDbLine
 10
-594.999736064189
 20
-296.3687463708825
 30
0.0
 11
-594.999736064189
 21
-79.15332691089532
 31
0.0
  0
LINE
  5
B7
330
1F
100
AcDbEntity
  8
D-4
  6
Continuous
 62
     7
370
     9
100
AcDbLine
 10
-560.0008577913852
 20
-296.3687463708825
 30
0.0
 11
-560.0008577913852
 21
31.54333166173984
 31
0.0
  0
LINE
  5
B8
330
1F
100
AcDbEntity
  8
D-5
  6
Continuous
 62
     7
370
     9
100
AcDbLine
 10
-475.4767752982474
 20
-201.2755192937078
 30
0.0
 11
13.86009422508465
 21
-201.2755192937078
 31
0.0
  0
LINE
  5
B9
330
1F
100
AcDbEntity
  8
D-4
  6
Continuous
 62
     7
370
     9
100
AcDbLine
 10
-870.4833984375
 20
-419.3243160763302
 30
0.0
 11
-870.4833984375
 21
-309.3243243243242
 31
0.0
  0
LINE
  5
BA
330
1F
100
AcDbEntity
  8
D-4
  6
Continuous
 62
     7
370
     9
100
AcDbLine
 10
-749.5210802232896
 20
-419.3243160763302
 30
0.0
 11
-873.4833588471282
 21
-419.3243160763302
 31
0.0
  0
LINE
  5
BB
330
1F
100
AcDbEntity
  8
D-4
  6
Continuous
 62
     7
370
     9
100
AcDbLine
 10
-411.4840120882602
 20
-389.3247119800463
 30
0.0
 11
-333.9505994642101
 21
-389.3247119800463
 31
0.0
  0
LINE
  5
BC
330
1F
100
AcDbEntity
  8
D-4
  6
Continuous
 62
     7
370
     9
100
AcDbLine
 10
-411.4840120882602
 20
-439.3243820602829
 30
0.0
 11
-333.9505994642101
 21
-439.3243820602829
 31
0.0
  0
LINE
  5
BD
330
1F
100
AcDbEntity
  8
D-4
  6
Continuous
 62
     7
370
     9
100
AcDbLine
 10
-559.9998680320946
 20
-502.3554703995989
 30
0.0
 11
-420.0001484638935
 21
-502.3554703995989
 31
0.0
  0
LINE
  5
BE
330
1F
100
AcDbEntity
  8
D-4
  6
Continuous
 62
     7
370
     9
100
AcDbLine
 10
-420.0001484638935
 20
-450.4853408401077
 30
0.0
 11
-420.0001484638935
 21
-505.3555545291384
 31
0.0
  0
LINE
  5
BF
330
1F
100
AcDbEntity
  8
D-4
  6
Continuous
 62
     7
370
     9
100
AcDbLine
 10
-559.9998680320946
 20
-430.4104861697634
 30
0.0
 11
-559.9998680320946
 21
-505.3555545291384
 31
0.0
  0
LINE
  5
C0
330
1F
100
AcDbEntity
  8
D-4
  6
Continuous
 62
     7
370
     9
100
AcDbLine
 10
-614.522243190456
 20
-309.3243243243242
 30
0.0
 11
-873.4833588471282
 21
-309.3243243243242
 31
0.0
  0
LINE
  5
C1
330
1F
100
AcDbEntity
  8
D-4
  6
Continuous
 62
     7
370
     9
100
AcDbLine
 10
-411.4840120882602
 20
-389.3247119800463
 30
0.0
 11
-333.9505994642101
 21
-389.3247119800463
 31
0.0
  0
LINE
  5
C2
330
1F
100
AcDbEntity
  8
D-4
  6
Continuous
 62
     7
370
     9
100
AcDbLine
 10
-411.4840120882602
 20
-439.3243820602829
 30
0.0
 11
-333.9505994642101
 21
-439.3243820602829
 31
0.0
  0
LINE
  5
C3
330
1F
100
AcDbEntity
  8
D-4
  6
Continuous
 62
     7
370
     9
100
AcDbLine
 10
-420.0001484638935
 20
-450.4853408401077
 30
0.0
 11
-420.0001484638935
 21
-505.3555545291384
 31
0.0
  0
LINE
  5
C4
330
1F
100
AcDbEntity
  8
D-4
  6
Continuous
 62
     7
370
     9
100
AcDbLine
 10
-559.9998680320946
 20
-430.4104861697634
 30
0.0
 11
-559.9998680320946
 21
-505.3555545291384
 31
0.0
  0
LINE
  5
C5
330
1F
100
AcDbEntity
  8
D-6
  6
Continuous
 62
     6
370
     9
100
AcDbLine
 10
-560.0008577913852
 20
-309.3243243243242
 30
0.0
 11
-160.0000329919763
 21
-309.3243243243242
 31
0.0
  0
LINE
  5
C6
330
1F
100
AcDbEntity
  8
D-4
  6
Continuous
 62
     7
370
     9
100
AcDbLine
 10
-725.0007835594383
 20
-714.9432702966637
 30
0.0
 11
-575.0006598395269
 21
-714.9432702966637
 31
0.0
  0
LINE
  5
C7
330
1F
100
AcDbEntity
  8
D-4
  6
Continuous
 62
     7
370
     9
100
AcDbLine
 10
-53.31561114336978
 20
-559.3245305241765
 30
0.0
 11
-53.31561114336978
 21
-309.3243243243242
 31
0.0
  0
LINE
  5
C8
330
1F
100
AcDbEntity
  8
D-4
  6
Continuous
 62
     7
370
     9
100
AcDbLine
 10
-148.9707740577489
 20
-309.3243243243242
 30
0.0
 11
-50.31552701383021
 21
-309.3243243243242
 31
0.0
  0
LINE
  5
C9
330
1F
100
AcDbEntity
  8
D-6
  6
Continuous
 62
     6
370
     9
100
AcDbLine
 10
-575.0006598395269
 20
-559.3245305241765
 30
0.0
 11
-575.0006598395269
 21
-809.3241799844277
 31
0.0
  0
LINE
  5
CA
330
1F
100
AcDbEntity
  8
D-6
  6
JWW_DASHED3
 62
     6
370
     9
100
AcDbLine
 10
-481.4997080210091
 20
-686.8244562922297
 30
0.0
 11
-481.4997080210091
 21
-559.3245305241765
 31
0.0
  0
LINE
  5
CB
330
1F
100
AcDbEntity
  8
D-6
  6
JWW_DASHED3
 62
     6
370
     9
100
AcDbLine
 10
-436.499312117293
 20
-559.3245305241765
 30
0.0
 11
-436.499312117293
 21
-686.8244562922297
 31
0.0
  0
LINE
  5
CC
330
1F
100
AcDbEntity
  8
D-6
  6
Continuous
 62
     6
370
     9
100
AcDbLine
 10
-325.00094851932
 20
-459.3245099041912
 30
0.0
 11
-160.0000329919763
 21
-459.3245099041912
 31
0.0
  0
LINE
  5
CD
330
1F
100
AcDbEntity
  8
D-6
  6
Continuous
 62
     6
370
     9
100
AcDbLine
 10
-560.0008577913852
 20
-804.4735552813556
 30
0.0
 11
-214.8497710356841
 21
-459.3245099041912
 31
0.0
  0
LINE
  5
CE
330
1F
100
AcDbEntity
  8
D-6
  6
Continuous
 62
     6
370
     9
100
AcDbLine
 10
-560.0008577913852
 20
-797.401230270798
 30
0.0
 11
-221.9240755648227
 21
-459.3245099041912
 31
0.0
  0
LINE
  5
CF
330
1F
100
AcDbEntity
  8
D-6
  6
Continuous
 62
     6
370
     9
100
AcDbLine
 10
-560.0008577913852
 20
-790.3328642974029
 30
0.0
 11
-328.9910393792229
 21
-559.3245305241765
 31
0.0
  0
LINE
  5
D0
330
1F
100
AcDbEntity
  8
D-6
  6
Continuous
 62
     6
370
     9
100
AcDbLine
 10
-325.00094851932
 20
-459.3245099041912
 30
0.0
 11
-325.00094851932
 21
-559.3245305241765
 31
0.0
  0
LINE
  5
D1
330
1F
100
AcDbEntity
  8
D-6
  6
Continuous
 62
     6
370
     9
100
AcDbLine
 10
-325.00094851932
 20
-555.3345015242293
 30
0.0
 11
-228.9904620196367
 21
-459.3245099041912
 31
0.0
  0
LINE
  5
D2
330
1F
100
AcDbEntity
  8
D-4
  6
Continuous
 62
     7
370
     9
100
AcDbLine
 10
-269.2220739416172
 20
-559.3245305241765
 30
0.0
 11
-50.31552701383021
 21
-559.3245305241765
 31
0.0
  0
LINE
  5
D3
330
1F
100
AcDbEntity
  8
D-6
  6
Continuous
 62
     6
370
     9
100
AcDbLine
 10
-725.0007835594383
 20
-419.3243160763302
 30
0.0
 11
-725.0007835594383
 21
-809.3241799844277
 31
0.0
  0
LINE
  5
D4
330
1F
100
AcDbEntity
  8
D-6
  6
Continuous
 62
     6
370
     9
100
AcDbLine
 10
-575.0006598395269
 20
-559.3245305241765
 30
0.0
 11
-325.00094851932
 21
-559.3245305241765
 31
0.0
  0
LINE
  5
D5
330
1F
100
AcDbEntity
  8
D-6
  6
Continuous
 62
     6
370
     9
100
AcDbLine
 10
-481.4997080210091
 20
-361.8247449720228
 30
0.0
 11
-436.499312117293
 21
-361.8247449720228
 31
0.0
  0
LINE
  5
D6
330
1F
100
AcDbEntity
  8
D-6
  6
JWW_CENTER2
 62
     6
370
     9
100
AcDbLine
 10
-458.999510069151
 20
-357.7449571764146
 30
0.0
 11
-458.999510069151
 21
-686.8244562922297
 31
0.0
  0
LINE
  5
D7
330
1F
100
AcDbEntity
  8
D-4
  6
Continuous
 62
     7
370
     9
100
AcDbLine
 10
-1297.668642611117
 20
-82.15291616078957
 30
0.0
 11
-560.0008577913852
 21
-82.15291616078957
 31
0.0
  0
LINE
  5
D8
330
1F
100
AcDbEntity
  8
D-4
  6
Continuous
 62
     7
370
     9
100
AcDbLine
 10
-725.0007835594383
 20
-869.4077032965583
 30
0.0
 11
-324.9999587600294
 21
-869.4077032965583
 31
0.0
  0
LINE
  5
D9
330
1F
100
AcDbEntity
  8
D-5
  6
Continuous
 62
     2
370
     9
100
AcDbLine
 10
-1066.995651657517
 20
-1005.266703012827
 30
0.0
 11
-1066.995651657517
 21
-940.2671071645375
 31
0.0
  0
LINE
  5
DA
330
1F
100
AcDbEntity
  8
D-5
  6
Continuous
 62
     2
370
     9
100
AcDbLine
 10
-1066.995651657517
 20
-940.2671071645375
 30
0.0
 11
-491.9952392578125
 21
-940.2671071645375
 31
0.0
  0
LINE
  5
DB
330
1F
100
AcDbEntity
  8
D-5
  6
Continuous
 62
     2
370
     9
100
AcDbLine
 10
-491.9952392578125
 20
-940.2671071645375
 30
0.0
 11
-491.9952392578125
 21
-1005.266703012827
 31
0.0
  0
LINE
  5
DC
330
1F
100
AcDbEntity
  8
D-5
  6
Continuous
 62
     2
370
     9
100
AcDbLine
 10
-491.9952392578125
 20
-1005.266703012827
 30
0.0
 11
-1066.995651657517
 21
-1005.266703012827
 31
0.0
  0
LINE
  5
DD
330
1F
100
AcDbEntity
  8
D-4
  6
Continuous
 62
     7
370
     9
100
AcDbLine
 10
-725.0007835594383
 20
-834.3245099041912
 30
0.0
 11
-725.0007835594383
 21
-872.407230686497
 31
0.0
  0
LINE
  5
DE
330
1F
100
AcDbEntity
  8
D-4
  6
Continuous
 62
     7
370
     9
100
AcDbLine
 10
-336.95068359375
 20
-439.3243820602829
 30
0.0
 11
-336.95068359375
 21
-309.3243243243242
 31
0.0
  0
LINE
  5
DF
330
1F
100
AcDbEntity
  8
D-4
  6
Continuous
 62
     7
370
     9
100
AcDbLine
 10
-324.9999587600294
 20
-606.6199307828335
 30
0.0
 11
-324.9999587600294
 21
-872.407230686497
 31
0.0
  0
LINE
  5
E0
330
1F
100
AcDbEntity
  8
D-9
  6
Continuous
 62
     4
370
     9
100
AcDbLine
 10
-681.2499587600294
 20
-339.3239284206081
 30
0.0
 11
-724.9997938001477
 21
-339.3239284206081
 31
0.0
  0
LINE
  5
E1
330
1F
100
AcDbEntity
  8
D-9
  6
Continuous
 62
     4
370
     9
100
AcDbLine
 10
-724.9997938001477
 20
-334.3241593644424
 30
0.0
 11
-724.9997938001477
 21
-339.3239284206081
 31
0.0
  0
LINE
  5
E2
330
1F
100
AcDbEntity
  8
D-9
  6
Continuous
 62
     4
370
     9
100
AcDbLine
 10
-600.0
 20
-339.3239284206081
 30
0.0
 11
-638.7495711043073
 21
-339.3239284206081
 31
0.0
  0
LINE
  5
E3
330
1F
100
AcDbEntity
  8
D-9
  6
Continuous
 62
     4
370
     9
100
AcDbLine
 10
-600.0
 20
-334.3241593644424
 30
0.0
 11
-600.0
 21
-339.3239284206081
 31
0.0
  0
LINE
  5
E4
330
1F
100
AcDbEntity
  8
D-A
  6
Continuous
 62
     3
370
     9
100
AcDbLine
 10
-569.9999010240708
 20
-409.3242830843537
 30
0.0
 11
-569.9999010240708
 21
-389.3242171004011
 31
0.0
  0
LINE
  5
E5
330
1F
100
AcDbEntity
  8
D-A
  6
Continuous
 62
     3
370
     9
100
AcDbLine
 10
-581.4996667810387
 20
-409.3242830843537
 30
0.0
 11
-569.9999010240708
 21
-409.3242830843537
 31
0.0
  0
LINE
  5
E6
330
1F
100
AcDbEntity
  8
D-A
  6
Continuous
 62
     3
370
     9
100
AcDbLine
 10
-581.4996667810387
 20
-321.8239944045608
 30
0.0
 11
-570.0003959037161
 21
-321.8239944045608
 31
0.0
  0
LINE
  5
E7
330
1F
100
AcDbEntity
  8
D-A
  6
Continuous
 62
     3
370
     9
100
AcDbLine
 10
-544.9999422640415
 20
-439.3243820602829
 30
0.0
 11
-544.9999422640415
 21
-418.4661947714315
 31
0.0
  0
LINE
  5
E8
330
1F
100
AcDbEntity
  8
D-1
  6
Continuous
 62
     2
370
     9
100
AcDbLine
 10
-570.0003959037161
 20
-404.324019148543
 30
0.0
 11
-570.0003959037161
 21
-409.3242830843537
 31
0.0
  0
LINE
  5
E9
330
1F
100
AcDbEntity
  8
D-1
  6
Continuous
 62
     2
370
     9
100
AcDbLine
 10
-569.9999010240708
 20
-319.3238624366553
 30
0.0
 11
-569.9999010240708
 21
-324.3241263724661
 31
0.0
  0
LINE
  5
EA
330
1F
100
AcDbEntity
  8
D-5
  6
Continuous
 62
     7
370
     9
100
AcDbLine
 10
-418.8917417783995
 20
-258.3786918021536
 30
0.0
 11
-32.18932280669321
 21
-258.3786918021536
 31
0.0
  0
LINE
  5
EB
330
1F
100
AcDbEntity
  8
D-5
  6
Continuous
 62
     7
370
     9
100
AcDbLine
 10
-475.4767752982474
 20
-146.4131618190456
 30
0.0
 11
-216.0938984638935
 21
-146.4131618190456
 31
0.0
  0
LINE
  5
EC
330
1F
100
AcDbEntity
  8
D-5
  6
Continuous
 62
     7
370
     9
100
AcDbLine
 10
-640.6601776947846
 20
-336.1995057801942
 30
0.0
 11
-626.8489528346706
 21
-315.3611136771536
 31
0.0
  0
LINE
  5
ED
330
1F
100
AcDbEntity
  8
D-5
  6
Continuous
 62
     7
370
     9
100
AcDbLine
 10
-640.6601776947846
 20
-336.1995057801942
 30
0.0
 11
-621.9265087230783
 21
-319.6454104861697
 31
0.0
  0
LINE
  5
EE
330
1F
100
AcDbEntity
  8
D-5
  6
Continuous
 62
     7
370
     9
100
AcDbLine
 10
-475.4767752982474
 20
-201.2755192937078
 30
0.0
 11
-571.9519537848394
 21
-312.12027060019
 31
0.0
  0
LINE
  5
EF
330
1F
100
AcDbEntity
  8
D-5
  6
Continuous
 62
     7
370
     9
100
AcDbLine
 10
-571.9519537848394
 20
-312.12027060019
 30
0.0
 11
-558.1408526446367
 21
-291.2818784971495
 31
0.0
  0
LINE
  5
F0
330
1F
100
AcDbEntity
  8
D-5
  6
Continuous
 62
     7
370
     9
100
AcDbLine
 10
-571.9519537848394
 20
-312.12027060019
 30
0.0
 11
-553.217789933488
 21
-295.5661753061655
 31
0.0
  0
LINE
  5
F1
330
1F
100
AcDbEntity
  8
D-5
  6
Continuous
 62
     7
370
     9
100
AcDbLine
 10
-531.352275126689
 20
-387.5895402238174
 30
0.0
 11
-517.5411739864865
 21
-366.7506532411317
 31
0.0
  0
LINE
  5
F2
330
1F
100
AcDbEntity
  8
D-5
  6
Continuous
 62
     7
370
     9
100
AcDbLine
 10
-531.352275126689
 20
-387.5895402238174
 30
0.0
 11
-512.6181112753377
 21
-371.035444929793
 31
0.0
  0
LINE
  5
F3
330
1F
100
AcDbEntity
  8
D-5
  6
Continuous
 62
     7
370
     9
100
AcDbLine
 10
-475.4767752982474
 20
-146.4131618190456
 30
0.0
 11
-640.6601776947846
 21
-336.1995057801942
 31
0.0
  0
LINE
  5
F4
330
1F
100
AcDbEntity
  8
D-6
  6
Continuous
 62
     6
370
     9
100
AcDbLine
 10
-481.4997080210091
 20
-389.3242171004011
 30
0.0
 11
-481.4997080210091
 21
-361.8247449720228
 31
0.0
  0
LINE
  5
F5
330
1F
100
AcDbEntity
  8
D-6
  6
Continuous
 62
     6
370
     9
100
AcDbLine
 10
-436.499312117293
 20
-389.3242171004011
 30
0.0
 11
-436.499312117293
 21
-361.8247449720228
 31
0.0
  0
LINE
  5
F6
330
1F
100
AcDbEntity
  8
D-6
  6
Continuous
 62
     6
370
     9
100
AcDbLine
 10
-481.4997080210091
 20
-559.3245305241765
 30
0.0
 11
-481.4997080210091
 21
-439.3243820602829
 31
0.0
  0
LINE
  5
F7
330
1F
100
AcDbEntity
  8
D-6
  6
Continuous
 62
     6
370
     9
100
AcDbLine
 10
-436.499312117293
 20
-559.3245305241765
 30
0.0
 11
-436.499312117293
 21
-439.3243820602829
 31
0.0
  0
LINE
  5
F8
330
1F
100
AcDbEntity
  8
D-5
  6
Continuous
 62
     7
370
     9
100
AcDbLine
 10
-531.352275126689
 20
-387.5895402238174
 30
0.0
 11
-418.8917417783995
 21
-258.3786918021536
 31
0.0
  0
LINE
  5
F9
330
1F
100
AcDbEntity
  8
D-2
  6
Continuous
 62
     3
370
     9
100
AcDbLine
 10
-600.0
 20
-311.8244562922297
 30
0.0
 11
-600.0
 21
-334.3246542440878
 31
0.0
  0
LINE
  5
FA
330
1F
100
AcDbEntity
  8
D-4
  6
Continuous
 62
     7
370
     9
100
AcDbLine
 10
-1081.726486618454
 20
-234.9262216928842
 30
0.0
 11
-1081.726486618454
 21
-365.5139490076013
 31
0.0
  0
LINE
  5
FB
330
1F
100
AcDbEntity
  8
D-5
  6
Continuous
 62
     7
370
     9
100
AcDbLine
 10
-475.477765057538
 20
-83.07846481735623
 30
0.0
 11
107.2107263513516
 21
-83.07846481735623
 31
0.0
  0
LINE
  5
FC
330
1F
100
AcDbEntity
  8
D-2
  6
Continuous
 62
     3
370
     9
100
AcDbLine
 10
-1272.669240590688
 20
-464.5675741659628
 30
0.0
 11
-1272.669240590688
 21
-240.6251319679053
 31
0.0
  0
LINE
  5
FD
330
1F
100
AcDbEntity
  8
D-2
  6
Continuous
 62
     3
370
     9
100
AcDbLine
 10
-1272.669240590688
 20
-334.3246542440878
 30
0.0
 11
-600.0
 21
-334.3246542440878
 31
0.0
  0
LINE
  5
FE
330
1F
100
AcDbEntity
  8
D-2
  6
Continuous
 62
     3
370
     9
100
AcDbLine
 10
-1272.669240590688
 20
-329.324390308277
 30
0.0
 11
-600.0
 21
-329.324390308277
 31
0.0
  0
LINE
  5
FF
330
1F
100
AcDbEntity
  8
D-2
  6
Continuous
 62
     3
370
     9
100
AcDbLine
 10
-1272.669240590688
 20
-324.3241263724661
 30
0.0
 11
-600.0
 21
-324.3241263724661
 31
0.0
  0
LINE
  5
100
330
1F
100
AcDbEntity
  8
D-2
  6
Continuous
 62
     3
370
     9
100
AcDbLine
 10
-1272.669240590688
 20
-319.3243573163006
 30
0.0
 11
-600.0
 21
-319.3243573163006
 31
0.0
  0
LINE
  5
101
330
1F
100
AcDbEntity
  8
D-2
  6
Continuous
 62
     3
370
     9
100
AcDbLine
 10
-1272.669240590688
 20
-314.324588260135
 30
0.0
 11
-600.0
 21
-314.324588260135
 31
0.0
  0
LINE
  5
102
330
1F
100
AcDbEntity
  8
D-2
  6
Continuous
 62
     3
370
     9
100
AcDbLine
 10
-1272.669240590688
 20
-311.8244562922297
 30
0.0
 11
-600.0
 21
-311.8244562922297
 31
0.0
  0
LINE
  5
103
330
1F
100
AcDbEntity
  8
D-5
  6
Continuous
 62
     7
370
     9
100
AcDbLine
 10
-475.477765057538
 20
-83.07846481735623
 30
0.0
 11
-672.99054120038
 21
-311.8244562922297
 31
0.0
  0
LINE
  5
104
330
1F
100
AcDbEntity
  8
D-5
  6
Continuous
 62
     7
370
     9
100
AcDbLine
 10
-672.99054120038
 20
-311.8244562922297
 30
0.0
 11
-659.2620849609375
 21
-290.931503708298
 31
0.0
  0
LINE
  5
105
330
1F
100
AcDbEntity
  8
D-5
  6
Continuous
 62
     7
370
     9
100
AcDbLine
 10
-672.99054120038
 20
-311.8244562922297
 30
0.0
 11
-654.3221963418495
 21
-295.1965002111485
 31
0.0
  0
LINE
  5
106
330
1F
100
AcDbEntity
  8
D-5
  6
Continuous
 62
     2
370
     9
100
AcDbLine
 10
399.6717298353042
 20
-359.3246130041173
 30
0.0
 11
174.6724721547722
 21
-359.3246130041173
 31
0.0
  0
LINE
  5
107
330
1F
100
AcDbEntity
  8
D-5
  6
Continuous
 62
     2
370
     9
100
AcDbLine
 10
399.6717298353042
 20
-309.3243243243242
 30
0.0
 11
399.6717298353042
 21
-359.3246130041173
 31
0.0
  0
LINE
  5
108
330
1F
100
AcDbEntity
  8
D-5
  6
Continuous
 62
     2
370
     9
100
AcDbLine
 10
174.6724721547722
 20
-309.3243243243242
 30
0.0
 11
399.6717298353042
 21
-309.3243243243242
 31
0.0
  0
LINE
  5
109
330
1F
100
AcDbEntity
  8
D-5
  6
Continuous
 62
     2
370
     9
100
AcDbLine
 10
174.6724721547722
 20
-359.3246130041173
 30
0.0
 11
174.6724721547722
 21
-309.3243243243242
 31
0.0
  0
LINE
  5
10A
330
1F
100
AcDbEntity
  8
C-2
  6
Continuous
 62
     3
370
     9
100
AcDbLine
 10
107.7706826699747
 20
945.0263275971283
 30
0.0
 11
107.7706826699747
 21
445.0262863571581
 31
0.0
  0
LINE
  5
10B
330
1F
100
AcDbEntity
  8
C-2
  6
Continuous
 62
     3
370
     9
100
AcDbLine
 10
107.7706826699747
 20
445.0262863571581
 30
0.0
 11
-392.2292348500844
 21
445.0262863571581
 31
0.0
  0
LINE
  5
10C
330
1F
100
AcDbEntity
  8
C-1
  6
JWW_DASHED3
 62
     2
370
     9
100
AcDbLine
 10
82.77134250950184
 20
920.0264925570102
 30
0.0
 11
82.77134250950184
 21
470.0262451171875
 31
0.0
  0
LINE
  5
10D
330
1F
100
AcDbEntity
  8
C-1
  6
JWW_DASHED3
 62
     2
370
     9
100
AcDbLine
 10
82.77134250950184
 20
470.0262451171875
 30
0.0
 11
-367.2292760900547
 21
470.0262451171875
 31
0.0
  0
LINE
  5
10E
330
1F
100
AcDbEntity
  8
C-1
  6
JWW_DASHED3
 62
     2
370
     9
100
AcDbLine
 10
-367.2292760900547
 20
470.0262451171875
 30
0.0
 11
-367.2292760900547
 21
920.0264925570102
 31
0.0
  0
LINE
  5
10F
330
1F
100
AcDbEntity
  8
C-1
  6
JWW_DASHED3
 62
     2
370
     9
100
AcDbLine
 10
-367.2292760900547
 20
920.0264925570102
 30
0.0
 11
82.77134250950184
 21
920.0264925570102
 31
0.0
  0
LINE
  5
110
330
1F
100
AcDbEntity
  8
C-1
  6
Continuous
 62
     2
370
     9
100
AcDbLine
 10
108.7705869932432
 20
946.0264793602198
 30
0.0
 11
108.7705869932432
 21
444.0262583139781
 31
0.0
  0
LINE
  5
111
330
1F
100
AcDbEntity
  8
C-1
  6
Continuous
 62
     2
370
     9
100
AcDbLine
 10
108.7705869932432
 20
444.0262583139781
 30
0.0
 11
-393.229510333087
 21
444.0262583139781
 31
0.0
  0
LINE
  5
112
330
1F
100
AcDbEntity
  8
C-1
  6
Continuous
 62
     2
370
     9
100
AcDbLine
 10
115.7704121357688
 20
953.0265519425677
 30
0.0
 11
115.7704121357688
 21
437.0264331714529
 31
0.0
  0
LINE
  5
113
330
1F
100
AcDbEntity
  8
C-1
  6
Continuous
 62
     2
370
     9
100
AcDbLine
 10
115.7704121357688
 20
437.0264331714529
 30
0.0
 11
-400.2294591955234
 21
437.0264331714529
 31
0.0
  0
LINE
  5
114
330
1F
100
AcDbEntity
  8
C-2
  6
Continuous
 62
     3
370
     9
100
AcDbLine
 10
-392.2292348500844
 20
445.0262863571581
 30
0.0
 11
-392.2292348500844
 21
945.0263275971283
 31
0.0
  0
LINE
  5
115
330
1F
100
AcDbEntity
  8
C-2
  6
Continuous
 62
     3
370
     9
100
AcDbLine
 10
107.7706826699747
 20
945.0263275971283
 30
0.0
 11
-392.2292348500844
 21
945.0263275971283
 31
0.0
  0
LINE
  5
116
330
1F
100
AcDbEntity
  8
C-1
  6
Continuous
 62
     2
370
     9
100
AcDbLine
 10
108.7705869932432
 20
946.0264793602198
 30
0.0
 11
-393.229510333087
 21
946.0264793602198
 31
0.0
  0
LINE
  5
117
330
1F
100
AcDbEntity
  8
C-1
  6
Continuous
 62
     2
370
     9
100
AcDbLine
 10
-393.229510333087
 20
444.0262583139781
 30
0.0
 11
-393.229510333087
 21
946.0264793602198
 31
0.0
  0
LINE
  5
118
330
1F
100
AcDbEntity
  8
C-1
  6
Continuous
 62
     2
370
     9
100
AcDbLine
 10
115.7704121357688
 20
953.0265519425677
 30
0.0
 11
-400.2294591955234
 21
953.0265519425677
 31
0.0
  0
LINE
  5
119
330
1F
100
AcDbEntity
  8
C-1
  6
Continuous
 62
     2
370
     9
100
AcDbLine
 10
-400.2294591955234
 20
437.0264331714529
 30
0.0
 11
-400.2294591955234
 21
953.0265519425677
 31
0.0
  0
LINE
  5
11A
330
1F
100
AcDbEntity
  8
C-4
  6
Continuous
 62
     7
370
     9
100
AcDbLine
 10
-392.2292348500844
 20
1080.025783229519
 30
0.0
 11
107.7711775496201
 21
1080.025783229519
 31
0.0
  0
LINE
  5
11B
330
1F
100
AcDbEntity
  8
C-4
  6
Continuous
 62
     7
370
     9
100
AcDbLine
 10
-392.2292348500844
 20
965.026641020904
 30
0.0
 11
-392.2292348500844
 21
1083.026238518792
 31
0.0
  0
LINE
  5
11C
330
1F
100
AcDbEntity
  8
C-4
  6
Continuous
 62
     7
370
     9
100
AcDbLine
 10
107.7711775496201
 20
965.026641020904
 30
0.0
 11
107.7711775496201
 21
1083.026238518792
 31
0.0
  0
LINE
  5
11D
330
1F
100
AcDbEntity
  8
C-4
  6
Continuous
 62
     7
370
     9
100
AcDbLine
 10
-400.2294591955234
 20
1135.025717245566
 30
0.0
 11
115.7709070154141
 21
1135.025717245566
 31
0.0
  0
LINE
  5
11E
330
1F
100
AcDbEntity
  8
C-4
  6
Continuous
 62
     7
370
     9
100
AcDbLine
 10
115.7709070154141
 20
965.026641020904
 30
0.0
 11
115.7709070154141
 21
1138.026419974663
 31
0.0
  0
LINE
  5
11F
330
1F
100
AcDbEntity
  8
C-4
  6
Continuous
 62
     7
370
     9
100
AcDbLine
 10
-367.2287812104096
 20
1025.026591532939
 30
0.0
 11
82.77183738914715
 21
1025.026591532939
 31
0.0
  0
LINE
  5
120
330
1F
100
AcDbEntity
  8
C-4
  6
Continuous
 62
     7
370
     9
100
AcDbLine
 10
-367.2287812104096
 20
965.026641020904
 30
0.0
 11
-367.2287812104096
 21
1028.026551942568
 31
0.0
  0
LINE
  5
121
330
1F
100
AcDbEntity
  8
C-4
  6
Continuous
 62
     7
370
     9
100
AcDbLine
 10
82.77183738914715
 20
965.026641020904
 30
0.0
 11
82.77183738914715
 21
1028.026551942568
 31
0.0
  0
LINE
  5
122
330
1F
100
AcDbEntity
  8
C-4
  6
Continuous
 62
     7
370
     9
100
AcDbLine
 10
-392.2292348500844
 20
1025.026591532939
 30
0.0
 11
-367.2287812104096
 21
1025.026591532939
 31
0.0
  0
LINE
  5
123
330
1F
100
AcDbEntity
  8
C-4
  6
Continuous
 62
     7
370
     9
100
AcDbLine
 10
-392.2292348500844
 20
1025.026591532939
 30
0.0
 11
-392.2292348500844
 21
1022.026383683488
 31
0.0
  0
LINE
  5
124
330
1F
100
AcDbEntity
  8
C-4
  6
Continuous
 62
     7
370
     9
100
AcDbLine
 10
82.77183738914715
 20
1025.026591532939
 30
0.0
 11
107.7711775496201
 21
1025.026591532939
 31
0.0
  0
LINE
  5
125
330
1F
100
AcDbEntity
  8
C-4
  6
Continuous
 62
     7
370
     9
100
AcDbLine
 10
107.7711775496201
 20
1025.026591532939
 30
0.0
 11
107.7711775496201
 21
1022.026383683488
 31
0.0
  0
LINE
  5
126
330
1F
100
AcDbEntity
  8
C-4
  6
Continuous
 62
     7
370
     9
100
AcDbLine
 10
-392.2292348500844
 20
1080.025783229519
 30
0.0
 11
-393.229510333087
 21
1080.025783229519
 31
0.0
  0
LINE
  5
127
330
1F
100
AcDbEntity
  8
C-4
  6
Continuous
 62
     7
370
     9
100
AcDbLine
 10
-393.229510333087
 20
965.026641020904
 30
0.0
 11
-393.229510333087
 21
1083.026238518792
 31
0.0
  0
LINE
  5
128
330
1F
100
AcDbEntity
  8
C-4
  6
Continuous
 62
     7
370
     9
100
AcDbLine
 10
-400.2294591955234
 20
965.026641020904
 30
0.0
 11
-400.2294591955234
 21
1083.026238518792
 31
0.0
  0
LINE
  5
129
330
1F
100
AcDbEntity
  8
C-4
  6
Continuous
 62
     7
370
     9
100
AcDbLine
 10
107.7711775496201
 20
1080.025783229519
 30
0.0
 11
108.7710818728885
 21
1080.025783229519
 31
0.0
  0
LINE
  5
12A
330
1F
100
AcDbEntity
  8
C-4
  6
Continuous
 62
     7
370
     9
100
AcDbLine
 10
108.7710818728885
 20
965.026641020904
 30
0.0
 11
108.7710818728885
 21
1083.026238518792
 31
0.0
  0
LINE
  5
12B
330
1F
100
AcDbEntity
  8
C-4
  6
Continuous
 62
     7
370
     9
100
AcDbLine
 10
115.7709070154141
 20
965.026641020904
 30
0.0
 11
115.7709070154141
 21
1083.026238518792
 31
0.0
  0
LINE
  5
12C
330
1F
100
AcDbEntity
  8
C-4
  6
Continuous
 62
     7
370
     9
100
AcDbLine
 10
-393.229510333087
 20
1080.025783229519
 30
0.0
 11
-441.5467133393159
 21
1080.025783229519
 31
0.0
  0
LINE
  5
12D
330
1F
100
AcDbEntity
  8
C-4
  6
Continuous
 62
     7
370
     9
100
AcDbLine
 10
-400.2294591955234
 20
965.026641020904
 30
0.0
 11
-400.2294591955234
 21
1138.026419974663
 31
0.0
  0
LINE
  5
12E
330
1F
100
AcDbEntity
  8
C-5
  6
Continuous
 62
     7
370
     9
100
AcDbLine
 10
145.2711775496201
 20
307.0264991554055
 30
0.0
 11
145.2711775496201
 21
242.0270270270271
 31
0.0
  0
LINE
  5
12F
330
1F
100
AcDbEntity
  8
C-5
  6
Continuous
 62
     7
370
     9
100
AcDbLine
 10
145.2711775496201
 20
242.0270270270271
 30
0.0
 11
-429.7297297297297
 21
242.0270270270271
 31
0.0
  0
LINE
  5
130
330
1F
100
AcDbEntity
  8
C-5
  6
Continuous
 62
     7
370
     9
100
AcDbLine
 10
-429.7297297297297
 20
307.0264991554055
 30
0.0
 11
145.2711775496201
 21
307.0264991554055
 31
0.0
  0
LINE
  5
131
330
1F
100
AcDbEntity
  8
C-5
  6
Continuous
 62
     7
370
     9
100
AcDbLine
 10
-429.7297297297297
 20
242.0270270270271
 30
0.0
 11
-429.7297297297297
 21
307.0264991554055
 31
0.0
  0
LINE
  5
132
330
1F
100
AcDbEntity
  8
C-A
  6
Continuous
 62
     3
370
     9
100
AcDbLine
 10
-392.2292348500844
 20
934.2453745249156
 30
0.0
 11
-381.4477868982263
 21
945.0263275971283
 31
0.0
  0
LINE
  5
133
330
1F
100
AcDbEntity
  8
C-A
  6
Continuous
 62
     3
370
     9
100
AcDbLine
 10
-392.2292348500844
 20
914.44598223712
 30
0.0
 11
-361.648889490076
 21
945.0263275971283
 31
0.0
  0
LINE
  5
134
330
1F
100
AcDbEntity
  8
C-A
  6
Continuous
 62
     3
370
     9
100
AcDbLine
 10
-392.2292348500844
 20
894.6470848289698
 30
0.0
 11
-341.8498683620143
 21
945.0263275971283
 31
0.0
  0
LINE
  5
135
330
1F
100
AcDbEntity
  8
C-A
  6
Continuous
 62
     3
370
     9
100
AcDbLine
 10
-392.2292348500844
 20
874.8481874208193
 30
0.0
 11
-322.0509709538638
 21
945.0263275971283
 31
0.0
  0
LINE
  5
136
330
1F
100
AcDbEntity
  8
C-A
  6
Continuous
 62
     3
370
     9
100
AcDbLine
 10
-392.2292348500844
 20
855.049290012669
 30
0.0
 11
-302.2520735457135
 21
945.0263275971283
 31
0.0
  0
LINE
  5
137
330
1F
100
AcDbEntity
  8
C-A
  6
Continuous
 62
     3
370
     9
100
AcDbLine
 10
-392.2292348500844
 20
835.250145164696
 30
0.0
 11
-282.4531761375633
 21
945.0263275971283
 31
0.0
  0
LINE
  5
138
330
1F
100
AcDbEntity
  8
C-A
  6
Continuous
 62
     3
370
     9
100
AcDbLine
 10
-304.0154534417229
 20
945.0263275971283
 30
0.0
 11
-288.0622657569677
 21
929.073387352196
 31
0.0
  0
LINE
  5
139
330
1F
100
AcDbEntity
  8
C-A
  6
Continuous
 62
     3
370
     9
100
AcDbLine
 10
-323.8143508498732
 20
945.0263275971283
 30
0.0
 11
-297.9618381809544
 21
919.174309807855
 31
0.0
  0
LINE
  5
13A
330
1F
100
AcDbEntity
  8
C-A
  6
Continuous
 62
     3
370
     9
100
AcDbLine
 10
-343.6132482580234
 20
945.0263275971283
 30
0.0
 11
-307.8612868850294
 21
909.2742425042231
 31
0.0
  0
LINE
  5
13B
330
1F
100
AcDbEntity
  8
C-A
  6
Continuous
 62
     3
370
     9
100
AcDbLine
 10
-363.4122693860851
 20
945.0263275971283
 30
0.0
 11
-317.7607355891047
 21
899.3749175200592
 31
0.0
  0
LINE
  5
13C
330
1F
100
AcDbEntity
  8
C-A
  6
Continuous
 62
     3
370
     9
100
AcDbLine
 10
-392.2292348500844
 20
934.2453745249156
 30
0.0
 11
-337.5596329972549
 21
879.5765149915542
 31
0.0
  0
LINE
  5
13D
330
1F
100
AcDbEntity
  8
C-A
  6
Continuous
 62
     3
370
     9
100
AcDbLine
 10
-392.2292348500844
 20
914.4464771167654
 30
0.0
 11
-347.4590817013302
 21
869.6769425675677
 31
0.0
  0
LINE
  5
13E
330
1F
100
AcDbEntity
  8
C-A
  6
Continuous
 62
     3
370
     9
100
AcDbLine
 10
-392.2292348500844
 20
894.6475797086151
 30
0.0
 11
-357.3590252850505
 21
859.776875263936
 31
0.0
  0
LINE
  5
13F
330
1F
100
AcDbEntity
  8
C-A
  6
Continuous
 62
     3
370
     9
100
AcDbLine
 10
-392.2292348500844
 20
874.8486823004646
 30
0.0
 11
-367.258597709037
 21
849.8775502797721
 31
0.0
  0
LINE
  5
140
330
1F
100
AcDbEntity
  8
C-A
  6
Continuous
 62
     3
370
     9
100
AcDbLine
 10
-392.2292348500844
 20
855.0497848923144
 30
0.0
 11
-377.1580464131122
 21
839.9779778557856
 31
0.0
  0
LINE
  5
141
330
1F
100
AcDbEntity
  8
C-A
  6
Continuous
 62
     3
370
     9
100
AcDbLine
 10
-392.2292348500844
 20
835.2508874841641
 30
0.0
 11
-387.0570002375422
 21
830.0786528716217
 31
0.0
  0
LINE
  5
142
330
1F
100
AcDbEntity
  8
C-A
  6
Continuous
 62
     3
370
     9
100
AcDbLine
 10
-284.2165560335727
 20
945.0263275971283
 30
0.0
 11
-278.1628170528927
 21
938.9732072160052
 31
0.0
  0
LINE
  5
143
330
1F
100
AcDbEntity
  8
C-A
  6
Continuous
 62
     3
370
     9
100
AcDbLine
 10
107.7706826699747
 20
455.8071157094597
 30
0.0
 11
96.98923471811668
 21
445.0262863571581
 31
0.0
  0
LINE
  5
144
330
1F
100
AcDbEntity
  8
C-A
  6
Continuous
 62
     3
370
     9
100
AcDbLine
 10
107.7706826699747
 20
475.6066317171664
 30
0.0
 11
77.19033730996642
 21
445.0262863571581
 31
0.0
  0
LINE
  5
145
330
1F
100
AcDbEntity
  8
C-A
  6
Continuous
 62
     3
370
     9
100
AcDbLine
 10
107.7706826699747
 20
495.4055291253169
 30
0.0
 11
57.39143990181589
 21
445.0262863571581
 31
0.0
  0
LINE
  5
146
330
1F
100
AcDbEntity
  8
C-A
  6
Continuous
 62
     3
370
     9
100
AcDbLine
 10
107.7706826699747
 20
515.2045502533783
 30
0.0
 11
37.59254249366563
 21
445.0262863571581
 31
0.0
  0
LINE
  5
147
330
1F
100
AcDbEntity
  8
C-A
  6
Continuous
 62
     3
370
     9
100
AcDbLine
 10
107.7706826699747
 20
535.003447661529
 30
0.0
 11
17.79339764569272
 21
445.0262863571581
 31
0.0
  0
LINE
  5
148
330
1F
100
AcDbEntity
  8
C-A
  6
Continuous
 62
     3
370
     9
100
AcDbLine
 10
107.7706826699747
 20
554.8023450696792
 30
0.0
 11
-2.005499762457532
 21
445.0262863571581
 31
0.0
  0
LINE
  5
149
330
1F
100
AcDbEntity
  8
C-A
  6
Continuous
 62
     3
370
     9
100
AcDbLine
 10
19.55690126161329
 20
445.0262863571581
 30
0.0
 11
3.604208456503386
 21
460.9793503220018
 31
0.0
  0
LINE
  5
14A
330
1F
100
AcDbEntity
  8
C-A
  6
Continuous
 62
     3
370
     9
100
AcDbLine
 10
39.35579866976354
 20
445.0262863571581
 30
0.0
 11
13.50378088048984
 21
470.8783041464318
 31
0.0
  0
LINE
  5
14B
330
1F
100
AcDbEntity
  8
C-A
  6
Continuous
 62
     3
370
     9
100
AcDbLine
 10
59.15469607791408
 20
445.0262863571581
 30
0.0
 11
23.40310586465392
 21
480.7782477301521
 31
0.0
  0
LINE
  5
14C
330
1F
100
AcDbEntity
  8
C-A
  6
Continuous
 62
     3
370
     9
100
AcDbLine
 10
78.95359348606434
 20
445.0262863571581
 30
0.0
 11
33.30267828864038
 21
490.6778201541385
 31
0.0
  0
LINE
  5
14D
330
1F
100
AcDbEntity
  8
C-A
  6
Continuous
 62
     3
370
     9
100
AcDbLine
 10
107.7706826699747
 20
455.8071157094597
 30
0.0
 11
53.10157569679063
 21
510.4762226826438
 31
0.0
  0
LINE
  5
14E
330
1F
100
AcDbEntity
  8
C-A
  6
Continuous
 62
     3
370
     9
100
AcDbLine
 10
107.7706826699747
 20
475.6061368375211
 30
0.0
 11
63.00114812077709
 21
520.3756713867188
 31
0.0
  0
LINE
  5
14F
330
1F
100
AcDbEntity
  8
C-A
  6
Continuous
 62
     3
370
     9
100
AcDbLine
 10
107.7706826699747
 20
495.4050342456716
 30
0.0
 11
72.90047310494089
 21
530.2756149704394
 31
0.0
  0
LINE
  5
150
330
1F
100
AcDbEntity
  8
C-A
  6
Continuous
 62
     3
370
     9
100
AcDbLine
 10
107.7706826699747
 20
515.2040553737334
 30
0.0
 11
82.80004552892763
 21
540.1751873944258
 31
0.0
  0
LINE
  5
151
330
1F
100
AcDbEntity
  8
C-A
  6
Continuous
 62
     3
370
     9
100
AcDbLine
 10
107.7706826699747
 20
535.0029527818836
 30
0.0
 11
92.69937051309142
 21
550.0745123785896
 31
0.0
  0
LINE
  5
152
330
1F
100
AcDbEntity
  8
C-A
  6
Continuous
 62
     3
370
     9
100
AcDbLine
 10
107.7706826699747
 20
554.8018501900339
 30
0.0
 11
102.5989429370779
 21
559.974084802576
 31
0.0
  0
LINE
  5
153
330
1F
100
AcDbEntity
  8
C-A
  6
Continuous
 62
     3
370
     9
100
AcDbLine
 10
-0.2419961465369624
 20
445.0262863571581
 30
0.0
 11
-6.295611407305728
 21
451.0794067382812
 31
0.0
  0
LINE
  5
154
330
1F
100
AcDbEntity
  8
C-0
  6
JWW_CENTER1
 62
     3
370
     9
100
AcDbLine
 10
425.1812909100508
 20
468.7021946262669
 30
0.0
 11
425.1812909100508
 21
584.670682340055
 31
0.0
  0
LINE
  5
155
330
1F
100
AcDbEntity
  8
C-0
  6
JWW_CENTER1
 62
     3
370
     9
100
AcDbLine
 10
370.1328586887669
 20
528.3171287742823
 30
0.0
 11
483.3830962309969
 21
528.3171287742823
 31
0.0
  0
LINE
  5
156
330
1F
100
AcDbEntity
  8
C-5
  6
Continuous
 62
     7
370
     9
100
AcDbLine
 10
145.2711775496201
 20
372.0258475638727
 30
0.0
 11
145.2711775496201
 21
437.0254434121622
 31
0.0
  0
LINE
  5
157
330
1F
100
AcDbEntity
  8
C-5
  6
Continuous
 62
     7
370
     9
100
AcDbLine
 10
145.2711775496201
 20
437.0254434121622
 30
0.0
 11
720.2715899493245
 21
437.0254434121622
 31
0.0
  0
LINE
  5
158
330
1F
100
AcDbEntity
  8
C-5
  6
Continuous
 62
     7
370
     9
100
AcDbLine
 10
720.2715899493245
 20
437.0254434121622
 30
0.0
 11
720.2715899493245
 21
372.0258475638727
 31
0.0
  0
LINE
  5
159
330
1F
100
AcDbEntity
  8
C-5
  6
Continuous
 62
     7
370
     9
100
AcDbLine
 10
720.2715899493245
 20
372.0258475638727
 30
0.0
 11
145.2711775496201
 21
372.0258475638727
 31
0.0
  0
LINE
  5
15A
330
1F
100
AcDbEntity
  8
C-5
  6
Continuous
 62
     7
370
     9
100
AcDbLine
 10
499.8677846547719
 20
603.0036225190033
 30
0.0
 11
597.8616250527875
 21
603.0036225190033
 31
0.0
  0
LINE
  5
15B
330
1F
100
AcDbEntity
  8
C-5
  6
Continuous
 62
     7
370
     9
100
AcDbLine
 10
449.9299745301943
 20
553.0656886745146
 30
0.0
 11
499.8677846547719
 21
603.0036225190033
 31
0.0
  0
LINE
  5
15C
330
1F
100
AcDbEntity
  8
C-5
  6
Continuous
 62
     7
370
     9
100
AcDbLine
 10
449.9299745301943
 20
553.0656886745146
 30
0.0
 11
465.1487608213682
 21
572.8998462573904
 31
0.0
  0
LINE
  5
15D
330
1F
100
AcDbEntity
  8
C-5
  6
Continuous
 62
     7
370
     9
100
AcDbLine
 10
449.9299745301943
 20
553.0656886745146
 30
0.0
 11
469.7635135135135
 21
568.285093565245
 31
0.0
  0
LINE
  5
15E
330
1F
100
AcDbEntity
  8
C-4
  6
Continuous
 62
     7
370
     9
100
AcDbLine
 10
-342.2289461702914
 20
377.6484226536107
 30
0.0
 11
-262.2290533942143
 21
377.6484226536107
 31
0.0
  0
LINE
  5
15F
330
1F
100
AcDbEntity
  8
C-4
  6
Continuous
 62
     7
370
     9
100
AcDbLine
 10
-342.2289461702914
 20
495.026575036951
 30
0.0
 11
-342.2289461702914
 21
374.6483385240711
 31
0.0
  0
LINE
  5
160
330
1F
100
AcDbEntity
  8
C-4
  6
Continuous
 62
     7
370
     9
100
AcDbLine
 10
-262.2290533942143
 20
495.026575036951
 30
0.0
 11
-262.2290533942143
 21
374.6483385240711
 31
0.0
  0
LINE
  5
161
330
1F
100
AcDbEntity
  8
C-4
  6
Continuous
 62
     7
370
     9
100
AcDbLine
 10
-423.2470538165117
 20
495.026575036951
 30
0.0
 11
-423.2470538165117
 21
545.0264925570102
 31
0.0
  0
LINE
  5
162
330
1F
100
AcDbEntity
  8
C-4
  6
Continuous
 62
     7
370
     9
100
AcDbLine
 10
-342.2289461702914
 20
495.026575036951
 30
0.0
 11
-426.2466430664062
 21
495.026575036951
 31
0.0
  0
LINE
  5
163
330
1F
100
AcDbEntity
  8
C-4
  6
Continuous
 62
     7
370
     9
100
AcDbLine
 10
-342.2289461702914
 20
545.0264925570102
 30
0.0
 11
-426.2466430664062
 21
545.0264925570102
 31
0.0
  0
LINE
  5
164
330
1F
100
AcDbEntity
  8
C-A
  6
Continuous
 62
     3
370
     9
100
AcDbLine
 10
-383.2111667942357
 20
945.0263275971283
 30
0.0
 11
-339.761971138619
 21
901.5773793813346
 31
0.0
  0
LINE
  5
165
330
1F
100
AcDbEntity
  8
C-A
  6
Continuous
 62
     3
370
     9
100
AcDbLine
 10
-335.6778531461148
 20
897.493137668919
 30
0.0
 11
-327.6601842931797
 21
889.4753450960727
 31
0.0
  0
LINE
  5
166
330
1F
100
AcDbEntity
  8
C-A
  6
Continuous
 62
     3
370
     9
100
AcDbLine
 10
98.75273833403725
 20
445.0262863571581
 30
0.0
 11
55.30354267842085
 21
488.4756057326859
 31
0.0
  0
LINE
  5
167
330
1F
100
AcDbEntity
  8
C-A
  6
Continuous
 62
     3
370
     9
100
AcDbLine
 10
51.22029072529585
 20
492.5591051256336
 30
0.0
 11
43.20200327280418
 21
500.5772688582138
 31
0.0
  0
ARC
  5
168
330
1F
100
AcDbEntity
  8
D-9
  6
Continuous
 62
     4
370
     9
100
AcDbCircle
 10
-659.9998267921239
 20
-286.8241263724661
 30
0.0
 40
75.0
100
AcDbArc
 50
248.4898071289062
 51
291.5101776123047
  0
ARC
  5
169
330
1F
100
AcDbEntity
  8
D-9
  6
Continuous
 62
     4
370
     9
100
AcDbCircle
 10
-659.9998267921239
 20
-286.8241263724661
 30
0.0
 40
70.99999608220281
100
AcDbArc
 50
257.8033447265625
 51
282.1966400146484
  0
ARC
  5
16A
330
1F
100
AcDbEntity
  8
D-A
  6
Continuous
 62
     3
370
     9
100
AcDbCircle
 10
-509.6448743665539
 20
-364.3241346204603
 30
0.0
 40
25.00000128874908
100
AcDbArc
 50
225.0
 51
270.0
  0
ARC
  5
16B
330
1F
100
AcDbEntity
  8
D-A
  6
Continuous
 62
     3
370
     9
100
AcDbCircle
 10
-429.9996865762245
 20
-399.3242500923775
 30
0.0
 40
10.00000012887491
100
AcDbArc
 50
7.016464233398438
 51
90.0
  0
ARC
  5
16C
330
1F
100
AcDbEntity
  8
D-1
  6
Continuous
 62
     2
370
     9
100
AcDbCircle
 10
-633.7498020481419
 20
-343.0741263724661
 30
0.0
 40
3.75000004832809
100
AcDbArc
 50
90.0
 51
270.0
  0
ARC
  5
16D
330
1F
100
AcDbEntity
  8
D-1
  6
Continuous
 62
     2
370
     9
100
AcDbCircle
 10
-600.0
 20
-351.8240933804898
 30
0.0
 40
5.000000064437454
100
AcDbArc
 50
7.016464233398438
 51
90.0
  0
ARC
  5
16E
330
1F
100
AcDbEntity
  8
D-1
  6
Continuous
 62
     2
370
     9
100
AcDbCircle
 10
-600.0
 20
-406.8241511164484
 30
0.0
 40
5.000000064437454
100
AcDbArc
 50
270.0
 51
0.0
  0
ARC
  5
16F
330
1F
100
AcDbEntity
  8
D-1
  6
Continuous
 62
     2
370
     9
100
AcDbCircle
 10
-709.9999917520057
 20
-406.8241511164484
 30
0.0
 40
5.000000064437454
100
AcDbArc
 50
180.0
 51
270.0
  0
ARC
  5
170
330
1F
100
AcDbEntity
  8
D-1
  6
Continuous
 62
     2
370
     9
100
AcDbCircle
 10
-709.9999917520057
 20
-394.3239861565667
 30
0.0
 40
5.000000064437454
100
AcDbArc
 50
90.0
 51
180.0
  0
ARC
  5
171
330
1F
100
AcDbEntity
  8
D-1
  6
Continuous
 62
     2
370
     9
100
AcDbCircle
 10
-695.0001897038641
 20
-384.3239531645904
 30
0.0
 40
5.000000064437454
100
AcDbArc
 50
270.0
 51
0.0
  0
ARC
  5
172
330
1F
100
AcDbEntity
  8
D-1
  6
Continuous
 62
     2
370
     9
100
AcDbCircle
 10
-686.249727816195
 20
-343.0741263724661
 30
0.0
 40
3.75000004832809
100
AcDbArc
 50
270.0
 51
90.0
  0
ARC
  5
173
330
1F
100
AcDbEntity
  8
D-1
  6
Continuous
 62
     2
370
     9
100
AcDbCircle
 10
-565.0001319679052
 20
-404.324019148543
 30
0.0
 40
5.000000064437454
100
AcDbArc
 50
2.104934692382812
 51
180.0
  0
ARC
  5
174
330
1F
100
AcDbEntity
  8
D-1
  6
Continuous
 62
     2
370
     9
100
AcDbCircle
 10
-565.0001319679052
 20
-324.3241263724661
 30
0.0
 40
5.000000064437454
100
AcDbArc
 50
180.0
 51
0.0
  0
ARC
  5
175
330
1F
100
AcDbEntity
  8
D-A
  6
Continuous
 62
     3
370
     9
100
AcDbCircle
 10
-538.4999455632391
 20
-355.3241296716638
 30
0.0
 40
6.50000008376869
100
AcDbArc
 50
0.0
 51
90.0
  0
ARC
  5
176
330
1F
100
AcDbEntity
  8
D-A
  6
JWW_DASHED3
 62
     3
370
     9
100
AcDbCircle
 10
-538.4999455632391
 20
-378.3242797851562
 30
0.0
 40
6.50000008376869
100
AcDbArc
 50
270.0
 51
0.0
  0
ARC
  5
177
330
1F
100
AcDbEntity
  8
D-A
  6
Continuous
 62
     3
370
     9
100
AcDbCircle
 10
-555.000098975929
 20
-418.4661947714315
 30
0.0
 40
10.00000012887491
100
AcDbArc
 50
0.0
 51
45.0
  0
CIRCLE
  5
178
330
1F
100
AcDbEntity
  8
C-A
  6
Continuous
 62
     3
370
     9
100
AcDbCircle
 10
-342.2289461702914
 20
895.0264100770693
 30
0.0
 40
6.999999606931532
  0
CIRCLE
  5
179
330
1F
100
AcDbEntity
  8
C-A
  6
Continuous
 62
     3
370
     9
100
AcDbCircle
 10
-342.2289461702914
 20
845.0264925570102
 30
0.0
 40
6.999999606931532
  0
CIRCLE
  5
17A
330
1F
100
AcDbEntity
  8
C-A
  6
Continuous
 62
     3
370
     9
100
AcDbCircle
 10
-342.2289461702914
 20
795.0263275971283
 30
0.0
 40
6.999999606931532
  0
CIRCLE
  5
17B
330
1F
100
AcDbEntity
  8
C-A
  6
Continuous
 62
     3
370
     9
100
AcDbCircle
 10
-342.2289461702914
 20
745.0264100770693
 30
0.0
 40
6.999999606931532
  0
CIRCLE
  5
17C
330
1F
100
AcDbEntity
  8
C-A
  6
Continuous
 62
     3
370
     9
100
AcDbCircle
 10
-342.2289461702914
 20
695.0264925570102
 30
0.0
 40
6.999999606931532
  0
CIRCLE
  5
17D
330
1F
100
AcDbEntity
  8
C-A
  6
Continuous
 62
     3
370
     9
100
AcDbCircle
 10
-342.2289461702914
 20
645.0263275971283
 30
0.0
 40
6.999999606931532
  0
CIRCLE
  5
17E
330
1F
100
AcDbEntity
  8
C-A
  6
Continuous
 62
     3
370
     9
100
AcDbCircle
 10
-342.2289461702914
 20
595.0264100770693
 30
0.0
 40
6.999999606931532
  0
CIRCLE
  5
17F
330
1F
100
AcDbEntity
  8
C-A
  6
Continuous
 62
     3
370
     9
100
AcDbCircle
 10
-342.2289461702914
 20
545.026368837099
 30
0.0
 40
6.999999606931532
  0
CIRCLE
  5
180
330
1F
100
AcDbEntity
  8
C-A
  6
Continuous
 62
     3
370
     9
100
AcDbCircle
 10
-342.2289461702914
 20
495.0263275971284
 30
0.0
 40
6.999999606931532
  0
CIRCLE
  5
181
330
1F
100
AcDbEntity
  8
C-A
  6
Continuous
 62
     3
370
     9
100
AcDbCircle
 10
-262.2290533942143
 20
895.0264100770693
 30
0.0
 40
6.999999606931532
  0
CIRCLE
  5
182
330
1F
100
AcDbEntity
  8
C-A
  6
Continuous
 62
     3
370
     9
100
AcDbCircle
 10
-262.2290533942143
 20
845.0264925570102
 30
0.0
 40
6.999999606931532
  0
CIRCLE
  5
183
330
1F
100
AcDbEntity
  8
C-A
  6
Continuous
 62
     3
370
     9
100
AcDbCircle
 10
-262.2290533942143
 20
795.0263275971283
 30
0.0
 40
6.999999606931532
  0
CIRCLE
  5
184
330
1F
100
AcDbEntity
  8
C-A
  6
Continuous
 62
     3
370
     9
100
AcDbCircle
 10
-262.2290533942143
 20
745.0264100770693
 30
0.0
 40
6.999999606931532
  0
CIRCLE
  5
185
330
1F
100
AcDbEntity
  8
C-A
  6
Continuous
 62
     3
370
     9
100
AcDbCircle
 10
-262.2290533942143
 20
695.0264925570102
 30
0.0
 40
6.999999606931532
  0
CIRCLE
  5
186
330
1F
100
AcDbEntity
  8
C-A
  6
Continuous
 62
     3
370
     9
100
AcDbCircle
 10
-262.2290533942143
 20
645.0263275971283
 30
0.0
 40
6.999999606931532
  0
CIRCLE
  5
187
330
1F
100
AcDbEntity
  8
C-A
  6
Continuous
 62
     3
370
     9
100
AcDbCircle
 10
-262.2290533942143
 20
595.0264100770693
 30
0.0
 40
6.999999606931532
  0
CIRCLE
  5
188
330
1F
100
AcDbEntity
  8
C-A
  6
Continuous
 62
     3
370
     9
100
AcDbCircle
 10
-262.2290533942143
 20
545.026368837099
 30
0.0
 40
6.999999606931532
  0
CIRCLE
  5
189
330
1F
100
AcDbEntity
  8
C-A
  6
Continuous
 62
     3
370
     9
100
AcDbCircle
 10
-262.2290533942143
 20
495.0263275971284
 30
0.0
 40
6.999999606931532
  0
CIRCLE
  5
18A
330
1F
100
AcDbEntity
  8
C-A
  6
Continuous
 62
     3
370
     9
100
AcDbCircle
 10
-182.2291606181375
 20
895.0264100770693
 30
0.0
 40
6.999999606931532
  0
CIRCLE
  5
18B
330
1F
100
AcDbEntity
  8
C-A
  6
Continuous
 62
     3
370
     9
100
AcDbCircle
 10
-182.2291606181375
 20
845.0264925570102
 30
0.0
 40
6.999999606931532
  0
CIRCLE
  5
18C
330
1F
100
AcDbEntity
  8
C-A
  6
Continuous
 62
     3
370
     9
100
AcDbCircle
 10
-182.2291606181375
 20
795.0263275971283
 30
0.0
 40
6.999999606931532
  0
CIRCLE
  5
18D
330
1F
100
AcDbEntity
  8
C-A
  6
Continuous
 62
     3
370
     9
100
AcDbCircle
 10
-182.2291606181375
 20
745.0264100770693
 30
0.0
 40
6.999999606931532
  0
CIRCLE
  5
18E
330
1F
100
AcDbEntity
  8
C-A
  6
Continuous
 62
     3
370
     9
100
AcDbCircle
 10
-182.2291606181375
 20
695.0264925570102
 30
0.0
 40
6.999999606931532
  0
CIRCLE
  5
18F
330
1F
100
AcDbEntity
  8
C-A
  6
Continuous
 62
     3
370
     9
100
AcDbCircle
 10
-182.2291606181375
 20
645.0263275971283
 30
0.0
 40
6.999999606931532
  0
CIRCLE
  5
190
330
1F
100
AcDbEntity
  8
C-A
  6
Continuous
 62
     3
370
     9
100
AcDbCircle
 10
-182.2291606181375
 20
595.0264100770693
 30
0.0
 40
6.999999606931532
  0
CIRCLE
  5
191
330
1F
100
AcDbEntity
  8
C-A
  6
Continuous
 62
     3
370
     9
100
AcDbCircle
 10
-182.2291606181375
 20
545.026368837099
 30
0.0
 40
6.999999606931532
  0
CIRCLE
  5
192
330
1F
100
AcDbEntity
  8
C-A
  6
Continuous
 62
     3
370
     9
100
AcDbCircle
 10
-182.2291606181375
 20
495.0263275971284
 30
0.0
 40
6.999999606931532
  0
CIRCLE
  5
193
330
1F
100
AcDbEntity
  8
C-A
  6
Continuous
 62
     3
370
     9
100
AcDbCircle
 10
-102.2287729624153
 20
895.0264100770693
 30
0.0
 40
6.999999606931532
  0
CIRCLE
  5
194
330
1F
100
AcDbEntity
  8
C-A
  6
Continuous
 62
     3
370
     9
100
AcDbCircle
 10
-102.2287729624153
 20
845.0264925570102
 30
0.0
 40
6.999999606931532
  0
CIRCLE
  5
195
330
1F
100
AcDbEntity
  8
C-A
  6
Continuous
 62
     3
370
     9
100
AcDbCircle
 10
-102.2287729624153
 20
795.0263275971283
 30
0.0
 40
6.999999606931532
  0
CIRCLE
  5
196
330
1F
100
AcDbEntity
  8
C-A
  6
Continuous
 62
     3
370
     9
100
AcDbCircle
 10
-102.2287729624153
 20
745.0264100770693
 30
0.0
 40
6.999999606931532
  0
CIRCLE
  5
197
330
1F
100
AcDbEntity
  8
C-A
  6
Continuous
 62
     3
370
     9
100
AcDbCircle
 10
-102.2287729624153
 20
695.0264925570102
 30
0.0
 40
6.999999606931532
  0
CIRCLE
  5
198
330
1F
100
AcDbEntity
  8
C-A
  6
Continuous
 62
     3
370
     9
100
AcDbCircle
 10
-102.2287729624153
 20
645.0263275971283
 30
0.0
 40
6.999999606931532
  0
CIRCLE
  5
199
330
1F
100
AcDbEntity
  8
C-A
  6
Continuous
 62
     3
370
     9
100
AcDbCircle
 10
-102.2287729624153
 20
595.0264100770693
 30
0.0
 40
6.999999606931532
  0
CIRCLE
  5
19A
330
1F
100
AcDbEntity
  8
C-A
  6
Continuous
 62
     3
370
     9
100
AcDbCircle
 10
-102.2287729624153
 20
545.026368837099
 30
0.0
 40
6.999999606931532
  0
CIRCLE
  5
19B
330
1F
100
AcDbEntity
  8
C-A
  6
Continuous
 62
     3
370
     9
100
AcDbCircle
 10
-102.2287729624153
 20
495.0263275971284
 30
0.0
 40
6.999999606931532
  0
CIRCLE
  5
19C
330
1F
100
AcDbEntity
  8
C-A
  6
Continuous
 62
     3
370
     9
100
AcDbCircle
 10
-22.22900390625
 20
895.0264100770693
 30
0.0
 40
6.999999606931532
  0
CIRCLE
  5
19D
330
1F
100
AcDbEntity
  8
C-A
  6
Continuous
 62
     3
370
     9
100
AcDbCircle
 10
-22.22900390625
 20
845.0264925570102
 30
0.0
 40
6.999999606931532
  0
CIRCLE
  5
19E
330
1F
100
AcDbEntity
  8
C-A
  6
Continuous
 62
     3
370
     9
100
AcDbCircle
 10
-22.22900390625
 20
795.0263275971283
 30
0.0
 40
6.999999606931532
  0
CIRCLE
  5
19F
330
1F
100
AcDbEntity
  8
C-A
  6
Continuous
 62
     3
370
     9
100
AcDbCircle
 10
-22.22900390625
 20
745.0264100770693
 30
0.0
 40
6.999999606931532
  0
CIRCLE
  5
1A0
330
1F
100
AcDbEntity
  8
C-A
  6
Continuous
 62
     3
370
     9
100
AcDbCircle
 10
-22.22900390625
 20
695.0264925570102
 30
0.0
 40
6.999999606931532
  0
CIRCLE
  5
1A1
330
1F
100
AcDbEntity
  8
C-A
  6
Continuous
 62
     3
370
     9
100
AcDbCircle
 10
-22.22900390625
 20
645.0263275971283
 30
0.0
 40
6.999999606931532
  0
CIRCLE
  5
1A2
330
1F
100
AcDbEntity
  8
C-A
  6
Continuous
 62
     3
370
     9
100
AcDbCircle
 10
-22.22900390625
 20
595.0264100770693
 30
0.0
 40
6.999999606931532
  0
CIRCLE
  5
1A3
330
1F
100
AcDbEntity
  8
C-A
  6
Continuous
 62
     3
370
     9
100
AcDbCircle
 10
-22.22900390625
 20
545.026368837099
 30
0.0
 40
6.999999606931532
  0
CIRCLE
  5
1A4
330
1F
100
AcDbEntity
  8
C-A
  6
Continuous
 62
     3
370
     9
100
AcDbCircle
 10
-22.22900390625
 20
495.0263275971284
 30
0.0
 40
6.999999606931532
  0
CIRCLE
  5
1A5
330
1F
100
AcDbEntity
  8
C-A
  6
Continuous
 62
     3
370
     9
100
AcDbCircle
 10
57.77101258973829
 20
895.0264100770693
 30
0.0
 40
6.999999606931532
  0
CIRCLE
  5
1A6
330
1F
100
AcDbEntity
  8
C-A
  6
Continuous
 62
     3
370
     9
100
AcDbCircle
 10
57.77101258973829
 20
845.0264925570102
 30
0.0
 40
6.999999606931532
  0
CIRCLE
  5
1A7
330
1F
100
AcDbEntity
  8
C-A
  6
Continuous
 62
     3
370
     9
100
AcDbCircle
 10
57.77101258973829
 20
795.0263275971283
 30
0.0
 40
6.999999606931532
  0
CIRCLE
  5
1A8
330
1F
100
AcDbEntity
  8
C-A
  6
Continuous
 62
     3
370
     9
100
AcDbCircle
 10
57.77101258973829
 20
745.0264100770693
 30
0.0
 40
6.999999606931532
  0
CIRCLE
  5
1A9
330
1F
100
AcDbEntity
  8
C-A
  6
Continuous
 62
     3
370
     9
100
AcDbCircle
 10
57.77101258973829
 20
695.0264925570102
 30
0.0
 40
6.999999606931532
  0
CIRCLE
  5
1AA
330
1F
100
AcDbEntity
  8
C-A
  6
Continuous
 62
     3
370
     9
100
AcDbCircle
 10
57.77101258973829
 20
645.0263275971283
 30
0.0
 40
6.999999606931532
  0
CIRCLE
  5
1AB
330
1F
100
AcDbEntity
  8
C-A
  6
Continuous
 62
     3
370
     9
100
AcDbCircle
 10
57.77101258973829
 20
595.0264100770693
 30
0.0
 40
6.999999606931532
  0
CIRCLE
  5
1AC
330
1F
100
AcDbEntity
  8
C-A
  6
Continuous
 62
     3
370
     9
100
AcDbCircle
 10
57.77101258973829
 20
545.026368837099
 30
0.0
 40
6.999999606931532
  0
CIRCLE
  5
1AD
330
1F
100
AcDbEntity
  8
C-A
  6
Continuous
 62
     3
370
     9
100
AcDbCircle
 10
57.77101258973829
 20
495.0263275971284
 30
0.0
 40
6.999999606931532
  0
CIRCLE
  5
1AE
330
1F
100
AcDbEntity
  8
C-0
  6
Continuous
 62
     3
370
     9
100
AcDbCircle
 10
425.1812909100508
 20
528.3171287742823
 30
0.0
 40
34.99999948450037
  0
TEXT
  5
1AF
330
1F
100
AcDbEntity
  8
D-4
  6
Continuous
 62
     2
370
     9
100
AcDbText
 10
-632.9457752124683
 20
-71.51364198426926
 30
0.0
 40
30.48
  1
1
 41
0.9999999999999998
  7
ＭＳ ゴシック
100
AcDbText
  0
TEXT
  5
1B0
330
1F
100
AcDbEntity
  8
D-4
  6
Continuous
 62
     2
370
     9
100
AcDbText
 10
-588.2089027198584
 20
-71.51364198426926
 30
0.0
 40
30.48
  1
7
 41
0.9999999999999998
  7
ＭＳ ゴシック
100
AcDbText
  0
TEXT
  5
1B1
330
1F
100
AcDbEntity
  8
D-4
  6
Continuous
 62
     2
370
     9
100
AcDbText
 10
-683.7500824799407
 20
-180.2650523912583
 30
0.0
 40
30.48
  1
25
 41
1.0625
  7
ＭＳ ゴシック
100
AcDbText
  0
TEXT
  5
1B2
330
1F
100
AcDbEntity
  8
D-4
  6
Continuous
 62
     2
370
     9
100
AcDbText
 10
-881.1236614444437
 20
-385.5745060267265
 30
0.0
 40
30.48
  1
22
 50
90.00000250447816
 41
1.062499999999999
  7
ＭＳ ゴシック
100
AcDbText
  0
TEXT
  5
1B3
330
1F
100
AcDbEntity
  8
D-4
  6
Continuous
 62
     2
370
     9
100
AcDbText
 10
-347.5909466006937
 20
-435.5746709866082
 30
0.0
 40
30.48
  1
10
 50
90.00000250447816
 41
1.062499999999999
  7
ＭＳ ゴシック
100
AcDbText
  0
TEXT
  5
1B4
330
1F
100
AcDbEntity
  8
D-4
  6
Continuous
 62
     2
370
     9
100
AcDbText
 10
-347.5909466006937
 20
-369.3664553246572
 30
0.0
 40
30.48
  1
16
 50
90.00000250447816
 41
1.062499999999999
  7
ＭＳ ゴシック
100
AcDbText
  0
TEXT
  5
1B5
330
1F
100
AcDbEntity
  8
D-4
  6
Continuous
 62
     2
370
     9
100
AcDbText
 10
-529.0083022752195
 20
-491.7157013434812
 30
0.0
 40
30.48
  1
28
 50
0.0003335824015645
 41
1.062500000000001
  7
ＭＳ ゴシック
100
AcDbText
  0
TEXT
  5
1B6
330
1F
100
AcDbEntity
  8
D-4
  6
Continuous
 62
     2
370
     9
100
AcDbText
 10
-716.2507835594383
 20
-704.3035012404983
 30
0.0
 40
30.48
  1
25～30
 41
1.104166666666667
  7
ＭＳ ゴシック
100
AcDbText
  0
TEXT
  5
1B7
330
1F
100
AcDbEntity
  8
D-4
  6
Continuous
 62
     2
370
     9
100
AcDbText
 10
-63.95587218330113
 20
-504.8372590751849
 30
0.0
 40
30.48
  1
40～50
 50
90.00000250447816
 41
1.104166666666666
  7
ＭＳ ゴシック
100
AcDbText
  0
TEXT
  5
1B8
330
1F
100
AcDbEntity
  8
D-4
  6
Continuous
 62
     2
370
     9
100
AcDbText
 10
-592.8691224794129
 20
-858.7674393607474
 30
0.0
 40
30.48
  1
75～80
 41
1.104166666666667
  7
ＭＳ ゴシック
100
AcDbText
  0
TEXT
  5
1B9
330
1F
100
AcDbEntity
  8
D-5
  6
Continuous
 62
     2
370
     9
100
AcDbText
 10
-1024.495383597709
 20
-987.1270329325907
 30
0.0
 40
30.48
  1
断面詳細図　Ｓ＝１：２
 41
1.113636363636364
  7
ＭＳ ゴシック
100
AcDbText
  0
TEXT
  5
1BA
330
1F
100
AcDbEntity
  8
D-5
  6
Continuous
 62
     7
370
     9
100
AcDbText
 10
-474.6443629909206
 20
-138.6613508234797
 30
0.0
 40
22.86
  1
塩ビクッション
 41
1.142857142857143
  7
ＭＳ ゴシック
100
AcDbText
  0
TEXT
  5
1BB
330
1F
100
AcDbEntity
  8
D-5
  6
Continuous
 62
     7
370
     9
100
AcDbText
 10
-418.4498060071791
 20
-287.9085151631122
 30
0.0
 40
22.86
  1
ｔ＝２．３（ＳＰＨＣ）
 41
1.151515151515152
  7
ＭＳ ゴシック
100
AcDbText
  0
TEXT
  5
1BC
330
1F
100
AcDbEntity
  8
D-5
  6
Continuous
 62
     2
370
     9
100
AcDbText
 10
336.4740815033786
 20
-881.3677267208615
 30
0.0
 40
30.48
  1
処理：陽極酸化塗装複合皮膜（１３ミクロン以上）
 41
1.119565217391304
  7
ＭＳ ゴシック
100
AcDbText
  0
TEXT
  5
1BD
330
1F
100
AcDbEntity
  8
D-5
  6
Continuous
 62
     7
370
     9
100
AcDbText
 10
-475.8375466836465
 20
-192.2870040646115
 30
0.0
 40
22.86
  1
アルミニウム製受枠ＡＦ０５Ｂ
 41
1.154761904761905
  7
ＭＳ ゴシック
100
AcDbText
  0
TEXT
  5
1BE
330
1F
100
AcDbEntity
  8
D-5
  6
Continuous
 62
     2
370
     9
100
AcDbText
 10
336.4740815033786
 20
-816.3676359929265
 30
0.0
 40
30.48
  1
材質：硬質アルミ押出形材（Ａ６０６３Ｓ－Ｔ５）
 41
1.119565217391304
  7
ＭＳ ゴシック
100
AcDbText
  0
TEXT
  5
1BF
330
1F
100
AcDbEntity
  8
D-4
  6
Continuous
 62
     2
370
     9
100
AcDbText
 10
-1092.366254254
 20
-297.2824346584831
 30
0.0
 40
30.48
  1
4.5
 50
90.00000250447816
 41
1.083333333333333
  7
ＭＳ ゴシック
100
AcDbText
  0
TEXT
  5
1C0
330
1F
100
AcDbEntity
  8
D-5
  6
Continuous
 62
     7
370
     9
100
AcDbText
 10
-471.53575587917
 20
-73.85463431693411
 30
0.0
 40
22.86
  1
縞鋼板製排水用蓋ＲＡ（ｔ＝４．５）
 41
1.156862745098039
  7
ＭＳ ゴシック
100
AcDbText
  0
TEXT
  5
1C1
330
1F
100
AcDbEntity
  8
D-5
  6
Continuous
 62
     2
370
     9
100
AcDbText
 10
222.1719772751268
 20
-348.6842253483952
 30
0.0
 40
30.48
  1
仕　様
 41
1.083333333333333
  7
ＭＳ ゴシック
100
AcDbText
  0
TEXT
  5
1C2
330
1F
100
AcDbEntity
  8
D-5
  6
Continuous
 62
     2
370
     9
100
AcDbText
 10
336.4741804793077
 20
-541.6049514028188
 30
0.0
 40
30.48
  1
処理：エポキシ樹脂コーティング（グレー色）
 41
1.119047619047619
  7
ＭＳ ゴシック
100
AcDbText
  0
TEXT
  5
1C3
330
1F
100
AcDbEntity
  8
D-5
  6
Continuous
 62
     2
370
     9
100
AcDbText
 10
336.4741557353254
 20
-476.6049225348395
 30
0.0
 40
30.48
  1
材質：縞鋼板　ｔ＝４．５（ＳＳ４００）
 41
1.118421052631579
  7
ＭＳ ゴシック
100
AcDbText
  0
TEXT
  5
1C4
330
1F
100
AcDbEntity
  8
D-5
  6
Continuous
 62
     7
370
     9
100
AcDbText
 10
-347.5529603700379
 20
-251.3393837758656
 30
0.0
 40
22.86
  1
溶接用アンカ－
 41
1.142857142857143
  7
ＭＳ ゴシック
100
AcDbText
  0
TEXT
  5
1C5
330
1F
100
AcDbEntity
  8
D-5
  6
Continuous
 62
     2
370
     9
100
AcDbText
 10
276.7621756888727
 20
-751.3676689849029
 30
0.0
 40
30.48
  1
アルミニウム製受枠　ＡＦ０５Ｂ（四方枠）
 41
1.11875
  7
ＭＳ ゴシック
100
AcDbText
  0
TEXT
  5
1C6
330
1F
100
AcDbEntity
  8
C-4
  6
Continuous
 62
     2
370
     9
100
AcDbText
 10
-366.361743823902
 20
1035.666113149282
 30
0.0
 40
30.48
  1
25
 41
1.0625
  7
ＭＳ ゴシック
100
AcDbText
  0
TEXT
  5
1C7
330
1F
100
AcDbEntity
  8
C-4
  6
Continuous
 62
     2
370
     9
100
AcDbText
 10
35.39107863967487
 20
1035.666113149282
 30
0.0
 40
30.48
  1
25
 41
1.0625
  7
ＭＳ ゴシック
100
AcDbText
  0
TEXT
  5
1C8
330
1F
100
AcDbEntity
  8
C-4
  6
Continuous
 62
     2
370
     9
100
AcDbText
 10
-382.8589650746937
 20
1090.665799725507
 30
0.0
 40
30.48
  1
1
 41
0.9999999999999998
  7
ＭＳ ゴシック
100
AcDbText
  0
TEXT
  5
1C9
330
1F
100
AcDbEntity
  8
C-4
  6
Continuous
 62
     2
370
     9
100
AcDbText
 10
73.86329444679063
 20
1090.665799725507
 30
0.0
 40
30.48
  1
1
 41
0.9999999999999998
  7
ＭＳ ゴシック
100
AcDbText
  0
TEXT
  5
1CA
330
1F
100
AcDbEntity
  8
C-5
  6
Continuous
 62
     2
370
     9
100
AcDbText
 10
-409.7296472497886
 20
260.1666971072635
 30
0.0
 40
30.48
  1
平面詳細図　Ｓ＝１：１０
 41
1.114583333333333
  7
ＭＳ ゴシック
100
AcDbText
  0
TEXT
  5
1CB
330
1F
100
AcDbEntity
  8
C-0
  6
Continuous
 62
     2
370
     9
100
AcDbText
 10
507.4337108715162
 20
612.6850571421031
 30
0.0
 40
30.48
  1
φ14
 41
1.09375
  7
ＭＳ ゴシック
100
AcDbText
  0
TEXT
  5
1CC
330
1F
100
AcDbEntity
  8
C-5
  6
Continuous
 62
     2
370
     9
100
AcDbText
 10
187.7715088934326
 20
390.1656413640024
 30
0.0
 40
30.48
  1
排水穴詳細　Ｓ＝１：２
 50
359.9999855334149
 41
1.113636363636364
  7
ＭＳ ゴシック
100
AcDbText
  0
TEXT
  5
1CD
330
1F
100
AcDbEntity
  8
C-4
  6
Continuous
 62
     2
370
     9
100
AcDbText
 10
-323.4789215038535
 20
388.2883154296399
 30
0.0
 40
30.48
  1
80
 50
359.9998332087992
 41
1.0625
  7
ＭＳ ゴシック
100
AcDbText
  0
TEXT
  5
1CE
330
1F
100
AcDbEntity
  8
C-4
  6
Continuous
 62
     2
370
     9
100
AcDbText
 10
-433.8868219438103
 20
498.7765335504484
 30
0.0
 40
30.48
  1
50
 50
90.00000250447816
 41
1.062499999999999
  7
ＭＳ ゴシック
100
AcDbText
  0
TEXT
  5
1CF
330
1F
100
AcDbEntity
  8
C-4
  6
Continuous
 62
     2
370
     9
100
AcDbText
 10
-437.5999533163534
 20
1090.665799725507
 30
0.0
 40
30.48
  1
7
 41
0.9999999999999998
  7
ＭＳ ゴシック
100
AcDbText
  0
TEXT
  5
1D0
330
1F
100
AcDbEntity
  8
C-4
  6
Continuous
 62
     2
370
     9
100
AcDbText
 10
137.6785195840372
 20
1090.665799725507
 30
0.0
 40
30.48
  1
7
 41
0.9999999999999998
  7
ＭＳ ゴシック
100
AcDbText
  0
TEXT
  5
1D1
330
1F
100
AcDbEntity
  8
C-4
  6
Continuous
 62
     2
370
     9
100
AcDbText
 10
-197.2288430703652
 20
1035.66586570946
 30
0.0
 40
30.48
  1
□450
 41
1.1
  7
ＭＳ ゴシック
100
AcDbText
  0
TEXT
  5
1D2
330
1F
100
AcDbEntity
  8
C-4
  6
Continuous
 62
     2
370
     9
100
AcDbText
 10
-197.2288430703652
 20
1090.665799725507
 30
0.0
 40
30.48
  1
□500
 41
1.1
  7
ＭＳ ゴシック
100
AcDbText
  0
TEXT
  5
1D3
330
1F
100
AcDbEntity
  8
C-4
  6
Continuous
 62
     2
370
     9
100
AcDbText
 10
-197.2288430703652
 20
1145.585315799198
 30
0.0
 40
30.48
  1
□516
 41
1.1
  7
ＭＳ ゴシック
100
AcDbText
  0
TEXT
  5
1D4
330
1F
100
AcDbEntity
  8
D-4
  6
Continuous
 62
     2
370
     9
100
AcDbText
 10
-1297.668646735114
 20
-180.2650523912583
 30
0.0
 40
30.48
  1
□450
 41
1.1
  7
ＭＳ ゴシック
100
AcDbText
  0
TEXT
  5
1D5
330
1F
100
AcDbEntity
  8
D-4
  6
Continuous
 62
     2
370
     9
100
AcDbText
 10
-1297.668646735114
 20
-71.51265222497891
 30
0.0
 40
30.48
  1
□500
 41
1.1
  7
ＭＳ ゴシック
100
AcDbText
  0
TEXT
  5
1D6
330
1F
100
AcDbEntity
  8
D-4
  6
Continuous
 62
     2
370
     9
100
AcDbText
 10
-1297.668646735114
 20
37.23974794130079
 30
0.0
 40
30.48
  1
□516
 41
1.1
  7
ＭＳ ゴシック
100
AcDbText
  0
LWPOLYLINE
  5
1D7
330
1F
100
AcDbEntity
  8
D-4
  6
Continuous
 62
     7
370
     9
100
AcDbPolyline
 90
        4
 70
     1
 43
1.0
 10
-52.81561114336978
 20
-309.3243243243242
 42
0.4142135623731
 10
-53.31561114336978
 20
-308.8243243243242
 42
0.4142135623731
 10
-53.81561114336978
 20
-309.3243243243242
 42
0.4142135623731
 10
-53.31561114336978
 20
-309.8243243243242
 42
0.4142135623731
  0
LWPOLYLINE
  5
1D8
330
1F
100
AcDbEntity
  8
D-4
  6
Continuous
 62
     7
370
     9
100
AcDbPolyline
 90
        4
 70
     1
 43
1.0
 10
-52.81561114336978
 20
-559.3245305241765
 42
0.4142135623731
 10
-53.31561114336978
 20
-558.8245305241765
 42
0.4142135623731
 10
-53.81561114336978
 20
-559.3245305241765
 42
0.4142135623731
 10
-53.31561114336978
 20
-559.8245305241765
 42
0.4142135623731
  0
LWPOLYLINE
  5
1D9
330
1F
100
AcDbEntity
  8
D-4
  6
Continuous
 62
     7
370
     9
100
AcDbPolyline
 90
        4
 70
     1
 43
1.0
 10
-336.45068359375
 20
-309.3243243243242
 42
0.4142135623731
 10
-336.95068359375
 20
-308.8243243243242
 42
0.4142135623731
 10
-337.45068359375
 20
-309.3243243243242
 42
0.4142135623731
 10
-336.95068359375
 20
-309.8243243243242
 42
0.4142135623731
  0
LWPOLYLINE
  5
1DA
330
1F
100
AcDbEntity
  8
D-4
  6
Continuous
 62
     7
370
     9
100
AcDbPolyline
 90
        4
 70
     1
 43
1.0
 10
-336.45068359375
 20
-389.3247119800463
 42
0.4142135623731
 10
-336.95068359375
 20
-388.8247119800463
 42
0.4142135623731
 10
-337.45068359375
 20
-389.3247119800463
 42
0.4142135623731
 10
-336.95068359375
 20
-389.8247119800463
 42
0.4142135623731
  0
LWPOLYLINE
  5
1DB
330
1F
100
AcDbEntity
  8
D-4
  6
Continuous
 62
     7
370
     9
100
AcDbPolyline
 90
        4
 70
     1
 43
1.0
 10
-336.45068359375
 20
-439.3243820602829
 42
0.4142135623731
 10
-336.95068359375
 20
-438.824382060283
 42
0.4142135623731
 10
-337.45068359375
 20
-439.3243820602829
 42
0.4142135623731
 10
-336.95068359375
 20
-439.8243820602829
 42
0.4142135623731
  0
LWPOLYLINE
  5
1DC
330
1F
100
AcDbEntity
  8
D-4
  6
Continuous
 62
     7
370
     9
100
AcDbPolyline
 90
        4
 70
     1
 43
1.0
 10
-559.4998680320946
 20
-502.3554703995989
 42
0.4142135623731
 10
-559.9998680320946
 20
-501.8554703995989
 42
0.4142135623731
 10
-560.4998680320945
 20
-502.3554703995989
 42
0.4142135623731
 10
-559.9998680320946
 20
-502.8554703995988
 42
0.4142135623731
  0
LWPOLYLINE
  5
1DD
330
1F
100
AcDbEntity
  8
D-4
  6
Continuous
 62
     7
370
     9
100
AcDbPolyline
 90
        4
 70
     1
 43
1.0
 10
-419.5001484638935
 20
-502.3554703995989
 42
0.4142135623731
 10
-420.0001484638935
 20
-501.8554703995989
 42
0.4142135623731
 10
-420.5001484638934
 20
-502.3554703995989
 42
0.4142135623731
 10
-420.0001484638935
 20
-502.8554703995988
 42
0.4142135623731
  0
LWPOLYLINE
  5
1DE
330
1F
100
AcDbEntity
  8
D-4
  6
Continuous
 62
     7
370
     9
100
AcDbPolyline
 90
        4
 70
     1
 43
1.0
 10
-724.5007835594383
 20
-714.9432702966637
 42
0.4142135623731
 10
-725.0007835594383
 20
-714.4432702966639
 42
0.4142135623731
 10
-725.5007835594382
 20
-714.9432702966637
 42
0.4142135623731
 10
-725.0007835594383
 20
-715.4432702966637
 42
0.4142135623731
  0
LWPOLYLINE
  5
1DF
330
1F
100
AcDbEntity
  8
D-4
  6
Continuous
 62
     7
370
     9
100
AcDbPolyline
 90
        4
 70
     1
 43
1.0
 10
-574.5006598395269
 20
-714.9432702966637
 42
0.4142135623731
 10
-575.0006598395269
 20
-714.4432702966639
 42
0.4142135623731
 10
-575.5006598395267
 20
-714.9432702966637
 42
0.4142135623731
 10
-575.0006598395269
 20
-715.4432702966637
 42
0.4142135623731
  0
LWPOLYLINE
  5
1E0
330
1F
100
AcDbEntity
  8
D-4
  6
Continuous
 62
     7
370
     9
100
AcDbPolyline
 90
        4
 70
     1
 43
1.0
 10
-869.9833984375
 20
-309.3243243243242
 42
0.4142135623731
 10
-870.4833984375
 20
-308.8243243243242
 42
0.4142135623731
 10
-870.9833984375
 20
-309.3243243243242
 42
0.4142135623731
 10
-870.4833984375
 20
-309.8243243243242
 42
0.4142135623731
  0
LWPOLYLINE
  5
1E1
330
1F
100
AcDbEntity
  8
D-4
  6
Continuous
 62
     7
370
     9
100
AcDbPolyline
 90
        4
 70
     1
 43
1.0
 10
-869.9833984375
 20
-419.3243160763302
 42
0.4142135623731
 10
-870.4833984375
 20
-418.8243160763302
 42
0.4142135623731
 10
-870.9833984375
 20
-419.3243160763302
 42
0.4142135623731
 10
-870.4833984375
 20
-419.8243160763302
 42
0.4142135623731
  0
LWPOLYLINE
  5
1E2
330
1F
100
AcDbEntity
  8
D-4
  6
Continuous
 62
     7
370
     9
100
AcDbPolyline
 90
        4
 70
     1
 43
1.0
 10
-559.5008577913852
 20
28.54275265255495
 42
0.4142135623731
 10
-560.0008577913852
 20
29.04275265255495
 42
0.4142135623731
 10
-560.5008577913851
 20
28.54275265255495
 42
0.4142135623731
 10
-560.0008577913852
 20
28.04275265255495
 42
0.4142135623731
  0
LWPOLYLINE
  5
1E3
330
1F
100
AcDbEntity
  8
D-4
  6
Continuous
 62
     7
370
     9
100
AcDbPolyline
 90
        4
 70
     1
 43
1.0
 10
-724.5007835594383
 20
-190.9053163270693
 42
0.4142135623731
 10
-725.0007835594383
 20
-190.4053163270693
 42
0.4142135623731
 10
-725.5007835594382
 20
-190.9053163270693
 42
0.4142135623731
 10
-725.0007835594383
 20
-191.4053163270693
 42
0.4142135623731
  0
LWPOLYLINE
  5
1E4
330
1F
100
AcDbEntity
  8
D-4
  6
Continuous
 62
     7
370
     9
100
AcDbPolyline
 90
        4
 70
     1
 43
1.0
 10
-599.5
 20
-190.9053163270693
 42
0.4142135623731
 10
-600.0
 20
-190.4053163270693
 42
0.4142135623731
 10
-600.5
 20
-190.9053163270693
 42
0.4142135623731
 10
-600.0
 20
-191.4053163270693
 42
0.4142135623731
  0
LWPOLYLINE
  5
1E5
330
1F
100
AcDbEntity
  8
D-4
  6
Continuous
 62
     7
370
     9
100
AcDbPolyline
 90
        4
 70
     1
 43
1.0
 10
-599.5
 20
-82.15291616078957
 42
0.4142135623731
 10
-600.0
 20
-81.65291616078957
 42
0.4142135623731
 10
-600.5
 20
-82.15291616078957
 42
0.4142135623731
 10
-600.0
 20
-82.65291616078957
 42
0.4142135623731
  0
LWPOLYLINE
  5
1E6
330
1F
100
AcDbEntity
  8
D-4
  6
Continuous
 62
     7
370
     9
100
AcDbPolyline
 90
        4
 70
     1
 43
1.0
 10
-594.499736064189
 20
-82.15291616078957
 42
0.4142135623731
 10
-594.999736064189
 20
-81.65291616078957
 42
0.4142135623731
 10
-595.499736064189
 20
-82.15291616078957
 42
0.4142135623731
 10
-594.999736064189
 20
-82.65291616078957
 42
0.4142135623731
  0
LWPOLYLINE
  5
1E7
330
1F
100
AcDbEntity
  8
D-4
  6
Continuous
 62
     7
370
     9
100
AcDbPolyline
 90
        4
 70
     1
 43
1.0
 10
-559.5008577913852
 20
-82.15291616078957
 42
0.4142135623731
 10
-560.0008577913852
 20
-81.65291616078957
 42
0.4142135623731
 10
-560.5008577913851
 20
-82.15291616078957
 42
0.4142135623731
 10
-560.0008577913852
 20
-82.65291616078957
 42
0.4142135623731
  0
LWPOLYLINE
  5
1E8
330
1F
100
AcDbEntity
  8
D-4
  6
Continuous
 62
     7
370
     9
100
AcDbPolyline
 90
        4
 70
     1
 43
1.0
 10
-324.4999587600295
 20
-869.4077032965583
 42
0.4142135623731
 10
-324.9999587600294
 20
-868.9077032965583
 42
0.4142135623731
 10
-325.4999587600294
 20
-869.4077032965583
 42
0.4142135623731
 10
-324.9999587600294
 20
-869.9077032965583
 42
0.4142135623731
  0
LWPOLYLINE
  5
1E9
330
1F
100
AcDbEntity
  8
D-4
  6
Continuous
 62
     7
370
     9
100
AcDbPolyline
 90
        4
 70
     1
 43
1.0
 10
-724.5007835594383
 20
-869.4077032965583
 42
0.4142135623731
 10
-725.0007835594383
 20
-868.9077032965583
 42
0.4142135623731
 10
-725.5007835594382
 20
-869.4077032965583
 42
0.4142135623731
 10
-725.0007835594383
 20
-869.9077032965583
 42
0.4142135623731
  0
LWPOLYLINE
  5
1EA
330
1F
100
AcDbEntity
  8
D-4
  6
Continuous
 62
     7
370
     9
100
AcDbPolyline
 90
        4
 70
     1
 43
1.0
 10
-1081.226486618454
 20
-311.8244562922297
 42
0.4142135623731
 10
-1081.726486618454
 20
-311.3244562922297
 42
0.4142135623731
 10
-1082.226486618454
 20
-311.8244562922297
 42
0.4142135623731
 10
-1081.726486618454
 20
-312.3244562922297
 42
0.4142135623731
  0
LWPOLYLINE
  5
1EB
330
1F
100
AcDbEntity
  8
D-4
  6
Continuous
 62
     7
370
     9
100
AcDbPolyline
 90
        4
 70
     1
 43
1.0
 10
-1081.226486618454
 20
-334.3246542440878
 42
0.4142135623731
 10
-1081.726486618454
 20
-333.8246542440878
 42
0.4142135623731
 10
-1082.226486618454
 20
-334.3246542440878
 42
0.4142135623731
 10
-1081.726486618454
 20
-334.8246542440877
 42
0.4142135623731
  0
LWPOLYLINE
  5
1EC
330
1F
100
AcDbEntity
  8
C-4
  6
Continuous
 62
     7
370
     9
100
AcDbPolyline
 90
        4
 70
     1
 43
1.0
 10
-391.7292348500844
 20
1080.025783229519
 42
0.4142135623731
 10
-392.2292348500844
 20
1080.525783229519
 42
0.4142135623731
 10
-392.7292348500844
 20
1080.025783229519
 42
0.4142135623731
 10
-392.2292348500844
 20
1079.525783229519
 42
0.4142135623731
  0
LWPOLYLINE
  5
1ED
330
1F
100
AcDbEntity
  8
C-4
  6
Continuous
 62
     7
370
     9
100
AcDbPolyline
 90
        4
 70
     1
 43
1.0
 10
108.2711775496201
 20
1080.025783229519
 42
0.4142135623731
 10
107.7711775496201
 20
1080.525783229519
 42
0.4142135623731
 10
107.2711775496201
 20
1080.025783229519
 42
0.4142135623731
 10
107.7711775496201
 20
1079.525783229519
 42
0.4142135623731
  0
LWPOLYLINE
  5
1EE
330
1F
100
AcDbEntity
  8
C-4
  6
Continuous
 62
     7
370
     9
100
AcDbPolyline
 90
        4
 70
     1
 43
1.0
 10
-399.7294591955234
 20
1135.025717245566
 42
0.4142135623731
 10
-400.2294591955234
 20
1135.525717245566
 42
0.4142135623731
 10
-400.7294591955234
 20
1135.025717245566
 42
0.4142135623731
 10
-400.2294591955234
 20
1134.525717245566
 42
0.4142135623731
  0
LWPOLYLINE
  5
1EF
330
1F
100
AcDbEntity
  8
C-4
  6
Continuous
 62
     7
370
     9
100
AcDbPolyline
 90
        4
 70
     1
 43
1.0
 10
116.2709070154141
 20
1135.025717245566
 42
0.4142135623731
 10
115.7709070154141
 20
1135.525717245566
 42
0.4142135623731
 10
115.2709070154141
 20
1135.025717245566
 42
0.4142135623731
 10
115.7709070154141
 20
1134.525717245566
 42
0.4142135623731
  0
LWPOLYLINE
  5
1F0
330
1F
100
AcDbEntity
  8
C-4
  6
Continuous
 62
     7
370
     9
100
AcDbPolyline
 90
        4
 70
     1
 43
1.0
 10
-366.7287812104097
 20
1025.026591532939
 42
0.4142135623731
 10
-367.2287812104096
 20
1025.526591532939
 42
0.4142135623731
 10
-367.7287812104096
 20
1025.026591532939
 42
0.4142135623731
 10
-367.2287812104096
 20
1024.526591532939
 42
0.4142135623731
  0
LWPOLYLINE
  5
1F1
330
1F
100
AcDbEntity
  8
C-4
  6
Continuous
 62
     7
370
     9
100
AcDbPolyline
 90
        4
 70
     1
 43
1.0
 10
83.27183738914715
 20
1025.026591532939
 42
0.4142135623731
 10
82.77183738914715
 20
1025.526591532939
 42
0.4142135623731
 10
82.27183738914715
 20
1025.026591532939
 42
0.4142135623731
 10
82.77183738914715
 20
1024.526591532939
 42
0.4142135623731
  0
LWPOLYLINE
  5
1F2
330
1F
100
AcDbEntity
  8
C-4
  6
Continuous
 62
     7
370
     9
100
AcDbPolyline
 90
        4
 70
     1
 43
1.0
 10
-391.7292348500844
 20
1025.026591532939
 42
0.4142135623731
 10
-392.2292348500844
 20
1025.526591532939
 42
0.4142135623731
 10
-392.7292348500844
 20
1025.026591532939
 42
0.4142135623731
 10
-392.2292348500844
 20
1024.526591532939
 42
0.4142135623731
  0
LWPOLYLINE
  5
1F3
330
1F
100
AcDbEntity
  8
C-4
  6
Continuous
 62
     7
370
     9
100
AcDbPolyline
 90
        4
 70
     1
 43
1.0
 10
108.2711775496201
 20
1025.026591532939
 42
0.4142135623731
 10
107.7711775496201
 20
1025.526591532939
 42
0.4142135623731
 10
107.2711775496201
 20
1025.026591532939
 42
0.4142135623731
 10
107.7711775496201
 20
1024.526591532939
 42
0.4142135623731
  0
LWPOLYLINE
  5
1F4
330
1F
100
AcDbEntity
  8
C-4
  6
Continuous
 62
     7
370
     9
100
AcDbPolyline
 90
        4
 70
     1
 43
1.0
 10
-392.729510333087
 20
1080.025783229519
 42
0.4142135623731
 10
-393.229510333087
 20
1080.525783229519
 42
0.4142135623731
 10
-393.729510333087
 20
1080.025783229519
 42
0.4142135623731
 10
-393.229510333087
 20
1079.525783229519
 42
0.4142135623731
  0
LWPOLYLINE
  5
1F5
330
1F
100
AcDbEntity
  8
C-4
  6
Continuous
 62
     7
370
     9
100
AcDbPolyline
 90
        4
 70
     1
 43
1.0
 10
-399.7294591955234
 20
1080.025783229519
 42
0.4142135623731
 10
-400.2294591955234
 20
1080.525783229519
 42
0.4142135623731
 10
-400.7294591955234
 20
1080.025783229519
 42
0.4142135623731
 10
-400.2294591955234
 20
1079.525783229519
 42
0.4142135623731
  0
LWPOLYLINE
  5
1F6
330
1F
100
AcDbEntity
  8
C-4
  6
Continuous
 62
     7
370
     9
100
AcDbPolyline
 90
        4
 70
     1
 43
1.0
 10
109.2710818728885
 20
1080.025783229519
 42
0.4142135623731
 10
108.7710818728885
 20
1080.525783229519
 42
0.4142135623731
 10
108.2710818728885
 20
1080.025783229519
 42
0.4142135623731
 10
108.7710818728885
 20
1079.525783229519
 42
0.4142135623731
  0
LWPOLYLINE
  5
1F7
330
1F
100
AcDbEntity
  8
C-4
  6
Continuous
 62
     7
370
     9
100
AcDbPolyline
 90
        4
 70
     1
 43
1.0
 10
116.2709070154141
 20
1080.025783229519
 42
0.4142135623731
 10
115.7709070154141
 20
1080.525783229519
 42
0.4142135623731
 10
115.2709070154141
 20
1080.025783229519
 42
0.4142135623731
 10
115.7709070154141
 20
1079.525783229519
 42
0.4142135623731
  0
LWPOLYLINE
  5
1F8
330
1F
100
AcDbEntity
  8
C-4
  6
Continuous
 62
     7
370
     9
100
AcDbPolyline
 90
        4
 70
     1
 43
1.0
 10
-341.7289461702915
 20
377.6484226536107
 42
0.4142135623731
 10
-342.2289461702914
 20
378.1484226536106
 42
0.4142135623731
 10
-342.7289461702914
 20
377.6484226536107
 42
0.4142135623731
 10
-342.2289461702914
 20
377.1484226536107
 42
0.4142135623731
  0
LWPOLYLINE
  5
1F9
330
1F
100
AcDbEntity
  8
C-4
  6
Continuous
 62
     7
370
     9
100
AcDbPolyline
 90
        4
 70
     1
 43
1.0
 10
-261.7290533942143
 20
377.6484226536107
 42
0.4142135623731
 10
-262.2290533942143
 20
378.1484226536106
 42
0.4142135623731
 10
-262.7290533942143
 20
377.6484226536107
 42
0.4142135623731
 10
-262.2290533942143
 20
377.1484226536107
 42
0.4142135623731
  0
LWPOLYLINE
  5
1FA
330
1F
100
AcDbEntity
  8
C-4
  6
Continuous
 62
     7
370
     9
100
AcDbPolyline
 90
        4
 70
     1
 43
1.0
 10
-422.7470538165118
 20
495.026575036951
 42
0.4142135623731
 10
-423.2470538165117
 20
495.526575036951
 42
0.4142135623731
 10
-423.7470538165117
 20
495.026575036951
 42
0.4142135623731
 10
-423.2470538165117
 20
494.526575036951
 42
0.4142135623731
  0
LWPOLYLINE
  5
1FB
330
1F
100
AcDbEntity
  8
C-4
  6
Continuous
 62
     7
370
     9
100
AcDbPolyline
 90
        4
 70
     1
 43
1.0
 10
-422.7470538165118
 20
545.0264925570102
 42
0.4142135623731
 10
-423.2470538165117
 20
545.5264925570101
 42
0.4142135623731
 10
-423.7470538165117
 20
545.0264925570102
 42
0.4142135623731
 10
-423.2470538165117
 20
544.5264925570102
 42
0.4142135623731
  0
TEXT
  5
1FC
330
1F
100
AcDbEntity
  8
D-5
  6
Continuous
 62
     2
370
     9
100
AcDbText
 10
276.7619777370145
 20
-411.6048318069046
 30
0.0
 40
30.48
  1
縞鋼板製排水用蓋　ＲＡ　５００×５００×４．５
 41
1.119565217391304
  7
ＭＳ ゴシック
100
AcDbText
  0
LINE
  5
1FD
330
1F
100
AcDbEntity
  8
D-0
  6
Continuous
 62
     7
370
     9
100
AcDbLine
 10
-298.1558366723965
 20
-330.2737210247967
 30
0.0
 11
-298.1558366723965
 21
-328.7734411213848
 31
0.0
  0
LINE
  5
1FE
330
1F
100
AcDbEntity
  8
D-0
  6
Continuous
 62
     7
370
     9
100
AcDbLine
 10
-298.1558366723965
 20
-328.7734411213848
 30
0.0
 11
-296.6560502954434
 21
-328.7734411213848
 31
0.0
  0
LINE
  5
1FF
330
1F
100
AcDbEntity
  8
D-0
  6
Continuous
 62
     7
370
     9
100
AcDbLine
 10
-296.6560502954434
 20
-328.7734411213848
 30
0.0
 11
-296.6560502954434
 21
-330.2737210247967
 31
0.0
  0
LINE
  5
200
330
1F
100
AcDbEntity
  8
D-0
  6
Continuous
 62
     7
370
     9
100
AcDbLine
 10
-296.6560502954434
 20
-330.2737210247967
 30
0.0
 11
-298.1558366723965
 21
-330.2737210247967
 31
0.0
  0
LINE
  5
201
330
1F
100
AcDbEntity
  8
D-0
  6
Continuous
 62
     7
370
     9
100
AcDbLine
 10
-247.4000116296719
 20
-332.9809616063092
 30
0.0
 11
-247.4000116296719
 21
-331.4806817028973
 31
0.0
  0
LINE
  5
202
330
1F
100
AcDbEntity
  8
D-0
  6
Continuous
 62
     7
370
     9
100
AcDbLine
 10
-247.4000116296719
 20
-331.4806817028973
 30
0.0
 11
-245.8999963708828
 21
-331.4806817028973
 31
0.0
  0
LINE
  5
203
330
1F
100
AcDbEntity
  8
D-0
  6
Continuous
 62
     7
370
     9
100
AcDbLine
 10
-245.8999963708828
 20
-331.4806817028973
 30
0.0
 11
-245.8999963708828
 21
-332.9809616063092
 31
0.0
  0
LINE
  5
204
330
1F
100
AcDbEntity
  8
D-0
  6
Continuous
 62
     7
370
     9
100
AcDbLine
 10
-245.8999963708828
 20
-332.9809616063092
 30
0.0
 11
-247.4000116296719
 21
-332.9809616063092
 31
0.0
  0
LINE
  5
205
330
1F
100
AcDbEntity
  8
D-0
  6
Continuous
 62
     7
370
     9
100
AcDbLine
 10
-182.4321695276211
 20
-330.9505317662213
 30
0.0
 11
-182.4321695276211
 21
-329.4502518628094
 31
0.0
  0
LINE
  5
206
330
1F
100
AcDbEntity
  8
D-0
  6
Continuous
 62
     7
370
     9
100
AcDbLine
 10
-182.4321695276211
 20
-329.4502518628094
 30
0.0
 11
-180.932383150668
 21
-329.4502518628094
 31
0.0
  0
LINE
  5
207
330
1F
100
AcDbEntity
  8
D-0
  6
Continuous
 62
     7
370
     9
100
AcDbLine
 10
-180.932383150668
 20
-329.4502518628094
 30
0.0
 11
-180.932383150668
 21
-330.9505317662213
 31
0.0
  0
LINE
  5
208
330
1F
100
AcDbEntity
  8
D-0
  6
Continuous
 62
     7
370
     9
100
AcDbLine
 10
-180.932383150668
 20
-330.9505317662213
 30
0.0
 11
-182.4321695276211
 21
-330.9505317662213
 31
0.0
  0
LINE
  5
209
330
1F
100
AcDbEntity
  8
D-0
  6
Continuous
 62
     7
370
     9
100
AcDbLine
 10
-206.7953439660977
 20
-363.4344552014325
 30
0.0
 11
-206.7953439660977
 21
-361.9341729138348
 31
0.0
  0
LINE
  5
20A
330
1F
100
AcDbEntity
  8
D-0
  6
Continuous
 62
     7
370
     9
100
AcDbLine
 10
-206.7953439660977
 20
-361.9341729138348
 30
0.0
 11
-205.2950616785
 21
-361.9341729138348
 31
0.0
  0
LINE
  5
20B
330
1F
100
AcDbEntity
  8
D-0
  6
Continuous
 62
     7
370
     9
100
AcDbLine
 10
-205.2950616785
 20
-361.9341729138348
 30
0.0
 11
-205.2950616785
 21
-363.4344552014325
 31
0.0
  0
LINE
  5
20C
330
1F
100
AcDbEntity
  8
D-0
  6
Continuous
 62
     7
370
     9
100
AcDbLine
 10
-205.2950616785
 20
-363.4344552014325
 30
0.0
 11
-206.7953439660977
 21
-363.4344552014325
 31
0.0
  0
LINE
  5
20D
330
1F
100
AcDbEntity
  8
D-0
  6
Continuous
 62
     7
370
     9
100
AcDbLine
 10
-257.3604150720547
 20
-367.3655055020306
 30
0.0
 11
-257.3604150720547
 21
-365.8652232144329
 31
0.0
  0
LINE
  5
20E
330
1F
100
AcDbEntity
  8
D-0
  6
Continuous
 62
     7
370
     9
100
AcDbLine
 10
-257.3604150720547
 20
-365.8652232144329
 30
0.0
 11
-255.8603998132656
 21
-365.8652232144329
 31
0.0
  0
LINE
  5
20F
330
1F
100
AcDbEntity
  8
D-0
  6
Continuous
 62
     7
370
     9
100
AcDbLine
 10
-255.8603998132656
 20
-365.8652232144329
 30
0.0
 11
-255.8603998132656
 21
-367.3655055020306
 31
0.0
  0
LINE
  5
210
330
1F
100
AcDbEntity
  8
D-0
  6
Continuous
 62
     7
370
     9
100
AcDbLine
 10
-255.8603998132656
 20
-367.3655055020306
 30
0.0
 11
-257.3604150720547
 21
-367.3655055020306
 31
0.0
  0
LINE
  5
211
330
1F
100
AcDbEntity
  8
D-0
  6
Continuous
 62
     7
370
     9
100
AcDbLine
 10
-274.4699426599453
 20
-401.3323662732098
 30
0.0
 11
-274.4699426599453
 21
-399.8320839856121
 31
0.0
  0
LINE
  5
212
330
1F
100
AcDbEntity
  8
D-0
  6
Continuous
 62
     7
370
     9
100
AcDbLine
 10
-274.4699426599453
 20
-399.8320839856121
 30
0.0
 11
-272.9696603723477
 21
-399.8320839856121
 31
0.0
  0
LINE
  5
213
330
1F
100
AcDbEntity
  8
D-0
  6
Continuous
 62
     7
370
     9
100
AcDbLine
 10
-272.9696603723477
 20
-399.8320839856121
 30
0.0
 11
-272.9696603723477
 21
-401.3323662732098
 31
0.0
  0
LINE
  5
214
330
1F
100
AcDbEntity
  8
D-0
  6
Continuous
 62
     7
370
     9
100
AcDbLine
 10
-272.9696603723477
 20
-401.3323662732098
 30
0.0
 11
-274.4699426599453
 21
-401.3323662732098
 31
0.0
  0
LINE
  5
215
330
1F
100
AcDbEntity
  8
D-0
  6
Continuous
 62
     7
370
     9
100
AcDbLine
 10
-305.826181978793
 20
-386.7606280301068
 30
0.0
 11
-305.826181978793
 21
-385.2603505108807
 31
0.0
  0
LINE
  5
216
330
1F
100
AcDbEntity
  8
D-0
  6
Continuous
 62
     7
370
     9
100
AcDbLine
 10
-305.826181978793
 20
-385.2603505108807
 30
0.0
 11
-304.3263956018399
 21
-385.2603505108807
 31
0.0
  0
LINE
  5
217
330
1F
100
AcDbEntity
  8
D-0
  6
Continuous
 62
     7
370
     9
100
AcDbLine
 10
-304.3263956018399
 20
-385.2603505108807
 30
0.0
 11
-304.3263956018399
 21
-386.7606280301068
 31
0.0
  0
LINE
  5
218
330
1F
100
AcDbEntity
  8
D-0
  6
Continuous
 62
     7
370
     9
100
AcDbLine
 10
-304.3263956018399
 20
-386.7606280301068
 30
0.0
 11
-305.826181978793
 21
-386.7606280301068
 31
0.0
  0
LINE
  5
219
330
1F
100
AcDbEntity
  8
D-0
  6
Continuous
 62
     7
370
     9
100
AcDbLine
 10
-316.5506120630215
 20
-427.9806588147137
 30
0.0
 11
-316.5506120630215
 21
-426.4803765271161
 31
0.0
  0
LINE
  5
21A
330
1F
100
AcDbEntity
  8
D-0
  6
Continuous
 62
     7
370
     9
100
AcDbLine
 10
-316.5506120630215
 20
-426.4803765271161
 30
0.0
 11
-315.0503297754238
 21
-426.4803765271161
 31
0.0
  0
LINE
  5
21B
330
1F
100
AcDbEntity
  8
D-0
  6
Continuous
 62
     7
370
     9
100
AcDbLine
 10
-315.0503297754238
 20
-426.4803765271161
 30
0.0
 11
-315.0503297754238
 21
-427.9806588147137
 31
0.0
  0
LINE
  5
21C
330
1F
100
AcDbEntity
  8
D-0
  6
Continuous
 62
     7
370
     9
100
AcDbLine
 10
-315.0503297754238
 20
-427.9806588147137
 30
0.0
 11
-316.5506120630215
 21
-427.9806588147137
 31
0.0
  0
LINE
  5
21D
330
1F
100
AcDbEntity
  8
D-0
  6
Continuous
 62
     7
370
     9
100
AcDbLine
 10
-279.2071100183438
 20
-436.5230343792889
 30
0.0
 11
-279.2071100183438
 21
-435.0227520916912
 31
0.0
  0
LINE
  5
21E
330
1F
100
AcDbEntity
  8
D-0
  6
Continuous
 62
     7
370
     9
100
AcDbLine
 10
-279.2071100183438
 20
-435.0227520916912
 30
0.0
 11
-277.7068277307461
 21
-435.0227520916912
 31
0.0
  0
LINE
  5
21F
330
1F
100
AcDbEntity
  8
D-0
  6
Continuous
 62
     7
370
     9
100
AcDbLine
 10
-277.7068277307461
 20
-435.0227520916912
 30
0.0
 11
-277.7068277307461
 21
-436.5230343792889
 31
0.0
  0
LINE
  5
220
330
1F
100
AcDbEntity
  8
D-0
  6
Continuous
 62
     7
370
     9
100
AcDbLine
 10
-277.7068277307461
 20
-436.5230343792889
 30
0.0
 11
-279.2071100183438
 21
-436.5230343792889
 31
0.0
  0
LINE
  5
221
330
1F
100
AcDbEntity
  8
D-0
  6
Continuous
 62
     7
370
     9
100
AcDbLine
 10
-227.0022912927578
 20
-441.2478230450604
 30
0.0
 11
-227.0022912927578
 21
-439.7475502942059
 31
0.0
  0
LINE
  5
222
330
1F
100
AcDbEntity
  8
D-0
  6
Continuous
 62
     7
370
     9
100
AcDbLine
 10
-227.0022912927578
 20
-439.7475502942059
 30
0.0
 11
-225.5022760339688
 21
-439.7475502942059
 31
0.0
  0
LINE
  5
223
330
1F
100
AcDbEntity
  8
D-0
  6
Continuous
 62
     7
370
     9
100
AcDbLine
 10
-225.5022760339688
 20
-439.7475502942059
 30
0.0
 11
-225.5022760339688
 21
-441.2478230450604
 31
0.0
  0
LINE
  5
224
330
1F
100
AcDbEntity
  8
D-0
  6
Continuous
 62
     7
370
     9
100
AcDbLine
 10
-225.5022760339688
 20
-441.2478230450604
 30
0.0
 11
-227.0022912927578
 21
-441.2478230450604
 31
0.0
  0
LINE
  5
225
330
1F
100
AcDbEntity
  8
D-0
  6
Continuous
 62
     7
370
     9
100
AcDbLine
 10
-172.281260103793
 20
-434.492604539201
 30
0.0
 11
-172.281260103793
 21
-432.9923222516034
 31
0.0
  0
LINE
  5
226
330
1F
100
AcDbEntity
  8
D-0
  6
Continuous
 62
     7
370
     9
100
AcDbLine
 10
-172.281260103793
 20
-432.9923222516034
 30
0.0
 11
-170.7812066980313
 21
-432.9923222516034
 31
0.0
  0
LINE
  5
227
330
1F
100
AcDbEntity
  8
D-0
  6
Continuous
 62
     7
370
     9
100
AcDbLine
 10
-170.7812066980313
 20
-432.9923222516034
 30
0.0
 11
-170.7812066980313
 21
-434.492604539201
 31
0.0
  0
LINE
  5
228
330
1F
100
AcDbEntity
  8
D-0
  6
Continuous
 62
     7
370
     9
100
AcDbLine
 10
-170.7812066980313
 20
-434.492604539201
 30
0.0
 11
-172.281260103793
 21
-434.492604539201
 31
0.0
  0
LINE
  5
229
330
1F
100
AcDbEntity
  8
D-0
  6
Continuous
 62
     7
370
     9
100
AcDbLine
 10
-184.4625802942227
 20
-394.5647595379803
 30
0.0
 11
-184.4625802942227
 21
-393.0644772503827
 31
0.0
  0
LINE
  5
22A
330
1F
100
AcDbEntity
  8
D-0
  6
Continuous
 62
     7
370
     9
100
AcDbLine
 10
-184.4625802942227
 20
-393.0644772503827
 30
0.0
 11
-182.9625650354336
 21
-393.0644772503827
 31
0.0
  0
LINE
  5
22B
330
1F
100
AcDbEntity
  8
D-0
  6
Continuous
 62
     7
370
     9
100
AcDbLine
 10
-182.9625650354336
 20
-393.0644772503827
 30
0.0
 11
-182.9625650354336
 21
-394.5647595379803
 31
0.0
  0
LINE
  5
22C
330
1F
100
AcDbEntity
  8
D-0
  6
Continuous
 62
     7
370
     9
100
AcDbLine
 10
-182.9625650354336
 20
-394.5647595379803
 30
0.0
 11
-184.4625802942227
 21
-394.5647595379803
 31
0.0
  0
LINE
  5
22D
330
1F
100
AcDbEntity
  8
D-0
  6
Continuous
 62
     7
370
     9
100
AcDbLine
 10
-544.8735185571621
 20
-323.8554177735302
 30
0.0
 11
-544.8735185571621
 21
-322.3551378701184
 31
0.0
  0
LINE
  5
22E
330
1F
100
AcDbEntity
  8
D-0
  6
Continuous
 62
     7
370
     9
100
AcDbLine
 10
-544.8735185571621
 20
-322.3551378701184
 30
0.0
 11
-543.3737369485806
 21
-322.3551378701184
 31
0.0
  0
LINE
  5
22F
330
1F
100
AcDbEntity
  8
D-0
  6
Continuous
 62
     7
370
     9
100
AcDbLine
 10
-543.3737369485806
 20
-322.3551378701184
 30
0.0
 11
-543.3737369485806
 21
-323.8554177735302
 31
0.0
  0
LINE
  5
230
330
1F
100
AcDbEntity
  8
D-0
  6
Continuous
 62
     7
370
     9
100
AcDbLine
 10
-543.3737369485806
 20
-323.8554177735302
 30
0.0
 11
-544.8735185571621
 21
-323.8554177735302
 31
0.0
  0
LINE
  5
231
330
1F
100
AcDbEntity
  8
D-0
  6
Continuous
 62
     7
370
     9
100
AcDbLine
 10
-518.0686613031338
 20
-341.5074847195599
 30
0.0
 11
-518.0686613031338
 21
-340.007204816148
 31
0.0
  0
LINE
  5
232
330
1F
100
AcDbEntity
  8
D-0
  6
Continuous
 62
     7
370
     9
100
AcDbLine
 10
-518.0686613031338
 20
-340.007204816148
 30
0.0
 11
-516.5688749261807
 21
-340.007204816148
 31
0.0
  0
LINE
  5
233
330
1F
100
AcDbEntity
  8
D-0
  6
Continuous
 62
     7
370
     9
100
AcDbLine
 10
-516.5688749261807
 20
-340.007204816148
 30
0.0
 11
-516.5688749261807
 21
-341.5074847195599
 31
0.0
  0
LINE
  5
234
330
1F
100
AcDbEntity
  8
D-0
  6
Continuous
 62
     7
370
     9
100
AcDbLine
 10
-516.5688749261807
 20
-341.5074847195599
 30
0.0
 11
-518.0686613031338
 21
-341.5074847195599
 31
0.0
  0
LINE
  5
235
330
1F
100
AcDbEntity
  8
D-0
  6
Continuous
 62
     7
370
     9
100
AcDbLine
 10
-499.7630735345791
 20
-376.5341542218182
 30
0.0
 11
-499.7630735345791
 21
-375.0338719342205
 31
0.0
  0
LINE
  5
236
330
1F
100
AcDbEntity
  8
D-0
  6
Continuous
 62
     7
370
     9
100
AcDbLine
 10
-499.7630735345791
 20
-375.0338719342205
 30
0.0
 11
-498.2627912469815
 21
-375.0338719342205
 31
0.0
  0
LINE
  5
237
330
1F
100
AcDbEntity
  8
D-0
  6
Continuous
 62
     7
370
     9
100
AcDbLine
 10
-498.2627912469815
 20
-375.0338719342205
 30
0.0
 11
-498.2627912469815
 21
-376.5341542218182
 31
0.0
  0
LINE
  5
238
330
1F
100
AcDbEntity
  8
D-0
  6
Continuous
 62
     7
370
     9
100
AcDbLine
 10
-498.2627912469815
 20
-376.5341542218182
 30
0.0
 11
-499.7630735345791
 21
-376.5341542218182
 31
0.0
  0
LINE
  5
239
330
1F
100
AcDbEntity
  8
D-0
  6
Continuous
 62
     7
370
     9
100
AcDbLine
 10
-453.9985986658047
 20
-327.7780447457287
 30
0.0
 11
-453.9985986658047
 21
-326.2777648423169
 31
0.0
  0
LINE
  5
23A
330
1F
100
AcDbEntity
  8
D-0
  6
Continuous
 62
     7
370
     9
100
AcDbLine
 10
-453.9985986658047
 20
-326.2777648423169
 30
0.0
 11
-452.4983163782071
 21
-326.2777648423169
 31
0.0
  0
LINE
  5
23B
330
1F
100
AcDbEntity
  8
D-0
  6
Continuous
 62
     7
370
     9
100
AcDbLine
 10
-452.4983163782071
 20
-326.2777648423169
 30
0.0
 11
-452.4983163782071
 21
-327.7780447457287
 31
0.0
  0
LINE
  5
23C
330
1F
100
AcDbEntity
  8
D-0
  6
Continuous
 62
     7
370
     9
100
AcDbLine
 10
-452.4983163782071
 20
-327.7780447457287
 30
0.0
 11
-453.9985986658047
 21
-327.7780447457287
 31
0.0
  0
LINE
  5
23D
330
1F
100
AcDbEntity
  8
D-0
  6
Continuous
 62
     7
370
     9
100
AcDbLine
 10
-395.1582094140957
 20
-333.6622307751629
 30
0.0
 11
-395.1582094140957
 21
-332.1619508717511
 31
0.0
  0
LINE
  5
23E
330
1F
100
AcDbEntity
  8
D-0
  6
Continuous
 62
     7
370
     9
100
AcDbLine
 10
-395.1582094140957
 20
-332.1619508717511
 30
0.0
 11
-393.6584230371426
 21
-332.1619508717511
 31
0.0
  0
LINE
  5
23F
330
1F
100
AcDbEntity
  8
D-0
  6
Continuous
 62
     7
370
     9
100
AcDbLine
 10
-393.6584230371426
 20
-332.1619508717511
 30
0.0
 11
-393.6584230371426
 21
-333.6622307751629
 31
0.0
  0
LINE
  5
240
330
1F
100
AcDbEntity
  8
D-0
  6
Continuous
 62
     7
370
     9
100
AcDbLine
 10
-393.6584230371426
 20
-333.6622307751629
 30
0.0
 11
-395.1582094140957
 21
-333.6622307751629
 31
0.0
  0
LINE
  5
241
330
1F
100
AcDbEntity
  8
D-0
  6
Continuous
 62
     7
370
     9
100
AcDbLine
 10
-414.7718378015469
 20
-355.2369235012982
 30
0.0
 11
-414.7718378015469
 21
-353.7366459820721
 31
0.0
  0
LINE
  5
242
330
1F
100
AcDbEntity
  8
D-0
  6
Continuous
 62
     7
370
     9
100
AcDbLine
 10
-414.7718378015469
 20
-353.7366459820721
 30
0.0
 11
-413.2715555139492
 21
-353.7366459820721
 31
0.0
  0
LINE
  5
243
330
1F
100
AcDbEntity
  8
D-0
  6
Continuous
 62
     7
370
     9
100
AcDbLine
 10
-413.2715555139492
 20
-353.7366459820721
 30
0.0
 11
-413.2715555139492
 21
-355.2369235012982
 31
0.0
  0
LINE
  5
244
330
1F
100
AcDbEntity
  8
D-0
  6
Continuous
 62
     7
370
     9
100
AcDbLine
 10
-413.2715555139492
 20
-355.2369235012982
 30
0.0
 11
-414.7718378015469
 21
-355.2369235012982
 31
0.0
  0
LINE
  5
245
330
1F
100
AcDbEntity
  8
D-0
  6
Continuous
 62
     7
370
     9
100
AcDbLine
 10
-401.696428866
 20
-380.080721185014
 30
0.0
 11
-401.696428866
 21
-378.5804388974163
 31
0.0
  0
LINE
  5
246
330
1F
100
AcDbEntity
  8
D-0
  6
Continuous
 62
     7
370
     9
100
AcDbLine
 10
-401.696428866
 20
-378.5804388974163
 30
0.0
 11
-400.1961465784024
 21
-378.5804388974163
 31
0.0
  0
LINE
  5
247
330
1F
100
AcDbEntity
  8
D-0
  6
Continuous
 62
     7
370
     9
100
AcDbLine
 10
-400.1961465784024
 20
-378.5804388974163
 30
0.0
 11
-400.1961465784024
 21
-380.080721185014
 31
0.0
  0
LINE
  5
248
330
1F
100
AcDbEntity
  8
D-0
  6
Continuous
 62
     7
370
     9
100
AcDbLine
 10
-400.1961465784024
 20
-380.080721185014
 30
0.0
 11
-401.696428866
 21
-380.080721185014
 31
0.0
  0
LINE
  5
249
330
1F
100
AcDbEntity
  8
D-0
  6
Continuous
 62
     7
370
     9
100
AcDbLine
 10
-397.7732988305996
 20
-418.653456971452
 30
0.0
 11
-397.7732988305996
 21
-417.1531746838543
 31
0.0
  0
LINE
  5
24A
330
1F
100
AcDbEntity
  8
D-0
  6
Continuous
 62
     7
370
     9
100
AcDbLine
 10
-397.7732988305996
 20
-417.1531746838543
 30
0.0
 11
-396.2735124536465
 21
-417.1531746838543
 31
0.0
  0
LINE
  5
24B
330
1F
100
AcDbEntity
  8
D-0
  6
Continuous
 62
     7
370
     9
100
AcDbLine
 10
-396.2735124536465
 20
-417.1531746838543
 30
0.0
 11
-396.2735124536465
 21
-418.653456971452
 31
0.0
  0
LINE
  5
24C
330
1F
100
AcDbEntity
  8
D-0
  6
Continuous
 62
     7
370
     9
100
AcDbLine
 10
-396.2735124536465
 20
-418.653456971452
 30
0.0
 11
-397.7732988305996
 21
-418.653456971452
 31
0.0
  0
LINE
  5
24D
330
1F
100
AcDbEntity
  8
D-0
  6
Continuous
 62
     7
370
     9
100
AcDbLine
 10
-225.4916330285977
 20
-403.6823723767254
 30
0.0
 11
-225.4916330285977
 21
-402.1820900891278
 31
0.0
  0
LINE
  5
24E
330
1F
100
AcDbEntity
  8
D-0
  6
Continuous
 62
     7
370
     9
100
AcDbLine
 10
-225.4916330285977
 20
-402.1820900891278
 30
0.0
 11
-223.991579622836
 21
-402.1820900891278
 31
0.0
  0
LINE
  5
24F
330
1F
100
AcDbEntity
  8
D-0
  6
Continuous
 62
     7
370
     9
100
AcDbLine
 10
-223.991579622836
 20
-402.1820900891278
 30
0.0
 11
-223.991579622836
 21
-403.6823723767254
 31
0.0
  0
LINE
  5
250
330
1F
100
AcDbEntity
  8
D-0
  6
Continuous
 62
     7
370
     9
100
AcDbLine
 10
-223.991579622836
 20
-403.6823723767254
 30
0.0
 11
-225.4916330285977
 21
-403.6823723767254
 31
0.0
  0
LINE
  5
251
330
1F
100
AcDbEntity
  8
D-0
  6
Continuous
 62
     7
370
     9
100
AcDbLine
 10
-165.0065179773281
 20
-364.1940091107342
 30
0.0
 11
-165.0065179773281
 21
-362.6937268231366
 31
0.0
  0
LINE
  5
252
330
1F
100
AcDbEntity
  8
D-0
  6
Continuous
 62
     7
370
     9
100
AcDbLine
 10
-165.0065179773281
 20
-362.6937268231366
 30
0.0
 11
-163.5062356897305
 21
-362.6937268231366
 31
0.0
  0
LINE
  5
253
330
1F
100
AcDbEntity
  8
D-0
  6
Continuous
 62
     7
370
     9
100
AcDbLine
 10
-163.5062356897305
 20
-362.6937268231366
 30
0.0
 11
-163.5062356897305
 21
-364.1940091107342
 31
0.0
  0
LINE
  5
254
330
1F
100
AcDbEntity
  8
D-0
  6
Continuous
 62
     7
370
     9
100
AcDbLine
 10
-163.5062356897305
 20
-364.1940091107342
 30
0.0
 11
-165.0065179773281
 21
-364.1940091107342
 31
0.0
  0
LINE
  5
255
330
1F
100
AcDbEntity
  8
D-0
  6
Continuous
 62
     7
370
     9
100
AcDbLine
 10
-319.0071435876797
 20
-353.3011267636273
 30
0.0
 11
-319.0071435876797
 21
-351.8008492444012
 31
0.0
  0
LINE
  5
256
330
1F
100
AcDbEntity
  8
D-0
  6
Continuous
 62
     7
370
     9
100
AcDbLine
 10
-319.0071435876797
 20
-351.8008492444012
 30
0.0
 11
-317.5068613000821
 21
-351.8008492444012
 31
0.0
  0
LINE
  5
257
330
1F
100
AcDbEntity
  8
D-0
  6
Continuous
 62
     7
370
     9
100
AcDbLine
 10
-317.5068613000821
 20
-351.8008492444012
 30
0.0
 11
-317.5068613000821
 21
-353.3011267636273
 31
0.0
  0
LINE
  5
258
330
1F
100
AcDbEntity
  8
D-0
  6
Continuous
 62
     7
370
     9
100
AcDbLine
 10
-317.5068613000821
 20
-353.3011267636273
 30
0.0
 11
-319.0071435876797
 21
-353.3011267636273
 31
0.0
  0
LINE
  5
259
330
1F
100
AcDbEntity
  8
D-0
  6
Continuous
 62
     7
370
     9
100
AcDbLine
 10
-396.6358323999356
 20
-476.551463410661
 30
0.0
 11
-396.6358323999356
 21
-475.0511811230633
 31
0.0
  0
LINE
  5
25A
330
1F
100
AcDbEntity
  8
D-0
  6
Continuous
 62
     7
370
     9
100
AcDbLine
 10
-396.6358323999356
 20
-475.0511811230633
 30
0.0
 11
-395.1355501123379
 21
-475.0511811230633
 31
0.0
  0
LINE
  5
25B
330
1F
100
AcDbEntity
  8
D-0
  6
Continuous
 62
     7
370
     9
100
AcDbLine
 10
-395.1355501123379
 20
-475.0511811230633
 30
0.0
 11
-395.1355501123379
 21
-476.551463410661
 31
0.0
  0
LINE
  5
25C
330
1F
100
AcDbEntity
  8
D-0
  6
Continuous
 62
     7
370
     9
100
AcDbLine
 10
-395.1355501123379
 20
-476.551463410661
 30
0.0
 11
-396.6358323999356
 21
-476.551463410661
 31
0.0
  0
LINE
  5
25D
330
1F
100
AcDbEntity
  8
D-0
  6
Continuous
 62
     7
370
     9
100
AcDbLine
 10
-347.2712846704434
 20
-484.4497368786786
 30
0.0
 11
-347.2712846704434
 21
-482.9494545910809
 31
0.0
  0
LINE
  5
25E
330
1F
100
AcDbEntity
  8
D-0
  6
Continuous
 62
     7
370
     9
100
AcDbLine
 10
-347.2712846704434
 20
-482.9494545910809
 30
0.0
 11
-345.7710023828457
 21
-482.9494545910809
 31
0.0
  0
LINE
  5
25F
330
1F
100
AcDbEntity
  8
D-0
  6
Continuous
 62
     7
370
     9
100
AcDbLine
 10
-345.7710023828457
 20
-482.9494545910809
 30
0.0
 11
-345.7710023828457
 21
-484.4497368786786
 31
0.0
  0
LINE
  5
260
330
1F
100
AcDbEntity
  8
D-0
  6
Continuous
 62
     7
370
     9
100
AcDbLine
 10
-345.7710023828457
 20
-484.4497368786786
 30
0.0
 11
-347.2712846704434
 21
-484.4497368786786
 31
0.0
  0
LINE
  5
261
330
1F
100
AcDbEntity
  8
D-0
  6
Continuous
 62
     7
370
     9
100
AcDbLine
 10
-364.1524072595547
 20
-505.0305054638836
 30
0.0
 11
-364.1524072595547
 21
-503.5302422497723
 31
0.0
  0
LINE
  5
262
330
1F
100
AcDbEntity
  8
D-0
  6
Continuous
 62
     7
370
     9
100
AcDbLine
 10
-364.1524072595547
 20
-503.5302422497723
 30
0.0
 11
-362.6526208826016
 21
-503.5302422497723
 31
0.0
  0
LINE
  5
263
330
1F
100
AcDbEntity
  8
D-0
  6
Continuous
 62
     7
370
     9
100
AcDbLine
 10
-362.6526208826016
 20
-503.5302422497723
 30
0.0
 11
-362.6526208826016
 21
-505.0305054638836
 31
0.0
  0
LINE
  5
264
330
1F
100
AcDbEntity
  8
D-0
  6
Continuous
 62
     7
370
     9
100
AcDbLine
 10
-362.6526208826016
 20
-505.0305054638836
 30
0.0
 11
-364.1524072595547
 21
-505.0305054638836
 31
0.0
  0
LINE
  5
265
330
1F
100
AcDbEntity
  8
D-0
  6
Continuous
 62
     7
370
     9
100
AcDbLine
 10
-412.4323602624844
 20
-539.738604829118
 30
0.0
 11
-412.4323602624844
 21
-538.2383225415203
 31
0.0
  0
LINE
  5
266
330
1F
100
AcDbEntity
  8
D-0
  6
Continuous
 62
     7
370
     9
100
AcDbLine
 10
-412.4323602624844
 20
-538.2383225415203
 30
0.0
 11
-410.9325738855313
 21
-538.2383225415203
 31
0.0
  0
LINE
  5
267
330
1F
100
AcDbEntity
  8
D-0
  6
Continuous
 62
     7
370
     9
100
AcDbLine
 10
-410.9325738855313
 20
-538.2383225415203
 30
0.0
 11
-410.9325738855313
 21
-539.738604829118
 31
0.0
  0
LINE
  5
268
330
1F
100
AcDbEntity
  8
D-0
  6
Continuous
 62
     7
370
     9
100
AcDbLine
 10
-410.9325738855313
 20
-539.738604829118
 30
0.0
 11
-412.4323602624844
 21
-539.738604829118
 31
0.0
  0
LINE
  5
269
330
1F
100
AcDbEntity
  8
D-0
  6
Continuous
 62
     7
370
     9
100
AcDbLine
 10
-341.3474603601406
 20
-537.7636597607586
 30
0.0
 11
-341.3474603601406
 21
-536.263377473161
 31
0.0
  0
LINE
  5
26A
330
1F
100
AcDbEntity
  8
D-0
  6
Continuous
 62
     7
370
     9
100
AcDbLine
 10
-341.3474603601406
 20
-536.263377473161
 30
0.0
 11
-339.847178072543
 21
-536.263377473161
 31
0.0
  0
LINE
  5
26B
330
1F
100
AcDbEntity
  8
D-0
  6
Continuous
 62
     7
370
     9
100
AcDbLine
 10
-339.847178072543
 20
-536.263377473161
 30
0.0
 11
-339.847178072543
 21
-537.7636597607586
 31
0.0
  0
LINE
  5
26C
330
1F
100
AcDbEntity
  8
D-0
  6
Continuous
 62
     7
370
     9
100
AcDbLine
 10
-339.847178072543
 20
-537.7636597607586
 30
0.0
 11
-341.3474603601406
 21
-537.7636597607586
 31
0.0
  0
LINE
  5
26D
330
1F
100
AcDbEntity
  8
D-0
  6
Continuous
 62
     7
370
     9
100
AcDbLine
 10
-690.555710405917
 20
-431.7823861096356
 30
0.0
 11
-690.555710405917
 21
-430.2821133587811
 31
0.0
  0
LINE
  5
26E
330
1F
100
AcDbEntity
  8
D-0
  6
Continuous
 62
     7
370
     9
100
AcDbLine
 10
-690.555710405917
 20
-430.2821133587811
 30
0.0
 11
-689.0559240289639
 21
-430.2821133587811
 31
0.0
  0
LINE
  5
26F
330
1F
100
AcDbEntity
  8
D-0
  6
Continuous
 62
     7
370
     9
100
AcDbLine
 10
-689.0559240289639
 20
-430.2821133587811
 30
0.0
 11
-689.0559240289639
 21
-431.7823861096356
 31
0.0
  0
LINE
  5
270
330
1F
100
AcDbEntity
  8
D-0
  6
Continuous
 62
     7
370
     9
100
AcDbLine
 10
-689.0559240289639
 20
-431.7823861096356
 30
0.0
 11
-690.555710405917
 21
-431.7823861096356
 31
0.0
  0
LINE
  5
271
330
1F
100
AcDbEntity
  8
D-0
  6
Continuous
 62
     7
370
     9
100
AcDbLine
 10
-580.8153196283291
 20
-430.7493374798748
 30
0.0
 11
-580.8153196283291
 21
-429.2490551922772
 31
0.0
  0
LINE
  5
272
330
1F
100
AcDbEntity
  8
D-0
  6
Continuous
 62
     7
370
     9
100
AcDbLine
 10
-580.8153196283291
 20
-429.2490551922772
 30
0.0
 11
-579.3155356355618
 21
-429.2490551922772
 31
0.0
  0
LINE
  5
273
330
1F
100
AcDbEntity
  8
D-0
  6
Continuous
 62
     7
370
     9
100
AcDbLine
 10
-579.3155356355618
 20
-429.2490551922772
 30
0.0
 11
-579.3155356355618
 21
-430.7493374798748
 31
0.0
  0
LINE
  5
274
330
1F
100
AcDbEntity
  8
D-0
  6
Continuous
 62
     7
370
     9
100
AcDbLine
 10
-579.3155356355618
 20
-430.7493374798748
 30
0.0
 11
-580.8153196283291
 21
-430.7493374798748
 31
0.0
  0
LINE
  5
275
330
1F
100
AcDbEntity
  8
D-0
  6
Continuous
 62
     7
370
     9
100
AcDbLine
 10
-702.4945207544278
 20
-458.7799904797528
 30
0.0
 11
-702.4945207544278
 21
-457.2797081921551
 31
0.0
  0
LINE
  5
276
330
1F
100
AcDbEntity
  8
D-0
  6
Continuous
 62
     7
370
     9
100
AcDbLine
 10
-702.4945207544278
 20
-457.2797081921551
 30
0.0
 11
-700.9947439142178
 21
-457.2797081921551
 31
0.0
  0
LINE
  5
277
330
1F
100
AcDbEntity
  8
D-0
  6
Continuous
 62
     7
370
     9
100
AcDbLine
 10
-700.9947439142178
 20
-457.2797081921551
 30
0.0
 11
-700.9947439142178
 21
-458.7799904797528
 31
0.0
  0
LINE
  5
278
330
1F
100
AcDbEntity
  8
D-0
  6
Continuous
 62
     7
370
     9
100
AcDbLine
 10
-700.9947439142178
 20
-458.7799904797528
 30
0.0
 11
-702.4945207544278
 21
-458.7799904797528
 31
0.0
  0
LINE
  5
279
330
1F
100
AcDbEntity
  8
D-0
  6
Continuous
 62
     7
370
     9
100
AcDbLine
 10
-643.2567735620449
 20
-563.4334061596844
 30
0.0
 11
-643.2567735620449
 21
-561.9331238720868
 31
0.0
  0
LINE
  5
27A
330
1F
100
AcDbEntity
  8
D-0
  6
Continuous
 62
     7
370
     9
100
AcDbLine
 10
-643.2567735620449
 20
-561.9331238720868
 30
0.0
 11
-641.7569871850918
 21
-561.9331238720868
 31
0.0
  0
LINE
  5
27B
330
1F
100
AcDbEntity
  8
D-0
  6
Continuous
 62
     7
370
     9
100
AcDbLine
 10
-641.7569871850918
 20
-561.9331238720868
 30
0.0
 11
-641.7569871850918
 21
-563.4334061596844
 31
0.0
  0
LINE
  5
27C
330
1F
100
AcDbEntity
  8
D-0
  6
Continuous
 62
     7
370
     9
100
AcDbLine
 10
-641.7569871850918
 20
-563.4334061596844
 30
0.0
 11
-643.2567735620449
 21
-563.4334061596844
 31
0.0
  0
LINE
  5
27D
330
1F
100
AcDbEntity
  8
D-0
  6
Continuous
 62
     7
370
     9
100
AcDbLine
 10
-657.0793624826382
 20
-622.6711533520672
 30
0.0
 11
-657.0793624826382
 21
-621.1708710644696
 31
0.0
  0
LINE
  5
27E
330
1F
100
AcDbEntity
  8
D-0
  6
Continuous
 62
     7
370
     9
100
AcDbLine
 10
-657.0793624826382
 20
-621.1708710644696
 30
0.0
 11
-655.5790801950405
 21
-621.1708710644696
 31
0.0
  0
LINE
  5
27F
330
1F
100
AcDbEntity
  8
D-0
  6
Continuous
 62
     7
370
     9
100
AcDbLine
 10
-655.5790801950405
 20
-621.1708710644696
 30
0.0
 11
-655.5790801950405
 21
-622.6711533520672
 31
0.0
  0
LINE
  5
280
330
1F
100
AcDbEntity
  8
D-0
  6
Continuous
 62
     7
370
     9
100
AcDbLine
 10
-655.5790801950405
 20
-622.6711533520672
 30
0.0
 11
-657.0793624826382
 21
-622.6711533520672
 31
0.0
  0
LINE
  5
281
330
1F
100
AcDbEntity
  8
D-0
  6
Continuous
 62
     7
370
     9
100
AcDbLine
 10
-687.6854558893154
 20
-633.5313485119793
 30
0.0
 11
-687.6854558893154
 21
-632.0310662243817
 31
0.0
  0
LINE
  5
282
330
1F
100
AcDbEntity
  8
D-0
  6
Continuous
 62
     7
370
     9
100
AcDbLine
 10
-687.6854558893154
 20
-632.0310662243817
 30
0.0
 11
-686.1851736017178
 21
-632.0310662243817
 31
0.0
  0
LINE
  5
283
330
1F
100
AcDbEntity
  8
D-0
  6
Continuous
 62
     7
370
     9
100
AcDbLine
 10
-686.1851736017178
 20
-632.0310662243817
 30
0.0
 11
-686.1851736017178
 21
-633.5313485119793
 31
0.0
  0
LINE
  5
284
330
1F
100
AcDbEntity
  8
D-0
  6
Continuous
 62
     7
370
     9
100
AcDbLine
 10
-686.1851736017178
 20
-633.5313485119793
 30
0.0
 11
-687.6854558893154
 21
-633.5313485119793
 31
0.0
  0
LINE
  5
285
330
1F
100
AcDbEntity
  8
D-0
  6
Continuous
 62
     7
370
     9
100
AcDbLine
 10
-710.5389543481778
 20
-567.3827813122723
 30
0.0
 11
-710.5389543481778
 21
-565.8824990246746
 31
0.0
  0
LINE
  5
286
330
1F
100
AcDbEntity
  8
D-0
  6
Continuous
 62
     7
370
     9
100
AcDbLine
 10
-710.5389543481778
 20
-565.8824990246746
 30
0.0
 11
-709.0386720605801
 21
-565.8824990246746
 31
0.0
  0
LINE
  5
287
330
1F
100
AcDbEntity
  8
D-0
  6
Continuous
 62
     7
370
     9
100
AcDbLine
 10
-709.0386720605801
 20
-565.8824990246746
 30
0.0
 11
-709.0386720605801
 21
-567.3827813122723
 31
0.0
  0
LINE
  5
288
330
1F
100
AcDbEntity
  8
D-0
  6
Continuous
 62
     7
370
     9
100
AcDbLine
 10
-709.0386720605801
 20
-567.3827813122723
 30
0.0
 11
-710.5389543481778
 21
-567.3827813122723
 31
0.0
  0
LINE
  5
289
330
1F
100
AcDbEntity
  8
D-0
  6
Continuous
 62
     7
370
     9
100
AcDbLine
 10
-684.7235437341641
 20
-545.6624291394207
 30
0.0
 11
-684.7235437341641
 21
-544.1621468518231
 31
0.0
  0
LINE
  5
28A
330
1F
100
AcDbEntity
  8
D-0
  6
Continuous
 62
     7
370
     9
100
AcDbLine
 10
-684.7235437341641
 20
-544.1621468518231
 30
0.0
 11
-683.2232614465664
 21
-544.1621468518231
 31
0.0
  0
LINE
  5
28B
330
1F
100
AcDbEntity
  8
D-0
  6
Continuous
 62
     7
370
     9
100
AcDbLine
 10
-683.2232614465664
 20
-544.1621468518231
 30
0.0
 11
-683.2232614465664
 21
-545.6624291394207
 31
0.0
  0
LINE
  5
28C
330
1F
100
AcDbEntity
  8
D-0
  6
Continuous
 62
     7
370
     9
100
AcDbLine
 10
-683.2232614465664
 20
-545.6624291394207
 30
0.0
 11
-684.7235437341641
 21
-545.6624291394207
 31
0.0
  0
LINE
  5
28D
330
1F
100
AcDbEntity
  8
D-0
  6
Continuous
 62
     7
370
     9
100
AcDbLine
 10
-621.5364118524502
 20
-598.155352875993
 30
0.0
 11
-621.5364118524502
 21
-596.6550705883953
 31
0.0
  0
LINE
  5
28E
330
1F
100
AcDbEntity
  8
D-0
  6
Continuous
 62
     7
370
     9
100
AcDbLine
 10
-621.5364118524502
 20
-596.6550705883953
 30
0.0
 11
-620.0361319490383
 21
-596.6550705883953
 31
0.0
  0
LINE
  5
28F
330
1F
100
AcDbEntity
  8
D-0
  6
Continuous
 62
     7
370
     9
100
AcDbLine
 10
-620.0361319490383
 20
-596.6550705883953
 30
0.0
 11
-620.0361319490383
 21
-598.155352875993
 31
0.0
  0
LINE
  5
290
330
1F
100
AcDbEntity
  8
D-0
  6
Continuous
 62
     7
370
     9
100
AcDbLine
 10
-620.0361319490383
 20
-598.155352875993
 30
0.0
 11
-621.5364118524502
 21
-598.155352875993
 31
0.0
  0
LINE
  5
291
330
1F
100
AcDbEntity
  8
D-0
  6
Continuous
 62
     7
370
     9
100
AcDbLine
 10
-698.5456415124844
 20
-736.0344002697918
 30
0.0
 11
-698.5456415124844
 21
-734.5341179821942
 31
0.0
  0
LINE
  5
292
330
1F
100
AcDbEntity
  8
D-0
  6
Continuous
 62
     7
370
     9
100
AcDbLine
 10
-698.5456415124844
 20
-734.5341179821942
 30
0.0
 11
-697.0453592248867
 21
-734.5341179821942
 31
0.0
  0
LINE
  5
293
330
1F
100
AcDbEntity
  8
D-0
  6
Continuous
 62
     7
370
     9
100
AcDbLine
 10
-697.0453592248867
 20
-734.5341179821942
 30
0.0
 11
-697.0453592248867
 21
-736.0344002697918
 31
0.0
  0
LINE
  5
294
330
1F
100
AcDbEntity
  8
D-0
  6
Continuous
 62
     7
370
     9
100
AcDbLine
 10
-697.0453592248867
 20
-736.0344002697918
 30
0.0
 11
-698.5456415124844
 21
-736.0344002697918
 31
0.0
  0
LINE
  5
295
330
1F
100
AcDbEntity
  8
D-0
  6
Continuous
 62
     7
370
     9
100
AcDbLine
 10
-628.1553789087246
 20
-739.7464440319989
 30
0.0
 11
-628.1553789087246
 21
-738.2461617444012
 31
0.0
  0
LINE
  5
296
330
1F
100
AcDbEntity
  8
D-0
  6
Continuous
 62
     7
370
     9
100
AcDbLine
 10
-628.1553789087246
 20
-738.2461617444012
 30
0.0
 11
-626.6550990053128
 21
-738.2461617444012
 31
0.0
  0
LINE
  5
297
330
1F
100
AcDbEntity
  8
D-0
  6
Continuous
 62
     7
370
     9
100
AcDbLine
 10
-626.6550990053128
 20
-738.2461617444012
 30
0.0
 11
-626.6550990053128
 21
-739.7464440319989
 31
0.0
  0
LINE
  5
298
330
1F
100
AcDbEntity
  8
D-0
  6
Continuous
 62
     7
370
     9
100
AcDbLine
 10
-626.6550990053128
 20
-739.7464440319989
 30
0.0
 11
-628.1553789087246
 21
-739.7464440319989
 31
0.0
  0
LINE
  5
299
330
1F
100
AcDbEntity
  8
D-0
  6
Continuous
 62
     7
370
     9
100
AcDbLine
 10
-603.7649383254956
 20
-765.6530449841473
 30
0.0
 11
-603.7649383254956
 21
-764.1527626965496
 31
0.0
  0
LINE
  5
29A
330
1F
100
AcDbEntity
  8
D-0
  6
Continuous
 62
     7
370
     9
100
AcDbLine
 10
-603.7649383254956
 20
-764.1527626965496
 30
0.0
 11
-602.2651541837166
 21
-764.1527626965496
 31
0.0
  0
LINE
  5
29B
330
1F
100
AcDbEntity
  8
D-0
  6
Continuous
 62
     7
370
     9
100
AcDbLine
 10
-602.2651541837166
 20
-764.1527626965496
 30
0.0
 11
-602.2651541837166
 21
-765.6530449841473
 31
0.0
  0
LINE
  5
29C
330
1F
100
AcDbEntity
  8
D-0
  6
Continuous
 62
     7
370
     9
100
AcDbLine
 10
-602.2651541837166
 20
-765.6530449841473
 30
0.0
 11
-603.7649383254956
 21
-765.6530449841473
 31
0.0
  0
LINE
  5
29D
330
1F
100
AcDbEntity
  8
D-0
  6
Continuous
 62
     7
370
     9
100
AcDbLine
 10
-597.4863578983258
 20
-803.8650582287762
 30
0.0
 11
-597.4863578983258
 21
-802.3647759411786
 31
0.0
  0
LINE
  5
29E
330
1F
100
AcDbEntity
  8
D-0
  6
Continuous
 62
     7
370
     9
100
AcDbLine
 10
-597.4863578983258
 20
-802.3647759411786
 30
0.0
 11
-595.9860782929371
 21
-802.3647759411786
 31
0.0
  0
LINE
  5
29F
330
1F
100
AcDbEntity
  8
D-0
  6
Continuous
 62
     7
370
     9
100
AcDbLine
 10
-595.9860782929371
 20
-802.3647759411786
 30
0.0
 11
-595.9860782929371
 21
-803.8650582287762
 31
0.0
  0
LINE
  5
2A0
330
1F
100
AcDbEntity
  8
D-0
  6
Continuous
 62
     7
370
     9
100
AcDbLine
 10
-595.9860782929371
 20
-803.8650582287762
 30
0.0
 11
-597.4863578983258
 21
-803.8650582287762
 31
0.0
  0
LINE
  5
2A1
330
1F
100
AcDbEntity
  8
D-0
  6
Continuous
 62
     7
370
     9
100
AcDbLine
 10
-671.7145152994107
 20
-809.3236611340496
 30
0.0
 11
-671.7145152994107
 21
-807.823378846452
 31
0.0
  0
LINE
  5
2A2
330
1F
100
AcDbEntity
  8
D-0
  6
Continuous
 62
     7
370
     9
100
AcDbLine
 10
-671.7145152994107
 20
-807.823378846452
 30
0.0
 11
-670.2147336908291
 21
-807.823378846452
 31
0.0
  0
LINE
  5
2A3
330
1F
100
AcDbEntity
  8
D-0
  6
Continuous
 62
     7
370
     9
100
AcDbLine
 10
-670.2147336908291
 20
-807.823378846452
 30
0.0
 11
-670.2147336908291
 21
-809.3236611340496
 31
0.0
  0
LINE
  5
2A4
330
1F
100
AcDbEntity
  8
D-0
  6
Continuous
 62
     7
370
     9
100
AcDbLine
 10
-670.2147336908291
 20
-809.3236611340496
 30
0.0
 11
-671.7145152994107
 21
-809.3236611340496
 31
0.0
  0
LINE
  5
2A5
330
1F
100
AcDbEntity
  8
D-0
  6
Continuous
 62
     7
370
     9
100
AcDbLine
 10
-706.4439054437588
 20
-800.0271676037762
 30
0.0
 11
-706.4439054437588
 21
-798.5268853161786
 31
0.0
  0
LINE
  5
2A6
330
1F
100
AcDbEntity
  8
D-0
  6
Continuous
 62
     7
370
     9
100
AcDbLine
 10
-706.4439054437588
 20
-798.5268853161786
 30
0.0
 11
-704.9436231561612
 21
-798.5268853161786
 31
0.0
  0
LINE
  5
2A7
330
1F
100
AcDbEntity
  8
D-0
  6
Continuous
 62
     7
370
     9
100
AcDbLine
 10
-704.9436231561612
 20
-798.5268853161786
 30
0.0
 11
-704.9436231561612
 21
-800.0271676037762
 31
0.0
  0
LINE
  5
2A8
330
1F
100
AcDbEntity
  8
D-0
  6
Continuous
 62
     7
370
     9
100
AcDbLine
 10
-704.9436231561612
 20
-800.0271676037762
 30
0.0
 11
-706.4439054437588
 21
-800.0271676037762
 31
0.0
  0
LINE
  5
2A9
330
1F
100
AcDbEntity
  8
D-0
  6
Continuous
 62
     7
370
     9
100
AcDbLine
 10
-708.6551805444668
 20
-759.7292016003582
 30
0.0
 11
-708.6551805444668
 21
-758.2289193127606
 31
0.0
  0
LINE
  5
2AA
330
1F
100
AcDbEntity
  8
D-0
  6
Continuous
 62
     7
370
     9
100
AcDbLine
 10
-708.6551805444668
 20
-758.2289193127606
 30
0.0
 11
-707.1553941675137
 21
-758.2289193127606
 31
0.0
  0
LINE
  5
2AB
330
1F
100
AcDbEntity
  8
D-0
  6
Continuous
 62
     7
370
     9
100
AcDbLine
 10
-707.1553941675137
 20
-758.2289193127606
 30
0.0
 11
-707.1553941675137
 21
-759.7292016003582
 31
0.0
  0
LINE
  5
2AC
330
1F
100
AcDbEntity
  8
D-0
  6
Continuous
 62
     7
370
     9
100
AcDbLine
 10
-707.1553941675137
 20
-759.7292016003582
 30
0.0
 11
-708.6551805444668
 21
-759.7292016003582
 31
0.0
  0
LINE
  5
2AD
330
1F
100
AcDbEntity
  8
D-0
  6
Continuous
 62
     7
370
     9
100
AcDbLine
 10
-651.1555334039639
 20
-779.4751427624676
 30
0.0
 11
-651.1555334039639
 21
-777.97486047487
 31
0.0
  0
LINE
  5
2AE
330
1F
100
AcDbEntity
  8
D-0
  6
Continuous
 62
     7
370
     9
100
AcDbLine
 10
-651.1555334039639
 20
-777.97486047487
 30
0.0
 11
-649.6552558847378
 21
-777.97486047487
 31
0.0
  0
LINE
  5
2AF
330
1F
100
AcDbEntity
  8
D-0
  6
Continuous
 62
     7
370
     9
100
AcDbLine
 10
-649.6552558847378
 20
-777.97486047487
 30
0.0
 11
-649.6552558847378
 21
-779.4751427624676
 31
0.0
  0
LINE
  5
2B0
330
1F
100
AcDbEntity
  8
D-0
  6
Continuous
 62
     7
370
     9
100
AcDbLine
 10
-649.6552558847378
 20
-779.4751427624676
 30
0.0
 11
-651.1555334039639
 21
-779.4751427624676
 31
0.0
  0
LINE
  5
2B1
330
1F
100
AcDbEntity
  8
D-0
  6
Continuous
 62
     7
370
     9
100
AcDbLine
 10
-663.0026908822964
 20
-745.9071038220379
 30
0.0
 11
-663.0026908822964
 21
-744.4068215344403
 31
0.0
  0
LINE
  5
2B2
330
1F
100
AcDbEntity
  8
D-0
  6
Continuous
 62
     7
370
     9
100
AcDbLine
 10
-663.0026908822964
 20
-744.4068215344403
 30
0.0
 11
-661.5029045053433
 21
-744.4068215344403
 31
0.0
  0
LINE
  5
2B3
330
1F
100
AcDbEntity
  8
D-0
  6
Continuous
 62
     7
370
     9
100
AcDbLine
 10
-661.5029045053433
 20
-744.4068215344403
 30
0.0
 11
-661.5029045053433
 21
-745.9071038220379
 31
0.0
  0
LINE
  5
2B4
330
1F
100
AcDbEntity
  8
D-0
  6
Continuous
 62
     7
370
     9
100
AcDbLine
 10
-661.5029045053433
 20
-745.9071038220379
 30
0.0
 11
-663.0026908822964
 21
-745.9071038220379
 31
0.0
  0
LINE
  5
2B5
330
1F
100
AcDbEntity
  8
D-0
  6
Continuous
 62
     7
370
     9
100
AcDbLine
 10
-607.7143200345944
 20
-631.7233727429364
 30
0.0
 11
-607.7143200345944
 21
-630.2230904553387
 31
0.0
  0
LINE
  5
2B6
330
1F
100
AcDbEntity
  8
D-0
  6
Continuous
 62
     7
370
     9
100
AcDbLine
 10
-607.7143200345944
 20
-630.2230904553387
 30
0.0
 11
-606.214536041827
 21
-630.2230904553387
 31
0.0
  0
LINE
  5
2B7
330
1F
100
AcDbEntity
  8
D-0
  6
Continuous
 62
     7
370
     9
100
AcDbLine
 10
-606.214536041827
 20
-630.2230904553387
 30
0.0
 11
-606.214536041827
 21
-631.7233727429364
 31
0.0
  0
LINE
  5
2B8
330
1F
100
AcDbEntity
  8
D-0
  6
Continuous
 62
     7
370
     9
100
AcDbLine
 10
-606.214536041827
 20
-631.7233727429364
 30
0.0
 11
-607.7143200345944
 21
-631.7233727429364
 31
0.0
  0
LINE
  5
2B9
330
1F
100
AcDbEntity
  8
D-0
  6
Continuous
 62
     7
370
     9
100
AcDbLine
 10
-595.8666705199192
 20
-531.8398354504559
 30
0.0
 11
-595.8666705199192
 21
-530.3395531628582
 31
0.0
  0
LINE
  5
2BA
330
1F
100
AcDbEntity
  8
D-0
  6
Continuous
 62
     7
370
     9
100
AcDbLine
 10
-595.8666705199192
 20
-530.3395531628582
 30
0.0
 11
-594.3668862291287
 21
-530.3395531628582
 31
0.0
  0
LINE
  5
2BB
330
1F
100
AcDbEntity
  8
D-0
  6
Continuous
 62
     7
370
     9
100
AcDbLine
 10
-594.3668862291287
 20
-530.3395531628582
 30
0.0
 11
-594.3668862291287
 21
-531.8398354504559
 31
0.0
  0
LINE
  5
2BC
330
1F
100
AcDbEntity
  8
D-0
  6
Continuous
 62
     7
370
     9
100
AcDbLine
 10
-594.3668862291287
 20
-531.8398354504559
 30
0.0
 11
-595.8666705199192
 21
-531.8398354504559
 31
0.0
  0
LINE
  5
2BD
330
1F
100
AcDbEntity
  8
D-0
  6
Continuous
 62
     7
370
     9
100
AcDbLine
 10
-501.0864683099697
 20
-539.738604829118
 30
0.0
 11
-501.0864683099697
 21
-538.2383225415203
 31
0.0
  0
LINE
  5
2BE
330
1F
100
AcDbEntity
  8
D-0
  6
Continuous
 62
     7
370
     9
100
AcDbLine
 10
-501.0864683099697
 20
-538.2383225415203
 30
0.0
 11
-499.5866819330166
 21
-538.2383225415203
 31
0.0
  0
LINE
  5
2BF
330
1F
100
AcDbEntity
  8
D-0
  6
Continuous
 62
     7
370
     9
100
AcDbLine
 10
-499.5866819330166
 20
-538.2383225415203
 30
0.0
 11
-499.5866819330166
 21
-539.738604829118
 31
0.0
  0
LINE
  5
2C0
330
1F
100
AcDbEntity
  8
D-0
  6
Continuous
 62
     7
370
     9
100
AcDbLine
 10
-499.5866819330166
 20
-539.738604829118
 30
0.0
 11
-501.0864683099697
 21
-539.738604829118
 31
0.0
  0
LINE
  5
2C1
330
1F
100
AcDbEntity
  8
D-0
  6
Continuous
 62
     7
370
     9
100
AcDbLine
 10
-556.1067863412808
 20
-540.4818032238934
 30
0.0
 11
-556.1067863412808
 21
-538.9815209362957
 31
0.0
  0
LINE
  5
2C2
330
1F
100
AcDbEntity
  8
D-0
  6
Continuous
 62
     7
370
     9
100
AcDbLine
 10
-556.1067863412808
 20
-538.9815209362957
 30
0.0
 11
-554.6065088220547
 21
-538.9815209362957
 31
0.0
  0
LINE
  5
2C3
330
1F
100
AcDbEntity
  8
D-0
  6
Continuous
 62
     7
370
     9
100
AcDbLine
 10
-554.6065088220547
 20
-538.9815209362957
 30
0.0
 11
-554.6065088220547
 21
-540.4818032238934
 31
0.0
  0
LINE
  5
2C4
330
1F
100
AcDbEntity
  8
D-0
  6
Continuous
 62
     7
370
     9
100
AcDbLine
 10
-554.6065088220547
 20
-540.4818032238934
 30
0.0
 11
-556.1067863412808
 21
-540.4818032238934
 31
0.0
  0
LINE
  5
2C5
330
1F
100
AcDbEntity
  8
D-0
  6
Continuous
 62
     7
370
     9
100
AcDbLine
 10
-398.6102624841641
 20
-506.1705849621746
 30
0.0
 11
-398.6102624841641
 21
-504.670302674577
 31
0.0
  0
LINE
  5
2C6
330
1F
100
AcDbEntity
  8
D-0
  6
Continuous
 62
     7
370
     9
100
AcDbLine
 10
-398.6102624841641
 20
-504.670302674577
 30
0.0
 11
-397.1104951806973
 21
-504.670302674577
 31
0.0
  0
LINE
  5
2C7
330
1F
100
AcDbEntity
  8
D-0
  6
Continuous
 62
     7
370
     9
100
AcDbLine
 10
-397.1104951806973
 20
-504.670302674577
 30
0.0
 11
-397.1104951806973
 21
-506.1705849621746
 31
0.0
  0
LINE
  5
2C8
330
1F
100
AcDbEntity
  8
D-0
  6
Continuous
 62
     7
370
     9
100
AcDbLine
 10
-397.1104951806973
 20
-506.1705849621746
 30
0.0
 11
-398.6102624841641
 21
-506.1705849621746
 31
0.0
  0
LINE
  5
2C9
330
1F
100
AcDbEntity
  8
D-0
  6
Continuous
 62
     7
370
     9
100
AcDbLine
 10
-473.4422822900723
 20
-342.279424474046
 30
0.0
 11
-473.4422822900723
 21
-340.7791445706341
 31
0.0
  0
LINE
  5
2CA
330
1F
100
AcDbEntity
  8
D-0
  6
Continuous
 62
     7
370
     9
100
AcDbLine
 10
-473.4422822900723
 20
-340.7791445706341
 30
0.0
 11
-471.9420000024746
 21
-340.7791445706341
 31
0.0
  0
LINE
  5
2CB
330
1F
100
AcDbEntity
  8
D-0
  6
Continuous
 62
     7
370
     9
100
AcDbLine
 10
-471.9420000024746
 20
-340.7791445706341
 30
0.0
 11
-471.9420000024746
 21
-342.279424474046
 31
0.0
  0
LINE
  5
2CC
330
1F
100
AcDbEntity
  8
D-0
  6
Continuous
 62
     7
370
     9
100
AcDbLine
 10
-471.9420000024746
 20
-342.279424474046
 30
0.0
 11
-473.4422822900723
 21
-342.279424474046
 31
0.0
  0
LINE
  5
2CD
330
1F
100
AcDbEntity
  8
D-0
  6
Continuous
 62
     7
370
     9
100
AcDbLine
 10
-688.6724325128506
 20
-595.0269577954266
 30
0.0
 11
-688.6724325128506
 21
-593.5266945813153
 31
0.0
  0
LINE
  5
2CE
330
1F
100
AcDbEntity
  8
D-0
  6
Continuous
 62
     7
370
     9
100
AcDbLine
 10
-688.6724325128506
 20
-593.5266945813153
 30
0.0
 11
-687.1726461358975
 21
-593.5266945813153
 31
0.0
  0
LINE
  5
2CF
330
1F
100
AcDbEntity
  8
D-0
  6
Continuous
 62
     7
370
     9
100
AcDbLine
 10
-687.1726461358975
 20
-593.5266945813153
 30
0.0
 11
-687.1726461358975
 21
-595.0269577954266
 31
0.0
  0
LINE
  5
2D0
330
1F
100
AcDbEntity
  8
D-0
  6
Continuous
 62
     7
370
     9
100
AcDbLine
 10
-687.1726461358975
 20
-595.0269577954266
 30
0.0
 11
-688.6724325128506
 21
-595.0269577954266
 31
0.0
  0
LINE
  5
2D1
330
1F
100
AcDbEntity
  8
D-0
  6
Continuous
 62
     7
370
     9
100
AcDbLine
 10
-645.2317090936612
 20
-519.992682740495
 30
0.0
 11
-645.2317090936612
 21
-518.4924004528973
 31
0.0
  0
LINE
  5
2D2
330
1F
100
AcDbEntity
  8
D-0
  6
Continuous
 62
     7
370
     9
100
AcDbLine
 10
-645.2317090936612
 20
-518.4924004528973
 30
0.0
 11
-643.7314315744351
 21
-518.4924004528973
 31
0.0
  0
LINE
  5
2D3
330
1F
100
AcDbEntity
  8
D-0
  6
Continuous
 62
     7
370
     9
100
AcDbLine
 10
-643.7314315744351
 20
-518.4924004528973
 30
0.0
 11
-643.7314315744351
 21
-519.992682740495
 31
0.0
  0
LINE
  5
2D4
330
1F
100
AcDbEntity
  8
D-0
  6
Continuous
 62
     7
370
     9
100
AcDbLine
 10
-643.7314315744351
 20
-519.992682740495
 30
0.0
 11
-645.2317090936612
 21
-519.992682740495
 31
0.0
  0
LINE
  5
2D5
330
1F
100
AcDbEntity
  8
D-0
  6
Continuous
 62
     7
370
     9
100
AcDbLine
 10
-710.3927942224453
 20
-516.0432885144207
 30
0.0
 11
-710.3927942224453
 21
-514.5430253003094
 31
0.0
  0
LINE
  5
2D6
330
1F
100
AcDbEntity
  8
D-0
  6
Continuous
 62
     7
370
     9
100
AcDbLine
 10
-710.3927942224453
 20
-514.5430253003094
 30
0.0
 11
-708.8930078454922
 21
-514.5430253003094
 31
0.0
  0
LINE
  5
2D7
330
1F
100
AcDbEntity
  8
D-0
  6
Continuous
 62
     7
370
     9
100
AcDbLine
 10
-708.8930078454922
 20
-514.5430253003094
 30
0.0
 11
-708.8930078454922
 21
-516.0432885144207
 31
0.0
  0
LINE
  5
2D8
330
1F
100
AcDbEntity
  8
D-0
  6
Continuous
 62
     7
370
     9
100
AcDbLine
 10
-708.8930078454922
 20
-516.0432885144207
 30
0.0
 11
-710.3927942224453
 21
-516.0432885144207
 31
0.0
  0
LINE
  5
2D9
330
1F
100
AcDbEntity
  8
D-0
  6
Continuous
 62
     7
370
     9
100
AcDbLine
 10
-620.862574190707
 20
-433.9114163372967
 30
0.0
 11
-620.862574190707
 21
-432.4111435864422
 31
0.0
  0
LINE
  5
2DA
330
1F
100
AcDbEntity
  8
D-0
  6
Continuous
 62
     7
370
     9
100
AcDbLine
 10
-620.862574190707
 20
-432.4111435864422
 30
0.0
 11
-619.3627901979397
 21
-432.4111435864422
 31
0.0
  0
LINE
  5
2DB
330
1F
100
AcDbEntity
  8
D-0
  6
Continuous
 62
     7
370
     9
100
AcDbLine
 10
-619.3627901979397
 20
-432.4111435864422
 30
0.0
 11
-619.3627901979397
 21
-433.9114163372967
 31
0.0
  0
LINE
  5
2DC
330
1F
100
AcDbEntity
  8
D-0
  6
Continuous
 62
     7
370
     9
100
AcDbLine
 10
-619.3627901979397
 20
-433.9114163372967
 30
0.0
 11
-620.862574190707
 21
-433.9114163372967
 31
0.0
  0
LINE
  5
2DD
330
1F
100
AcDbEntity
  8
D-0
  6
Continuous
 62
     7
370
     9
100
AcDbLine
 10
-601.7904951282452
 20
-564.587352082536
 30
0.0
 11
-601.7904951282452
 21
-563.0870697949383
 31
0.0
  0
LINE
  5
2DE
330
1F
100
AcDbEntity
  8
D-0
  6
Continuous
 62
     7
370
     9
100
AcDbLine
 10
-601.7904951282452
 20
-563.0870697949383
 30
0.0
 11
-600.2907111541043
 21
-563.0870697949383
 31
0.0
  0
LINE
  5
2DF
330
1F
100
AcDbEntity
  8
D-0
  6
Continuous
 62
     7
370
     9
100
AcDbLine
 10
-600.2907111541043
 20
-563.0870697949383
 30
0.0
 11
-600.2907111541043
 21
-564.587352082536
 31
0.0
  0
LINE
  5
2E0
330
1F
100
AcDbEntity
  8
D-0
  6
Continuous
 62
     7
370
     9
100
AcDbLine
 10
-600.2907111541043
 20
-564.587352082536
 30
0.0
 11
-601.7904951282452
 21
-564.587352082536
 31
0.0
  0
LINE
  5
2E1
330
1F
100
AcDbEntity
  8
D-0
  6
Continuous
 62
     7
370
     9
100
AcDbLine
 10
-661.0282464929531
 20
-587.1287034008953
 30
0.0
 11
-661.0282464929531
 21
-585.6284211132977
 31
0.0
  0
LINE
  5
2E2
330
1F
100
AcDbEntity
  8
D-0
  6
Continuous
 62
     7
370
     9
100
AcDbLine
 10
-661.0282464929531
 20
-585.6284211132977
 30
0.0
 11
-659.5279689737271
 21
-585.6284211132977
 31
0.0
  0
LINE
  5
2E3
330
1F
100
AcDbEntity
  8
D-0
  6
Continuous
 62
     7
370
     9
100
AcDbLine
 10
-659.5279689737271
 20
-585.6284211132977
 30
0.0
 11
-659.5279689737271
 21
-587.1287034008953
 31
0.0
  0
LINE
  5
2E4
330
1F
100
AcDbEntity
  8
D-0
  6
Continuous
 62
     7
370
     9
100
AcDbLine
 10
-659.5279689737271
 20
-587.1287034008953
 30
0.0
 11
-661.0282464929531
 21
-587.1287034008953
 31
0.0
  0
LINE
  5
2E5
330
1F
100
AcDbEntity
  8
D-0
  6
Continuous
 62
     7
370
     9
100
AcDbLine
 10
-649.1805978723477
 20
-660.1885292981121
 30
0.0
 11
-649.1805978723477
 21
-658.6882470105145
 31
0.0
  0
LINE
  5
2E6
330
1F
100
AcDbEntity
  8
D-0
  6
Continuous
 62
     7
370
     9
100
AcDbLine
 10
-649.1805978723477
 20
-658.6882470105145
 30
0.0
 11
-647.6808114953946
 21
-658.6882470105145
 31
0.0
  0
LINE
  5
2E7
330
1F
100
AcDbEntity
  8
D-0
  6
Continuous
 62
     7
370
     9
100
AcDbLine
 10
-647.6808114953946
 20
-658.6882470105145
 30
0.0
 11
-647.6808114953946
 21
-660.1885292981121
 31
0.0
  0
LINE
  5
2E8
330
1F
100
AcDbEntity
  8
D-0
  6
Continuous
 62
     7
370
     9
100
AcDbLine
 10
-647.6808114953946
 20
-660.1885292981121
 30
0.0
 11
-649.1805978723477
 21
-660.1885292981121
 31
0.0
  0
LINE
  5
2E9
330
1F
100
AcDbEntity
  8
D-0
  6
Continuous
 62
     7
370
     9
100
AcDbLine
 10
-697.5581689783047
 20
-659.2010567639325
 30
0.0
 11
-697.5581689783047
 21
-657.7007744763348
 31
0.0
  0
LINE
  5
2EA
330
1F
100
AcDbEntity
  8
D-0
  6
Continuous
 62
     7
370
     9
100
AcDbLine
 10
-697.5581689783047
 20
-657.7007744763348
 30
0.0
 11
-696.057886690707
 21
-657.7007744763348
 31
0.0
  0
LINE
  5
2EB
330
1F
100
AcDbEntity
  8
D-0
  6
Continuous
 62
     7
370
     9
100
AcDbLine
 10
-696.057886690707
 20
-657.7007744763348
 30
0.0
 11
-696.057886690707
 21
-659.2010567639325
 31
0.0
  0
LINE
  5
2EC
330
1F
100
AcDbEntity
  8
D-0
  6
Continuous
 62
     7
370
     9
100
AcDbLine
 10
-696.057886690707
 20
-659.2010567639325
 30
0.0
 11
-697.5581689783047
 21
-659.2010567639325
 31
0.0
  0
LINE
  5
2ED
330
1F
100
AcDbEntity
  8
D-0
  6
Continuous
 62
     7
370
     9
100
AcDbLine
 10
-684.6051259942959
 20
-778.3068154309246
 30
0.0
 11
-684.6051259942959
 21
-776.806533143327
 31
0.0
  0
LINE
  5
2EE
330
1F
100
AcDbEntity
  8
D-0
  6
Continuous
 62
     7
370
     9
100
AcDbLine
 10
-684.6051259942959
 20
-776.806533143327
 30
0.0
 11
-683.1048532434414
 21
-776.806533143327
 31
0.0
  0
LINE
  5
2EF
330
1F
100
AcDbEntity
  8
D-0
  6
Continuous
 62
     7
370
     9
100
AcDbLine
 10
-683.1048532434414
 20
-776.806533143327
 30
0.0
 11
-683.1048532434414
 21
-778.3068154309246
 31
0.0
  0
LINE
  5
2F0
330
1F
100
AcDbEntity
  8
D-0
  6
Continuous
 62
     7
370
     9
100
AcDbLine
 10
-683.1048532434414
 20
-778.3068154309246
 30
0.0
 11
-684.6051259942959
 21
-778.3068154309246
 31
0.0
  0
LINE
  5
2F1
330
1F
100
AcDbEntity
  8
D-0
  6
Continuous
 62
     7
370
     9
100
AcDbLine
 10
-634.0792032190274
 20
-807.8144524548504
 30
0.0
 11
-634.0792032190274
 21
-806.3141701672528
 31
0.0
  0
LINE
  5
2F2
330
1F
100
AcDbEntity
  8
D-0
  6
Continuous
 62
     7
370
     9
100
AcDbLine
 10
-634.0792032190274
 20
-806.3141701672528
 30
0.0
 11
-632.57941922626
 21
-806.3141701672528
 31
0.0
  0
LINE
  5
2F3
330
1F
100
AcDbEntity
  8
D-0
  6
Continuous
 62
     7
370
     9
100
AcDbLine
 10
-632.57941922626
 20
-806.3141701672528
 30
0.0
 11
-632.57941922626
 21
-807.8144524548504
 31
0.0
  0
LINE
  5
2F4
330
1F
100
AcDbEntity
  8
D-0
  6
Continuous
 62
     7
370
     9
100
AcDbLine
 10
-632.57941922626
 20
-807.8144524548504
 30
0.0
 11
-634.0792032190274
 21
-807.8144524548504
 31
0.0
  0
LINE
  5
2F5
330
1F
100
AcDbEntity
  8
D-0
  6
Continuous
 62
     7
370
     9
100
AcDbLine
 10
-597.841113568158
 20
-732.0850060437176
 30
0.0
 11
-597.841113568158
 21
-730.5847619030926
 31
0.0
  0
LINE
  5
2F6
330
1F
100
AcDbEntity
  8
D-0
  6
Continuous
 62
     7
370
     9
100
AcDbLine
 10
-597.841113568158
 20
-730.5847619030926
 30
0.0
 11
-596.341329426379
 21
-730.5847619030926
 31
0.0
  0
LINE
  5
2F7
330
1F
100
AcDbEntity
  8
D-0
  6
Continuous
 62
     7
370
     9
100
AcDbLine
 10
-596.341329426379
 20
-730.5847619030926
 30
0.0
 11
-596.341329426379
 21
-732.0850060437176
 31
0.0
  0
LINE
  5
2F8
330
1F
100
AcDbEntity
  8
D-0
  6
Continuous
 62
     7
370
     9
100
AcDbLine
 10
-596.341329426379
 20
-732.0850060437176
 30
0.0
 11
-597.841113568158
 21
-732.0850060437176
 31
0.0
  0
LINE
  5
2F9
330
1F
100
AcDbEntity
  8
D-0
  6
Continuous
 62
     7
370
     9
100
AcDbLine
 10
-714.8738141962002
 20
-614.0217469189618
 30
0.0
 11
-714.8738141962002
 21
-612.5214646313641
 31
0.0
  0
LINE
  5
2FA
330
1F
100
AcDbEntity
  8
D-0
  6
Continuous
 62
     7
370
     9
100
AcDbLine
 10
-714.8738141962002
 20
-612.5214646313641
 30
0.0
 11
-713.3740278192471
 21
-612.5214646313641
 31
0.0
  0
LINE
  5
2FB
330
1F
100
AcDbEntity
  8
D-0
  6
Continuous
 62
     7
370
     9
100
AcDbLine
 10
-713.3740278192471
 20
-612.5214646313641
 30
0.0
 11
-713.3740278192471
 21
-614.0217469189618
 31
0.0
  0
LINE
  5
2FC
330
1F
100
AcDbEntity
  8
D-0
  6
Continuous
 62
     7
370
     9
100
AcDbLine
 10
-713.3740278192471
 20
-614.0217469189618
 30
0.0
 11
-714.8738141962002
 21
-614.0217469189618
 31
0.0
  0
LINE
  5
2FD
330
1F
100
AcDbEntity
  8
D-0
  6
Continuous
 62
     7
370
     9
100
AcDbLine
 10
-366.7431970544766
 20
-462.2918675396893
 30
0.0
 11
-366.7431970544766
 21
-460.7915947888348
 31
0.0
  0
LINE
  5
2FE
330
1F
100
AcDbEntity
  8
D-0
  6
Continuous
 62
     7
370
     9
100
AcDbLine
 10
-366.7431970544766
 20
-460.7915947888348
 30
0.0
 11
-365.2429338403653
 21
-460.7915947888348
 31
0.0
  0
LINE
  5
2FF
330
1F
100
AcDbEntity
  8
D-0
  6
Continuous
 62
     7
370
     9
100
AcDbLine
 10
-365.2429338403653
 20
-460.7915947888348
 30
0.0
 11
-365.2429338403653
 21
-462.2918675396893
 31
0.0
  0
LINE
  5
300
330
1F
100
AcDbEntity
  8
D-0
  6
Continuous
 62
     7
370
     9
100
AcDbLine
 10
-365.2429338403653
 20
-462.2918675396893
 30
0.0
 11
-366.7431970544766
 21
-462.2918675396893
 31
0.0
  0
LINE
  5
301
330
1F
100
AcDbEntity
  8
D-0
  6
Continuous
 62
     7
370
     9
100
AcDbLine
 10
-597.952098459811
 20
-657.7557824109051
 30
0.0
 11
-597.952098459811
 21
-656.2555001233075
 31
0.0
  0
LINE
  5
302
330
1F
100
AcDbEntity
  8
D-0
  6
Continuous
 62
     7
370
     9
100
AcDbLine
 10
-597.952098459811
 20
-656.2555001233075
 30
0.0
 11
-596.4523144670437
 21
-656.2555001233075
 31
0.0
  0
LINE
  5
303
330
1F
100
AcDbEntity
  8
D-0
  6
Continuous
 62
     7
370
     9
100
AcDbLine
 10
-596.4523144670437
 20
-656.2555001233075
 30
0.0
 11
-596.4523144670437
 21
-657.7557824109051
 31
0.0
  0
LINE
  5
304
330
1F
100
AcDbEntity
  8
D-0
  6
Continuous
 62
     7
370
     9
100
AcDbLine
 10
-596.4523144670437
 20
-657.7557824109051
 30
0.0
 11
-597.952098459811
 21
-657.7557824109051
 31
0.0
  0
LINE
  5
305
330
1F
100
AcDbEntity
  8
D-0
  6
Continuous
 62
     7
370
     9
100
AcDbLine
 10
-622.6824303575467
 20
-781.1017678235028
 30
0.0
 11
-622.6824303575467
 21
-779.6014855359051
 31
0.0
  0
LINE
  5
306
330
1F
100
AcDbEntity
  8
D-0
  6
Continuous
 62
     7
370
     9
100
AcDbLine
 10
-622.6824303575467
 20
-779.6014855359051
 30
0.0
 11
-621.1826463647793
 21
-779.6014855359051
 31
0.0
  0
LINE
  5
307
330
1F
100
AcDbEntity
  8
D-0
  6
Continuous
 62
     7
370
     9
100
AcDbLine
 10
-621.1826463647793
 20
-779.6014855359051
 30
0.0
 11
-621.1826463647793
 21
-781.1017678235028
 31
0.0
  0
LINE
  5
308
330
1F
100
AcDbEntity
  8
D-0
  6
Continuous
 62
     7
370
     9
100
AcDbLine
 10
-621.1826463647793
 20
-781.1017678235028
 30
0.0
 11
-622.6824303575467
 21
-781.1017678235028
 31
0.0
  0
LINE
  5
309
330
1F
100
AcDbEntity
  8
D-0
  6
Continuous
 62
     7
370
     9
100
AcDbLine
 10
-376.0267969079922
 20
-533.731524750993
 30
0.0
 11
-376.0267969079922
 21
-532.2312615368817
 31
0.0
  0
LINE
  5
30A
330
1F
100
AcDbEntity
  8
D-0
  6
Continuous
 62
     7
370
     9
100
AcDbLine
 10
-376.0267969079922
 20
-532.2312615368817
 30
0.0
 11
-374.5265146203946
 21
-532.2312615368817
 31
0.0
  0
LINE
  5
30B
330
1F
100
AcDbEntity
  8
D-0
  6
Continuous
 62
     7
370
     9
100
AcDbLine
 10
-374.5265146203946
 20
-532.2312615368817
 30
0.0
 11
-374.5265146203946
 21
-533.731524750993
 31
0.0
  0
LINE
  5
30C
330
1F
100
AcDbEntity
  8
D-0
  6
Continuous
 62
     7
370
     9
100
AcDbLine
 10
-374.5265146203946
 20
-533.731524750993
 30
0.0
 11
-376.0267969079922
 21
-533.731524750993
 31
0.0
  0
LINE
  5
30D
330
1F
100
AcDbEntity
  8
D-0
  6
Continuous
 62
     7
370
     9
100
AcDbLine
 10
-594.3678774543713
 20
-461.8296025250409
 30
0.0
 11
-594.3678774543713
 21
-460.3293202374432
 31
0.0
  0
LINE
  5
30E
330
1F
100
AcDbEntity
  8
D-0
  6
Continuous
 62
     7
370
     9
100
AcDbLine
 10
-594.3678774543713
 20
-460.3293202374432
 30
0.0
 11
-592.8675981470059
 21
-460.3293202374432
 31
0.0
  0
LINE
  5
30F
330
1F
100
AcDbEntity
  8
D-0
  6
Continuous
 62
     7
370
     9
100
AcDbLine
 10
-592.8675981470059
 20
-460.3293202374432
 30
0.0
 11
-592.8675981470059
 21
-461.8296025250409
 31
0.0
  0
LINE
  5
310
330
1F
100
AcDbEntity
  8
D-0
  6
Continuous
 62
     7
370
     9
100
AcDbLine
 10
-592.8675981470059
 20
-461.8296025250409
 30
0.0
 11
-594.3678774543713
 21
-461.8296025250409
 31
0.0
  0
LINE
  5
311
330
1F
100
AcDbEntity
  8
D-0
  6
Continuous
 62
     7
370
     9
100
AcDbLine
 10
-580.4546185441922
 20
-487.1267388318036
 30
0.0
 11
-580.4546185441922
 21
-485.6264756176922
 31
0.0
  0
LINE
  5
312
330
1F
100
AcDbEntity
  8
D-0
  6
Continuous
 62
     7
370
     9
100
AcDbLine
 10
-580.4546185441922
 20
-485.6264756176922
 30
0.0
 11
-578.9543386407803
 21
-485.6264756176922
 31
0.0
  0
LINE
  5
313
330
1F
100
AcDbEntity
  8
D-0
  6
Continuous
 62
     7
370
     9
100
AcDbLine
 10
-578.9543386407803
 20
-485.6264756176922
 30
0.0
 11
-578.9543386407803
 21
-487.1267388318036
 31
0.0
  0
LINE
  5
314
330
1F
100
AcDbEntity
  8
D-0
  6
Continuous
 62
     7
370
     9
100
AcDbLine
 10
-578.9543386407803
 20
-487.1267388318036
 30
0.0
 11
-580.4546185441922
 21
-487.1267388318036
 31
0.0
  0
LINE
  5
315
330
1F
100
AcDbEntity
  8
D-0
  6
Continuous
 62
     7
370
     9
100
AcDbLine
 10
-527.5355812021206
 20
-515.849559113786
 30
0.0
 11
-527.5355812021206
 21
-514.3492958996746
 31
0.0
  0
LINE
  5
316
330
1F
100
AcDbEntity
  8
D-0
  6
Continuous
 62
     7
370
     9
100
AcDbLine
 10
-527.5355812021206
 20
-514.3492958996746
 30
0.0
 11
-526.0357948251675
 21
-514.3492958996746
 31
0.0
  0
LINE
  5
317
330
1F
100
AcDbEntity
  8
D-0
  6
Continuous
 62
     7
370
     9
100
AcDbLine
 10
-526.0357948251675
 20
-514.3492958996746
 30
0.0
 11
-526.0357948251675
 21
-515.849559113786
 31
0.0
  0
LINE
  5
318
330
1F
100
AcDbEntity
  8
D-0
  6
Continuous
 62
     7
370
     9
100
AcDbLine
 10
-526.0357948251675
 20
-515.849559113786
 30
0.0
 11
-527.5355812021206
 21
-515.849559113786
 31
0.0
  0
LINE
  5
319
330
1F
100
AcDbEntity
  8
D-0
  6
Continuous
 62
     7
370
     9
100
AcDbLine
 10
-499.6922155328701
 20
-321.5554521534893
 30
0.0
 11
-499.6922155328701
 21
-320.0551722500775
 31
0.0
  0
LINE
  5
31A
330
1F
100
AcDbEntity
  8
D-0
  6
Continuous
 62
     7
370
     9
100
AcDbLine
 10
-499.6922155328701
 20
-320.0551722500775
 30
0.0
 11
-498.192429155917
 21
-320.0551722500775
 31
0.0
  0
LINE
  5
31B
330
1F
100
AcDbEntity
  8
D-0
  6
Continuous
 62
     7
370
     9
100
AcDbLine
 10
-498.192429155917
 20
-320.0551722500775
 30
0.0
 11
-498.192429155917
 21
-321.5554521534893
 31
0.0
  0
LINE
  5
31C
330
1F
100
AcDbEntity
  8
D-0
  6
Continuous
 62
     7
370
     9
100
AcDbLine
 10
-498.192429155917
 20
-321.5554521534893
 30
0.0
 11
-499.6922155328701
 21
-321.5554521534893
 31
0.0
  0
LINE
  5
31D
330
1F
100
AcDbEntity
  8
D-0
  6
Continuous
 62
     7
370
     9
100
AcDbLine
 10
-419.3103357263516
 20
-324.7363613102887
 30
0.0
 11
-419.3103357263516
 21
-323.2360814068768
 31
0.0
  0
LINE
  5
31E
330
1F
100
AcDbEntity
  8
D-0
  6
Continuous
 62
     7
370
     9
100
AcDbLine
 10
-419.3103357263516
 20
-323.2360814068768
 30
0.0
 11
-417.8105493493985
 21
-323.2360814068768
 31
0.0
  0
LINE
  5
31F
330
1F
100
AcDbEntity
  8
D-0
  6
Continuous
 62
     7
370
     9
100
AcDbLine
 10
-417.8105493493985
 20
-323.2360814068768
 30
0.0
 11
-417.8105493493985
 21
-324.7363613102887
 31
0.0
  0
LINE
  5
320
330
1F
100
AcDbEntity
  8
D-0
  6
Continuous
 62
     7
370
     9
100
AcDbLine
 10
-417.8105493493985
 20
-324.7363613102887
 30
0.0
 11
-419.3103357263516
 21
-324.7363613102887
 31
0.0
  0
LINE
  5
321
330
1F
100
AcDbEntity
  8
D-0
  6
Continuous
 62
     7
370
     9
100
AcDbLine
 10
-659.5801672337723
 20
-475.8460898930698
 30
0.0
 11
-659.5801672337723
 21
-474.3458076054721
 31
0.0
  0
LINE
  5
322
330
1F
100
AcDbEntity
  8
D-0
  6
Continuous
 62
     7
370
     9
100
AcDbLine
 10
-659.5801672337723
 20
-474.3458076054721
 30
0.0
 11
-658.0801138280106
 21
-474.3458076054721
 31
0.0
  0
LINE
  5
323
330
1F
100
AcDbEntity
  8
D-0
  6
Continuous
 62
     7
370
     9
100
AcDbLine
 10
-658.0801138280106
 20
-474.3458076054721
 30
0.0
 11
-658.0801138280106
 21
-475.8460898930698
 31
0.0
  0
LINE
  5
324
330
1F
100
AcDbEntity
  8
D-0
  6
Continuous
 62
     7
370
     9
100
AcDbLine
 10
-658.0801138280106
 20
-475.8460898930698
 30
0.0
 11
-659.5801672337723
 21
-475.8460898930698
 31
0.0
  0
LINE
  5
325
330
1F
100
AcDbEntity
  8
D-0
  6
Continuous
 62
     7
370
     9
100
AcDbLine
 10
-632.213954935084
 20
-500.8666268518704
 30
0.0
 11
-632.213954935084
 21
-499.3663445642728
 31
0.0
  0
LINE
  5
326
330
1F
100
AcDbEntity
  8
D-0
  6
Continuous
 62
     7
370
     9
100
AcDbLine
 10
-632.213954935084
 20
-499.3663445642728
 30
0.0
 11
-630.7139015293222
 21
-499.3663445642728
 31
0.0
  0
LINE
  5
327
330
1F
100
AcDbEntity
  8
D-0
  6
Continuous
 62
     7
370
     9
100
AcDbLine
 10
-630.7139015293222
 20
-499.3663445642728
 30
0.0
 11
-630.7139015293222
 21
-500.8666268518704
 31
0.0
  0
LINE
  5
328
330
1F
100
AcDbEntity
  8
D-0
  6
Continuous
 62
     7
370
     9
100
AcDbLine
 10
-630.7139015293222
 20
-500.8666268518704
 30
0.0
 11
-632.213954935084
 21
-500.8666268518704
 31
0.0
  0
LINE
  5
329
330
1F
100
AcDbEntity
  8
D-0
  6
Continuous
 62
     7
370
     9
100
AcDbLine
 10
-615.7942275558711
 20
-480.5374405728449
 30
0.0
 11
-615.7942275558711
 21
-479.0371582852472
 31
0.0
  0
LINE
  5
32A
330
1F
100
AcDbEntity
  8
D-0
  6
Continuous
 62
     7
370
     9
100
AcDbLine
 10
-615.7942275558711
 20
-479.0371582852472
 30
0.0
 11
-614.2941741501094
 21
-479.0371582852472
 31
0.0
  0
LINE
  5
32B
330
1F
100
AcDbEntity
  8
D-0
  6
Continuous
 62
     7
370
     9
100
AcDbLine
 10
-614.2941741501094
 20
-479.0371582852472
 30
0.0
 11
-614.2941741501094
 21
-480.5374405728449
 31
0.0
  0
LINE
  5
32C
330
1F
100
AcDbEntity
  8
D-0
  6
Continuous
 62
     7
370
     9
100
AcDbLine
 10
-614.2941741501094
 20
-480.5374405728449
 30
0.0
 11
-615.7942275558711
 21
-480.5374405728449
 31
0.0
  0
LINE
  5
32D
330
1F
100
AcDbEntity
  8
D-0
  6
Continuous
 62
     7
370
     9
100
AcDbLine
 10
-685.3825959725352
 20
-486.7925748125451
 30
0.0
 11
-685.3825959725352
 21
-485.2922925249475
 31
0.0
  0
LINE
  5
32E
330
1F
100
AcDbEntity
  8
D-0
  6
Continuous
 62
     7
370
     9
100
AcDbLine
 10
-685.3825959725352
 20
-485.2922925249475
 30
0.0
 11
-683.8825425667735
 21
-485.2922925249475
 31
0.0
  0
LINE
  5
32F
330
1F
100
AcDbEntity
  8
D-0
  6
Continuous
 62
     7
370
     9
100
AcDbLine
 10
-683.8825425667735
 20
-485.2922925249475
 30
0.0
 11
-683.8825425667735
 21
-486.7925748125451
 31
0.0
  0
LINE
  5
330
330
1F
100
AcDbEntity
  8
D-0
  6
Continuous
 62
     7
370
     9
100
AcDbLine
 10
-683.8825425667735
 20
-486.7925748125451
 30
0.0
 11
-685.3825959725352
 21
-486.7925748125451
 31
0.0
  0
LINE
  5
331
330
1F
100
AcDbEntity
  8
D-0
  6
Continuous
 62
     7
370
     9
100
AcDbLine
 10
-652.5431412141095
 20
-448.4798775943816
 30
0.0
 11
-652.5431412141095
 21
-446.9795953067839
 31
0.0
  0
LINE
  5
332
330
1F
100
AcDbEntity
  8
D-0
  6
Continuous
 62
     7
370
     9
100
AcDbLine
 10
-652.5431412141095
 20
-446.9795953067839
 30
0.0
 11
-651.0430878083478
 21
-446.9795953067839
 31
0.0
  0
LINE
  5
333
330
1F
100
AcDbEntity
  8
D-0
  6
Continuous
 62
     7
370
     9
100
AcDbLine
 10
-651.0430878083478
 20
-446.9795953067839
 30
0.0
 11
-651.0430878083478
 21
-448.4798775943816
 31
0.0
  0
LINE
  5
334
330
1F
100
AcDbEntity
  8
D-0
  6
Continuous
 62
     7
370
     9
100
AcDbLine
 10
-651.0430878083478
 20
-448.4798775943816
 30
0.0
 11
-652.5431412141095
 21
-448.4798775943816
 31
0.0
  0
TEXT
  5
335
330
1F
100
AcDbEntity
  8
F-5ﾚｲﾔ
  6
Continuous
 62
     2
370
     9
100
AcDbText
 10
-866.6832202007254
 20
-1361.331639160391
 30
0.0
 40
30.48
  1
スチール縞鋼板　排水ピット蓋（板厚４.５）ＲＡ　５００×５００×４．５＋ＡＦ０５Ｂ
 41
0.7743827160493826
  7
ＭＳ ゴシック
100
AcDbText
  0
ENDSEC
  0
SECTION
  2
OBJECTS
  0
DICTIONARY
  5
C
330
0
100
AcDbDictionary
281
     1
  3
ACAD_GROUP
350
D
  3
ACAD_LAYOUT
350
1A
  3
ACAD_MLEADERSTYLE
350
337
  3
ACAD_MLINESTYLE
350
17
  3
ACAD_PLOTSETTINGS
350
19
  3
ACAD_PLOTSTYLENAME
350
E
  3
ACAD_TABLESTYLE
350
336
  3
ACAD_VISUALSTYLE
350
2A
  0
DICTIONARY
  5
D
102
{ACAD_REACTORS
330
C
102
}
330
C
100
AcDbDictionary
281
     1
  0
DICTIONARY
  5
1A
102
{ACAD_REACTORS
330
C
102
}
330
C
100
AcDbDictionary
281
     1
  3
Layout1
350
1E
  3
Layout2
350
26
  3
Model
350
22
  0
DICTIONARY
  5
337
102
{ACAD_REACTORS
330
C
102
}
330
C
100
AcDbDictionary
281
     1
  0
DICTIONARY
  5
17
102
{ACAD_REACTORS
330
C
102
}
330
C
100
AcDbDictionary
281
     1
  3
Standard
350
18
  0
DICTIONARY
  5
19
102
{ACAD_REACTORS
330
C
102
}
330
C
100
AcDbDictionary
281
     1
  0
ACDBDICTIONARYWDFLT
  5
E
102
{ACAD_REACTORS
330
C
102
}
330
C
100
AcDbDictionary
281
     1
  3
Normal
350
F
100
AcDbDictionaryWithDefault
340
F
  0
DICTIONARY
  5
336
102
{ACAD_REACTORS
330
C
102
}
330
C
100
AcDbDictionary
281
     1
  0
DICTIONARY
  5
2A
102
{ACAD_REACTORS
330
C
102
}
330
C
100
AcDbDictionary
281
     1
  3
2dWireframe
350
2F
  3
3D Hidden
350
31
  3
3dWireframe
350
30
  3
Basic
350
32
  3
Brighten
350
36
  3
ColorChange
350
3A
  3
Conceptual
350
34
  3
Dim
350
35
  3
Facepattern
350
39
  3
Flat
350
2B
  3
FlatWithEdges
350
2C
  3
Gouraud
350
2D
  3
GouraudWithEdges
350
2E
  3
Linepattern
350
38
  3
Realistic
350
33
  3
Thicken
350
37
  0
LAYOUT
  5
1E
102
{ACAD_REACTORS
330
1A
102
}
330
1A
100
AcDbPlotSettings
  1

  2
none_device
  4

  6

 40
0.0
 41
0.0
 42
0.0
 43
0.0
 44
0.0
 45
0.0
 46
0.0
 47
0.0
 48
0.0
 49
0.0
140
0.0
141
0.0
142
1.0
143
1.0
 70
   688
 72
     0
 73
     0
 74
     5
  7

 75
    16
 76
     0
 77
     5
 78
   300
147
1.0
148
0.0
149
0.0
100
AcDbLayout
  1
Layout1
 70
     1
 71
     1
 10
0.0
 20
0.0
 11
420.0
 21
297.0
 12
0.0
 22
0.0
 32
0.0
 14
1.000000000000000E+20
 24
1.000000000000000E+20
 34
1.000000000000000E+20
 15
-1.000000000000000E+20
 25
-1.000000000000000E+20
 35
-1.000000000000000E+20
146
0.0
 13
0.0
 23
0.0
 33
0.0
 16
1.0
 26
0.0
 36
0.0
 17
0.0
 27
1.0
 37
0.0
 76
     0
330
1B
  0
LAYOUT
  5
26
102
{ACAD_REACTORS
330
1A
102
}
330
1A
100
AcDbPlotSettings
  1

  2
none_device
  4

  6

 40
0.0
 41
0.0
 42
0.0
 43
0.0
 44
0.0
 45
0.0
 46
0.0
 47
0.0
 48
0.0
 49
0.0
140
0.0
141
0.0
142
1.0
143
1.0
 70
   688
 72
     0
 73
     0
 74
     5
  7

 75
    16
 76
     0
 77
     5
 78
   300
147
1.0
148
0.0
149
0.0
100
AcDbLayout
  1
Layout2
 70
     1
 71
     2
 10
0.0
 20
0.0
 11
0.0
 21
0.0
 12
0.0
 22
0.0
 32
0.0
 14
0.0
 24
0.0
 34
0.0
 15
0.0
 25
0.0
 35
0.0
146
0.0
 13
0.0
 23
0.0
 33
0.0
 16
1.0
 26
0.0
 36
0.0
 17
0.0
 27
1.0
 37
0.0
 76
     0
330
23
  0
LAYOUT
  5
22
102
{ACAD_REACTORS
330
1A
102
}
330
1A
100
AcDbPlotSettings
  1

  2
none_device
  4

  6

 40
0.0
 41
0.0
 42
0.0
 43
0.0
 44
0.0
 45
0.0
 46
0.0
 47
0.0
 48
0.0
 49
0.0
140
0.0
141
0.0
142
1.0
143
1.0
 70
  1712
 72
     0
 73
     0
 74
     0
  7

 75
     0
 76
     0
 77
     5
 78
   300
147
1.0
148
0.0
149
0.0
100
AcDbLayout
  1
Model
 70
     1
 71
     0
 10
-2100.0
 20
-1485.0
 11
2100.0
 21
1485.0
 12
0.0
 22
0.0
 32
0.0
 14
-2100.0
 24
-1485.0
 34
0.0
 15
2100.0
 25
1485.0
 35
0.0
146
0.0
 13
0.0
 23
0.0
 33
0.0
 16
1.0
 26
0.0
 36
0.0
 17
0.0
 27
1.0
 37
0.0
 76
     0
330
1F
331
29
  0
MLINESTYLE
  5
18
102
{ACAD_REACTORS
330
17
102
}
330
17
100
AcDbMlineStyle
  2
Standard
 70
     0
  3

 62
   256
 51
90.0
 52
90.0
 71
     2
 49
0.5
 62
   256
  6
BYLAYER
 49
-0.5
 62
   256
  6
BYLAYER
  0
ACDBPLACEHOLDER
  5
F
102
{ACAD_REACTORS
330
E
102
}
330
E
  0
VISUALSTYLE
  5
2F
102
{ACAD_REACTORS
330
2A
102
}
330
2A
100
AcDbVisualStyle
  2
2dWireframe
 70
     4
 71
     0
 72
     2
 73
     0
 90
        0
 40
-0.6
 41
-30.0
 62
     5
 63
     7
421
 16777215
 74
     1
 91
        4
 64
     7
 65
   257
 75
     1
175
     1
 42
1.0
 92
        0
 66
   257
 43
1.0
 76
     1
 77
     6
 78
     2
 67
     7
 79
     5
170
     0
171
     0
290
     0
174
     0
 93
        1
 44
0.0
173
     0
291
     0
 45
0.0
1001
ACAD
1000
AcDbSavedByObjectVersion
1070
     0
  0
VISUALSTYLE
  5
31
102
{ACAD_REACTORS
330
2A
102
}
330
2A
100
AcDbVisualStyle
  2
3D Hidden
 70
     6
 71
     1
 72
     2
 73
     2
 90
        0
 40
-0.6
 41
-30.0
 62
     5
 63
     7
421
 16777215
 74
     2
 91
        2
 64
     7
 65
   257
 75
     2
175
     1
 42
40.0
 92
        0
 66
   257
 43
1.0
 76
     1
 77
     6
 78
     2
 67
     7
 79
     3
170
     0
171
     0
290
     0
174
     0
 93
        1
 44
0.0
173
     0
291
     0
 45
0.0
1001
ACAD
1000
AcDbSavedByObjectVersion
1070
     0
  0
VISUALSTYLE
  5
30
102
{ACAD_REACTORS
330
2A
102
}
330
2A
100
AcDbVisualStyle
  2
3dWireframe
 70
     5
 71
     0
 72
     2
 73
     0
 90
        0
 40
-0.6
 41
-30.0
 62
     5
 63
     7
421
 16777215
 74
     1
 91
        4
 64
     7
 65
   257
 75
     1
175
     1
 42
1.0
 92
        0
 66
   257
 43
1.0
 76
     1
 77
     6
 78
     2
 67
     7
 79
     5
170
     0
171
     0
290
     0
174
     0
 93
        1
 44
0.0
173
     0
291
     0
 45
0.0
1001
ACAD
1000
AcDbSavedByObjectVersion
1070
     0
  0
VISUALSTYLE
  5
32
102
{ACAD_REACTORS
330
2A
102
}
330
2A
100
AcDbVisualStyle
  2
Basic
 70
     7
 71
     1
 72
     0
 73
     1
 90
        0
 40
-0.6
 41
-30.0
 62
     5
 63
     7
421
 16777215
 74
     0
 91
        4
 64
     7
 65
   257
 75
     1
175
     1
 42
1.0
 92
        8
 66
     7
 43
1.0
 76
     1
 77
     6
 78
     2
 67
     7
 79
     5
170
     0
171
     0
290
     0
174
     0
 93
        1
 44
0.0
173
     0
291
     1
 45
0.0
1001
ACAD
1000
AcDbSavedByObjectVersion
1070
     0
  0
VISUALSTYLE
  5
36
102
{ACAD_REACTORS
330
2A
102
}
330
2A
100
AcDbVisualStyle
  2
Brighten
 70
    12
 71
     2
 72
     2
 73
     0
 90
        0
 40
-0.6
 41
-30.0
 62
     5
 63
     7
421
 16777215
 74
     1
 91
        4
 64
     7
 65
   257
 75
     1
175
     1
 42
1.0
 92
        8
 66
     7
 43
1.0
 76
     1
 77
     6
 78
     2
 67
     7
 79
     5
170
     0
171
     0
290
     0
174
     0
 93
        1
 44
50.0
173
     0
291
     1
 45
0.0
1001
ACAD
1000
AcDbSavedByObjectVersion
1070
     0
  0
VISUALSTYLE
  5
3A
102
{ACAD_REACTORS
330
2A
102
}
330
2A
100
AcDbVisualStyle
  2
ColorChange
 70
    16
 71
     2
 72
     2
 73
     3
 90
        0
 40
-0.6
 41
-30.0
 62
     5
 63
     8
421
  8421504
 74
     1
 91
        4
 64
     7
 65
   257
 75
     1
175
     1
 42
1.0
 92
        8
 66
     8
424
  8421504
 43
1.0
 76
     1
 77
     6
 78
     2
 67
     7
 79
     5
170
     0
171
     0
290
     0
174
     0
 93
        1
 44
0.0
173
     0
291
     1
 45
0.0
1001
ACAD
1000
AcDbSavedByObjectVersion
1070
     0
  0
VISUALSTYLE
  5
34
102
{ACAD_REACTORS
330
2A
102
}
330
2A
100
AcDbVisualStyle
  2
Conceptual
 70
     9
 71
     3
 72
     2
 73
     0
 90
        0
 40
-0.6
 41
-30.0
 62
     5
 63
     7
421
 16777215
 74
     2
 91
        2
 64
     7
 65
   257
 75
     1
175
     1
 42
40.0
 92
        8
 66
     7
 43
1.0
 76
     1
 77
     6
 78
     2
 67
     7
 79
     3
170
     0
171
     0
290
     0
174
     0
 93
        1
 44
0.0
173
     0
291
     0
 45
0.0
1001
ACAD
1000
AcDbSavedByObjectVersion
1070
     0
  0
VISUALSTYLE
  5
35
102
{ACAD_REACTORS
330
2A
102
}
330
2A
100
AcDbVisualStyle
  2
Dim
 70
    11
 71
     2
 72
     2
 73
     0
 90
        0
 40
-0.6
 41
-30.0
 62
     5
 63
     7
421
 16777215
 74
     1
 91
        4
 64
     7
 65
   257
 75
     1
175
     1
 42
1.0
 92
        8
 66
     7
 43
1.0
 76
     1
 77
     6
 78
     2
 67
     7
 79
     5
170
     0
171
     0
290
     0
174
     0
 93
        1
 44
-50.0
173
     0
291
     1
 45
0.0
1001
ACAD
1000
AcDbSavedByObjectVersion
1070
     0
  0
VISUALSTYLE
  5
39
102
{ACAD_REACTORS
330
2A
102
}
330
2A
100
AcDbVisualStyle
  2
Facepattern
 70
    15
 71
     2
 72
     2
 73
     0
 90
        0
 40
-0.6
 41
-30.0
 62
     5
 63
     7
421
 16777215
 74
     1
 91
        4
 64
     7
 65
   257
 75
     1
175
     1
 42
1.0
 92
        8
 66
     7
 43
1.0
 76
     1
 77
     6
 78
     2
 67
     7
 79
     5
170
     0
171
     0
290
     0
174
     0
 93
        1
 44
0.0
173
     0
291
     1
 45
0.0
1001
ACAD
1000
AcDbSavedByObjectVersion
1070
     0
  0
VISUALSTYLE
  5
2B
102
{ACAD_REACTORS
330
2A
102
}
330
2A
100
AcDbVisualStyle
  2
Flat
 70
     0
 71
     2
 72
     1
 73
     1
 90
        2
 40
-0.6
 41
30.0
 62
     5
 63
     7
421
 16777215
 74
     0
 91
        4
 64
     7
 65
   257
 75
     1
175
     1
 42
1.0
 92
        8
 66
     7
 43
1.0
 76
     1
 77
     6
 78
     2
 67
     7
 79
     5
170
     0
171
     0
290
     0
174
     0
 93
       13
 44
0.0
173
     0
291
     1
 45
0.0
1001
ACAD
1000
AcDbSavedByObjectVersion
1070
     0
  0
VISUALSTYLE
  5
2C
102
{ACAD_REACTORS
330
2A
102
}
330
2A
100
AcDbVisualStyle
  2
FlatWithEdges
 70
     1
 71
     2
 72
     1
 73
     1
 90
        2
 40
-0.6
 41
30.0
 62
     5
 63
     7
421
 16777215
 74
     1
 91
        4
 64
     7
 65
   257
 75
     1
175
     1
 42
1.0
 92
        0
 66
   257
 43
1.0
 76
     1
 77
     6
 78
     2
 67
     7
 79
     5
170
     0
171
     0
290
     0
174
     0
 93
       13
 44
0.0
173
     0
291
     1
 45
0.0
1001
ACAD
1000
AcDbSavedByObjectVersion
1070
     0
  0
VISUALSTYLE
  5
2D
102
{ACAD_REACTORS
330
2A
102
}
330
2A
100
AcDbVisualStyle
  2
Gouraud
 70
     2
 71
     2
 72
     2
 73
     1
 90
        2
 40
-0.6
 41
30.0
 62
     5
 63
     7
421
 16777215
 74
     0
 91
        4
 64
     7
 65
   257
 75
     1
175
     1
 42
1.0
 92
        0
 66
     7
 43
1.0
 76
     1
 77
     6
 78
     2
 67
     7
 79
     5
170
     0
171
     0
290
     0
174
     0
 93
       13
 44
0.0
173
     0
291
     1
 45
0.0
1001
ACAD
1000
AcDbSavedByObjectVersion
1070
     0
  0
VISUALSTYLE
  5
2E
102
{ACAD_REACTORS
330
2A
102
}
330
2A
100
AcDbVisualStyle
  2
GouraudWithEdges
 70
     3
 71
     2
 72
     2
 73
     1
 90
        2
 40
-0.6
 41
30.0
 62
     5
 63
     7
421
 16777215
 74
     1
 91
        4
 64
     7
 65
   257
 75
     1
175
     1
 42
1.0
 92
        0
 66
   257
 43
1.0
 76
     1
 77
     6
 78
     2
 67
     7
 79
     5
170
     0
171
     0
290
     0
174
     0
 93
       13
 44
0.0
173
     0
291
     1
 45
0.0
1001
ACAD
1000
AcDbSavedByObjectVersion
1070
     0
  0
VISUALSTYLE
  5
38
102
{ACAD_REACTORS
330
2A
102
}
330
2A
100
AcDbVisualStyle
  2
Linepattern
 70
    14
 71
     2
 72
     2
 73
     0
 90
        0
 40
-0.6
 41
-30.0
 62
     5
 63
     7
421
 16777215
 74
     1
 91
        4
 64
     7
 65
   257
 75
     7
175
     7
 42
1.0
 92
        8
 66
     7
 43
1.0
 76
     1
 77
     6
 78
     2
 67
     7
 79
     5
170
     0
171
     0
290
     0
174
     0
 93
        1
 44
0.0
173
     0
291
     1
 45
0.0
1001
ACAD
1000
AcDbSavedByObjectVersion
1070
     0
  0
VISUALSTYLE
  5
33
102
{ACAD_REACTORS
330
2A
102
}
330
2A
100
AcDbVisualStyle
  2
Realistic
 70
     8
 71
     2
 72
     2
 73
     0
 90
        0
 40
-0.6
 41
-30.0
 62
     5
 63
     7
421
 16777215
 74
     1
 91
        0
 64
     7
 65
   257
 75
     1
175
     1
 42
1.0
 92
        8
 66
     8
424
  7895160
 43
1.0
 76
     1
 77
     6
 78
     2
 67
     7
 79
     5
170
     0
171
     0
290
     0
174
     0
 93
       13
 44
0.0
173
     0
291
     0
 45
0.0
1001
ACAD
1000
AcDbSavedByObjectVersion
1070
     0
  0
VISUALSTYLE
  5
37
102
{ACAD_REACTORS
330
2A
102
}
330
2A
100
AcDbVisualStyle
  2
Thicken
 70
    13
 71
     2
 72
     2
 73
     0
 90
        0
 40
-0.6
 41
-30.0
 62
     5
 63
     7
421
 16777215
 74
     1
 91
        4
 64
     7
 65
   257
 75
     1
175
     1
 42
1.0
 92
       12
 66
     7
 43
1.0
 76
     1
 77
     6
 78
     2
 67
     7
 79
     5
170
     0
171
     0
290
     0
174
     0
 93
        1
 44
0.0
173
     0
291
     1
 45
0.0
1001
ACAD
1000
AcDbSavedByObjectVersion
1070
     0
  0
ENDSEC
  0
EOF
