  0
SECTION
  2
HEADER
  9
$ACADVER
  1
AC1018
  9
$ACADMAINTVER
 70
     0
  9
$DWGCODEPAGE
  3
ANSI_932
  9
$INSBASE
 10
0.0
 20
0.0
 30
0.0
  9
$EXTMIN
 10
-2100.0
 20
-1485.0
 30
0.0
  9
$EXTMAX
 10
2100.0
 20
1485.0
 30
0.0
  9
$LIMMIN
 10
-2100.0
 20
-1485.0
  9
$LIMMAX
 10
2100.0
 20
1485.0
  9
$ORTHOMODE
 70
     0
  9
$REGENMODE
 70
     1
  9
$FILLMODE
 70
     1
  9
$QTEXTMODE
 70
     0
  9
$MIRRTEXT
 70
     1
  9
$LTSCALE
 40
10.0
  9
$ATTMODE
 70
     1
  9
$TEXTSIZE
 40
2.5
  9
$TRACEWID
 40
1.0
  9
$TEXTSTYLE
  7
Standard
  9
$CLAYER
  8
0
  9
$CELTYPE
  6
ByLayer
  9
$CECOLOR
 62
   256
  9
$CELTSCALE
 40
1.0
  9
$DISPSILH
 70
     0
  9
$DIMSCALE
 40
1.0
  9
$DIMASZ
 40
2.5
  9
$DIMEXO
 40
0.625
  9
$DIMDLI
 40
3.75
  9
$DIMRND
 40
0.0
  9
$DIMDLE
 40
0.0
  9
$DIMEXE
 40
1.25
  9
$DIMTP
 40
0.0
  9
$DIMTM
 40
0.0
  9
$DIMTXT
 40
2.5
  9
$DIMCEN
 40
2.5
  9
$DIMTSZ
 40
0.0
  9
$DIMTOL
 70
     0
  9
$DIMLIM
 70
     0
  9
$DIMTIH
 70
     0
  9
$DIMTOH
 70
     0
  9
$DIMSE1
 70
     0
  9
$DIMSE2
 70
     0
  9
$DIMTAD
 70
     1
  9
$DIMZIN
 70
     8
  9
$DIMBLK
  1

  9
$DIMASO
 70
     1
  9
$DIMSHO
 70
     1
  9
$DIMPOST
  1

  9
$DIMAPOST
  1

  9
$DIMALT
 70
     0
  9
$DIMALTD
 70
     3
  9
$DIMALTF
 40
0.03937007874016
  9
$DIMLFAC
 40
1.0
  9
$DIMTOFL
 70
     1
  9
$DIMTVP
 40
0.0
  9
$DIMTIX
 70
     0
  9
$DIMSOXD
 70
     0
  9
$DIMSAH
 70
     0
  9
$DIMBLK1
  1

  9
$DIMBLK2
  1

  9
$DIMSTYLE
  2
ISO-25
  9
$DIMCLRD
 70
     0
  9
$DIMCLRE
 70
     0
  9
$DIMCLRT
 70
     0
  9
$DIMTFAC
 40
1.0
  9
$DIMGAP
 40
0.625
  9
$DIMJUST
 70
     0
  9
$DIMSD1
 70
     0
  9
$DIMSD2
 70
     0
  9
$DIMTOLJ
 70
     0
  9
$DIMTZIN
 70
     8
  9
$DIMALTZ
 70
     0
  9
$DIMALTTZ
 70
     0
  9
$DIMUPT
 70
     0
  9
$DIMDEC
 70
     2
  9
$DIMTDEC
 70
     2
  9
$DIMALTU
 70
     2
  9
$DIMALTTD
 70
     3
  9
$DIMTXSTY
  7
Standard
  9
$DIMAUNIT
 70
     0
  9
$DIMADEC
 70
     0
  9
$DIMALTRND
 40
0.0
  9
$DIMAZIN
 70
     0
  9
$DIMDSEP
 70
    44
  9
$DIMATFIT
 70
     3
  9
$DIMFRAC
 70
     0
  9
$DIMLDRBLK
  1

  9
$DIMLUNIT
 70
     2
  9
$DIMLWD
 70
    -2
  9
$DIMLWE
 70
    -2
  9
$DIMTMOVE
 70
     0
  9
$LUNITS
 70
     2
  9
$LUPREC
 70
     4
  9
$SKETCHINC
 40
1.0
  9
$FILLETRAD
 40
10.0
  9
$AUNITS
 70
     0
  9
$AUPREC
 70
     0
  9
$MENU
  1
.
  9
$ELEVATION
 40
0.0
  9
$PELEVATION
 40
0.0
  9
$THICKNESS
 40
0.0
  9
$LIMCHECK
 70
     0
  9
$CHAMFERA
 40
10.0
  9
$CHAMFERB
 40
10.0
  9
$CHAMFERC
 40
20.0
  9
$CHAMFERD
 40
0.0
  9
$SKPOLY
 70
     0
  9
$TDCREATE
 40
2458177.486633843
  9
$TDUCREATE
 40
2458177.111633843
  9
$TDUPDATE
 40
2458177.486633854
  9
$TDUUPDATE
 40
2458177.111633854
  9
$TDINDWG
 40
0.0000000116
  9
$TDUSRTIMER
 40
0.0000000116
  9
$USRTIMER
 70
     1
  9
$ANGBASE
 50
0.0
  9
$ANGDIR
 70
     0
  9
$PDMODE
 70
     0
  9
$PDSIZE
 40
0.0
  9
$PLINEWID
 40
0.0
  9
$SPLFRAME
 70
     0
  9
$SPLINETYPE
 70
     6
  9
$SPLINESEGS
 70
     8
  9
$HANDSEED
  5
59D
  9
$SURFTAB1
 70
     6
  9
$SURFTAB2
 70
     6
  9
$SURFTYPE
 70
     6
  9
$SURFU
 70
     6
  9
$SURFV
 70
     6
  9
$UCSBASE
  2

  9
$UCSNAME
  2

  9
$UCSORG
 10
0.0
 20
0.0
 30
0.0
  9
$UCSXDIR
 10
1.0
 20
0.0
 30
0.0
  9
$UCSYDIR
 10
0.0
 20
1.0
 30
0.0
  9
$UCSORTHOREF
  2

  9
$UCSORTHOVIEW
 70
     0
  9
$UCSORGTOP
 10
0.0
 20
0.0
 30
0.0
  9
$UCSORGBOTTOM
 10
0.0
 20
0.0
 30
0.0
  9
$UCSORGLEFT
 10
0.0
 20
0.0
 30
0.0
  9
$UCSORGRIGHT
 10
0.0
 20
0.0
 30
0.0
  9
$UCSORGFRONT
 10
0.0
 20
0.0
 30
0.0
  9
$UCSORGBACK
 10
0.0
 20
0.0
 30
0.0
  9
$PUCSBASE
  2

  9
$PUCSNAME
  2

  9
$PUCSORG
 10
0.0
 20
0.0
 30
0.0
  9
$PUCSXDIR
 10
1.0
 20
0.0
 30
0.0
  9
$PUCSYDIR
 10
0.0
 20
1.0
 30
0.0
  9
$PUCSORTHOREF
  2

  9
$PUCSORTHOVIEW
 70
     0
  9
$PUCSORGTOP
 10
0.0
 20
0.0
 30
0.0
  9
$PUCSORGBOTTOM
 10
0.0
 20
0.0
 30
0.0
  9
$PUCSORGLEFT
 10
0.0
 20
0.0
 30
0.0
  9
$PUCSORGRIGHT
 10
0.0
 20
0.0
 30
0.0
  9
$PUCSORGFRONT
 10
0.0
 20
0.0
 30
0.0
  9
$PUCSORGBACK
 10
0.0
 20
0.0
 30
0.0
  9
$USERI1
 70
     0
  9
$USERI2
 70
     0
  9
$USERI3
 70
     0
  9
$USERI4
 70
     0
  9
$USERI5
 70
     0
  9
$USERR1
 40
0.0
  9
$USERR2
 40
0.0
  9
$USERR3
 40
0.0
  9
$USERR4
 40
0.0
  9
$USERR5
 40
0.0
  9
$WORLDVIEW
 70
     1
  9
$SHADEDGE
 70
     3
  9
$SHADEDIF
 70
    70
  9
$TILEMODE
 70
     1
  9
$MAXACTVP
 70
    64
  9
$PINSBASE
 10
0.0
 20
0.0
 30
0.0
  9
$PLIMCHECK
 70
     0
  9
$PEXTMIN
 10
1.000000000000000E+20
 20
1.000000000000000E+20
 30
1.000000000000000E+20
  9
$PEXTMAX
 10
-1.000000000000000E+20
 20
-1.000000000000000E+20
 30
-1.000000000000000E+20
  9
$PLIMMIN
 10
0.0
 20
0.0
  9
$PLIMMAX
 10
420.0
 20
297.0
  9
$UNITMODE
 70
     0
  9
$VISRETAIN
 70
     1
  9
$PLINEGEN
 70
     0
  9
$PSLTSCALE
 70
     1
  9
$TREEDEPTH
 70
  3020
  9
$CMLSTYLE
  2
Standard
  9
$CMLJUST
 70
     0
  9
$CMLSCALE
 40
20.0
  9
$PROXYGRAPHICS
 70
     1
  9
$MEASUREMENT
 70
     1
  9
$CELWEIGHT
370
    -1
  9
$ENDCAPS
280
     0
  9
$JOINSTYLE
280
     0
  9
$LWDISPLAY
290
     0
  9
$INSUNITS
 70
     4
  9
$HYPERLINKBASE
  1

  9
$STYLESHEET
  1

  9
$XEDIT
290
     1
  9
$CEPSNTYPE
380
     0
  9
$PSTYLEMODE
290
     1
  9
$FINGERPRINTGUID
  2
{815BA2AE-5983-41A9-846C-CDE539886AF7}
  9
$VERSIONGUID
  2
{FAEB1C32-E019-11D5-929B-00C0DF256EC4}
  9
$EXTNAMES
290
     1
  9
$PSVPSCALE
 40
0.0
  9
$OLESTARTUP
290
     0
  9
$SORTENTS
280
   127
  9
$INDEXCTL
280
     0
  9
$HIDETEXT
280
     1
  9
$XCLIPFRAME
290
     0
  9
$HALOGAP
280
     0
  9
$OBSCOLOR
 70
   257
  9
$OBSLTYPE
280
     0
  9
$INTERSECTIONDISPLAY
280
     0
  9
$INTERSECTIONCOLOR
 70
   257
  9
$DIMASSOC
280
     2
  9
$PROJECTNAME
  1

  0
ENDSEC
  0
SECTION
  2
CLASSES
  0
CLASS
  1
ACDBDICTIONARYWDFLT
  2
AcDbDictionaryWithDefault
  3
ObjectDBX Classes
 90
        0
 91
        4
280
     0
281
     0
  0
CLASS
  1
VISUALSTYLE
  2
AcDbVisualStyle
  3
ObjectDBX Classes
 90
     4095
 91
        4
280
     0
281
     0
  0
ENDSEC
  0
SECTION
  2
TABLES
  0
TABLE
  2
VPORT
  5
8
330
0
100
AcDbSymbolTable
 70
     1
  0
VPORT
  5
29
330
8
100
AcDbSymbolTableRecord
100
AcDbViewportTableRecord
  2
*Active
 70
     0
 10
0.0
 20
0.0
 11
1.0
 21
1.0
 12
0.0
 22
0.0
 13
0.0
 23
0.0
 14
10.0
 24
10.0
 15
10.0
 25
10.0
 16
0.0
 26
0.0
 36
1.0
 17
0.0
 27
0.0
 37
0.0
 40
3267.0
 41
1.414141414141414
 42
50.0
 43
0.0
 44
0.0
 50
0.0
 51
0.0
 71
     0
 72
 10000
 73
     1
 74
     3
 75
     0
 76
     0
 77
     0
 78
     0
281
     0
 65
     1
110
0.0
120
0.0
130
0.0
111
1.0
121
0.0
131
0.0
112
0.0
122
1.0
132
0.0
 79
     0
146
0.0
  0
ENDTAB
  0
TABLE
  2
LTYPE
  5
5
330
0
100
AcDbSymbolTable
 70
     3
  0
LTYPE
  5
14
330
5
100
AcDbSymbolTableRecord
100
AcDbLinetypeTableRecord
  2
ByBlock
 70
     0
  3

 72
    65
 73
     0
 40
0.0
  0
LTYPE
  5
15
330
5
100
AcDbSymbolTableRecord
100
AcDbLinetypeTableRecord
  2
ByLayer
 70
     0
  3

 72
    65
 73
     0
 40
0.0
  0
LTYPE
  5
16
330
5
100
AcDbSymbolTableRecord
100
AcDbLinetypeTableRecord
  2
Continuous
 70
     0
  3
Solid line
 72
    65
 73
     0
 40
0.0
  0
LTYPE
  5
3C
330
5
100
AcDbSymbolTableRecord
100
AcDbLinetypeTableRecord
  2
JWW_CENTER1
 70
     0
  3
-----  --  ----------  --  -----
 72
    65
 73
     4
 40
6.773333333333333
 49
4.233333333333333
 74
     0
 49
-0.8466666666666667
 74
     0
 49
0.8466666666666667
 74
     0
 49
-0.8466666666666667
 74
     0
  0
LTYPE
  5
3D
330
5
100
AcDbSymbolTableRecord
100
AcDbLinetypeTableRecord
  2
JWW_DASHED3
 70
     0
  3
---  ------  ------  ------  ---
 72
    65
 73
     2
 40
3.386666666666667
 49
2.54
 74
     0
 49
-0.8466666666666667
 74
     0
  0
ENDTAB
  0
TABLE
  2
LAYER
  5
2
330
0
100
AcDbSymbolTable
 70
    12
  0
LAYER
  5
10
330
2
100
AcDbSymbolTableRecord
100
AcDbLayerTableRecord
  2
0
 70
     0
 62
     7
  6
Continuous
370
    -3
390
F
  0
LAYER
  5
3E
330
2
100
AcDbSymbolTableRecord
100
AcDbLayerTableRecord
  2
8-3
 70
     0
 62
     7
  6
Continuous
370
    -3
390
F
  0
LAYER
  5
3F
330
2
100
AcDbSymbolTableRecord
100
AcDbLayerTableRecord
  2
その他
 70
     0
 62
     7
  6
Continuous
370
    -3
390
F
  0
LAYER
  5
40
330
2
100
AcDbSymbolTableRecord
100
AcDbLayerTableRecord
  2
躯体
 70
     0
 62
     7
  6
Continuous
370
    -3
390
F
  0
LAYER
  5
41
330
2
100
AcDbSymbolTableRecord
100
AcDbLayerTableRecord
  2
通り芯
 70
     0
 62
     7
  6
Continuous
370
    -3
390
F
  0
LAYER
  5
42
330
2
100
AcDbSymbolTableRecord
100
AcDbLayerTableRecord
  2
建具
 70
     0
 62
     7
  6
Continuous
370
    -3
390
F
  0
LAYER
  5
43
330
2
100
AcDbSymbolTableRecord
100
AcDbLayerTableRecord
  2
F-5ﾚｲﾔ
 70
     0
 62
     7
  6
Continuous
370
    -3
390
F
  0
LAYER
  5
44
330
2
100
AcDbSymbolTableRecord
100
AcDbLayerTableRecord
  2
8-4
 70
     0
 62
     7
  6
Continuous
370
    -3
390
F
  0
LAYER
  5
45
330
2
100
AcDbSymbolTableRecord
100
AcDbLayerTableRecord
  2
8-1
 70
     0
 62
     7
  6
Continuous
370
    -3
390
F
  0
LAYER
  5
46
330
2
100
AcDbSymbolTableRecord
100
AcDbLayerTableRecord
  2
8-5
 70
     0
 62
     7
  6
Continuous
370
    -3
390
F
  0
LAYER
  5
47
330
2
100
AcDbSymbolTableRecord
100
AcDbLayerTableRecord
  2
8-0
 70
     0
 62
     7
  6
Continuous
370
    -3
390
F
  0
LAYER
  5
48
330
2
100
AcDbSymbolTableRecord
100
AcDbLayerTableRecord
  2
8-E
 70
     0
 62
     7
  6
Continuous
370
    -3
390
F
  0
ENDTAB
  0
TABLE
  2
STYLE
  5
3
330
0
100
AcDbSymbolTable
 70
     2
  0
STYLE
  5
11
330
3
100
AcDbSymbolTableRecord
100
AcDbTextStyleTableRecord
  2
Standard
 70
     0
 40
0.0
 41
1.0
 50
0.0
 71
     0
 42
2.5
  3
txt
  4

1001
ACAD
1000

1071
        0
  0
STYLE
  5
3B
330
3
100
AcDbSymbolTableRecord
100
AcDbTextStyleTableRecord
  2
ＭＳ ゴシック
 70
     0
 40
1.0
 41
1.0
 50
0.0
 71
     0
 42
10.0
  3

  4

1001
ACAD
1000
MS Gothic
1071
    32817
  0
ENDTAB
  0
TABLE
  2
VIEW
  5
6
330
0
100
AcDbSymbolTable
 70
     0
  0
ENDTAB
  0
TABLE
  2
UCS
  5
7
330
0
100
AcDbSymbolTable
 70
     0
  0
ENDTAB
  0
TABLE
  2
APPID
  5
9
330
0
100
AcDbSymbolTable
 70
     1
  0
APPID
  5
12
330
9
100
AcDbSymbolTableRecord
100
AcDbRegAppTableRecord
  2
ACAD
 70
     0
  0
ENDTAB
  0
TABLE
  2
DIMSTYLE
  5
A
330
0
100
AcDbSymbolTable
 70
     1
100
AcDbDimStyleTable
  0
DIMSTYLE
105
27
330
A
100
AcDbSymbolTableRecord
100
AcDbDimStyleTableRecord
  2
ISO-25
 70
     0
 41
2.5
 42
0.625
 43
3.75
 44
1.25
 73
     0
 74
     0
 77
     1
 78
     8
140
2.5
141
2.5
143
0.03937007874016
147
0.625
171
     3
172
     1
271
     2
272
     2
274
     3
278
    44
283
     0
284
     8
340
11
  0
ENDTAB
  0
TABLE
  2
BLOCK_RECORD
  5
1
330
0
100
AcDbSymbolTable
 70
     1
  0
BLOCK_RECORD
  5
1F
330
1
100
AcDbSymbolTableRecord
100
AcDbBlockTableRecord
  2
*Model_Space
340
22
  0
BLOCK_RECORD
  5
1B
330
1
100
AcDbSymbolTableRecord
100
AcDbBlockTableRecord
  2
*Paper_Space
340
1E
  0
BLOCK_RECORD
  5
23
330
1
100
AcDbSymbolTableRecord
100
AcDbBlockTableRecord
  2
*Paper_Space0
340
26
  0
ENDTAB
  0
ENDSEC
  0
SECTION
  2
BLOCKS
  0
BLOCK
  5
20
330
1F
100
AcDbEntity
  8
0
100
AcDbBlockBegin
  2
*Model_Space
 70
     0
 10
0.0
 20
0.0
 30
0.0
  3
*Model_Space
  1

  0
ENDBLK
  5
21
330
1F
100
AcDbEntity
  8
0
100
AcDbBlockEnd
  0
BLOCK
  5
1C
330
1B
100
AcDbEntity
 67
     1
  8
0
100
AcDbBlockBegin
  2
*Paper_Space
 70
     0
 10
0.0
 20
0.0
 30
0.0
  3
*Paper_Space
  1

  0
ENDBLK
  5
1D
330
1B
100
AcDbEntity
 67
     1
  8
0
100
AcDbBlockEnd
  0
BLOCK
  5
24
330
23
100
AcDbEntity
  8
0
100
AcDbBlockBegin
  2
*Paper_Space0
 70
     0
 10
0.0
 20
0.0
 30
0.0
  3
*Paper_Space0
  1

  0
ENDBLK
  5
25
330
23
100
AcDbEntity
  8
0
100
AcDbBlockEnd
  0
ENDSEC
  0
SECTION
  2
ENTITIES
  0
LINE
  5
49
330
1F
100
AcDbEntity
  8
8-3
  6
Continuous
 62
     6
370
     9
100
AcDbLine
 10
797.6829435909699
 20
-485.8562434192452
 30
0.0
 11
797.6829435909699
 21
-635.8557028810608
 31
0.0
  0
LINE
  5
4A
330
1F
100
AcDbEntity
  8
その他
  6
Continuous
 62
     7
370
     9
100
AcDbLine
 10
-734.4493865966797
 20
646.6922760009766
 30
0.0
 11
-1017.29211807251
 21
363.8495254516602
 31
0.0
  0
LINE
  5
4B
330
1F
100
AcDbEntity
  8
その他
  6
Continuous
 62
     7
370
     9
100
AcDbLine
 10
-1475.871561950922
 20
-662.941978003422
 30
0.0
 11
-275.8709315685161
 21
-662.941978003422
 31
0.0
  0
LWPOLYLINE
  5
4C
330
1F
100
AcDbEntity
  8
その他
  6
Continuous
 62
     7
370
     9
100
AcDbPolyline
 90
        4
 70
     1
 43
1.0
 10
-1475.371561950922
 20
-662.941978003422
 42
0.4142135623731
 10
-1475.871561950922
 20
-662.441978003422
 42
0.4142135623731
 10
-1476.371561950922
 20
-662.941978003422
 42
0.4142135623731
 10
-1475.871561950922
 20
-663.441978003422
 42
0.4142135623731
  0
LWPOLYLINE
  5
4D
330
1F
100
AcDbEntity
  8
その他
  6
Continuous
 62
     7
370
     9
100
AcDbPolyline
 90
        4
 70
     1
 43
1.0
 10
-275.3709315685161
 20
-662.941978003422
 42
0.4142135623731
 10
-275.8709315685161
 20
-662.441978003422
 42
0.4142135623731
 10
-276.3709315685161
 20
-662.941978003422
 42
0.4142135623731
 10
-275.8709315685161
 20
-663.441978003422
 42
0.4142135623731
  0
LINE
  5
4E
330
1F
100
AcDbEntity
  8
その他
  6
Continuous
 62
     7
370
     9
100
AcDbLine
 10
-1475.871561950922
 20
-659.941978003422
 30
0.0
 11
-1475.871561950922
 21
-790.1618283049745
 31
0.0
  0
LINE
  5
4F
330
1F
100
AcDbEntity
  8
その他
  6
Continuous
 62
     7
370
     9
100
AcDbLine
 10
-275.8709315685161
 20
-659.941978003422
 30
0.0
 11
-275.8709315685161
 21
-790.1618283049745
 31
0.0
  0
TEXT
  5
50
330
1F
100
AcDbEntity
  8
その他
  6
Continuous
 62
     2
370
   211
100
AcDbText
 10
-942.1212467597189
 20
-647.301978003422
 30
0.0
 40
30.48
  1
φ1200
 41
1.104166666666667
  7
ＭＳ ゴシック
100
AcDbText
  0
LINE
  5
51
330
1F
100
AcDbEntity
  8
躯体
  6
JWW_CENTER1
 62
     2
370
     9
100
AcDbLine
 10
-1642.250971799872
 20
505.2709108333955
 30
0.0
 11
-109.4905307819846
 21
505.2709108333955
 31
0.0
  0
LINE
  5
52
330
1F
100
AcDbEntity
  8
躯体
  6
JWW_CENTER1
 62
     2
370
     9
100
AcDbLine
 10
-875.8707512909297
 20
1271.651626811126
 30
0.0
 11
-875.8707512909297
 21
-261.109805144336
 31
0.0
  0
LINE
  5
53
330
1F
100
AcDbEntity
  8
通り芯
  6
Continuous
 62
     3
370
     9
100
AcDbLine
 10
-1475.867598200619
 20
507.2706228605728
 30
0.0
 11
-1075.861772760223
 21
507.2706228605728
 31
0.0
  0
LINE
  5
54
330
1F
100
AcDbEntity
  8
通り芯
  6
Continuous
 62
     3
370
     9
100
AcDbLine
 10
-910.8716573919952
 20
724.260187498453
 30
0.0
 11
-900.871115380956
 21
724.260187498453
 31
0.0
  0
LINE
  5
55
330
1F
100
AcDbEntity
  8
通り芯
  6
Continuous
 62
     3
370
     9
100
AcDbLine
 10
-910.8716573919952
 20
736.2604415366707
 30
0.0
 11
-900.871115380956
 21
736.2604415366707
 31
0.0
  0
LINE
  5
56
330
1F
100
AcDbEntity
  8
通り芯
  6
JWW_CENTER1
 62
     3
370
     9
100
AcDbLine
 10
-883.674384697286
 20
730.2613054551375
 30
0.0
 11
-928.9661775189853
 21
730.2613054551375
 31
0.0
  0
LINE
  5
57
330
1F
100
AcDbEntity
  8
通り芯
  6
JWW_CENTER1
 62
     3
370
     9
100
AcDbLine
 10
-905.8713863864756
 20
748.3974449602954
 30
0.0
 11
-905.8713863864756
 21
712.470012226222
 31
0.0
  0
LINE
  5
58
330
1F
100
AcDbEntity
  8
通り芯
  6
Continuous
 62
     3
370
     9
100
AcDbLine
 10
-910.8716573919952
 20
740.2608565286016
 30
0.0
 11
-900.871115380956
 21
740.2608565286016
 31
0.0
  0
LINE
  5
59
330
1F
100
AcDbEntity
  8
通り芯
  6
Continuous
 62
     3
370
     9
100
AcDbLine
 10
-910.8716573919952
 20
720.2607634440972
 30
0.0
 11
-900.871115380956
 21
720.2607634440972
 31
0.0
  0
LINE
  5
5A
330
1F
100
AcDbEntity
  8
通り芯
  6
Continuous
 62
     3
370
     9
100
AcDbLine
 10
-1094.861018893565
 20
540.2708259968848
 30
0.0
 11
-1094.861018893565
 21
530.2702839858445
 31
0.0
  0
LINE
  5
5B
330
1F
100
AcDbEntity
  8
通り芯
  6
Continuous
 62
     3
370
     9
100
AcDbLine
 10
-1106.861272931781
 20
540.2708259968848
 30
0.0
 11
-1106.861272931781
 21
530.2702839858445
 31
0.0
  0
LINE
  5
5C
330
1F
100
AcDbEntity
  8
通り芯
  6
JWW_CENTER1
 62
     3
370
     9
100
AcDbLine
 10
-1100.861145912673
 20
513.0735533021756
 30
0.0
 11
-1100.861145912673
 21
558.3653461238749
 31
0.0
  0
LINE
  5
5D
330
1F
100
AcDbEntity
  8
通り芯
  6
JWW_CENTER1
 62
     3
370
     9
100
AcDbLine
 10
-1118.997285417832
 20
535.2705549913641
 30
0.0
 11
-1083.070843621334
 21
535.2705549913641
 31
0.0
  0
LINE
  5
5E
330
1F
100
AcDbEntity
  8
通り芯
  6
Continuous
 62
     3
370
     9
100
AcDbLine
 10
-1110.861687923712
 20
540.2708259968848
 30
0.0
 11
-1110.861687923712
 21
530.2702839858445
 31
0.0
  0
LINE
  5
5F
330
1F
100
AcDbEntity
  8
通り芯
  6
Continuous
 62
     3
370
     9
100
AcDbLine
 10
-1090.860603901634
 20
540.2708259968848
 30
0.0
 11
-1090.860603901634
 21
530.2702839858445
 31
0.0
  0
LINE
  5
60
330
1F
100
AcDbEntity
  8
通り芯
  6
Continuous
 62
     3
370
     9
100
AcDbLine
 10
-877.8714542556833
 20
1105.267757743084
 30
0.0
 11
-877.8714542556833
 21
705.2609413651123
 31
0.0
  0
LINE
  5
61
330
1F
100
AcDbEntity
  8
通り芯
  6
Continuous
 62
     3
370
     9
100
AcDbLine
 10
-1328.843181074579
 20
587.7258355457049
 30
0.0
 11
-1244.632314978642
 21
570.9750267709707
 31
0.0
  0
LINE
  5
62
330
1F
100
AcDbEntity
  8
通り芯
  6
Continuous
 62
     3
370
     9
100
AcDbLine
 10
-1333.275644849389
 20
557.8579860852655
 30
0.0
 11
-1247.82610678419
 21
549.4409623197306
 31
0.0
  0
LINE
  5
63
330
1F
100
AcDbEntity
  8
通り芯
  6
Continuous
 62
     3
370
     9
100
AcDbLine
 10
-1440.179972359795
 20
571.9986652863691
 30
0.0
 11
-1371.404940876023
 21
562.9444686598459
 31
0.0
  0
LINE
  5
64
330
1F
100
AcDbEntity
  8
通り芯
  6
Continuous
 62
     3
370
     9
100
AcDbLine
 10
-1442.354089400244
 20
549.9166123559281
 30
0.0
 11
-1373.131154132389
 21
545.3791091981237
 31
0.0
  0
LINE
  5
65
330
1F
100
AcDbEntity
  8
通り芯
  6
Continuous
 62
     3
370
     9
100
AcDbLine
 10
-1448.906168648858
 20
535.3131653071069
 30
0.0
 11
-1368.341952830431
 21
530.0334499053214
 31
0.0
  0
LINE
  5
66
330
1F
100
AcDbEntity
  8
通り芯
  6
Continuous
 62
     3
370
     9
100
AcDbLine
 10
-1449.332271806284
 20
522.2704449395577
 30
0.0
 11
-1368.59662378731
 21
522.2704449395577
 31
0.0
  0
LINE
  5
67
330
1F
100
AcDbEntity
  8
通り芯
  6
Continuous
 62
     3
370
     9
100
AcDbLine
 10
-1339.143977170968
 20
543.3625512321647
 30
0.0
 11
-1245.133729391799
 21
534.1032305275315
 31
0.0
  0
LINE
  5
68
330
1F
100
AcDbEntity
  8
通り芯
  6
Continuous
 62
     3
370
     9
100
AcDbLine
 10
-1340.179506937271
 20
522.2714358771328
 30
0.0
 11
-1245.71243693584
 21
522.2714358771328
 31
0.0
  0
LINE
  5
69
330
1F
100
AcDbEntity
  8
通り芯
  6
Continuous
 62
     3
370
     9
100
AcDbLine
 10
-1434.606939435687
 20
608.7634402716641
 30
0.0
 11
-1366.571147383173
 21
595.230205804287
 31
0.0
  0
LINE
  5
6A
330
1F
100
AcDbEntity
  8
通り芯
  6
Continuous
 62
     3
370
     9
100
AcDbLine
 10
-1438.220888773208
 20
586.8706564181265
 30
0.0
 11
-1369.442884476712
 21
577.815468854027
 31
0.0
  0
LINE
  5
6B
330
1F
100
AcDbEntity
  8
通り芯
  6
Continuous
 62
     3
370
     9
100
AcDbLine
 10
-1426.641783204541
 20
645.0852661607507
 30
0.0
 11
-1359.637557168026
 21
627.1314591694683
 31
0.0
  0
LINE
  5
6C
330
1F
100
AcDbEntity
  8
通り芯
  6
Continuous
 62
     3
370
     9
100
AcDbLine
 10
-1431.679709837927
 20
623.4748995162046
 30
0.0
 11
-1363.64193591026
 21
609.9416650488275
 31
0.0
  0
LINE
  5
6D
330
1F
100
AcDbEntity
  8
通り芯
  6
Continuous
 62
     3
370
     9
100
AcDbLine
 10
-1416.318195543916
 20
680.8085657542892
 30
0.0
 11
-1350.630925545122
 21
658.5104884324085
 31
0.0
  0
LINE
  5
6E
330
1F
100
AcDbEntity
  8
通り芯
  6
Continuous
 62
     3
370
     9
100
AcDbLine
 10
-1422.759289784083
 20
659.5737644508233
 30
0.0
 11
-1355.751099997267
 21
641.6189665219656
 31
0.0
  0
LINE
  5
6F
330
1F
100
AcDbEntity
  8
通り芯
  6
Continuous
 62
     3
370
     9
100
AcDbLine
 10
-1403.680768644711
 20
715.779743728092
 30
0.0
 11
-1339.591880955054
 21
689.2335170204274
 31
0.0
  0
LINE
  5
70
330
1F
100
AcDbEntity
  8
通り芯
  6
Continuous
 62
     3
370
     9
100
AcDbLine
 10
-1411.496293301971
 20
695.011674022644
 30
0.0
 11
-1345.806050490451
 21
672.7135967007632
 31
0.0
  0
LINE
  5
71
330
1F
100
AcDbEntity
  8
通り芯
  6
Continuous
 62
     3
370
     9
100
AcDbLine
 10
-1388.782022198416
 20
749.8491685082718
 30
0.0
 11
-1326.567988401437
 21
719.1687502359957
 31
0.0
  0
LINE
  5
72
330
1F
100
AcDbEntity
  8
通り芯
  6
Continuous
 62
     3
370
     9
100
AcDbLine
 10
-1397.939276332784
 20
729.6370147826292
 30
0.0
 11
-1333.848406767975
 21
703.0897971373884
 31
0.0
  0
LINE
  5
73
330
1F
100
AcDbEntity
  8
通り芯
  6
Continuous
 62
     3
370
     9
100
AcDbLine
 10
-1371.688349022591
 20
782.8721632088173
 30
0.0
 11
-1311.612758513345
 21
748.1873661943087
 31
0.0
  0
LINE
  5
74
330
1F
100
AcDbEntity
  8
通り芯
  6
Continuous
 62
     3
370
     9
100
AcDbLine
 10
-1382.147695131046
 20
763.302137032041
 30
0.0
 11
-1319.929697583764
 21
732.6197368846135
 31
0.0
  0
LINE
  5
75
330
1F
100
AcDbEntity
  8
通り芯
  6
Continuous
 62
     3
370
     9
100
AcDbLine
 10
-1352.470105685084
 20
814.7050418812955
 30
0.0
 11
-1294.792584108332
 21
776.1664886360165
 31
0.0
  0
LINE
  5
76
330
1F
100
AcDbEntity
  8
通り芯
  6
Continuous
 62
     3
370
     9
100
AcDbLine
 10
-1364.186951576735
 20
795.861372947295
 30
0.0
 11
-1304.109379192339
 21
761.1765759327852
 31
0.0
  0
LINE
  5
77
330
1F
100
AcDbEntity
  8
通り芯
  6
Continuous
 62
     3
370
     9
100
AcDbLine
 10
-1331.211521879809
 20
845.2140279530261
 30
0.0
 11
-1276.17782175425
 21
802.9852231769189
 31
0.0
  0
LINE
  5
78
330
1F
100
AcDbEntity
  8
通り芯
  6
Continuous
 62
     3
370
     9
100
AcDbLine
 10
-1344.136320675885
 20
827.1769822054091
 30
0.0
 11
-1286.455826286406
 21
788.6364470849787
 31
0.0
  0
LINE
  5
79
330
1F
100
AcDbEntity
  8
通り芯
  6
Continuous
 62
     3
370
     9
100
AcDbLine
 10
-1308.003763863701
 20
874.2673267264786
 30
0.0
 11
-1255.849728332285
 21
828.5296119958434
 31
0.0
  0
LINE
  5
7A
330
1F
100
AcDbEntity
  8
通り芯
  6
Continuous
 62
     3
370
     9
100
AcDbLine
 10
-1322.080032122404
 20
857.1141972961277
 30
0.0
 11
-1267.04335918412
 21
814.8834106448692
 31
0.0
  0
LINE
  5
7B
330
1F
100
AcDbEntity
  8
通り芯
  6
Continuous
 62
     3
370
     9
100
AcDbLine
 10
-1282.944934456728
 20
901.7400800671521
 30
0.0
 11
-1233.89352447392
 21
852.6896610219205
 31
0.0
  0
LINE
  5
7C
330
1F
100
AcDbEntity
  8
通り芯
  6
Continuous
 62
     3
370
     9
100
AcDbLine
 10
-1298.113215923532
 20
885.544196334647
 30
0.0
 11
-1245.956207579389
 21
839.8044997288616
 31
0.0
  0
LINE
  5
7D
330
1F
100
AcDbEntity
  8
通り芯
  6
Continuous
 62
     3
370
     9
100
AcDbLine
 10
-1256.143045854606
 20
927.5153573411467
 30
0.0
 11
-1210.405331123973
 21
875.3613218097314
 31
0.0
  0
LINE
  5
7E
330
1F
100
AcDbEntity
  8
通り芯
  6
Continuous
 62
     3
370
     9
100
AcDbLine
 10
-1272.337938649537
 20
912.3460849367677
 30
0.0
 11
-1223.284546791579
 21
863.2926930788096
 31
0.0
  0
LINE
  5
7F
330
1F
100
AcDbEntity
  8
通り芯
  6
Continuous
 62
     3
370
     9
100
AcDbLine
 10
-1227.712055878513
 20
951.4821735400187
 30
0.0
 11
-1185.483251102406
 21
896.4484734144605
 31
0.0
  0
LINE
  5
80
330
1F
100
AcDbEntity
  8
通り芯
  6
Continuous
 62
     3
370
     9
100
AcDbLine
 10
-1244.864194371287
 20
937.4049143437412
 30
0.0
 11
-1199.124497765502
 21
885.2488969371745
 31
0.0
  0
LINE
  5
81
330
1F
100
AcDbEntity
  8
通り芯
  6
Continuous
 62
     3
370
     9
100
AcDbLine
 10
-1197.775831725369
 20
973.5384620934997
 30
0.0
 11
-1159.236287542515
 21
915.8609405167476
 31
0.0
  0
LINE
  5
82
330
1F
100
AcDbEntity
  8
通り芯
  6
Continuous
 62
     3
370
     9
100
AcDbLine
 10
-1215.81188653541
 20
960.6136632974244
 30
0.0
 11
-1173.581099884153
 21
905.5769903591397
 31
0.0
  0
LINE
  5
83
330
1F
100
AcDbEntity
  8
通り芯
  6
Continuous
 62
     3
370
     9
100
AcDbLine
 10
-1166.460222467254
 20
993.5900839319265
 30
0.0
 11
-1131.775425452745
 21
933.514493422681
 31
0.0
  0
LINE
  5
84
330
1F
100
AcDbEntity
  8
通り芯
  6
Continuous
 62
     3
370
     9
100
AcDbLine
 10
-1185.302900463681
 20
981.8722471027002
 30
0.0
 11
-1146.76236534325
 21
924.1917527132216
 31
0.0
  0
LINE
  5
85
330
1F
100
AcDbEntity
  8
通り芯
  6
Continuous
 62
     3
370
     9
100
AcDbLine
 10
-1133.899995614425
 20
1011.549836548661
 30
0.0
 11
-1103.21957734215
 21
949.3348118141046
 31
0.0
  0
LINE
  5
86
330
1F
100
AcDbEntity
  8
通り芯
  6
Continuous
 62
     3
370
     9
100
AcDbLine
 10
-1153.469030853626
 20
1001.089499502631
 30
0.0
 11
-1118.783242901543
 21
941.011927118235
 31
0.0
  0
LINE
  5
87
330
1F
100
AcDbEntity
  8
通り芯
  6
Continuous
 62
     3
370
     9
100
AcDbLine
 10
-1100.235864302588
 20
1027.342408687973
 30
0.0
 11
-1073.689637594924
 21
963.2545119358929
 31
0.0
  0
LINE
  5
88
330
1F
100
AcDbEntity
  8
通り芯
  6
Continuous
 62
     3
370
     9
100
AcDbLine
 10
-1120.447027090657
 20
1018.184163616033
 30
0.0
 11
-1089.764626943229
 21
955.9661660687505
 31
0.0
  0
LINE
  5
89
330
1F
100
AcDbEntity
  8
通り芯
  6
Continuous
 62
     3
370
     9
100
AcDbLine
 10
-1065.609532605029
 20
1040.898434719586
 30
0.0
 11
-1043.312446220723
 21
975.2111647207926
 31
0.0
  0
LINE
  5
8A
330
1F
100
AcDbEntity
  8
通り芯
  6
Continuous
 62
     3
370
     9
100
AcDbLine
 10
-1086.377602310477
 20
1033.08191912475
 30
0.0
 11
-1059.829393727662
 21
968.9910495599429
 31
0.0
  0
LINE
  5
8B
330
1F
100
AcDbEntity
  8
通り芯
  6
Continuous
 62
     3
370
     9
100
AcDbLine
 10
-1030.171623033209
 20
1052.161431201698
 30
0.0
 11
-1012.217816041926
 21
985.15621422761
 31
0.0
  0
LINE
  5
8C
330
1F
100
AcDbEntity
  8
通り芯
  6
Continuous
 62
     3
370
     9
100
AcDbLine
 10
-1051.405433399098
 20
1045.719346023957
 30
0.0
 11
-1029.107356077218
 21
980.030094150012
 31
0.0
  0
LINE
  5
8D
330
1F
100
AcDbEntity
  8
通り芯
  6
Continuous
 62
     3
370
     9
100
AcDbLine
 10
-994.0737490361659
 20
1061.082842193116
 30
0.0
 11
-980.5405145687865
 21
993.0470501406012
 31
0.0
  0
LINE
  5
8E
330
1F
100
AcDbEntity
  8
通り芯
  6
Continuous
 62
     3
370
     9
100
AcDbLine
 10
-1015.683124743135
 20
1056.043924622156
 30
0.0
 11
-997.728326814277
 21
989.0357348353405
 31
0.0
  0
LINE
  5
8F
330
1F
100
AcDbEntity
  8
通り芯
  6
Continuous
 62
     3
370
     9
100
AcDbLine
 10
-957.4685150005104
 20
1067.624021128399
 30
0.0
 11
-948.4143183739872
 21
998.8489896446276
 31
0.0
  0
LINE
  5
90
330
1F
100
AcDbEntity
  8
通り芯
  6
Continuous
 62
     3
370
     9
100
AcDbLine
 10
-979.3612988540491
 20
1064.009080853302
 30
0.0
 11
-965.828064386672
 21
995.970315988061
 31
0.0
  0
LINE
  5
91
330
1F
100
AcDbEntity
  8
通り芯
  6
Continuous
 62
     3
370
     9
100
AcDbLine
 10
-920.5144709383131
 20
1071.756230817859
 30
0.0
 11
-915.9769677805099
 21
1002.537259300306
 31
0.0
  0
LINE
  5
92
330
1F
100
AcDbEntity
  8
通り芯
  6
Continuous
 62
     3
370
     9
100
AcDbLine
 10
-942.5965238687542
 20
1069.581122839836
 30
0.0
 11
-933.5413363046547
 21
1000.803118543337
 31
0.0
  0
LINE
  5
93
330
1F
100
AcDbEntity
  8
通り芯
  6
Continuous
 62
     3
370
     9
100
AcDbLine
 10
-1318.580040606055
 20
631.7274276442209
 30
0.0
 11
-1236.416451540916
 21
606.8033657475031
 31
0.0
  0
LINE
  5
94
330
1F
100
AcDbEntity
  8
通り芯
  6
Continuous
 62
     3
370
     9
100
AcDbLine
 10
-1325.918924289543
 20
602.4382857278205
 30
0.0
 11
-1241.706076318456
 21
585.6864860155112
 31
0.0
  0
LINE
  5
95
330
1F
100
AcDbEntity
  8
通り芯
  6
Continuous
 62
     3
370
     9
100
AcDbLine
 10
-1314.227842774854
 20
646.082149361614
 30
0.0
 11
-1232.062271834564
 21
621.15709652732
 31
0.0
  0
LINE
  5
96
330
1F
100
AcDbEntity
  8
通り芯
  6
Continuous
 62
     3
370
     9
100
AcDbLine
 10
-1285.403450581321
 20
715.6657859069196
 30
0.0
 11
-1209.680955756347
 21
675.1909406392895
 31
0.0
  0
LINE
  5
97
330
1F
100
AcDbEntity
  8
通り芯
  6
Continuous
 62
     3
370
     9
100
AcDbLine
 10
-1298.315367188916
 20
688.3704103922457
 30
0.0
 11
-1218.988832402177
 21
655.5119113292176
 31
0.0
  0
LINE
  5
98
330
1F
100
AcDbEntity
  8
通り芯
  6
Continuous
 62
     3
370
     9
100
AcDbLine
 10
-1262.810073861968
 20
754.7939470095685
 30
0.0
 11
-1191.418967179111
 21
707.0921940044707
 31
0.0
  0
LINE
  5
99
330
1F
100
AcDbEntity
  8
通り芯
  6
Continuous
 62
     3
370
     9
100
AcDbLine
 10
-1278.335092855919
 20
728.895793476222
 30
0.0
 11
-1202.610616155796
 21
688.4199572710156
 31
0.0
  0
LINE
  5
9A
330
1F
100
AcDbEntity
  8
通り芯
  6
Continuous
 62
     3
370
     9
100
AcDbLine
 10
-1236.488789983921
 20
791.519084491847
 30
0.0
 11
-1170.117773058094
 21
737.0492278466975
 31
0.0
  0
LINE
  5
9B
330
1F
100
AcDbEntity
  8
通り芯
  6
Continuous
 62
     3
370
     9
100
AcDbLine
 10
-1254.478270727919
 20
767.2668782712572
 30
0.0
 11
-1183.085182169912
 21
719.5641343285843
 31
0.0
  0
LINE
  5
9C
330
1F
100
AcDbEntity
  8
通り芯
  6
Continuous
 62
     3
370
     9
100
AcDbLine
 10
-1206.695260841637
 20
825.4874336393345
 30
0.0
 11
-1145.982497471403
 21
764.7736793315244
 31
0.0
  0
LINE
  5
9D
330
1F
100
AcDbEntity
  8
通り芯
  6
Continuous
 62
     3
370
     9
100
AcDbLine
 10
-1226.974798322406
 20
803.1150359992978
 30
0.0
 11
-1160.601799521428
 21
748.644188416572
 31
0.0
  0
LINE
  5
9E
330
1F
100
AcDbEntity
  8
通り芯
  6
Continuous
 62
     3
370
     9
100
AcDbLine
 10
-1173.716858331984
 20
856.3719850521454
 30
0.0
 11
-1119.247001686834
 21
789.9999771887428
 31
0.0
  0
LINE
  5
9F
330
1F
100
AcDbEntity
  8
通り芯
  6
Continuous
 62
     3
370
     9
100
AcDbLine
 10
-1196.091237847173
 20
836.0954203841004
 30
0.0
 11
-1135.376492601786
 21
775.3806751387162
 31
0.0
  0
LINE
  5
A0
330
1F
100
AcDbEntity
  8
通り芯
  6
Continuous
 62
     3
370
     9
100
AcDbLine
 10
-1137.868700603943
 20
883.8744665200807
 30
0.0
 11
-1090.166947598846
 21
812.4833598372254
 31
0.0
  0
LINE
  5
A1
330
1F
100
AcDbEntity
  8
通り芯
  6
Continuous
 62
     3
370
     9
100
AcDbLine
 10
-1162.122888699685
 20
865.888949526385
 30
0.0
 11
-1107.652041116958
 21
799.5159507254073
 31
0.0
  0
LINE
  5
A2
330
1F
100
AcDbEntity
  8
通り芯
  6
Continuous
 62
     3
370
     9
100
AcDbLine
 10
-1099.497615808908
 20
907.7322795856571
 30
0.0
 11
-1059.022770541279
 21
832.0087938231086
 31
0.0
  0
LINE
  5
A3
330
1F
100
AcDbEntity
  8
通り芯
  6
Continuous
 62
     3
370
     9
100
AcDbLine
 10
-1125.397751217406
 20
892.2102334044314
 30
0.0
 11
-1077.695007274731
 21
820.8171448464259
 31
0.0
  0
LINE
  5
A4
330
1F
100
AcDbEntity
  8
通り芯
  6
Continuous
 62
     3
370
     9
100
AcDbLine
 10
-1058.973223662506
 20
927.7125539186534
 30
0.0
 11
-1026.114724599479
 21
848.387010069489
 31
0.0
  0
LINE
  5
A5
330
1F
100
AcDbEntity
  8
通り芯
  6
Continuous
 62
     3
370
     9
100
AcDbLine
 10
-1086.269590114758
 20
914.8046010613598
 30
0.0
 11
-1045.794744847126
 21
839.0801243612361
 31
0.0
  0
LINE
  5
A6
330
1F
100
AcDbEntity
  8
通り芯
  6
Continuous
 62
     3
370
     9
100
AcDbLine
 10
-1016.684962631876
 20
943.6260204421671
 30
0.0
 11
-991.7609007351581
 21
861.4614404394524
 31
0.0
  0
LINE
  5
A7
330
1F
100
AcDbEntity
  8
通り芯
  6
Continuous
 62
     3
370
     9
100
AcDbLine
 10
-1045.115952607969
 20
933.4550371681564
 30
0.0
 11
-1012.257453544942
 21
854.1275114438406
 31
0.0
  0
LINE
  5
A8
330
1F
100
AcDbEntity
  8
通り芯
  6
Continuous
 62
     3
370
     9
100
AcDbLine
 10
-973.0410989980834
 20
955.3171019568572
 30
0.0
 11
-956.2902902233469
 21
871.1052449233443
 31
0.0
  0
LINE
  5
A9
330
1F
100
AcDbEntity
  8
通り芯
  6
Continuous
 62
     3
370
     9
100
AcDbLine
 10
-1002.331231852059
 20
947.9821820236702
 30
0.0
 11
-977.4071699553411
 21
865.8156201458041
 31
0.0
  0
LINE
  5
AA
330
1F
100
AcDbEntity
  8
通り芯
  6
Continuous
 62
     3
370
     9
100
AcDbLine
 10
-928.4607993555261
 20
962.6738225167026
 30
0.0
 11
-920.0447665275675
 21
877.225275389078
 31
0.0
  0
LINE
  5
AB
330
1F
100
AcDbEntity
  8
通り芯
  6
Continuous
 62
     3
370
     9
100
AcDbLine
 10
-958.3296397535429
 20
958.2453224921937
 30
0.0
 11
-941.5788309788087
 21
874.0314835835306
 31
0.0
  0
LINE
  5
AC
330
1F
100
AcDbEntity
  8
通り芯
  6
Continuous
 62
     3
370
     9
100
AcDbLine
 10
-905.9139967022185
 20
1078.306328191322
 30
0.0
 11
-900.6332903628578
 21
997.7421123728948
 31
0.0
  0
LINE
  5
AD
330
1F
100
AcDbEntity
  8
通り芯
  6
Continuous
 62
     3
370
     9
100
AcDbLine
 10
-892.8712763346681
 20
1078.732431348749
 30
0.0
 11
-892.8712763346681
 21
997.9967833297758
 31
0.0
  0
LINE
  5
AE
330
1F
100
AcDbEntity
  8
通り芯
  6
Continuous
 62
     3
370
     9
100
AcDbLine
 10
-913.9633826272762
 20
968.544136713432
 30
0.0
 11
-904.7040619226419
 21
874.5328979966882
 31
0.0
  0
LINE
  5
AF
330
1F
100
AcDbEntity
  8
通り芯
  6
Continuous
 62
     3
370
     9
100
AcDbLine
 10
-892.8712763346681
 20
969.5796664797365
 30
0.0
 11
-892.8712763346681
 21
875.1125964783034
 31
0.0
  0
LINE
  5
B0
330
1F
100
AcDbEntity
  8
通り芯
  6
Continuous
 62
     3
370
     9
100
AcDbLine
 10
-1304.053886688117
 20
674.5121484001334
 30
0.0
 11
-1224.728342838951
 21
641.6536493371052
 31
0.0
  0
LINE
  5
B1
330
1F
100
AcDbEntity
  8
通り芯
  6
Continuous
 62
     3
370
     9
100
AcDbLine
 10
-1205.837108901331
 20
522.2714358771328
 30
0.0
 11
-1134.85525943712
 21
522.2714358771328
 31
0.0
  0
LINE
  5
B2
330
1F
100
AcDbEntity
  8
通り芯
  6
Continuous
 62
     3
370
     9
100
AcDbLine
 10
-1201.879304225143
 20
562.4708004987998
 30
0.0
 11
-1132.259993927121
 21
548.6224478824421
 31
0.0
  0
LINE
  5
B3
330
1F
100
AcDbEntity
  8
通り芯
  6
Continuous
 62
     3
370
     9
100
AcDbLine
 10
-1180.010302873414
 20
623.1310441775373
 30
0.0
 11
-1094.920475148088
 21
587.8853764953466
 31
0.0
  0
LINE
  5
B4
330
1F
100
AcDbEntity
  8
通り芯
  6
Continuous
 62
     3
370
     9
100
AcDbLine
 10
-1194.236202706004
 20
576.2448327970027
 30
0.0
 11
-1103.906297081908
 21
558.2761617420887
 31
0.0
  0
LINE
  5
B5
330
1F
100
AcDbEntity
  8
通り芯
  6
Continuous
 62
     3
370
     9
100
AcDbLine
 10
-1151.173028491401
 20
680.2011210205637
 30
0.0
 11
-1074.593372663699
 21
629.033068376681
 31
0.0
  0
LINE
  5
B6
330
1F
100
AcDbEntity
  8
通り芯
  6
Continuous
 62
     3
370
     9
100
AcDbLine
 10
-1174.27277431179
 20
636.9902971072248
 30
0.0
 11
-1089.183937524038
 21
601.7456203626092
 31
0.0
  0
LINE
  5
B7
330
1F
100
AcDbEntity
  8
通り芯
  6
Continuous
 62
     3
370
     9
100
AcDbLine
 10
-1111.755513616734
 20
730.5486773520067
 30
0.0
 11
-1046.631096160773
 21
665.4232689584705
 31
0.0
  0
LINE
  5
B8
330
1F
100
AcDbEntity
  8
通り芯
  6
Continuous
 62
     3
370
     9
100
AcDbLine
 10
-1142.842216294928
 20
692.6750432198276
 30
0.0
 11
-1066.2635514048
 21
641.5069905759447
 31
0.0
  0
LINE
  5
B9
330
1F
100
AcDbEntity
  8
通り芯
  6
Continuous
 62
     3
370
     9
100
AcDbLine
 10
-1063.273892739788
 20
772.2394030246653
 30
0.0
 11
-1012.10484915833
 21
695.6597471969633
 31
0.0
  0
LINE
  5
BA
330
1F
100
AcDbEntity
  8
通り芯
  6
Continuous
 62
     3
370
     9
100
AcDbLine
 10
-1101.151490622267
 20
741.1576550343477
 30
0.0
 11
-1036.027073166309
 21
676.0332375783878
 31
0.0
  0
LINE
  5
BB
330
1F
100
AcDbEntity
  8
通り芯
  6
Continuous
 62
     3
370
     9
100
AcDbLine
 10
-1007.59013756476
 20
803.6699610415269
 30
0.0
 11
-972.3444698825693
 21
718.5791423786259
 31
0.0
  0
LINE
  5
BC
330
1F
100
AcDbEntity
  8
通り芯
  6
Continuous
 62
     3
370
     9
100
AcDbLine
 10
-1050.803934290826
 20
780.575169909016
 30
0.0
 11
-999.6358816469416
 21
703.9965050188891
 31
0.0
  0
LINE
  5
BD
330
1F
100
AcDbEntity
  8
通り芯
  6
Continuous
 62
     3
370
     9
100
AcDbLine
 10
-946.8446732545368
 20
823.6333894357415
 30
0.0
 11
-928.8760021996251
 21
733.3015019364962
 31
0.0
  0
LINE
  5
BE
330
1F
100
AcDbEntity
  8
通り芯
  6
Continuous
 62
     3
370
     9
100
AcDbLine
 10
-993.7328665102228
 20
809.4134352286051
 30
0.0
 11
-958.4881897656084
 21
724.3236075032792
 31
0.0
  0
LINE
  5
BF
330
1F
100
AcDbEntity
  8
通り芯
  6
Continuous
 62
     3
370
     9
100
AcDbLine
 10
-892.8712763346681
 20
835.2372684437955
 30
0.0
 11
-892.8712763346681
 21
764.25442804201
 31
0.0
  0
LINE
  5
C0
330
1F
100
AcDbEntity
  8
通り芯
  6
Continuous
 62
     3
370
     9
100
AcDbLine
 10
-933.0716318939113
 20
831.2794637676075
 30
0.0
 11
-919.2232792775536
 21
761.660153469586
 31
0.0
  0
ARC
  5
C1
330
1F
100
AcDbEntity
  8
通り芯
  6
Continuous
 62
     3
370
     9
100
AcDbCircle
 10
-875.8707512909297
 20
505.2709108333955
 30
0.0
 40
600.0000055232103
100
AcDbArc
 50
90.19097900390625
 51
179.8089904785156
  0
ARC
  5
C2
330
1F
100
AcDbEntity
  8
通り芯
  6
Continuous
 62
     3
370
     9
100
AcDbCircle
 10
-900.871115380956
 20
730.2613054551375
 30
0.0
 40
5.999999764918361
100
AcDbArc
 50
270.0
 51
90.0
  0
ARC
  5
C3
330
1F
100
AcDbEntity
  8
通り芯
  6
Continuous
 62
     3
370
     9
100
AcDbCircle
 10
-910.8716573919952
 20
730.2613054551375
 30
0.0
 40
5.999999764918361
100
AcDbArc
 50
90.0
 51
270.0
  0
ARC
  5
C4
330
1F
100
AcDbEntity
  8
通り芯
  6
Continuous
 62
     3
370
     9
100
AcDbCircle
 10
-900.871115380956
 20
730.2613054551375
 30
0.0
 40
10.0000000920535
100
AcDbArc
 50
270.0
 51
90.0
  0
ARC
  5
C5
330
1F
100
AcDbEntity
  8
通り芯
  6
Continuous
 62
     3
370
     9
100
AcDbCircle
 10
-910.8716573919952
 20
730.2613054551375
 30
0.0
 40
10.0000000920535
100
AcDbArc
 50
90.0
 51
270.0
  0
ARC
  5
C6
330
1F
100
AcDbEntity
  8
通り芯
  6
Continuous
 62
     3
370
     9
100
AcDbCircle
 10
-1100.861145912673
 20
530.2702839858445
 30
0.0
 40
5.999999764918361
100
AcDbArc
 50
180.0
 51
0.0
  0
ARC
  5
C7
330
1F
100
AcDbEntity
  8
通り芯
  6
Continuous
 62
     3
370
     9
100
AcDbCircle
 10
-1100.861145912673
 20
540.2708259968848
 30
0.0
 40
5.999999764918361
100
AcDbArc
 50
0.0
 51
180.0
  0
ARC
  5
C8
330
1F
100
AcDbEntity
  8
通り芯
  6
Continuous
 62
     3
370
     9
100
AcDbCircle
 10
-1100.861145912673
 20
530.2702839858445
 30
0.0
 40
10.0000000920535
100
AcDbArc
 50
180.0
 51
0.0
  0
ARC
  5
C9
330
1F
100
AcDbEntity
  8
通り芯
  6
Continuous
 62
     3
370
     9
100
AcDbCircle
 10
-1100.861145912673
 20
540.2708259968848
 30
0.0
 40
10.0000000920535
100
AcDbArc
 50
0.0
 51
180.0
  0
ARC
  5
CA
330
1F
100
AcDbEntity
  8
通り芯
  6
Continuous
 62
     3
370
     9
100
AcDbCircle
 10
-875.8707512909297
 20
505.2709108333955
 30
0.0
 40
200.0000018410701
100
AcDbArc
 50
90.57295227050781
 51
179.4269714355469
  0
ARC
  5
CB
330
1F
100
AcDbEntity
  8
通り芯
  6
Continuous
 62
     3
370
     9
100
AcDbCircle
 10
-1330.793346222986
 20
572.7517778436812
 30
0.0
 40
15.10000064221128
100
AcDbArc
 50
82.57929992675783
 51
260.5379028320312
  0
ARC
  5
CC
330
1F
100
AcDbEntity
  8
通り芯
  6
Continuous
 62
     3
370
     9
100
AcDbCircle
 10
-1247.801333344803
 20
560.4413603443596
 30
0.0
 40
11.00000029480135
100
AcDbArc
 50
269.8728942871094
 51
73.2518768310547
  0
ARC
  5
CD
330
1F
100
AcDbEntity
  8
通り芯
  6
Continuous
 62
     3
370
     9
100
AcDbCircle
 10
-1442.01221593673
 20
561.0309682017283
 30
0.0
 40
11.12000051267359
100
AcDbArc
 50
84.47782897949219
 51
264.2626647949219
  0
ARC
  5
CE
330
1F
100
AcDbEntity
  8
通り芯
  6
Continuous
 62
     3
370
     9
100
AcDbCircle
 10
-1372.293811881166
 20
554.1647617417119
 30
0.0
 40
8.825000700573204
100
AcDbArc
 50
267.9319458007812
 51
80.78517150878906
  0
ARC
  5
CF
330
1F
100
AcDbEntity
  8
通り芯
  6
Continuous
 62
     3
370
     9
100
AcDbCircle
 10
-1448.859594582814
 20
528.7838776227296
 30
0.0
 40
6.53000040461658
100
AcDbArc
 50
90.41517639160156
 51
265.8419036865234
  0
ARC
  5
D0
330
1F
100
AcDbEntity
  8
通り芯
  6
Continuous
 62
     3
370
     9
100
AcDbCircle
 10
-1369.42802041308
 20
526.1836574248526
 30
0.0
 40
4.000000085207026
100
AcDbArc
 50
281.9999542236328
 51
74.24433898925784
  0
ARC
  5
D1
330
1F
100
AcDbEntity
  8
通り芯
  6
Continuous
 62
     3
370
     9
100
AcDbCircle
 10
-1339.494769072663
 20
532.8090660540455
 30
0.0
 40
10.56000078621978
100
AcDbArc
 50
88.09803771972658
 51
266.2801666259766
  0
ARC
  5
D2
330
1F
100
AcDbEntity
  8
通り芯
  6
Continuous
 62
     3
370
     9
100
AcDbCircle
 10
-1246.12466696721
 20
528.2220160174712
 30
0.0
 40
5.965000023943117
100
AcDbArc
 50
273.967529296875
 51
80.42950439453122
  0
ARC
  5
D3
330
1F
100
AcDbEntity
  8
通り芯
  6
Continuous
 62
     3
370
     9
100
AcDbCircle
 10
-1437.152658066917
 20
597.9394291354585
 30
0.0
 40
11.12000051267359
100
AcDbArc
 50
80.72782897949217
 51
260.5126647949219
  0
ARC
  5
D4
330
1F
100
AcDbEntity
  8
通り芯
  6
Continuous
 62
     3
370
     9
100
AcDbCircle
 10
-1368.033771244478
 20
586.5277920170344
 30
0.0
 40
8.825000700573204
100
AcDbArc
 50
264.1819458007812
 51
77.03517150878903
  0
ARC
  5
D5
330
1F
100
AcDbEntity
  8
通り芯
  6
Continuous
 62
     3
370
     9
100
AcDbCircle
 10
-1429.890076576735
 20
634.4505241014487
 30
0.0
 40
11.12000051267359
100
AcDbArc
 50
76.9778289794922
 51
256.7626647949219
  0
ARC
  5
D6
330
1F
100
AcDbEntity
  8
通り芯
  6
Continuous
 62
     3
370
     9
100
AcDbCircle
 10
-1361.665015447316
 20
618.5430032033879
 30
0.0
 40
8.825000700573204
100
AcDbArc
 50
260.4319458007812
 51
73.28517150878906
  0
ARC
  5
D7
330
1F
100
AcDbEntity
  8
通り芯
  6
Continuous
 62
     3
370
     9
100
AcDbCircle
 10
-1420.255190531021
 20
670.4086759003599
 30
0.0
 40
11.12000051267359
100
AcDbArc
 50
73.22782897949219
 51
253.0126647949219
  0
ARC
  5
D8
330
1F
100
AcDbEntity
  8
通り芯
  6
Continuous
 62
     3
370
     9
100
AcDbCircle
 10
-1353.216281679368
 20
650.0726549777903
 30
0.0
 40
8.825000700573204
100
AcDbArc
 50
256.6819458007812
 51
69.53517150878905
  0
ARC
  5
D9
330
1F
100
AcDbEntity
  8
通り芯
  6
Continuous
 62
     3
370
     9
100
AcDbCircle
 10
-1408.288628370367
 20
705.6592982704274
 30
0.0
 40
11.12000051267359
100
AcDbArc
 50
69.47782897949222
 51
249.2626647949219
  0
ARC
  5
DA
330
1F
100
AcDbEntity
  8
通り芯
  6
Continuous
 62
     3
370
     9
100
AcDbCircle
 10
-1342.724234630926
 20
680.9829707675624
 30
0.0
 40
8.825000700573204
100
AcDbArc
 50
252.9319458007812
 51
65.78517150878908
  0
ARC
  5
DB
330
1F
100
AcDbEntity
  8
通り芯
  6
Continuous
 62
     3
370
     9
100
AcDbCircle
 10
-1394.04290978627
 20
740.05176870019
 30
0.0
 40
11.12000051267359
100
AcDbArc
 50
65.72782897949219
 51
245.5126647949219
  0
ARC
  5
DC
330
1F
100
AcDbEntity
  8
通り芯
  6
Continuous
 62
     3
370
     9
100
AcDbCircle
 10
-1330.232475555304
 20
711.1401740000213
 30
0.0
 40
8.825000700573204
100
AcDbArc
 50
249.1819458007812
 51
62.03517150878906
  0
ARC
  5
DD
330
1F
100
AcDbEntity
  8
通り芯
  6
Continuous
 62
     3
370
     9
100
AcDbCircle
 10
-1377.577491033253
 20
773.4394284284872
 30
0.0
 40
11.12000051267359
100
AcDbArc
 50
61.97782897949222
 51
241.762664794922
  0
ARC
  5
DE
330
1F
100
AcDbEntity
  8
通り芯
  6
Continuous
 62
     3
370
     9
100
AcDbCircle
 10
-1315.794515081578
 20
740.4164337279417
 30
0.0
 40
8.825000700573204
100
AcDbArc
 50
245.4319458007812
 51
58.28517150878908
  0
ARC
  5
DF
330
1F
100
AcDbEntity
  8
通り芯
  6
Continuous
 62
     3
370
     9
100
AcDbCircle
 10
-1358.964710554324
 20
805.6785915068838
 30
0.0
 40
11.12000051267359
100
AcDbArc
 50
58.22782897949219
 51
238.0126647949219
  0
ARC
  5
E0
330
1F
100
AcDbEntity
  8
通り芯
  6
Continuous
 62
     3
370
     9
100
AcDbCircle
 10
-1299.47377321457
 20
768.684909941669
 30
0.0
 40
8.825000700573204
100
AcDbArc
 50
241.6819458007812
 51
54.53517150878906
  0
ARC
  5
E1
330
1F
100
AcDbEntity
  8
通り芯
  6
Continuous
 62
     3
370
     9
100
AcDbCircle
 10
-1338.281861480362
 20
836.6315176123976
 30
0.0
 40
11.12000051267359
100
AcDbArc
 50
54.47782897949217
 51
234.2626647949219
  0
ARC
  5
E2
330
1F
100
AcDbEntity
  8
通り芯
  6
Continuous
 62
     3
370
     9
100
AcDbCircle
 10
-1281.338624646988
 20
795.8266901321554
 30
0.0
 40
8.825000700573204
100
AcDbArc
 50
237.9319458007812
 51
50.78517150878904
  0
ARC
  5
E3
330
1F
100
AcDbEntity
  8
通り芯
  6
Continuous
 62
     3
370
     9
100
AcDbCircle
 10
-1315.620110068303
 20
866.1654211099244
 30
0.0
 40
11.12000051267359
100
AcDbArc
 50
50.72782897949221
 51
230.5126647949219
  0
ARC
  5
E4
330
1F
100
AcDbEntity
  8
通り芯
  6
Continuous
 62
     3
370
     9
100
AcDbCircle
 10
-1261.467353447286
 20
821.7228617903504
 30
0.0
 40
8.825000700573204
100
AcDbArc
 50
234.1819458007812
 51
47.03517150878907
  0
ARC
  5
E5
330
1F
100
AcDbEntity
  8
通り芯
  6
Continuous
 62
     3
370
     9
100
AcDbCircle
 10
-1291.075577262969
 20
894.1534619898107
 30
0.0
 40
11.12000051267359
100
AcDbArc
 50
46.97782897949224
 51
226.762664794922
  0
ARC
  5
E6
330
1F
100
AcDbEntity
  8
通り芯
  6
Continuous
 62
     3
370
     9
100
AcDbCircle
 10
-1239.944189309377
 20
846.265412720536
 30
0.0
 40
8.825000700573204
100
AcDbArc
 50
230.4319458007813
 51
43.28517150878911
  0
ARC
  5
E7
330
1F
100
AcDbEntity
  8
通り芯
  6
Continuous
 62
     3
370
     9
100
AcDbCircle
 10
-1264.752311509772
 20
920.4767277430085
 30
0.0
 40
11.12000051267359
100
AcDbArc
 50
43.22782897949222
 51
223.0126647949219
  0
ARC
  5
E8
330
1F
100
AcDbEntity
  8
通り芯
  6
Continuous
 62
     3
370
     9
100
AcDbCircle
 10
-1216.863271302921
 20
869.3463307269917
 30
0.0
 40
8.825000700573204
100
AcDbArc
 50
226.6819458007812
 51
39.53517150878908
  0
ARC
  5
E9
330
1F
100
AcDbEntity
  8
通り芯
  6
Continuous
 62
     3
370
     9
100
AcDbCircle
 10
-1236.763279692309
 20
945.0222514859195
 30
0.0
 40
11.12000051267359
100
AcDbArc
 50
39.47782897949224
 51
219.262664794922
  0
ARC
  5
EA
330
1F
100
AcDbEntity
  8
通り芯
  6
Continuous
 62
     3
370
     9
100
AcDbCircle
 10
-1192.320720372737
 20
890.869494864902
 30
0.0
 40
8.825000700573204
100
AcDbArc
 50
222.9319458007813
 51
35.78517150878911
  0
ARC
  5
EB
330
1F
100
AcDbEntity
  8
通り芯
  6
Continuous
 62
     3
370
     9
100
AcDbCircle
 10
-1207.229376194783
 20
967.6840028979768
 30
0.0
 40
11.12000051267359
100
AcDbArc
 50
35.72782897949217
 51
215.5126647949219
  0
ARC
  5
EC
330
1F
100
AcDbEntity
  8
通り芯
  6
Continuous
 62
     3
370
     9
100
AcDbCircle
 10
-1166.423557776964
 20
910.7407660646027
 30
0.0
 40
8.825000700573204
100
AcDbArc
 50
219.1819458007812
 51
32.03517150878904
  0
ARC
  5
ED
330
1F
100
AcDbEntity
  8
通り芯
  6
Continuous
 62
     3
370
     9
100
AcDbCircle
 10
-1176.276450089268
 20
988.366851971939
 30
0.0
 40
11.12000051267359
100
AcDbArc
 50
31.9778289794922
 51
211.7626647949219
  0
ARC
  5
EE
330
1F
100
AcDbEntity
  8
通り芯
  6
Continuous
 62
     3
370
     9
100
AcDbCircle
 10
-1139.282768524054
 20
928.8759146321854
 30
0.0
 40
8.825000700573204
100
AcDbArc
 50
215.4319458007812
 51
28.28517150878907
  0
ARC
  5
EF
330
1F
100
AcDbEntity
  8
通り芯
  6
Continuous
 62
     3
370
     9
100
AcDbCircle
 10
-1144.037287010872
 20
1006.979632450868
 30
0.0
 40
11.12000051267359
100
AcDbArc
 50
28.22782897949218
 51
208.0126647949219
  0
ARC
  5
F0
330
1F
100
AcDbEntity
  8
通り芯
  6
Continuous
 62
     3
370
     9
100
AcDbCircle
 10
-1111.014292310327
 20
945.1966564991915
 30
0.0
 40
8.825000700573204
100
AcDbArc
 50
211.6819458007812
 51
24.53517150878905
  0
ARC
  5
F1
330
1F
100
AcDbEntity
  8
通り芯
  6
Continuous
 62
     3
370
     9
100
AcDbCircle
 10
-1110.649627282576
 20
1023.445051203885
 30
0.0
 40
11.12000051267359
100
AcDbArc
 50
24.47782897949221
 51
204.2626647949219
  0
ARC
  5
F2
330
1F
100
AcDbEntity
  8
通り芯
  6
Continuous
 62
     3
370
     9
100
AcDbCircle
 10
-1081.738032582405
 20
959.634616972919
 30
0.0
 40
8.825000700573204
100
AcDbArc
 50
207.9319458007812
 51
20.78517150878908
  0
ARC
  5
F3
330
1F
100
AcDbEntity
  8
通り芯
  6
Continuous
 62
     3
370
     9
100
AcDbCircle
 10
-1076.257156852812
 20
1037.690769787982
 30
0.0
 40
11.12000051267359
100
AcDbArc
 50
20.72782897949219
 51
200.5126647949219
  0
ARC
  5
F4
330
1F
100
AcDbEntity
  8
通り芯
  6
Continuous
 62
     3
370
     9
100
AcDbCircle
 10
-1051.579838412372
 20
972.1263760485408
 30
0.0
 40
8.825000700573204
100
AcDbArc
 50
204.1819458007812
 51
17.03517150878906
  0
ARC
  5
F5
330
1F
100
AcDbEntity
  8
通り芯
  6
Continuous
 62
     3
370
     9
100
AcDbCircle
 10
-1041.006534482745
 20
1049.657331948638
 30
0.0
 40
11.12000051267359
100
AcDbArc
 50
16.97782897949222
 51
196.7626647949219
  0
ARC
  5
F6
330
1F
100
AcDbEntity
  8
通り芯
  6
Continuous
 62
     3
370
     9
100
AcDbCircle
 10
-1020.670513560174
 20
982.6184230969841
 30
0.0
 40
8.825000700573204
100
AcDbArc
 50
200.4319458007812
 51
13.28517150878909
  0
ARC
  5
F7
330
1F
100
AcDbEntity
  8
通り芯
  6
Continuous
 62
     3
370
     9
100
AcDbCircle
 10
-1005.048382683834
 20
1059.29221799435
 30
0.0
 40
11.12000051267359
100
AcDbArc
 50
13.2278289794922
 51
193.0126647949219
  0
ARC
  5
F8
330
1F
100
AcDbEntity
  8
通り芯
  6
Continuous
 62
     3
370
     9
100
AcDbCircle
 10
-989.1408617857729
 20
991.067156864932
 30
0.0
 40
8.825000700573204
100
AcDbArc
 50
196.6819458007813
 51
9.535171508789064
  0
ARC
  5
F9
330
1F
100
AcDbEntity
  8
通り芯
  6
Continuous
 62
     3
370
     9
100
AcDbCircle
 10
-968.5372877178435
 20
1066.554799484531
 30
0.0
 40
11.12000051267359
100
AcDbArc
 50
9.477828979492228
 51
189.2626647949219
  0
ARC
  5
FA
330
1F
100
AcDbEntity
  8
通り芯
  6
Continuous
 62
     3
370
     9
100
AcDbCircle
 10
-957.1256505994194
 20
997.4359126620936
 30
0.0
 40
8.825000700573204
100
AcDbArc
 50
192.9319458007813
 51
5.785171508789094
  0
ARC
  5
FB
330
1F
100
AcDbEntity
  8
通り芯
  6
Continuous
 62
     3
370
     9
100
AcDbCircle
 10
-931.6288267841134
 20
1071.413366416768
 30
0.0
 40
11.12000051267359
100
AcDbArc
 50
5.727828979492206
 51
185.5126647949219
  0
ARC
  5
FC
330
1F
100
AcDbEntity
  8
通り芯
  6
Continuous
 62
     3
370
     9
100
AcDbCircle
 10
-924.7616293865218
 20
1001.695953298781
 30
0.0
 40
8.825000700573204
100
AcDbArc
 50
189.1819458007812
 51
2.035171508789073
  0
ARC
  5
FD
330
1F
100
AcDbEntity
  8
通り芯
  6
Continuous
 62
     3
370
     9
100
AcDbCircle
 10
-1321.988865865465
 20
617.0169593372567
 30
0.0
 40
15.10000064221128
100
AcDbArc
 50
76.95429992675784
 51
254.9129028320313
  0
ARC
  5
FE
330
1F
100
AcDbEntity
  8
通り芯
  6
Continuous
 62
     3
370
     9
100
AcDbCircle
 10
-1240.603162797025
 20
596.6313915359173
 30
0.0
 40
11.00000029480135
100
AcDbArc
 50
264.2478942871094
 51
67.62687683105472
  0
ARC
  5
FF
330
1F
100
AcDbEntity
  8
通り芯
  6
Continuous
 62
     3
370
     9
100
AcDbCircle
 10
-1308.887680180967
 20
660.205982623936
 30
0.0
 40
15.10000064221128
100
AcDbArc
 50
71.32929992675781
 51
249.2879028320312
  0
ARC
  5
100
330
1F
100
AcDbEntity
  8
通り芯
  6
Continuous
 62
     3
370
     9
100
AcDbCircle
 10
-1229.892118544415
 20
631.9414701605093
 30
0.0
 40
11.00000029480135
100
AcDbArc
 50
258.6228942871094
 51
62.00187683105469
  0
ARC
  5
101
330
1F
100
AcDbEntity
  8
通り芯
  6
Continuous
 62
     3
370
     9
100
AcDbCircle
 10
-1291.616629179141
 20
701.9036448596228
 30
0.0
 40
15.10000064221128
100
AcDbArc
 50
65.70429992675783
 51
243.6629028320312
  0
ARC
  5
102
330
1F
100
AcDbEntity
  8
通り芯
  6
Continuous
 62
     3
370
     9
100
AcDbCircle
 10
-1215.772249032394
 20
666.0317046297723
 30
0.0
 40
11.00000029480135
100
AcDbArc
 50
252.9978942871094
 51
56.37687683105471
  0
ARC
  5
103
330
1F
100
AcDbEntity
  8
通り芯
  6
Continuous
 62
     3
370
     9
100
AcDbCircle
 10
-1270.341199435084
 20
741.706634451125
 30
0.0
 40
15.10000064221128
100
AcDbArc
 50
60.07929992675786
 51
238.0379028320313
  0
ARC
  5
104
330
1F
100
AcDbEntity
  8
通り芯
  6
Continuous
 62
     3
370
     9
100
AcDbCircle
 10
-1198.378321771218
 20
698.5731036686684
 30
0.0
 40
11.00000029480135
100
AcDbArc
 50
247.3728942871094
 51
50.75187683105473
  0
ARC
  5
105
330
1F
100
AcDbEntity
  8
通り芯
  6
Continuous
 62
     3
370
     9
100
AcDbCircle
 10
-1245.26750596448
 20
779.2334404319115
 30
0.0
 40
15.10000064221128
100
AcDbArc
 50
54.45429992675787
 51
232.4129028320313
  0
ARC
  5
106
330
1F
100
AcDbEntity
  8
通り芯
  6
Continuous
 62
     3
370
     9
100
AcDbCircle
 10
-1177.878796148707
 20
729.2535219409456
 30
0.0
 40
11.00000029480135
100
AcDbArc
 50
241.7478942871094
 51
45.12687683105474
  0
ARC
  5
107
330
1F
100
AcDbEntity
  8
通り芯
  6
Continuous
 62
     3
370
     9
100
AcDbCircle
 10
-1216.636346598153
 20
814.1203887118036
 30
0.0
 40
15.10000064221128
100
AcDbArc
 50
48.82929992675784
 51
226.7879028320312
  0
ARC
  5
108
330
1F
100
AcDbEntity
  8
通り芯
  6
Continuous
 62
     3
370
     9
100
AcDbCircle
 10
-1154.470868742367
 20
757.7766691115528
 30
0.0
 40
11.00000029480135
100
AcDbArc
 50
236.1228942871094
 51
39.50187683105472
  0
ARC
  5
109
330
1F
100
AcDbEntity
  8
通り芯
  6
Continuous
 62
     3
370
     9
100
AcDbCircle
 10
-1184.723201982065
 20
846.034524265466
 30
0.0
 40
15.10000064221128
100
AcDbArc
 50
43.20429992675781
 51
221.1629028320312
  0
ARC
  5
10A
330
1F
100
AcDbEntity
  8
通り芯
  6
Continuous
 62
     3
370
     9
100
AcDbCircle
 10
-1128.379482381816
 20
783.8690464096805
 30
0.0
 40
11.00000029480135
100
AcDbArc
 50
230.4978942871094
 51
33.87687683105468
  0
ARC
  5
10B
330
1F
100
AcDbEntity
  8
通り芯
  6
Continuous
 62
     3
370
     9
100
AcDbCircle
 10
-1149.835262764598
 20
874.6656836317936
 30
0.0
 40
15.10000064221128
100
AcDbArc
 50
37.57929992675788
 51
215.5379028320313
  0
ARC
  5
10C
330
1F
100
AcDbEntity
  8
通り芯
  6
Continuous
 62
     3
370
     9
100
AcDbCircle
 10
-1099.856335211207
 20
807.2769738160207
 30
0.0
 40
11.00000029480135
100
AcDbArc
 50
224.8728942871094
 51
28.25187683105475
  0
ARC
  5
10D
330
1F
100
AcDbEntity
  8
通り芯
  6
Continuous
 62
     3
370
     9
100
AcDbCircle
 10
-1112.309447721387
 20
899.7403680399736
 30
0.0
 40
15.10000064221128
100
AcDbArc
 50
31.95429992675784
 51
209.9129028320313
  0
ARC
  5
10E
330
1F
100
AcDbEntity
  8
通り芯
  6
Continuous
 62
     3
370
     9
100
AcDbCircle
 10
-1069.17591693893
 20
827.7764994385325
 30
0.0
 40
11.00000029480135
100
AcDbArc
 50
219.2478942871094
 51
22.62687683105472
  0
ARC
  5
10F
330
1F
100
AcDbEntity
  8
通り芯
  6
Continuous
 62
     3
370
     9
100
AcDbCircle
 10
-1072.506458129883
 20
921.0157977840311
 30
0.0
 40
15.10000064221128
100
AcDbArc
 50
26.32929992675781
 51
204.2879028320312
  0
ARC
  5
110
330
1F
100
AcDbEntity
  8
通り芯
  6
Continuous
 62
     3
370
     9
100
AcDbCircle
 10
-1036.634517900034
 20
845.1704266997081
 30
0.0
 40
11.00000029480135
100
AcDbArc
 50
213.6228942871094
 51
17.00187683105469
  0
ARC
  5
111
330
1F
100
AcDbEntity
  8
通り芯
  6
Continuous
 62
     3
370
     9
100
AcDbCircle
 10
-1030.809786831772
 20
938.2868487858559
 30
0.0
 40
15.10000064221128
100
AcDbArc
 50
20.70429992675783
 51
198.6629028320312
  0
ARC
  5
112
330
1F
100
AcDbEntity
  8
通り芯
  6
Continuous
 62
     3
370
     9
100
AcDbCircle
 10
-1002.544283430771
 20
859.2912871493036
 30
0.0
 40
11.00000029480135
100
AcDbArc
 50
207.9978942871094
 51
11.37687683105471
  0
ARC
  5
113
330
1F
100
AcDbEntity
  8
通り芯
  6
Continuous
 62
     3
370
     9
100
AcDbCircle
 10
-987.6207635450925
 20
951.3880344703546
 30
0.0
 40
15.10000064221128
100
AcDbArc
 50
15.07929992675785
 51
193.0379028320313
  0
ARC
  5
114
330
1F
100
AcDbEntity
  8
通り芯
  6
Continuous
 62
     3
370
     9
100
AcDbCircle
 10
-967.2351957437542
 20
870.0023314019131
 30
0.0
 40
11.00000029480135
100
AcDbArc
 50
202.3728942871094
 51
5.751876831054727
  0
ARC
  5
115
330
1F
100
AcDbEntity
  8
通り芯
  6
Continuous
 62
     3
370
     9
100
AcDbCircle
 10
-943.3555820515181
 20
960.1935057654509
 30
0.0
 40
15.10000064221128
100
AcDbArc
 50
9.454299926757821
 51
187.4129028320312
  0
ARC
  5
116
330
1F
100
AcDbEntity
  8
通り芯
  6
Continuous
 62
     3
370
     9
100
AcDbCircle
 10
-931.0451645521977
 20
877.2014928872682
 30
0.0
 40
11.00000029480135
100
AcDbArc
 50
196.7478942871094
 51
0.1268768310546953
  0
ARC
  5
117
330
1F
100
AcDbEntity
  8
通り芯
  6
Continuous
 62
     3
370
     9
100
AcDbCircle
 10
-899.3837180802649
 20
1078.258763187703
 30
0.0
 40
6.53000040461658
100
AcDbArc
 50
4.158096313476562
 51
179.5848236083984
  0
ARC
  5
118
330
1F
100
AcDbEntity
  8
通り芯
  6
Continuous
 62
     3
370
     9
100
AcDbCircle
 10
-896.783497882389
 20
998.8281799555443
 30
0.0
 40
4.000000085207026
100
AcDbArc
 50
195.7556610107422
 51
348.0000457763672
  0
ARC
  5
119
330
1F
100
AcDbEntity
  8
通り芯
  6
Continuous
 62
     3
370
     9
100
AcDbCircle
 10
-903.4089065115819
 20
968.8939376775522
 30
0.0
 40
10.56000078621978
100
AcDbArc
 50
3.719833374023446
 51
181.9019622802734
  0
ARC
  5
11A
330
1F
100
AcDbEntity
  8
通り芯
  6
Continuous
 62
     3
370
     9
100
AcDbCircle
 10
-898.8218564750065
 20
875.5248265096736
 30
0.0
 40
5.965000023943117
100
AcDbArc
 50
189.5704956054688
 51
356.032470703125
  0
ARC
  5
11B
330
1F
100
AcDbEntity
  8
通り芯
  6
Continuous
 62
     3
370
     9
100
AcDbCircle
 10
-1203.583716854849
 20
542.343867404643
 30
0.0
 40
20.19899864224394
100
AcDbArc
 50
85.15921020507812
 51
263.5951232910156
  0
ARC
  5
11C
330
1F
100
AcDbEntity
  8
通り芯
  6
Continuous
 62
     3
370
     9
100
AcDbCircle
 10
-1138.086706870534
 20
535.8928637887221
 30
0.0
 40
13.99999993533241
100
AcDbArc
 50
283.3457489013672
 51
65.40609741210938
  0
ARC
  5
11D
330
1F
100
AcDbEntity
  8
通り芯
  6
Continuous
 62
     3
370
     9
100
AcDbCircle
 10
-1187.355132182354
 20
599.7587905239119
 30
0.0
 40
24.50000061261608
100
AcDbArc
 50
72.55450439453125
 51
253.6880340576172
  0
ARC
  5
11E
330
1F
100
AcDbEntity
  8
通り芯
  6
Continuous
 62
     3
370
     9
100
AcDbCircle
 10
-1101.326886573116
 20
573.6614585379074
 30
0.0
 40
15.60000025972897
100
AcDbArc
 50
260.4817352294922
 51
65.75416564941406
  0
ARC
  5
11F
330
1F
100
AcDbEntity
  8
通り芯
  6
Continuous
 62
     3
370
     9
100
AcDbCircle
 10
-1162.936448449096
 20
658.7106578226417
 30
0.0
 40
24.50000061261608
100
AcDbArc
 50
61.30450439453124
 51
242.4380340576171
  0
ARC
  5
120
330
1F
100
AcDbEntity
  8
通り芯
  6
Continuous
 62
     3
370
     9
100
AcDbCircle
 10
-1083.651533040523
 20
616.3322214726476
 30
0.0
 40
15.60000025972897
100
AcDbArc
 50
249.2317352294922
 51
54.50416564941405
  0
ARC
  5
121
330
1F
100
AcDbEntity
  8
通り芯
  6
Continuous
 62
     3
370
     9
100
AcDbCircle
 10
-1127.48664762637
 20
711.7654556101058
 30
0.0
 40
24.50000061261608
100
AcDbArc
 50
50.05450439453127
 51
231.1880340576172
  0
ARC
  5
122
330
1F
100
AcDbEntity
  8
通り芯
  6
Continuous
 62
     3
370
     9
100
AcDbCircle
 10
-1057.992195462851
 20
654.7340253325206
 30
0.0
 40
15.60000025972897
100
AcDbArc
 50
237.9817352294922
 51
43.25416564941409
  0
ARC
  5
123
330
1F
100
AcDbEntity
  8
通り芯
  6
Continuous
 62
     3
370
     9
100
AcDbCircle
 10
-1082.366287005216
 20
756.8858162312597
 30
0.0
 40
24.50000061261608
100
AcDbArc
 50
38.80450439453126
 51
219.9380340576172
  0
ARC
  5
124
330
1F
100
AcDbEntity
  8
通り芯
  6
Continuous
 62
     3
370
     9
100
AcDbCircle
 10
-1025.333865790056
 20
687.3923550053155
 30
0.0
 40
15.60000025972897
100
AcDbArc
 50
226.7317352294922
 51
32.00416564941408
  0
ARC
  5
125
330
1F
100
AcDbEntity
  8
通り芯
  6
Continuous
 62
     3
370
     9
100
AcDbCircle
 10
-1029.311489217753
 20
792.3366079915604
 30
0.0
 40
24.50000061261608
100
AcDbArc
 50
27.5545043945313
 51
208.6880340576172
  0
ARC
  5
126
330
1F
100
AcDbEntity
  8
通り芯
  6
Continuous
 62
     3
370
     9
100
AcDbCircle
 10
-986.932061930184
 20
713.0516925829875
 30
0.0
 40
15.60000025972897
100
AcDbArc
 50
215.4817352294922
 51
20.75416564941412
  0
ARC
  5
127
330
1F
100
AcDbEntity
  8
通り芯
  6
Continuous
 62
     3
370
     9
100
AcDbCircle
 10
-970.358630981446
 20
816.755291724819
 30
0.0
 40
24.50000061261608
100
AcDbArc
 50
16.30450439453123
 51
197.4380340576171
  0
ARC
  5
128
330
1F
100
AcDbEntity
  8
通り芯
  6
Continuous
 62
     3
370
     9
100
AcDbCircle
 10
-944.2622899330178
 20
730.7260551780053
 30
0.0
 40
15.60000025972897
100
AcDbArc
 50
204.2317352294922
 51
9.504165649414052
  0
ARC
  5
129
330
1F
100
AcDbEntity
  8
通り芯
  6
Continuous
 62
     3
370
     9
100
AcDbCircle
 10
-912.9446987997545
 20
832.9838763973123
 30
0.0
 40
20.19899864224394
100
AcDbArc
 50
6.404876708984379
 51
184.8407897949219
  0
ARC
  5
12A
330
1F
100
AcDbEntity
  8
通り芯
  6
Continuous
 62
     3
370
     9
100
AcDbCircle
 10
-906.4936951838337
 20
767.4868664129986
 30
0.0
 40
13.99999993533241
100
AcDbArc
 50
204.5939025878906
 51
346.6542510986328
  0
ARC
  5
12B
330
1F
100
AcDbEntity
  8
躯体
  6
Continuous
 62
     2
370
     9
100
AcDbCircle
 10
-875.8707512909297
 20
505.2709108333955
 30
0.0
 40
604.999966860738
100
AcDbArc
 50
90.47352600097656
 51
149.5264739990235
  0
ARC
  5
12C
330
1F
100
AcDbEntity
  8
躯体
  6
JWW_DASHED3
 62
     2
370
     9
100
AcDbCircle
 10
-875.8707512909297
 20
505.2709108333955
 30
0.0
 40
574.9999511011779
100
AcDbArc
 50
90.49822998046875
 51
149.5017700195312
  0
ARC
  5
12D
330
1F
100
AcDbEntity
  8
躯体
  6
Continuous
 62
     2
370
     9
100
AcDbCircle
 10
-875.8707512909297
 20
505.2709108333955
 30
0.0
 40
674.9999829885122
100
AcDbArc
 50
90.42442321777344
 51
149.5755920410156
  0
ARC
  5
12E
330
1F
100
AcDbEntity
  8
躯体
  6
Continuous
 62
     2
370
     9
100
AcDbCircle
 10
-875.8707512909297
 20
505.2709108333955
 30
0.0
 40
604.999966860738
100
AcDbArc
 50
150.4735260009766
 51
209.5264739990234
  0
ARC
  5
12F
330
1F
100
AcDbEntity
  8
躯体
  6
JWW_DASHED3
 62
     2
370
     9
100
AcDbCircle
 10
-875.8707512909297
 20
505.2709108333955
 30
0.0
 40
574.9999511011779
100
AcDbArc
 50
150.4982299804688
 51
209.5017700195312
  0
ARC
  5
130
330
1F
100
AcDbEntity
  8
躯体
  6
Continuous
 62
     2
370
     9
100
AcDbCircle
 10
-875.8707512909297
 20
505.2709108333955
 30
0.0
 40
674.9999829885122
100
AcDbArc
 50
150.4244232177734
 51
209.5755920410156
  0
ARC
  5
131
330
1F
100
AcDbEntity
  8
躯体
  6
Continuous
 62
     2
370
     9
100
AcDbCircle
 10
-875.8707512909297
 20
505.2709108333955
 30
0.0
 40
604.999966860738
100
AcDbArc
 50
210.4735260009765
 51
269.5264739990234
  0
ARC
  5
132
330
1F
100
AcDbEntity
  8
躯体
  6
JWW_DASHED3
 62
     2
370
     9
100
AcDbCircle
 10
-875.8707512909297
 20
505.2709108333955
 30
0.0
 40
574.9999511011779
100
AcDbArc
 50
210.4982299804688
 51
269.5017700195312
  0
ARC
  5
133
330
1F
100
AcDbEntity
  8
躯体
  6
Continuous
 62
     2
370
     9
100
AcDbCircle
 10
-875.8707512909297
 20
505.2709108333955
 30
0.0
 40
674.9999829885122
100
AcDbArc
 50
210.4244232177734
 51
269.5755920410156
  0
ARC
  5
134
330
1F
100
AcDbEntity
  8
躯体
  6
Continuous
 62
     2
370
     9
100
AcDbCircle
 10
-875.8707512909297
 20
505.2709108333955
 30
0.0
 40
604.999966860738
100
AcDbArc
 50
270.4735260009766
 51
329.5264739990234
  0
ARC
  5
135
330
1F
100
AcDbEntity
  8
躯体
  6
JWW_DASHED3
 62
     2
370
     9
100
AcDbCircle
 10
-875.8707512909297
 20
505.2709108333955
 30
0.0
 40
574.9999511011779
100
AcDbArc
 50
270.4982299804688
 51
329.5017700195312
  0
ARC
  5
136
330
1F
100
AcDbEntity
  8
躯体
  6
Continuous
 62
     2
370
     9
100
AcDbCircle
 10
-875.8707512909297
 20
505.2709108333955
 30
0.0
 40
674.9999829885122
100
AcDbArc
 50
270.4244232177734
 51
329.5755920410156
  0
ARC
  5
137
330
1F
100
AcDbEntity
  8
躯体
  6
Continuous
 62
     2
370
     9
100
AcDbCircle
 10
-875.8707512909297
 20
505.2709108333955
 30
0.0
 40
604.999966860738
100
AcDbArc
 50
330.4735260009766
 51
29.52647399902343
  0
ARC
  5
138
330
1F
100
AcDbEntity
  8
躯体
  6
JWW_DASHED3
 62
     2
370
     9
100
AcDbCircle
 10
-875.8707512909297
 20
505.2709108333955
 30
0.0
 40
574.9999511011779
100
AcDbArc
 50
330.4982299804688
 51
29.50177001953124
  0
ARC
  5
139
330
1F
100
AcDbEntity
  8
躯体
  6
Continuous
 62
     2
370
     9
100
AcDbCircle
 10
-875.8707512909297
 20
505.2709108333955
 30
0.0
 40
674.9999829885122
100
AcDbArc
 50
330.4244232177734
 51
29.57559204101561
  0
ARC
  5
13A
330
1F
100
AcDbEntity
  8
躯体
  6
Continuous
 62
     2
370
     9
100
AcDbCircle
 10
-875.8707512909297
 20
505.2709108333955
 30
0.0
 40
604.999966860738
100
AcDbArc
 50
30.47352600097658
 51
89.52647399902347
  0
ARC
  5
13B
330
1F
100
AcDbEntity
  8
躯体
  6
JWW_DASHED3
 62
     2
370
     9
100
AcDbCircle
 10
-875.8707512909297
 20
505.2709108333955
 30
0.0
 40
574.9999511011779
100
AcDbArc
 50
30.49822998046877
 51
89.50177001953128
  0
ARC
  5
13C
330
1F
100
AcDbEntity
  8
躯体
  6
Continuous
 62
     2
370
     9
100
AcDbCircle
 10
-875.8707512909297
 20
505.2709108333955
 30
0.0
 40
674.9999829885122
100
AcDbArc
 50
30.42442321777346
 51
89.57559204101564
  0
LINE
  5
13D
330
1F
100
AcDbEntity
  8
通り芯
  6
Continuous
 62
     3
370
     9
100
AcDbLine
 10
-877.870463318107
 20
-94.72593607629385
 30
0.0
 11
-877.870463318107
 21
305.2798893641023
 31
0.0
  0
LINE
  5
13E
330
1F
100
AcDbEntity
  8
通り芯
  6
Continuous
 62
     3
370
     9
100
AcDbLine
 10
-1094.860027955987
 20
470.2700047323299
 30
0.0
 11
-1094.860027955987
 21
480.2705467433692
 31
0.0
  0
LINE
  5
13F
330
1F
100
AcDbEntity
  8
通り芯
  6
Continuous
 62
     3
370
     9
100
AcDbLine
 10
-1106.860281994205
 20
470.2700047323299
 30
0.0
 11
-1106.860281994205
 21
480.2705467433692
 31
0.0
  0
LINE
  5
140
330
1F
100
AcDbEntity
  8
通り芯
  6
JWW_CENTER1
 62
     3
370
     9
100
AcDbLine
 10
-1100.861145912672
 20
497.4672774270392
 30
0.0
 11
-1100.861145912672
 21
452.1754846053398
 31
0.0
  0
LINE
  5
141
330
1F
100
AcDbEntity
  8
通り芯
  6
JWW_CENTER1
 62
     3
370
     9
100
AcDbLine
 10
-1118.99728541783
 20
475.2702757378495
 30
0.0
 11
-1083.069852683756
 21
475.2702757378495
 31
0.0
  0
LINE
  5
142
330
1F
100
AcDbEntity
  8
通り芯
  6
Continuous
 62
     3
370
     9
100
AcDbLine
 10
-1110.860696986136
 20
470.2700047323299
 30
0.0
 11
-1110.860696986136
 21
480.2705467433692
 31
0.0
  0
LINE
  5
143
330
1F
100
AcDbEntity
  8
通り芯
  6
Continuous
 62
     3
370
     9
100
AcDbLine
 10
-1090.860603901631
 20
470.2700047323299
 30
0.0
 11
-1090.860603901631
 21
480.2705467433692
 31
0.0
  0
LINE
  5
144
330
1F
100
AcDbEntity
  8
通り芯
  6
Continuous
 62
     3
370
     9
100
AcDbLine
 10
-910.8706664544189
 20
286.2806432307605
 30
0.0
 11
-900.8701244433786
 21
286.2806432307605
 31
0.0
  0
LINE
  5
145
330
1F
100
AcDbEntity
  8
通り芯
  6
Continuous
 62
     3
370
     9
100
AcDbLine
 10
-910.8706664544189
 20
274.280389192544
 30
0.0
 11
-900.8701244433786
 21
274.280389192544
 31
0.0
  0
LINE
  5
146
330
1F
100
AcDbEntity
  8
通り芯
  6
JWW_CENTER1
 62
     3
370
     9
100
AcDbLine
 10
-883.6733937597097
 20
280.2805162116522
 30
0.0
 11
-928.9651865814091
 21
280.2805162116522
 31
0.0
  0
LINE
  5
147
330
1F
100
AcDbEntity
  8
通り芯
  6
JWW_CENTER1
 62
     3
370
     9
100
AcDbLine
 10
-905.8703954488982
 20
262.1443767064932
 30
0.0
 11
-905.8703954488982
 21
298.0708185029915
 31
0.0
  0
LINE
  5
148
330
1F
100
AcDbEntity
  8
通り芯
  6
Continuous
 62
     3
370
     9
100
AcDbLine
 10
-910.8706664544189
 20
270.279974200613
 30
0.0
 11
-900.8701244433786
 21
270.279974200613
 31
0.0
  0
LINE
  5
149
330
1F
100
AcDbEntity
  8
通り芯
  6
Continuous
 62
     3
370
     9
100
AcDbLine
 10
-910.8706664544189
 20
290.2810582226915
 30
0.0
 11
-900.8701244433786
 21
290.2810582226915
 31
0.0
  0
LINE
  5
14A
330
1F
100
AcDbEntity
  8
通り芯
  6
Continuous
 62
     3
370
     9
100
AcDbLine
 10
-1475.867598200618
 20
503.2702078686419
 30
0.0
 11
-1075.860781822646
 21
503.2702078686419
 31
0.0
  0
LINE
  5
14B
330
1F
100
AcDbEntity
  8
通り芯
  6
Continuous
 62
     3
370
     9
100
AcDbLine
 10
-958.325676003239
 20
52.29848104974629
 30
0.0
 11
-941.5748672285048
 21
136.5093471456829
 31
0.0
  0
LINE
  5
14C
330
1F
100
AcDbEntity
  8
通り芯
  6
Continuous
 62
     3
370
     9
100
AcDbLine
 10
-928.4578265427996
 20
47.86601727493583
 30
0.0
 11
-920.0408027772647
 21
133.3155553401355
 31
0.0
  0
LINE
  5
14D
330
1F
100
AcDbEntity
  8
通り芯
  6
Continuous
 62
     3
370
     9
100
AcDbLine
 10
-942.5985057439033
 20
-59.03831023547006
 30
0.0
 11
-933.5443091173801
 21
9.736721248301663
 31
0.0
  0
LINE
  5
14E
330
1F
100
AcDbEntity
  8
通り芯
  6
Continuous
 62
     3
370
     9
100
AcDbLine
 10
-920.5164528134623
 20
-61.21242727591941
 30
0.0
 11
-915.9789496556579
 21
8.010507991936109
 31
0.0
  0
LINE
  5
14F
330
1F
100
AcDbEntity
  8
通り芯
  6
Continuous
 62
     3
370
     9
100
AcDbLine
 10
-905.9130057646411
 20
-67.76450652453256
 30
0.0
 11
-900.6332903628555
 21
12.79970929389386
 31
0.0
  0
LINE
  5
150
330
1F
100
AcDbEntity
  8
通り芯
  6
Continuous
 62
     3
370
     9
100
AcDbLine
 10
-892.8702853970918
 20
-68.19060968195906
 30
0.0
 11
-892.8702853970918
 21
12.54503833701513
 31
0.0
  0
LINE
  5
151
330
1F
100
AcDbEntity
  8
通り芯
  6
Continuous
 62
     3
370
     9
100
AcDbLine
 10
-913.9623916896988
 20
41.99768495335668
 30
0.0
 11
-904.7030709850657
 21
136.0079327325264
 31
0.0
  0
LINE
  5
152
330
1F
100
AcDbEntity
  8
通り芯
  6
Continuous
 62
     3
370
     9
100
AcDbLine
 10
-892.871276334667
 20
40.96215518705442
 30
0.0
 11
-892.871276334667
 21
135.4292251884852
 31
0.0
  0
LINE
  5
153
330
1F
100
AcDbEntity
  8
通り芯
  6
Continuous
 62
     3
370
     9
100
AcDbLine
 10
-979.3632807291982
 20
-53.46527731136227
 30
0.0
 11
-965.8300462618212
 21
14.57051474115254
 31
0.0
  0
LINE
  5
154
330
1F
100
AcDbEntity
  8
通り芯
  6
Continuous
 62
     3
370
     9
100
AcDbLine
 10
-957.4704968756606
 20
-57.07922664888308
 30
0.0
 11
-948.4153093115611
 21
11.69877764761289
 31
0.0
  0
LINE
  5
155
330
1F
100
AcDbEntity
  8
通り芯
  6
Continuous
 62
     3
370
     9
100
AcDbLine
 10
-1015.685106618285
 20
-45.50012108021626
 30
0.0
 11
-997.7312996270024
 21
21.50410495629906
 31
0.0
  0
LINE
  5
156
330
1F
100
AcDbEntity
  8
通り芯
  6
Continuous
 62
     3
370
     9
100
AcDbLine
 10
-994.0747399737387
 20
-50.53804771360198
 30
0.0
 11
-980.5415055063617
 21
17.49972621406535
 31
0.0
  0
LINE
  5
157
330
1F
100
AcDbEntity
  8
通り芯
  6
Continuous
 62
     3
370
     9
100
AcDbLine
 10
-1051.408406211824
 20
-35.17653341959083
 30
0.0
 11
-1029.110328889943
 21
30.51073657920263
 31
0.0
  0
LINE
  5
158
330
1F
100
AcDbEntity
  8
通り芯
  6
Continuous
 62
     3
370
     9
100
AcDbLine
 10
-1030.173604908357
 20
-41.61762765975816
 30
0.0
 11
-1012.2188069795
 21
25.39056212705766
 31
0.0
  0
LINE
  5
159
330
1F
100
AcDbEntity
  8
通り芯
  6
Continuous
 62
     3
370
     9
100
AcDbLine
 10
-1086.379584185626
 20
-22.53910652038591
 30
0.0
 11
-1059.833357477962
 21
41.54978116927062
 31
0.0
  0
LINE
  5
15A
330
1F
100
AcDbEntity
  8
通り芯
  6
Continuous
 62
     3
370
     9
100
AcDbLine
 10
-1065.611514480178
 20
-30.354631177646
 30
0.0
 11
-1043.313437158297
 21
35.33561163387397
 31
0.0
  0
LINE
  5
15B
330
1F
100
AcDbEntity
  8
通り芯
  6
Continuous
 62
     3
370
     9
100
AcDbLine
 10
-1120.449008965806
 20
-7.640360074091106
 30
0.0
 11
-1089.76859069353
 21
54.57367372288793
 31
0.0
  0
LINE
  5
15C
330
1F
100
AcDbEntity
  8
通り芯
  6
Continuous
 62
     3
370
     9
100
AcDbLine
 10
-1100.236855240164
 20
-16.79761420845914
 30
0.0
 11
-1073.689637594923
 21
47.29325535634992
 31
0.0
  0
LINE
  5
15D
330
1F
100
AcDbEntity
  8
通り芯
  6
Continuous
 62
     3
370
     9
100
AcDbLine
 10
-1153.472003666352
 20
9.453313101734082
 30
0.0
 11
-1118.787206651843
 21
69.52890361097964
 31
0.0
  0
LINE
  5
15E
330
1F
100
AcDbEntity
  8
通り芯
  6
Continuous
 62
     3
370
     9
100
AcDbLine
 10
-1133.901977489575
 20
-1.006033006720983
 30
0.0
 11
-1103.219577342148
 21
61.21196454056083
 31
0.0
  0
LINE
  5
15F
330
1F
100
AcDbEntity
  8
通り芯
  6
Continuous
 62
     3
370
     9
100
AcDbLine
 10
-1185.30488233883
 20
28.671556439241
 30
0.0
 11
-1146.766329093551
 21
86.34907801599304
 31
0.0
  0
LINE
  5
160
330
1F
100
AcDbEntity
  8
通り芯
  6
Continuous
 62
     3
370
     9
100
AcDbLine
 10
-1166.461213404829
 20
16.95471054758976
 30
0.0
 11
-1131.776416390319
 21
77.03228293198556
 31
0.0
  0
LINE
  5
161
330
1F
100
AcDbEntity
  8
通り芯
  6
Continuous
 62
     3
370
     9
100
AcDbLine
 10
-1215.81386841056
 20
49.93014024451561
 30
0.0
 11
-1173.585063634453
 21
104.9638403700749
 31
0.0
  0
LINE
  5
162
330
1F
100
AcDbEntity
  8
通り芯
  6
Continuous
 62
     3
370
     9
100
AcDbLine
 10
-1197.776822662943
 20
37.00534144844035
 30
0.0
 11
-1159.236287542513
 21
94.6858358379189
 31
0.0
  0
LINE
  5
163
330
1F
100
AcDbEntity
  8
通り芯
  6
Continuous
 62
     3
370
     9
100
AcDbLine
 10
-1244.867167184013
 20
73.13789826062369
 30
0.0
 11
-1199.129452453378
 21
125.2919337920401
 31
0.0
  0
LINE
  5
164
330
1F
100
AcDbEntity
  8
通り芯
  6
Continuous
 62
     3
370
     9
100
AcDbLine
 10
-1227.714037753662
 20
59.0616300019213
 30
0.0
 11
-1185.483251102403
 21
114.0983029402049
 31
0.0
  0
LINE
  5
165
330
1F
100
AcDbEntity
  8
通り芯
  6
Continuous
 62
     3
370
     9
100
AcDbLine
 10
-1272.339920524686
 20
98.19672766759716
 30
0.0
 11
-1223.289501479455
 21
147.248137650405
 31
0.0
  0
LINE
  5
166
330
1F
100
AcDbEntity
  8
通り芯
  6
Continuous
 62
     3
370
     9
100
AcDbLine
 10
-1256.144036792181
 20
83.02844620079334
 30
0.0
 11
-1210.404340186396
 21
135.1854545449362
 31
0.0
  0
LINE
  5
167
330
1F
100
AcDbEntity
  8
通り芯
  6
Continuous
 62
     3
370
     9
100
AcDbLine
 10
-1298.115197798681
 20
124.998616269719
 30
0.0
 11
-1245.961162267266
 21
170.7363310003519
 31
0.0
  0
LINE
  5
168
330
1F
100
AcDbEntity
  8
通り芯
  6
Continuous
 62
     3
370
     9
100
AcDbLine
 10
-1282.945925394302
 20
108.8037234747879
 30
0.0
 11
-1233.892533536344
 21
157.857115332746
 31
0.0
  0
LINE
  5
169
330
1F
100
AcDbEntity
  8
通り芯
  6
Continuous
 62
     3
370
     9
100
AcDbLine
 10
-1322.082013997553
 20
153.4296062458123
 30
0.0
 11
-1267.048313871995
 21
195.6584110219195
 31
0.0
  0
LINE
  5
16A
330
1F
100
AcDbEntity
  8
通り芯
  6
Continuous
 62
     3
370
     9
100
AcDbLine
 10
-1308.004754801275
 20
136.2774677530377
 30
0.0
 11
-1255.848737394709
 21
182.0171643588231
 31
0.0
  0
LINE
  5
16B
330
1F
100
AcDbEntity
  8
通り芯
  6
Continuous
 62
     3
370
     9
100
AcDbLine
 10
-1344.138302551034
 20
183.3658303989558
 30
0.0
 11
-1286.460780974282
 21
221.90537458181
 31
0.0
  0
LINE
  5
16C
330
1F
100
AcDbEntity
  8
通り芯
  6
Continuous
 62
     3
370
     9
100
AcDbLine
 10
-1331.213503754959
 20
165.3297755889151
 30
0.0
 11
-1276.176830816674
 21
207.5605622401725
 31
0.0
  0
LINE
  5
16D
330
1F
100
AcDbEntity
  8
通り芯
  6
Continuous
 62
     3
370
     9
100
AcDbLine
 10
-1364.189924389461
 20
214.6814396570711
 30
0.0
 11
-1304.114333880215
 21
249.3662366715797
 31
0.0
  0
LINE
  5
16E
330
1F
100
AcDbEntity
  8
通り芯
  6
Continuous
 62
     3
370
     9
100
AcDbLine
 10
-1352.472087560234
 20
195.8387616606445
 30
0.0
 11
-1294.791593170756
 21
234.3792967810749
 31
0.0
  0
LINE
  5
16F
330
1F
100
AcDbEntity
  8
通り芯
  6
Continuous
 62
     3
370
     9
100
AcDbLine
 10
-1382.149677006195
 20
247.2416665099002
 30
0.0
 11
-1319.934652271639
 21
277.9220847821751
 31
0.0
  0
LINE
  5
170
330
1F
100
AcDbEntity
  8
通り芯
  6
Continuous
 62
     3
370
     9
100
AcDbLine
 10
-1371.689339960165
 20
227.6726312706991
 30
0.0
 11
-1311.611767575769
 21
262.3584192227816
 31
0.0
  0
LINE
  5
171
330
1F
100
AcDbEntity
  8
通り芯
  6
Continuous
 62
     3
370
     9
100
AcDbLine
 10
-1397.942249145508
 20
280.9057978217368
 30
0.0
 11
-1333.854352393427
 21
307.4520245294014
 31
0.0
  0
LINE
  5
172
330
1F
100
AcDbEntity
  8
通り芯
  6
Continuous
 62
     3
370
     9
100
AcDbLine
 10
-1388.784004073568
 20
260.6946350336682
 30
0.0
 11
-1326.566006526285
 21
291.3770351810957
 31
0.0
  0
LINE
  5
173
330
1F
100
AcDbEntity
  8
通り芯
  6
Continuous
 62
     3
370
     9
100
AcDbLine
 10
-1411.49827517712
 20
315.532129519296
 30
0.0
 11
-1345.811005178327
 21
337.8292159036017
 31
0.0
  0
LINE
  5
174
330
1F
100
AcDbEntity
  8
通り芯
  6
Continuous
 62
     3
370
     9
100
AcDbLine
 10
-1403.681759582284
 20
294.7640598138481
 30
0.0
 11
-1339.590890017477
 21
321.3122683966629
 31
0.0
  0
LINE
  5
175
330
1F
100
AcDbEntity
  8
通り芯
  6
Continuous
 62
     3
370
     9
100
AcDbLine
 10
-1422.761271659233
 20
350.9700390911156
 30
0.0
 11
-1355.756054685144
 21
368.9238460823993
 31
0.0
  0
LINE
  5
176
330
1F
100
AcDbEntity
  8
通り芯
  6
Continuous
 62
     3
370
     9
100
AcDbLine
 10
-1416.319186481491
 20
329.736228725227
 30
0.0
 11
-1350.629934607546
 21
352.0343060471067
 31
0.0
  0
LINE
  5
177
330
1F
100
AcDbEntity
  8
通り芯
  6
Continuous
 62
     3
370
     9
100
AcDbLine
 10
-1431.68268265065
 20
387.0679130881593
 30
0.0
 11
-1363.646890598136
 21
400.6011475555386
 31
0.0
  0
LINE
  5
178
330
1F
100
AcDbEntity
  8
通り芯
  6
Continuous
 62
     3
370
     9
100
AcDbLine
 10
-1426.643765079691
 20
365.4585373811904
 30
0.0
 11
-1359.635575292875
 21
383.4133353100481
 31
0.0
  0
LINE
  5
179
330
1F
100
AcDbEntity
  8
通り芯
  6
Continuous
 62
     3
370
     9
100
AcDbLine
 10
-1438.223861585934
 20
423.6731471238148
 30
0.0
 11
-1369.448830102162
 21
432.727343750338
 31
0.0
  0
LINE
  5
17A
330
1F
100
AcDbEntity
  8
通り芯
  6
Continuous
 62
     3
370
     9
100
AcDbLine
 10
-1434.608921310837
 20
401.780363270276
 30
0.0
 11
-1366.570156445595
 21
415.3135977376531
 31
0.0
  0
LINE
  5
17B
330
1F
100
AcDbEntity
  8
通り芯
  6
Continuous
 62
     3
370
     9
100
AcDbLine
 10
-1442.356071275394
 20
460.627191186012
 30
0.0
 11
-1373.13709975784
 21
465.1646943438153
 31
0.0
  0
LINE
  5
17C
330
1F
100
AcDbEntity
  8
通り芯
  6
Continuous
 62
     3
370
     9
100
AcDbLine
 10
-1440.18096329737
 20
438.545138255571
 30
0.0
 11
-1371.402959000871
 21
447.6003258196704
 31
0.0
  0
LINE
  5
17D
330
1F
100
AcDbEntity
  8
通り芯
  6
Continuous
 62
     3
370
     9
100
AcDbLine
 10
-1002.327268101755
 20
62.56162151826977
 30
0.0
 11
-977.4032062050372
 21
144.7252105834094
 31
0.0
  0
LINE
  5
17E
330
1F
100
AcDbEntity
  8
通り芯
  6
Continuous
 62
     3
370
     9
100
AcDbLine
 10
-973.0381261853546
 20
55.22273783478234
 30
0.0
 11
-956.2863264730453
 21
139.4355858058692
 31
0.0
  0
LINE
  5
17F
330
1F
100
AcDbEntity
  8
通り芯
  6
Continuous
 62
     3
370
     9
100
AcDbLine
 10
-1016.681989819148
 20
66.91381934947124
 30
0.0
 11
-991.7569369848542
 21
149.0793902897611
 31
0.0
  0
LINE
  5
180
330
1F
100
AcDbEntity
  8
通り芯
  6
Continuous
 62
     3
370
     9
100
AcDbLine
 10
-1086.265626364454
 20
95.73821154300397
 30
0.0
 11
-1045.790781096824
 21
171.4607063679785
 31
0.0
  0
LINE
  5
181
330
1F
100
AcDbEntity
  8
通り芯
  6
Continuous
 62
     3
370
     9
100
AcDbLine
 10
-1058.97025084978
 20
82.82629493540874
 30
0.0
 11
-1026.111751786752
 21
162.1528297221483
 31
0.0
  0
LINE
  5
182
330
1F
100
AcDbEntity
  8
通り芯
  6
Continuous
 62
     3
370
     9
100
AcDbLine
 10
-1125.393787467103
 20
118.3315882623572
 30
0.0
 11
-1077.692034462005
 21
189.7226949452136
 31
0.0
  0
LINE
  5
183
330
1F
100
AcDbEntity
  8
通り芯
  6
Continuous
 62
     3
370
     9
100
AcDbLine
 10
-1099.495633933756
 20
102.8065692684061
 30
0.0
 11
-1059.01979772855
 21
178.5310459685286
 31
0.0
  0
LINE
  5
184
330
1F
100
AcDbEntity
  8
通り芯
  6
Continuous
 62
     3
370
     9
100
AcDbLine
 10
-1162.118924949381
 20
144.6528721404036
 30
0.0
 11
-1107.649068304232
 21
211.0238890662311
 31
0.0
  0
LINE
  5
185
330
1F
100
AcDbEntity
  8
通り芯
  6
Continuous
 62
     3
370
     9
100
AcDbLine
 10
-1137.866718728792
 20
126.6633913964063
 30
0.0
 11
-1090.163974786119
 21
198.056479954413
 31
0.0
  0
LINE
  5
186
330
1F
100
AcDbEntity
  8
通り芯
  6
Continuous
 62
     3
370
     9
100
AcDbLine
 10
-1196.087274096869
 20
174.4464012826882
 30
0.0
 11
-1135.373519789059
 21
235.1591646529221
 31
0.0
  0
LINE
  5
187
330
1F
100
AcDbEntity
  8
通り芯
  6
Continuous
 62
     3
370
     9
100
AcDbLine
 10
-1173.714876456832
 20
154.166863801919
 30
0.0
 11
-1119.244028874106
 21
220.5398626028967
 31
0.0
  0
LINE
  5
188
330
1F
100
AcDbEntity
  8
通り芯
  6
Continuous
 62
     3
370
     9
100
AcDbLine
 10
-1226.97182550968
 20
207.4248037923406
 30
0.0
 11
-1160.599817646277
 21
261.8946604374913
 31
0.0
  0
LINE
  5
189
330
1F
100
AcDbEntity
  8
通り芯
  6
Continuous
 62
     3
370
     9
100
AcDbLine
 10
-1206.695260841635
 20
185.0504242771524
 30
0.0
 11
-1145.98051559625
 21
245.7651695225389
 31
0.0
  0
LINE
  5
18A
330
1F
100
AcDbEntity
  8
通り芯
  6
Continuous
 62
     3
370
     9
100
AcDbLine
 10
-1254.474306977615
 20
243.2729615203824
 30
0.0
 11
-1183.08320029476
 21
290.974714525479
 31
0.0
  0
LINE
  5
18B
330
1F
100
AcDbEntity
  8
通り芯
  6
Continuous
 62
     3
370
     9
100
AcDbLine
 10
-1236.488789983919
 20
219.01877342464
 30
0.0
 11
-1170.115791182941
 21
273.4896210073669
 31
0.0
  0
LINE
  5
18C
330
1F
100
AcDbEntity
  8
通り芯
  6
Continuous
 62
     3
370
     9
100
AcDbLine
 10
-1278.332120043191
 20
281.6440463154175
 30
0.0
 11
-1202.608634280643
 21
322.1188915830465
 31
0.0
  0
LINE
  5
18D
330
1F
100
AcDbEntity
  8
通り芯
  6
Continuous
 62
     3
370
     9
100
AcDbLine
 10
-1262.810073861966
 20
255.7439109069185
 30
0.0
 11
-1191.41698530396
 21
303.4466548495937
 31
0.0
  0
LINE
  5
18E
330
1F
100
AcDbEntity
  8
通り芯
  6
Continuous
 62
     3
370
     9
100
AcDbLine
 10
-1298.312394376188
 20
322.1684384618187
 30
0.0
 11
-1218.986850527023
 21
355.0269375248457
 31
0.0
  0
LINE
  5
18F
330
1F
100
AcDbEntity
  8
通り芯
  6
Continuous
 62
     3
370
     9
100
AcDbLine
 10
-1285.404441518894
 20
294.8720720095674
 30
0.0
 11
-1209.67996481877
 21
335.3469172771987
 31
0.0
  0
LINE
  5
190
330
1F
100
AcDbEntity
  8
通り芯
  6
Continuous
 62
     3
370
     9
100
AcDbLine
 10
-1314.225860899701
 20
364.4566994924492
 30
0.0
 11
-1232.061280896987
 21
389.380761389167
 31
0.0
  0
LINE
  5
191
330
1F
100
AcDbEntity
  8
通り芯
  6
Continuous
 62
     3
370
     9
100
AcDbLine
 10
-1304.054877625691
 20
336.0257095163559
 30
0.0
 11
-1224.727351901375
 21
368.8842085793829
 31
0.0
  0
LINE
  5
192
330
1F
100
AcDbEntity
  8
通り芯
  6
Continuous
 62
     3
370
     9
100
AcDbLine
 10
-1325.916942414392
 20
408.1005631262418
 30
0.0
 11
-1241.705085380879
 21
424.8513719009782
 31
0.0
  0
LINE
  5
193
330
1F
100
AcDbEntity
  8
通り芯
  6
Continuous
 62
     3
370
     9
100
AcDbLine
 10
-1318.582022481205
 20
378.8104302722662
 30
0.0
 11
-1236.415460603338
 21
403.734492168984
 31
0.0
  0
LINE
  5
194
330
1F
100
AcDbEntity
  8
通り芯
  6
Continuous
 62
     3
370
     9
100
AcDbLine
 10
-1333.273662974237
 20
452.680862768799
 30
0.0
 11
-1247.825115846612
 21
461.0968955967576
 31
0.0
  0
LINE
  5
195
330
1F
100
AcDbEntity
  8
通り芯
  6
Continuous
 62
     3
370
     9
100
AcDbLine
 10
-1328.845162949728
 20
422.8120223707822
 30
0.0
 11
-1244.631324041065
 21
439.5628311455164
 31
0.0
  0
LINE
  5
196
330
1F
100
AcDbEntity
  8
通り芯
  6
Continuous
 62
     3
370
     9
100
AcDbLine
 10
-1448.906168648857
 20
475.2276654221067
 30
0.0
 11
-1368.341952830429
 21
480.5083717614673
 31
0.0
  0
LINE
  5
197
330
1F
100
AcDbEntity
  8
通り芯
  6
Continuous
 62
     3
370
     9
100
AcDbLine
 10
-1449.332271806283
 20
488.270385789657
 30
0.0
 11
-1368.59662378731
 21
488.270385789657
 31
0.0
  0
LINE
  5
198
330
1F
100
AcDbEntity
  8
通り芯
  6
Continuous
 62
     3
370
     9
100
AcDbLine
 10
-1339.143977170966
 20
467.1782794970489
 30
0.0
 11
-1245.132738454222
 21
476.4376002016832
 31
0.0
  0
LINE
  5
199
330
1F
100
AcDbEntity
  8
通り芯
  6
Continuous
 62
     3
370
     9
100
AcDbLine
 10
-1340.179506937271
 20
488.270385789657
 30
0.0
 11
-1245.712436935838
 21
488.270385789657
 31
0.0
  0
LINE
  5
19A
330
1F
100
AcDbEntity
  8
通り芯
  6
Continuous
 62
     3
370
     9
100
AcDbLine
 10
-1045.111988857668
 20
77.08777543620847
 30
0.0
 11
-1012.253489794639
 21
156.413319285374
 31
0.0
  0
LINE
  5
19B
330
1F
100
AcDbEntity
  8
通り芯
  6
Continuous
 62
     3
370
     9
100
AcDbLine
 10
-892.871276334667
 20
175.3045532229942
 30
0.0
 11
-892.871276334667
 21
246.2864026872047
 31
0.0
  0
LINE
  5
19C
330
1F
100
AcDbEntity
  8
通り芯
  6
Continuous
 62
     3
370
     9
100
AcDbLine
 10
-933.0706409563339
 20
179.2623578991823
 30
0.0
 11
-919.2222883399762
 21
248.8816681972037
 31
0.0
  0
LINE
  5
19D
330
1F
100
AcDbEntity
  8
通り芯
  6
Continuous
 62
     3
370
     9
100
AcDbLine
 10
-993.7308846350714
 20
201.1313592509112
 30
0.0
 11
-958.4852169528807
 21
286.2211869762371
 31
0.0
  0
LINE
  5
19E
330
1F
100
AcDbEntity
  8
通り芯
  6
Continuous
 62
     3
370
     9
100
AcDbLine
 10
-946.8446732545368
 20
186.9054594183206
 30
0.0
 11
-928.8760021996228
 21
277.2353650424168
 31
0.0
  0
LINE
  5
19F
330
1F
100
AcDbEntity
  8
通り芯
  6
Continuous
 62
     3
370
     9
100
AcDbLine
 10
-1050.800961478098
 20
229.968633632924
 30
0.0
 11
-999.6329088342151
 21
306.548289460626
 31
0.0
  0
LINE
  5
1A0
330
1F
100
AcDbEntity
  8
通り芯
  6
Continuous
 62
     3
370
     9
100
AcDbLine
 10
-1007.590137564759
 20
206.8688878125352
 30
0.0
 11
-972.3454608201433
 21
291.9577246002871
 31
0.0
  0
LINE
  5
1A1
330
1F
100
AcDbEntity
  8
通り芯
  6
Continuous
 62
     3
370
     9
100
AcDbLine
 10
-1101.148517809541
 20
269.3861485075911
 30
0.0
 11
-1036.023109416005
 21
334.5105659635522
 31
0.0
  0
LINE
  5
1A2
330
1F
100
AcDbEntity
  8
通り芯
  6
Continuous
 62
     3
370
     9
100
AcDbLine
 10
-1063.274883677362
 20
238.2994458293968
 30
0.0
 11
-1012.106831033479
 21
314.8781107195248
 31
0.0
  0
LINE
  5
1A3
330
1F
100
AcDbEntity
  8
通り芯
  6
Continuous
 62
     3
370
     9
100
AcDbLine
 10
-1142.839243482199
 20
317.8677693845373
 30
0.0
 11
-1066.259587654497
 21
369.0368129659954
 31
0.0
  0
LINE
  5
1A4
330
1F
100
AcDbEntity
  8
通り芯
  6
Continuous
 62
     3
370
     9
100
AcDbLine
 10
-1111.757495491882
 20
279.9901715020576
 30
0.0
 11
-1046.633078035922
 21
345.1145889580164
 31
0.0
  0
LINE
  5
1A5
330
1F
100
AcDbEntity
  8
通り芯
  6
Continuous
 62
     3
370
     9
100
AcDbLine
 10
-1174.269801499061
 20
373.5515245595651
 30
0.0
 11
-1089.17898283616
 21
408.7971922417558
 31
0.0
  0
LINE
  5
1A6
330
1F
100
AcDbEntity
  8
通り芯
  6
Continuous
 62
     3
370
     9
100
AcDbLine
 10
-1151.17501036655
 20
330.3377278334995
 30
0.0
 11
-1074.596345476423
 21
381.5057804773836
 31
0.0
  0
LINE
  5
1A7
330
1F
100
AcDbEntity
  8
通り芯
  6
Continuous
 62
     3
370
     9
100
AcDbLine
 10
-1194.233229893276
 20
434.2969888697883
 30
0.0
 11
-1103.901342394031
 21
452.2656599247001
 31
0.0
  0
LINE
  5
1A8
330
1F
100
AcDbEntity
  8
通り芯
  6
Continuous
 62
     3
370
     9
100
AcDbLine
 10
-1180.013275686139
 20
387.4087956141023
 30
0.0
 11
-1094.923447960814
 21
422.6534723587168
 31
0.0
  0
LINE
  5
1A9
330
1F
100
AcDbEntity
  8
通り芯
  6
Continuous
 62
     3
370
     9
100
AcDbLine
 10
-1205.83710890133
 20
488.270385789657
 30
0.0
 11
-1134.854268499544
 21
488.270385789657
 31
0.0
  0
LINE
  5
1AA
330
1F
100
AcDbEntity
  8
通り芯
  6
Continuous
 62
     3
370
     9
100
AcDbLine
 10
-1201.879304225142
 20
448.0700302304138
 30
0.0
 11
-1132.25999392712
 21
461.9183828467715
 31
0.0
  0
ARC
  5
1AB
330
1F
100
AcDbEntity
  8
通り芯
  6
Continuous
 62
     3
370
     9
100
AcDbCircle
 10
-875.8707512909297
 20
505.2709108333955
 30
0.0
 40
600.0000055232103
100
AcDbArc
 50
180.1909790039062
 51
269.8089904785156
  0
ARC
  5
1AC
330
1F
100
AcDbEntity
  8
通り芯
  6
Continuous
 62
     3
370
     9
100
AcDbCircle
 10
-1100.861145912672
 20
480.2705467433692
 30
0.0
 40
5.999999764918361
100
AcDbArc
 50
0.0
 51
180.0
  0
ARC
  5
1AD
330
1F
100
AcDbEntity
  8
通り芯
  6
Continuous
 62
     3
370
     9
100
AcDbCircle
 10
-1100.861145912672
 20
470.2700047323299
 30
0.0
 40
5.999999764918361
100
AcDbArc
 50
180.0
 51
0.0
  0
ARC
  5
1AE
330
1F
100
AcDbEntity
  8
通り芯
  6
Continuous
 62
     3
370
     9
100
AcDbCircle
 10
-1100.861145912672
 20
480.2705467433692
 30
0.0
 40
10.0000000920535
100
AcDbArc
 50
0.0
 51
180.0
  0
ARC
  5
1AF
330
1F
100
AcDbEntity
  8
通り芯
  6
Continuous
 62
     3
370
     9
100
AcDbCircle
 10
-1100.861145912672
 20
470.2700047323299
 30
0.0
 40
10.0000000920535
100
AcDbArc
 50
180.0
 51
0.0
  0
ARC
  5
1B0
330
1F
100
AcDbEntity
  8
通り芯
  6
Continuous
 62
     3
370
     9
100
AcDbCircle
 10
-900.8701244433786
 20
280.2805162116522
 30
0.0
 40
5.999999764918361
100
AcDbArc
 50
270.0
 51
90.0
  0
ARC
  5
1B1
330
1F
100
AcDbEntity
  8
通り芯
  6
Continuous
 62
     3
370
     9
100
AcDbCircle
 10
-910.8706664544189
 20
280.2805162116522
 30
0.0
 40
5.999999764918361
100
AcDbArc
 50
90.0
 51
270.0
  0
ARC
  5
1B2
330
1F
100
AcDbEntity
  8
通り芯
  6
Continuous
 62
     3
370
     9
100
AcDbCircle
 10
-900.8701244433786
 20
280.2805162116522
 30
0.0
 40
10.0000000920535
100
AcDbArc
 50
270.0
 51
90.0
  0
ARC
  5
1B3
330
1F
100
AcDbEntity
  8
通り芯
  6
Continuous
 62
     3
370
     9
100
AcDbCircle
 10
-910.8706664544189
 20
280.2805162116522
 30
0.0
 40
10.0000000920535
100
AcDbArc
 50
90.0
 51
270.0
  0
ARC
  5
1B4
330
1F
100
AcDbEntity
  8
通り芯
  6
Continuous
 62
     3
370
     9
100
AcDbCircle
 10
-875.8707512909297
 20
505.2709108333955
 30
0.0
 40
200.0000018410701
100
AcDbArc
 50
180.5729522705078
 51
269.4269714355469
  0
ARC
  5
1B5
330
1F
100
AcDbEntity
  8
通り芯
  6
Continuous
 62
     3
370
     9
100
AcDbCircle
 10
-943.3516183012154
 20
50.34831590133884
 30
0.0
 40
15.10000064221128
100
AcDbArc
 50
172.5792999267578
 51
350.5379028320312
  0
ARC
  5
1B6
330
1F
100
AcDbEntity
  8
通り芯
  6
Continuous
 62
     3
370
     9
100
AcDbCircle
 10
-931.0412008018938
 20
133.3403287795216
 30
0.0
 40
11.00000029480135
100
AcDbArc
 50
359.8728942871094
 51
163.2518768310547
  0
ARC
  5
1B7
330
1F
100
AcDbEntity
  8
通り芯
  6
Continuous
 62
     3
370
     9
100
AcDbCircle
 10
-931.6308086592625
 20
-60.87055381240468
 30
0.0
 40
11.12000051267359
100
AcDbArc
 50
174.4778289794922
 51
354.2626647949219
  0
ARC
  5
1B8
330
1F
100
AcDbEntity
  8
通り芯
  6
Continuous
 62
     3
370
     9
100
AcDbCircle
 10
-924.764602199246
 20
8.847850243158817
 30
0.0
 40
8.825000700573204
100
AcDbArc
 50
357.9319458007812
 51
170.7851715087891
  0
ARC
  5
1B9
330
1F
100
AcDbEntity
  8
通り芯
  6
Continuous
 62
     3
370
     9
100
AcDbCircle
 10
-899.3837180802637
 20
-67.71793245848919
 30
0.0
 40
6.53000040461658
100
AcDbArc
 50
180.4151763916016
 51
355.8419036865234
  0
ARC
  5
1BA
330
1F
100
AcDbEntity
  8
通り芯
  6
Continuous
 62
     3
370
     9
100
AcDbCircle
 10
-896.7834978823868
 20
11.71364171124544
 30
0.0
 40
4.000000085207026
100
AcDbArc
 50
11.99995422363283
 51
164.2443389892578
  0
ARC
  5
1BB
330
1F
100
AcDbEntity
  8
通り芯
  6
Continuous
 62
     3
370
     9
100
AcDbCircle
 10
-903.4089065115796
 20
41.64689305166242
 30
0.0
 40
10.56000078621978
100
AcDbArc
 50
178.0980377197266
 51
356.2801666259766
  0
ARC
  5
1BC
330
1F
100
AcDbEntity
  8
通り芯
  6
Continuous
 62
     3
370
     9
100
AcDbCircle
 10
-898.8218564750053
 20
135.016995157115
 30
0.0
 40
5.965000023943117
100
AcDbArc
 50
3.967529296874992
 51
170.4295043945312
  0
ARC
  5
1BD
330
1F
100
AcDbEntity
  8
通り芯
  6
Continuous
 62
     3
370
     9
100
AcDbCircle
 10
-968.5392695929926
 20
-56.01099594259146
 30
0.0
 40
11.12000051267359
100
AcDbArc
 50
170.7278289794922
 51
350.5126647949219
  0
ARC
  5
1BE
330
1F
100
AcDbEntity
  8
通り芯
  6
Continuous
 62
     3
370
     9
100
AcDbCircle
 10
-957.1276324745685
 20
13.10789087984752
 30
0.0
 40
8.825000700573204
100
AcDbArc
 50
354.1819458007812
 51
167.035171508789
  0
ARC
  5
1BF
330
1F
100
AcDbEntity
  8
通り芯
  6
Continuous
 62
     3
370
     9
100
AcDbCircle
 10
-1005.050364558983
 20
-48.74841445241024
 30
0.0
 40
11.12000051267359
100
AcDbArc
 50
166.9778289794922
 51
346.7626647949219
  0
ARC
  5
1C0
330
1F
100
AcDbEntity
  8
通り芯
  6
Continuous
 62
     3
370
     9
100
AcDbCircle
 10
-989.142843660922
 20
19.47664667700913
 30
0.0
 40
8.825000700573204
100
AcDbArc
 50
350.4319458007812
 51
163.2851715087891
  0
ARC
  5
1C1
330
1F
100
AcDbEntity
  8
通り芯
  6
Continuous
 62
     3
370
     9
100
AcDbCircle
 10
-1041.008516357894
 20
-39.11352840669558
 30
0.0
 40
11.12000051267359
100
AcDbArc
 50
163.2278289794922
 51
343.0126647949219
  0
ARC
  5
1C2
330
1F
100
AcDbEntity
  8
通り芯
  6
Continuous
 62
     3
370
     9
100
AcDbCircle
 10
-1020.672495435325
 20
27.92538044495707
 30
0.0
 40
8.825000700573204
100
AcDbArc
 50
346.6819458007812
 51
159.535171508789
  0
ARC
  5
1C3
330
1F
100
AcDbEntity
  8
通り芯
  6
Continuous
 62
     3
370
     9
100
AcDbCircle
 10
-1076.259138727962
 20
-27.14696624604237
 30
0.0
 40
11.12000051267359
100
AcDbArc
 50
159.4778289794922
 51
339.2626647949219
  0
ARC
  5
1C4
330
1F
100
AcDbEntity
  8
通り芯
  6
Continuous
 62
     3
370
     9
100
AcDbCircle
 10
-1051.582811225097
 20
38.41742749339922
 30
0.0
 40
8.825000700573204
100
AcDbArc
 50
342.9319458007812
 51
155.7851715087891
  0
ARC
  5
1C5
330
1F
100
AcDbEntity
  8
通り芯
  6
Continuous
 62
     3
370
     9
100
AcDbCircle
 10
-1110.651609157724
 20
-12.90124766194474
 30
0.0
 40
11.12000051267359
100
AcDbArc
 50
155.7278289794922
 51
335.5126647949219
  0
ARC
  5
1C6
330
1F
100
AcDbEntity
  8
通り芯
  6
Continuous
 62
     3
370
     9
100
AcDbCircle
 10
-1081.740014457555
 20
50.90918656902097
 30
0.0
 40
8.825000700573204
100
AcDbArc
 50
339.1819458007812
 51
152.0351715087891
  0
ARC
  5
1C7
330
1F
100
AcDbEntity
  8
通り芯
  6
Continuous
 62
     3
370
     9
100
AcDbCircle
 10
-1144.039268886022
 20
3.564171091071628
 30
0.0
 40
11.12000051267359
100
AcDbArc
 50
151.9778289794922
 51
331.7626647949219
  0
ARC
  5
1C8
330
1F
100
AcDbEntity
  8
通り芯
  6
Continuous
 62
     3
370
     9
100
AcDbCircle
 10
-1111.016274185476
 20
65.34714704274741
 30
0.0
 40
8.825000700573204
100
AcDbArc
 50
335.4319458007812
 51
148.2851715087891
  0
ARC
  5
1C9
330
1F
100
AcDbEntity
  8
通り芯
  6
Continuous
 62
     3
370
     9
100
AcDbCircle
 10
-1176.278431964418
 20
22.17695157000101
 30
0.0
 40
11.12000051267359
100
AcDbArc
 50
148.2278289794922
 51
328.0126647949219
  0
ARC
  5
1CA
330
1F
100
AcDbEntity
  8
通り芯
  6
Continuous
 62
     3
370
     9
100
AcDbCircle
 10
-1139.284750399203
 20
81.66788890975461
 30
0.0
 40
8.825000700573204
100
AcDbArc
 50
331.6819458007812
 51
144.5351715087891
  0
ARC
  5
1CB
330
1F
100
AcDbEntity
  8
通り芯
  6
Continuous
 62
     3
370
     9
100
AcDbCircle
 10
-1207.231358069932
 20
42.8598006439632
 30
0.0
 40
11.12000051267359
100
AcDbArc
 50
144.4778289794922
 51
324.2626647949219
  0
ARC
  5
1CC
330
1F
100
AcDbEntity
  8
通り芯
  6
Continuous
 62
     3
370
     9
100
AcDbCircle
 10
-1166.42653058969
 20
99.80303747733736
 30
0.0
 40
8.825000700573204
100
AcDbArc
 50
327.9319458007812
 51
140.785171508789
  0
ARC
  5
1CD
330
1F
100
AcDbEntity
  8
通り芯
  6
Continuous
 62
     3
370
     9
100
AcDbCircle
 10
-1236.765261567459
 20
65.52155205602169
 30
0.0
 40
11.12000051267359
100
AcDbArc
 50
140.7278289794922
 51
320.5126647949219
  0
ARC
  5
1CE
330
1F
100
AcDbEntity
  8
通り芯
  6
Continuous
 62
     3
370
     9
100
AcDbCircle
 10
-1192.322702247885
 20
119.6743086770392
 30
0.0
 40
8.825000700573204
100
AcDbArc
 50
324.1819458007812
 51
137.0351715087891
  0
ARC
  5
1CF
330
1F
100
AcDbEntity
  8
通り芯
  6
Continuous
 62
     3
370
     9
100
AcDbCircle
 10
-1264.753302447345
 20
90.0660848613564
 30
0.0
 40
11.12000051267359
100
AcDbArc
 50
136.9778289794922
 51
316.762664794922
  0
ARC
  5
1D0
330
1F
100
AcDbEntity
  8
通り芯
  6
Continuous
 62
     3
370
     9
100
AcDbCircle
 10
-1216.86525317807
 20
141.1974728149483
 30
0.0
 40
8.825000700573204
100
AcDbArc
 50
320.4319458007812
 51
133.2851715087891
  0
ARC
  5
1D1
330
1F
100
AcDbEntity
  8
通り芯
  6
Continuous
 62
     3
370
     9
100
AcDbCircle
 10
-1291.076568200543
 20
116.3893506145531
 30
0.0
 40
11.12000051267359
100
AcDbArc
 50
133.2278289794922
 51
313.0126647949219
  0
ARC
  5
1D2
330
1F
100
AcDbEntity
  8
通り芯
  6
Continuous
 62
     3
370
     9
100
AcDbCircle
 10
-1239.946171184526
 20
164.278390821404
 30
0.0
 40
8.825000700573204
100
AcDbArc
 50
316.6819458007812
 51
129.5351715087891
  0
ARC
  5
1D3
330
1F
100
AcDbEntity
  8
通り芯
  6
Continuous
 62
     3
370
     9
100
AcDbCircle
 10
-1315.622091943454
 20
144.3783824320156
 30
0.0
 40
11.12000051267359
100
AcDbArc
 50
129.4778289794922
 51
309.2626647949219
  0
ARC
  5
1D4
330
1F
100
AcDbEntity
  8
通り芯
  6
Continuous
 62
     3
370
     9
100
AcDbCircle
 10
-1261.469335322436
 20
188.8209417515885
 30
0.0
 40
8.825000700573204
100
AcDbArc
 50
312.9319458007814
 51
125.7851715087891
  0
ARC
  5
1D5
330
1F
100
AcDbEntity
  8
通り芯
  6
Continuous
 62
     3
370
     9
100
AcDbCircle
 10
-1338.283843355511
 20
173.9122859295424
 30
0.0
 40
11.12000051267359
100
AcDbArc
 50
125.7278289794922
 51
305.5126647949219
  0
ARC
  5
1D6
330
1F
100
AcDbEntity
  8
通り芯
  6
Continuous
 62
     3
370
     9
100
AcDbCircle
 10
-1281.340606522137
 20
214.718104347361
 30
0.0
 40
8.825000700573204
100
AcDbArc
 50
309.1819458007812
 51
122.035171508789
  0
ARC
  5
1D7
330
1F
100
AcDbEntity
  8
通り芯
  6
Continuous
 62
     3
370
     9
100
AcDbCircle
 10
-1358.966692429473
 20
204.8652120350574
 30
0.0
 40
11.12000051267359
100
AcDbArc
 50
121.9778289794922
 51
301.7626647949219
  0
ARC
  5
1D8
330
1F
100
AcDbEntity
  8
通り芯
  6
Continuous
 62
     3
370
     9
100
AcDbCircle
 10
-1299.47575508972
 20
241.858893600271
 30
0.0
 40
8.825000700573204
100
AcDbArc
 50
305.4319458007812
 51
118.2851715087891
  0
ARC
  5
1D9
330
1F
100
AcDbEntity
  8
通り芯
  6
Continuous
 62
     3
370
     9
100
AcDbCircle
 10
-1377.579472908403
 20
237.1043751134528
 30
0.0
 40
11.12000051267359
100
AcDbArc
 50
118.2278289794922
 51
298.0126647949219
  0
ARC
  5
1DA
330
1F
100
AcDbEntity
  8
通り芯
  6
Continuous
 62
     3
370
     9
100
AcDbCircle
 10
-1315.796496956726
 20
270.1273698139983
 30
0.0
 40
8.825000700573204
100
AcDbArc
 50
301.6819458007812
 51
114.535171508789
  0
ARC
  5
1DB
330
1F
100
AcDbEntity
  8
通り芯
  6
Continuous
 62
     3
370
     9
100
AcDbCircle
 10
-1394.044891661419
 20
270.4920348417489
 30
0.0
 40
11.12000051267359
100
AcDbArc
 50
114.4778289794922
 51
294.2626647949219
  0
ARC
  5
1DC
330
1F
100
AcDbEntity
  8
通り芯
  6
Continuous
 62
     3
370
     9
100
AcDbCircle
 10
-1330.234457430453
 20
299.4036295419199
 30
0.0
 40
8.825000700573204
100
AcDbArc
 50
297.9319458007812
 51
110.7851715087891
  0
ARC
  5
1DD
330
1F
100
AcDbEntity
  8
通り芯
  6
Continuous
 62
     3
370
     9
100
AcDbCircle
 10
-1408.290610245517
 20
304.8845052715126
 30
0.0
 40
11.12000051267359
100
AcDbArc
 50
110.7278289794922
 51
290.5126647949219
  0
ARC
  5
1DE
330
1F
100
AcDbEntity
  8
通り芯
  6
Continuous
 62
     3
370
     9
100
AcDbCircle
 10
-1342.726216506075
 20
329.5618237119527
 30
0.0
 40
8.825000700573204
100
AcDbArc
 50
294.1819458007812
 51
107.0351715087891
  0
ARC
  5
1DF
330
1F
100
AcDbEntity
  8
通り芯
  6
Continuous
 62
     3
370
     9
100
AcDbCircle
 10
-1420.257172406172
 20
340.1351276415801
 30
0.0
 40
11.12000051267359
100
AcDbArc
 50
106.9778289794922
 51
286.7626647949219
  0
ARC
  5
1E0
330
1F
100
AcDbEntity
  8
通り芯
  6
Continuous
 62
     3
370
     9
100
AcDbCircle
 10
-1353.218263554518
 20
360.4711485641508
 30
0.0
 40
8.825000700573204
100
AcDbArc
 50
290.4319458007812
 51
103.2851715087891
  0
ARC
  5
1E1
330
1F
100
AcDbEntity
  8
通り芯
  6
Continuous
 62
     3
370
     9
100
AcDbCircle
 10
-1429.892058451885
 20
376.0932794404915
 30
0.0
 40
11.12000051267359
100
AcDbArc
 50
103.2278289794922
 51
283.0126647949219
  0
ARC
  5
1E2
330
1F
100
AcDbEntity
  8
通り芯
  6
Continuous
 62
     3
370
     9
100
AcDbCircle
 10
-1361.666997322466
 20
392.0008003385522
 30
0.0
 40
8.825000700573204
100
AcDbArc
 50
286.6819458007812
 51
99.53517150878906
  0
ARC
  5
1E3
330
1F
100
AcDbEntity
  8
通り芯
  6
Continuous
 62
     3
370
     9
100
AcDbCircle
 10
-1437.154639942066
 20
412.6043744064817
 30
0.0
 40
11.12000051267359
100
AcDbArc
 50
99.47782897949223
 51
279.262664794922
  0
ARC
  5
1E4
330
1F
100
AcDbEntity
  8
通り芯
  6
Continuous
 62
     3
370
     9
100
AcDbCircle
 10
-1368.035753119628
 20
424.0160115249058
 30
0.0
 40
8.825000700573204
100
AcDbArc
 50
282.9319458007812
 51
95.78517150878909
  0
ARC
  5
1E5
330
1F
100
AcDbEntity
  8
通り芯
  6
Continuous
 62
     3
370
     9
100
AcDbCircle
 10
-1442.013206874303
 20
449.5128353402118
 30
0.0
 40
11.12000051267359
100
AcDbArc
 50
95.7278289794922
 51
275.5126647949219
  0
ARC
  5
1E6
330
1F
100
AcDbEntity
  8
通り芯
  6
Continuous
 62
     3
370
     9
100
AcDbCircle
 10
-1372.295793756316
 20
456.3800327378033
 30
0.0
 40
8.825000700573204
100
AcDbArc
 50
279.1819458007812
 51
92.03517150878908
  0
ARC
  5
1E7
330
1F
100
AcDbEntity
  8
通り芯
  6
Continuous
 62
     3
370
     9
100
AcDbCircle
 10
-987.6167997947908
 20
59.15279625886008
 30
0.0
 40
15.10000064221128
100
AcDbArc
 50
166.9542999267578
 51
344.9129028320312
  0
ARC
  5
1E8
330
1F
100
AcDbEntity
  8
通り芯
  6
Continuous
 62
     3
370
     9
100
AcDbCircle
 10
-967.2312319934514
 20
140.5384993273004
 30
0.0
 40
11.00000029480135
100
AcDbArc
 50
354.2478942871094
 51
157.6268768310547
  0
ARC
  5
1E9
330
1F
100
AcDbEntity
  8
通り芯
  6
Continuous
 62
     3
370
     9
100
AcDbCircle
 10
-1030.80582308147
 20
72.2539819433576
 30
0.0
 40
15.10000064221128
100
AcDbArc
 50
161.3292999267578
 51
339.2879028320312
  0
ARC
  5
1EA
330
1F
100
AcDbEntity
  8
通り芯
  6
Continuous
 62
     3
370
     9
100
AcDbCircle
 10
-1002.541310618043
 20
151.2495435799099
 30
0.0
 40
11.00000029480135
100
AcDbArc
 50
348.6228942871094
 51
152.0018768310547
  0
ARC
  5
1EB
330
1F
100
AcDbEntity
  8
通り芯
  6
Continuous
 62
     3
370
     9
100
AcDbCircle
 10
-1072.503485317157
 20
89.52503294518358
 30
0.0
 40
15.10000064221128
100
AcDbArc
 50
155.7042999267578
 51
333.6629028320312
  0
ARC
  5
1EC
330
1F
100
AcDbEntity
  8
通り芯
  6
Continuous
 62
     3
370
     9
100
AcDbCircle
 10
-1036.631545087307
 20
165.3694130919314
 30
0.0
 40
11.00000029480135
100
AcDbArc
 50
342.9978942871094
 51
146.3768768310547
  0
ARC
  5
1ED
330
1F
100
AcDbEntity
  8
通り芯
  6
Continuous
 62
     3
370
     9
100
AcDbCircle
 10
-1112.306474908659
 20
110.800462689241
 30
0.0
 40
15.10000064221128
100
AcDbArc
 50
150.0792999267578
 51
328.0379028320312
  0
ARC
  5
1EE
330
1F
100
AcDbEntity
  8
通り芯
  6
Continuous
 62
     3
370
     9
100
AcDbCircle
 10
-1069.172944126203
 20
182.763340353107
 30
0.0
 40
11.00000029480135
100
AcDbArc
 50
337.3728942871094
 51
140.7518768310547
  0
ARC
  5
1EF
330
1F
100
AcDbEntity
  8
通り芯
  6
Continuous
 62
     3
370
     9
100
AcDbCircle
 10
-1149.833280889446
 20
135.8741561598447
 30
0.0
 40
15.10000064221128
100
AcDbArc
 50
144.4542999267579
 51
322.4129028320313
  0
ARC
  5
1F0
330
1F
100
AcDbEntity
  8
通り芯
  6
Continuous
 62
     3
370
     9
100
AcDbCircle
 10
-1099.85336239848
 20
203.2628659756177
 30
0.0
 40
11.00000029480135
100
AcDbArc
 50
331.7478942871094
 51
135.1268768310547
  0
ARC
  5
1F1
330
1F
100
AcDbEntity
  8
通り芯
  6
Continuous
 62
     3
370
     9
100
AcDbCircle
 10
-1184.720229169338
 20
164.5053155261724
 30
0.0
 40
15.10000064221128
100
AcDbArc
 50
138.8292999267578
 51
316.7879028320312
  0
ARC
  5
1F2
330
1F
100
AcDbEntity
  8
通り芯
  6
Continuous
 62
     3
370
     9
100
AcDbCircle
 10
-1128.376509569087
 20
226.6707933819578
 30
0.0
 40
11.00000029480135
100
AcDbArc
 50
326.1228942871094
 51
129.5018768310547
  0
ARC
  5
1F3
330
1F
100
AcDbEntity
  8
通り芯
  6
Continuous
 62
     3
370
     9
100
AcDbCircle
 10
-1216.634364723
 20
196.4184601422597
 30
0.0
 40
15.10000064221128
100
AcDbArc
 50
133.2042999267578
 51
311.1629028320312
  0
ARC
  5
1F4
330
1F
100
AcDbEntity
  8
通り芯
  6
Continuous
 62
     3
370
     9
100
AcDbCircle
 10
-1154.468886867215
 20
252.7621797425093
 30
0.0
 40
11.00000029480135
100
AcDbArc
 50
320.4978942871094
 51
123.8768768310547
  0
ARC
  5
1F5
330
1F
100
AcDbEntity
  8
通り芯
  6
Continuous
 62
     3
370
     9
100
AcDbCircle
 10
-1245.265524089328
 20
231.3063993597269
 30
0.0
 40
15.10000064221128
100
AcDbArc
 50
127.5792999267579
 51
305.5379028320313
  0
ARC
  5
1F6
330
1F
100
AcDbEntity
  8
通り芯
  6
Continuous
 62
     3
370
     9
100
AcDbCircle
 10
-1177.876814273555
 20
281.2853269131177
 30
0.0
 40
11.00000029480135
100
AcDbArc
 50
314.8728942871094
 51
118.2518768310548
  0
ARC
  5
1F7
330
1F
100
AcDbEntity
  8
通り芯
  6
Continuous
 62
     3
370
     9
100
AcDbCircle
 10
-1270.340208497508
 20
268.8322144029383
 30
0.0
 40
15.10000064221128
100
AcDbArc
 50
121.9542999267578
 51
299.9129028320312
  0
ARC
  5
1F8
330
1F
100
AcDbEntity
  8
通り芯
  6
Continuous
 62
     3
370
     9
100
AcDbCircle
 10
-1198.376339896067
 20
311.9657451853948
 30
0.0
 40
11.00000029480135
100
AcDbArc
 50
309.2478942871094
 51
112.6268768310547
  0
ARC
  5
1F9
330
1F
100
AcDbEntity
  8
通り芯
  6
Continuous
 62
     3
370
     9
100
AcDbCircle
 10
-1291.615638241565
 20
308.6352039944416
 30
0.0
 40
15.10000064221128
100
AcDbArc
 50
116.3292999267578
 51
294.2879028320312
  0
ARC
  5
1FA
330
1F
100
AcDbEntity
  8
通り芯
  6
Continuous
 62
     3
370
     9
100
AcDbCircle
 10
-1215.770267157242
 20
344.5071442242909
 30
0.0
 40
11.00000029480135
100
AcDbArc
 50
303.6228942871094
 51
107.0018768310547
  0
ARC
  5
1FB
330
1F
100
AcDbEntity
  8
通り芯
  6
Continuous
 62
     3
370
     9
100
AcDbCircle
 10
-1308.88668924339
 20
350.3318752925532
 30
0.0
 40
15.10000064221128
100
AcDbArc
 50
110.7042999267578
 51
288.6629028320312
  0
ARC
  5
1FC
330
1F
100
AcDbEntity
  8
通り芯
  6
Continuous
 62
     3
370
     9
100
AcDbCircle
 10
-1229.891127606838
 20
378.597378693554
 30
0.0
 40
11.00000029480135
100
AcDbArc
 50
297.9978942871094
 51
101.3768768310547
  0
ARC
  5
1FD
330
1F
100
AcDbEntity
  8
通り芯
  6
Continuous
 62
     3
370
     9
100
AcDbCircle
 10
-1321.987874927889
 20
393.5208985792327
 30
0.0
 40
15.10000064221128
100
AcDbArc
 50
105.0792999267579
 51
283.0379028320312
  0
ARC
  5
1FE
330
1F
100
AcDbEntity
  8
通り芯
  6
Continuous
 62
     3
370
     9
100
AcDbCircle
 10
-1240.602171859447
 20
413.906466380571
 30
0.0
 40
11.00000029480135
100
AcDbArc
 50
292.3728942871094
 51
95.75187683105473
  0
ARC
  5
1FF
330
1F
100
AcDbEntity
  8
通り芯
  6
Continuous
 62
     3
370
     9
100
AcDbCircle
 10
-1330.793346222985
 20
437.786080072807
 30
0.0
 40
15.10000064221128
100
AcDbArc
 50
99.45429992675783
 51
277.4129028320312
  0
ARC
  5
200
330
1F
100
AcDbEntity
  8
通り芯
  6
Continuous
 62
     3
370
     9
100
AcDbCircle
 10
-1247.801333344803
 20
450.0964975721275
 30
0.0
 40
11.00000029480135
100
AcDbArc
 50
286.7478942871094
 51
90.1268768310547
  0
ARC
  5
201
330
1F
100
AcDbEntity
  8
通り芯
  6
Continuous
 62
     3
370
     9
100
AcDbCircle
 10
-1448.858603645237
 20
481.7579440440603
 30
0.0
 40
6.53000040461658
100
AcDbArc
 50
94.15809631347656
 51
269.5848236083985
  0
ARC
  5
202
330
1F
100
AcDbEntity
  8
通り芯
  6
Continuous
 62
     3
370
     9
100
AcDbCircle
 10
-1369.428020413079
 20
484.3581642419361
 30
0.0
 40
4.000000085207026
100
AcDbArc
 50
285.7556610107422
 51
78.0000457763672
  0
ARC
  5
203
330
1F
100
AcDbEntity
  8
通り芯
  6
Continuous
 62
     3
370
     9
100
AcDbCircle
 10
-1339.493778135086
 20
477.7327556127432
 30
0.0
 40
10.56000078621978
100
AcDbArc
 50
93.71983337402345
 51
271.9019622802734
  0
ARC
  5
204
330
1F
100
AcDbEntity
  8
通り芯
  6
Continuous
 62
     3
370
     9
100
AcDbCircle
 10
-1246.124666967208
 20
482.3198056493187
 30
0.0
 40
5.965000023943117
100
AcDbArc
 50
279.5704956054688
 51
86.03247070312501
  0
ARC
  5
205
330
1F
100
AcDbEntity
  8
通り芯
  6
Continuous
 62
     3
370
     9
100
AcDbCircle
 10
-912.9437078621771
 20
177.5579452694763
 30
0.0
 40
20.19899864224394
100
AcDbArc
 50
175.1592102050781
 51
353.5951232910156
  0
ARC
  5
206
330
1F
100
AcDbEntity
  8
通り芯
  6
Continuous
 62
     3
370
     9
100
AcDbCircle
 10
-906.4927042462563
 20
243.0549552537912
 30
0.0
 40
13.99999993533241
100
AcDbArc
 50
13.34574890136718
 51
155.4060974121094
  0
ARC
  5
207
330
1F
100
AcDbEntity
  8
通り芯
  6
Continuous
 62
     3
370
     9
100
AcDbCircle
 10
-970.358630981446
 20
193.7865299419707
 30
0.0
 40
24.50000061261608
100
AcDbArc
 50
162.5545043945312
 51
343.6880340576171
  0
ARC
  5
208
330
1F
100
AcDbEntity
  8
通り芯
  6
Continuous
 62
     3
370
     9
100
AcDbCircle
 10
-944.2612989954415
 20
279.8147755512094
 30
0.0
 40
15.60000025972897
100
AcDbArc
 50
350.4817352294922
 51
155.7541656494141
  0
ARC
  5
209
330
1F
100
AcDbEntity
  8
通り芯
  6
Continuous
 62
     3
370
     9
100
AcDbCircle
 10
-1029.310498280176
 20
218.2052136752293
 30
0.0
 40
24.50000061261608
100
AcDbArc
 50
151.3045043945312
 51
332.4380340576171
  0
ARC
  5
20A
330
1F
100
AcDbEntity
  8
通り芯
  6
Continuous
 62
     3
370
     9
100
AcDbCircle
 10
-986.9320619301817
 20
297.4901290838023
 30
0.0
 40
15.60000025972897
100
AcDbArc
 50
339.2317352294922
 51
144.5041656494141
  0
ARC
  5
20B
330
1F
100
AcDbEntity
  8
通り芯
  6
Continuous
 62
     3
370
     9
100
AcDbCircle
 10
-1082.36529606764
 20
253.6550144979549
 30
0.0
 40
24.50000061261608
100
AcDbArc
 50
140.0545043945312
 51
321.1880340576172
  0
ARC
  5
20C
330
1F
100
AcDbEntity
  8
通り芯
  6
Continuous
 62
     3
370
     9
100
AcDbCircle
 10
-1025.333865790055
 20
323.1494666614743
 30
0.0
 40
15.60000025972897
100
AcDbArc
 50
327.9817352294922
 51
133.2541656494141
  0
ARC
  5
20D
330
1F
100
AcDbEntity
  8
通り芯
  6
Continuous
 62
     3
370
     9
100
AcDbCircle
 10
-1127.485656688794
 20
298.7753751191088
 30
0.0
 40
24.50000061261608
100
AcDbArc
 50
128.8045043945312
 51
309.9380340576172
  0
ARC
  5
20E
330
1F
100
AcDbEntity
  8
通り芯
  6
Continuous
 62
     3
370
     9
100
AcDbCircle
 10
-1057.99219546285
 20
355.8077963342692
 30
0.0
 40
15.60000025972897
100
AcDbArc
 50
316.7317352294922
 51
122.0041656494141
  0
ARC
  5
20F
330
1F
100
AcDbEntity
  8
通り芯
  6
Continuous
 62
     3
370
     9
100
AcDbCircle
 10
-1162.936448449095
 20
351.8301729065718
 30
0.0
 40
24.50000061261608
100
AcDbArc
 50
117.5545043945313
 51
298.6880340576172
  0
ARC
  5
210
330
1F
100
AcDbEntity
  8
通り芯
  6
Continuous
 62
     3
370
     9
100
AcDbCircle
 10
-1083.651533040522
 20
394.2096001941412
 30
0.0
 40
15.60000025972897
100
AcDbArc
 50
305.4817352294922
 51
110.7541656494141
  0
ARC
  5
211
330
1F
100
AcDbEntity
  8
通り芯
  6
Continuous
 62
     3
370
     9
100
AcDbCircle
 10
-1187.355132182353
 20
410.7830311428791
 30
0.0
 40
24.50000061261608
100
AcDbArc
 50
106.3045043945312
 51
287.4380340576171
  0
ARC
  5
212
330
1F
100
AcDbEntity
  8
通り芯
  6
Continuous
 62
     3
370
     9
100
AcDbCircle
 10
-1101.325895635539
 20
436.8793721913074
 30
0.0
 40
15.60000025972897
100
AcDbArc
 50
294.2317352294922
 51
99.50416564941405
  0
ARC
  5
213
330
1F
100
AcDbEntity
  8
通り芯
  6
Continuous
 62
     3
370
     9
100
AcDbCircle
 10
-1203.583716854846
 20
468.1969633245706
 30
0.0
 40
20.19899864224394
100
AcDbArc
 50
96.40487670898438
 51
274.8407897949219
  0
ARC
  5
214
330
1F
100
AcDbEntity
  8
通り芯
  6
Continuous
 62
     3
370
     9
100
AcDbCircle
 10
-1138.086706870533
 20
474.6479669404915
 30
0.0
 40
13.99999993533241
100
AcDbArc
 50
294.5939025878906
 51
76.65425109863283
  0
LINE
  5
215
330
1F
100
AcDbEntity
  8
通り芯
  6
Continuous
 62
     3
370
     9
100
AcDbLine
 10
-275.8739043812403
 20
503.2711988062181
 30
0.0
 11
-675.8797298216365
 21
503.2711988062181
 31
0.0
  0
LINE
  5
216
330
1F
100
AcDbEntity
  8
通り芯
  6
Continuous
 62
     3
370
     9
100
AcDbLine
 10
-840.8698451898641
 20
286.2816341683379
 30
0.0
 11
-850.8703872009033
 21
286.2816341683379
 31
0.0
  0
LINE
  5
217
330
1F
100
AcDbEntity
  8
通り芯
  6
Continuous
 62
     3
370
     9
100
AcDbLine
 10
-840.8698451898641
 20
274.2813801301202
 30
0.0
 11
-850.8703872009033
 21
274.2813801301202
 31
0.0
  0
LINE
  5
218
330
1F
100
AcDbEntity
  8
通り芯
  6
JWW_CENTER1
 62
     3
370
     9
100
AcDbLine
 10
-868.0671178845733
 20
280.2805162116534
 30
0.0
 11
-822.775325062874
 21
280.2805162116534
 31
0.0
  0
LINE
  5
219
330
1F
100
AcDbEntity
  8
通り芯
  6
JWW_CENTER1
 62
     3
370
     9
100
AcDbLine
 10
-845.8701161953837
 20
262.1443767064955
 30
0.0
 11
-845.8701161953837
 21
298.0718094405689
 31
0.0
  0
LINE
  5
21A
330
1F
100
AcDbEntity
  8
通り芯
  6
Continuous
 62
     3
370
     9
100
AcDbLine
 10
-840.8698451898641
 20
270.2809651381893
 30
0.0
 11
-850.8703872009033
 21
270.2809651381893
 31
0.0
  0
LINE
  5
21B
330
1F
100
AcDbEntity
  8
通り芯
  6
Continuous
 62
     3
370
     9
100
AcDbLine
 10
-840.8698451898641
 20
290.2810582226937
 30
0.0
 11
-850.8703872009033
 21
290.2810582226937
 31
0.0
  0
LINE
  5
21C
330
1F
100
AcDbEntity
  8
通り芯
  6
Continuous
 62
     3
370
     9
100
AcDbLine
 10
-656.8804836882947
 20
470.2709956699062
 30
0.0
 11
-656.8804836882947
 21
480.2715376809466
 31
0.0
  0
LINE
  5
21D
330
1F
100
AcDbEntity
  8
通り芯
  6
Continuous
 62
     3
370
     9
100
AcDbLine
 10
-644.8802296500781
 20
470.2709956699062
 30
0.0
 11
-644.8802296500781
 21
480.2715376809466
 31
0.0
  0
LINE
  5
21E
330
1F
100
AcDbEntity
  8
通り芯
  6
JWW_CENTER1
 62
     3
370
     9
100
AcDbLine
 10
-650.8803566691864
 20
497.4682683646154
 30
0.0
 11
-650.8803566691864
 21
452.1764755429161
 31
0.0
  0
LINE
  5
21F
330
1F
100
AcDbEntity
  8
通り芯
  6
JWW_CENTER1
 62
     3
370
     9
100
AcDbLine
 10
-632.7442171640274
 20
475.2712666754269
 30
0.0
 11
-668.6706589605257
 21
475.2712666754269
 31
0.0
  0
LINE
  5
220
330
1F
100
AcDbEntity
  8
通り芯
  6
Continuous
 62
     3
370
     9
100
AcDbLine
 10
-640.8798146581472
 20
470.2709956699062
 30
0.0
 11
-640.8798146581472
 21
480.2715376809466
 31
0.0
  0
LINE
  5
221
330
1F
100
AcDbEntity
  8
通り芯
  6
Continuous
 62
     3
370
     9
100
AcDbLine
 10
-660.8808986802256
 20
470.2709956699062
 30
0.0
 11
-660.8808986802256
 21
480.2715376809466
 31
0.0
  0
LINE
  5
222
330
1F
100
AcDbEntity
  8
通り芯
  6
Continuous
 62
     3
370
     9
100
AcDbLine
 10
-873.8700483261762
 20
-94.72593607629271
 30
0.0
 11
-873.8700483261761
 21
305.2808803016786
 31
0.0
  0
LINE
  5
223
330
1F
100
AcDbEntity
  8
通り芯
  6
Continuous
 62
     3
370
     9
100
AcDbLine
 10
-422.8983215072805
 20
422.8159861210861
 30
0.0
 11
-507.109187603217
 21
439.5667948958203
 31
0.0
  0
LINE
  5
224
330
1F
100
AcDbEntity
  8
通り芯
  6
Continuous
 62
     3
370
     9
100
AcDbLine
 10
-418.46585773247
 20
452.6838355815255
 30
0.0
 11
-503.9153957976697
 21
461.1008593470604
 31
0.0
  0
LINE
  5
225
330
1F
100
AcDbEntity
  8
通り芯
  6
Continuous
 62
     3
370
     9
100
AcDbLine
 10
-311.5615302220641
 20
438.5431563804218
 30
0.0
 11
-380.3365617058358
 21
447.597353006945
 31
0.0
  0
LINE
  5
226
330
1F
100
AcDbEntity
  8
通り芯
  6
Continuous
 62
     3
370
     9
100
AcDbLine
 10
-309.3874131816148
 20
460.6252093108628
 30
0.0
 11
-378.6103484494703
 21
465.1627124686672
 31
0.0
  0
LINE
  5
227
330
1F
100
AcDbEntity
  8
通り芯
  6
Continuous
 62
     3
370
     9
100
AcDbLine
 10
-302.8353339330016
 20
475.228656359684
 30
0.0
 11
-383.399549751428
 21
480.5083717614696
 31
0.0
  0
LINE
  5
228
330
1F
100
AcDbEntity
  8
通り芯
  6
Continuous
 62
     3
370
     9
100
AcDbLine
 10
-302.4092307755751
 20
488.2713767272332
 30
0.0
 11
-383.1448787945493
 21
488.2713767272332
 31
0.0
  0
LINE
  5
229
330
1F
100
AcDbEntity
  8
通り芯
  6
Continuous
 62
     3
370
     9
100
AcDbLine
 10
-412.5975254108909
 20
467.1792704346262
 30
0.0
 11
-506.6077731900606
 21
476.4385911392594
 31
0.0
  0
LINE
  5
22A
330
1F
100
AcDbEntity
  8
通り芯
  6
Continuous
 62
     3
370
     9
100
AcDbLine
 10
-411.5619956445886
 20
488.2703857896581
 30
0.0
 11
-506.0290656460194
 21
488.2703857896581
 31
0.0
  0
LINE
  5
22B
330
1F
100
AcDbEntity
  8
通り芯
  6
Continuous
 62
     3
370
     9
100
AcDbLine
 10
-317.1345631461719
 20
401.7783813951269
 30
0.0
 11
-385.1703551986867
 21
415.3116158625039
 31
0.0
  0
LINE
  5
22C
330
1F
100
AcDbEntity
  8
通り芯
  6
Continuous
 62
     3
370
     9
100
AcDbLine
 10
-313.5206138086511
 20
423.6711652486645
 30
0.0
 11
-382.2986181051471
 21
432.7263528127639
 31
0.0
  0
LINE
  5
22D
330
1F
100
AcDbEntity
  8
通り芯
  6
Continuous
 62
     3
370
     9
100
AcDbLine
 10
-325.0997193773179
 20
365.4565555060401
 30
0.0
 11
-392.1039454138332
 21
383.4103624973227
 31
0.0
  0
LINE
  5
22E
330
1F
100
AcDbEntity
  8
通り芯
  6
Continuous
 62
     3
370
     9
100
AcDbLine
 10
-320.0617927439322
 20
387.0669221505864
 30
0.0
 11
-388.0995666715995
 21
400.6001566179634
 31
0.0
  0
LINE
  5
22F
330
1F
100
AcDbEntity
  8
通り芯
  6
Continuous
 62
     3
370
     9
100
AcDbLine
 10
-335.4233070379433
 20
329.7332559125016
 30
0.0
 11
-401.1105770367368
 21
352.0313332343824
 31
0.0
  0
LINE
  5
230
330
1F
100
AcDbEntity
  8
通り芯
  6
Continuous
 62
     3
370
     9
100
AcDbLine
 10
-328.982212797776
 20
350.9680572159675
 30
0.0
 11
-395.9904025845918
 21
368.9228551448252
 31
0.0
  0
LINE
  5
231
330
1F
100
AcDbEntity
  8
通り芯
  6
Continuous
 62
     3
370
     9
100
AcDbLine
 10
-348.0607339371483
 20
294.7620779386989
 30
0.0
 11
-412.1496216268048
 21
321.3083046463635
 31
0.0
  0
LINE
  5
232
330
1F
100
AcDbEntity
  8
通り芯
  6
Continuous
 62
     3
370
     9
100
AcDbLine
 10
-340.2452092798882
 20
315.5301476441468
 30
0.0
 11
-405.9354520914081
 21
337.8282249660276
 31
0.0
  0
LINE
  5
233
330
1F
100
AcDbEntity
  8
通り芯
  6
Continuous
 62
     3
370
     9
100
AcDbLine
 10
-362.9594803834431
 20
260.6926531585191
 30
0.0
 11
-425.1735141804221
 21
291.3730714307951
 31
0.0
  0
LINE
  5
234
330
1F
100
AcDbEntity
  8
通り芯
  6
Continuous
 62
     3
370
     9
100
AcDbLine
 10
-353.802226249075
 20
280.9048068841616
 30
0.0
 11
-417.8930958138841
 21
307.4520245294025
 31
0.0
  0
LINE
  5
235
330
1F
100
AcDbEntity
  8
通り芯
  6
Continuous
 62
     3
370
     9
100
AcDbLine
 10
-380.0531535592683
 20
227.6696584579736
 30
0.0
 11
-440.1287440685138
 21
262.3544554724822
 31
0.0
  0
LINE
  5
236
330
1F
100
AcDbEntity
  8
通り芯
  6
Continuous
 62
     3
370
     9
100
AcDbLine
 10
-369.5938074508132
 20
247.2396846347499
 30
0.0
 11
-431.811804998095
 21
277.9220847821773
 31
0.0
  0
LINE
  5
237
330
1F
100
AcDbEntity
  8
通り芯
  6
Continuous
 62
     3
370
     9
100
AcDbLine
 10
-399.2713968967752
 20
195.8367797854953
 30
0.0
 11
-456.9489184735272
 21
234.3753330307744
 31
0.0
  0
LINE
  5
238
330
1F
100
AcDbEntity
  8
通り芯
  6
Continuous
 62
     3
370
     9
100
AcDbLine
 10
-387.554551005124
 20
214.6804487194959
 30
0.0
 11
-447.6321233895197
 21
249.3652457340057
 31
0.0
  0
LINE
  5
239
330
1F
100
AcDbEntity
  8
通り芯
  6
Continuous
 62
     3
370
     9
100
AcDbLine
 10
-420.5299807020498
 20
165.3277937137648
 30
0.0
 11
-475.5636808276092
 21
207.556598489872
 31
0.0
  0
LINE
  5
23A
330
1F
100
AcDbEntity
  8
通り芯
  6
Continuous
 62
     3
370
     9
100
AcDbLine
 10
-407.6051819059746
 20
183.3648394613817
 30
0.0
 11
-465.2856762954531
 21
221.9053745818121
 31
0.0
  0
LINE
  5
23B
330
1F
100
AcDbEntity
  8
通り芯
  6
Continuous
 62
     3
370
     9
100
AcDbLine
 10
-443.7377387181579
 20
136.2744949403123
 30
0.0
 11
-495.8917742495743
 21
182.0122096709474
 31
0.0
  0
LINE
  5
23C
330
1F
100
AcDbEntity
  8
通り芯
  6
Continuous
 62
     3
370
     9
100
AcDbLine
 10
-429.6614704594555
 20
153.4276243706631
 30
0.0
 11
-484.6981433977391
 21
195.6584110219217
 31
0.0
  0
LINE
  5
23D
330
1F
100
AcDbEntity
  8
通り芯
  6
Continuous
 62
     3
370
     9
100
AcDbLine
 10
-468.7965681251314
 20
108.8017415996387
 30
0.0
 11
-517.8479781079393
 21
157.8521606448703
 31
0.0
  0
LINE
  5
23E
330
1F
100
AcDbEntity
  8
通り芯
  6
Continuous
 62
     3
370
     9
100
AcDbLine
 10
-453.6282866583276
 20
124.9976253321438
 30
0.0
 11
-505.7852950024705
 21
170.7373219379292
 31
0.0
  0
LINE
  5
23F
330
1F
100
AcDbEntity
  8
通り芯
  6
Continuous
 62
     3
370
     9
100
AcDbLine
 10
-495.5984567272532
 20
83.02646432564416
 30
0.0
 11
-541.3361714578862
 21
135.1804998570594
 31
0.0
  0
LINE
  5
240
330
1F
100
AcDbEntity
  8
通り芯
  6
Continuous
 62
     3
370
     9
100
AcDbLine
 10
-479.4035639323221
 20
98.1957367300231
 30
0.0
 11
-528.4569557902803
 21
147.2491285879812
 31
0.0
  0
LINE
  5
241
330
1F
100
AcDbEntity
  8
通り芯
  6
Continuous
 62
     3
370
     9
100
AcDbLine
 10
-524.0294467033466
 20
59.05964812677212
 30
0.0
 11
-566.2582514794536
 21
114.0933482523303
 31
0.0
  0
LINE
  5
242
330
1F
100
AcDbEntity
  8
通り芯
  6
Continuous
 62
     3
370
     9
100
AcDbLine
 10
-506.8773082105719
 20
73.13690732304963
 30
0.0
 11
-552.6170048163574
 21
125.2929247296163
 31
0.0
  0
LINE
  5
243
330
1F
100
AcDbEntity
  8
通り芯
  6
Continuous
 62
     3
370
     9
100
AcDbLine
 10
-553.9656708564901
 20
37.00335957329116
 30
0.0
 11
-592.5052150393441
 21
94.68088115004328
 31
0.0
  0
LINE
  5
244
330
1F
100
AcDbEntity
  8
通り芯
  6
Continuous
 62
     3
370
     9
100
AcDbLine
 10
-535.9296160464494
 20
49.92815836936643
 30
0.0
 11
-578.1604026977067
 21
104.9648313076511
 31
0.0
  0
LINE
  5
245
330
1F
100
AcDbEntity
  8
通り芯
  6
Continuous
 62
     3
370
     9
100
AcDbLine
 10
-585.2812801146054
 20
16.95173773486431
 30
0.0
 11
-619.9660771291138
 21
77.02732824410994
 31
0.0
  0
LINE
  5
246
330
1F
100
AcDbEntity
  8
通り芯
  6
Continuous
 62
     3
370
     9
100
AcDbLine
 10
-566.4386021181788
 20
28.66957456409068
 30
0.0
 11
-604.979137238609
 21
86.3500689535693
 31
0.0
  0
LINE
  5
247
330
1F
100
AcDbEntity
  8
通り芯
  6
Continuous
 62
     3
370
     9
100
AcDbLine
 10
-617.8415069674345
 20
-1.008014881870096
 30
0.0
 11
-648.5219252397093
 21
61.20700985268634
 31
0.0
  0
LINE
  5
248
330
1F
100
AcDbEntity
  8
通り芯
  6
Continuous
 62
     3
370
     9
100
AcDbLine
 10
-598.2724717282333
 20
9.452322164160094
 30
0.0
 11
-632.9582596803159
 21
69.5298945485559
 31
0.0
  0
LINE
  5
249
330
1F
100
AcDbEntity
  8
通り芯
  6
Continuous
 62
     3
370
     9
100
AcDbLine
 10
-651.505638279271
 20
-16.80058702118224
 30
0.0
 11
-678.0518649869356
 21
47.28730973089803
 31
0.0
  0
LINE
  5
24A
330
1F
100
AcDbEntity
  8
通り芯
  6
Continuous
 62
     3
370
     9
100
AcDbLine
 10
-631.2944754912025
 20
-7.642341949242493
 30
0.0
 11
-661.9768756386298
 21
54.57565559804046
 31
0.0
  0
LINE
  5
24B
330
1F
100
AcDbEntity
  8
通り芯
  6
Continuous
 62
     3
370
     9
100
AcDbLine
 10
-686.1319699768302
 20
-30.35661305279511
 30
0.0
 11
-708.4290563611358
 21
35.33065694599834
 31
0.0
  0
LINE
  5
24C
330
1F
100
AcDbEntity
  8
通り芯
  6
Continuous
 62
     3
370
     9
100
AcDbLine
 10
-665.3639002713822
 20
-22.54009745795877
 30
0.0
 11
-691.9121088541971
 21
41.55077210684802
 31
0.0
  0
LINE
  5
24D
330
1F
100
AcDbEntity
  8
通り芯
  6
Continuous
 62
     3
370
     9
100
AcDbLine
 10
-721.5698795486497
 20
-41.61960953490727
 30
0.0
 11
-739.5236865399335
 21
25.3856074391809
 31
0.0
  0
LINE
  5
24E
330
1F
100
AcDbEntity
  8
通り芯
  6
Continuous
 62
     3
370
     9
100
AcDbLine
 10
-700.3360691827612
 20
-35.17752435716595
 30
0.0
 11
-722.6341465046409
 21
30.51172751677889
 31
0.0
  0
LINE
  5
24F
330
1F
100
AcDbEntity
  8
通り芯
  6
Continuous
 62
     3
370
     9
100
AcDbLine
 10
-757.6677535456935
 20
-50.54102052632508
 30
0.0
 11
-771.2009880130728
 21
17.49477152618972
 31
0.0
  0
LINE
  5
250
330
1F
100
AcDbEntity
  8
通り芯
  6
Continuous
 62
     3
370
     9
100
AcDbLine
 10
-736.0583778387246
 20
-45.50210295536537
 30
0.0
 11
-754.0131757675823
 21
21.50608683145045
 31
0.0
  0
LINE
  5
251
330
1F
100
AcDbEntity
  8
通り芯
  6
Continuous
 62
     3
370
     9
100
AcDbLine
 10
-794.272987581349
 20
-57.08219946160845
 30
0.0
 11
-803.3271842078722
 21
11.69283202216327
 31
0.0
  0
LINE
  5
252
330
1F
100
AcDbEntity
  8
通り芯
  6
Continuous
 62
     3
370
     9
100
AcDbLine
 10
-772.3802037278102
 20
-53.46725918651138
 30
0.0
 11
-785.9134381951873
 21
14.57150567872993
 31
0.0
  0
LINE
  5
253
330
1F
100
AcDbEntity
  8
通り芯
  6
Continuous
 62
     3
370
     9
100
AcDbLine
 10
-831.2270316435462
 20
-61.21440915106852
 30
0.0
 11
-835.7645348013494
 21
8.00456236648536
 31
0.0
  0
LINE
  5
254
330
1F
100
AcDbEntity
  8
通り芯
  6
Continuous
 62
     3
370
     9
100
AcDbLine
 10
-809.1449787131052
 20
-59.03930117304519
 30
0.0
 11
-818.2001662772046
 21
9.738703123454187
 31
0.0
  0
LINE
  5
255
330
1F
100
AcDbEntity
  8
通り芯
  6
Continuous
 62
     3
370
     9
100
AcDbLine
 10
-433.1614619758039
 20
378.81439402257
 30
0.0
 11
-515.3250510409435
 21
403.7384559192879
 31
0.0
  0
LINE
  5
256
330
1F
100
AcDbEntity
  8
通り芯
  6
Continuous
 62
     3
370
     9
100
AcDbLine
 10
-425.8225782923165
 20
408.1035359389705
 30
0.0
 11
-510.0354262634033
 21
424.8553356512798
 31
0.0
  0
LINE
  5
257
330
1F
100
AcDbEntity
  8
通り芯
  6
Continuous
 62
     3
370
     9
100
AcDbLine
 10
-437.5136598070054
 20
364.4596723051768
 30
0.0
 11
-519.6792307472953
 21
389.384725139471
 31
0.0
  0
LINE
  5
258
330
1F
100
AcDbEntity
  8
通り芯
  6
Continuous
 62
     3
370
     9
100
AcDbLine
 10
-466.3380520005381
 20
294.8760357598713
 30
0.0
 11
-542.0605468255127
 21
335.3508810275014
 31
0.0
  0
LINE
  5
259
330
1F
100
AcDbEntity
  8
通り芯
  6
Continuous
 62
     3
370
     9
100
AcDbLine
 10
-453.4261353929429
 20
322.1714112745452
 30
0.0
 11
-532.7526701796825
 21
355.0299103375733
 31
0.0
  0
LINE
  5
25A
330
1F
100
AcDbEntity
  8
通り芯
  6
Continuous
 62
     3
370
     9
100
AcDbLine
 10
-488.9314287198914
 20
255.7478746572224
 30
0.0
 11
-560.3225354027478
 21
303.4496276623202
 31
0.0
  0
LINE
  5
25B
330
1F
100
AcDbEntity
  8
通り芯
  6
Continuous
 62
     3
370
     9
100
AcDbLine
 10
-473.4064097259403
 20
281.6460281905689
 30
0.0
 11
-549.1308864260628
 21
322.1218643957753
 31
0.0
  0
LINE
  5
25C
330
1F
100
AcDbEntity
  8
通り芯
  6
Continuous
 62
     3
370
     9
100
AcDbLine
 10
-515.2527125979378
 20
219.0227371749438
 30
0.0
 11
-581.6237295237653
 21
273.4925938200934
 31
0.0
  0
LINE
  5
25D
330
1F
100
AcDbEntity
  8
通り芯
  6
Continuous
 62
     3
370
     9
100
AcDbLine
 10
-497.2632318539405
 20
243.2749433955337
 30
0.0
 11
-568.6563204119471
 21
290.9776873382066
 31
0.0
  0
LINE
  5
25E
330
1F
100
AcDbEntity
  8
通り芯
  6
Continuous
 62
     3
370
     9
100
AcDbLine
 10
-545.0462417402225
 20
185.0543880274563
 30
0.0
 11
-605.7590051104563
 21
245.7681423352665
 31
0.0
  0
LINE
  5
25F
330
1F
100
AcDbEntity
  8
通り芯
  6
Continuous
 62
     3
370
     9
100
AcDbLine
 10
-524.7667042594533
 20
207.4267856674931
 30
0.0
 11
-591.1397030604309
 21
261.8976332502189
 31
0.0
  0
LINE
  5
260
330
1F
100
AcDbEntity
  8
通り芯
  6
Continuous
 62
     3
370
     9
100
AcDbLine
 10
-578.0246442498748
 20
154.1698366146454
 30
0.0
 11
-632.4945008950255
 21
220.541844478048
 31
0.0
  0
LINE
  5
261
330
1F
100
AcDbEntity
  8
通り芯
  6
Continuous
 62
     3
370
     9
100
AcDbLine
 10
-555.6502647346867
 20
174.4464012826904
 30
0.0
 11
-616.3650099800731
 21
235.1611465280747
 31
0.0
  0
LINE
  5
262
330
1F
100
AcDbEntity
  8
通り芯
  6
Continuous
 62
     3
370
     9
100
AcDbLine
 10
-613.8728019779165
 20
126.6673551467102
 30
0.0
 11
-661.5745549830132
 21
198.0584618295655
 31
0.0
  0
LINE
  5
263
330
1F
100
AcDbEntity
  8
通り芯
  6
Continuous
 62
     3
370
     9
100
AcDbLine
 10
-589.6186138821741
 20
144.6528721404059
 30
0.0
 11
-644.0894614649011
 21
211.0258709413836
 31
0.0
  0
LINE
  5
264
330
1F
100
AcDbEntity
  8
通り芯
  6
Continuous
 62
     3
370
     9
100
AcDbLine
 10
-652.2438867729517
 20
102.8095420811338
 30
0.0
 11
-692.7187320405807
 21
178.5330278436823
 31
0.0
  0
LINE
  5
265
330
1F
100
AcDbEntity
  8
通り芯
  6
Continuous
 62
     3
370
     9
100
AcDbLine
 10
-626.3437513644527
 20
118.3315882623595
 30
0.0
 11
-674.0464953071279
 21
189.724676820365
 31
0.0
  0
LINE
  5
266
330
1F
100
AcDbEntity
  8
通り芯
  6
Continuous
 62
     3
370
     9
100
AcDbLine
 10
-692.7682789193528
 20
82.82926774813753
 30
0.0
 11
-725.6267779823798
 21
162.1548115973019
 31
0.0
  0
LINE
  5
267
330
1F
100
AcDbEntity
  8
通り芯
  6
Continuous
 62
     3
370
     9
100
AcDbLine
 10
-665.4719124671016
 20
95.73722060543112
 30
0.0
 11
-705.9467577347328
 21
171.4616973055548
 31
0.0
  0
LINE
  5
268
330
1F
100
AcDbEntity
  8
通り芯
  6
Continuous
 62
     3
370
     9
100
AcDbLine
 10
-735.0565399499834
 20
66.91580122462376
 30
0.0
 11
-759.9806018467012
 21
149.0803812273385
 31
0.0
  0
LINE
  5
269
330
1F
100
AcDbEntity
  8
通り芯
  6
Continuous
 62
     3
370
     9
100
AcDbLine
 10
-706.6255499738901
 20
77.08678449863449
 30
0.0
 11
-739.4840490369171
 21
156.4143102229503
 31
0.0
  0
LINE
  5
26A
330
1F
100
AcDbEntity
  8
通り芯
  6
Continuous
 62
     3
370
     9
100
AcDbLine
 10
-778.7004035837759
 20
55.22471970993372
 30
0.0
 11
-795.4512123585124
 21
139.4365767434466
 31
0.0
  0
LINE
  5
26B
330
1F
100
AcDbEntity
  8
通り芯
  6
Continuous
 62
     3
370
     9
100
AcDbLine
 10
-749.4102707298003
 20
62.55963964312066
 30
0.0
 11
-774.3343326265182
 21
144.7262015209868
 31
0.0
  0
LINE
  5
26C
330
1F
100
AcDbEntity
  8
通り芯
  6
Continuous
 62
     3
370
     9
100
AcDbLine
 10
-823.2807032263332
 20
47.86799915008835
 30
0.0
 11
-831.6967360542918
 21
133.3165462777129
 31
0.0
  0
LINE
  5
26D
330
1F
100
AcDbEntity
  8
通り芯
  6
Continuous
 62
     3
370
     9
100
AcDbLine
 10
-793.4118628283164
 20
52.29649917459717
 30
0.0
 11
-810.1626716030506
 21
136.5103380832603
 31
0.0
  0
LINE
  5
26E
330
1F
100
AcDbEntity
  8
通り芯
  6
Continuous
 62
     3
370
     9
100
AcDbLine
 10
-845.8275058796409
 20
-67.76450652453143
 30
0.0
 11
-851.1082122190015
 21
12.79970929389613
 31
0.0
  0
LINE
  5
26F
330
1F
100
AcDbEntity
  8
通り芯
  6
Continuous
 62
     3
370
     9
100
AcDbLine
 10
-858.8702262471912
 20
-68.19060968195792
 30
0.0
 11
-858.8702262471912
 21
12.54503833701513
 31
0.0
  0
LINE
  5
270
330
1F
100
AcDbEntity
  8
通り芯
  6
Continuous
 62
     3
370
     9
100
AcDbLine
 10
-837.7781199545831
 20
41.99768495335896
 30
0.0
 11
-847.0374406592174
 21
136.0089236701027
 31
0.0
  0
LINE
  5
271
330
1F
100
AcDbEntity
  8
通り芯
  6
Continuous
 62
     3
370
     9
100
AcDbLine
 10
-858.8702262471912
 20
40.96215518705442
 30
0.0
 11
-858.8702262471912
 21
135.4292251884875
 31
0.0
  0
LINE
  5
272
330
1F
100
AcDbEntity
  8
通り芯
  6
Continuous
 62
     3
370
     9
100
AcDbLine
 10
-447.6876158937426
 20
336.0296732666575
 30
0.0
 11
-527.0131597429082
 21
368.8881723296857
 31
0.0
  0
LINE
  5
273
330
1F
100
AcDbEntity
  8
通り芯
  6
Continuous
 62
     3
370
     9
100
AcDbLine
 10
-545.9043936805284
 20
488.2703857896581
 30
0.0
 11
-616.8862431447388
 21
488.2703857896582
 31
0.0
  0
LINE
  5
274
330
1F
100
AcDbEntity
  8
通り芯
  6
Continuous
 62
     3
370
     9
100
AcDbLine
 10
-549.8621983567165
 20
448.0710211679912
 30
0.0
 11
-619.4815086547379
 21
461.9193737843489
 31
0.0
  0
LINE
  5
275
330
1F
100
AcDbEntity
  8
通り芯
  6
Continuous
 62
     3
370
     9
100
AcDbLine
 10
-571.7311997084454
 20
387.4107774892537
 30
0.0
 11
-656.8210274337713
 21
422.6564451714444
 31
0.0
  0
LINE
  5
276
330
1F
100
AcDbEntity
  8
通り芯
  6
Continuous
 62
     3
370
     9
100
AcDbLine
 10
-557.5052998758548
 20
434.2969888697883
 30
0.0
 11
-647.835205499951
 21
452.2656599247023
 31
0.0
  0
LINE
  5
277
330
1F
100
AcDbEntity
  8
通り芯
  6
Continuous
 62
     3
370
     9
100
AcDbLine
 10
-600.5684740904582
 20
330.3407006462272
 30
0.0
 11
-677.1481299181602
 21
381.5087532901101
 31
0.0
  0
LINE
  5
278
330
1F
100
AcDbEntity
  8
通り芯
  6
Continuous
 62
     3
370
     9
100
AcDbLine
 10
-577.4687282700694
 20
373.5515245595662
 30
0.0
 11
-662.5575650578213
 21
408.7962013041818
 31
0.0
  0
LINE
  5
279
330
1F
100
AcDbEntity
  8
通り芯
  6
Continuous
 62
     3
370
     9
100
AcDbLine
 10
-639.9859889651253
 20
279.9931443147842
 30
0.0
 11
-705.1104064210864
 21
345.1185527083204
 31
0.0
  0
LINE
  5
27A
330
1F
100
AcDbEntity
  8
通り芯
  6
Continuous
 62
     3
370
     9
100
AcDbLine
 10
-608.899286286931
 20
317.8667784469633
 30
0.0
 11
-685.477951177059
 21
369.0348310908462
 31
0.0
  0
LINE
  5
27B
330
1F
100
AcDbEntity
  8
通り芯
  6
Continuous
 62
     3
370
     9
100
AcDbLine
 10
-688.4676098420715
 20
238.3024186421256
 30
0.0
 11
-739.6366534235295
 21
314.8820744698276
 31
0.0
  0
LINE
  5
27C
330
1F
100
AcDbEntity
  8
通り芯
  6
Continuous
 62
     3
370
     9
100
AcDbLine
 10
-650.5900119595918
 20
269.3841666324432
 30
0.0
 11
-715.7144294155506
 21
334.5085840884031
 31
0.0
  0
LINE
  5
27D
330
1F
100
AcDbEntity
  8
通り芯
  6
Continuous
 62
     3
370
     9
100
AcDbLine
 10
-744.1513650170992
 20
206.871860625264
 30
0.0
 11
-779.39703269929
 21
291.962679288165
 31
0.0
  0
LINE
  5
27E
330
1F
100
AcDbEntity
  8
通り芯
  6
Continuous
 62
     3
370
     9
100
AcDbLine
 10
-700.9375682910337
 20
229.9666517577748
 30
0.0
 11
-752.1056209349177
 21
306.5453166479018
 31
0.0
  0
LINE
  5
27F
330
1F
100
AcDbEntity
  8
通り芯
  6
Continuous
 62
     3
370
     9
100
AcDbLine
 10
-804.8968293273225
 20
186.9084322310494
 30
0.0
 11
-822.8655003822342
 21
277.2403197302947
 31
0.0
  0
LINE
  5
280
330
1F
100
AcDbEntity
  8
通り芯
  6
Continuous
 62
     3
370
     9
100
AcDbLine
 10
-758.0086360716365
 20
201.1283864381858
 30
0.0
 11
-793.253312816251
 21
286.2182141635117
 31
0.0
  0
LINE
  5
281
330
1F
100
AcDbEntity
  8
通り芯
  6
Continuous
 62
     3
370
     9
100
AcDbLine
 10
-858.8702262471912
 20
175.3045532229954
 30
0.0
 11
-858.8702262471912
 21
246.2873936247809
 31
0.0
  0
LINE
  5
282
330
1F
100
AcDbEntity
  8
通り芯
  6
Continuous
 62
     3
370
     9
100
AcDbLine
 10
-818.669870687948
 20
179.2623578991834
 30
0.0
 11
-832.5182233043057
 21
248.8816681972049
 31
0.0
  0
ARC
  5
283
330
1F
100
AcDbEntity
  8
通り芯
  6
Continuous
 62
     3
370
     9
100
AcDbCircle
 10
-875.8707512909297
 20
505.2709108333955
 30
0.0
 40
600.0000055232103
100
AcDbArc
 50
270.1909790039062
 51
359.8089904785156
  0
ARC
  5
284
330
1F
100
AcDbEntity
  8
通り芯
  6
Continuous
 62
     3
370
     9
100
AcDbCircle
 10
-850.8703872009033
 20
280.2805162116534
 30
0.0
 40
5.999999764918361
100
AcDbArc
 50
90.0
 51
270.0
  0
ARC
  5
285
330
1F
100
AcDbEntity
  8
通り芯
  6
Continuous
 62
     3
370
     9
100
AcDbCircle
 10
-840.8698451898641
 20
280.2805162116534
 30
0.0
 40
5.999999764918361
100
AcDbArc
 50
270.0
 51
90.0
  0
ARC
  5
286
330
1F
100
AcDbEntity
  8
通り芯
  6
Continuous
 62
     3
370
     9
100
AcDbCircle
 10
-850.8703872009033
 20
280.2805162116534
 30
0.0
 40
10.0000000920535
100
AcDbArc
 50
90.0
 51
270.0
  0
ARC
  5
287
330
1F
100
AcDbEntity
  8
通り芯
  6
Continuous
 62
     3
370
     9
100
AcDbCircle
 10
-840.8698451898641
 20
280.2805162116534
 30
0.0
 40
10.0000000920535
100
AcDbArc
 50
270.0
 51
90.0
  0
ARC
  5
288
330
1F
100
AcDbEntity
  8
通り芯
  6
Continuous
 62
     3
370
     9
100
AcDbCircle
 10
-650.8803566691864
 20
480.2715376809466
 30
0.0
 40
5.999999764918361
100
AcDbArc
 50
0.0
 51
180.0
  0
ARC
  5
289
330
1F
100
AcDbEntity
  8
通り芯
  6
Continuous
 62
     3
370
     9
100
AcDbCircle
 10
-650.8803566691864
 20
470.2709956699062
 30
0.0
 40
5.999999764918361
100
AcDbArc
 50
180.0
 51
0.0
  0
ARC
  5
28A
330
1F
100
AcDbEntity
  8
通り芯
  6
Continuous
 62
     3
370
     9
100
AcDbCircle
 10
-650.8803566691864
 20
480.2715376809466
 30
0.0
 40
10.0000000920535
100
AcDbArc
 50
0.0
 51
180.0
  0
ARC
  5
28B
330
1F
100
AcDbEntity
  8
通り芯
  6
Continuous
 62
     3
370
     9
100
AcDbCircle
 10
-650.8803566691864
 20
470.2709956699062
 30
0.0
 40
10.0000000920535
100
AcDbArc
 50
180.0
 51
0.0
  0
ARC
  5
28C
330
1F
100
AcDbEntity
  8
通り芯
  6
Continuous
 62
     3
370
     9
100
AcDbCircle
 10
-875.8707512909297
 20
505.2709108333955
 30
0.0
 40
200.0000018410701
100
AcDbArc
 50
270.5729522705078
 51
359.4269714355469
  0
ARC
  5
28D
330
1F
100
AcDbEntity
  8
通り芯
  6
Continuous
 62
     3
370
     9
100
AcDbCircle
 10
-420.948156358873
 20
437.7900438231097
 30
0.0
 40
15.10000064221128
100
AcDbArc
 50
262.5792999267578
 51
80.53790283203125
  0
ARC
  5
28E
330
1F
100
AcDbEntity
  8
通り芯
  6
Continuous
 62
     3
370
     9
100
AcDbCircle
 10
-503.9401692370558
 20
450.1004613224313
 30
0.0
 40
11.00000029480135
100
AcDbArc
 50
89.87289428710939
 51
253.2518768310547
  0
ARC
  5
28F
330
1F
100
AcDbEntity
  8
通り芯
  6
Continuous
 62
     3
370
     9
100
AcDbCircle
 10
-309.7292866451295
 20
449.5108534650626
 30
0.0
 40
11.12000051267359
100
AcDbArc
 50
264.4778289794922
 51
84.26266479492188
  0
ARC
  5
290
330
1F
100
AcDbEntity
  8
通り芯
  6
Continuous
 62
     3
370
     9
100
AcDbCircle
 10
-379.447690700693
 20
456.377059925079
 30
0.0
 40
8.825000700573204
100
AcDbArc
 50
87.93194580078124
 51
260.7851715087891
  0
ARC
  5
291
330
1F
100
AcDbEntity
  8
通り芯
  6
Continuous
 62
     3
370
     9
100
AcDbCircle
 10
-302.881907999045
 20
481.7579440440613
 30
0.0
 40
6.53000040461658
100
AcDbArc
 50
270.4151763916016
 51
85.84190368652344
  0
ARC
  5
292
330
1F
100
AcDbEntity
  8
通り芯
  6
Continuous
 62
     3
370
     9
100
AcDbCircle
 10
-382.3134821687796
 20
484.3581642419383
 30
0.0
 40
4.000000085207026
100
AcDbArc
 50
101.9999542236328
 51
254.2443389892578
  0
ARC
  5
293
330
1F
100
AcDbEntity
  8
通り芯
  6
Continuous
 62
     3
370
     9
100
AcDbCircle
 10
-412.2467335091966
 20
477.7327556127454
 30
0.0
 40
10.56000078621978
100
AcDbArc
 50
268.0980377197266
 51
86.28016662597656
  0
ARC
  5
294
330
1F
100
AcDbEntity
  8
通り芯
  6
Continuous
 62
     3
370
     9
100
AcDbCircle
 10
-505.6168356146492
 20
482.3198056493197
 30
0.0
 40
5.965000023943117
100
AcDbArc
 50
93.96752929687499
 51
260.4295043945312
  0
ARC
  5
295
330
1F
100
AcDbEntity
  8
通り芯
  6
Continuous
 62
     3
370
     9
100
AcDbCircle
 10
-314.5888445149427
 20
412.6023925313325
 30
0.0
 40
11.12000051267359
100
AcDbArc
 50
260.7278289794921
 51
80.51266479492188
  0
ARC
  5
296
330
1F
100
AcDbEntity
  8
通り芯
  6
Continuous
 62
     3
370
     9
100
AcDbCircle
 10
-383.7077313373817
 20
424.0140296497566
 30
0.0
 40
8.825000700573204
100
AcDbArc
 50
84.18194580078122
 51
257.0351715087891
  0
ARC
  5
297
330
1F
100
AcDbEntity
  8
通り芯
  6
Continuous
 62
     3
370
     9
100
AcDbCircle
 10
-321.8514260051239
 20
376.0912975653423
 30
0.0
 40
11.12000051267359
100
AcDbArc
 50
256.9778289794922
 51
76.76266479492193
  0
ARC
  5
298
330
1F
100
AcDbEntity
  8
通り芯
  6
Continuous
 62
     3
370
     9
100
AcDbCircle
 10
-390.0764871345433
 20
391.998818463403
 30
0.0
 40
8.825000700573204
100
AcDbArc
 50
80.43194580078125
 51
253.285171508789
  0
ARC
  5
299
330
1F
100
AcDbEntity
  8
通り芯
  6
Continuous
 62
     3
370
     9
100
AcDbCircle
 10
-331.4863120508386
 20
340.133145766431
 30
0.0
 40
11.12000051267359
100
AcDbArc
 50
253.2278289794922
 51
73.01266479492193
  0
ARC
  5
29A
330
1F
100
AcDbEntity
  8
通り芯
  6
Continuous
 62
     3
370
     9
100
AcDbCircle
 10
-398.5252209024912
 20
360.4691666890005
 30
0.0
 40
8.825000700573204
100
AcDbArc
 50
76.68194580078122
 51
249.535171508789
  0
ARC
  5
29B
330
1F
100
AcDbEntity
  8
通り芯
  6
Continuous
 62
     3
370
     9
100
AcDbCircle
 10
-343.4528742114918
 20
304.8825233963635
 30
0.0
 40
11.12000051267359
100
AcDbArc
 50
249.4778289794922
 51
69.26266479492188
  0
ARC
  5
29C
330
1F
100
AcDbEntity
  8
通り芯
  6
Continuous
 62
     3
370
     9
100
AcDbCircle
 10
-409.0172679509334
 20
329.5588508992284
 30
0.0
 40
8.825000700573204
100
AcDbArc
 50
72.93194580078125
 51
245.7851715087891
  0
ARC
  5
29D
330
1F
100
AcDbEntity
  8
通り芯
  6
Continuous
 62
     3
370
     9
100
AcDbCircle
 10
-357.6985927955894
 20
270.4900529666008
 30
0.0
 40
11.12000051267359
100
AcDbArc
 50
245.7278289794922
 51
65.51266479492188
  0
ARC
  5
29E
330
1F
100
AcDbEntity
  8
通り芯
  6
Continuous
 62
     3
370
     9
100
AcDbCircle
 10
-421.5090270265551
 20
299.4016476667696
 30
0.0
 40
8.825000700573204
100
AcDbArc
 50
69.18194580078124
 51
242.0351715087891
  0
ARC
  5
29F
330
1F
100
AcDbEntity
  8
通り芯
  6
Continuous
 62
     3
370
     9
100
AcDbCircle
 10
-374.1640115486058
 20
237.1023932383036
 30
0.0
 40
11.12000051267359
100
AcDbArc
 50
241.9778289794922
 51
61.76266479492193
  0
ARC
  5
2A0
330
1F
100
AcDbEntity
  8
通り芯
  6
Continuous
 62
     3
370
     9
100
AcDbCircle
 10
-435.9469875002816
 20
270.1253879388491
 30
0.0
 40
8.825000700573204
100
AcDbArc
 50
65.43194580078126
 51
238.2851715087891
  0
ARC
  5
2A1
330
1F
100
AcDbEntity
  8
通り芯
  6
Continuous
 62
     3
370
     9
100
AcDbCircle
 10
-392.7767920275352
 20
204.8632301599071
 30
0.0
 40
11.12000051267359
100
AcDbArc
 50
238.2278289794922
 51
58.01266479492194
  0
ARC
  5
2A2
330
1F
100
AcDbEntity
  8
通り芯
  6
Continuous
 62
     3
370
     9
100
AcDbCircle
 10
-452.2677293672888
 20
241.8569117251218
 30
0.0
 40
8.825000700573204
100
AcDbArc
 50
61.68194580078124
 51
234.535171508789
  0
ARC
  5
2A3
330
1F
100
AcDbEntity
  8
通り芯
  6
Continuous
 62
     3
370
     9
100
AcDbCircle
 10
-413.4596411014974
 20
173.9103040543932
 30
0.0
 40
11.12000051267359
100
AcDbArc
 50
234.4778289794922
 51
54.26266479492193
  0
ARC
  5
2A4
330
1F
100
AcDbEntity
  8
通り芯
  6
Continuous
 62
     3
370
     9
100
AcDbCircle
 10
-470.4028779348716
 20
214.7151315346355
 30
0.0
 40
8.825000700573204
100
AcDbArc
 50
57.93194580078122
 51
230.785171508789
  0
ARC
  5
2A5
330
1F
100
AcDbEntity
  8
通り芯
  6
Continuous
 62
     3
370
     9
100
AcDbCircle
 10
-436.1213925135559
 20
144.3764005568664
 30
0.0
 40
11.12000051267359
100
AcDbArc
 50
230.7278289794922
 51
50.51266479492188
  0
ARC
  5
2A6
330
1F
100
AcDbEntity
  8
通り芯
  6
Continuous
 62
     3
370
     9
100
AcDbCircle
 10
-490.2741491345734
 20
188.8189598764405
 30
0.0
 40
8.825000700573204
100
AcDbArc
 50
54.18194580078125
 51
227.0351715087891
  0
ARC
  5
2A7
330
1F
100
AcDbEntity
  8
通り芯
  6
Continuous
 62
     3
370
     9
100
AcDbCircle
 10
-460.6659253188906
 20
116.3883596769801
 30
0.0
 40
11.12000051267359
100
AcDbArc
 50
226.9778289794922
 51
46.76266479492199
  0
ARC
  5
2A8
330
1F
100
AcDbEntity
  8
通り芯
  6
Continuous
 62
     3
370
     9
100
AcDbCircle
 10
-511.7973132724825
 20
164.2764089462548
 30
0.0
 40
8.825000700573204
100
AcDbArc
 50
50.43194580078128
 51
223.2851715087891
  0
ARC
  5
2A9
330
1F
100
AcDbEntity
  8
通り芯
  6
Continuous
 62
     3
370
     9
100
AcDbCircle
 10
-486.9891910720873
 20
90.06509392378234
 30
0.0
 40
11.12000051267359
100
AcDbArc
 50
223.2278289794922
 51
43.01266479492193
  0
ARC
  5
2AA
330
1F
100
AcDbEntity
  8
通り芯
  6
Continuous
 62
     3
370
     9
100
AcDbCircle
 10
-534.8782312789383
 20
141.1954909397991
 30
0.0
 40
8.825000700573204
100
AcDbArc
 50
46.68194580078126
 51
219.5351715087891
  0
ARC
  5
2AB
330
1F
100
AcDbEntity
  8
通り芯
  6
Continuous
 62
     3
370
     9
100
AcDbCircle
 10
-514.9782228895499
 20
65.51957018087137
 30
0.0
 40
11.12000051267359
100
AcDbArc
 50
219.4778289794922
 51
39.26266479492193
  0
ARC
  5
2AC
330
1F
100
AcDbEntity
  8
通り芯
  6
Continuous
 62
     3
370
     9
100
AcDbCircle
 10
-559.4207822091226
 20
119.6723268018889
 30
0.0
 40
8.825000700573204
100
AcDbArc
 50
42.93194580078129
 51
215.7851715087891
  0
ARC
  5
2AD
330
1F
100
AcDbEntity
  8
通り芯
  6
Continuous
 62
     3
370
     9
100
AcDbCircle
 10
-544.5121263870767
 20
42.85781876881401
 30
0.0
 40
11.12000051267359
100
AcDbArc
 50
215.7278289794922
 51
35.51266479492193
  0
ARC
  5
2AE
330
1F
100
AcDbEntity
  8
通り芯
  6
Continuous
 62
     3
370
     9
100
AcDbCircle
 10
-585.3179448048951
 20
99.80105560218817
 30
0.0
 40
8.825000700573204
100
AcDbArc
 50
39.18194580078121
 51
212.035171508789
  0
ARC
  5
2AF
330
1F
100
AcDbEntity
  8
通り芯
  6
Continuous
 62
     3
370
     9
100
AcDbCircle
 10
-575.4650524925917
 20
22.17496969485182
 30
0.0
 40
11.12000051267359
100
AcDbArc
 50
211.9778289794922
 51
31.76266479492188
  0
ARC
  5
2B0
330
1F
100
AcDbEntity
  8
通り芯
  6
Continuous
 62
     3
370
     9
100
AcDbCircle
 10
-612.4587340578051
 20
81.6659070346055
 30
0.0
 40
8.825000700573204
100
AcDbArc
 50
35.43194580078124
 51
208.2851715087891
  0
ARC
  5
2B1
330
1F
100
AcDbEntity
  8
通り芯
  6
Continuous
 62
     3
370
     9
100
AcDbCircle
 10
-607.7042155709871
 20
3.562189215922515
 30
0.0
 40
11.12000051267359
100
AcDbArc
 50
208.2278289794922
 51
28.01266479492188
  0
ARC
  5
2B2
330
1F
100
AcDbEntity
  8
通り芯
  6
Continuous
 62
     3
370
     9
100
AcDbCircle
 10
-640.7272102715325
 20
65.34516516759943
 30
0.0
 40
8.825000700573204
100
AcDbArc
 50
31.68194580078123
 51
204.535171508789
  0
ARC
  5
2B3
330
1F
100
AcDbEntity
  8
通り芯
  6
Continuous
 62
     3
370
     9
100
AcDbCircle
 10
-641.0918752992831
 20
-12.90322953709385
 30
0.0
 40
11.12000051267359
100
AcDbArc
 50
204.4778289794922
 51
24.26266479492193
  0
ARC
  5
2B4
330
1F
100
AcDbEntity
  8
通り芯
  6
Continuous
 62
     3
370
     9
100
AcDbCircle
 10
-670.0034699994541
 20
50.90720469387186
 30
0.0
 40
8.825000700573204
100
AcDbArc
 50
27.93194580078125
 51
200.7851715087891
  0
ARC
  5
2B5
330
1F
100
AcDbEntity
  8
通り芯
  6
Continuous
 62
     3
370
     9
100
AcDbCircle
 10
-675.4843457290468
 20
-27.14894812119148
 30
0.0
 40
11.12000051267359
100
AcDbArc
 50
200.7278289794922
 51
20.51266479492194
  0
ARC
  5
2B6
330
1F
100
AcDbEntity
  8
通り芯
  6
Continuous
 62
     3
370
     9
100
AcDbCircle
 10
-700.1616641694869
 20
38.4154456182501
 30
0.0
 40
8.825000700573204
100
AcDbArc
 50
24.18194580078123
 51
197.0351715087891
  0
ARC
  5
2B7
330
1F
100
AcDbEntity
  8
通り芯
  6
Continuous
 62
     3
370
     9
100
AcDbCircle
 10
-710.7349680991143
 20
-39.11551028184697
 30
0.0
 40
11.12000051267359
100
AcDbArc
 50
196.9778289794922
 51
16.76266479492193
  0
ARC
  5
2B8
330
1F
100
AcDbEntity
  8
通り芯
  6
Continuous
 62
     3
370
     9
100
AcDbCircle
 10
-731.070989021685
 20
27.92339856980682
 30
0.0
 40
8.825000700573204
100
AcDbArc
 50
20.43194580078126
 51
193.2851715087891
  0
ARC
  5
2B9
330
1F
100
AcDbEntity
  8
通り芯
  6
Continuous
 62
     3
370
     9
100
AcDbCircle
 10
-746.6931198980257
 20
-48.75039632755936
 30
0.0
 40
11.12000051267359
100
AcDbArc
 50
193.2278289794922
 51
13.01266479492188
  0
ARC
  5
2BA
330
1F
100
AcDbEntity
  8
通り芯
  6
Continuous
 62
     3
370
     9
100
AcDbCircle
 10
-762.6006407960864
 20
19.47466480185888
 30
0.0
 40
8.825000700573204
100
AcDbArc
 50
16.68194580078124
 51
189.5351715087891
  0
ARC
  5
2BB
330
1F
100
AcDbEntity
  8
通り芯
  6
Continuous
 62
     3
370
     9
100
AcDbCircle
 10
-783.2042148640159
 20
-56.01297781774058
 30
0.0
 40
11.12000051267359
100
AcDbArc
 50
189.4778289794922
 51
9.262664794921989
  0
ARC
  5
2BC
330
1F
100
AcDbEntity
  8
通り芯
  6
Continuous
 62
     3
370
     9
100
AcDbCircle
 10
-794.61585198244
 20
13.10590900469727
 30
0.0
 40
8.825000700573204
100
AcDbArc
 50
12.93194580078127
 51
185.7851715087891
  0
ARC
  5
2BD
330
1F
100
AcDbEntity
  8
通り芯
  6
Continuous
 62
     3
370
     9
100
AcDbCircle
 10
-820.112675797746
 20
-60.87154474997753
 30
0.0
 40
11.12000051267359
100
AcDbArc
 50
185.7278289794922
 51
5.512664794921932
  0
ARC
  5
2BE
330
1F
100
AcDbEntity
  8
通り芯
  6
Continuous
 62
     3
370
     9
100
AcDbCircle
 10
-826.9798731953375
 20
8.845868368009704
 30
0.0
 40
8.825000700573204
100
AcDbArc
 50
9.18194580078125
 51
182.0351715087891
  0
ARC
  5
2BF
330
1F
100
AcDbEntity
  8
通り芯
  6
Continuous
 62
     3
370
     9
100
AcDbCircle
 10
-429.7526367163942
 20
393.5248623295342
 30
0.0
 40
15.10000064221128
100
AcDbArc
 50
256.9542999267578
 51
74.91290283203125
  0
ARC
  5
2C0
330
1F
100
AcDbEntity
  8
通り芯
  6
Continuous
 62
     3
370
     9
100
AcDbCircle
 10
-511.1383397848346
 20
413.9104301308737
 30
0.0
 40
11.00000029480135
100
AcDbArc
 50
84.2478942871094
 51
247.6268768310547
  0
ARC
  5
2C1
330
1F
100
AcDbEntity
  8
通り芯
  6
Continuous
 62
     3
370
     9
100
AcDbCircle
 10
-442.8538224008918
 20
350.3358390428548
 30
0.0
 40
15.10000064221128
100
AcDbArc
 50
251.3292999267578
 51
69.28790283203125
  0
ARC
  5
2C2
330
1F
100
AcDbEntity
  8
通り芯
  6
Continuous
 62
     3
370
     9
100
AcDbCircle
 10
-521.8493840374441
 20
378.6003515062817
 30
0.0
 40
11.00000029480135
100
AcDbArc
 50
78.62289428710938
 51
242.0018768310547
  0
ARC
  5
2C3
330
1F
100
AcDbEntity
  8
通り芯
  6
Continuous
 62
     3
370
     9
100
AcDbCircle
 10
-460.1248734027178
 20
308.6381768071681
 30
0.0
 40
15.10000064221128
100
AcDbArc
 50
245.7042999267578
 51
63.66290283203126
  0
ARC
  5
2C4
330
1F
100
AcDbEntity
  8
通り芯
  6
Continuous
 62
     3
370
     9
100
AcDbCircle
 10
-535.9692535494656
 20
344.5101170370186
 30
0.0
 40
11.00000029480135
100
AcDbArc
 50
72.99789428710939
 51
236.3768768310547
  0
ARC
  5
2C5
330
1F
100
AcDbEntity
  8
通り芯
  6
Continuous
 62
     3
370
     9
100
AcDbCircle
 10
-481.4003031467752
 20
268.8351872156659
 30
0.0
 40
15.10000064221128
100
AcDbArc
 50
240.0792999267578
 51
58.03790283203125
  0
ARC
  5
2C6
330
1F
100
AcDbEntity
  8
通り芯
  6
Continuous
 62
     3
370
     9
100
AcDbCircle
 10
-553.3631808106412
 20
311.9687179981225
 30
0.0
 40
11.00000029480135
100
AcDbArc
 50
67.3728942871094
 51
230.7518768310547
  0
ARC
  5
2C7
330
1F
100
AcDbEntity
  8
通り芯
  6
Continuous
 62
     3
370
     9
100
AcDbCircle
 10
-506.4739966173789
 20
231.3083812348794
 30
0.0
 40
15.10000064221128
100
AcDbArc
 50
234.4542999267579
 51
52.41290283203131
  0
ARC
  5
2C8
330
1F
100
AcDbEntity
  8
通り芯
  6
Continuous
 62
     3
370
     9
100
AcDbCircle
 10
-573.8627064331519
 20
281.2882997258453
 30
0.0
 40
11.00000029480135
100
AcDbArc
 50
61.74789428710943
 51
225.1268768310547
  0
ARC
  5
2C9
330
1F
100
AcDbEntity
  8
通り芯
  6
Continuous
 62
     3
370
     9
100
AcDbCircle
 10
-535.1051559837067
 20
196.4214329549873
 30
0.0
 40
15.10000064221128
100
AcDbArc
 50
228.8292999267578
 51
46.78790283203125
  0
ARC
  5
2CA
330
1F
100
AcDbEntity
  8
通り芯
  6
Continuous
 62
     3
370
     9
100
AcDbCircle
 10
-597.270633839492
 20
252.7651525552381
 30
0.0
 40
11.00000029480135
100
AcDbArc
 50
56.1228942871094
 51
219.5018768310547
  0
ARC
  5
2CB
330
1F
100
AcDbEntity
  8
通り芯
  6
Continuous
 62
     3
370
     9
100
AcDbCircle
 10
-567.0183005997939
 20
164.5072974013249
 30
0.0
 40
15.10000064221128
100
AcDbArc
 50
223.2042999267578
 51
41.16290283203125
  0
ARC
  5
2CC
330
1F
100
AcDbEntity
  8
通り芯
  6
Continuous
 62
     3
370
     9
100
AcDbCircle
 10
-623.3620202000435
 20
226.6727752571103
 30
0.0
 40
11.00000029480135
100
AcDbArc
 50
50.49789428710937
 51
213.8768768310547
  0
ARC
  5
2CD
330
1F
100
AcDbEntity
  8
通り芯
  6
Continuous
 62
     3
370
     9
100
AcDbCircle
 10
-601.906239817261
 20
135.8761380349973
 30
0.0
 40
15.10000064221128
100
AcDbArc
 50
217.5792999267579
 51
35.53790283203131
  0
ARC
  5
2CE
330
1F
100
AcDbEntity
  8
通り芯
  6
Continuous
 62
     3
370
     9
100
AcDbCircle
 10
-651.8851673706519
 20
203.2648478507702
 30
0.0
 40
11.00000029480135
100
AcDbArc
 50
44.87289428710943
 51
208.2518768310547
  0
ARC
  5
2CF
330
1F
100
AcDbEntity
  8
通り芯
  6
Continuous
 62
     3
370
     9
100
AcDbCircle
 10
-639.4320548604725
 20
110.8014536268173
 30
0.0
 40
15.10000064221128
100
AcDbArc
 50
211.9542999267578
 51
29.91290283203125
  0
ARC
  5
2D0
330
1F
100
AcDbEntity
  8
通り芯
  6
Continuous
 62
     3
370
     9
100
AcDbCircle
 10
-682.565585642929
 20
182.7653222282584
 30
0.0
 40
11.00000029480135
100
AcDbArc
 50
39.2478942871094
 51
202.6268768310547
  0
ARC
  5
2D1
330
1F
100
AcDbEntity
  8
通り芯
  6
Continuous
 62
     3
370
     9
100
AcDbCircle
 10
-679.2350444519758
 20
89.52602388275984
 30
0.0
 40
15.10000064221128
100
AcDbArc
 50
206.3292999267578
 51
24.28790283203125
  0
ARC
  5
2D2
330
1F
100
AcDbEntity
  8
通り芯
  6
Continuous
 62
     3
370
     9
100
AcDbCircle
 10
-715.1069846818251
 20
165.3713949670828
 30
0.0
 40
11.00000029480135
100
AcDbArc
 50
33.62289428710938
 51
197.0018768310547
  0
ARC
  5
2D3
330
1F
100
AcDbEntity
  8
通り芯
  6
Continuous
 62
     3
370
     9
100
AcDbCircle
 10
-720.9317157500874
 20
72.254972880935
 30
0.0
 40
15.10000064221128
100
AcDbArc
 50
200.7042999267578
 51
18.66290283203125
  0
ARC
  5
2D4
330
1F
100
AcDbEntity
  8
通り芯
  6
Continuous
 62
     3
370
     9
100
AcDbCircle
 10
-749.1972191510882
 20
151.2505345174873
 30
0.0
 40
11.00000029480135
100
AcDbArc
 50
27.99789428710939
 51
191.3768768310547
  0
ARC
  5
2D5
330
1F
100
AcDbEntity
  8
通り芯
  6
Continuous
 62
     3
370
     9
100
AcDbCircle
 10
-764.1207390367668
 20
59.15378719643634
 30
0.0
 40
15.10000064221128
100
AcDbArc
 50
195.0792999267578
 51
13.03790283203125
  0
ARC
  5
2D6
330
1F
100
AcDbEntity
  8
通り芯
  6
Continuous
 62
     3
370
     9
100
AcDbCircle
 10
-784.5063068381052
 20
140.5394902648778
 30
0.0
 40
11.00000029480135
100
AcDbArc
 50
22.37289428710941
 51
185.7518768310547
  0
ARC
  5
2D7
330
1F
100
AcDbEntity
  8
通り芯
  6
Continuous
 62
     3
370
     9
100
AcDbCircle
 10
-808.3859205303412
 20
50.34831590133997
 30
0.0
 40
15.10000064221128
100
AcDbArc
 50
189.4542999267578
 51
7.41290283203125
  0
ARC
  5
2D8
330
1F
100
AcDbEntity
  8
通り芯
  6
Continuous
 62
     3
370
     9
100
AcDbCircle
 10
-820.6963380296617
 20
133.3403287795227
 30
0.0
 40
11.00000029480135
100
AcDbArc
 50
16.74789428710938
 51
180.1268768310547
  0
ARC
  5
2D9
330
1F
100
AcDbEntity
  8
通り芯
  6
Continuous
 62
     3
370
     9
100
AcDbCircle
 10
-852.3577845015944
 20
-67.71694152091179
 30
0.0
 40
6.53000040461658
100
AcDbArc
 50
184.1580963134766
 51
359.5848236083985
  0
ARC
  5
2DA
330
1F
100
AcDbEntity
  8
通り芯
  6
Continuous
 62
     3
370
     9
100
AcDbCircle
 10
-854.9580046994703
 20
11.71364171124658
 30
0.0
 40
4.000000085207026
100
AcDbArc
 50
15.75566101074219
 51
168.0000457763672
  0
ARC
  5
2DB
330
1F
100
AcDbEntity
  8
通り芯
  6
Continuous
 62
     3
370
     9
100
AcDbCircle
 10
-848.3325960702774
 20
41.64788398923868
 30
0.0
 40
10.56000078621978
100
AcDbArc
 50
183.7198333740235
 51
1.901962280273494
  0
ARC
  5
2DC
330
1F
100
AcDbEntity
  8
通り芯
  6
Continuous
 62
     3
370
     9
100
AcDbCircle
 10
-852.9196461068528
 20
135.0169951571173
 30
0.0
 40
5.965000023943117
100
AcDbArc
 50
9.570495605468773
 51
176.032470703125
  0
ARC
  5
2DD
330
1F
100
AcDbEntity
  8
通り芯
  6
Continuous
 62
     3
370
     9
100
AcDbCircle
 10
-548.1577857270105
 20
468.197954262148
 30
0.0
 40
20.19899864224394
100
AcDbArc
 50
265.1592102050781
 51
83.59512329101564
  0
ARC
  5
2DE
330
1F
100
AcDbEntity
  8
通り芯
  6
Continuous
 62
     3
370
     9
100
AcDbCircle
 10
-613.6547957113254
 20
474.6489578780689
 30
0.0
 40
13.99999993533241
100
AcDbArc
 50
103.3457489013672
 51
245.4060974121094
  0
ARC
  5
2DF
330
1F
100
AcDbEntity
  8
通り芯
  6
Continuous
 62
     3
370
     9
100
AcDbCircle
 10
-564.3863703995049
 20
410.7830311428791
 30
0.0
 40
24.50000061261608
100
AcDbArc
 50
252.5545043945312
 51
73.68803405761713
  0
ARC
  5
2E0
330
1F
100
AcDbEntity
  8
通り芯
  6
Continuous
 62
     3
370
     9
100
AcDbCircle
 10
-650.4146160087436
 20
436.8803631288836
 30
0.0
 40
15.60000025972897
100
AcDbArc
 50
80.48173522949219
 51
245.7541656494141
  0
ARC
  5
2E1
330
1F
100
AcDbEntity
  8
通り芯
  6
Continuous
 62
     3
370
     9
100
AcDbCircle
 10
-588.8050541327635
 20
351.8311638441492
 30
0.0
 40
24.50000061261608
100
AcDbArc
 50
241.3045043945312
 51
62.43803405761713
  0
ARC
  5
2E2
330
1F
100
AcDbEntity
  8
通り芯
  6
Continuous
 62
     3
370
     9
100
AcDbCircle
 10
-668.0899695413365
 20
394.2096001941434
 30
0.0
 40
15.60000025972897
100
AcDbArc
 50
69.23173522949217
 51
234.504165649414
  0
ARC
  5
2E3
330
1F
100
AcDbEntity
  8
通り芯
  6
Continuous
 62
     3
370
     9
100
AcDbCircle
 10
-624.2548549554891
 20
298.776366056685
 30
0.0
 40
24.50000061261608
100
AcDbArc
 50
230.0545043945312
 51
51.18803405761719
  0
ARC
  5
2E4
330
1F
100
AcDbEntity
  8
通り芯
  6
Continuous
 62
     3
370
     9
100
AcDbCircle
 10
-693.7493071190084
 20
355.8077963342703
 30
0.0
 40
15.60000025972897
100
AcDbArc
 50
57.98173522949221
 51
223.2541656494141
  0
ARC
  5
2E5
330
1F
100
AcDbEntity
  8
通り芯
  6
Continuous
 62
     3
370
     9
100
AcDbCircle
 10
-669.375215576643
 20
253.6560054355312
 30
0.0
 40
24.50000061261608
100
AcDbArc
 50
218.8045043945312
 51
39.93803405761719
  0
ARC
  5
2E6
330
1F
100
AcDbEntity
  8
通り芯
  6
Continuous
 62
     3
370
     9
100
AcDbCircle
 10
-726.4076367918034
 20
323.1494666614754
 30
0.0
 40
15.60000025972897
100
AcDbArc
 50
46.73173522949219
 51
212.0041656494141
  0
ARC
  5
2E7
330
1F
100
AcDbEntity
  8
通り芯
  6
Continuous
 62
     3
370
     9
100
AcDbCircle
 10
-722.430013364106
 20
218.2052136752305
 30
0.0
 40
24.50000061261608
100
AcDbArc
 50
207.5545043945313
 51
28.68803405761719
  0
ARC
  5
2E8
330
1F
100
AcDbEntity
  8
通り芯
  6
Continuous
 62
     3
370
     9
100
AcDbCircle
 10
-764.8094406516753
 20
297.4901290838034
 30
0.0
 40
15.60000025972897
100
AcDbArc
 50
35.48173522949223
 51
200.7541656494141
  0
ARC
  5
2E9
330
1F
100
AcDbEntity
  8
通り芯
  6
Continuous
 62
     3
370
     9
100
AcDbCircle
 10
-781.3828716004133
 20
193.7865299419719
 30
0.0
 40
24.50000061261608
100
AcDbArc
 50
196.3045043945312
 51
17.43803405761713
  0
ARC
  5
2EA
330
1F
100
AcDbEntity
  8
通り芯
  6
Continuous
 62
     3
370
     9
100
AcDbCircle
 10
-807.4792126488416
 20
279.8157664887856
 30
0.0
 40
15.60000025972897
100
AcDbArc
 50
24.23173522949217
 51
189.5041656494141
  0
ARC
  5
2EB
330
1F
100
AcDbEntity
  8
通り芯
  6
Continuous
 62
     3
370
     9
100
AcDbCircle
 10
-838.7968037821048
 20
177.5579452694786
 30
0.0
 40
20.19899864224394
100
AcDbArc
 50
186.4048767089844
 51
4.840789794921875
  0
ARC
  5
2EC
330
1F
100
AcDbEntity
  8
通り芯
  6
Continuous
 62
     3
370
     9
100
AcDbCircle
 10
-845.2478073980257
 20
243.0549552537923
 30
0.0
 40
13.99999993533241
100
AcDbArc
 50
24.59390258789063
 51
166.6542510986328
  0
LINE
  5
2ED
330
1F
100
AcDbEntity
  8
通り芯
  6
Continuous
 62
     3
370
     9
100
AcDbLine
 10
-873.8710392637522
 20
1105.267757743085
 30
0.0
 11
-873.8710392637523
 21
705.2619323026886
 31
0.0
  0
LINE
  5
2EE
330
1F
100
AcDbEntity
  8
通り芯
  6
Continuous
 62
     3
370
     9
100
AcDbLine
 10
-656.8814746258721
 20
540.2718169344611
 30
0.0
 11
-656.8814746258721
 21
530.2712749234219
 31
0.0
  0
LINE
  5
2EF
330
1F
100
AcDbEntity
  8
通り芯
  6
Continuous
 62
     3
370
     9
100
AcDbLine
 10
-644.8812205876544
 20
540.2718169344611
 30
0.0
 11
-644.8812205876544
 21
530.2712749234219
 31
0.0
  0
LINE
  5
2F0
330
1F
100
AcDbEntity
  8
通り芯
  6
JWW_CENTER1
 62
     3
370
     9
100
AcDbLine
 10
-650.8803566691876
 20
513.0745442397518
 30
0.0
 11
-650.8803566691876
 21
558.3663370614512
 31
0.0
  0
LINE
  5
2F1
330
1F
100
AcDbEntity
  8
通り芯
  6
JWW_CENTER1
 62
     3
370
     9
100
AcDbLine
 10
-632.7442171640297
 20
535.2715459289415
 30
0.0
 11
-668.671649898103
 21
535.2715459289415
 31
0.0
  0
LINE
  5
2F2
330
1F
100
AcDbEntity
  8
通り芯
  6
Continuous
 62
     3
370
     9
100
AcDbLine
 10
-640.8808055957235
 20
540.2718169344611
 30
0.0
 11
-640.8808055957235
 21
530.2712749234219
 31
0.0
  0
LINE
  5
2F3
330
1F
100
AcDbEntity
  8
通り芯
  6
Continuous
 62
     3
370
     9
100
AcDbLine
 10
-660.8808986802279
 20
540.2718169344611
 30
0.0
 11
-660.8808986802279
 21
530.2712749234219
 31
0.0
  0
LINE
  5
2F4
330
1F
100
AcDbEntity
  8
通り芯
  6
Continuous
 62
     3
370
     9
100
AcDbLine
 10
-840.8708361274404
 20
724.2611784360304
 30
0.0
 11
-850.8713781384807
 21
724.2611784360304
 31
0.0
  0
LINE
  5
2F5
330
1F
100
AcDbEntity
  8
通り芯
  6
Continuous
 62
     3
370
     9
100
AcDbLine
 10
-840.8708361274404
 20
736.2614324742469
 30
0.0
 11
-850.8713781384807
 21
736.2614324742469
 31
0.0
  0
LINE
  5
2F6
330
1F
100
AcDbEntity
  8
通り芯
  6
JWW_CENTER1
 62
     3
370
     9
100
AcDbLine
 10
-868.0681088221496
 20
730.2613054551387
 30
0.0
 11
-822.7763160004503
 21
730.2613054551387
 31
0.0
  0
LINE
  5
2F7
330
1F
100
AcDbEntity
  8
通り芯
  6
JWW_CENTER1
 62
     3
370
     9
100
AcDbLine
 10
-845.8711071329611
 20
748.3974449602977
 30
0.0
 11
-845.8711071329611
 21
712.4710031637994
 31
0.0
  0
LINE
  5
2F8
330
1F
100
AcDbEntity
  8
通り芯
  6
Continuous
 62
     3
370
     9
100
AcDbLine
 10
-840.8708361274404
 20
740.2618474661779
 30
0.0
 11
-850.8713781384807
 21
740.2618474661779
 31
0.0
  0
LINE
  5
2F9
330
1F
100
AcDbEntity
  8
通り芯
  6
Continuous
 62
     3
370
     9
100
AcDbLine
 10
-840.8708361274404
 20
720.2607634440994
 30
0.0
 11
-850.8713781384807
 21
720.2607634440994
 31
0.0
  0
LINE
  5
2FA
330
1F
100
AcDbEntity
  8
通り芯
  6
Continuous
 62
     3
370
     9
100
AcDbLine
 10
-275.8739043812415
 20
507.271613798149
 30
0.0
 11
-675.8807207592127
 21
507.2716137981491
 31
0.0
  0
LINE
  5
2FB
330
1F
100
AcDbEntity
  8
通り芯
  6
Continuous
 62
     3
370
     9
100
AcDbLine
 10
-793.4158265786203
 20
958.2433406170446
 30
0.0
 11
-810.1666353533545
 21
874.032474521108
 31
0.0
  0
LINE
  5
2FC
330
1F
100
AcDbEntity
  8
通り芯
  6
Continuous
 62
     3
370
     9
100
AcDbLine
 10
-823.2836760390597
 20
962.6758043918551
 30
0.0
 11
-831.7006998045946
 21
877.2262663266554
 31
0.0
  0
LINE
  5
2FD
330
1F
100
AcDbEntity
  8
通り芯
  6
Continuous
 62
     3
370
     9
100
AcDbLine
 10
-809.142996837956
 20
1069.580131902261
 30
0.0
 11
-818.1971934644793
 21
1000.805100418489
 31
0.0
  0
LINE
  5
2FE
330
1F
100
AcDbEntity
  8
通り芯
  6
Continuous
 62
     3
370
     9
100
AcDbLine
 10
-831.2250497683971
 20
1071.75424894271
 30
0.0
 11
-835.7625529262015
 21
1002.531313674855
 31
0.0
  0
LINE
  5
2FF
330
1F
100
AcDbEntity
  8
通り芯
  6
Continuous
 62
     3
370
     9
100
AcDbLine
 10
-845.8284968172183
 20
1078.306328191323
 30
0.0
 11
-851.1082122190038
 21
997.742112372897
 31
0.0
  0
LINE
  5
300
330
1F
100
AcDbEntity
  8
通り芯
  6
Continuous
 62
     3
370
     9
100
AcDbLine
 10
-858.8712171847675
 20
1078.73243134875
 30
0.0
 11
-858.8712171847675
 21
997.9967833297758
 31
0.0
  0
LINE
  5
301
330
1F
100
AcDbEntity
  8
通り芯
  6
Continuous
 62
     3
370
     9
100
AcDbLine
 10
-837.7791108921605
 20
968.5441367134342
 30
0.0
 11
-847.0384315967937
 21
874.5338889342645
 31
0.0
  0
LINE
  5
302
330
1F
100
AcDbEntity
  8
通り芯
  6
Continuous
 62
     3
370
     9
100
AcDbLine
 10
-858.8702262471924
 20
969.5796664797365
 30
0.0
 11
-858.8702262471924
 21
875.1125964783057
 31
0.0
  0
LINE
  5
303
330
1F
100
AcDbEntity
  8
通り芯
  6
Continuous
 62
     3
370
     9
100
AcDbLine
 10
-772.3782218526611
 20
1064.007098978153
 30
0.0
 11
-785.9114563200382
 21
995.9713069256384
 31
0.0
  0
LINE
  5
304
330
1F
100
AcDbEntity
  8
通り芯
  6
Continuous
 62
     3
370
     9
100
AcDbLine
 10
-794.2710057061987
 20
1067.621048315674
 30
0.0
 11
-803.3261932702982
 21
998.843044019178
 31
0.0
  0
LINE
  5
305
330
1F
100
AcDbEntity
  8
通り芯
  6
Continuous
 62
     3
370
     9
100
AcDbLine
 10
-736.0563959635743
 20
1056.041942747007
 30
0.0
 11
-754.0102029548569
 21
989.0377167104918
 31
0.0
  0
LINE
  5
306
330
1F
100
AcDbEntity
  8
通り芯
  6
Continuous
 62
     3
370
     9
100
AcDbLine
 10
-757.6667626081206
 20
1061.079869380393
 30
0.0
 11
-771.1999970754977
 21
993.0420954527256
 31
0.0
  0
LINE
  5
307
330
1F
100
AcDbEntity
  8
通り芯
  6
Continuous
 62
     3
370
     9
100
AcDbLine
 10
-700.3330963700358
 20
1045.718355086382
 30
0.0
 11
-722.6311736919166
 21
980.0310850875883
 31
0.0
  0
LINE
  5
308
330
1F
100
AcDbEntity
  8
通り芯
  6
Continuous
 62
     3
370
     9
100
AcDbLine
 10
-721.5678976735018
 20
1052.159449326549
 30
0.0
 11
-739.5226956023595
 21
985.1512595397332
 31
0.0
  0
LINE
  5
309
330
1F
100
AcDbEntity
  8
通り芯
  6
Continuous
 62
     3
370
     9
100
AcDbLine
 10
-665.3619183962331
 20
1033.080928187177
 30
0.0
 11
-691.9081451038977
 21
968.9920404975203
 31
0.0
  0
LINE
  5
30A
330
1F
100
AcDbEntity
  8
通り芯
  6
Continuous
 62
     3
370
     9
100
AcDbLine
 10
-686.1299881016811
 20
1040.896452844437
 30
0.0
 11
-708.4280654235619
 21
975.2062100329169
 31
0.0
  0
LINE
  5
30B
330
1F
100
AcDbEntity
  8
通り芯
  6
Continuous
 62
     3
370
     9
100
AcDbLine
 10
-631.2924936160532
 20
1018.182181740882
 30
0.0
 11
-661.9729118883293
 21
955.968147943903
 31
0.0
  0
LINE
  5
30C
330
1F
100
AcDbEntity
  8
通り芯
  6
Continuous
 62
     3
370
     9
100
AcDbLine
 10
-651.5046473416959
 20
1027.33943587525
 30
0.0
 11
-678.0518649869367
 21
963.248566310441
 31
0.0
  0
LINE
  5
30D
330
1F
100
AcDbEntity
  8
通り芯
  6
Continuous
 62
     3
370
     9
100
AcDbLine
 10
-598.2694989155077
 20
1001.088508565057
 30
0.0
 11
-632.9542959300163
 21
941.0129180558113
 31
0.0
  0
LINE
  5
30E
330
1F
100
AcDbEntity
  8
通り芯
  6
Continuous
 62
     3
370
     9
100
AcDbLine
 10
-617.839525092284
 20
1011.547854673512
 30
0.0
 11
-648.5219252397115
 21
949.3298571262301
 31
0.0
  0
LINE
  5
30F
330
1F
100
AcDbEntity
  8
通り芯
  6
Continuous
 62
     3
370
     9
100
AcDbLine
 10
-566.4366202430294
 20
981.8702652275499
 30
0.0
 11
-604.9751734883085
 21
924.1927436507979
 31
0.0
  0
LINE
  5
310
330
1F
100
AcDbEntity
  8
通り芯
  6
Continuous
 62
     3
370
     9
100
AcDbLine
 10
-585.28028917703
 20
993.5871111192012
 30
0.0
 11
-619.9650861915399
 21
933.5095387348053
 31
0.0
  0
LINE
  5
311
330
1F
100
AcDbEntity
  8
通り芯
  6
Continuous
 62
     3
370
     9
100
AcDbLine
 10
-535.9276341712989
 20
960.6116814222753
 30
0.0
 11
-578.1564389474062
 21
905.577981296716
 31
0.0
  0
LINE
  5
312
330
1F
100
AcDbEntity
  8
通り芯
  6
Continuous
 62
     3
370
     9
100
AcDbLine
 10
-553.9646799189159
 20
973.5364802183506
 30
0.0
 11
-592.5052150393464
 21
915.855985828872
 31
0.0
  0
LINE
  5
313
330
1F
100
AcDbEntity
  8
通り芯
  6
Continuous
 62
     3
370
     9
100
AcDbLine
 10
-506.8743353978464
 20
937.4039234061672
 30
0.0
 11
-552.6120501284815
 21
885.2498878747508
 31
0.0
  0
LINE
  5
314
330
1F
100
AcDbEntity
  8
通り芯
  6
Continuous
 62
     3
370
     9
100
AcDbLine
 10
-524.0274648281973
 20
951.4801916648696
 30
0.0
 11
-566.2582514794559
 21
896.443518726586
 31
0.0
  0
LINE
  5
315
330
1F
100
AcDbEntity
  8
通り芯
  6
Continuous
 62
     3
370
     9
100
AcDbLine
 10
-479.4015820571729
 20
912.3450939991938
 30
0.0
 11
-528.4520011024044
 21
863.2936840163859
 31
0.0
  0
LINE
  5
316
330
1F
100
AcDbEntity
  8
通り芯
  6
Continuous
 62
     3
370
     9
100
AcDbLine
 10
-495.597465789678
 20
927.5133754659976
 30
0.0
 11
-541.3371623954633
 21
875.3563671218546
 31
0.0
  0
LINE
  5
317
330
1F
100
AcDbEntity
  8
通り芯
  6
Continuous
 62
     3
370
     9
100
AcDbLine
 10
-453.6263047831783
 20
885.5432053970719
 30
0.0
 11
-505.7803403145936
 21
839.805490666439
 31
0.0
  0
LINE
  5
318
330
1F
100
AcDbEntity
  8
通り芯
  6
Continuous
 62
     3
370
     9
100
AcDbLine
 10
-468.7955771875573
 20
901.738098192003
 30
0.0
 11
-517.8489690455153
 21
852.6847063340449
 31
0.0
  0
LINE
  5
319
330
1F
100
AcDbEntity
  8
通り芯
  6
Continuous
 62
     3
370
     9
100
AcDbLine
 10
-429.6594885843063
 20
857.1122154209786
 30
0.0
 11
-484.6931887098645
 21
814.8834106448714
 31
0.0
  0
LINE
  5
31A
330
1F
100
AcDbEntity
  8
通り芯
  6
Continuous
 62
     3
370
     9
100
AcDbLine
 10
-443.7367477805838
 20
874.2643539137532
 30
0.0
 11
-495.8927651871505
 21
828.5246573079678
 31
0.0
  0
LINE
  5
31B
330
1F
100
AcDbEntity
  8
通り芯
  6
Continuous
 62
     3
370
     9
100
AcDbLine
 10
-407.6032000308253
 20
827.1759912678351
 30
0.0
 11
-465.2807216075774
 21
788.636447084981
 31
0.0
  0
LINE
  5
31C
330
1F
100
AcDbEntity
  8
通り芯
  6
Continuous
 62
     3
370
     9
100
AcDbLine
 10
-420.5279988269006
 20
845.2120460778758
 30
0.0
 11
-475.5646717651853
 21
802.9812594266184
 31
0.0
  0
LINE
  5
31D
330
1F
100
AcDbEntity
  8
通り芯
  6
Continuous
 62
     3
370
     9
100
AcDbLine
 10
-387.5515781923985
 20
795.8603820097198
 30
0.0
 11
-447.6271687016441
 21
761.1755849952112
 31
0.0
  0
LINE
  5
31E
330
1F
100
AcDbEntity
  8
通り芯
  6
Continuous
 62
     3
370
     9
100
AcDbLine
 10
-399.2694150216249
 20
814.7030600061464
 30
0.0
 11
-456.9499094111035
 21
776.162524885716
 31
0.0
  0
LINE
  5
31F
330
1F
100
AcDbEntity
  8
通り芯
  6
Continuous
 62
     3
370
     9
100
AcDbLine
 10
-369.5918255756641
 20
763.3001551568907
 30
0.0
 11
-431.8068503102205
 21
732.6197368846158
 31
0.0
  0
LINE
  5
320
330
1F
100
AcDbEntity
  8
通り芯
  6
Continuous
 62
     3
370
     9
100
AcDbLine
 10
-380.0521626216943
 20
782.8691903960919
 30
0.0
 11
-440.1297350060901
 21
748.1834024440093
 31
0.0
  0
LINE
  5
321
330
1F
100
AcDbEntity
  8
通り芯
  6
Continuous
 62
     3
370
     9
100
AcDbLine
 10
-353.7992534363519
 20
729.6360238450541
 30
0.0
 11
-417.8871501884322
 21
703.0897971373895
 31
0.0
  0
LINE
  5
322
330
1F
100
AcDbEntity
  8
通り芯
  6
Continuous
 62
     3
370
     9
100
AcDbLine
 10
-362.9574985082917
 20
749.8471866331226
 30
0.0
 11
-425.1754960555746
 21
719.1647864856952
 31
0.0
  0
LINE
  5
323
330
1F
100
AcDbEntity
  8
通り芯
  6
Continuous
 62
     3
370
     9
100
AcDbLine
 10
-340.2432274047391
 20
695.0096921474949
 30
0.0
 11
-405.9304974035325
 21
672.7126057631892
 31
0.0
  0
LINE
  5
324
330
1F
100
AcDbEntity
  8
通り芯
  6
Continuous
 62
     3
370
     9
100
AcDbLine
 10
-348.0597429995754
 20
715.7777618529428
 30
0.0
 11
-412.1506125643822
 21
689.229553270128
 31
0.0
  0
LINE
  5
325
330
1F
100
AcDbEntity
  8
通り芯
  6
Continuous
 62
     3
370
     9
100
AcDbLine
 10
-328.9802309226269
 20
659.5717825756753
 30
0.0
 11
-395.9854478967151
 21
641.6179755843916
 31
0.0
  0
LINE
  5
326
330
1F
100
AcDbEntity
  8
通り芯
  6
Continuous
 62
     3
370
     9
100
AcDbLine
 10
-335.4223161003682
 20
680.8055929415639
 30
0.0
 11
-401.1115679743131
 21
658.5075156196842
 31
0.0
  0
LINE
  5
327
330
1F
100
AcDbEntity
  8
通り芯
  6
Continuous
 62
     3
370
     9
100
AcDbLine
 10
-320.0588199312091
 20
623.4739085786317
 30
0.0
 11
-388.0946119837239
 21
609.9406741112524
 31
0.0
  0
LINE
  5
328
330
1F
100
AcDbEntity
  8
通り芯
  6
Continuous
 62
     3
370
     9
100
AcDbLine
 10
-325.0977375021688
 20
645.0832842856005
 30
0.0
 11
-392.1059272889846
 21
627.1284863567429
 31
0.0
  0
LINE
  5
329
330
1F
100
AcDbEntity
  8
通り芯
  6
Continuous
 62
     3
370
     9
100
AcDbLine
 10
-313.5176409959257
 20
586.8686745429762
 30
0.0
 11
-382.2926724796974
 21
577.814477916453
 31
0.0
  0
LINE
  5
32A
330
1F
100
AcDbEntity
  8
通り芯
  6
Continuous
 62
     3
370
     9
100
AcDbLine
 10
-317.1325812710228
 20
608.761458396515
 30
0.0
 11
-385.1713461362641
 21
595.2282239291379
 31
0.0
  0
LINE
  5
32B
330
1F
100
AcDbEntity
  8
通り芯
  6
Continuous
 62
     3
370
     9
100
AcDbLine
 10
-309.3854313064656
 20
549.9146304807789
 30
0.0
 11
-378.6044028240195
 21
545.3771273229756
 31
0.0
  0
LINE
  5
32C
330
1F
100
AcDbEntity
  8
通り芯
  6
Continuous
 62
     3
370
     9
100
AcDbLine
 10
-311.560539284489
 20
571.99668341122
 30
0.0
 11
-380.3385435809884
 21
562.9414958471206
 31
0.0
  0
LINE
  5
32D
330
1F
100
AcDbEntity
  8
通り芯
  6
Continuous
 62
     3
370
     9
100
AcDbLine
 10
-749.4142344801043
 20
947.9802001485211
 30
0.0
 11
-774.3382963768221
 21
865.8166110833815
 31
0.0
  0
LINE
  5
32E
330
1F
100
AcDbEntity
  8
通り芯
  6
Continuous
 62
     3
370
     9
100
AcDbLine
 10
-778.7033763965047
 20
955.3190838320086
 30
0.0
 11
-795.455176108814
 21
871.1062358609217
 31
0.0
  0
LINE
  5
32F
330
1F
100
AcDbEntity
  8
通り芯
  6
Continuous
 62
     3
370
     9
100
AcDbLine
 10
-735.059512762711
 20
943.6280023173197
 30
0.0
 11
-759.9845655970051
 21
861.4624313770298
 31
0.0
  0
LINE
  5
330
330
1F
100
AcDbEntity
  8
通り芯
  6
Continuous
 62
     3
370
     9
100
AcDbLine
 10
-665.4758762174055
 20
914.8036101237869
 30
0.0
 11
-705.9507214850356
 21
839.0811152988124
 31
0.0
  0
LINE
  5
331
330
1F
100
AcDbEntity
  8
通り芯
  6
Continuous
 62
     3
370
     9
100
AcDbLine
 10
-692.7712517320793
 20
927.7155267313822
 30
0.0
 11
-725.6297507951075
 21
848.3889919446426
 31
0.0
  0
LINE
  5
332
330
1F
100
AcDbEntity
  8
通り芯
  6
Continuous
 62
     3
370
     9
100
AcDbLine
 10
-626.3477151147566
 20
892.2102334044337
 30
0.0
 11
-674.0494681198544
 21
820.8191267215773
 31
0.0
  0
LINE
  5
333
330
1F
100
AcDbEntity
  8
通り芯
  6
Continuous
 62
     3
370
     9
100
AcDbLine
 10
-652.245868648103
 20
907.7352523983848
 30
0.0
 11
-692.7217048533095
 21
832.0107756982623
 31
0.0
  0
LINE
  5
334
330
1F
100
AcDbEntity
  8
通り芯
  6
Continuous
 62
     3
370
     9
100
AcDbLine
 10
-589.622577632478
 20
865.8889495263873
 30
0.0
 11
-644.0924342776276
 21
799.5179326005598
 31
0.0
  0
LINE
  5
335
330
1F
100
AcDbEntity
  8
通り芯
  6
Continuous
 62
     3
370
     9
100
AcDbLine
 10
-613.8747838530679
 20
883.8784302703846
 30
0.0
 11
-661.5775277957408
 21
812.4853417123779
 31
0.0
  0
LINE
  5
336
330
1F
100
AcDbEntity
  8
通り芯
  6
Continuous
 62
     3
370
     9
100
AcDbLine
 10
-555.6542284849904
 20
836.0954203841027
 30
0.0
 11
-616.3679827928007
 21
775.3826570138688
 31
0.0
  0
LINE
  5
337
330
1F
100
AcDbEntity
  8
通り芯
  6
Continuous
 62
     3
370
     9
100
AcDbLine
 10
-578.0266261250273
 20
856.3749578648719
 30
0.0
 11
-632.4974737077531
 21
790.0019590638942
 31
0.0
  0
LINE
  5
338
330
1F
100
AcDbEntity
  8
通り芯
  6
Continuous
 62
     3
370
     9
100
AcDbLine
 10
-524.7696770721795
 20
803.1170178744503
 30
0.0
 11
-591.1416849355822
 21
748.6471612292996
 31
0.0
  0
LINE
  5
339
330
1F
100
AcDbEntity
  8
通り芯
  6
Continuous
 62
     3
370
     9
100
AcDbLine
 10
-545.0462417402246
 20
825.4913973896385
 30
0.0
 11
-605.7609869856088
 21
764.776652144252
 31
0.0
  0
LINE
  5
33A
330
1F
100
AcDbEntity
  8
通り芯
  6
Continuous
 62
     3
370
     9
100
AcDbLine
 10
-497.2671956042444
 20
767.2688601464085
 30
0.0
 11
-568.6583022870997
 21
719.5671071413119
 31
0.0
  0
LINE
  5
33B
330
1F
100
AcDbEntity
  8
通り芯
  6
Continuous
 62
     3
370
     9
100
AcDbLine
 10
-515.2527125979401
 20
791.5230482421509
 30
0.0
 11
-581.6257113989178
 21
737.052200659424
 31
0.0
  0
LINE
  5
33C
330
1F
100
AcDbEntity
  8
通り芯
  6
Continuous
 62
     3
370
     9
100
AcDbLine
 10
-473.409382538668
 20
728.8977753513734
 30
0.0
 11
-549.1328683012165
 21
688.4229300837444
 31
0.0
  0
LINE
  5
33D
330
1F
100
AcDbEntity
  8
通り芯
  6
Continuous
 62
     3
370
     9
100
AcDbLine
 10
-488.9314287198937
 20
754.7979107598724
 30
0.0
 11
-560.3245172778992
 21
707.0951668171972
 31
0.0
  0
LINE
  5
33E
330
1F
100
AcDbEntity
  8
通り芯
  6
Continuous
 62
     3
370
     9
100
AcDbLine
 10
-453.4291082056717
 20
688.3733832049722
 30
0.0
 11
-532.7546520548361
 21
655.5148841419452
 31
0.0
  0
LINE
  5
33F
330
1F
100
AcDbEntity
  8
通り芯
  6
Continuous
 62
     3
370
     9
100
AcDbLine
 10
-466.3370610629653
 20
715.6697496572235
 30
0.0
 11
-542.061537763089
 21
675.1949043895922
 31
0.0
  0
LINE
  5
340
330
1F
100
AcDbEntity
  8
通り芯
  6
Continuous
 62
     3
370
     9
100
AcDbLine
 10
-437.5156416821579
 20
646.0851221743417
 30
0.0
 11
-519.6802216848727
 21
621.161060277624
 31
0.0
  0
LINE
  5
341
330
1F
100
AcDbEntity
  8
通り芯
  6
Continuous
 62
     3
370
     9
100
AcDbLine
 10
-447.6866249561687
 20
674.516112150435
 30
0.0
 11
-527.0141506804845
 21
641.657613087408
 31
0.0
  0
LINE
  5
342
330
1F
100
AcDbEntity
  8
通り芯
  6
Continuous
 62
     3
370
     9
100
AcDbLine
 10
-425.8245601674679
 20
602.4412585405493
 30
0.0
 11
-510.0364172009807
 21
585.6904497658128
 31
0.0
  0
LINE
  5
343
330
1F
100
AcDbEntity
  8
通り芯
  6
Continuous
 62
     3
370
     9
100
AcDbLine
 10
-433.1594801006548
 20
631.7313913945248
 30
0.0
 11
-515.326041978521
 21
606.807329497807
 31
0.0
  0
LINE
  5
344
330
1F
100
AcDbEntity
  8
通り芯
  6
Continuous
 62
     3
370
     9
100
AcDbLine
 10
-418.4678396076225
 20
557.860958897992
 30
0.0
 11
-503.9163867352471
 21
549.4449260700333
 31
0.0
  0
LINE
  5
345
330
1F
100
AcDbEntity
  8
通り芯
  6
Continuous
 62
     3
370
     9
100
AcDbLine
 10
-422.8963396321313
 20
587.7297992960088
 30
0.0
 11
-507.1101785407944
 21
570.9789905212746
 31
0.0
  0
LINE
  5
346
330
1F
100
AcDbEntity
  8
通り芯
  6
Continuous
 62
     3
370
     9
100
AcDbLine
 10
-302.8353339330027
 20
535.3141562446842
 30
0.0
 11
-383.3995497514303
 21
530.0334499053236
 31
0.0
  0
LINE
  5
347
330
1F
100
AcDbEntity
  8
通り芯
  6
Continuous
 62
     3
370
     9
100
AcDbLine
 10
-302.4092307755762
 20
522.2714358771339
 30
0.0
 11
-383.1448787945493
 21
522.2714358771339
 31
0.0
  0
LINE
  5
348
330
1F
100
AcDbEntity
  8
通り芯
  6
Continuous
 62
     3
370
     9
100
AcDbLine
 10
-412.5975254108931
 20
543.363542169742
 30
0.0
 11
-506.6087641276368
 21
534.1042214651077
 31
0.0
  0
LINE
  5
349
330
1F
100
AcDbEntity
  8
通り芯
  6
Continuous
 62
     3
370
     9
100
AcDbLine
 10
-411.5619956445886
 20
522.2714358771339
 30
0.0
 11
-506.0290656460216
 21
522.2714358771339
 31
0.0
  0
LINE
  5
34A
330
1F
100
AcDbEntity
  8
通り芯
  6
Continuous
 62
     3
370
     9
100
AcDbLine
 10
-706.6295137241917
 20
933.4540462305824
 30
0.0
 11
-739.4880127872199
 21
854.1285023814169
 31
0.0
  0
LINE
  5
34B
330
1F
100
AcDbEntity
  8
通り芯
  6
Continuous
 62
     3
370
     9
100
AcDbLine
 10
-858.8702262471924
 20
835.2372684437967
 30
0.0
 11
-858.8702262471924
 21
764.2554189795862
 31
0.0
  0
LINE
  5
34C
330
1F
100
AcDbEntity
  8
通り芯
  6
Continuous
 62
     3
370
     9
100
AcDbLine
 10
-818.6708616255254
 20
831.2794637676086
 30
0.0
 11
-832.5192142418831
 21
761.6601534695872
 31
0.0
  0
LINE
  5
34D
330
1F
100
AcDbEntity
  8
通り芯
  6
Continuous
 62
     3
370
     9
100
AcDbLine
 10
-758.0106179467879
 20
809.4104624158797
 30
0.0
 11
-793.2562856289786
 21
724.3206346905538
 31
0.0
  0
LINE
  5
34E
330
1F
100
AcDbEntity
  8
通り芯
  6
Continuous
 62
     3
370
     9
100
AcDbLine
 10
-804.8968293273225
 20
823.6363622484703
 30
0.0
 11
-822.8655003822365
 21
733.306456624374
 31
0.0
  0
LINE
  5
34F
330
1F
100
AcDbEntity
  8
通り芯
  6
Continuous
 62
     3
370
     9
100
AcDbLine
 10
-700.9405411037613
 20
780.5731880338669
 30
0.0
 11
-752.1085937476442
 21
703.9935322061649
 31
0.0
  0
LINE
  5
350
330
1F
100
AcDbEntity
  8
通り芯
  6
Continuous
 62
     3
370
     9
100
AcDbLine
 10
-744.1513650171004
 20
803.6729338542557
 30
0.0
 11
-779.396041761716
 21
718.5840970665038
 31
0.0
  0
LINE
  5
351
330
1F
100
AcDbEntity
  8
通り芯
  6
Continuous
 62
     3
370
     9
100
AcDbLine
 10
-650.5929847723183
 20
741.1556731591998
 30
0.0
 11
-715.7183931658545
 21
676.0312557032387
 31
0.0
  0
LINE
  5
352
330
1F
100
AcDbEntity
  8
通り芯
  6
Continuous
 62
     3
370
     9
100
AcDbLine
 10
-688.4666189044975
 20
772.2423758373941
 30
0.0
 11
-739.6346715483804
 21
695.663710947266
 31
0.0
  0
LINE
  5
353
330
1F
100
AcDbEntity
  8
通り芯
  6
Continuous
 62
     3
370
     9
100
AcDbLine
 10
-608.9022590996598
 20
692.6740522822536
 30
0.0
 11
-685.4819149273618
 21
641.5050087007955
 31
0.0
  0
LINE
  5
354
330
1F
100
AcDbEntity
  8
通り芯
  6
Continuous
 62
     3
370
     9
100
AcDbLine
 10
-639.9840070899774
 20
730.5516501647332
 30
0.0
 11
-705.1084245459373
 21
665.4272327087745
 31
0.0
  0
LINE
  5
355
330
1F
100
AcDbEntity
  8
通り芯
  6
Continuous
 62
     3
370
     9
100
AcDbLine
 10
-577.4717010827982
 20
636.990297107226
 30
0.0
 11
-662.5625197456992
 21
601.7446294250352
 31
0.0
  0
LINE
  5
356
330
1F
100
AcDbEntity
  8
通り芯
  6
Continuous
 62
     3
370
     9
100
AcDbLine
 10
-600.566492215309
 20
680.2040938332914
 30
0.0
 11
-677.1451571054359
 21
629.0360411894075
 31
0.0
  0
LINE
  5
357
330
1F
100
AcDbEntity
  8
通り芯
  6
Continuous
 62
     3
370
     9
100
AcDbLine
 10
-557.5082726885836
 20
576.2448327970027
 30
0.0
 11
-647.8401601878289
 21
558.276161742091
 31
0.0
  0
LINE
  5
358
330
1F
100
AcDbEntity
  8
通り芯
  6
Continuous
 62
     3
370
     9
100
AcDbLine
 10
-571.72822689572
 20
623.1330260526887
 30
0.0
 11
-656.8180546210459
 21
587.8883493080742
 31
0.0
  0
LINE
  5
359
330
1F
100
AcDbEntity
  8
通り芯
  6
Continuous
 62
     3
370
     9
100
AcDbLine
 10
-545.9043936805296
 20
522.2714358771339
 30
0.0
 11
-616.8872340823151
 21
522.271435877134
 31
0.0
  0
LINE
  5
35A
330
1F
100
AcDbEntity
  8
通り芯
  6
Continuous
 62
     3
370
     9
100
AcDbLine
 10
-549.8621983567176
 20
562.4717914363772
 30
0.0
 11
-619.4815086547391
 21
548.6234388200195
 31
0.0
  0
ARC
  5
35B
330
1F
100
AcDbEntity
  8
通り芯
  6
Continuous
 62
     3
370
     9
100
AcDbCircle
 10
-875.8707512909297
 20
505.2709108333955
 30
0.0
 40
600.0000055232103
100
AcDbArc
 50
0.1909790039062471
 51
89.80899047851562
  0
ARC
  5
35C
330
1F
100
AcDbEntity
  8
通り芯
  6
Continuous
 62
     3
370
     9
100
AcDbCircle
 10
-650.8803566691876
 20
530.2712749234219
 30
0.0
 40
5.999999764918361
100
AcDbArc
 50
180.0
 51
0.0
  0
ARC
  5
35D
330
1F
100
AcDbEntity
  8
通り芯
  6
Continuous
 62
     3
370
     9
100
AcDbCircle
 10
-650.8803566691876
 20
540.2718169344611
 30
0.0
 40
5.999999764918361
100
AcDbArc
 50
0.0
 51
180.0
  0
ARC
  5
35E
330
1F
100
AcDbEntity
  8
通り芯
  6
Continuous
 62
     3
370
     9
100
AcDbCircle
 10
-650.8803566691876
 20
530.2712749234219
 30
0.0
 40
10.0000000920535
100
AcDbArc
 50
180.0
 51
0.0
  0
ARC
  5
35F
330
1F
100
AcDbEntity
  8
通り芯
  6
Continuous
 62
     3
370
     9
100
AcDbCircle
 10
-650.8803566691876
 20
540.2718169344611
 30
0.0
 40
10.0000000920535
100
AcDbArc
 50
0.0
 51
180.0
  0
ARC
  5
360
330
1F
100
AcDbEntity
  8
通り芯
  6
Continuous
 62
     3
370
     9
100
AcDbCircle
 10
-850.8713781384807
 20
730.2613054551387
 30
0.0
 40
5.999999764918361
100
AcDbArc
 50
90.0
 51
270.0
  0
ARC
  5
361
330
1F
100
AcDbEntity
  8
通り芯
  6
Continuous
 62
     3
370
     9
100
AcDbCircle
 10
-840.8708361274404
 20
730.2613054551387
 30
0.0
 40
5.999999764918361
100
AcDbArc
 50
270.0
 51
90.0
  0
ARC
  5
362
330
1F
100
AcDbEntity
  8
通り芯
  6
Continuous
 62
     3
370
     9
100
AcDbCircle
 10
-850.8713781384807
 20
730.2613054551387
 30
0.0
 40
10.0000000920535
100
AcDbArc
 50
90.0
 51
270.0
  0
ARC
  5
363
330
1F
100
AcDbEntity
  8
通り芯
  6
Continuous
 62
     3
370
     9
100
AcDbCircle
 10
-840.8708361274404
 20
730.2613054551387
 30
0.0
 40
10.0000000920535
100
AcDbArc
 50
270.0
 51
90.0
  0
ARC
  5
364
330
1F
100
AcDbEntity
  8
通り芯
  6
Continuous
 62
     3
370
     9
100
AcDbCircle
 10
-875.8707512909297
 20
505.2709108333955
 30
0.0
 40
200.0000018410701
100
AcDbArc
 50
0.5729522705078127
 51
89.42697143554688
  0
ARC
  5
365
330
1F
100
AcDbEntity
  8
通り芯
  6
Continuous
 62
     3
370
     9
100
AcDbCircle
 10
-808.389884280644
 20
960.1935057654521
 30
0.0
 40
15.10000064221128
100
AcDbArc
 50
352.5792999267578
 51
170.5379028320312
  0
ARC
  5
366
330
1F
100
AcDbEntity
  8
通り芯
  6
Continuous
 62
     3
370
     9
100
AcDbCircle
 10
-820.7003017799656
 20
877.2014928872693
 30
0.0
 40
11.00000029480135
100
AcDbArc
 50
179.8728942871094
 51
343.2518768310547
  0
ARC
  5
367
330
1F
100
AcDbEntity
  8
通り芯
  6
Continuous
 62
     3
370
     9
100
AcDbCircle
 10
-820.1106939225969
 20
1071.412375479196
 30
0.0
 40
11.12000051267359
100
AcDbArc
 50
354.4778289794922
 51
174.2626647949219
  0
ARC
  5
368
330
1F
100
AcDbEntity
  8
通り芯
  6
Continuous
 62
     3
370
     9
100
AcDbCircle
 10
-826.9769003826133
 20
1001.693971423632
 30
0.0
 40
8.825000700573204
100
AcDbArc
 50
177.9319458007812
 51
350.7851715087891
  0
ARC
  5
369
330
1F
100
AcDbEntity
  8
通り芯
  6
Continuous
 62
     3
370
     9
100
AcDbCircle
 10
-852.3577845015956
 20
1078.25975412528
 30
0.0
 40
6.53000040461658
100
AcDbArc
 50
0.4151763916015672
 51
175.8419036865235
  0
ARC
  5
36A
330
1F
100
AcDbEntity
  8
通り芯
  6
Continuous
 62
     3
370
     9
100
AcDbCircle
 10
-854.9580046994726
 20
998.8281799555455
 30
0.0
 40
4.000000085207026
100
AcDbArc
 50
191.9999542236328
 51
344.2443389892578
  0
ARC
  5
36B
330
1F
100
AcDbEntity
  8
通り芯
  6
Continuous
 62
     3
370
     9
100
AcDbCircle
 10
-848.3325960702797
 20
968.8949286151285
 30
0.0
 40
10.56000078621978
100
AcDbArc
 50
358.0980377197266
 51
176.2801666259766
  0
ARC
  5
36C
330
1F
100
AcDbEntity
  8
通り芯
  6
Continuous
 62
     3
370
     9
100
AcDbCircle
 10
-852.919646106854
 20
875.5248265096759
 30
0.0
 40
5.965000023943117
100
AcDbArc
 50
183.967529296875
 51
350.4295043945312
  0
ARC
  5
36D
330
1F
100
AcDbEntity
  8
通り芯
  6
Continuous
 62
     3
370
     9
100
AcDbCircle
 10
-783.2022329888667
 20
1066.552817609382
 30
0.0
 40
11.12000051267359
100
AcDbArc
 50
350.7278289794922
 51
170.5126647949219
  0
ARC
  5
36E
330
1F
100
AcDbEntity
  8
通り芯
  6
Continuous
 62
     3
370
     9
100
AcDbCircle
 10
-794.6138701072908
 20
997.4339307869434
 30
0.0
 40
8.825000700573204
100
AcDbArc
 50
174.1819458007812
 51
347.0351715087891
  0
ARC
  5
36F
330
1F
100
AcDbEntity
  8
通り芯
  6
Continuous
 62
     3
370
     9
100
AcDbCircle
 10
-746.6911380228765
 20
1059.290236119201
 30
0.0
 40
11.12000051267359
100
AcDbArc
 50
346.9778289794922
 51
166.7626647949219
  0
ARC
  5
370
330
1F
100
AcDbEntity
  8
通り芯
  6
Continuous
 62
     3
370
     9
100
AcDbCircle
 10
-762.5986589209373
 20
991.0651749897818
 30
0.0
 40
8.825000700573204
100
AcDbArc
 50
170.4319458007812
 51
343.2851715087891
  0
ARC
  5
371
330
1F
100
AcDbEntity
  8
通り芯
  6
Continuous
 62
     3
370
     9
100
AcDbCircle
 10
-710.7329862239652
 20
1049.655350073486
 30
0.0
 40
11.12000051267359
100
AcDbArc
 50
343.2278289794922
 51
163.0126647949219
  0
ARC
  5
372
330
1F
100
AcDbEntity
  8
通り芯
  6
Continuous
 62
     3
370
     9
100
AcDbCircle
 10
-731.0690071465348
 20
982.6164412218338
 30
0.0
 40
8.825000700573204
100
AcDbArc
 50
166.6819458007812
 51
339.5351715087891
  0
ARC
  5
373
330
1F
100
AcDbEntity
  8
通り芯
  6
Continuous
 62
     3
370
     9
100
AcDbCircle
 10
-675.4823638538977
 20
1037.688787912833
 30
0.0
 40
11.12000051267359
100
AcDbArc
 50
339.4778289794922
 51
159.2626647949219
  0
ARC
  5
374
330
1F
100
AcDbEntity
  8
通り芯
  6
Continuous
 62
     3
370
     9
100
AcDbCircle
 10
-700.1586913567627
 20
972.1243941733917
 30
0.0
 40
8.825000700573204
100
AcDbArc
 50
162.9319458007812
 51
335.7851715087891
  0
ARC
  5
375
330
1F
100
AcDbEntity
  8
通り芯
  6
Continuous
 62
     3
370
     9
100
AcDbCircle
 10
-641.0898934241351
 20
1023.443069328736
 30
0.0
 40
11.12000051267359
100
AcDbArc
 50
335.7278289794922
 51
155.5126647949219
  0
ARC
  5
376
330
1F
100
AcDbEntity
  8
通り芯
  6
Continuous
 62
     3
370
     9
100
AcDbCircle
 10
-670.0014881243038
 20
959.6326350977699
 30
0.0
 40
8.825000700573204
100
AcDbArc
 50
159.1819458007812
 51
332.0351715087891
  0
ARC
  5
377
330
1F
100
AcDbEntity
  8
通り芯
  6
Continuous
 62
     3
370
     9
100
AcDbCircle
 10
-607.7022336958378
 20
1006.977650575719
 30
0.0
 40
11.12000051267359
100
AcDbArc
 50
331.9778289794922
 51
151.7626647949219
  0
ARC
  5
378
330
1F
100
AcDbEntity
  8
通り芯
  6
Continuous
 62
     3
370
     9
100
AcDbCircle
 10
-640.7252283963834
 20
945.1946746240435
 30
0.0
 40
8.825000700573204
100
AcDbArc
 50
155.4319458007812
 51
328.2851715087891
  0
ARC
  5
379
330
1F
100
AcDbEntity
  8
通り芯
  6
Continuous
 62
     3
370
     9
100
AcDbCircle
 10
-575.4630706174412
 20
988.3648700967899
 30
0.0
 40
11.12000051267359
100
AcDbArc
 50
328.2278289794922
 51
148.0126647949219
  0
ARC
  5
37A
330
1F
100
AcDbEntity
  8
通り芯
  6
Continuous
 62
     3
370
     9
100
AcDbCircle
 10
-612.456752182656
 20
928.8739327570363
 30
0.0
 40
8.825000700573204
100
AcDbArc
 50
151.6819458007812
 51
324.5351715087891
  0
ARC
  5
37B
330
1F
100
AcDbEntity
  8
通り芯
  6
Continuous
 62
     3
370
     9
100
AcDbCircle
 10
-544.5101445119274
 20
967.6820210228277
 30
0.0
 40
11.12000051267359
100
AcDbArc
 50
324.4778289794922
 51
144.2626647949219
  0
ARC
  5
37C
330
1F
100
AcDbEntity
  8
通り芯
  6
Continuous
 62
     3
370
     9
100
AcDbCircle
 10
-585.3149719921697
 20
910.7387841894536
 30
0.0
 40
8.825000700573204
100
AcDbArc
 50
147.9319458007812
 51
320.7851715087891
  0
ARC
  5
37D
330
1F
100
AcDbEntity
  8
通り芯
  6
Continuous
 62
     3
370
     9
100
AcDbCircle
 10
-514.9762410144006
 20
945.0202696107692
 30
0.0
 40
11.12000051267359
100
AcDbArc
 50
320.7278289794922
 51
140.5126647949219
  0
ARC
  5
37E
330
1F
100
AcDbEntity
  8
通り芯
  6
Continuous
 62
     3
370
     9
100
AcDbCircle
 10
-559.4188003339747
 20
890.8675129897517
 30
0.0
 40
8.825000700573204
100
AcDbArc
 50
144.1819458007812
 51
317.0351715087891
  0
ARC
  5
37F
330
1F
100
AcDbEntity
  8
通り芯
  6
Continuous
 62
     3
370
     9
100
AcDbCircle
 10
-486.9882001345143
 20
920.4757368054345
 30
0.0
 40
11.12000051267359
100
AcDbArc
 50
316.9778289794922
 51
136.762664794922
  0
ARC
  5
380
330
1F
100
AcDbEntity
  8
通り芯
  6
Continuous
 62
     3
370
     9
100
AcDbCircle
 10
-534.876249403789
 20
869.3443488518426
 30
0.0
 40
8.825000700573204
100
AcDbArc
 50
140.4319458007813
 51
313.2851715087891
  0
ARC
  5
381
330
1F
100
AcDbEntity
  8
通り芯
  6
Continuous
 62
     3
370
     9
100
AcDbCircle
 10
-460.6649343813165
 20
894.1524710522378
 30
0.0
 40
11.12000051267359
100
AcDbArc
 50
313.2278289794922
 51
133.0126647949219
  0
ARC
  5
382
330
1F
100
AcDbEntity
  8
通り芯
  6
Continuous
 62
     3
370
     9
100
AcDbCircle
 10
-511.7953313973333
 20
846.2634308453869
 30
0.0
 40
8.825000700573204
100
AcDbArc
 50
136.6819458007812
 51
309.5351715087891
  0
ARC
  5
383
330
1F
100
AcDbEntity
  8
通り芯
  6
Continuous
 62
     3
370
     9
100
AcDbCircle
 10
-436.1194106384056
 20
866.1634392347753
 30
0.0
 40
11.12000051267359
100
AcDbArc
 50
309.4778289794922
 51
129.262664794922
  0
ARC
  5
384
330
1F
100
AcDbEntity
  8
通り芯
  6
Continuous
 62
     3
370
     9
100
AcDbCircle
 10
-490.272167259423
 20
821.7208799152024
 30
0.0
 40
8.825000700573204
100
AcDbArc
 50
132.9319458007813
 51
305.7851715087891
  0
ARC
  5
385
330
1F
100
AcDbEntity
  8
通り芯
  6
Continuous
 62
     3
370
     9
100
AcDbCircle
 10
-413.4576592263482
 20
836.6295357372485
 30
0.0
 40
11.12000051267359
100
AcDbArc
 50
305.7278289794922
 51
125.5126647949219
  0
ARC
  5
386
330
1F
100
AcDbEntity
  8
通り芯
  6
Continuous
 62
     3
370
     9
100
AcDbCircle
 10
-470.4008960597224
 20
795.82371731943
 30
0.0
 40
8.825000700573204
100
AcDbArc
 50
129.1819458007812
 51
302.0351715087891
  0
ARC
  5
387
330
1F
100
AcDbEntity
  8
通り芯
  6
Continuous
 62
     3
370
     9
100
AcDbCircle
 10
-392.774810152386
 20
805.6766096317335
 30
0.0
 40
11.12000051267359
100
AcDbArc
 50
301.9778289794922
 51
121.7626647949219
  0
ARC
  5
388
330
1F
100
AcDbEntity
  8
通り芯
  6
Continuous
 62
     3
370
     9
100
AcDbCircle
 10
-452.2657474921397
 20
768.6829280665199
 30
0.0
 40
8.825000700573204
100
AcDbArc
 50
125.4319458007812
 51
298.2851715087891
  0
ARC
  5
389
330
1F
100
AcDbEntity
  8
通り芯
  6
Continuous
 62
     3
370
     9
100
AcDbCircle
 10
-374.1620296734567
 20
773.4374465533381
 30
0.0
 40
11.12000051267359
100
AcDbArc
 50
298.2278289794922
 51
118.0126647949219
  0
ARC
  5
38A
330
1F
100
AcDbEntity
  8
通り芯
  6
Continuous
 62
     3
370
     9
100
AcDbCircle
 10
-435.9450056251336
 20
740.4144518527926
 30
0.0
 40
8.825000700573204
100
AcDbArc
 50
121.6819458007812
 51
294.5351715087891
  0
ARC
  5
38B
330
1F
100
AcDbEntity
  8
通り芯
  6
Continuous
 62
     3
370
     9
100
AcDbCircle
 10
-357.6966109204403
 20
740.049786825042
 30
0.0
 40
11.12000051267359
100
AcDbArc
 50
294.4778289794922
 51
114.2626647949219
  0
ARC
  5
38C
330
1F
100
AcDbEntity
  8
通り芯
  6
Continuous
 62
     3
370
     9
100
AcDbCircle
 10
-421.507045151406
 20
711.138192124871
 30
0.0
 40
8.825000700573204
100
AcDbArc
 50
117.9319458007812
 51
290.7851715087891
  0
ARC
  5
38D
330
1F
100
AcDbEntity
  8
通り芯
  6
Continuous
 62
     3
370
     9
100
AcDbCircle
 10
-343.4508923363427
 20
705.6573163952783
 30
0.0
 40
11.12000051267359
100
AcDbArc
 50
290.7278289794922
 51
110.5126647949219
  0
ARC
  5
38E
330
1F
100
AcDbEntity
  8
通り芯
  6
Continuous
 62
     3
370
     9
100
AcDbCircle
 10
-409.0152860757843
 20
680.9799979548382
 30
0.0
 40
8.825000700573204
100
AcDbArc
 50
114.1819458007812
 51
287.0351715087891
  0
ARC
  5
38F
330
1F
100
AcDbEntity
  8
通り芯
  6
Continuous
 62
     3
370
     9
100
AcDbCircle
 10
-331.4843301756872
 20
670.4066940252108
 30
0.0
 40
11.12000051267359
100
AcDbArc
 50
286.9778289794922
 51
106.7626647949219
  0
ARC
  5
390
330
1F
100
AcDbEntity
  8
通り芯
  6
Continuous
 62
     3
370
     9
100
AcDbCircle
 10
-398.523239027341
 20
650.0706731026401
 30
0.0
 40
8.825000700573204
100
AcDbArc
 50
110.4319458007812
 51
283.2851715087891
  0
ARC
  5
391
330
1F
100
AcDbEntity
  8
通り芯
  6
Continuous
 62
     3
370
     9
100
AcDbCircle
 10
-321.8494441299748
 20
634.4485422262995
 30
0.0
 40
11.12000051267359
100
AcDbArc
 50
283.2278289794922
 51
103.0126647949219
  0
ARC
  5
392
330
1F
100
AcDbEntity
  8
通り芯
  6
Continuous
 62
     3
370
     9
100
AcDbCircle
 10
-390.074505259393
 20
618.5410213282388
 30
0.0
 40
8.825000700573204
100
AcDbArc
 50
106.6819458007812
 51
279.5351715087891
  0
ARC
  5
393
330
1F
100
AcDbEntity
  8
通り芯
  6
Continuous
 62
     3
370
     9
100
AcDbCircle
 10
-314.5868626397936
 20
597.9374472603093
 30
0.0
 40
11.12000051267359
100
AcDbArc
 50
279.4778289794922
 51
99.26266479492195
  0
ARC
  5
394
330
1F
100
AcDbEntity
  8
通り芯
  6
Continuous
 62
     3
370
     9
100
AcDbCircle
 10
-383.7057494622314
 20
586.5258101418852
 30
0.0
 40
8.825000700573204
100
AcDbArc
 50
102.9319458007813
 51
275.7851715087891
  0
ARC
  5
395
330
1F
100
AcDbEntity
  8
通り芯
  6
Continuous
 62
     3
370
     9
100
AcDbCircle
 10
-309.7282957075566
 20
561.0289863265792
 30
0.0
 40
11.12000051267359
100
AcDbArc
 50
275.7278289794922
 51
95.51266479492192
  0
ARC
  5
396
330
1F
100
AcDbEntity
  8
通り芯
  6
Continuous
 62
     3
370
     9
100
AcDbCircle
 10
-379.4457088255439
 20
554.1617889289877
 30
0.0
 40
8.825000700573204
100
AcDbArc
 50
99.18194580078125
 51
272.0351715087891
  0
ARC
  5
397
330
1F
100
AcDbEntity
  8
通り芯
  6
Continuous
 62
     3
370
     9
100
AcDbCircle
 10
-764.1247027870685
 20
951.3890254079308
 30
0.0
 40
15.10000064221128
100
AcDbArc
 50
346.9542999267579
 51
164.9129028320313
  0
ARC
  5
398
330
1F
100
AcDbEntity
  8
通り芯
  6
Continuous
 62
     3
370
     9
100
AcDbCircle
 10
-784.5102705884079
 20
870.0033223394905
 30
0.0
 40
11.00000029480135
100
AcDbArc
 50
174.2478942871094
 51
337.6268768310547
  0
ARC
  5
399
330
1F
100
AcDbEntity
  8
通り芯
  6
Continuous
 62
     3
370
     9
100
AcDbCircle
 10
-720.935679500389
 20
938.2878397234333
 30
0.0
 40
15.10000064221128
100
AcDbArc
 50
341.3292999267578
 51
159.2879028320312
  0
ARC
  5
39A
330
1F
100
AcDbEntity
  8
通り芯
  6
Continuous
 62
     3
370
     9
100
AcDbCircle
 10
-749.2001919638159
 20
859.292278086881
 30
0.0
 40
11.00000029480135
100
AcDbArc
 50
168.6228942871094
 51
332.0018768310547
  0
ARC
  5
39B
330
1F
100
AcDbEntity
  8
通り芯
  6
Continuous
 62
     3
370
     9
100
AcDbCircle
 10
-679.2380172647023
 20
921.0167887216073
 30
0.0
 40
15.10000064221128
100
AcDbArc
 50
335.7042999267578
 51
153.6629028320312
  0
ARC
  5
39C
330
1F
100
AcDbEntity
  8
通り芯
  6
Continuous
 62
     3
370
     9
100
AcDbCircle
 10
-715.1099574945528
 20
845.1724085748594
 30
0.0
 40
11.00000029480135
100
AcDbArc
 50
162.9978942871094
 51
326.3768768310547
  0
ARC
  5
39D
330
1F
100
AcDbEntity
  8
通り芯
  6
Continuous
 62
     3
370
     9
100
AcDbCircle
 10
-639.4350276732001
 20
899.7413589775499
 30
0.0
 40
15.10000064221128
100
AcDbArc
 50
330.0792999267579
 51
148.0379028320313
  0
ARC
  5
39E
330
1F
100
AcDbEntity
  8
通り芯
  6
Continuous
 62
     3
370
     9
100
AcDbCircle
 10
-682.5685584556567
 20
827.7784813136839
 30
0.0
 40
11.00000029480135
100
AcDbArc
 50
157.3728942871094
 51
320.7518768310547
  0
ARC
  5
39F
330
1F
100
AcDbEntity
  8
通り芯
  6
Continuous
 62
     3
370
     9
100
AcDbCircle
 10
-601.9082216924136
 20
874.6676655069462
 30
0.0
 40
15.10000064221128
100
AcDbArc
 50
324.4542999267579
 51
142.4129028320313
  0
ARC
  5
3A0
330
1F
100
AcDbEntity
  8
通り芯
  6
Continuous
 62
     3
370
     9
100
AcDbCircle
 10
-651.8881401833795
 20
807.2789556911732
 30
0.0
 40
11.00000029480135
100
AcDbArc
 50
151.7478942871094
 51
315.1268768310547
  0
ARC
  5
3A1
330
1F
100
AcDbEntity
  8
通り芯
  6
Continuous
 62
     3
370
     9
100
AcDbCircle
 10
-567.0212734125215
 20
846.0365061406185
 30
0.0
 40
15.10000064221128
100
AcDbArc
 50
318.8292999267578
 51
136.7879028320312
  0
ARC
  5
3A2
330
1F
100
AcDbEntity
  8
通り芯
  6
Continuous
 62
     3
370
     9
100
AcDbCircle
 10
-623.3649930127723
 20
783.8710282848331
 30
0.0
 40
11.00000029480135
100
AcDbArc
 50
146.1228942871094
 51
309.5018768310547
  0
ARC
  5
3A3
330
1F
100
AcDbEntity
  8
通り芯
  6
Continuous
 62
     3
370
     9
100
AcDbCircle
 10
-535.107137858859
 20
814.1233615245312
 30
0.0
 40
15.10000064221128
100
AcDbArc
 50
313.2042999267578
 51
131.1629028320312
  0
ARC
  5
3A4
330
1F
100
AcDbEntity
  8
通り芯
  6
Continuous
 62
     3
370
     9
100
AcDbCircle
 10
-597.2726157146445
 20
757.7796419242816
 30
0.0
 40
11.00000029480135
100
AcDbArc
 50
140.4978942871094
 51
303.8768768310547
  0
ARC
  5
3A5
330
1F
100
AcDbEntity
  8
通り芯
  6
Continuous
 62
     3
370
     9
100
AcDbCircle
 10
-506.4759784925315
 20
779.235422307064
 30
0.0
 40
15.10000064221128
100
AcDbArc
 50
307.5792999267579
 51
125.5379028320313
  0
ARC
  5
3A6
330
1F
100
AcDbEntity
  8
通り芯
  6
Continuous
 62
     3
370
     9
100
AcDbCircle
 10
-573.8646883083044
 20
729.2564947536732
 30
0.0
 40
11.00000029480135
100
AcDbArc
 50
134.8728942871094
 51
298.2518768310547
  0
ARC
  5
3A7
330
1F
100
AcDbEntity
  8
通り芯
  6
Continuous
 62
     3
370
     9
100
AcDbCircle
 10
-481.4012940843514
 20
741.7096072638526
 30
0.0
 40
15.10000064221128
100
AcDbArc
 50
301.9542999267579
 51
119.9129028320313
  0
ARC
  5
3A8
330
1F
100
AcDbEntity
  8
通り芯
  6
Continuous
 62
     3
370
     9
100
AcDbCircle
 10
-553.3651626857926
 20
698.5760764813961
 30
0.0
 40
11.00000029480135
100
AcDbArc
 50
129.2478942871094
 51
292.6268768310547
  0
ARC
  5
3A9
330
1F
100
AcDbEntity
  8
通り芯
  6
Continuous
 62
     3
370
     9
100
AcDbCircle
 10
-460.125864340294
 20
701.9066176723493
 30
0.0
 40
15.10000064221128
100
AcDbArc
 50
296.3292999267578
 51
114.2879028320312
  0
ARC
  5
3AA
330
1F
100
AcDbEntity
  8
通り芯
  6
Continuous
 62
     3
370
     9
100
AcDbCircle
 10
-535.971235424617
 20
666.0346774425
 30
0.0
 40
11.00000029480135
100
AcDbArc
 50
123.6228942871094
 51
287.0018768310547
  0
ARC
  5
3AB
330
1F
100
AcDbEntity
  8
通り芯
  6
Continuous
 62
     3
370
     9
100
AcDbCircle
 10
-442.8548133384692
 20
660.2099463742377
 30
0.0
 40
15.10000064221128
100
AcDbArc
 50
290.7042999267578
 51
108.6629028320313
  0
ARC
  5
3AC
330
1F
100
AcDbEntity
  8
通り芯
  6
Continuous
 62
     3
370
     9
100
AcDbCircle
 10
-521.8503749750215
 20
631.944442973237
 30
0.0
 40
11.00000029480135
100
AcDbArc
 50
117.9978942871094
 51
281.3768768310547
  0
ARC
  5
3AD
330
1F
100
AcDbEntity
  8
通り芯
  6
Continuous
 62
     3
370
     9
100
AcDbCircle
 10
-429.7536276539705
 20
617.0209230875583
 30
0.0
 40
15.10000064221128
100
AcDbArc
 50
285.0792999267579
 51
103.0379028320313
  0
ARC
  5
3AE
330
1F
100
AcDbEntity
  8
通り芯
  6
Continuous
 62
     3
370
     9
100
AcDbCircle
 10
-511.139330722412
 20
596.63535528622
 30
0.0
 40
11.00000029480135
100
AcDbArc
 50
112.3728942871094
 51
275.7518768310547
  0
ARC
  5
3AF
330
1F
100
AcDbEntity
  8
通り芯
  6
Continuous
 62
     3
370
     9
100
AcDbCircle
 10
-420.9481563588741
 20
572.755741593984
 30
0.0
 40
15.10000064221128
100
AcDbArc
 50
279.4542999267578
 51
97.41290283203125
  0
ARC
  5
3B0
330
1F
100
AcDbEntity
  8
通り芯
  6
Continuous
 62
     3
370
     9
100
AcDbCircle
 10
-503.9401692370569
 20
560.4453240946635
 30
0.0
 40
11.00000029480135
100
AcDbArc
 50
106.7478942871094
 51
270.1268768310547
  0
ARC
  5
3B1
330
1F
100
AcDbEntity
  8
通り芯
  6
Continuous
 62
     3
370
     9
100
AcDbCircle
 10
-302.8828989366224
 20
528.7838776227306
 30
0.0
 40
6.53000040461658
100
AcDbArc
 50
274.1580963134766
 51
89.58482360839845
  0
ARC
  5
3B2
330
1F
100
AcDbEntity
  8
通り芯
  6
Continuous
 62
     3
370
     9
100
AcDbCircle
 10
-382.3134821687808
 20
526.1836574248548
 30
0.0
 40
4.000000085207026
100
AcDbArc
 50
105.7556610107422
 51
258.0000457763672
  0
ARC
  5
3B3
330
1F
100
AcDbEntity
  8
通り芯
  6
Continuous
 62
     3
370
     9
100
AcDbCircle
 10
-412.2477244467728
 20
532.8090660540477
 30
0.0
 40
10.56000078621978
100
AcDbArc
 50
273.7198333740234
 51
91.9019622802735
  0
ARC
  5
3B4
330
1F
100
AcDbEntity
  8
通り芯
  6
Continuous
 62
     3
370
     9
100
AcDbCircle
 10
-505.6168356146514
 20
528.2220160174722
 30
0.0
 40
5.965000023943117
100
AcDbArc
 50
99.57049560546878
 51
266.032470703125
  0
ARC
  5
3B5
330
1F
100
AcDbEntity
  8
通り芯
  6
Continuous
 62
     3
370
     9
100
AcDbCircle
 10
-838.7977947196822
 20
832.9838763973146
 30
0.0
 40
20.19899864224394
100
AcDbArc
 50
355.1592102050781
 51
173.5951232910156
  0
ARC
  5
3B6
330
1F
100
AcDbEntity
  8
通り芯
  6
Continuous
 62
     3
370
     9
100
AcDbCircle
 10
-845.248798335603
 20
767.4868664129997
 30
0.0
 40
13.99999993533241
100
AcDbArc
 50
193.3457489013672
 51
335.4060974121094
  0
ARC
  5
3B7
330
1F
100
AcDbEntity
  8
通り芯
  6
Continuous
 62
     3
370
     9
100
AcDbCircle
 10
-781.3828716004133
 20
816.7552917248202
 30
0.0
 40
24.50000061261608
100
AcDbArc
 50
342.5545043945312
 51
163.6880340576172
  0
ARC
  5
3B8
330
1F
100
AcDbEntity
  8
通り芯
  6
Continuous
 62
     3
370
     9
100
AcDbCircle
 10
-807.4802035864178
 20
730.7270461155815
 30
0.0
 40
15.60000025972897
100
AcDbArc
 50
170.4817352294922
 51
335.7541656494141
  0
ARC
  5
3B9
330
1F
100
AcDbEntity
  8
通り芯
  6
Continuous
 62
     3
370
     9
100
AcDbCircle
 10
-722.4310043016834
 20
792.3366079915616
 30
0.0
 40
24.50000061261608
100
AcDbArc
 50
331.3045043945312
 51
152.4380340576171
  0
ARC
  5
3BA
330
1F
100
AcDbEntity
  8
通り芯
  6
Continuous
 62
     3
370
     9
100
AcDbCircle
 10
-764.8094406516776
 20
713.0516925829886
 30
0.0
 40
15.60000025972897
100
AcDbArc
 50
159.2317352294922
 51
324.5041656494141
  0
ARC
  5
3BB
330
1F
100
AcDbEntity
  8
通り芯
  6
Continuous
 62
     3
370
     9
100
AcDbCircle
 10
-669.3762065142192
 20
756.886807168836
 30
0.0
 40
24.50000061261608
100
AcDbArc
 50
320.0545043945312
 51
141.1880340576172
  0
ARC
  5
3BC
330
1F
100
AcDbEntity
  8
通り芯
  6
Continuous
 62
     3
370
     9
100
AcDbCircle
 10
-726.4076367918045
 20
687.3923550053166
 30
0.0
 40
15.60000025972897
100
AcDbArc
 50
147.9817352294922
 51
313.2541656494141
  0
ARC
  5
3BD
330
1F
100
AcDbEntity
  8
通り芯
  6
Continuous
 62
     3
370
     9
100
AcDbCircle
 10
-624.2558458930654
 20
711.7664465476821
 30
0.0
 40
24.50000061261608
100
AcDbArc
 50
308.8045043945312
 51
129.9380340576172
  0
ARC
  5
3BE
330
1F
100
AcDbEntity
  8
通り芯
  6
Continuous
 62
     3
370
     9
100
AcDbCircle
 10
-693.7493071190096
 20
654.7340253325217
 30
0.0
 40
15.60000025972897
100
AcDbArc
 50
136.7317352294922
 51
302.0041656494141
  0
ARC
  5
3BF
330
1F
100
AcDbEntity
  8
通り芯
  6
Continuous
 62
     3
370
     9
100
AcDbCircle
 10
-588.8050541327647
 20
658.7116487602191
 30
0.0
 40
24.50000061261608
100
AcDbArc
 50
297.5545043945313
 51
118.6880340576172
  0
ARC
  5
3C0
330
1F
100
AcDbEntity
  8
通り芯
  6
Continuous
 62
     3
370
     9
100
AcDbCircle
 10
-668.0899695413376
 20
616.3322214726498
 30
0.0
 40
15.60000025972897
100
AcDbArc
 50
125.4817352294923
 51
290.7541656494141
  0
ARC
  5
3C1
330
1F
100
AcDbEntity
  8
通り芯
  6
Continuous
 62
     3
370
     9
100
AcDbCircle
 10
-564.3863703995061
 20
599.7587905239119
 30
0.0
 40
24.50000061261608
100
AcDbArc
 50
286.3045043945312
 51
107.4380340576172
  0
ARC
  5
3C2
330
1F
100
AcDbEntity
  8
通り芯
  6
Continuous
 62
     3
370
     9
100
AcDbCircle
 10
-650.4156069463198
 20
573.6624494754836
 30
0.0
 40
15.60000025972897
100
AcDbArc
 50
114.2317352294922
 51
279.5041656494141
  0
ARC
  5
3C3
330
1F
100
AcDbEntity
  8
通り芯
  6
Continuous
 62
     3
370
     9
100
AcDbCircle
 10
-548.1577857270128
 20
542.3448583422203
 30
0.0
 40
20.19899864224394
100
AcDbArc
 50
276.4048767089844
 51
94.84078979492188
  0
ARC
  5
3C4
330
1F
100
AcDbEntity
  8
通り芯
  6
Continuous
 62
     3
370
     9
100
AcDbCircle
 10
-613.6547957113265
 20
535.8938547262995
 30
0.0
 40
13.99999993533241
100
AcDbArc
 50
114.5939025878906
 51
256.6542510986328
  0
LINE
  5
3C5
330
1F
100
AcDbEntity
  8
躯体
  6
Continuous
 62
     2
370
     9
100
AcDbLine
 10
-880.8710222964493
 20
1180.252995011951
 30
0.0
 11
-880.8710222964493
 21
1105.250080403243
 31
0.0
  0
LINE
  5
3C6
330
1F
100
AcDbEntity
  8
躯体
  6
Continuous
 62
     2
370
     9
100
AcDbLine
 10
-870.871471222984
 20
1180.252995011951
 30
0.0
 11
-870.871471222984
 21
1105.250088660972
 31
0.0
  0
LINE
  5
3C7
330
1F
100
AcDbEntity
  8
躯体
  6
JWW_DASHED3
 62
     2
370
     9
100
AcDbLine
 10
-880.8710222964493
 20
1105.250080403243
 30
0.0
 11
-880.8710222964493
 21
1080.249556776702
 31
0.0
  0
LINE
  5
3C8
330
1F
100
AcDbEntity
  8
躯体
  6
JWW_DASHED3
 62
     2
370
     9
100
AcDbLine
 10
-870.871471222984
 20
1105.250088660972
 30
0.0
 11
-870.871471222984
 21
1080.249556776702
 31
0.0
  0
LINE
  5
3C9
330
1F
100
AcDbEntity
  8
躯体
  6
Continuous
 62
     2
370
     9
100
AcDbLine
 10
-293.8197838719185
 20
847.0928455960035
 30
0.0
 11
-358.7738096497412
 21
809.5910704896062
 31
0.0
  0
LINE
  5
3CA
330
1F
100
AcDbEntity
  8
躯体
  6
Continuous
 62
     2
370
     9
100
AcDbLine
 10
-288.8205038039752
 20
838.4320511869186
 30
0.0
 11
-353.773882994427
 21
800.9309635000295
 31
0.0
  0
LINE
  5
3CB
330
1F
100
AcDbEntity
  8
躯体
  6
JWW_DASHED3
 62
     2
370
     9
100
AcDbLine
 10
-358.7738096497412
 20
809.5910704896062
 30
0.0
 11
-380.4257460876221
 21
797.0901355408034
 31
0.0
  0
LINE
  5
3CC
330
1F
100
AcDbEntity
  8
躯体
  6
JWW_DASHED3
 62
     2
370
     9
100
AcDbLine
 10
-353.773882994427
 20
800.9309635000295
 30
0.0
 11
-375.4254750821025
 21
788.4303320692936
 31
0.0
  0
LINE
  5
3CD
330
1F
100
AcDbEntity
  8
躯体
  6
Continuous
 62
     2
370
     9
100
AcDbLine
 10
-288.8195128663989
 20
172.1107614174475
 30
0.0
 11
-353.7733990582577
 21
209.6117127361848
 31
0.0
  0
LINE
  5
3CE
330
1F
100
AcDbEntity
  8
躯体
  6
Continuous
 62
     2
370
     9
100
AcDbLine
 10
-293.8197838719185
 20
163.4509579459377
 30
0.0
 11
-358.7735920026284
 21
200.9511210006911
 31
0.0
  0
LINE
  5
3CF
330
1F
100
AcDbEntity
  8
躯体
  6
JWW_DASHED3
 62
     2
370
     9
100
AcDbLine
 10
-353.7733990582577
 20
209.6117127361848
 30
0.0
 11
-375.4254750821025
 21
222.1124805350724
 31
0.0
  0
LINE
  5
3D0
330
1F
100
AcDbEntity
  8
躯体
  6
JWW_DASHED3
 62
     2
370
     9
100
AcDbLine
 10
-358.7735920026284
 20
200.9511210006911
 30
0.0
 11
-380.4257460876221
 21
213.4516861259869
 31
0.0
  0
LINE
  5
3D1
330
1F
100
AcDbEntity
  8
躯体
  6
Continuous
 62
     2
370
     9
100
AcDbLine
 10
-870.871471222984
 20
-169.7101824075855
 30
0.0
 11
-870.871471222984
 21
-94.70826699418105
 31
0.0
  0
LINE
  5
3D2
330
1F
100
AcDbEntity
  8
躯体
  6
Continuous
 62
     2
370
     9
100
AcDbLine
 10
-880.8710222964493
 20
-169.7101824075855
 30
0.0
 11
-880.8710222964493
 21
-94.70825873645204
 31
0.0
  0
LINE
  5
3D3
330
1F
100
AcDbEntity
  8
躯体
  6
JWW_DASHED3
 62
     2
370
     9
100
AcDbLine
 10
-870.871471222984
 20
-94.70826699418105
 30
0.0
 11
-870.871471222984
 21
-69.70674417233617
 31
0.0
  0
LINE
  5
3D4
330
1F
100
AcDbEntity
  8
躯体
  6
JWW_DASHED3
 62
     2
370
     9
100
AcDbLine
 10
-880.8710222964493
 20
-94.70825873645204
 30
0.0
 11
-880.8710222964493
 21
-69.70674417233617
 31
0.0
  0
LINE
  5
3D5
330
1F
100
AcDbEntity
  8
躯体
  6
Continuous
 62
     2
370
     9
100
AcDbLine
 10
-1457.922709647515
 20
163.4509579459377
 30
0.0
 11
-1392.968161884694
 21
200.9515480168363
 31
0.0
  0
LINE
  5
3D6
330
1F
100
AcDbEntity
  8
躯体
  6
Continuous
 62
     2
370
     9
100
AcDbLine
 10
-1462.921989715458
 20
172.1107614174475
 30
0.0
 11
-1397.96828664146
 21
209.6120360997695
 31
0.0
  0
LINE
  5
3D7
330
1F
100
AcDbEntity
  8
躯体
  6
JWW_DASHED3
 62
     2
370
     9
100
AcDbLine
 10
-1397.96828664146
 20
209.6120360997695
 30
0.0
 11
-1376.317018437331
 21
222.1124805350724
 31
0.0
  0
LINE
  5
3D8
330
1F
100
AcDbEntity
  8
躯体
  6
JWW_DASHED3
 62
     2
370
     9
100
AcDbLine
 10
-1392.968161884694
 20
200.9515480168363
 30
0.0
 11
-1371.316747431811
 21
213.4516861259869
 31
0.0
  0
LINE
  5
3D9
330
1F
100
AcDbEntity
  8
躯体
  6
Continuous
 62
     2
370
     9
100
AcDbLine
 10
-1457.922709647515
 20
847.0918546584284
 30
0.0
 11
-1392.968053064495
 21
809.5904585564281
 31
0.0
  0
LINE
  5
3DA
330
1F
100
AcDbEntity
  8
躯体
  6
Continuous
 62
     2
370
     9
100
AcDbLine
 10
-1462.921989715458
 20
838.4320511869186
 30
0.0
 11
-1397.967863747436
 21
800.9305323450767
 31
0.0
  0
LINE
  5
3DB
330
1F
100
AcDbEntity
  8
躯体
  6
JWW_DASHED3
 62
     2
370
     9
100
AcDbLine
 10
-1392.968053064495
 20
809.5904585564281
 30
0.0
 11
-1371.316747431811
 21
797.0901355408034
 31
0.0
  0
LINE
  5
3DC
330
1F
100
AcDbEntity
  8
躯体
  6
JWW_DASHED3
 62
     2
370
     9
100
AcDbLine
 10
-1397.967863747436
 20
800.9305323450767
 30
0.0
 11
-1376.317018437331
 21
788.4303320692936
 31
0.0
  0
LINE
  5
3DD
330
1F
100
AcDbEntity
  8
躯体
  6
Continuous
 62
     2
370
     9
100
AcDbLine
 10
-270.8716515005705
 20
-840.1614724629442
 30
0.0
 11
-300.8712956585379
 21
-840.1614724629442
 31
0.0
  0
LINE
  5
3DE
330
1F
100
AcDbEntity
  8
躯体
  6
Continuous
 62
     2
370
     9
100
AcDbLine
 10
-300.8712956585379
 20
-840.1614724629442
 30
0.0
 11
-300.8712956585379
 21
-908.1615907627449
 31
0.0
  0
LINE
  5
3DF
330
1F
100
AcDbEntity
  8
躯体
  6
Continuous
 62
     2
370
     9
100
AcDbLine
 10
-270.8716515005705
 20
-808.1611253402209
 30
0.0
 11
-270.8716515005705
 21
-840.1614724629442
 31
0.0
  0
LINE
  5
3E0
330
1F
100
AcDbEntity
  8
躯体
  6
Continuous
 62
     2
370
     9
100
AcDbLine
 10
-269.270296378707
 20
-908.1615907627449
 30
0.0
 11
-200.8718211735896
 21
-839.7621246200536
 31
0.0
  0
LINE
  5
3E1
330
1F
100
AcDbEntity
  8
躯体
  6
Continuous
 62
     2
370
     9
100
AcDbLine
 10
-276.3406359792594
 20
-908.1615907627449
 30
0.0
 11
-200.8718211735896
 21
-832.6917850195016
 31
0.0
  0
LINE
  5
3E2
330
1F
100
AcDbEntity
  8
躯体
  6
Continuous
 62
     2
370
     9
100
AcDbLine
 10
-283.4119665173858
 20
-908.1615907627449
 30
0.0
 11
-200.8718211735896
 21
-825.620454481374
 31
0.0
  0
LINE
  5
3E3
330
1F
100
AcDbEntity
  8
建具
  6
Continuous
 62
     6
370
     9
100
AcDbLine
 10
-200.8718211735896
 20
-918.1611418362095
 30
0.0
 11
-300.8712956585379
 21
-918.1611418362095
 31
0.0
  0
LINE
  5
3E4
330
1F
100
AcDbEntity
  8
建具
  6
Continuous
 62
     6
370
     9
100
AcDbLine
 10
-190.8712791625504
 20
-1028.161158332198
 30
0.0
 11
-310.8718376695793
 21
-1028.161158332198
 31
0.0
  0
LINE
  5
3E5
330
1F
100
AcDbEntity
  8
建具
  6
Continuous
 62
     6
370
     9
100
AcDbLine
 10
-190.8712791625504
 20
-968.1608790786836
 30
0.0
 11
-310.8718376695793
 21
-968.1608790786836
 31
0.0
  0
LINE
  5
3E6
330
1F
100
AcDbEntity
  8
建具
  6
Continuous
 62
     6
370
     9
100
AcDbLine
 10
-190.8712791625504
 20
-968.1608790786836
 30
0.0
 11
-190.8712791625504
 21
-1028.161158332198
 31
0.0
  0
LINE
  5
3E7
330
1F
100
AcDbEntity
  8
建具
  6
Continuous
 62
     6
370
     9
100
AcDbLine
 10
-200.8718211735896
 20
-908.1615907627449
 30
0.0
 11
-200.8718211735896
 21
-968.1608790786836
 31
0.0
  0
LINE
  5
3E8
330
1F
100
AcDbEntity
  8
建具
  6
Continuous
 62
     6
370
     9
100
AcDbLine
 10
-300.8712956585379
 20
-908.1615907627449
 30
0.0
 11
-300.8712956585379
 21
-968.1608790786836
 31
0.0
  0
LINE
  5
3E9
330
1F
100
AcDbEntity
  8
建具
  6
Continuous
 62
     6
370
     9
100
AcDbLine
 10
-287.9286599861058
 20
-968.1608790786836
 30
0.0
 11
-237.9289227436317
 21
-918.1611418362095
 31
0.0
  0
LINE
  5
3EA
330
1F
100
AcDbEntity
  8
建具
  6
Continuous
 62
     6
370
     9
100
AcDbLine
 10
-280.8583203855534
 20
-968.1608790786836
 30
0.0
 11
-230.8575922055053
 21
-918.1611418362095
 31
0.0
  0
LINE
  5
3EB
330
1F
100
AcDbEntity
  8
建具
  6
Continuous
 62
     6
370
     9
100
AcDbLine
 10
-273.786989847427
 20
-968.1608790786836
 30
0.0
 11
-223.7862616673766
 21
-918.1611418362095
 31
0.0
  0
LINE
  5
3EC
330
1F
100
AcDbEntity
  8
建具
  6
Continuous
 62
     6
370
     9
100
AcDbLine
 10
-310.8718376695793
 20
-968.1608790786836
 30
0.0
 11
-310.8718376695793
 21
-1028.161158332198
 31
0.0
  0
LINE
  5
3ED
330
1F
100
AcDbEntity
  8
建具
  6
Continuous
 62
     6
370
     9
100
AcDbLine
 10
-213.5677133897462
 20
-968.1608790786836
 30
0.0
 11
-248.208909150938
 21
-1028.161158332198
 31
0.0
  0
LINE
  5
3EE
330
1F
100
AcDbEntity
  8
建具
  6
Continuous
 62
     6
370
     9
100
AcDbLine
 10
-248.208909150938
 20
-968.1608790786836
 30
0.0
 11
-282.8491139745535
 21
-1028.161158332198
 31
0.0
  0
LINE
  5
3EF
330
1F
100
AcDbEntity
  8
建具
  6
Continuous
 62
     6
370
     9
100
AcDbLine
 10
-207.6518160645475
 20
-1017.915854740031
 30
0.0
 11
-201.7379006144989
 21
-1028.161158332198
 31
0.0
  0
LINE
  5
3F0
330
1F
100
AcDbEntity
  8
建具
  6
Continuous
 62
     6
370
     9
100
AcDbLine
 10
-242.2930118257392
 20
-1017.915854740031
 30
0.0
 11
-236.3790963756907
 21
-1028.161158332198
 31
0.0
  0
LINE
  5
3F1
330
1F
100
AcDbEntity
  8
建具
  6
Continuous
 62
     6
370
     9
100
AcDbLine
 10
-276.9342075869287
 20
-1017.915854740031
 30
0.0
 11
-271.0193011993061
 21
-1028.161158332198
 31
0.0
  0
LINE
  5
3F2
330
1F
100
AcDbEntity
  8
建具
  6
Continuous
 62
     6
370
     9
100
AcDbLine
 10
-228.4317770208992
 20
-968.1608790786836
 30
0.0
 11
-220.9997452053227
 21
-981.0351400584134
 31
0.0
  0
LINE
  5
3F3
330
1F
100
AcDbEntity
  8
建具
  6
Continuous
 62
     6
370
     9
100
AcDbLine
 10
-263.0729727820909
 20
-968.1608790786836
 30
0.0
 11
-255.6409409665144
 21
-981.0351400584134
 31
0.0
  0
LINE
  5
3F4
330
1F
100
AcDbEntity
  8
建具
  6
Continuous
 62
     6
370
     9
100
AcDbLine
 10
-297.7141685432827
 20
-968.1608790786836
 30
0.0
 11
-290.2821367277039
 21
-981.0351400584134
 31
0.0
  0
LINE
  5
3F5
330
1F
100
AcDbEntity
  8
建具
  6
Continuous
 62
     6
370
     9
100
AcDbLine
 10
-282.8491139745535
 20
-968.1608790786836
 30
0.0
 11
-310.8718376695793
 21
-1016.697001522276
 31
0.0
  0
LINE
  5
3F6
330
1F
100
AcDbEntity
  8
建具
  6
Continuous
 62
     6
370
     9
100
AcDbLine
 10
-310.8718376695793
 20
-1019.135698895361
 30
0.0
 11
-305.6604969604956
 21
-1028.161158332198
 31
0.0
  0
LINE
  5
3F7
330
1F
100
AcDbEntity
  8
建具
  6
Continuous
 62
     6
370
     9
100
AcDbLine
 10
-190.8712791625504
 20
-988.8506647156739
 30
0.0
 11
-213.5677133897462
 21
-1028.161158332198
 31
0.0
  0
LINE
  5
3F8
330
1F
100
AcDbEntity
  8
躯体
  6
Continuous
 62
     2
370
     9
100
AcDbLine
 10
-1550.871663283418
 20
-908.1605998251691
 30
0.0
 11
-1450.871197860895
 21
-908.1605998251691
 31
0.0
  0
LINE
  5
3F9
330
1F
100
AcDbEntity
  8
躯体
  6
Continuous
 62
     2
370
     9
100
AcDbLine
 10
-1480.870842018863
 20
-840.1614724629442
 30
0.0
 11
-1450.871197860895
 21
-840.1614724629442
 31
0.0
  0
LINE
  5
3FA
330
1F
100
AcDbEntity
  8
躯体
  6
Continuous
 62
     2
370
     9
100
AcDbLine
 10
-1480.870842018863
 20
-808.1611253402209
 30
0.0
 11
-1480.870842018863
 21
-840.1614724629442
 31
0.0
  0
LINE
  5
3FB
330
1F
100
AcDbEntity
  8
建具
  6
Continuous
 62
     6
370
     9
100
AcDbLine
 10
-1550.871663283418
 20
-918.1611418362095
 30
0.0
 11
-1450.871197860895
 21
-918.1611418362095
 31
0.0
  0
LINE
  5
3FC
330
1F
100
AcDbEntity
  8
建具
  6
Continuous
 62
     6
370
     9
100
AcDbLine
 10
-1560.871214356883
 20
-1028.161158332198
 30
0.0
 11
-1440.87164678743
 21
-1028.161158332198
 31
0.0
  0
LINE
  5
3FD
330
1F
100
AcDbEntity
  8
建具
  6
Continuous
 62
     6
370
     9
100
AcDbLine
 10
-1560.871214356883
 20
-968.1608790786836
 30
0.0
 11
-1440.87164678743
 21
-968.1608790786836
 31
0.0
  0
LINE
  5
3FE
330
1F
100
AcDbEntity
  8
建具
  6
Continuous
 62
     6
370
     9
100
AcDbLine
 10
-1560.871214356883
 20
-968.1608790786836
 30
0.0
 11
-1560.871214356883
 21
-1028.161158332198
 31
0.0
  0
LINE
  5
3FF
330
1F
100
AcDbEntity
  8
建具
  6
Continuous
 62
     6
370
     9
100
AcDbLine
 10
-1550.871663283418
 20
-908.1605998251691
 30
0.0
 11
-1550.871663283418
 21
-968.1608790786836
 31
0.0
  0
LINE
  5
400
330
1F
100
AcDbEntity
  8
建具
  6
Continuous
 62
     6
370
     9
100
AcDbLine
 10
-1450.871197860895
 20
-908.1605998251691
 30
0.0
 11
-1450.871197860895
 21
-968.1608790786836
 31
0.0
  0
LINE
  5
401
330
1F
100
AcDbEntity
  8
建具
  6
Continuous
 62
     6
370
     9
100
AcDbLine
 10
-1537.929027610985
 20
-968.1608790786836
 30
0.0
 11
-1487.929290368511
 21
-918.1611418362095
 31
0.0
  0
LINE
  5
402
330
1F
100
AcDbEntity
  8
建具
  6
Continuous
 62
     6
370
     9
100
AcDbLine
 10
-1530.857697072857
 20
-968.1608790786836
 30
0.0
 11
-1480.857959830383
 21
-918.1611418362095
 31
0.0
  0
LINE
  5
403
330
1F
100
AcDbEntity
  8
建具
  6
Continuous
 62
     6
370
     9
100
AcDbLine
 10
-1523.78636653473
 20
-968.1608790786836
 30
0.0
 11
-1473.786629292256
 21
-918.1611418362095
 31
0.0
  0
LINE
  5
404
330
1F
100
AcDbEntity
  8
建具
  6
Continuous
 62
     6
370
     9
100
AcDbLine
 10
-1440.87164678743
 20
-968.1608790786836
 30
0.0
 11
-1440.87164678743
 21
-1028.161158332198
 31
0.0
  0
LINE
  5
405
330
1F
100
AcDbEntity
  8
建具
  6
Continuous
 62
     6
370
     9
100
AcDbLine
 10
-1463.56709007705
 20
-968.1608790786836
 30
0.0
 11
-1498.208285838241
 21
-1028.161158332198
 31
0.0
  0
LINE
  5
406
330
1F
100
AcDbEntity
  8
建具
  6
Continuous
 62
     6
370
     9
100
AcDbLine
 10
-1498.208285838241
 20
-968.1608790786836
 30
0.0
 11
-1532.848490661857
 21
-1028.161158332198
 31
0.0
  0
LINE
  5
407
330
1F
100
AcDbEntity
  8
建具
  6
Continuous
 62
     6
370
     9
100
AcDbLine
 10
-1457.652183689427
 20
-1017.915854740031
 30
0.0
 11
-1451.737277301802
 21
-1028.161158332198
 31
0.0
  0
LINE
  5
408
330
1F
100
AcDbEntity
  8
建具
  6
Continuous
 62
     6
370
     9
100
AcDbLine
 10
-1492.293379450617
 20
-1017.915854740031
 30
0.0
 11
-1486.378473062994
 21
-1028.161158332198
 31
0.0
  0
LINE
  5
409
330
1F
100
AcDbEntity
  8
建具
  6
Continuous
 62
     6
370
     9
100
AcDbLine
 10
-1526.934575211808
 20
-1017.915854740031
 30
0.0
 11
-1521.01867788661
 21
-1028.161158332198
 31
0.0
  0
LINE
  5
40A
330
1F
100
AcDbEntity
  8
建具
  6
Continuous
 62
     6
370
     9
100
AcDbLine
 10
-1478.432144645779
 20
-968.1608790786836
 30
0.0
 11
-1471.000112830202
 21
-981.0351400584134
 31
0.0
  0
LINE
  5
40B
330
1F
100
AcDbEntity
  8
建具
  6
Continuous
 62
     6
370
     9
100
AcDbLine
 10
-1513.073340406971
 20
-968.1608790786836
 30
0.0
 11
-1505.641308591394
 21
-981.0351400584134
 31
0.0
  0
LINE
  5
40C
330
1F
100
AcDbEntity
  8
建具
  6
Continuous
 62
     6
370
     9
100
AcDbLine
 10
-1547.71453616816
 20
-968.1608790786836
 30
0.0
 11
-1540.28151341501
 21
-981.0351400584134
 31
0.0
  0
LINE
  5
40D
330
1F
100
AcDbEntity
  8
建具
  6
Continuous
 62
     6
370
     9
100
AcDbLine
 10
-1532.848490661857
 20
-968.1608790786836
 30
0.0
 11
-1560.871214356883
 21
-1016.697001522276
 31
0.0
  0
LINE
  5
40E
330
1F
100
AcDbEntity
  8
建具
  6
Continuous
 62
     6
370
     9
100
AcDbLine
 10
-1560.871214356883
 20
-1019.135698895361
 30
0.0
 11
-1555.659873647801
 21
-1028.161158332198
 31
0.0
  0
LINE
  5
40F
330
1F
100
AcDbEntity
  8
建具
  6
Continuous
 62
     6
370
     9
100
AcDbLine
 10
-1440.87164678743
 20
-988.8506647156739
 30
0.0
 11
-1463.56709007705
 21
-1028.161158332198
 31
0.0
  0
LINE
  5
410
330
1F
100
AcDbEntity
  8
躯体
  6
Continuous
 62
     2
370
     9
100
AcDbLine
 10
-1526.341003604137
 20
-908.1605998251691
 30
0.0
 11
-1458.340885304336
 21
-840.1614724629442
 31
0.0
  0
LINE
  5
411
330
1F
100
AcDbEntity
  8
躯体
  6
Continuous
 62
     2
370
     9
100
AcDbLine
 10
-1519.26967306601
 20
-908.1605998251691
 30
0.0
 11
-1451.269554766209
 21
-840.1614724629442
 31
0.0
  0
LINE
  5
412
330
1F
100
AcDbEntity
  8
躯体
  6
Continuous
 62
     2
370
     9
100
AcDbLine
 10
-1450.871197860895
 20
-840.1614724629442
 30
0.0
 11
-1450.871197860895
 21
-908.1605998251691
 31
0.0
  0
LINE
  5
413
330
1F
100
AcDbEntity
  8
躯体
  6
Continuous
 62
     2
370
     9
100
AcDbLine
 10
-1533.411343204689
 20
-908.1605998251691
 30
0.0
 11
-1465.412215842464
 21
-840.1614724629442
 31
0.0
  0
LINE
  5
414
330
1F
100
AcDbEntity
  8
躯体
  6
Continuous
 62
     2
370
     9
100
AcDbLine
 10
-200.8718211735896
 20
-908.1615907627449
 30
0.0
 11
-300.8712956585379
 21
-908.1615907627449
 31
0.0
  0
LINE
  5
415
330
1F
100
AcDbEntity
  8
躯体
  6
Continuous
 62
     2
370
     9
100
AcDbLine
 10
-207.8718042062889
 20
-808.1611253402209
 30
0.0
 11
-270.8716515005705
 21
-808.1611253402209
 31
0.0
  0
LINE
  5
416
330
1F
100
AcDbEntity
  8
躯体
  6
Continuous
 62
     2
370
     9
100
AcDbLine
 10
-200.8718211735896
 20
-815.161108372919
 30
0.0
 11
-200.8718211735896
 21
-908.1615907627449
 31
0.0
  0
LINE
  5
417
330
1F
100
AcDbEntity
  8
躯体
  6
Continuous
 62
     2
370
     9
100
AcDbLine
 10
-207.8718042062889
 20
-808.1611253402209
 30
0.0
 11
-200.8718211735896
 21
-815.161108372919
 31
0.0
  0
LINE
  5
418
330
1F
100
AcDbEntity
  8
躯体
  6
Continuous
 62
     2
370
     9
100
AcDbLine
 10
-1550.871663283418
 20
-815.161108372919
 30
0.0
 11
-1550.871663283418
 21
-908.1605998251691
 31
0.0
  0
LINE
  5
419
330
1F
100
AcDbEntity
  8
躯体
  6
Continuous
 62
     2
370
     9
100
AcDbLine
 10
-1543.871680250721
 20
-808.1611253402209
 30
0.0
 11
-1480.870842018863
 21
-808.1611253402209
 31
0.0
  0
LINE
  5
41A
330
1F
100
AcDbEntity
  8
躯体
  6
Continuous
 62
     2
370
     9
100
AcDbLine
 10
-1550.871663283418
 20
-815.161108372919
 30
0.0
 11
-1543.871680250721
 21
-808.1611253402209
 31
0.0
  0
LINE
  5
41B
330
1F
100
AcDbEntity
  8
通り芯
  6
Continuous
 62
     3
370
     9
100
AcDbLine
 10
-275.8709315685161
 20
-810.1618283049745
 30
0.0
 11
-279.5542465363161
 21
-840.1614724629442
 31
0.0
  0
LINE
  5
41C
330
1F
100
AcDbEntity
  8
通り芯
  6
Continuous
 62
     3
370
     9
100
AcDbLine
 10
-279.5542465363161
 20
-840.1614724629442
 30
0.0
 11
-1472.187256045545
 21
-840.1614724629442
 31
0.0
  0
LINE
  5
41D
330
1F
100
AcDbEntity
  8
通り芯
  6
Continuous
 62
     3
370
     9
100
AcDbLine
 10
-295.8710246530205
 20
-810.1618283049745
 30
0.0
 11
-292.1877096852205
 21
-840.1614724629442
 31
0.0
  0
LINE
  5
41E
330
1F
100
AcDbEntity
  8
通り芯
  6
Continuous
 62
     3
370
     9
100
AcDbLine
 10
-655.8707182989548
 20
-810.1618283049745
 30
0.0
 11
-659.5550242043288
 21
-840.1614724629442
 31
0.0
  0
LINE
  5
41F
330
1F
100
AcDbEntity
  8
通り芯
  6
Continuous
 62
     3
370
     9
100
AcDbLine
 10
-675.5378563581218
 20
-810.1618283049745
 30
0.0
 11
-671.8545413903217
 21
-840.1614724629442
 31
0.0
  0
LINE
  5
420
330
1F
100
AcDbEntity
  8
通り芯
  6
Continuous
 62
     3
370
     9
100
AcDbLine
 10
-525.8715996560369
 20
-810.1618283049745
 30
0.0
 11
-524.6428370625273
 21
-820.1623703160149
 31
0.0
  0
LINE
  5
421
330
1F
100
AcDbEntity
  8
通り芯
  6
Continuous
 62
     3
370
     9
100
AcDbLine
 10
-510.8707866394758
 20
-810.1618283049745
 30
0.0
 11
-512.0995492329854
 21
-820.1623703160149
 31
0.0
  0
LINE
  5
422
330
1F
100
AcDbEntity
  8
通り芯
  6
Continuous
 62
     3
370
     9
100
AcDbLine
 10
-400.8707701434884
 20
-810.1618283049745
 30
0.0
 11
-399.642998487555
 21
-820.1623703160149
 31
0.0
  0
LINE
  5
423
330
1F
100
AcDbEntity
  8
通り芯
  6
Continuous
 62
     3
370
     9
100
AcDbLine
 10
-385.8709480645035
 20
-810.1618283049745
 30
0.0
 11
-387.0987197204369
 21
-820.1623703160149
 31
0.0
  0
LINE
  5
424
330
1F
100
AcDbEntity
  8
通り芯
  6
Continuous
 62
     3
370
     9
100
AcDbLine
 10
-294.6432529970872
 20
-820.1623703160149
 30
0.0
 11
-657.0994808924621
 21
-820.1623703160149
 31
0.0
  0
LINE
  5
425
330
1F
100
AcDbEntity
  8
通り芯
  6
Continuous
 62
     3
370
     9
100
AcDbLine
 10
-1455.871468866417
 20
-810.1618283049745
 30
0.0
 11
-1459.554783834215
 21
-840.1614724629442
 31
0.0
  0
LINE
  5
426
330
1F
100
AcDbEntity
  8
通り芯
  6
Continuous
 62
     3
370
     9
100
AcDbLine
 10
-1095.871775220483
 20
-810.1618283049745
 30
0.0
 11
-1092.187469315107
 21
-840.1614724629442
 31
0.0
  0
LINE
  5
427
330
1F
100
AcDbEntity
  8
通り芯
  6
Continuous
 62
     3
370
     9
100
AcDbLine
 10
-1076.204637161316
 20
-810.1618283049745
 30
0.0
 11
-1079.887952129116
 21
-840.1614724629442
 31
0.0
  0
LINE
  5
428
330
1F
100
AcDbEntity
  8
通り芯
  6
Continuous
 62
     3
370
     9
100
AcDbLine
 10
-1225.871884800975
 20
-810.1618283049745
 30
0.0
 11
-1227.099656456908
 21
-820.1613793784397
 31
0.0
  0
LINE
  5
429
330
1F
100
AcDbEntity
  8
通り芯
  6
Continuous
 62
     3
370
     9
100
AcDbLine
 10
-1240.87170687996
 20
-810.1618283049745
 30
0.0
 11
-1239.643935224026
 21
-820.1613793784397
 31
0.0
  0
LINE
  5
42A
330
1F
100
AcDbEntity
  8
通り芯
  6
Continuous
 62
     3
370
     9
100
AcDbLine
 10
-1350.871723375947
 20
-810.1618283049745
 30
0.0
 11
-1352.09949503188
 21
-820.1613793784397
 31
0.0
  0
LINE
  5
42B
330
1F
100
AcDbEntity
  8
通り芯
  6
Continuous
 62
     3
370
     9
100
AcDbLine
 10
-1365.871545454932
 20
-810.1618283049745
 30
0.0
 11
-1364.643773798999
 21
-820.1613793784397
 31
0.0
  0
LINE
  5
42C
330
1F
100
AcDbEntity
  8
通り芯
  6
Continuous
 62
     3
370
     9
100
AcDbLine
 10
-1457.099240522351
 20
-820.1613793784397
 30
0.0
 11
-1094.64400356455
 21
-820.1613793784397
 31
0.0
  0
LINE
  5
42D
330
1F
100
AcDbEntity
  8
通り芯
  6
Continuous
 62
     3
370
     9
100
AcDbLine
 10
-1475.871561950922
 20
-810.1618283049745
 30
0.0
 11
-1472.187256045545
 21
-840.1614724629442
 31
0.0
  0
LINE
  5
42E
330
1F
100
AcDbEntity
  8
通り芯
  6
Continuous
 62
     3
370
     9
100
AcDbLine
 10
-275.8709315685161
 20
-810.1618283049745
 30
0.0
 11
-1475.871561950922
 21
-810.1618283049745
 31
0.0
  0
LINE
  5
42F
330
1F
100
AcDbEntity
  8
その他
  6
Continuous
 62
     7
370
     9
100
AcDbLine
 10
-1076.204637161316
 20
-742.941978003422
 30
0.0
 11
-675.5378563581218
 21
-742.941978003422
 31
0.0
  0
LWPOLYLINE
  5
430
330
1F
100
AcDbEntity
  8
その他
  6
Continuous
 62
     7
370
     9
100
AcDbPolyline
 90
        4
 70
     1
 43
1.0
 10
-1075.704637161316
 20
-742.941978003422
 42
0.4142135623731
 10
-1076.204637161316
 20
-742.441978003422
 42
0.4142135623731
 10
-1076.704637161316
 20
-742.941978003422
 42
0.4142135623731
 10
-1076.204637161316
 20
-743.441978003422
 42
0.4142135623731
  0
LWPOLYLINE
  5
431
330
1F
100
AcDbEntity
  8
その他
  6
Continuous
 62
     7
370
     9
100
AcDbPolyline
 90
        4
 70
     1
 43
1.0
 10
-675.0378563581218
 20
-742.941978003422
 42
0.4142135623731
 10
-675.5378563581218
 20
-742.441978003422
 42
0.4142135623731
 10
-676.0378563581218
 20
-742.941978003422
 42
0.4142135623731
 10
-675.5378563581218
 20
-743.441978003422
 42
0.4142135623731
  0
LINE
  5
432
330
1F
100
AcDbEntity
  8
その他
  6
Continuous
 62
     7
370
     9
100
AcDbLine
 10
-1076.204637161316
 20
-739.941978003422
 30
0.0
 11
-1076.204637161316
 21
-790.1618283049745
 31
0.0
  0
LINE
  5
433
330
1F
100
AcDbEntity
  8
その他
  6
Continuous
 62
     7
370
     9
100
AcDbLine
 10
-675.5378563581218
 20
-739.941978003422
 30
0.0
 11
-675.5378563581218
 21
-790.1618283049745
 31
0.0
  0
TEXT
  5
434
330
1F
100
AcDbEntity
  8
その他
  6
Continuous
 62
     2
370
   211
100
AcDbText
 10
-930.8712467597189
 20
-727.301978003422
 30
0.0
 40
30.48
  1
φ400
 41
1.1
  7
ＭＳ ゴシック
100
AcDbText
  0
LINE
  5
435
330
1F
100
AcDbEntity
  8
その他
  6
Continuous
 62
     7
370
     9
100
AcDbLine
 10
-1450.871197860895
 20
-947.0028174455047
 30
0.0
 11
-300.8712956585379
 21
-947.0028174455047
 31
0.0
  0
LWPOLYLINE
  5
436
330
1F
100
AcDbEntity
  8
その他
  6
Continuous
 62
     7
370
     9
100
AcDbPolyline
 90
        4
 70
     1
 43
1.0
 10
-1450.371197860895
 20
-947.0028174455047
 42
0.4142135623731
 10
-1450.871197860895
 20
-946.5028174455047
 42
0.4142135623731
 10
-1451.371197860896
 20
-947.0028174455047
 42
0.4142135623731
 10
-1450.871197860895
 20
-947.5028174455047
 42
0.4142135623731
  0
LWPOLYLINE
  5
437
330
1F
100
AcDbEntity
  8
その他
  6
Continuous
 62
     7
370
     9
100
AcDbPolyline
 90
        4
 70
     1
 43
1.0
 10
-300.3712956585379
 20
-947.0028174455047
 42
0.4142135623731
 10
-300.8712956585379
 20
-946.5028174455047
 42
0.4142135623731
 10
-301.3712956585379
 20
-947.0028174455047
 42
0.4142135623731
 10
-300.8712956585379
 20
-947.5028174455047
 42
0.4142135623731
  0
LINE
  5
438
330
1F
100
AcDbEntity
  8
躯体
  6
JWW_CENTER1
 62
     2
370
     9
100
AcDbLine
 10
-875.8707512909297
 20
-778.3608222966109
 30
0.0
 11
-875.8707512909297
 21
-880.6200694631832
 31
0.0
  0
LINE
  5
439
330
1F
100
AcDbEntity
  8
その他
  6
Continuous
 62
     7
370
     9
100
AcDbLine
 10
-1550.871663283418
 20
-582.941978003422
 30
0.0
 11
-200.8718211735896
 21
-582.941978003422
 31
0.0
  0
LWPOLYLINE
  5
43A
330
1F
100
AcDbEntity
  8
その他
  6
Continuous
 62
     7
370
     9
100
AcDbPolyline
 90
        4
 70
     1
 43
1.0
 10
-1550.371663283418
 20
-582.941978003422
 42
0.4142135623731
 10
-1550.871663283418
 20
-582.441978003422
 42
0.4142135623731
 10
-1551.371663283418
 20
-582.941978003422
 42
0.4142135623731
 10
-1550.871663283418
 20
-583.441978003422
 42
0.4142135623731
  0
LWPOLYLINE
  5
43B
330
1F
100
AcDbEntity
  8
その他
  6
Continuous
 62
     7
370
     9
100
AcDbPolyline
 90
        4
 70
     1
 43
1.0
 10
-200.3718211735896
 20
-582.941978003422
 42
0.4142135623731
 10
-200.8718211735896
 20
-582.441978003422
 42
0.4142135623731
 10
-201.3718211735896
 20
-582.941978003422
 42
0.4142135623731
 10
-200.8718211735896
 20
-583.441978003422
 42
0.4142135623731
  0
LINE
  5
43C
330
1F
100
AcDbEntity
  8
その他
  6
Continuous
 62
     7
370
     9
100
AcDbLine
 10
-1550.871663283418
 20
-579.941978003422
 30
0.0
 11
-1550.871663283418
 21
-795.161108372919
 31
0.0
  0
LINE
  5
43D
330
1F
100
AcDbEntity
  8
その他
  6
Continuous
 62
     7
370
     9
100
AcDbLine
 10
-200.8718211735896
 20
-579.941978003422
 30
0.0
 11
-200.8718211735896
 21
-795.161108372919
 31
0.0
  0
TEXT
  5
43E
330
1F
100
AcDbEntity
  8
その他
  6
Continuous
 62
     2
370
   211
100
AcDbText
 10
-942.1217422285036
 20
-567.301978003422
 30
0.0
 40
30.48
  1
φ1350
 41
1.104166666666667
  7
ＭＳ ゴシック
100
AcDbText
  0
LWPOLYLINE
  5
43F
330
1F
100
AcDbEntity
  8
その他
  6
Continuous
 62
     7
370
     9
100
AcDbPolyline
 90
        4
 70
     1
 43
1.0
 10
-733.9493865966797
 20
646.6922760009766
 42
0.4142135623731
 10
-734.4493865966797
 20
647.1922760009766
 42
0.4142135623731
 10
-734.9493865966797
 20
646.6922760009766
 42
0.4142135623731
 10
-734.4493865966797
 20
646.1922760009766
 42
0.4142135623731
  0
LWPOLYLINE
  5
440
330
1F
100
AcDbEntity
  8
その他
  6
Continuous
 62
     7
370
     9
100
AcDbPolyline
 90
        4
 70
     1
 43
1.0
 10
-1016.79211807251
 20
363.8495254516602
 42
0.4142135623731
 10
-1017.29211807251
 20
364.3495254516602
 42
0.4142135623731
 10
-1017.79211807251
 20
363.8495254516602
 42
0.4142135623731
 10
-1017.29211807251
 20
363.3495254516602
 42
0.4142135623731
  0
TEXT
  5
441
330
1F
100
AcDbEntity
  8
F-5ﾚｲﾔ
  6
Continuous
 62
     7
370
     9
100
AcDbText
 10
-307.3174963038838
 20
-1367.727799906616
 30
0.0
 40
22.86
  1
丸型用　コンクリートブロック　ＢＲー１２００
 41
1.031818181818182
  7
ＭＳ ゴシック
100
AcDbText
  0
TEXT
  5
442
330
1F
100
AcDbEntity
  8
その他
  6
Continuous
 62
     2
370
   211
100
AcDbText
 10
-964.6212467597167
 20
-931.3628174455047
 30
0.0
 40
30.48
  1
φ1150
 41
1.104166666666667
  7
ＭＳ ゴシック
100
AcDbText
  0
TEXT
  5
443
330
1F
100
AcDbEntity
  8
その他
  6
Continuous
 62
     2
370
   211
100
AcDbText
 10
-858.6717593169799
 20
536.7896766454014
 30
0.0
 40
30.48
  1
φ400
 50
45.00000193
 41
1.1
  7
ＭＳ ゴシック
100
AcDbText
  0
TEXT
  5
444
330
1F
100
AcDbEntity
  8
F-5ﾚｲﾔ
  6
Continuous
 62
     7
370
     9
100
AcDbText
 10
-803.3174963038836
 20
-1322.89795433918
 30
0.0
 40
22.86
  1
丸型　格子タイプ　支柱穴なし　ガーデングレート　ＲＧＣ－１－１２００×４００
 41
1.032456140350877
  7
ＭＳ ゴシック
100
AcDbText
  0
LWPOLYLINE
  5
445
330
1F
100
AcDbEntity
  8
8-4
  6
Continuous
 62
     7
370
     9
100
AcDbPolyline
 90
        4
 70
     1
 43
1.0
 10
1073.182095225864
 20
-258.8792165531888
 42
0.4142135623731
 10
1072.682095225864
 20
-258.3792165531888
 42
0.4142135623731
 10
1072.182095225864
 20
-258.8792165531888
 42
0.4142135623731
 10
1072.682095225864
 20
-259.3792165531888
 42
0.4142135623731
  0
LINE
  5
446
330
1F
100
AcDbEntity
  8
8-4
  6
Continuous
 62
     7
370
     9
100
AcDbLine
 10
1072.682095225864
 20
-255.8792165531888
 30
0.0
 11
1072.682095225864
 21
-251.2070575702086
 31
0.0
  0
LINE
  5
447
330
1F
100
AcDbEntity
  8
8-4
  6
Continuous
 62
     7
370
     9
100
AcDbLine
 10
1072.682095225864
 20
-258.8792165531888
 30
0.0
 11
897.6840865272939
 21
-258.8792165531888
 31
0.0
  0
LWPOLYLINE
  5
448
330
1F
100
AcDbEntity
  8
8-4
  6
Continuous
 62
     7
370
     9
100
AcDbPolyline
 90
        4
 70
     1
 43
1.0
 10
898.1840865272939
 20
-258.8792165531888
 42
0.4142135623731
 10
897.6840865272939
 20
-258.3792165531888
 42
0.4142135623731
 10
897.184086527294
 20
-258.8792165531888
 42
0.4142135623731
 10
897.6840865272939
 20
-259.3792165531888
 42
0.4142135623731
  0
TEXT
  5
449
330
1F
100
AcDbEntity
  8
8-4
  6
Continuous
 62
     2
370
   211
100
AcDbText
 10
963.9330908765792
 20
-243.2392165531888
 30
0.0
 40
30.48
  1
70
 41
1.062499999999996
  7
ＭＳ ゴシック
100
AcDbText
  0
LINE
  5
44A
330
1F
100
AcDbEntity
  8
8-4
  6
Continuous
 62
     7
370
     9
100
AcDbLine
 10
897.6840865272939
 20
-258.8792165531888
 30
0.0
 11
822.6829435909699
 21
-258.8792165531888
 31
0.0
  0
LWPOLYLINE
  5
44B
330
1F
100
AcDbEntity
  8
8-4
  6
Continuous
 62
     7
370
     9
100
AcDbPolyline
 90
        4
 70
     1
 43
1.0
 10
823.1829435909698
 20
-258.8792165531888
 42
0.4142135623731
 10
822.6829435909699
 20
-258.3792165531888
 42
0.4142135623731
 10
822.1829435909699
 20
-258.8792165531888
 42
0.4142135623731
 10
822.6829435909699
 20
-259.3792165531888
 42
0.4142135623731
  0
TEXT
  5
44C
330
1F
100
AcDbEntity
  8
8-4
  6
Continuous
 62
     2
370
   211
100
AcDbText
 10
838.9335150591319
 20
-243.2392165531888
 30
0.0
 40
30.48
  1
30
 41
1.0625
  7
ＭＳ ゴシック
100
AcDbText
  0
LINE
  5
44D
330
1F
100
AcDbEntity
  8
8-4
  6
Continuous
 62
     7
370
     9
100
AcDbLine
 10
822.6829435909699
 20
-261.8792165531888
 30
0.0
 11
822.6829435909699
 21
-251.2070575702086
 31
0.0
  0
LINE
  5
44E
330
1F
100
AcDbEntity
  8
8-3
  6
Continuous
 62
     6
370
     9
100
AcDbLine
 10
1097.683450253465
 20
-485.8562434192452
 30
0.0
 11
1097.683450253465
 21
-635.8557028810608
 31
0.0
  0
LINE
  5
44F
330
1F
100
AcDbEntity
  8
8-3
  6
Continuous
 62
     6
370
     9
100
AcDbLine
 10
1072.682095225864
 20
-335.8555452854611
 30
0.0
 11
1072.682095225864
 21
-485.8562434192452
 31
0.0
  0
LINE
  5
450
330
1F
100
AcDbEntity
  8
8-3
  6
Continuous
 62
     6
370
     9
100
AcDbLine
 10
978.4439318043515
 20
-485.8562434192452
 30
0.0
 11
891.8409424013737
 21
-635.8544642090928
 31
0.0
  0
LINE
  5
451
330
1F
100
AcDbEntity
  8
8-3
  6
Continuous
 62
     6
370
     9
100
AcDbLine
 10
891.8409424013737
 20
-485.8562434192452
 30
0.0
 11
805.2379529983972
 21
-635.8544642090928
 31
0.0
  0
LINE
  5
452
330
1F
100
AcDbEntity
  8
8-3
  6
Continuous
 62
     6
370
     9
100
AcDbLine
 10
906.6282083704328
 20
-610.2436825726145
 30
0.0
 11
921.415474339492
 21
-635.8544642090928
 31
0.0
  0
LINE
  5
453
330
1F
100
AcDbEntity
  8
8-3
  6
Continuous
 62
     6
370
     9
100
AcDbLine
 10
820.0252189674563
 20
-610.2436825726145
 30
0.0
 11
834.8124849365155
 21
-635.8544642090928
 31
0.0
  0
LINE
  5
454
330
1F
100
AcDbEntity
  8
8-3
  6
Continuous
 62
     6
370
     9
100
AcDbLine
 10
941.2812953825287
 20
-485.8562434192452
 30
0.0
 11
959.8613749214712
 21
-518.0394185246322
 31
0.0
  0
LINE
  5
455
330
1F
100
AcDbEntity
  8
8-3
  6
Continuous
 62
     6
370
     9
100
AcDbLine
 10
854.6783059795521
 20
-485.8562434192452
 30
0.0
 11
873.2583855184932
 21
-518.0394185246322
 31
0.0
  0
LINE
  5
456
330
1F
100
AcDbEntity
  8
8-3
  6
Continuous
 62
     6
370
     9
100
AcDbLine
 10
1065.04444386339
 20
-485.8562434192452
 30
0.0
 11
978.4414544604125
 21
-635.8544642090928
 31
0.0
  0
LINE
  5
457
330
1F
100
AcDbEntity
  8
8-3
  6
Continuous
 62
     6
370
     9
100
AcDbLine
 10
993.2287204294717
 20
-610.2436825726145
 30
0.0
 11
1008.015986398531
 21
-635.8544642090928
 31
0.0
  0
LINE
  5
458
330
1F
100
AcDbEntity
  8
8-3
  6
Continuous
 62
     6
370
     9
100
AcDbLine
 10
1027.881807441567
 20
-485.8562434192452
 30
0.0
 11
1046.464364324448
 21
-518.0394185246322
 31
0.0
  0
LINE
  5
459
330
1F
100
AcDbEntity
  8
8-1
  6
Continuous
 62
     2
370
     9
100
AcDbLine
 10
1055.18213764412
 20
-85.85662636182732
 30
0.0
 11
1072.682095225864
 21
-103.3565839435725
 31
0.0
  0
LINE
  5
45A
330
1F
100
AcDbEntity
  8
8-5
  6
Continuous
 62
     7
370
     9
100
AcDbLine
 10
1107.83583528614
 20
18.85479827746121
 30
0.0
 11
1032.051255228661
 21
-96.90406576638111
 31
0.0
  0
LINE
  5
45B
330
1F
100
AcDbEntity
  8
8-5
  6
Continuous
 62
     7
370
     9
100
AcDbLine
 10
1032.051255228661
 20
-96.90406576638111
 30
0.0
 11
1042.897378073465
 21
-74.37937666230215
 31
0.0
  0
LINE
  5
45C
330
1F
100
AcDbEntity
  8
8-5
  6
Continuous
 62
     7
370
     9
100
AcDbLine
 10
1032.051255228661
 20
-96.90406576638111
 30
0.0
 11
1048.35762392471
 21
-77.95406998937615
 31
0.0
  0
LINE
  5
45D
330
1F
100
AcDbEntity
  8
8-1
  6
Continuous
 62
     2
370
     9
100
AcDbLine
 10
897.6840865272939
 20
-85.85662636182732
 30
0.0
 11
897.6840865272939
 21
-165.855016824697
 31
0.0
  0
LINE
  5
45E
330
1F
100
AcDbEntity
  8
8-1
  6
Continuous
 62
     2
370
     9
100
AcDbLine
 10
897.6840865272939
 20
-165.855016824697
 30
0.0
 11
822.6829435909699
 21
-165.855016824697
 31
0.0
  0
LINE
  5
45F
330
1F
100
AcDbEntity
  8
8-1
  6
Continuous
 62
     2
370
     9
100
AcDbLine
 10
1055.18213764412
 20
-85.85662636182732
 30
0.0
 11
897.6840865272939
 21
-85.85662636182732
 31
0.0
  0
LINE
  5
460
330
1F
100
AcDbEntity
  8
8-0
  6
Continuous
 62
     3
370
     9
100
AcDbLine
 10
510.184199200784
 20
-90.85342908583499
 30
0.0
 11
507.1147700609507
 21
-115.8547841134359
 31
0.0
  0
LINE
  5
461
330
1F
100
AcDbEntity
  8
8-0
  6
Continuous
 62
     3
370
     9
100
AcDbLine
 10
472.6840246673382
 20
-90.85342908583499
 30
0.0
 11
475.7534538071715
 21
-115.8547841134359
 31
0.0
  0
LINE
  5
462
330
1F
100
AcDbEntity
  8
8-0
  6
Continuous
 62
     3
370
     9
100
AcDbLine
 10
835.183853816032
 20
-90.85342908583499
 30
0.0
 11
844.3933799075003
 21
-165.855016824697
 31
0.0
  0
LINE
  5
463
330
1F
100
AcDbEntity
  8
8-0
  6
Continuous
 62
     3
370
     9
100
AcDbLine
 10
885.1840865272939
 20
-90.85342908583499
 30
0.0
 11
875.9757991077938
 21
-165.855016824697
 31
0.0
  0
LINE
  5
464
330
1F
100
AcDbEntity
  8
8-0
  6
Continuous
 62
     3
370
     9
100
AcDbLine
 10
838.2532829558653
 20
-115.8547841134359
 30
0.0
 11
377.8751714943124
 21
-115.8547841134359
 31
0.0
  0
LINE
  5
465
330
1F
100
AcDbEntity
  8
8-0
  6
Continuous
 62
     3
370
     9
100
AcDbLine
 10
875.9757991077938
 20
-165.855016824697
 30
0.0
 11
377.8751714943124
 21
-165.855016824697
 31
0.0
  0
LINE
  5
466
330
1F
100
AcDbEntity
  8
8-0
  6
Continuous
 62
     3
370
     9
100
AcDbLine
 10
885.1840865272939
 20
-90.85342908583499
 30
0.0
 11
377.8751836708784
 21
-90.8536804416066
 31
0.0
  0
LINE
  5
467
330
1F
100
AcDbEntity
  8
8-0
  6
Continuous
 62
     3
370
     9
100
AcDbLine
 10
377.8751714943124
 20
-65.85368044160958
 30
0.0
 11
377.8751714943124
 21
-190.855016824697
 31
0.0
  0
LINE
  5
468
330
1F
100
AcDbEntity
  8
8-4
  6
Continuous
 62
     7
370
     9
100
AcDbLine
 10
293.4612825941379
 20
-165.855016824697
 30
0.0
 11
357.8751714943124
 21
-165.855016824697
 31
0.0
  0
LINE
  5
469
330
1F
100
AcDbEntity
  8
8-4
  6
Continuous
 62
     7
370
     9
100
AcDbLine
 10
293.4612825941379
 20
-115.8547841134359
 30
0.0
 11
357.8751714943124
 21
-115.8547841134359
 31
0.0
  0
LINE
  5
46A
330
1F
100
AcDbEntity
  8
8-4
  6
Continuous
 62
     7
370
     9
100
AcDbLine
 10
293.4612825941379
 20
-90.8536804416066
 30
0.0
 11
357.8751836708784
 21
-90.8536804416066
 31
0.0
  0
LINE
  5
46B
330
1F
100
AcDbEntity
  8
8-4
  6
Continuous
 62
     7
370
     9
100
AcDbLine
 10
233.1192390884122
 20
-165.855016824697
 30
0.0
 11
357.8751714943124
 21
-165.855016824697
 31
0.0
  0
LINE
  5
46C
330
1F
100
AcDbEntity
  8
8-4
  6
Continuous
 62
     7
370
     9
100
AcDbLine
 10
233.1192390884122
 20
-90.8536804416066
 30
0.0
 11
357.8751836708784
 21
-90.8536804416066
 31
0.0
  0
LINE
  5
46D
330
1F
100
AcDbEntity
  8
8-4
  6
Continuous
 62
     7
370
     9
100
AcDbLine
 10
472.6840497592895
 20
-38.26480937855525
 30
0.0
 11
472.6840497592895
 21
-70.85363346676434
 31
0.0
  0
LINE
  5
46E
330
1F
100
AcDbEntity
  8
8-4
  6
Continuous
 62
     7
370
     9
100
AcDbLine
 10
510.1841763899267
 20
-38.26480937855525
 30
0.0
 11
510.1841763899267
 21
-70.85361488661877
 31
0.0
  0
LINE
  5
46F
330
1F
100
AcDbEntity
  8
8-1
  6
Continuous
 62
     2
370
     9
100
AcDbLine
 10
822.6829435909699
 20
-165.855016824697
 30
0.0
 11
822.6829435909699
 21
-335.8555452854611
 31
0.0
  0
LINE
  5
470
330
1F
100
AcDbEntity
  8
8-1
  6
Continuous
 62
     2
370
     9
100
AcDbLine
 10
1072.682095225864
 20
-103.3565839435725
 30
0.0
 11
1072.682095225864
 21
-335.8555452854611
 31
0.0
  0
LWPOLYLINE
  5
471
330
1F
100
AcDbEntity
  8
8-4
  6
Continuous
 62
     7
370
     9
100
AcDbPolyline
 90
        4
 70
     1
 43
1.0
 10
898.1840865272939
 20
51.66751960183454
 42
0.4142135623731
 10
897.6840865272939
 20
52.16751960183454
 42
0.4142135623731
 10
897.184086527294
 20
51.66751960183454
 42
0.4142135623731
 10
897.6840865272939
 20
51.16751960183454
 42
0.4142135623731
  0
LWPOLYLINE
  5
472
330
1F
100
AcDbEntity
  8
8-4
  6
Continuous
 62
     7
370
     9
100
AcDbPolyline
 90
        4
 70
     1
 43
1.0
 10
885.6840865272939
 20
51.66751960183454
 42
0.4142135623731
 10
885.1840865272939
 20
52.16751960183454
 42
0.4142135623731
 10
884.684086527294
 20
51.66751960183454
 42
0.4142135623731
 10
885.1840865272939
 20
51.16751960183454
 42
0.4142135623731
  0
LINE
  5
473
330
1F
100
AcDbEntity
  8
8-4
  6
Continuous
 62
     7
370
     9
100
AcDbLine
 10
897.6840865272939
 20
54.66751960183454
 30
0.0
 11
897.6840865272939
 21
-65.85662636182732
 31
0.0
  0
LINE
  5
474
330
1F
100
AcDbEntity
  8
8-4
  6
Continuous
 62
     7
370
     9
100
AcDbLine
 10
885.1840865272939
 20
54.66751960183454
 30
0.0
 11
885.1840865272939
 21
-70.85342908583499
 31
0.0
  0
LINE
  5
475
330
1F
100
AcDbEntity
  8
8-4
  6
Continuous
 62
     7
370
     9
100
AcDbLine
 10
885.1840865272939
 20
51.66751960183454
 30
0.0
 11
377.8751714943124
 21
51.66751960183454
 31
0.0
  0
TEXT
  5
476
330
1F
100
AcDbEntity
  8
8-4
  6
Continuous
 62
     2
370
   211
100
AcDbText
 10
907.7114641291968
 20
67.30751960183454
 30
0.0
 40
30.48
  1
5
 41
0.9999999999999998
  7
ＭＳ ゴシック
100
AcDbText
  0
LINE
  5
477
330
1F
100
AcDbEntity
  8
8-4
  6
Continuous
 62
     7
370
     9
100
AcDbLine
 10
930.4402555821625
 20
51.66751960183454
 30
0.0
 11
885.1840865272939
 21
51.66751960183454
 31
0.0
  0
LINE
  5
478
330
1F
100
AcDbEntity
  8
8-1
  6
Continuous
 62
     2
370
     9
100
AcDbLine
 10
853.8308216413146
 20
-335.8555452854611
 30
0.0
 11
922.9099304960511
 21
-266.7764364307246
 31
0.0
  0
LINE
  5
479
330
1F
100
AcDbEntity
  8
8-1
  6
Continuous
 62
     2
370
     9
100
AcDbLine
 10
871.5086548364875
 20
-335.8555452854611
 30
0.0
 11
940.5870823637733
 21
-266.7764364307246
 31
0.0
  0
LINE
  5
47A
330
1F
100
AcDbEntity
  8
8-1
  6
Continuous
 62
     2
370
     9
100
AcDbLine
 10
889.1869438448575
 20
-335.8555452854611
 30
0.0
 11
958.2653197880802
 21
-266.7764364307246
 31
0.0
  0
LINE
  5
47B
330
1F
100
AcDbEntity
  8
8-1
  6
Continuous
 62
     2
370
     9
100
AcDbLine
 10
987.4811599402052
 20
-202.20520698657
 30
0.0
 11
1072.682095225864
 21
-117.0042717009112
 31
0.0
  0
LINE
  5
47C
330
1F
100
AcDbEntity
  8
8-1
  6
Continuous
 62
     2
370
     9
100
AcDbLine
 10
1005.157674941705
 20
-202.20520698657
 30
0.0
 11
1072.682095225864
 21
-134.6801207022894
 31
0.0
  0
LINE
  5
47D
330
1F
100
AcDbEntity
  8
8-1
  6
Continuous
 62
     2
370
     9
100
AcDbLine
 10
1022.835864148158
 20
-202.20520698657
 30
0.0
 11
1072.682095225864
 21
-152.3584470476082
 31
0.0
  0
LINE
  5
47E
330
1F
100
AcDbEntity
  8
8-4
  6
Continuous
 62
     7
370
     9
100
AcDbLine
 10
1255.975282705225
 20
-85.85662636182734
 30
0.0
 11
1255.975282705225
 21
-335.8555452854611
 31
0.0
  0
LWPOLYLINE
  5
47F
330
1F
100
AcDbEntity
  8
8-4
  6
Continuous
 62
     7
370
     9
100
AcDbPolyline
 90
        4
 70
     1
 43
1.0
 10
1256.475282705225
 20
-85.85662636182734
 42
0.4142135623731
 10
1255.975282705225
 20
-85.35662636182734
 42
0.4142135623731
 10
1255.475282705225
 20
-85.85662636182734
 42
0.4142135623731
 10
1255.975282705225
 20
-86.35662636182735
 42
0.4142135623731
  0
LWPOLYLINE
  5
480
330
1F
100
AcDbEntity
  8
8-4
  6
Continuous
 62
     7
370
     9
100
AcDbPolyline
 90
        4
 70
     1
 43
1.0
 10
1256.475282705225
 20
-335.8555452854611
 42
0.4142135623731
 10
1255.975282705225
 20
-335.3555452854612
 42
0.4142135623731
 10
1255.475282705225
 20
-335.8555452854611
 42
0.4142135623731
 10
1255.975282705225
 20
-336.3555452854611
 42
0.4142135623731
  0
LINE
  5
481
330
1F
100
AcDbEntity
  8
8-4
  6
Continuous
 62
     7
370
     9
100
AcDbLine
 10
1258.975282705225
 20
-335.8555452854611
 30
0.0
 11
1092.682095225864
 21
-335.8555452854611
 31
0.0
  0
TEXT
  5
482
330
1F
100
AcDbEntity
  8
8-4
  6
Continuous
 62
     2
370
   211
100
AcDbText
 10
1240.335282705225
 20
-243.3560858236442
 30
0.0
 40
30.48
  1
100
 50
90.0
 41
1.083333333333333
  7
ＭＳ ゴシック
100
AcDbText
  0
LINE
  5
483
330
1F
100
AcDbEntity
  8
8-4
  6
Continuous
 62
     7
370
     9
100
AcDbLine
 10
1255.975282705225
 20
-335.8555452854611
 30
0.0
 11
1255.975282705225
 21
-360.8544229691221
 31
0.0
  0
LWPOLYLINE
  5
484
330
1F
100
AcDbEntity
  8
8-4
  6
Continuous
 62
     7
370
     9
100
AcDbPolyline
 90
        4
 70
     1
 43
1.0
 10
1256.475282705225
 20
-360.8544229691221
 42
0.4142135623731
 10
1255.975282705225
 20
-360.3544229691221
 42
0.4142135623731
 10
1255.475282705225
 20
-360.8544229691221
 42
0.4142135623731
 10
1255.975282705225
 20
-361.354422969122
 42
0.4142135623731
  0
LINE
  5
485
330
1F
100
AcDbEntity
  8
8-4
  6
Continuous
 62
     7
370
     9
100
AcDbLine
 10
1258.975282705225
 20
-360.8544229691221
 30
0.0
 11
1092.682095225864
 21
-360.8544229691221
 31
0.0
  0
LINE
  5
486
330
1F
100
AcDbEntity
  8
8-4
  6
Continuous
 62
     7
370
     9
100
AcDbLine
 10
1255.975282705225
 20
-360.8544229691221
 30
0.0
 11
1255.975282705225
 21
-485.8562434192452
 31
0.0
  0
LWPOLYLINE
  5
487
330
1F
100
AcDbEntity
  8
8-4
  6
Continuous
 62
     7
370
     9
100
AcDbPolyline
 90
        4
 70
     1
 43
1.0
 10
1256.475282705225
 20
-485.8562434192452
 42
0.4142135623731
 10
1255.975282705225
 20
-485.3562434192452
 42
0.4142135623731
 10
1255.475282705225
 20
-485.8562434192452
 42
0.4142135623731
 10
1255.975282705225
 20
-486.3562434192451
 42
0.4142135623731
  0
LINE
  5
488
330
1F
100
AcDbEntity
  8
8-4
  6
Continuous
 62
     7
370
     9
100
AcDbLine
 10
1258.975282705225
 20
-485.8562434192452
 30
0.0
 11
1117.683450253465
 21
-485.8562434192452
 31
0.0
  0
TEXT
  5
489
330
1F
100
AcDbEntity
  8
8-4
  6
Continuous
 62
     2
370
   211
100
AcDbText
 10
1240.335282705225
 20
-444.6053331941836
 30
0.0
 40
30.48
  1
50
 50
90.0
 41
1.0625
  7
ＭＳ ゴシック
100
AcDbText
  0
LINE
  5
48A
330
1F
100
AcDbEntity
  8
8-4
  6
Continuous
 62
     7
370
     9
100
AcDbLine
 10
1255.975282705225
 20
-485.8562434192452
 30
0.0
 11
1255.975282705225
 21
-635.8557028810608
 31
0.0
  0
LWPOLYLINE
  5
48B
330
1F
100
AcDbEntity
  8
8-4
  6
Continuous
 62
     7
370
     9
100
AcDbPolyline
 90
        4
 70
     1
 43
1.0
 10
1256.475282705225
 20
-635.8557028810608
 42
0.4142135623731
 10
1255.975282705225
 20
-635.3557028810609
 42
0.4142135623731
 10
1255.475282705225
 20
-635.8557028810608
 42
0.4142135623731
 10
1255.975282705225
 20
-636.3557028810608
 42
0.4142135623731
  0
LINE
  5
48C
330
1F
100
AcDbEntity
  8
8-4
  6
Continuous
 62
     7
370
     9
100
AcDbLine
 10
1258.975282705225
 20
-635.8557028810608
 30
0.0
 11
1117.683450253465
 21
-635.8557028810608
 31
0.0
  0
TEXT
  5
48D
330
1F
100
AcDbEntity
  8
8-4
  6
Continuous
 62
     2
370
   211
100
AcDbText
 10
1240.335282705225
 20
-582.105973150153
 30
0.0
 40
30.48
  1
60
 50
90.0
 41
1.0625
  7
ＭＳ ゴシック
100
AcDbText
  0
LINE
  5
48E
330
1F
100
AcDbEntity
  8
8-4
  6
Continuous
 62
     7
370
     9
100
AcDbLine
 10
1168.470435409511
 20
-85.85662636182732
 30
0.0
 11
1168.470435409511
 21
-165.855016824697
 31
0.0
  0
LWPOLYLINE
  5
48F
330
1F
100
AcDbEntity
  8
8-4
  6
Continuous
 62
     7
370
     9
100
AcDbPolyline
 90
        4
 70
     1
 43
1.0
 10
1168.970435409511
 20
-85.85662636182732
 42
0.4142135623731
 10
1168.470435409511
 20
-85.35662636182732
 42
0.4142135623731
 10
1167.970435409511
 20
-85.85662636182732
 42
0.4142135623731
 10
1168.470435409511
 20
-86.35662636182732
 42
0.4142135623731
  0
LWPOLYLINE
  5
490
330
1F
100
AcDbEntity
  8
8-4
  6
Continuous
 62
     7
370
     9
100
AcDbPolyline
 90
        4
 70
     1
 43
1.0
 10
1168.970435409511
 20
-165.855016824697
 42
0.4142135623731
 10
1168.470435409511
 20
-165.355016824697
 42
0.4142135623731
 10
1167.970435409511
 20
-165.855016824697
 42
0.4142135623731
 10
1168.470435409511
 20
-166.355016824697
 42
0.4142135623731
  0
LINE
  5
491
330
1F
100
AcDbEntity
  8
8-4
  6
Continuous
 62
     7
370
     9
100
AcDbLine
 10
1171.470435409511
 20
-85.85662636182732
 30
0.0
 11
1075.18213764412
 21
-85.85662636182732
 31
0.0
  0
TEXT
  5
492
330
1F
100
AcDbEntity
  8
8-4
  6
Continuous
 62
     2
370
   211
100
AcDbText
 10
1152.830435409511
 20
-147.1058215932621
 30
0.0
 40
30.48
  1
32
 50
90.0
 41
1.0625
  7
ＭＳ ゴシック
100
AcDbText
  0
LINE
  5
493
330
1F
100
AcDbEntity
  8
8-4
  6
Continuous
 62
     7
370
     9
100
AcDbLine
 10
1168.470435409511
 20
-165.855016824697
 30
0.0
 11
1168.470435409511
 21
-335.8555452854611
 31
0.0
  0
LWPOLYLINE
  5
494
330
1F
100
AcDbEntity
  8
8-4
  6
Continuous
 62
     7
370
     9
100
AcDbPolyline
 90
        4
 70
     1
 43
1.0
 10
1168.970435409511
 20
-335.8555452854611
 42
0.4142135623731
 10
1168.470435409511
 20
-335.3555452854612
 42
0.4142135623731
 10
1167.970435409511
 20
-335.8555452854611
 42
0.4142135623731
 10
1168.470435409511
 20
-336.3555452854611
 42
0.4142135623731
  0
LINE
  5
495
330
1F
100
AcDbEntity
  8
8-4
  6
Continuous
 62
     7
370
     9
100
AcDbLine
 10
1171.470435409511
 20
-335.8555452854611
 30
0.0
 11
1112.682095225864
 21
-335.8555452854611
 31
0.0
  0
TEXT
  5
496
330
1F
100
AcDbEntity
  8
8-4
  6
Continuous
 62
     2
370
   211
100
AcDbText
 10
1152.830435409511
 20
-272.105281055079
 30
0.0
 40
30.48
  1
68
 50
90.0
 41
1.0625
  7
ＭＳ ゴシック
100
AcDbText
  0
LINE
  5
497
330
1F
100
AcDbEntity
  8
8-4
  6
Continuous
 62
     7
370
     9
100
AcDbLine
 10
1171.470435409511
 20
-165.855016824697
 30
0.0
 11
1092.682095225864
 21
-165.855016824697
 31
0.0
  0
LINE
  5
498
330
1F
100
AcDbEntity
  8
8-4
  6
Continuous
 62
     7
370
     9
100
AcDbLine
 10
1258.975282705225
 20
-85.85662636182734
 30
0.0
 11
1092.682095225864
 21
-85.85662636182732
 31
0.0
  0
TEXT
  5
499
330
1F
100
AcDbEntity
  8
8-4
  6
Continuous
 62
     2
370
   211
100
AcDbText
 10
1309.809064173693
 20
-369.6049841272916
 30
0.0
 40
30.48
  1
10
 50
90.0
 41
1.0625
  7
ＭＳ ゴシック
100
AcDbText
  0
LINE
  5
49A
330
1F
100
AcDbEntity
  8
8-3
  6
Continuous
 62
     6
370
     9
100
AcDbLine
 10
864.6510910161933
 20
-485.8562434192452
 30
0.0
 11
989.6504341223784
 21
-360.8544229691221
 31
0.0
  0
LINE
  5
49B
330
1F
100
AcDbEntity
  8
8-3
  6
Continuous
 62
     6
370
     9
100
AcDbLine
 10
882.3294173615122
 20
-485.8562434192452
 30
0.0
 11
1007.328760467697
 21
-360.8544229691221
 31
0.0
  0
LINE
  5
49C
330
1F
100
AcDbEntity
  8
8-3
  6
Continuous
 62
     6
370
     9
100
AcDbLine
 10
900.0077437068296
 20
-485.8562434192452
 30
0.0
 11
1025.007086813015
 21
-360.8544229691221
 31
0.0
  0
LINE
  5
49D
330
1F
100
AcDbEntity
  8
8-3
  6
Continuous
 62
     6
370
     9
100
AcDbLine
 10
1072.682095225864
 20
-360.8544229691221
 30
0.0
 11
822.6829435909699
 21
-360.8544229691221
 31
0.0
  0
LINE
  5
49E
330
1F
100
AcDbEntity
  8
8-3
  6
Continuous
 62
     6
370
     9
100
AcDbLine
 10
822.6829435909699
 20
-335.8555452854611
 30
0.0
 11
822.6829435909699
 21
-485.8562434192452
 31
0.0
  0
LINE
  5
49F
330
1F
100
AcDbEntity
  8
8-3
  6
Continuous
 62
     6
370
     9
100
AcDbLine
 10
1072.682095225864
 20
-335.8555452854611
 30
0.0
 11
822.6829435909699
 21
-335.8555452854611
 31
0.0
  0
LINE
  5
4A0
330
1F
100
AcDbEntity
  8
8-3
  6
Continuous
 62
     6
370
     9
100
AcDbLine
 10
1097.683450253465
 20
-485.8562434192452
 30
0.0
 11
797.6829435909699
 21
-485.8562434192452
 31
0.0
  0
LINE
  5
4A1
330
1F
100
AcDbEntity
  8
8-3
  6
Continuous
 62
     6
370
     9
100
AcDbLine
 10
1097.683450253465
 20
-635.8557028810608
 30
0.0
 11
797.6829435909699
 21
-635.8557028810608
 31
0.0
  0
LINE
  5
4A2
330
1F
100
AcDbEntity
  8
8-4
  6
Continuous
 62
     7
370
     9
100
AcDbLine
 10
1072.682095225864
 20
129.7926990890605
 30
0.0
 11
897.6840865272939
 21
129.7926990890605
 31
0.0
  0
LWPOLYLINE
  5
4A3
330
1F
100
AcDbEntity
  8
8-4
  6
Continuous
 62
     7
370
     9
100
AcDbPolyline
 90
        4
 70
     1
 43
1.0
 10
1073.182095225864
 20
129.7926990890605
 42
0.4142135623731
 10
1072.682095225864
 20
130.2926990890605
 42
0.4142135623731
 10
1072.182095225864
 20
129.7926990890605
 42
0.4142135623731
 10
1072.682095225864
 20
129.2926990890605
 42
0.4142135623731
  0
LINE
  5
4A4
330
1F
100
AcDbEntity
  8
8-4
  6
Continuous
 62
     7
370
     9
100
AcDbLine
 10
1072.682095225864
 20
132.7926990890605
 30
0.0
 11
1072.682095225864
 21
-83.35658394357253
 31
0.0
  0
LINE
  5
4A5
330
1F
100
AcDbEntity
  8
8-4
  6
Continuous
 62
     7
370
     9
100
AcDbLine
 10
897.6840865272939
 20
129.7926990890605
 30
0.0
 11
377.8751714943124
 21
129.7926990890605
 31
0.0
  0
TEXT
  5
4A6
330
1F
100
AcDbEntity
  8
8-4
  6
Continuous
 62
     2
370
   211
100
AcDbText
 10
394.4342376966193
 20
145.4326990890605
 30
0.0
 40
30.48
  1
φ1350
 41
1.104166666666667
  7
ＭＳ ゴシック
100
AcDbText
  0
TEXT
  5
4A7
330
1F
100
AcDbEntity
  8
8-4
  6
Continuous
 62
     2
370
   211
100
AcDbText
 10
394.4342376966193
 20
67.30751960183454
 30
0.0
 40
30.48
  1
φ1200
 41
1.104166666666667
  7
ＭＳ ゴシック
100
AcDbText
  0
LINE
  5
4A8
330
1F
100
AcDbEntity
  8
8-4
  6
Continuous
 62
     7
370
     9
100
AcDbLine
 10
897.6840865272939
 20
-261.8792165531888
 30
0.0
 11
897.6840865272939
 21
-191.4799047117444
 31
0.0
  0
TEXT
  5
4A9
330
1F
100
AcDbEntity
  8
8-5
  6
Continuous
 62
     7
370
     9
100
AcDbText
 10
1107.51872862724
 20
28.9047378536918
 30
0.0
 40
22.86
  1
受枠：コンクリートブロック　ＢＲ－１２００
 41
1.158730158730159
  7
ＭＳ ゴシック
100
AcDbText
  0
LINE
  5
4AA
330
1F
100
AcDbEntity
  8
8-5
  6
Continuous
 62
     7
370
     9
100
AcDbLine
 10
1107.83583528614
 20
18.85479827746121
 30
0.0
 11
1837.20209205522
 21
18.85479827746121
 31
0.0
  0
LINE
  5
4AB
330
1F
100
AcDbEntity
  8
8-4
  6
Continuous
 62
     7
370
     9
100
AcDbLine
 10
891.2182620079433
 20
-350.4973721471319
 30
0.0
 11
890.4681208641445
 21
-350.4973721471319
 31
0.0
  0
LINE
  5
4AC
330
1F
100
AcDbEntity
  8
8-4
  6
Continuous
 62
     7
370
     9
100
AcDbLine
 10
891.2182620079433
 20
-349.7472310033331
 30
0.0
 11
891.2182620079433
 21
-350.4973721471319
 31
0.0
  0
LINE
  5
4AD
330
1F
100
AcDbEntity
  8
8-4
  6
Continuous
 62
     7
370
     9
100
AcDbLine
 10
890.4681208641445
 20
-349.7472310033331
 30
0.0
 11
891.2182620079433
 21
-349.7472310033331
 31
0.0
  0
LINE
  5
4AE
330
1F
100
AcDbEntity
  8
8-4
  6
Continuous
 62
     7
370
     9
100
AcDbLine
 10
918.141043475381
 20
-337.0508503880987
 30
0.0
 11
917.3911526710903
 21
-337.0508503880987
 31
0.0
  0
LINE
  5
4AF
330
1F
100
AcDbEntity
  8
8-4
  6
Continuous
 62
     7
370
     9
100
AcDbLine
 10
918.141043475381
 20
-336.3007092442999
 30
0.0
 11
918.141043475381
 21
-337.0508503880987
 31
0.0
  0
LINE
  5
4B0
330
1F
100
AcDbEntity
  8
8-4
  6
Continuous
 62
     7
370
     9
100
AcDbLine
 10
917.3911526710903
 20
-336.3007092442999
 30
0.0
 11
918.141043475381
 21
-336.3007092442999
 31
0.0
  0
LINE
  5
4B1
330
1F
100
AcDbEntity
  8
8-4
  6
Continuous
 62
     7
370
     9
100
AcDbLine
 10
917.3911526710903
 20
-337.0508503880987
 30
0.0
 11
917.3911526710903
 21
-336.3007092442999
 31
0.0
  0
LINE
  5
4B2
330
1F
100
AcDbEntity
  8
8-4
  6
Continuous
 62
     7
370
     9
100
AcDbLine
 10
904.3189528496181
 20
-340.9999775853643
 30
0.0
 11
903.5690596611415
 21
-340.9999775853643
 31
0.0
  0
LINE
  5
4B3
330
1F
100
AcDbEntity
  8
8-4
  6
Continuous
 62
     7
370
     9
100
AcDbLine
 10
904.3189528496181
 20
-340.2498459783087
 30
0.0
 11
904.3189528496181
 21
-340.9999775853643
 31
0.0
  0
LINE
  5
4B4
330
1F
100
AcDbEntity
  8
8-4
  6
Continuous
 62
     7
370
     9
100
AcDbLine
 10
903.5690596611415
 20
-340.2498459783087
 30
0.0
 11
904.3189528496181
 21
-340.2498459783087
 31
0.0
  0
LINE
  5
4B5
330
1F
100
AcDbEntity
  8
8-4
  6
Continuous
 62
     7
370
     9
100
AcDbLine
 10
903.5690596611415
 20
-340.9999775853643
 30
0.0
 11
903.5690596611415
 21
-340.2498459783087
 31
0.0
  0
LINE
  5
4B6
330
1F
100
AcDbEntity
  8
8-4
  6
Continuous
 62
     7
370
     9
100
AcDbLine
 10
944.7980073006069
 20
-359.3481850591192
 30
0.0
 11
944.0481153042232
 21
-359.3481850591192
 31
0.0
  0
LINE
  5
4B7
330
1F
100
AcDbEntity
  8
8-4
  6
Continuous
 62
     7
370
     9
100
AcDbLine
 10
944.7980073006069
 20
-358.5980439153204
 30
0.0
 11
944.7980073006069
 21
-359.3481850591192
 31
0.0
  0
LINE
  5
4B8
330
1F
100
AcDbEntity
  8
8-4
  6
Continuous
 62
     7
370
     9
100
AcDbLine
 10
944.0481153042232
 20
-358.5980439153204
 30
0.0
 11
944.7980073006069
 21
-358.5980439153204
 31
0.0
  0
LINE
  5
4B9
330
1F
100
AcDbEntity
  8
8-4
  6
Continuous
 62
     7
370
     9
100
AcDbLine
 10
944.0481153042232
 20
-359.3481850591192
 30
0.0
 11
944.0481153042232
 21
-358.5980439153204
 31
0.0
  0
LINE
  5
4BA
330
1F
100
AcDbEntity
  8
8-4
  6
Continuous
 62
     7
370
     9
100
AcDbLine
 10
937.8869607956325
 20
-342.5641751256475
 30
0.0
 11
937.1370687992488
 21
-342.5641751256475
 31
0.0
  0
LINE
  5
4BB
330
1F
100
AcDbEntity
  8
8-4
  6
Continuous
 62
     7
370
     9
100
AcDbLine
 10
937.8869607956325
 20
-341.8140339818487
 30
0.0
 11
937.8869607956325
 21
-342.5641751256475
 31
0.0
  0
LINE
  5
4BC
330
1F
100
AcDbEntity
  8
8-4
  6
Continuous
 62
     7
370
     9
100
AcDbLine
 10
937.1370687992488
 20
-341.8140339818487
 30
0.0
 11
937.8869607956325
 21
-341.8140339818487
 31
0.0
  0
LINE
  5
4BD
330
1F
100
AcDbEntity
  8
8-4
  6
Continuous
 62
     7
370
     9
100
AcDbLine
 10
937.1370687992488
 20
-342.5641751256475
 30
0.0
 11
937.1370687992488
 21
-341.8140339818487
 31
0.0
  0
LINE
  5
4BE
330
1F
100
AcDbEntity
  8
8-4
  6
Continuous
 62
     7
370
     9
100
AcDbLine
 10
904.8126843483363
 20
-360.2521729436407
 30
0.0
 11
904.0625479729091
 21
-360.2521729436407
 31
0.0
  0
LINE
  5
4BF
330
1F
100
AcDbEntity
  8
8-4
  6
Continuous
 62
     7
370
     9
100
AcDbLine
 10
904.8126843483363
 20
-359.5020317998419
 30
0.0
 11
904.8126843483363
 21
-360.2521729436407
 31
0.0
  0
LINE
  5
4C0
330
1F
100
AcDbEntity
  8
8-4
  6
Continuous
 62
     7
370
     9
100
AcDbLine
 10
904.0625479729091
 20
-359.5020317998419
 30
0.0
 11
904.8126843483363
 21
-359.5020317998419
 31
0.0
  0
LINE
  5
4C1
330
1F
100
AcDbEntity
  8
8-4
  6
Continuous
 62
     7
370
     9
100
AcDbLine
 10
904.0625479729091
 20
-360.2521729436407
 30
0.0
 11
904.0625479729091
 21
-359.5020317998419
 31
0.0
  0
LINE
  5
4C2
330
1F
100
AcDbEntity
  8
8-4
  6
Continuous
 62
     7
370
     9
100
AcDbLine
 10
920.1157358200466
 20
-354.8220753636846
 30
0.0
 11
919.3655946762477
 21
-354.8220753636846
 31
0.0
  0
LINE
  5
4C3
330
1F
100
AcDbEntity
  8
8-4
  6
Continuous
 62
     7
370
     9
100
AcDbLine
 10
920.1157358200466
 20
-354.0719342198858
 30
0.0
 11
920.1157358200466
 21
-354.8220753636846
 31
0.0
  0
LINE
  5
4C4
330
1F
100
AcDbEntity
  8
8-4
  6
Continuous
 62
     7
370
     9
100
AcDbLine
 10
919.3655946762477
 20
-354.0719342198858
 30
0.0
 11
920.1157358200466
 21
-354.0719342198858
 31
0.0
  0
LINE
  5
4C5
330
1F
100
AcDbEntity
  8
8-4
  6
Continuous
 62
     7
370
     9
100
AcDbLine
 10
919.3655946762477
 20
-354.8220753636846
 30
0.0
 11
919.3655946762477
 21
-354.0719342198858
 31
0.0
  0
LINE
  5
4C6
330
1F
100
AcDbEntity
  8
8-4
  6
Continuous
 62
     7
370
     9
100
AcDbLine
 10
829.6870405623649
 20
-350.8178472588276
 30
0.0
 11
828.9368994185661
 21
-350.8178472588276
 31
0.0
  0
LINE
  5
4C7
330
1F
100
AcDbEntity
  8
8-4
  6
Continuous
 62
     7
370
     9
100
AcDbLine
 10
829.6870405623649
 20
-350.0677061150287
 30
0.0
 11
829.6870405623649
 21
-350.8178472588276
 31
0.0
  0
LINE
  5
4C8
330
1F
100
AcDbEntity
  8
8-4
  6
Continuous
 62
     7
370
     9
100
AcDbLine
 10
828.9368994185661
 20
-350.0677061150287
 30
0.0
 11
829.6870405623649
 21
-350.0677061150287
 31
0.0
  0
LINE
  5
4C9
330
1F
100
AcDbEntity
  8
8-4
  6
Continuous
 62
     7
370
     9
100
AcDbLine
 10
856.6098220298027
 20
-337.3713254997944
 30
0.0
 11
855.8599312255119
 21
-337.3713254997944
 31
0.0
  0
LINE
  5
4CA
330
1F
100
AcDbEntity
  8
8-4
  6
Continuous
 62
     7
370
     9
100
AcDbLine
 10
856.6098220298027
 20
-336.6211843559955
 30
0.0
 11
856.6098220298027
 21
-337.3713254997944
 31
0.0
  0
LINE
  5
4CB
330
1F
100
AcDbEntity
  8
8-4
  6
Continuous
 62
     7
370
     9
100
AcDbLine
 10
855.8599312255119
 20
-336.6211843559955
 30
0.0
 11
856.6098220298027
 21
-336.6211843559955
 31
0.0
  0
LINE
  5
4CC
330
1F
100
AcDbEntity
  8
8-4
  6
Continuous
 62
     7
370
     9
100
AcDbLine
 10
855.8599312255119
 20
-337.3713254997944
 30
0.0
 11
855.8599312255119
 21
-336.6211843559955
 31
0.0
  0
LINE
  5
4CD
330
1F
100
AcDbEntity
  8
8-4
  6
Continuous
 62
     7
370
     9
100
AcDbLine
 10
842.7877314040397
 20
-341.32045269706
 30
0.0
 11
842.0378382155632
 21
-341.32045269706
 31
0.0
  0
LINE
  5
4CE
330
1F
100
AcDbEntity
  8
8-4
  6
Continuous
 62
     7
370
     9
100
AcDbLine
 10
842.7877314040397
 20
-340.5703210900043
 30
0.0
 11
842.7877314040397
 21
-341.32045269706
 31
0.0
  0
LINE
  5
4CF
330
1F
100
AcDbEntity
  8
8-4
  6
Continuous
 62
     7
370
     9
100
AcDbLine
 10
842.0378382155632
 20
-340.5703210900043
 30
0.0
 11
842.7877314040397
 21
-340.5703210900043
 31
0.0
  0
LINE
  5
4D0
330
1F
100
AcDbEntity
  8
8-4
  6
Continuous
 62
     7
370
     9
100
AcDbLine
 10
842.0378382155632
 20
-341.32045269706
 30
0.0
 11
842.0378382155632
 21
-340.5703210900043
 31
0.0
  0
LINE
  5
4D1
330
1F
100
AcDbEntity
  8
8-4
  6
Continuous
 62
     7
370
     9
100
AcDbLine
 10
883.2667858550285
 20
-359.6686601708149
 30
0.0
 11
882.5168938586448
 21
-359.6686601708149
 31
0.0
  0
LINE
  5
4D2
330
1F
100
AcDbEntity
  8
8-4
  6
Continuous
 62
     7
370
     9
100
AcDbLine
 10
883.2667858550285
 20
-358.918519027016
 30
0.0
 11
883.2667858550285
 21
-359.6686601708149
 31
0.0
  0
LINE
  5
4D3
330
1F
100
AcDbEntity
  8
8-4
  6
Continuous
 62
     7
370
     9
100
AcDbLine
 10
882.5168938586448
 20
-358.918519027016
 30
0.0
 11
883.2667858550285
 21
-358.918519027016
 31
0.0
  0
LINE
  5
4D4
330
1F
100
AcDbEntity
  8
8-4
  6
Continuous
 62
     7
370
     9
100
AcDbLine
 10
882.5168938586448
 20
-359.6686601708149
 30
0.0
 11
882.5168938586448
 21
-358.918519027016
 31
0.0
  0
LINE
  5
4D5
330
1F
100
AcDbEntity
  8
8-4
  6
Continuous
 62
     7
370
     9
100
AcDbLine
 10
876.3557393500541
 20
-342.8846502373432
 30
0.0
 11
875.6058473536705
 21
-342.8846502373432
 31
0.0
  0
LINE
  5
4D6
330
1F
100
AcDbEntity
  8
8-4
  6
Continuous
 62
     7
370
     9
100
AcDbLine
 10
876.3557393500541
 20
-342.1345090935444
 30
0.0
 11
876.3557393500541
 21
-342.8846502373432
 31
0.0
  0
LINE
  5
4D7
330
1F
100
AcDbEntity
  8
8-4
  6
Continuous
 62
     7
370
     9
100
AcDbLine
 10
875.6058473536705
 20
-342.1345090935444
 30
0.0
 11
876.3557393500541
 21
-342.1345090935444
 31
0.0
  0
LINE
  5
4D8
330
1F
100
AcDbEntity
  8
8-4
  6
Continuous
 62
     7
370
     9
100
AcDbLine
 10
875.6058473536705
 20
-342.8846502373432
 30
0.0
 11
875.6058473536705
 21
-342.1345090935444
 31
0.0
  0
LINE
  5
4D9
330
1F
100
AcDbEntity
  8
8-4
  6
Continuous
 62
     7
370
     9
100
AcDbLine
 10
843.281462902758
 20
-360.5726480553363
 30
0.0
 11
842.5313265273307
 21
-360.5726480553363
 31
0.0
  0
LINE
  5
4DA
330
1F
100
AcDbEntity
  8
8-4
  6
Continuous
 62
     7
370
     9
100
AcDbLine
 10
843.281462902758
 20
-359.8225069115375
 30
0.0
 11
843.281462902758
 21
-360.5726480553363
 31
0.0
  0
LINE
  5
4DB
330
1F
100
AcDbEntity
  8
8-4
  6
Continuous
 62
     7
370
     9
100
AcDbLine
 10
842.5313265273307
 20
-359.8225069115375
 30
0.0
 11
843.281462902758
 21
-359.8225069115375
 31
0.0
  0
LINE
  5
4DC
330
1F
100
AcDbEntity
  8
8-4
  6
Continuous
 62
     7
370
     9
100
AcDbLine
 10
842.5313265273307
 20
-360.5726480553363
 30
0.0
 11
842.5313265273307
 21
-359.8225069115375
 31
0.0
  0
LINE
  5
4DD
330
1F
100
AcDbEntity
  8
8-4
  6
Continuous
 62
     7
370
     9
100
AcDbLine
 10
858.5845143744682
 20
-355.1425504753803
 30
0.0
 11
857.8343732306694
 21
-355.1425504753803
 31
0.0
  0
LINE
  5
4DE
330
1F
100
AcDbEntity
  8
8-4
  6
Continuous
 62
     7
370
     9
100
AcDbLine
 10
858.5845143744682
 20
-354.3924093315815
 30
0.0
 11
858.5845143744682
 21
-355.1425504753803
 31
0.0
  0
LINE
  5
4DF
330
1F
100
AcDbEntity
  8
8-4
  6
Continuous
 62
     7
370
     9
100
AcDbLine
 10
857.8343732306694
 20
-354.3924093315815
 30
0.0
 11
858.5845143744682
 21
-354.3924093315815
 31
0.0
  0
LINE
  5
4E0
330
1F
100
AcDbEntity
  8
8-4
  6
Continuous
 62
     7
370
     9
100
AcDbLine
 10
857.8343732306694
 20
-355.1425504753803
 30
0.0
 11
857.8343732306694
 21
-354.3924093315815
 31
0.0
  0
LINE
  5
4E1
330
1F
100
AcDbEntity
  8
8-4
  6
Continuous
 62
     7
370
     9
100
AcDbLine
 10
953.3904336769132
 20
-350.4973721471319
 30
0.0
 11
952.6402925331143
 21
-350.4973721471319
 31
0.0
  0
LINE
  5
4E2
330
1F
100
AcDbEntity
  8
8-4
  6
Continuous
 62
     7
370
     9
100
AcDbLine
 10
953.3904336769132
 20
-349.7472310033331
 30
0.0
 11
953.3904336769132
 21
-350.4973721471319
 31
0.0
  0
LINE
  5
4E3
330
1F
100
AcDbEntity
  8
8-4
  6
Continuous
 62
     7
370
     9
100
AcDbLine
 10
952.6402925331143
 20
-349.7472310033331
 30
0.0
 11
953.3904336769132
 21
-349.7472310033331
 31
0.0
  0
LINE
  5
4E4
330
1F
100
AcDbEntity
  8
8-4
  6
Continuous
 62
     7
370
     9
100
AcDbLine
 10
980.3132151443509
 20
-337.0508503880987
 30
0.0
 11
979.5633243400601
 21
-337.0508503880987
 31
0.0
  0
LINE
  5
4E5
330
1F
100
AcDbEntity
  8
8-4
  6
Continuous
 62
     7
370
     9
100
AcDbLine
 10
980.3132151443509
 20
-336.3007092442999
 30
0.0
 11
980.3132151443509
 21
-337.0508503880987
 31
0.0
  0
LINE
  5
4E6
330
1F
100
AcDbEntity
  8
8-4
  6
Continuous
 62
     7
370
     9
100
AcDbLine
 10
979.5633243400601
 20
-336.3007092442999
 30
0.0
 11
980.3132151443509
 21
-336.3007092442999
 31
0.0
  0
LINE
  5
4E7
330
1F
100
AcDbEntity
  8
8-4
  6
Continuous
 62
     7
370
     9
100
AcDbLine
 10
979.5633243400601
 20
-337.0508503880987
 30
0.0
 11
979.5633243400601
 21
-336.3007092442999
 31
0.0
  0
LINE
  5
4E8
330
1F
100
AcDbEntity
  8
8-4
  6
Continuous
 62
     7
370
     9
100
AcDbLine
 10
966.491124518588
 20
-340.9999775853643
 30
0.0
 11
965.7412313301114
 21
-340.9999775853643
 31
0.0
  0
LINE
  5
4E9
330
1F
100
AcDbEntity
  8
8-4
  6
Continuous
 62
     7
370
     9
100
AcDbLine
 10
966.491124518588
 20
-340.2498459783087
 30
0.0
 11
966.491124518588
 21
-340.9999775853643
 31
0.0
  0
LINE
  5
4EA
330
1F
100
AcDbEntity
  8
8-4
  6
Continuous
 62
     7
370
     9
100
AcDbLine
 10
965.7412313301114
 20
-340.2498459783087
 30
0.0
 11
966.491124518588
 21
-340.2498459783087
 31
0.0
  0
LINE
  5
4EB
330
1F
100
AcDbEntity
  8
8-4
  6
Continuous
 62
     7
370
     9
100
AcDbLine
 10
965.7412313301114
 20
-340.9999775853643
 30
0.0
 11
965.7412313301114
 21
-340.2498459783087
 31
0.0
  0
LINE
  5
4EC
330
1F
100
AcDbEntity
  8
8-4
  6
Continuous
 62
     7
370
     9
100
AcDbLine
 10
1006.970178969577
 20
-359.3481850591192
 30
0.0
 11
1006.220286973193
 21
-359.3481850591192
 31
0.0
  0
LINE
  5
4ED
330
1F
100
AcDbEntity
  8
8-4
  6
Continuous
 62
     7
370
     9
100
AcDbLine
 10
1006.970178969577
 20
-358.5980439153204
 30
0.0
 11
1006.970178969577
 21
-359.3481850591192
 31
0.0
  0
LINE
  5
4EE
330
1F
100
AcDbEntity
  8
8-4
  6
Continuous
 62
     7
370
     9
100
AcDbLine
 10
1006.220286973193
 20
-358.5980439153204
 30
0.0
 11
1006.970178969577
 21
-358.5980439153204
 31
0.0
  0
LINE
  5
4EF
330
1F
100
AcDbEntity
  8
8-4
  6
Continuous
 62
     7
370
     9
100
AcDbLine
 10
1006.220286973193
 20
-359.3481850591192
 30
0.0
 11
1006.220286973193
 21
-358.5980439153204
 31
0.0
  0
LINE
  5
4F0
330
1F
100
AcDbEntity
  8
8-4
  6
Continuous
 62
     7
370
     9
100
AcDbLine
 10
1000.059132464602
 20
-342.5641751256475
 30
0.0
 11
999.3092404682187
 21
-342.5641751256475
 31
0.0
  0
LINE
  5
4F1
330
1F
100
AcDbEntity
  8
8-4
  6
Continuous
 62
     7
370
     9
100
AcDbLine
 10
1000.059132464602
 20
-341.8140339818487
 30
0.0
 11
1000.059132464602
 21
-342.5641751256475
 31
0.0
  0
LINE
  5
4F2
330
1F
100
AcDbEntity
  8
8-4
  6
Continuous
 62
     7
370
     9
100
AcDbLine
 10
999.3092404682187
 20
-341.8140339818487
 30
0.0
 11
1000.059132464602
 21
-341.8140339818487
 31
0.0
  0
LINE
  5
4F3
330
1F
100
AcDbEntity
  8
8-4
  6
Continuous
 62
     7
370
     9
100
AcDbLine
 10
999.3092404682187
 20
-342.5641751256475
 30
0.0
 11
999.3092404682187
 21
-341.8140339818487
 31
0.0
  0
LINE
  5
4F4
330
1F
100
AcDbEntity
  8
8-4
  6
Continuous
 62
     7
370
     9
100
AcDbLine
 10
966.9848560173062
 20
-360.2521729436407
 30
0.0
 11
966.234719641879
 21
-360.2521729436407
 31
0.0
  0
LINE
  5
4F5
330
1F
100
AcDbEntity
  8
8-4
  6
Continuous
 62
     7
370
     9
100
AcDbLine
 10
966.9848560173062
 20
-359.5020317998419
 30
0.0
 11
966.9848560173062
 21
-360.2521729436407
 31
0.0
  0
LINE
  5
4F6
330
1F
100
AcDbEntity
  8
8-4
  6
Continuous
 62
     7
370
     9
100
AcDbLine
 10
966.234719641879
 20
-359.5020317998419
 30
0.0
 11
966.9848560173062
 21
-359.5020317998419
 31
0.0
  0
LINE
  5
4F7
330
1F
100
AcDbEntity
  8
8-4
  6
Continuous
 62
     7
370
     9
100
AcDbLine
 10
966.234719641879
 20
-360.2521729436407
 30
0.0
 11
966.234719641879
 21
-359.5020317998419
 31
0.0
  0
LINE
  5
4F8
330
1F
100
AcDbEntity
  8
8-4
  6
Continuous
 62
     7
370
     9
100
AcDbLine
 10
982.2879074890164
 20
-354.8220753636846
 30
0.0
 11
981.5377663452176
 21
-354.8220753636846
 31
0.0
  0
LINE
  5
4F9
330
1F
100
AcDbEntity
  8
8-4
  6
Continuous
 62
     7
370
     9
100
AcDbLine
 10
982.2879074890164
 20
-354.0719342198858
 30
0.0
 11
982.2879074890164
 21
-354.8220753636846
 31
0.0
  0
LINE
  5
4FA
330
1F
100
AcDbEntity
  8
8-4
  6
Continuous
 62
     7
370
     9
100
AcDbLine
 10
981.5377663452176
 20
-354.0719342198858
 30
0.0
 11
982.2879074890164
 21
-354.0719342198858
 31
0.0
  0
LINE
  5
4FB
330
1F
100
AcDbEntity
  8
8-4
  6
Continuous
 62
     7
370
     9
100
AcDbLine
 10
981.5377663452176
 20
-354.8220753636846
 30
0.0
 11
981.5377663452176
 21
-354.0719342198858
 31
0.0
  0
LINE
  5
4FC
330
1F
100
AcDbEntity
  8
8-4
  6
Continuous
 62
     7
370
     9
100
AcDbLine
 10
1015.562605345883
 20
-350.4973721471319
 30
0.0
 11
1014.812464202084
 21
-350.4973721471319
 31
0.0
  0
LINE
  5
4FD
330
1F
100
AcDbEntity
  8
8-4
  6
Continuous
 62
     7
370
     9
100
AcDbLine
 10
1015.562605345883
 20
-349.7472310033331
 30
0.0
 11
1015.562605345883
 21
-350.4973721471319
 31
0.0
  0
LINE
  5
4FE
330
1F
100
AcDbEntity
  8
8-4
  6
Continuous
 62
     7
370
     9
100
AcDbLine
 10
1014.812464202084
 20
-349.7472310033331
 30
0.0
 11
1015.562605345883
 21
-349.7472310033331
 31
0.0
  0
LINE
  5
4FF
330
1F
100
AcDbEntity
  8
8-4
  6
Continuous
 62
     7
370
     9
100
AcDbLine
 10
1042.485386813321
 20
-337.0508503880987
 30
0.0
 11
1041.73549600903
 21
-337.0508503880987
 31
0.0
  0
LINE
  5
500
330
1F
100
AcDbEntity
  8
8-4
  6
Continuous
 62
     7
370
     9
100
AcDbLine
 10
1042.485386813321
 20
-336.3007092442999
 30
0.0
 11
1042.485386813321
 21
-337.0508503880987
 31
0.0
  0
LINE
  5
501
330
1F
100
AcDbEntity
  8
8-4
  6
Continuous
 62
     7
370
     9
100
AcDbLine
 10
1041.73549600903
 20
-336.3007092442999
 30
0.0
 11
1042.485386813321
 21
-336.3007092442999
 31
0.0
  0
LINE
  5
502
330
1F
100
AcDbEntity
  8
8-4
  6
Continuous
 62
     7
370
     9
100
AcDbLine
 10
1041.73549600903
 20
-337.0508503880987
 30
0.0
 11
1041.73549600903
 21
-336.3007092442999
 31
0.0
  0
LINE
  5
503
330
1F
100
AcDbEntity
  8
8-4
  6
Continuous
 62
     7
370
     9
100
AcDbLine
 10
1028.663296187558
 20
-340.9999775853643
 30
0.0
 11
1027.913402999081
 21
-340.9999775853643
 31
0.0
  0
LINE
  5
504
330
1F
100
AcDbEntity
  8
8-4
  6
Continuous
 62
     7
370
     9
100
AcDbLine
 10
1028.663296187558
 20
-340.2498459783087
 30
0.0
 11
1028.663296187558
 21
-340.9999775853643
 31
0.0
  0
LINE
  5
505
330
1F
100
AcDbEntity
  8
8-4
  6
Continuous
 62
     7
370
     9
100
AcDbLine
 10
1027.913402999081
 20
-340.2498459783087
 30
0.0
 11
1028.663296187558
 21
-340.2498459783087
 31
0.0
  0
LINE
  5
506
330
1F
100
AcDbEntity
  8
8-4
  6
Continuous
 62
     7
370
     9
100
AcDbLine
 10
1027.913402999081
 20
-340.9999775853643
 30
0.0
 11
1027.913402999081
 21
-340.2498459783087
 31
0.0
  0
LINE
  5
507
330
1F
100
AcDbEntity
  8
8-4
  6
Continuous
 62
     7
370
     9
100
AcDbLine
 10
1069.142350638547
 20
-359.3481850591192
 30
0.0
 11
1068.392458642163
 21
-359.3481850591192
 31
0.0
  0
LINE
  5
508
330
1F
100
AcDbEntity
  8
8-4
  6
Continuous
 62
     7
370
     9
100
AcDbLine
 10
1069.142350638547
 20
-358.5980439153204
 30
0.0
 11
1069.142350638547
 21
-359.3481850591192
 31
0.0
  0
LINE
  5
509
330
1F
100
AcDbEntity
  8
8-4
  6
Continuous
 62
     7
370
     9
100
AcDbLine
 10
1068.392458642163
 20
-358.5980439153204
 30
0.0
 11
1069.142350638547
 21
-358.5980439153204
 31
0.0
  0
LINE
  5
50A
330
1F
100
AcDbEntity
  8
8-4
  6
Continuous
 62
     7
370
     9
100
AcDbLine
 10
1068.392458642163
 20
-359.3481850591192
 30
0.0
 11
1068.392458642163
 21
-358.5980439153204
 31
0.0
  0
LINE
  5
50B
330
1F
100
AcDbEntity
  8
8-4
  6
Continuous
 62
     7
370
     9
100
AcDbLine
 10
1062.231304133572
 20
-342.5641751256475
 30
0.0
 11
1061.481412137188
 21
-342.5641751256475
 31
0.0
  0
LINE
  5
50C
330
1F
100
AcDbEntity
  8
8-4
  6
Continuous
 62
     7
370
     9
100
AcDbLine
 10
1062.231304133572
 20
-341.8140339818487
 30
0.0
 11
1062.231304133572
 21
-342.5641751256475
 31
0.0
  0
LINE
  5
50D
330
1F
100
AcDbEntity
  8
8-4
  6
Continuous
 62
     7
370
     9
100
AcDbLine
 10
1061.481412137188
 20
-341.8140339818487
 30
0.0
 11
1062.231304133572
 21
-341.8140339818487
 31
0.0
  0
LINE
  5
50E
330
1F
100
AcDbEntity
  8
8-4
  6
Continuous
 62
     7
370
     9
100
AcDbLine
 10
1061.481412137188
 20
-342.5641751256475
 30
0.0
 11
1061.481412137188
 21
-341.8140339818487
 31
0.0
  0
LINE
  5
50F
330
1F
100
AcDbEntity
  8
8-4
  6
Continuous
 62
     7
370
     9
100
AcDbLine
 10
1029.157027686276
 20
-360.2521729436407
 30
0.0
 11
1028.406891310849
 21
-360.2521729436407
 31
0.0
  0
LINE
  5
510
330
1F
100
AcDbEntity
  8
8-4
  6
Continuous
 62
     7
370
     9
100
AcDbLine
 10
1029.157027686276
 20
-359.5020317998419
 30
0.0
 11
1029.157027686276
 21
-360.2521729436407
 31
0.0
  0
LINE
  5
511
330
1F
100
AcDbEntity
  8
8-4
  6
Continuous
 62
     7
370
     9
100
AcDbLine
 10
1028.406891310849
 20
-359.5020317998419
 30
0.0
 11
1029.157027686276
 21
-359.5020317998419
 31
0.0
  0
LINE
  5
512
330
1F
100
AcDbEntity
  8
8-4
  6
Continuous
 62
     7
370
     9
100
AcDbLine
 10
1028.406891310849
 20
-360.2521729436407
 30
0.0
 11
1028.406891310849
 21
-359.5020317998419
 31
0.0
  0
LINE
  5
513
330
1F
100
AcDbEntity
  8
8-4
  6
Continuous
 62
     7
370
     9
100
AcDbLine
 10
1044.460079157986
 20
-354.8220753636846
 30
0.0
 11
1043.709938014187
 21
-354.8220753636846
 31
0.0
  0
LINE
  5
514
330
1F
100
AcDbEntity
  8
8-4
  6
Continuous
 62
     7
370
     9
100
AcDbLine
 10
1044.460079157986
 20
-354.0719342198858
 30
0.0
 11
1044.460079157986
 21
-354.8220753636846
 31
0.0
  0
LINE
  5
515
330
1F
100
AcDbEntity
  8
8-4
  6
Continuous
 62
     7
370
     9
100
AcDbLine
 10
1043.709938014187
 20
-354.0719342198858
 30
0.0
 11
1044.460079157986
 21
-354.0719342198858
 31
0.0
  0
LINE
  5
516
330
1F
100
AcDbEntity
  8
8-4
  6
Continuous
 62
     7
370
     9
100
AcDbLine
 10
1043.709938014187
 20
-354.8220753636846
 30
0.0
 11
1043.709938014187
 21
-354.0719342198858
 31
0.0
  0
LINE
  5
517
330
1F
100
AcDbEntity
  8
8-4
  6
Continuous
 62
     7
370
     9
100
AcDbLine
 10
826.3290783422508
 20
-340.8267097318957
 30
0.0
 11
825.5791851537742
 21
-340.8267097318957
 31
0.0
  0
LINE
  5
518
330
1F
100
AcDbEntity
  8
8-4
  6
Continuous
 62
     7
370
     9
100
AcDbLine
 10
826.3290783422508
 20
-340.07657812484
 30
0.0
 11
826.3290783422508
 21
-340.8267097318957
 31
0.0
  0
LINE
  5
519
330
1F
100
AcDbEntity
  8
8-4
  6
Continuous
 62
     7
370
     9
100
AcDbLine
 10
825.5791851537742
 20
-340.07657812484
 30
0.0
 11
826.3290783422508
 21
-340.07657812484
 31
0.0
  0
LINE
  5
51A
330
1F
100
AcDbEntity
  8
8-4
  6
Continuous
 62
     7
370
     9
100
AcDbLine
 10
825.5791851537742
 20
-340.8267097318957
 30
0.0
 11
825.5791851537742
 21
-340.07657812484
 31
0.0
  0
LINE
  5
51B
330
1F
100
AcDbEntity
  8
8-4
  6
Continuous
 62
     7
370
     9
100
AcDbLine
 10
828.9368994185661
 20
-350.0677061150287
 30
0.0
 11
828.9368994185661
 21
-350.8178472588276
 31
0.0
  0
LINE
  5
51C
330
1F
100
AcDbEntity
  8
8-4
  6
Continuous
 62
     7
370
     9
100
AcDbLine
 10
952.6402925331143
 20
-349.7472310033331
 30
0.0
 11
952.6402925331143
 21
-350.4973721471319
 31
0.0
  0
LINE
  5
51D
330
1F
100
AcDbEntity
  8
8-4
  6
Continuous
 62
     7
370
     9
100
AcDbLine
 10
890.4681208641445
 20
-349.7472310033331
 30
0.0
 11
890.4681208641445
 21
-350.4973721471319
 31
0.0
  0
LINE
  5
51E
330
1F
100
AcDbEntity
  8
8-4
  6
Continuous
 62
     7
370
     9
100
AcDbLine
 10
1014.812464202084
 20
-349.7472310033331
 30
0.0
 11
1014.812464202084
 21
-350.4973721471319
 31
0.0
  0
TEXT
  5
51F
330
1F
100
AcDbEntity
  8
8-4
  6
Continuous
 62
     7
370
     9
100
AcDbText
 10
264.613666146532
 20
-260.7202963299632
 30
0.0
 40
22.86
  1
本体：ＦＣ２００
 41
1.145833333333333
  7
ＭＳ ゴシック
100
AcDbText
  0
LINE
  5
520
330
1F
100
AcDbEntity
  8
8-4
  6
Continuous
 62
     7
370
     9
100
AcDbLine
 10
259.2937093045211
 20
-271.1101781073069
 30
0.0
 11
543.3047708319205
 21
-271.1101781073069
 31
0.0
  0
TEXT
  5
521
330
1F
100
AcDbEntity
  8
8-4
  6
Continuous
 62
     7
370
     9
100
AcDbText
 10
314.0028630613956
 20
-301.4305634049193
 30
0.0
 40
22.86
  1
樹脂系塗装
 41
1.133333333333333
  7
ＭＳ ゴシック
100
AcDbText
  0
LINE
  5
522
330
1F
100
AcDbEntity
  8
8-4
  6
Continuous
 62
     7
370
     9
100
AcDbLine
 10
687.4379646603593
 20
-165.855016824697
 30
0.0
 11
669.3454915768604
 21
-183.1079127474942
 31
0.0
  0
LINE
  5
523
330
1F
100
AcDbEntity
  8
8-4
  6
Continuous
 62
     7
370
     9
100
AcDbLine
 10
543.3047708319205
 20
-271.1101781073069
 30
0.0
 11
687.4379646603593
 21
-165.855016824697
 31
0.0
  0
LINE
  5
524
330
1F
100
AcDbEntity
  8
8-4
  6
Continuous
 62
     7
370
     9
100
AcDbLine
 10
687.4379646603593
 20
-165.855016824697
 30
0.0
 11
665.4965995995764
 21
-177.8373579677899
 31
0.0
  0
TEXT
  5
525
330
1F
100
AcDbEntity
  8
8-4
  6
Continuous
 62
     7
370
     9
100
AcDbText
 10
463.1909288489553
 20
-418.8318728994271
 30
0.0
 40
22.86
  1
ならしモルタル
 41
1.142857142857143
  7
ＭＳ ゴシック
100
AcDbText
  0
TEXT
  5
526
330
1F
100
AcDbEntity
  8
8-4
  6
Continuous
 62
     7
370
     9
100
AcDbText
 10
480.6909288489553
 20
-515.3244507045054
 30
0.0
 40
22.86
  1
コンクリート
 41
1.138888888888889
  7
ＭＳ ゴシック
100
AcDbText
  0
LINE
  5
527
330
1F
100
AcDbEntity
  8
8-4
  6
Continuous
 62
     7
370
     9
100
AcDbLine
 10
711.3594382674646
 20
-428.2549523425067
 30
0.0
 11
822.6829435909699
 21
-346.9594977970522
 31
0.0
  0
LINE
  5
528
330
1F
100
AcDbEntity
  8
8-4
  6
Continuous
 62
     7
370
     9
100
AcDbLine
 10
711.3594382674646
 20
-524.7475301475847
 30
0.0
 11
822.6829435909699
 21
-443.45207560213
 31
0.0
  0
LINE
  5
529
330
1F
100
AcDbEntity
  8
8-4
  6
Continuous
 62
     7
370
     9
100
AcDbLine
 10
478.5514716588116
 20
-524.7475301475847
 30
0.0
 11
711.3594382674646
 21
-524.7475301475847
 31
0.0
  0
LINE
  5
52A
330
1F
100
AcDbEntity
  8
8-4
  6
Continuous
 62
     7
370
     9
100
AcDbLine
 10
458.9437319596016
 20
-428.2549523425067
 30
0.0
 11
711.3594382674646
 21
-428.2549523425067
 31
0.0
  0
LINE
  5
52B
330
1F
100
AcDbEntity
  8
8-4
  6
Continuous
 62
     7
370
     9
100
AcDbLine
 10
822.6829435909699
 20
-346.9594977970522
 30
0.0
 11
800.7415785301871
 21
-358.941838940145
 31
0.0
  0
LINE
  5
52C
330
1F
100
AcDbEntity
  8
8-4
  6
Continuous
 62
     7
370
     9
100
AcDbLine
 10
822.6829435909699
 20
-346.9594977970522
 30
0.0
 11
804.5904705074711
 21
-364.2123937198493
 31
0.0
  0
LINE
  5
52D
330
1F
100
AcDbEntity
  8
8-4
  6
Continuous
 62
     7
370
     9
100
AcDbLine
 10
822.6829435909699
 20
-443.45207560213
 30
0.0
 11
800.7415785301871
 21
-455.4344167452228
 31
0.0
  0
LINE
  5
52E
330
1F
100
AcDbEntity
  8
8-4
  6
Continuous
 62
     7
370
     9
100
AcDbLine
 10
822.6829435909699
 20
-443.45207560213
 30
0.0
 11
804.5904705074711
 21
-460.7049715249272
 31
0.0
  0
TEXT
  5
52F
330
1F
100
AcDbEntity
  8
8-4
  6
Continuous
 62
     7
370
     9
100
AcDbText
 10
363.4516782347046
 20
-626.4326234379814
 30
0.0
 40
22.86
  1
クラッシャーラン基礎
 41
1.15
  7
ＭＳ ゴシック
100
AcDbText
  0
LINE
  5
530
330
1F
100
AcDbEntity
  8
8-4
  6
Continuous
 62
     7
370
     9
100
AcDbLine
 10
360.5439182019444
 20
-635.8557028810608
 30
0.0
 11
711.3594382674646
 21
-635.8557028810608
 31
0.0
  0
LINE
  5
531
330
1F
100
AcDbEntity
  8
8-4
  6
Continuous
 62
     7
370
     9
100
AcDbLine
 10
711.3594382674646
 20
-635.8557028810608
 30
0.0
 11
797.684065907308
 21
-572.8160076967016
 31
0.0
  0
LINE
  5
532
330
1F
100
AcDbEntity
  8
8-4
  6
Continuous
 62
     7
370
     9
100
AcDbLine
 10
797.684065907308
 20
-572.8160076967016
 30
0.0
 11
775.7427008465248
 21
-584.7983488397945
 31
0.0
  0
LINE
  5
533
330
1F
100
AcDbEntity
  8
8-4
  6
Continuous
 62
     7
370
     9
100
AcDbLine
 10
797.684065907308
 20
-572.8160076967016
 30
0.0
 11
779.5915928238089
 21
-590.0689036194988
 31
0.0
  0
LINE
  5
534
330
1F
100
AcDbEntity
  8
8-4
  6
Continuous
 62
     7
370
     9
100
AcDbLine
 10
822.6829435909699
 20
-752.4239814592013
 30
0.0
 11
1072.682095225864
 21
-752.4239814592013
 31
0.0
  0
LWPOLYLINE
  5
535
330
1F
100
AcDbEntity
  8
8-4
  6
Continuous
 62
     7
370
     9
100
AcDbPolyline
 90
        4
 70
     1
 43
1.0
 10
823.1829435909698
 20
-752.4239814592013
 42
0.4142135623731
 10
822.6829435909699
 20
-751.9239814592014
 42
0.4142135623731
 10
822.1829435909699
 20
-752.4239814592013
 42
0.4142135623731
 10
822.6829435909699
 20
-752.9239814592013
 42
0.4142135623731
  0
LWPOLYLINE
  5
536
330
1F
100
AcDbEntity
  8
8-4
  6
Continuous
 62
     7
370
     9
100
AcDbPolyline
 90
        4
 70
     1
 43
1.0
 10
1073.182095225864
 20
-752.4239814592013
 42
0.4142135623731
 10
1072.682095225864
 20
-751.9239814592014
 42
0.4142135623731
 10
1072.182095225864
 20
-752.4239814592013
 42
0.4142135623731
 10
1072.682095225864
 20
-752.9239814592013
 42
0.4142135623731
  0
TEXT
  5
537
330
1F
100
AcDbEntity
  8
8-4
  6
Continuous
 62
     2
370
   211
100
AcDbText
 10
915.182519408417
 20
-736.7839814592013
 30
0.0
 40
30.48
  1
100
 41
1.083333333333333
  7
ＭＳ ゴシック
100
AcDbText
  0
LINE
  5
538
330
1F
100
AcDbEntity
  8
8-4
  6
Continuous
 62
     7
370
     9
100
AcDbLine
 10
822.6829435909699
 20
-755.4239814592013
 30
0.0
 11
822.6829435909699
 21
-663.3825559453402
 31
0.0
  0
LINE
  5
539
330
1F
100
AcDbEntity
  8
8-4
  6
Continuous
 62
     7
370
     9
100
AcDbLine
 10
1072.682095225864
 20
-755.4239814592013
 30
0.0
 11
1072.682095225864
 21
-663.3825559453402
 31
0.0
  0
LINE
  5
53A
330
1F
100
AcDbEntity
  8
8-E
  6
Continuous
 62
     7
370
     9
100
AcDbLine
 10
748.7078683902446
 20
911.8337565097545
 30
0.0
 11
760.1886979310713
 21
939.5501944791835
 31
0.0
  0
LINE
  5
53B
330
1F
100
AcDbEntity
  8
8-E
  6
Continuous
 62
     7
370
     9
100
AcDbLine
 10
748.7078683902446
 20
911.8337565097545
 30
0.0
 11
766.9707406811319
 21
935.6342471947056
 31
0.0
  0
LINE
  5
53C
330
1F
100
AcDbEntity
  8
8-E
  6
Continuous
 62
     7
370
     9
100
AcDbLine
 10
636.396120607305
 20
811.8337959822977
 30
0.0
 11
654.6589928981923
 21
788.0331303220432
 31
0.0
  0
LINE
  5
53D
330
1F
100
AcDbEntity
  8
8-E
  6
Continuous
 62
     7
370
     9
100
AcDbLine
 10
636.396120607305
 20
811.8337959822977
 30
0.0
 11
647.876600197526
 21
784.1173580128693
 31
0.0
  0
LINE
  5
53E
330
1F
100
AcDbEntity
  8
8-E
  6
Continuous
 62
     7
370
     9
100
AcDbLine
 10
748.7078683902446
 20
911.8337565097545
 30
0.0
 11
806.4430693679379
 21
1011.833717037211
 31
0.0
  0
TEXT
  5
53F
330
1F
100
AcDbEntity
  8
8-E
  6
Continuous
 62
     3
370
     9
100
AcDbText
 10
875.4437545054891
 20
975.9345310623837
 30
0.0
 40
22.86
  1
ＦＣ２００，樹脂系塗装
 41
1.03030303030303
  7
ＭＳ ゴシック
100
AcDbText
  0
LINE
  5
540
330
1F
100
AcDbEntity
  8
8-E
  6
Continuous
 62
     7
370
     9
100
AcDbLine
 10
636.396120607305
 20
811.8337959822977
 30
0.0
 11
701.2213885371885
 21
699.5530826192828
 31
0.0
  0
LINE
  5
541
330
1F
100
AcDbEntity
  8
8-E
  6
Continuous
 62
     7
370
     9
100
AcDbLine
 10
563.8958036486754
 20
711.8338354548407
 30
0.0
 11
582.1586759395627
 21
688.0331697945862
 31
0.0
  0
LINE
  5
542
330
1F
100
AcDbEntity
  8
8-E
  6
Continuous
 62
     7
370
     9
100
AcDbLine
 10
563.8958036486754
 20
711.8338354548407
 30
0.0
 11
575.3762832388965
 21
684.1173974854123
 31
0.0
  0
TEXT
  5
543
330
1F
100
AcDbEntity
  8
8-E
  6
Continuous
 62
     3
370
     9
100
AcDbText
 10
646.6702703458029
 20
548.8687871836504
 30
0.0
 40
22.86
  1
樹脂系塗装，Ｌ５０×５０×６
 41
1.030952380952381
  7
ＭＳ ゴシック
100
AcDbText
  0
LINE
  5
544
330
1F
100
AcDbEntity
  8
8-E
  6
Continuous
 62
     7
370
     9
100
AcDbLine
 10
563.8958036486754
 20
711.8338354548407
 30
0.0
 11
636.9711827902843
 21
585.2635032169965
 31
0.0
  0
LINE
  5
545
330
1F
100
AcDbEntity
  8
8-E
  6
Continuous
 62
     7
370
     9
100
AcDbLine
 10
1092.911651835076
 20
585.2635032169965
 30
0.0
 11
636.9711827902843
 21
585.2635032169965
 31
0.0
  0
LINE
  5
546
330
1F
100
AcDbEntity
  8
8-E
  6
Continuous
 62
     7
370
     9
100
AcDbLine
 10
806.4430693679379
 20
1011.833717037211
 30
0.0
 11
1340.479721516054
 21
1011.833717037211
 31
0.0
  0
TEXT
  5
547
330
1F
100
AcDbEntity
  8
8-E
  6
Continuous
 62
     3
370
     9
100
AcDbText
 10
710.4414173126803
 20
603.4605568402696
 30
0.0
 40
22.86
  1
連結金具：ＳＳ４００
 41
1.03
  7
ＭＳ ゴシック
100
AcDbText
  0
LINE
  5
548
330
1F
100
AcDbEntity
  8
8-4
  6
Continuous
 62
     7
370
     9
100
AcDbLine
 10
440.8241071392978
 20
911.8337565097545
 30
0.0
 11
440.8241071392978
 21
836.8337423703363
 31
0.0
  0
LWPOLYLINE
  5
549
330
1F
100
AcDbEntity
  8
8-4
  6
Continuous
 62
     7
370
     9
100
AcDbPolyline
 90
        4
 70
     1
 43
1.0
 10
441.3241071392977
 20
911.8337565097545
 42
0.4142135623731
 10
440.8241071392978
 20
912.3337565097545
 42
0.4142135623731
 10
440.3241071392978
 20
911.8337565097545
 42
0.4142135623731
 10
440.8241071392978
 20
911.3337565097545
 42
0.4142135623731
  0
LWPOLYLINE
  5
54A
330
1F
100
AcDbEntity
  8
8-4
  6
Continuous
 62
     7
370
     9
100
AcDbPolyline
 90
        4
 70
     1
 43
1.0
 10
441.3241071392977
 20
836.8337423703363
 42
0.4142135623731
 10
440.8241071392978
 20
837.3337423703363
 42
0.4142135623731
 10
440.3241071392978
 20
836.8337423703363
 42
0.4142135623731
 10
440.8241071392978
 20
836.3337423703364
 42
0.4142135623731
  0
LINE
  5
54B
330
1F
100
AcDbEntity
  8
8-4
  6
Continuous
 62
     7
370
     9
100
AcDbLine
 10
437.8241071392978
 20
911.8337565097545
 30
0.0
 11
543.8958036486754
 21
911.8337565097545
 31
0.0
  0
LINE
  5
54C
330
1F
100
AcDbEntity
  8
8-4
  6
Continuous
 62
     7
370
     9
100
AcDbLine
 10
437.8241071392978
 20
836.8337423703363
 30
0.0
 11
543.8958036486754
 21
836.8337423703363
 31
0.0
  0
LINE
  5
54D
330
1F
100
AcDbEntity
  8
8-4
  6
Continuous
 62
     7
370
     9
100
AcDbLine
 10
440.8241071392978
 20
836.8337423703363
 30
0.0
 11
440.8241071392978
 21
711.8338354548407
 31
0.0
  0
LWPOLYLINE
  5
54E
330
1F
100
AcDbEntity
  8
8-4
  6
Continuous
 62
     7
370
     9
100
AcDbPolyline
 90
        4
 70
     1
 43
1.0
 10
441.3241071392977
 20
711.8338354548407
 42
0.4142135623731
 10
440.8241071392978
 20
712.3338354548407
 42
0.4142135623731
 10
440.3241071392978
 20
711.8338354548407
 42
0.4142135623731
 10
440.8241071392978
 20
711.3338354548408
 42
0.4142135623731
  0
LINE
  5
54F
330
1F
100
AcDbEntity
  8
8-4
  6
Continuous
 62
     7
370
     9
100
AcDbLine
 10
437.8241071392978
 20
711.8338354548407
 30
0.0
 11
543.8958036486754
 21
711.8338354548407
 31
0.0
  0
TEXT
  5
550
330
1F
100
AcDbEntity
  8
8-E
  6
Continuous
 62
     3
370
     9
100
AcDbText
 10
716.0402493775191
 20
715.199171297945
 30
0.0
 40
22.86
  1
六角穴付ボルト：ＳＵＳ３０４
 41
1.030952380952381
  7
ＭＳ ゴシック
100
AcDbText
  0
TEXT
  5
551
330
1F
100
AcDbEntity
  8
8-E
  6
Continuous
 62
     3
370
     9
100
AcDbText
 10
828.9078199220147
 20
663.8891240005362
 30
0.0
 40
22.86
  1
Ｍ１０×２５
 41
1.027777777777778
  7
ＭＳ ゴシック
100
AcDbText
  0
LINE
  5
552
330
1F
100
AcDbEntity
  8
8-E
  6
Continuous
 62
     7
370
     9
100
AcDbLine
 10
1153.061382470489
 20
699.5530826192828
 30
0.0
 11
701.2213885371885
 21
699.5530826192828
 31
0.0
  0
TEXT
  5
553
330
1F
100
AcDbEntity
  8
8-4
  6
Continuous
 62
     2
370
   211
100
AcDbText
 10
425.1841071392978
 20
853.0837494400453
 30
0.0
 40
30.48
  1
30
 50
90.0
 41
1.0625
  7
ＭＳ ゴシック
100
AcDbText
  0
TEXT
  5
554
330
1F
100
AcDbEntity
  8
8-4
  6
Continuous
 62
     2
370
   211
100
AcDbText
 10
425.1841071392978
 20
753.0837889125885
 30
0.0
 40
30.48
  1
50
 50
90.0
 41
1.0625
  7
ＭＳ ゴシック
100
AcDbText
  0
TEXT
  5
555
330
1F
100
AcDbEntity
  8
8-5
  6
Continuous
 62
     2
370
     9
100
AcDbText
 10
546.8540764270385
 20
460.0961280539609
 30
0.0
 40
30.48
  1
連結部詳細　Ｓ＝１：４
 41
1.113636363636364
  7
ＭＳ ゴシック
100
AcDbText
  0
LINE
  5
556
330
1F
100
AcDbEntity
  8
8-5
  6
Continuous
 62
     7
370
     9
100
AcDbLine
 10
531.8540764270385
 20
509.4561280539609
 30
0.0
 11
1051.854076427039
 21
509.4561280539609
 31
0.0
  0
LINE
  5
557
330
1F
100
AcDbEntity
  8
8-5
  6
Continuous
 62
     7
370
     9
100
AcDbLine
 10
531.8540764270385
 20
439.4561280539609
 30
0.0
 11
1051.854076427039
 21
439.4561280539609
 31
0.0
  0
LINE
  5
558
330
1F
100
AcDbEntity
  8
8-5
  6
Continuous
 62
     7
370
     9
100
AcDbLine
 10
531.8540764270385
 20
509.4561280539609
 30
0.0
 11
531.8540764270385
 21
439.4561280539609
 31
0.0
  0
LINE
  5
559
330
1F
100
AcDbEntity
  8
8-5
  6
Continuous
 62
     7
370
     9
100
AcDbLine
 10
1051.854076427039
 20
509.4561280539609
 30
0.0
 11
1051.854076427039
 21
439.4561280539609
 31
0.0
  0
LINE
  5
55A
330
1F
100
AcDbEntity
  8
8-4
  6
Continuous
 62
     4
370
     9
100
AcDbLine
 10
688.8954737289118
 20
834.333373567172
 30
0.0
 11
688.8954737289118
 21
836.8337529749001
 31
0.0
  0
LINE
  5
55B
330
1F
100
AcDbEntity
  8
8-4
  6
Continuous
 62
     3
370
     9
100
AcDbLine
 10
601.3953087690301
 20
911.8337529749001
 30
0.0
 11
601.3953087690301
 21
874.3337529749001
 31
0.0
  0
LINE
  5
55C
330
1F
100
AcDbEntity
  8
8-4
  6
Continuous
 62
     3
370
     9
100
AcDbLine
 10
651.3959686085572
 20
874.3337529749001
 30
0.0
 11
601.3953087690301
 21
874.3337529749001
 31
0.0
  0
LINE
  5
55D
330
1F
100
AcDbEntity
  8
8-4
  6
Continuous
 62
     3
370
     9
100
AcDbLine
 10
651.3959686085572
 20
911.8337529749001
 30
0.0
 11
651.3959686085572
 21
874.3337529749001
 31
0.0
  0
LINE
  5
55E
330
1F
100
AcDbEntity
  8
8-4
  6
Continuous
 62
     2
370
     9
100
AcDbLine
 10
646.3952097931009
 20
897.8336078102043
 30
0.0
 11
606.395572704841
 21
897.8336078102043
 31
0.0
  0
LINE
  5
55F
330
1F
100
AcDbEntity
  8
8-4
  6
Continuous
 62
     2
370
     9
100
AcDbLine
 10
606.395572704841
 20
897.8336078102043
 30
0.0
 11
608.9936908425097
 21
899.3335880150184
 31
0.0
  0
LINE
  5
560
330
1F
100
AcDbEntity
  8
8-4
  6
Continuous
 62
     2
370
     9
100
AcDbLine
 10
643.7975865350775
 20
899.3335880150184
 30
0.0
 11
608.9936908425097
 21
899.3335880150184
 31
0.0
  0
LINE
  5
561
330
1F
100
AcDbEntity
  8
8-4
  6
Continuous
 62
     2
370
     9
100
AcDbLine
 10
646.3952097931009
 20
897.8336078102043
 30
0.0
 11
643.7975865350775
 21
899.3335880150184
 31
0.0
  0
LINE
  5
562
330
1F
100
AcDbEntity
  8
8-4
  6
Continuous
 62
     2
370
     9
100
AcDbLine
 10
606.395572704841
 20
897.8336078102043
 30
0.0
 11
606.395572704841
 21
874.3337529749001
 31
0.0
  0
LINE
  5
563
330
1F
100
AcDbEntity
  8
8-4
  6
Continuous
 62
     2
370
     9
100
AcDbLine
 10
646.3952097931009
 20
874.3337529749001
 30
0.0
 11
646.3952097931009
 21
897.8336078102043
 31
0.0
  0
LINE
  5
564
330
1F
100
AcDbEntity
  8
8-4
  6
Continuous
 62
     2
370
     9
100
AcDbLine
 10
608.8957046727462
 20
897.8336078102043
 30
0.0
 11
608.8957046727462
 21
874.3337529749001
 31
0.0
  0
LINE
  5
565
330
1F
100
AcDbEntity
  8
8-4
  6
Continuous
 62
     2
370
     9
100
AcDbLine
 10
613.8959686085572
 20
897.8336078102043
 30
0.0
 11
613.8959686085572
 21
814.3335550230418
 31
0.0
  0
LINE
  5
566
330
1F
100
AcDbEntity
  8
8-4
  6
Continuous
 62
     2
370
     9
100
AcDbLine
 10
618.8962325443681
 20
897.8336078102043
 30
0.0
 11
618.8962325443681
 21
874.3337529749001
 31
0.0
  0
LINE
  5
567
330
1F
100
AcDbEntity
  8
8-4
  6
Continuous
 62
     2
370
     9
100
AcDbLine
 10
623.8964964801785
 20
897.8336078102043
 30
0.0
 11
623.8964964801785
 21
874.3337529749001
 31
0.0
  0
LINE
  5
568
330
1F
100
AcDbEntity
  8
8-4
  6
Continuous
 62
     2
370
     9
100
AcDbLine
 10
628.8962655363441
 20
897.8336078102043
 30
0.0
 11
628.8962655363441
 21
874.3337529749001
 31
0.0
  0
LINE
  5
569
330
1F
100
AcDbEntity
  8
8-4
  6
Continuous
 62
     2
370
     9
100
AcDbLine
 10
633.8965294721551
 20
897.8336078102043
 30
0.0
 11
633.8965294721551
 21
874.3337529749001
 31
0.0
  0
LINE
  5
56A
330
1F
100
AcDbEntity
  8
8-4
  6
Continuous
 62
     2
370
     9
100
AcDbLine
 10
638.896793407966
 20
897.8336078102043
 30
0.0
 11
638.896793407966
 21
874.3337529749001
 31
0.0
  0
LINE
  5
56B
330
1F
100
AcDbEntity
  8
8-4
  6
Continuous
 62
     2
370
     9
100
AcDbLine
 10
643.897057343777
 20
897.8336078102043
 30
0.0
 11
643.897057343777
 21
874.3337529749001
 31
0.0
  0
LINE
  5
56C
330
1F
100
AcDbEntity
  8
8-4
  6
JWW_CENTER1
 62
     2
370
     9
100
AcDbLine
 10
626.3956386887936
 20
805.2614213659476
 30
0.0
 11
626.3956386887936
 21
903.8637162878226
 31
0.0
  0
LINE
  5
56D
330
1F
100
AcDbEntity
  8
8-4
  6
Continuous
 62
     2
370
     9
100
AcDbLine
 10
616.395605696817
 20
874.3337529749001
 30
0.0
 11
616.395605696817
 21
811.833670494959
 31
0.0
  0
LINE
  5
56E
330
1F
100
AcDbEntity
  8
8-4
  6
Continuous
 62
     2
370
     9
100
AcDbLine
 10
636.3956716807702
 20
811.833670494959
 30
0.0
 11
636.3956716807702
 21
874.3337529749001
 31
0.0
  0
LINE
  5
56F
330
1F
100
AcDbEntity
  8
8-4
  6
Continuous
 62
     2
370
     9
100
AcDbLine
 10
638.8953087690301
 20
814.3335550230418
 30
0.0
 11
638.8953087690301
 21
874.3337529749001
 31
0.0
  0
LINE
  5
570
330
1F
100
AcDbEntity
  8
8-4
  6
Continuous
 62
     2
370
     9
100
AcDbLine
 10
613.8954737289118
 20
814.3335550230418
 30
0.0
 11
638.8953087690301
 21
814.3335550230418
 31
0.0
  0
LINE
  5
571
330
1F
100
AcDbEntity
  8
8-4
  6
Continuous
 62
     2
370
     9
100
AcDbLine
 10
613.8954737289118
 20
814.3335550230418
 30
0.0
 11
616.395605696817
 21
811.833670494959
 31
0.0
  0
LINE
  5
572
330
1F
100
AcDbEntity
  8
8-4
  6
Continuous
 62
     2
370
     9
100
AcDbLine
 10
636.3956716807702
 20
811.833670494959
 30
0.0
 11
616.395605696817
 21
811.833670494959
 31
0.0
  0
LINE
  5
573
330
1F
100
AcDbEntity
  8
8-4
  6
Continuous
 62
     2
370
     9
100
AcDbLine
 10
638.8953087690301
 20
814.3335550230418
 30
0.0
 11
636.3956716807702
 21
811.833670494959
 31
0.0
  0
LINE
  5
574
330
1F
100
AcDbEntity
  8
8-4
  6
Continuous
 62
     3
370
     9
100
AcDbLine
 10
611.395836640652
 20
874.3337529749001
 30
0.0
 11
611.395836640652
 21
836.8337529749001
 31
0.0
  0
LINE
  5
575
330
1F
100
AcDbEntity
  8
8-4
  6
Continuous
 62
     3
370
     9
100
AcDbLine
 10
641.3959356165806
 20
874.3337529749001
 30
0.0
 11
641.3959356165806
 21
836.8337529749001
 31
0.0
  0
LINE
  5
576
330
1F
100
AcDbEntity
  8
8-4
  6
Continuous
 62
     4
370
     9
100
AcDbLine
 10
613.8954737289118
 20
836.8337529749001
 30
0.0
 11
563.8958036486754
 21
836.8337529749001
 31
0.0
  0
LINE
  5
577
330
1F
100
AcDbEntity
  8
8-4
  6
Continuous
 62
     4
370
     9
100
AcDbLine
 10
676.3958036486754
 20
821.833950926758
 30
0.0
 11
638.8953087690301
 21
821.833950926758
 31
0.0
  0
LINE
  5
578
330
1F
100
AcDbEntity
  8
8-4
  6
Continuous
 62
     4
370
     9
100
AcDbLine
 10
613.8954737289118
 20
821.833950926758
 30
0.0
 11
591.3955232168764
 21
821.833950926758
 31
0.0
  0
LINE
  5
579
330
1F
100
AcDbEntity
  8
8-4
  6
Continuous
 62
     4
370
     9
100
AcDbLine
 10
638.8953087690301
 20
836.8337529749001
 30
0.0
 11
688.8954737289118
 21
836.8337529749001
 31
0.0
  0
ARC
  5
57A
330
1F
100
AcDbEntity
  8
8-4
  6
Continuous
 62
     4
370
     9
100
AcDbCircle
 10
591.3955232168764
 20
809.3337859668761
 30
0.0
 40
12.50000064437454
100
AcDbArc
 50
90.0
 51
180.0
  0
ARC
  5
57B
330
1F
100
AcDbEntity
  8
8-4
  6
Continuous
 62
     4
370
     9
100
AcDbCircle
 10
676.3958036486754
 20
834.333373567172
 30
0.0
 40
12.50000064437454
100
AcDbArc
 50
270.0
 51
0.0
  0
LINE
  5
57C
330
1F
100
AcDbEntity
  8
8-0
  6
Continuous
 62
     3
370
     9
100
AcDbLine
 10
563.8958036486757
 20
911.8337529749001
 30
0.0
 11
573.1047715276871
 21
836.8337529749001
 31
0.0
  0
LINE
  5
57D
330
1F
100
AcDbEntity
  8
8-4
  6
Continuous
 62
     3
370
     9
100
AcDbLine
 10
813.8956386887936
 20
911.8337529749001
 30
0.0
 11
563.8958036486757
 21
911.8337529749001
 31
0.0
  0
LINE
  5
57E
330
1F
100
AcDbEntity
  8
8-4
  6
Continuous
 62
     3
370
     9
100
AcDbLine
 10
704.6868357696643
 20
836.8337529749001
 30
0.0
 11
688.8954737289118
 21
836.8337529749001
 31
0.0
  0
LINE
  5
57F
330
1F
100
AcDbEntity
  8
8-0
  6
Continuous
 62
     3
370
     9
100
AcDbLine
 10
713.8958036486757
 20
911.8337529749001
 30
0.0
 11
704.6868357696643
 21
836.8337529749001
 31
0.0
  0
LINE
  5
580
330
1F
100
AcDbEntity
  8
8-4
  6
Continuous
 62
     4
370
     9
100
AcDbLine
 10
578.895605696817
 20
724.3335055350772
 30
0.0
 11
578.895605696817
 21
809.3337859668761
 31
0.0
  0
LINE
  5
581
330
1F
100
AcDbEntity
  8
8-4
  6
Continuous
 62
     4
370
     9
100
AcDbLine
 10
566.3959356165806
 20
711.8338354548407
 30
0.0
 11
563.8958036486754
 21
711.8338354548407
 31
0.0
  0
LINE
  5
582
330
1F
100
AcDbEntity
  8
8-4
  6
Continuous
 62
     4
370
     9
100
AcDbLine
 10
563.8958036486754
 20
836.8337529749001
 30
0.0
 11
563.8958036486754
 21
711.8338354548407
 31
0.0
  0
ARC
  5
583
330
1F
100
AcDbEntity
  8
8-4
  6
Continuous
 62
     4
370
     9
100
AcDbCircle
 10
566.3959356165806
 20
724.3335055350772
 30
0.0
 40
12.50000064437454
100
AcDbArc
 50
270.0
 51
0.0
  0
LINE
  5
584
330
1F
100
AcDbEntity
  8
8-4
  6
Continuous
 62
     3
370
     9
100
AcDbLine
 10
813.8956386887936
 20
811.833670494959
 30
0.0
 11
813.8956386887936
 21
936.8338354548414
 31
0.0
  0
LINE
  5
585
330
1F
100
AcDbEntity
  8
8-4
  6
Continuous
 62
     3
370
     9
100
AcDbLine
 10
813.8956386887936
 20
886.8337529749001
 30
0.0
 11
710.8261476890052
 21
886.8337529749001
 31
0.0
  0
TEXT
  5
586
330
1F
100
AcDbEntity
  8
8-5
  6
Continuous
 62
     2
370
     9
100
AcDbText
 10
553.4080927068514
 20
-855.4212534498832
 30
0.0
 40
30.48
  1
納まり詳細図　Ｓ＝１：４
 41
1.114583333333333
  7
ＭＳ ゴシック
100
AcDbText
  0
LINE
  5
587
330
1F
100
AcDbEntity
  8
8-5
  6
Continuous
 62
     7
370
     9
100
AcDbLine
 10
538.4080927068514
 20
-806.0612534498832
 30
0.0
 11
1103.408092706851
 21
-806.0612534498832
 31
0.0
  0
LINE
  5
588
330
1F
100
AcDbEntity
  8
8-5
  6
Continuous
 62
     7
370
     9
100
AcDbLine
 10
538.4080927068514
 20
-876.0612534498832
 30
0.0
 11
1103.408092706851
 21
-876.0612534498832
 31
0.0
  0
LINE
  5
589
330
1F
100
AcDbEntity
  8
8-5
  6
Continuous
 62
     7
370
     9
100
AcDbLine
 10
538.4080927068514
 20
-806.0612534498832
 30
0.0
 11
538.4080927068514
 21
-876.0612534498832
 31
0.0
  0
LINE
  5
58A
330
1F
100
AcDbEntity
  8
8-5
  6
Continuous
 62
     7
370
     9
100
AcDbLine
 10
1103.408092706851
 20
-806.0612534498832
 30
0.0
 11
1103.408092706851
 21
-876.0612534498832
 31
0.0
  0
TEXT
  5
58B
330
1F
100
AcDbEntity
  8
8-E
  6
Continuous
 62
     3
370
     9
100
AcDbText
 10
813.4437545054891
 20
1026.436427983195
 30
0.0
 40
22.86
  1
本体：ＲＧＣ－１－１２００×４００
 41
1.031372549019608
  7
ＭＳ ゴシック
100
AcDbText
  0
LWPOLYLINE
  5
58C
330
1F
100
AcDbEntity
  8
8-4
  6
Continuous
 62
     7
370
     9
100
AcDbPolyline
 90
        4
 70
     1
 43
1.0
 10
296.9612825941379
 20
-165.855016824697
 42
0.4142135623731
 10
296.4612825941379
 20
-165.355016824697
 42
0.4142135623731
 10
295.9612825941379
 20
-165.855016824697
 42
0.4142135623731
 10
296.4612825941379
 20
-166.355016824697
 42
0.4142135623731
  0
LWPOLYLINE
  5
58D
330
1F
100
AcDbEntity
  8
8-4
  6
Continuous
 62
     7
370
     9
100
AcDbPolyline
 90
        4
 70
     1
 43
1.0
 10
296.9612825941379
 20
-115.8547841134359
 42
0.4142135623731
 10
296.4612825941379
 20
-115.3547841134359
 42
0.4142135623731
 10
295.9612825941379
 20
-115.8547841134359
 42
0.4142135623731
 10
296.4612825941379
 20
-116.3547841134359
 42
0.4142135623731
  0
LWPOLYLINE
  5
58E
330
1F
100
AcDbEntity
  8
8-4
  6
Continuous
 62
     7
370
     9
100
AcDbPolyline
 90
        4
 70
     1
 43
1.0
 10
296.9612825941379
 20
-90.8536804416066
 42
0.4142135623731
 10
296.4612825941379
 20
-90.3536804416066
 42
0.4142135623731
 10
295.9612825941379
 20
-90.8536804416066
 42
0.4142135623731
 10
296.4612825941379
 20
-91.3536804416066
 42
0.4142135623731
  0
LINE
  5
58F
330
1F
100
AcDbEntity
  8
8-4
  6
Continuous
 62
     7
370
     9
100
AcDbLine
 10
236.1192390884122
 20
-165.855016824697
 30
0.0
 11
236.1192390884122
 21
-90.8536804416066
 31
0.0
  0
LWPOLYLINE
  5
590
330
1F
100
AcDbEntity
  8
8-4
  6
Continuous
 62
     7
370
     9
100
AcDbPolyline
 90
        4
 70
     1
 43
1.0
 10
236.6192390884122
 20
-165.855016824697
 42
0.4142135623731
 10
236.1192390884122
 20
-165.355016824697
 42
0.4142135623731
 10
235.6192390884122
 20
-165.855016824697
 42
0.4142135623731
 10
236.1192390884122
 20
-166.355016824697
 42
0.4142135623731
  0
LWPOLYLINE
  5
591
330
1F
100
AcDbEntity
  8
8-4
  6
Continuous
 62
     7
370
     9
100
AcDbPolyline
 90
        4
 70
     1
 43
1.0
 10
236.6192390884122
 20
-90.8536804416066
 42
0.4142135623731
 10
236.1192390884122
 20
-90.3536804416066
 42
0.4142135623731
 10
235.6192390884122
 20
-90.8536804416066
 42
0.4142135623731
 10
236.1192390884122
 20
-91.3536804416066
 42
0.4142135623731
  0
TEXT
  5
592
330
1F
100
AcDbEntity
  8
8-4
  6
Continuous
 62
     2
370
   211
100
AcDbText
 10
224.4792390884123
 20
-149.6043486331519
 30
0.0
 40
30.48
  1
30
 50
90.0
 41
1.0625
  7
ＭＳ ゴシック
100
AcDbText
  0
TEXT
  5
593
330
1F
100
AcDbEntity
  8
8-4
  6
Continuous
 62
     2
370
   211
100
AcDbText
 10
284.8212825941379
 20
-77.88549400638459
 30
0.0
 40
30.48
  1
10
 50
90.0
 41
1.0625
  7
ＭＳ ゴシック
100
AcDbText
  0
LINE
  5
594
330
1F
100
AcDbEntity
  8
8-4
  6
Continuous
 62
     7
370
     9
100
AcDbLine
 10
296.4612825941379
 20
-115.8547841134359
 30
0.0
 11
296.4612825941379
 21
-30.74327251753644
 31
0.0
  0
TEXT
  5
595
330
1F
100
AcDbEntity
  8
8-4
  6
Continuous
 62
     2
370
   211
100
AcDbText
 10
284.8212825941379
 20
-216.539086620644
 30
0.0
 40
30.48
  1
20
 50
90.0
 41
1.0625
  7
ＭＳ ゴシック
100
AcDbText
  0
LINE
  5
596
330
1F
100
AcDbEntity
  8
8-4
  6
Continuous
 62
     7
370
     9
100
AcDbLine
 10
296.4612825941379
 20
-225.9675309184136
 30
0.0
 11
296.4612825941379
 21
-115.8547841134359
 31
0.0
  0
LINE
  5
597
330
1F
100
AcDbEntity
  8
8-4
  6
Continuous
 62
     7
370
     9
100
AcDbLine
 10
472.6840497592895
 20
-41.26480937855526
 30
0.0
 11
510.1841763899267
 21
-41.26480937855526
 31
0.0
  0
LWPOLYLINE
  5
598
330
1F
100
AcDbEntity
  8
8-4
  6
Continuous
 62
     7
370
     9
100
AcDbPolyline
 90
        4
 70
     1
 43
1.0
 10
473.1840497592895
 20
-41.26480937855526
 42
0.4142135623731
 10
472.6840497592895
 20
-40.76480937855526
 42
0.4142135623731
 10
472.1840497592895
 20
-41.26480937855526
 42
0.4142135623731
 10
472.6840497592895
 20
-41.76480937855526
 42
0.4142135623731
  0
LWPOLYLINE
  5
599
330
1F
100
AcDbEntity
  8
8-4
  6
Continuous
 62
     7
370
     9
100
AcDbPolyline
 90
        4
 70
     1
 43
1.0
 10
510.6841763899267
 20
-41.26480937855526
 42
0.4142135623731
 10
510.1841763899267
 20
-40.76480937855526
 42
0.4142135623731
 10
509.6841763899267
 20
-41.26480937855526
 42
0.4142135623731
 10
510.1841763899267
 20
-41.76480937855526
 42
0.4142135623731
  0
TEXT
  5
59A
330
1F
100
AcDbEntity
  8
8-4
  6
Continuous
 62
     2
370
   211
100
AcDbText
 10
470.1841130746081
 20
-29.62480937855524
 30
0.0
 40
30.48
  1
15
 41
1.0625
  7
ＭＳ ゴシック
100
AcDbText
  0
ENDSEC
  0
SECTION
  2
OBJECTS
  0
DICTIONARY
  5
C
330
0
100
AcDbDictionary
281
     1
  3
ACAD_GROUP
350
D
  3
ACAD_LAYOUT
350
1A
  3
ACAD_MLEADERSTYLE
350
59C
  3
ACAD_MLINESTYLE
350
17
  3
ACAD_PLOTSETTINGS
350
19
  3
ACAD_PLOTSTYLENAME
350
E
  3
ACAD_TABLESTYLE
350
59B
  3
ACAD_VISUALSTYLE
350
2A
  0
DICTIONARY
  5
D
102
{ACAD_REACTORS
330
C
102
}
330
C
100
AcDbDictionary
281
     1
  0
DICTIONARY
  5
1A
102
{ACAD_REACTORS
330
C
102
}
330
C
100
AcDbDictionary
281
     1
  3
Layout1
350
1E
  3
Layout2
350
26
  3
Model
350
22
  0
DICTIONARY
  5
59C
102
{ACAD_REACTORS
330
C
102
}
330
C
100
AcDbDictionary
281
     1
  0
DICTIONARY
  5
17
102
{ACAD_REACTORS
330
C
102
}
330
C
100
AcDbDictionary
281
     1
  3
Standard
350
18
  0
DICTIONARY
  5
19
102
{ACAD_REACTORS
330
C
102
}
330
C
100
AcDbDictionary
281
     1
  0
ACDBDICTIONARYWDFLT
  5
E
102
{ACAD_REACTORS
330
C
102
}
330
C
100
AcDbDictionary
281
     1
  3
Normal
350
F
100
AcDbDictionaryWithDefault
340
F
  0
DICTIONARY
  5
59B
102
{ACAD_REACTORS
330
C
102
}
330
C
100
AcDbDictionary
281
     1
  0
DICTIONARY
  5
2A
102
{ACAD_REACTORS
330
C
102
}
330
C
100
AcDbDictionary
281
     1
  3
2dWireframe
350
2F
  3
3D Hidden
350
31
  3
3dWireframe
350
30
  3
Basic
350
32
  3
Brighten
350
36
  3
ColorChange
350
3A
  3
Conceptual
350
34
  3
Dim
350
35
  3
Facepattern
350
39
  3
Flat
350
2B
  3
FlatWithEdges
350
2C
  3
Gouraud
350
2D
  3
GouraudWithEdges
350
2E
  3
Linepattern
350
38
  3
Realistic
350
33
  3
Thicken
350
37
  0
LAYOUT
  5
1E
102
{ACAD_REACTORS
330
1A
102
}
330
1A
100
AcDbPlotSettings
  1

  2
none_device
  4

  6

 40
0.0
 41
0.0
 42
0.0
 43
0.0
 44
0.0
 45
0.0
 46
0.0
 47
0.0
 48
0.0
 49
0.0
140
0.0
141
0.0
142
1.0
143
1.0
 70
   688
 72
     0
 73
     0
 74
     5
  7

 75
    16
 76
     0
 77
     5
 78
   300
147
1.0
148
0.0
149
0.0
100
AcDbLayout
  1
Layout1
 70
     1
 71
     1
 10
0.0
 20
0.0
 11
420.0
 21
297.0
 12
0.0
 22
0.0
 32
0.0
 14
1.000000000000000E+20
 24
1.000000000000000E+20
 34
1.000000000000000E+20
 15
-1.000000000000000E+20
 25
-1.000000000000000E+20
 35
-1.000000000000000E+20
146
0.0
 13
0.0
 23
0.0
 33
0.0
 16
1.0
 26
0.0
 36
0.0
 17
0.0
 27
1.0
 37
0.0
 76
     0
330
1B
  0
LAYOUT
  5
26
102
{ACAD_REACTORS
330
1A
102
}
330
1A
100
AcDbPlotSettings
  1

  2
none_device
  4

  6

 40
0.0
 41
0.0
 42
0.0
 43
0.0
 44
0.0
 45
0.0
 46
0.0
 47
0.0
 48
0.0
 49
0.0
140
0.0
141
0.0
142
1.0
143
1.0
 70
   688
 72
     0
 73
     0
 74
     5
  7

 75
    16
 76
     0
 77
     5
 78
   300
147
1.0
148
0.0
149
0.0
100
AcDbLayout
  1
Layout2
 70
     1
 71
     2
 10
0.0
 20
0.0
 11
0.0
 21
0.0
 12
0.0
 22
0.0
 32
0.0
 14
0.0
 24
0.0
 34
0.0
 15
0.0
 25
0.0
 35
0.0
146
0.0
 13
0.0
 23
0.0
 33
0.0
 16
1.0
 26
0.0
 36
0.0
 17
0.0
 27
1.0
 37
0.0
 76
     0
330
23
  0
LAYOUT
  5
22
102
{ACAD_REACTORS
330
1A
102
}
330
1A
100
AcDbPlotSettings
  1

  2
none_device
  4

  6

 40
0.0
 41
0.0
 42
0.0
 43
0.0
 44
0.0
 45
0.0
 46
0.0
 47
0.0
 48
0.0
 49
0.0
140
0.0
141
0.0
142
1.0
143
1.0
 70
  1712
 72
     0
 73
     0
 74
     0
  7

 75
     0
 76
     0
 77
     5
 78
   300
147
1.0
148
0.0
149
0.0
100
AcDbLayout
  1
Model
 70
     1
 71
     0
 10
-2100.0
 20
-1485.0
 11
2100.0
 21
1485.0
 12
0.0
 22
0.0
 32
0.0
 14
-2100.0
 24
-1485.0
 34
0.0
 15
2100.0
 25
1485.0
 35
0.0
146
0.0
 13
0.0
 23
0.0
 33
0.0
 16
1.0
 26
0.0
 36
0.0
 17
0.0
 27
1.0
 37
0.0
 76
     0
330
1F
331
29
  0
MLINESTYLE
  5
18
102
{ACAD_REACTORS
330
17
102
}
330
17
100
AcDbMlineStyle
  2
Standard
 70
     0
  3

 62
   256
 51
90.0
 52
90.0
 71
     2
 49
0.5
 62
   256
  6
BYLAYER
 49
-0.5
 62
   256
  6
BYLAYER
  0
ACDBPLACEHOLDER
  5
F
102
{ACAD_REACTORS
330
E
102
}
330
E
  0
VISUALSTYLE
  5
2F
102
{ACAD_REACTORS
330
2A
102
}
330
2A
100
AcDbVisualStyle
  2
2dWireframe
 70
     4
 71
     0
 72
     2
 73
     0
 90
        0
 40
-0.6
 41
-30.0
 62
     5
 63
     7
421
 16777215
 74
     1
 91
        4
 64
     7
 65
   257
 75
     1
175
     1
 42
1.0
 92
        0
 66
   257
 43
1.0
 76
     1
 77
     6
 78
     2
 67
     7
 79
     5
170
     0
171
     0
290
     0
174
     0
 93
        1
 44
0.0
173
     0
291
     0
 45
0.0
1001
ACAD
1000
AcDbSavedByObjectVersion
1070
     0
  0
VISUALSTYLE
  5
31
102
{ACAD_REACTORS
330
2A
102
}
330
2A
100
AcDbVisualStyle
  2
3D Hidden
 70
     6
 71
     1
 72
     2
 73
     2
 90
        0
 40
-0.6
 41
-30.0
 62
     5
 63
     7
421
 16777215
 74
     2
 91
        2
 64
     7
 65
   257
 75
     2
175
     1
 42
40.0
 92
        0
 66
   257
 43
1.0
 76
     1
 77
     6
 78
     2
 67
     7
 79
     3
170
     0
171
     0
290
     0
174
     0
 93
        1
 44
0.0
173
     0
291
     0
 45
0.0
1001
ACAD
1000
AcDbSavedByObjectVersion
1070
     0
  0
VISUALSTYLE
  5
30
102
{ACAD_REACTORS
330
2A
102
}
330
2A
100
AcDbVisualStyle
  2
3dWireframe
 70
     5
 71
     0
 72
     2
 73
     0
 90
        0
 40
-0.6
 41
-30.0
 62
     5
 63
     7
421
 16777215
 74
     1
 91
        4
 64
     7
 65
   257
 75
     1
175
     1
 42
1.0
 92
        0
 66
   257
 43
1.0
 76
     1
 77
     6
 78
     2
 67
     7
 79
     5
170
     0
171
     0
290
     0
174
     0
 93
        1
 44
0.0
173
     0
291
     0
 45
0.0
1001
ACAD
1000
AcDbSavedByObjectVersion
1070
     0
  0
VISUALSTYLE
  5
32
102
{ACAD_REACTORS
330
2A
102
}
330
2A
100
AcDbVisualStyle
  2
Basic
 70
     7
 71
     1
 72
     0
 73
     1
 90
        0
 40
-0.6
 41
-30.0
 62
     5
 63
     7
421
 16777215
 74
     0
 91
        4
 64
     7
 65
   257
 75
     1
175
     1
 42
1.0
 92
        8
 66
     7
 43
1.0
 76
     1
 77
     6
 78
     2
 67
     7
 79
     5
170
     0
171
     0
290
     0
174
     0
 93
        1
 44
0.0
173
     0
291
     1
 45
0.0
1001
ACAD
1000
AcDbSavedByObjectVersion
1070
     0
  0
VISUALSTYLE
  5
36
102
{ACAD_REACTORS
330
2A
102
}
330
2A
100
AcDbVisualStyle
  2
Brighten
 70
    12
 71
     2
 72
     2
 73
     0
 90
        0
 40
-0.6
 41
-30.0
 62
     5
 63
     7
421
 16777215
 74
     1
 91
        4
 64
     7
 65
   257
 75
     1
175
     1
 42
1.0
 92
        8
 66
     7
 43
1.0
 76
     1
 77
     6
 78
     2
 67
     7
 79
     5
170
     0
171
     0
290
     0
174
     0
 93
        1
 44
50.0
173
     0
291
     1
 45
0.0
1001
ACAD
1000
AcDbSavedByObjectVersion
1070
     0
  0
VISUALSTYLE
  5
3A
102
{ACAD_REACTORS
330
2A
102
}
330
2A
100
AcDbVisualStyle
  2
ColorChange
 70
    16
 71
     2
 72
     2
 73
     3
 90
        0
 40
-0.6
 41
-30.0
 62
     5
 63
     8
421
  8421504
 74
     1
 91
        4
 64
     7
 65
   257
 75
     1
175
     1
 42
1.0
 92
        8
 66
     8
424
  8421504
 43
1.0
 76
     1
 77
     6
 78
     2
 67
     7
 79
     5
170
     0
171
     0
290
     0
174
     0
 93
        1
 44
0.0
173
     0
291
     1
 45
0.0
1001
ACAD
1000
AcDbSavedByObjectVersion
1070
     0
  0
VISUALSTYLE
  5
34
102
{ACAD_REACTORS
330
2A
102
}
330
2A
100
AcDbVisualStyle
  2
Conceptual
 70
     9
 71
     3
 72
     2
 73
     0
 90
        0
 40
-0.6
 41
-30.0
 62
     5
 63
     7
421
 16777215
 74
     2
 91
        2
 64
     7
 65
   257
 75
     1
175
     1
 42
40.0
 92
        8
 66
     7
 43
1.0
 76
     1
 77
     6
 78
     2
 67
     7
 79
     3
170
     0
171
     0
290
     0
174
     0
 93
        1
 44
0.0
173
     0
291
     0
 45
0.0
1001
ACAD
1000
AcDbSavedByObjectVersion
1070
     0
  0
VISUALSTYLE
  5
35
102
{ACAD_REACTORS
330
2A
102
}
330
2A
100
AcDbVisualStyle
  2
Dim
 70
    11
 71
     2
 72
     2
 73
     0
 90
        0
 40
-0.6
 41
-30.0
 62
     5
 63
     7
421
 16777215
 74
     1
 91
        4
 64
     7
 65
   257
 75
     1
175
     1
 42
1.0
 92
        8
 66
     7
 43
1.0
 76
     1
 77
     6
 78
     2
 67
     7
 79
     5
170
     0
171
     0
290
     0
174
     0
 93
        1
 44
-50.0
173
     0
291
     1
 45
0.0
1001
ACAD
1000
AcDbSavedByObjectVersion
1070
     0
  0
VISUALSTYLE
  5
39
102
{ACAD_REACTORS
330
2A
102
}
330
2A
100
AcDbVisualStyle
  2
Facepattern
 70
    15
 71
     2
 72
     2
 73
     0
 90
        0
 40
-0.6
 41
-30.0
 62
     5
 63
     7
421
 16777215
 74
     1
 91
        4
 64
     7
 65
   257
 75
     1
175
     1
 42
1.0
 92
        8
 66
     7
 43
1.0
 76
     1
 77
     6
 78
     2
 67
     7
 79
     5
170
     0
171
     0
290
     0
174
     0
 93
        1
 44
0.0
173
     0
291
     1
 45
0.0
1001
ACAD
1000
AcDbSavedByObjectVersion
1070
     0
  0
VISUALSTYLE
  5
2B
102
{ACAD_REACTORS
330
2A
102
}
330
2A
100
AcDbVisualStyle
  2
Flat
 70
     0
 71
     2
 72
     1
 73
     1
 90
        2
 40
-0.6
 41
30.0
 62
     5
 63
     7
421
 16777215
 74
     0
 91
        4
 64
     7
 65
   257
 75
     1
175
     1
 42
1.0
 92
        8
 66
     7
 43
1.0
 76
     1
 77
     6
 78
     2
 67
     7
 79
     5
170
     0
171
     0
290
     0
174
     0
 93
       13
 44
0.0
173
     0
291
     1
 45
0.0
1001
ACAD
1000
AcDbSavedByObjectVersion
1070
     0
  0
VISUALSTYLE
  5
2C
102
{ACAD_REACTORS
330
2A
102
}
330
2A
100
AcDbVisualStyle
  2
FlatWithEdges
 70
     1
 71
     2
 72
     1
 73
     1
 90
        2
 40
-0.6
 41
30.0
 62
     5
 63
     7
421
 16777215
 74
     1
 91
        4
 64
     7
 65
   257
 75
     1
175
     1
 42
1.0
 92
        0
 66
   257
 43
1.0
 76
     1
 77
     6
 78
     2
 67
     7
 79
     5
170
     0
171
     0
290
     0
174
     0
 93
       13
 44
0.0
173
     0
291
     1
 45
0.0
1001
ACAD
1000
AcDbSavedByObjectVersion
1070
     0
  0
VISUALSTYLE
  5
2D
102
{ACAD_REACTORS
330
2A
102
}
330
2A
100
AcDbVisualStyle
  2
Gouraud
 70
     2
 71
     2
 72
     2
 73
     1
 90
        2
 40
-0.6
 41
30.0
 62
     5
 63
     7
421
 16777215
 74
     0
 91
        4
 64
     7
 65
   257
 75
     1
175
     1
 42
1.0
 92
        0
 66
     7
 43
1.0
 76
     1
 77
     6
 78
     2
 67
     7
 79
     5
170
     0
171
     0
290
     0
174
     0
 93
       13
 44
0.0
173
     0
291
     1
 45
0.0
1001
ACAD
1000
AcDbSavedByObjectVersion
1070
     0
  0
VISUALSTYLE
  5
2E
102
{ACAD_REACTORS
330
2A
102
}
330
2A
100
AcDbVisualStyle
  2
GouraudWithEdges
 70
     3
 71
     2
 72
     2
 73
     1
 90
        2
 40
-0.6
 41
30.0
 62
     5
 63
     7
421
 16777215
 74
     1
 91
        4
 64
     7
 65
   257
 75
     1
175
     1
 42
1.0
 92
        0
 66
   257
 43
1.0
 76
     1
 77
     6
 78
     2
 67
     7
 79
     5
170
     0
171
     0
290
     0
174
     0
 93
       13
 44
0.0
173
     0
291
     1
 45
0.0
1001
ACAD
1000
AcDbSavedByObjectVersion
1070
     0
  0
VISUALSTYLE
  5
38
102
{ACAD_REACTORS
330
2A
102
}
330
2A
100
AcDbVisualStyle
  2
Linepattern
 70
    14
 71
     2
 72
     2
 73
     0
 90
        0
 40
-0.6
 41
-30.0
 62
     5
 63
     7
421
 16777215
 74
     1
 91
        4
 64
     7
 65
   257
 75
     7
175
     7
 42
1.0
 92
        8
 66
     7
 43
1.0
 76
     1
 77
     6
 78
     2
 67
     7
 79
     5
170
     0
171
     0
290
     0
174
     0
 93
        1
 44
0.0
173
     0
291
     1
 45
0.0
1001
ACAD
1000
AcDbSavedByObjectVersion
1070
     0
  0
VISUALSTYLE
  5
33
102
{ACAD_REACTORS
330
2A
102
}
330
2A
100
AcDbVisualStyle
  2
Realistic
 70
     8
 71
     2
 72
     2
 73
     0
 90
        0
 40
-0.6
 41
-30.0
 62
     5
 63
     7
421
 16777215
 74
     1
 91
        0
 64
     7
 65
   257
 75
     1
175
     1
 42
1.0
 92
        8
 66
     8
424
  7895160
 43
1.0
 76
     1
 77
     6
 78
     2
 67
     7
 79
     5
170
     0
171
     0
290
     0
174
     0
 93
       13
 44
0.0
173
     0
291
     0
 45
0.0
1001
ACAD
1000
AcDbSavedByObjectVersion
1070
     0
  0
VISUALSTYLE
  5
37
102
{ACAD_REACTORS
330
2A
102
}
330
2A
100
AcDbVisualStyle
  2
Thicken
 70
    13
 71
     2
 72
     2
 73
     0
 90
        0
 40
-0.6
 41
-30.0
 62
     5
 63
     7
421
 16777215
 74
     1
 91
        4
 64
     7
 65
   257
 75
     1
175
     1
 42
1.0
 92
       12
 66
     7
 43
1.0
 76
     1
 77
     6
 78
     2
 67
     7
 79
     5
170
     0
171
     0
290
     0
174
     0
 93
        1
 44
0.0
173
     0
291
     1
 45
0.0
1001
ACAD
1000
AcDbSavedByObjectVersion
1070
     0
  0
ENDSEC
  0
EOF
