  0
SECTION
  2
HEADER
  9
$ACADVER
  1
AC1018
  9
$ACADMAINTVER
 70
     0
  9
$DWGCODEPAGE
  3
ANSI_932
  9
$INSBASE
 10
0.0
 20
0.0
 30
0.0
  9
$EXTMIN
 10
-2100.0
 20
-1485.0
 30
0.0
  9
$EXTMAX
 10
2100.0
 20
1485.0
 30
0.0
  9
$LIMMIN
 10
-2100.0
 20
-1485.0
  9
$LIMMAX
 10
2100.0
 20
1485.0
  9
$ORTHOMODE
 70
     0
  9
$REGENMODE
 70
     1
  9
$FILLMODE
 70
     1
  9
$QTEXTMODE
 70
     0
  9
$MIRRTEXT
 70
     1
  9
$LTSCALE
 40
10.0
  9
$ATTMODE
 70
     1
  9
$TEXTSIZE
 40
2.5
  9
$TRACEWID
 40
1.0
  9
$TEXTSTYLE
  7
Standard
  9
$CLAYER
  8
0
  9
$CELTYPE
  6
ByLayer
  9
$CECOLOR
 62
   256
  9
$CELTSCALE
 40
1.0
  9
$DISPSILH
 70
     0
  9
$DIMSCALE
 40
1.0
  9
$DIMASZ
 40
2.5
  9
$DIMEXO
 40
0.625
  9
$DIMDLI
 40
3.75
  9
$DIMRND
 40
0.0
  9
$DIMDLE
 40
0.0
  9
$DIMEXE
 40
1.25
  9
$DIMTP
 40
0.0
  9
$DIMTM
 40
0.0
  9
$DIMTXT
 40
2.5
  9
$DIMCEN
 40
2.5
  9
$DIMTSZ
 40
0.0
  9
$DIMTOL
 70
     0
  9
$DIMLIM
 70
     0
  9
$DIMTIH
 70
     0
  9
$DIMTOH
 70
     0
  9
$DIMSE1
 70
     0
  9
$DIMSE2
 70
     0
  9
$DIMTAD
 70
     1
  9
$DIMZIN
 70
     8
  9
$DIMBLK
  1

  9
$DIMASO
 70
     1
  9
$DIMSHO
 70
     1
  9
$DIMPOST
  1

  9
$DIMAPOST
  1

  9
$DIMALT
 70
     0
  9
$DIMALTD
 70
     3
  9
$DIMALTF
 40
0.03937007874016
  9
$DIMLFAC
 40
1.0
  9
$DIMTOFL
 70
     1
  9
$DIMTVP
 40
0.0
  9
$DIMTIX
 70
     0
  9
$DIMSOXD
 70
     0
  9
$DIMSAH
 70
     0
  9
$DIMBLK1
  1

  9
$DIMBLK2
  1

  9
$DIMSTYLE
  2
ISO-25
  9
$DIMCLRD
 70
     0
  9
$DIMCLRE
 70
     0
  9
$DIMCLRT
 70
     0
  9
$DIMTFAC
 40
1.0
  9
$DIMGAP
 40
0.625
  9
$DIMJUST
 70
     0
  9
$DIMSD1
 70
     0
  9
$DIMSD2
 70
     0
  9
$DIMTOLJ
 70
     0
  9
$DIMTZIN
 70
     8
  9
$DIMALTZ
 70
     0
  9
$DIMALTTZ
 70
     0
  9
$DIMUPT
 70
     0
  9
$DIMDEC
 70
     2
  9
$DIMTDEC
 70
     2
  9
$DIMALTU
 70
     2
  9
$DIMALTTD
 70
     3
  9
$DIMTXSTY
  7
Standard
  9
$DIMAUNIT
 70
     0
  9
$DIMADEC
 70
     0
  9
$DIMALTRND
 40
0.0
  9
$DIMAZIN
 70
     0
  9
$DIMDSEP
 70
    44
  9
$DIMATFIT
 70
     3
  9
$DIMFRAC
 70
     0
  9
$DIMLDRBLK
  1

  9
$DIMLUNIT
 70
     2
  9
$DIMLWD
 70
    -2
  9
$DIMLWE
 70
    -2
  9
$DIMTMOVE
 70
     0
  9
$LUNITS
 70
     2
  9
$LUPREC
 70
     4
  9
$SKETCHINC
 40
1.0
  9
$FILLETRAD
 40
10.0
  9
$AUNITS
 70
     0
  9
$AUPREC
 70
     0
  9
$MENU
  1
.
  9
$ELEVATION
 40
0.0
  9
$PELEVATION
 40
0.0
  9
$THICKNESS
 40
0.0
  9
$LIMCHECK
 70
     0
  9
$CHAMFERA
 40
10.0
  9
$CHAMFERB
 40
10.0
  9
$CHAMFERC
 40
20.0
  9
$CHAMFERD
 40
0.0
  9
$SKPOLY
 70
     0
  9
$TDCREATE
 40
2458177.55835662
  9
$TDUCREATE
 40
2458177.18335662
  9
$TDUPDATE
 40
2458177.558356632
  9
$TDUUPDATE
 40
2458177.183356632
  9
$TDINDWG
 40
0.0000000116
  9
$TDUSRTIMER
 40
0.0000000116
  9
$USRTIMER
 70
     1
  9
$ANGBASE
 50
0.0
  9
$ANGDIR
 70
     0
  9
$PDMODE
 70
     0
  9
$PDSIZE
 40
0.0
  9
$PLINEWID
 40
0.0
  9
$SPLFRAME
 70
     0
  9
$SPLINETYPE
 70
     6
  9
$SPLINESEGS
 70
     8
  9
$HANDSEED
  5
5E4
  9
$SURFTAB1
 70
     6
  9
$SURFTAB2
 70
     6
  9
$SURFTYPE
 70
     6
  9
$SURFU
 70
     6
  9
$SURFV
 70
     6
  9
$UCSBASE
  2

  9
$UCSNAME
  2

  9
$UCSORG
 10
0.0
 20
0.0
 30
0.0
  9
$UCSXDIR
 10
1.0
 20
0.0
 30
0.0
  9
$UCSYDIR
 10
0.0
 20
1.0
 30
0.0
  9
$UCSORTHOREF
  2

  9
$UCSORTHOVIEW
 70
     0
  9
$UCSORGTOP
 10
0.0
 20
0.0
 30
0.0
  9
$UCSORGBOTTOM
 10
0.0
 20
0.0
 30
0.0
  9
$UCSORGLEFT
 10
0.0
 20
0.0
 30
0.0
  9
$UCSORGRIGHT
 10
0.0
 20
0.0
 30
0.0
  9
$UCSORGFRONT
 10
0.0
 20
0.0
 30
0.0
  9
$UCSORGBACK
 10
0.0
 20
0.0
 30
0.0
  9
$PUCSBASE
  2

  9
$PUCSNAME
  2

  9
$PUCSORG
 10
0.0
 20
0.0
 30
0.0
  9
$PUCSXDIR
 10
1.0
 20
0.0
 30
0.0
  9
$PUCSYDIR
 10
0.0
 20
1.0
 30
0.0
  9
$PUCSORTHOREF
  2

  9
$PUCSORTHOVIEW
 70
     0
  9
$PUCSORGTOP
 10
0.0
 20
0.0
 30
0.0
  9
$PUCSORGBOTTOM
 10
0.0
 20
0.0
 30
0.0
  9
$PUCSORGLEFT
 10
0.0
 20
0.0
 30
0.0
  9
$PUCSORGRIGHT
 10
0.0
 20
0.0
 30
0.0
  9
$PUCSORGFRONT
 10
0.0
 20
0.0
 30
0.0
  9
$PUCSORGBACK
 10
0.0
 20
0.0
 30
0.0
  9
$USERI1
 70
     0
  9
$USERI2
 70
     0
  9
$USERI3
 70
     0
  9
$USERI4
 70
     0
  9
$USERI5
 70
     0
  9
$USERR1
 40
0.0
  9
$USERR2
 40
0.0
  9
$USERR3
 40
0.0
  9
$USERR4
 40
0.0
  9
$USERR5
 40
0.0
  9
$WORLDVIEW
 70
     1
  9
$SHADEDGE
 70
     3
  9
$SHADEDIF
 70
    70
  9
$TILEMODE
 70
     1
  9
$MAXACTVP
 70
    64
  9
$PINSBASE
 10
0.0
 20
0.0
 30
0.0
  9
$PLIMCHECK
 70
     0
  9
$PEXTMIN
 10
1.000000000000000E+20
 20
1.000000000000000E+20
 30
1.000000000000000E+20
  9
$PEXTMAX
 10
-1.000000000000000E+20
 20
-1.000000000000000E+20
 30
-1.000000000000000E+20
  9
$PLIMMIN
 10
0.0
 20
0.0
  9
$PLIMMAX
 10
420.0
 20
297.0
  9
$UNITMODE
 70
     0
  9
$VISRETAIN
 70
     1
  9
$PLINEGEN
 70
     0
  9
$PSLTSCALE
 70
     1
  9
$TREEDEPTH
 70
  3020
  9
$CMLSTYLE
  2
Standard
  9
$CMLJUST
 70
     0
  9
$CMLSCALE
 40
20.0
  9
$PROXYGRAPHICS
 70
     1
  9
$MEASUREMENT
 70
     1
  9
$CELWEIGHT
370
    -1
  9
$ENDCAPS
280
     0
  9
$JOINSTYLE
280
     0
  9
$LWDISPLAY
290
     0
  9
$INSUNITS
 70
     4
  9
$HYPERLINKBASE
  1

  9
$STYLESHEET
  1

  9
$XEDIT
290
     1
  9
$CEPSNTYPE
380
     0
  9
$PSTYLEMODE
290
     1
  9
$FINGERPRINTGUID
  2
{55554CF0-3302-417C-BDCF-E961FC694FE0}
  9
$VERSIONGUID
  2
{FAEB1C32-E019-11D5-929B-00C0DF256EC4}
  9
$EXTNAMES
290
     1
  9
$PSVPSCALE
 40
0.0
  9
$OLESTARTUP
290
     0
  9
$SORTENTS
280
   127
  9
$INDEXCTL
280
     0
  9
$HIDETEXT
280
     1
  9
$XCLIPFRAME
290
     0
  9
$HALOGAP
280
     0
  9
$OBSCOLOR
 70
   257
  9
$OBSLTYPE
280
     0
  9
$INTERSECTIONDISPLAY
280
     0
  9
$INTERSECTIONCOLOR
 70
   257
  9
$DIMASSOC
280
     2
  9
$PROJECTNAME
  1

  0
ENDSEC
  0
SECTION
  2
CLASSES
  0
CLASS
  1
ACDBDICTIONARYWDFLT
  2
AcDbDictionaryWithDefault
  3
ObjectDBX Classes
 90
        0
 91
        4
280
     0
281
     0
  0
CLASS
  1
VISUALSTYLE
  2
AcDbVisualStyle
  3
ObjectDBX Classes
 90
     4095
 91
        4
280
     0
281
     0
  0
ENDSEC
  0
SECTION
  2
TABLES
  0
TABLE
  2
VPORT
  5
8
330
0
100
AcDbSymbolTable
 70
     1
  0
VPORT
  5
29
330
8
100
AcDbSymbolTableRecord
100
AcDbViewportTableRecord
  2
*Active
 70
     0
 10
0.0
 20
0.0
 11
1.0
 21
1.0
 12
0.0
 22
0.0
 13
0.0
 23
0.0
 14
10.0
 24
10.0
 15
10.0
 25
10.0
 16
0.0
 26
0.0
 36
1.0
 17
0.0
 27
0.0
 37
0.0
 40
3267.0
 41
1.414141414141414
 42
50.0
 43
0.0
 44
0.0
 50
0.0
 51
0.0
 71
     0
 72
 10000
 73
     1
 74
     3
 75
     0
 76
     0
 77
     0
 78
     0
281
     0
 65
     1
110
0.0
120
0.0
130
0.0
111
1.0
121
0.0
131
0.0
112
0.0
122
1.0
132
0.0
 79
     0
146
0.0
  0
ENDTAB
  0
TABLE
  2
LTYPE
  5
5
330
0
100
AcDbSymbolTable
 70
     3
  0
LTYPE
  5
14
330
5
100
AcDbSymbolTableRecord
100
AcDbLinetypeTableRecord
  2
ByBlock
 70
     0
  3

 72
    65
 73
     0
 40
0.0
  0
LTYPE
  5
15
330
5
100
AcDbSymbolTableRecord
100
AcDbLinetypeTableRecord
  2
ByLayer
 70
     0
  3

 72
    65
 73
     0
 40
0.0
  0
LTYPE
  5
16
330
5
100
AcDbSymbolTableRecord
100
AcDbLinetypeTableRecord
  2
Continuous
 70
     0
  3
Solid line
 72
    65
 73
     0
 40
0.0
  0
LTYPE
  5
3C
330
5
100
AcDbSymbolTableRecord
100
AcDbLinetypeTableRecord
  2
JWW_DASHED3
 70
     0
  3
---  ------  ------  ------  ---
 72
    65
 73
     2
 40
3.386666666666667
 49
2.54
 74
     0
 49
-0.8466666666666667
 74
     0
  0
LTYPE
  5
3D
330
5
100
AcDbSymbolTableRecord
100
AcDbLinetypeTableRecord
  2
JWW_CENTER1
 70
     0
  3
-----  --  ----------  --  -----
 72
    65
 73
     4
 40
6.773333333333333
 49
4.233333333333333
 74
     0
 49
-0.8466666666666667
 74
     0
 49
0.8466666666666667
 74
     0
 49
-0.8466666666666667
 74
     0
  0
ENDTAB
  0
TABLE
  2
LAYER
  5
2
330
0
100
AcDbSymbolTable
 70
    12
  0
LAYER
  5
10
330
2
100
AcDbSymbolTableRecord
100
AcDbLayerTableRecord
  2
0
 70
     0
 62
     7
  6
Continuous
370
    -3
390
F
  0
LAYER
  5
3E
330
2
100
AcDbSymbolTableRecord
100
AcDbLayerTableRecord
  2
躯体
 70
     0
 62
     7
  6
Continuous
370
    -3
390
F
  0
LAYER
  5
3F
330
2
100
AcDbSymbolTableRecord
100
AcDbLayerTableRecord
  2
通り芯
 70
     0
 62
     7
  6
Continuous
370
    -3
390
F
  0
LAYER
  5
40
330
2
100
AcDbSymbolTableRecord
100
AcDbLayerTableRecord
  2
建具
 70
     0
 62
     7
  6
Continuous
370
    -3
390
F
  0
LAYER
  5
41
330
2
100
AcDbSymbolTableRecord
100
AcDbLayerTableRecord
  2
その他
 70
     0
 62
     7
  6
Continuous
370
    -3
390
F
  0
LAYER
  5
42
330
2
100
AcDbSymbolTableRecord
100
AcDbLayerTableRecord
  2
1-4ﾚｲﾔ
 70
     0
 62
     7
  6
Continuous
370
    -3
390
F
  0
LAYER
  5
43
330
2
100
AcDbSymbolTableRecord
100
AcDbLayerTableRecord
  2
F-5ﾚｲﾔ
 70
     0
 62
     7
  6
Continuous
370
    -3
390
F
  0
LAYER
  5
44
330
2
100
AcDbSymbolTableRecord
100
AcDbLayerTableRecord
  2
1-5ﾚｲﾔ
 70
     0
 62
     7
  6
Continuous
370
    -3
390
F
  0
LAYER
  5
45
330
2
100
AcDbSymbolTableRecord
100
AcDbLayerTableRecord
  2
1-3ﾚｲﾔ
 70
     0
 62
     7
  6
Continuous
370
    -3
390
F
  0
LAYER
  5
46
330
2
100
AcDbSymbolTableRecord
100
AcDbLayerTableRecord
  2
1-1ﾚｲﾔ
 70
     0
 62
     7
  6
Continuous
370
    -3
390
F
  0
LAYER
  5
47
330
2
100
AcDbSymbolTableRecord
100
AcDbLayerTableRecord
  2
1-0ﾚｲﾔ
 70
     0
 62
     7
  6
Continuous
370
    -3
390
F
  0
LAYER
  5
48
330
2
100
AcDbSymbolTableRecord
100
AcDbLayerTableRecord
  2
1-E
 70
     0
 62
     7
  6
Continuous
370
    -3
390
F
  0
ENDTAB
  0
TABLE
  2
STYLE
  5
3
330
0
100
AcDbSymbolTable
 70
     2
  0
STYLE
  5
11
330
3
100
AcDbSymbolTableRecord
100
AcDbTextStyleTableRecord
  2
Standard
 70
     0
 40
0.0
 41
1.0
 50
0.0
 71
     0
 42
2.5
  3
txt
  4

1001
ACAD
1000

1071
        0
  0
STYLE
  5
3B
330
3
100
AcDbSymbolTableRecord
100
AcDbTextStyleTableRecord
  2
ＭＳ ゴシック
 70
     0
 40
1.0
 41
1.0
 50
0.0
 71
     0
 42
10.0
  3

  4

1001
ACAD
1000
MS Gothic
1071
    32817
  0
ENDTAB
  0
TABLE
  2
VIEW
  5
6
330
0
100
AcDbSymbolTable
 70
     0
  0
ENDTAB
  0
TABLE
  2
UCS
  5
7
330
0
100
AcDbSymbolTable
 70
     0
  0
ENDTAB
  0
TABLE
  2
APPID
  5
9
330
0
100
AcDbSymbolTable
 70
     1
  0
APPID
  5
12
330
9
100
AcDbSymbolTableRecord
100
AcDbRegAppTableRecord
  2
ACAD
 70
     0
  0
ENDTAB
  0
TABLE
  2
DIMSTYLE
  5
A
330
0
100
AcDbSymbolTable
 70
     1
100
AcDbDimStyleTable
  0
DIMSTYLE
105
27
330
A
100
AcDbSymbolTableRecord
100
AcDbDimStyleTableRecord
  2
ISO-25
 70
     0
 41
2.5
 42
0.625
 43
3.75
 44
1.25
 73
     0
 74
     0
 77
     1
 78
     8
140
2.5
141
2.5
143
0.03937007874016
147
0.625
171
     3
172
     1
271
     2
272
     2
274
     3
278
    44
283
     0
284
     8
340
11
  0
ENDTAB
  0
TABLE
  2
BLOCK_RECORD
  5
1
330
0
100
AcDbSymbolTable
 70
     1
  0
BLOCK_RECORD
  5
1F
330
1
100
AcDbSymbolTableRecord
100
AcDbBlockTableRecord
  2
*Model_Space
340
22
  0
BLOCK_RECORD
  5
1B
330
1
100
AcDbSymbolTableRecord
100
AcDbBlockTableRecord
  2
*Paper_Space
340
1E
  0
BLOCK_RECORD
  5
23
330
1
100
AcDbSymbolTableRecord
100
AcDbBlockTableRecord
  2
*Paper_Space0
340
26
  0
ENDTAB
  0
ENDSEC
  0
SECTION
  2
BLOCKS
  0
BLOCK
  5
20
330
1F
100
AcDbEntity
  8
0
100
AcDbBlockBegin
  2
*Model_Space
 70
     0
 10
0.0
 20
0.0
 30
0.0
  3
*Model_Space
  1

  0
ENDBLK
  5
21
330
1F
100
AcDbEntity
  8
0
100
AcDbBlockEnd
  0
BLOCK
  5
1C
330
1B
100
AcDbEntity
 67
     1
  8
0
100
AcDbBlockBegin
  2
*Paper_Space
 70
     0
 10
0.0
 20
0.0
 30
0.0
  3
*Paper_Space
  1

  0
ENDBLK
  5
1D
330
1B
100
AcDbEntity
 67
     1
  8
0
100
AcDbBlockEnd
  0
BLOCK
  5
24
330
23
100
AcDbEntity
  8
0
100
AcDbBlockBegin
  2
*Paper_Space0
 70
     0
 10
0.0
 20
0.0
 30
0.0
  3
*Paper_Space0
  1

  0
ENDBLK
  5
25
330
23
100
AcDbEntity
  8
0
100
AcDbBlockEnd
  0
ENDSEC
  0
SECTION
  2
ENTITIES
  0
ARC
  5
49
330
1F
100
AcDbEntity
  8
躯体
  6
JWW_DASHED3
 62
     2
370
     9
100
AcDbCircle
 10
-736.1209964412812
 20
463.3451957295374
 30
0.0
 40
574.9999511011779
100
AcDbArc
 50
90.49822998046875
 51
149.5017700195312
  0
LINE
  5
4A
330
1F
100
AcDbEntity
  8
通り芯
  6
Continuous
 62
     3
370
     9
100
AcDbLine
 10
-771.1219025423468
 20
682.334472394595
 30
0.0
 11
-761.1213605313053
 21
682.334472394595
 31
0.0
  0
LINE
  5
4B
330
1F
100
AcDbEntity
  8
通り芯
  6
Continuous
 62
     3
370
     9
100
AcDbLine
 10
-771.1219025423468
 20
694.3347264328132
 30
0.0
 11
-761.1213605313053
 21
694.3347264328132
 31
0.0
  0
LINE
  5
4C
330
1F
100
AcDbEntity
  8
通り芯
  6
JWW_CENTER1
 62
     3
370
     9
100
AcDbLine
 10
-743.9246298476376
 20
688.3355903512795
 30
0.0
 11
-789.2164226693369
 21
688.3355903512795
 31
0.0
  0
LINE
  5
4D
330
1F
100
AcDbEntity
  8
通り芯
  6
JWW_CENTER1
 62
     3
370
     9
100
AcDbLine
 10
-766.1216315368272
 20
706.4717298564374
 30
0.0
 11
-766.1216315368272
 21
670.544297122364
 31
0.0
  0
LINE
  5
4E
330
1F
100
AcDbEntity
  8
通り芯
  6
Continuous
 62
     3
370
     9
100
AcDbLine
 10
-771.1219025423468
 20
698.3351414247442
 30
0.0
 11
-761.1213605313053
 21
698.3351414247442
 31
0.0
  0
LINE
  5
4F
330
1F
100
AcDbEntity
  8
通り芯
  6
Continuous
 62
     3
370
     9
100
AcDbLine
 10
-771.1219025423468
 20
678.3350483402392
 30
0.0
 11
-761.1213605313053
 21
678.3350483402392
 31
0.0
  0
LINE
  5
50
330
1F
100
AcDbEntity
  8
通り芯
  6
Continuous
 62
     3
370
     9
100
AcDbLine
 10
-955.1112640439139
 20
498.3451108930267
 30
0.0
 11
-955.1112640439139
 21
488.3445688819863
 31
0.0
  0
LINE
  5
51
330
1F
100
AcDbEntity
  8
通り芯
  6
Continuous
 62
     3
370
     9
100
AcDbLine
 10
-967.1115180821328
 20
498.3451108930267
 30
0.0
 11
-967.1115180821328
 21
488.3445688819863
 31
0.0
  0
LINE
  5
52
330
1F
100
AcDbEntity
  8
通り芯
  6
JWW_CENTER1
 62
     3
370
     9
100
AcDbLine
 10
-961.1113910630245
 20
471.1478381983175
 30
0.0
 11
-961.1113910630245
 21
516.4396310200174
 31
0.0
  0
LINE
  5
53
330
1F
100
AcDbEntity
  8
通り芯
  6
JWW_CENTER1
 62
     3
370
     9
100
AcDbLine
 10
-979.2475305681812
 20
493.3448398875065
 30
0.0
 11
-943.321088771683
 21
493.3448398875065
 31
0.0
  0
LINE
  5
54
330
1F
100
AcDbEntity
  8
通り芯
  6
Continuous
 62
     3
370
     9
100
AcDbLine
 10
-971.1119330740637
 20
498.3451108930267
 30
0.0
 11
-971.1119330740637
 21
488.3445688819863
 31
0.0
  0
LINE
  5
55
330
1F
100
AcDbEntity
  8
通り芯
  6
Continuous
 62
     3
370
     9
100
AcDbLine
 10
-951.110849051983
 20
498.3451108930267
 30
0.0
 11
-951.110849051983
 21
488.3445688819863
 31
0.0
  0
LINE
  5
56
330
1F
100
AcDbEntity
  8
通り芯
  6
Continuous
 62
     3
370
     9
100
AcDbLine
 10
-1286.892028354891
 20
603.1595510568927
 30
0.0
 11
-1219.887802318378
 21
585.2057440656101
 31
0.0
  0
LINE
  5
57
330
1F
100
AcDbEntity
  8
通り芯
  6
Continuous
 62
     3
370
     9
100
AcDbLine
 10
-1291.929954988277
 20
581.5491844123464
 30
0.0
 11
-1223.892181060611
 21
568.0159499449688
 31
0.0
  0
LINE
  5
58
330
1F
100
AcDbEntity
  8
通り芯
  6
Continuous
 62
     3
370
     9
100
AcDbLine
 10
-1276.568440694268
 20
638.8828506504318
 30
0.0
 11
-1210.881170695474
 21
616.584773328551
 31
0.0
  0
LINE
  5
59
330
1F
100
AcDbEntity
  8
通り芯
  6
Continuous
 62
     3
370
     9
100
AcDbLine
 10
-1283.009534934435
 20
617.6480493469659
 30
0.0
 11
-1216.001345147619
 21
599.6932514181082
 31
0.0
  0
LINE
  5
5A
330
1F
100
AcDbEntity
  8
通り芯
  6
Continuous
 62
     3
370
     9
100
AcDbLine
 10
-1263.93101379506
 20
673.8540286242345
 30
0.0
 11
-1199.842126105404
 21
647.3078019165694
 31
0.0
  0
LINE
  5
5B
330
1F
100
AcDbEntity
  8
通り芯
  6
Continuous
 62
     3
370
     9
100
AcDbLine
 10
-1271.74653845232
 20
653.0859589187866
 30
0.0
 11
-1206.056295640803
 21
630.7878815969058
 31
0.0
  0
LINE
  5
5C
330
1F
100
AcDbEntity
  8
通り芯
  6
Continuous
 62
     3
370
     9
100
AcDbLine
 10
-1249.032267348768
 20
707.9234534044137
 30
0.0
 11
-1186.818233551787
 21
677.2430351321372
 31
0.0
  0
LINE
  5
5D
330
1F
100
AcDbEntity
  8
通り芯
  6
Continuous
 62
     3
370
     9
100
AcDbLine
 10
-1258.189521483134
 20
687.7112996787712
 30
0.0
 11
-1194.098651918327
 21
661.1640820335309
 31
0.0
  0
LINE
  5
5E
330
1F
100
AcDbEntity
  8
通り芯
  6
Continuous
 62
     3
370
     9
100
AcDbLine
 10
-1231.938594172943
 20
740.9464481049592
 30
0.0
 11
-1171.863003663697
 21
706.2616510904506
 31
0.0
  0
LINE
  5
5F
330
1F
100
AcDbEntity
  8
通り芯
  6
Continuous
 62
     3
370
     9
100
AcDbLine
 10
-1242.397940281398
 20
721.3764219281829
 30
0.0
 11
-1180.179942734114
 21
690.6940217807555
 31
0.0
  0
LINE
  5
60
330
1F
100
AcDbEntity
  8
通り芯
  6
Continuous
 62
     3
370
     9
100
AcDbLine
 10
-1212.720350835436
 20
772.7793267774375
 30
0.0
 11
-1155.042829258684
 21
734.2407735321585
 31
0.0
  0
LINE
  5
61
330
1F
100
AcDbEntity
  8
通り芯
  6
Continuous
 62
     3
370
     9
100
AcDbLine
 10
-1224.437196727087
 20
753.935657843437
 30
0.0
 11
-1164.359624342691
 21
719.2508608289278
 31
0.0
  0
LINE
  5
62
330
1F
100
AcDbEntity
  8
通り芯
  6
Continuous
 62
     3
370
     9
100
AcDbLine
 10
-1191.461767030159
 20
803.288312849168
 30
0.0
 11
-1136.428066904602
 21
761.0595080730609
 31
0.0
  0
LINE
  5
63
330
1F
100
AcDbEntity
  8
通り芯
  6
Continuous
 62
     3
370
     9
100
AcDbLine
 10
-1204.386565826236
 20
785.2512671015511
 30
0.0
 11
-1146.706071436758
 21
746.7107319811207
 31
0.0
  0
LINE
  5
64
330
1F
100
AcDbEntity
  8
通り芯
  6
Continuous
 62
     3
370
     9
100
AcDbLine
 10
-1168.254009014053
 20
832.3416116226206
 30
0.0
 11
-1116.099973482637
 21
786.603896891986
 31
0.0
  0
LINE
  5
65
330
1F
100
AcDbEntity
  8
通り芯
  6
Continuous
 62
     3
370
     9
100
AcDbLine
 10
-1182.330277272755
 20
815.1884821922697
 30
0.0
 11
-1127.29360433447
 21
772.9576955410117
 31
0.0
  0
LINE
  5
66
330
1F
100
AcDbEntity
  8
通り芯
  6
Continuous
 62
     3
370
     9
100
AcDbLine
 10
-1143.195179607077
 20
859.8143649632935
 30
0.0
 11
-1094.143769624272
 21
810.7639459180625
 31
0.0
  0
LINE
  5
67
330
1F
100
AcDbEntity
  8
通り芯
  6
Continuous
 62
     3
370
     9
100
AcDbLine
 10
-1158.363461073883
 20
843.618481230789
 30
0.0
 11
-1106.20645272974
 21
797.8787846250036
 31
0.0
  0
LINE
  5
68
330
1F
100
AcDbEntity
  8
通り芯
  6
Continuous
 62
     3
370
     9
100
AcDbLine
 10
-1116.393291004958
 20
885.5896422372892
 30
0.0
 11
-1070.655576274323
 21
833.4356067058734
 31
0.0
  0
LINE
  5
69
330
1F
100
AcDbEntity
  8
通り芯
  6
Continuous
 62
     3
370
     9
100
AcDbLine
 10
-1132.588183799887
 20
870.4203698329097
 30
0.0
 11
-1083.534791941931
 21
821.3669779749522
 31
0.0
  0
LINE
  5
6A
330
1F
100
AcDbEntity
  8
通り芯
  6
Continuous
 62
     3
370
     9
100
AcDbLine
 10
-1087.962301028862
 20
909.5564584361613
 30
0.0
 11
-1045.733496252755
 21
854.5227583106031
 31
0.0
  0
LINE
  5
6B
330
1F
100
AcDbEntity
  8
通り芯
  6
Continuous
 62
     3
370
     9
100
AcDbLine
 10
-1105.114439521639
 20
895.4791992398832
 30
0.0
 11
-1059.374742915854
 21
843.3231818333165
 31
0.0
  0
LINE
  5
6C
330
1F
100
AcDbEntity
  8
通り芯
  6
Continuous
 62
     3
370
     9
100
AcDbLine
 10
-1058.026076875719
 20
931.6127469896422
 30
0.0
 11
-1019.486532692865
 21
873.9352254128896
 31
0.0
  0
LINE
  5
6D
330
1F
100
AcDbEntity
  8
通り芯
  6
Continuous
 62
     3
370
     9
100
AcDbLine
 10
-1076.062131685762
 20
918.6879481935664
 30
0.0
 11
-1033.831345034504
 21
863.6512752552823
 31
0.0
  0
LINE
  5
6E
330
1F
100
AcDbEntity
  8
通り芯
  6
Continuous
 62
     3
370
     9
100
AcDbLine
 10
-1026.710467617606
 20
951.664368828068
 30
0.0
 11
-992.0256706030971
 21
891.588778318823
 31
0.0
  0
LINE
  5
6F
330
1F
100
AcDbEntity
  8
通り芯
  6
Continuous
 62
     3
370
     9
100
AcDbLine
 10
-1045.553145614032
 20
939.9465319988421
 30
0.0
 11
-1007.012610493602
 21
882.2660376093636
 31
0.0
  0
LINE
  5
70
330
1F
100
AcDbEntity
  8
通り芯
  6
Continuous
 62
     3
370
     9
100
AcDbLine
 10
-994.1502407647765
 20
969.624121444803
 30
0.0
 11
-963.4698224924994
 21
907.4090967102471
 31
0.0
  0
LINE
  5
71
330
1F
100
AcDbEntity
  8
通り芯
  6
Continuous
 62
     3
370
     9
100
AcDbLine
 10
-1013.719276003978
 20
959.1637843987728
 30
0.0
 11
-979.0334880518928
 21
899.0862120143764
 31
0.0
  0
LINE
  5
72
330
1F
100
AcDbEntity
  8
通り芯
  6
Continuous
 62
     3
370
     9
100
AcDbLine
 10
-960.4861094529399
 20
985.4166935841163
 30
0.0
 11
-933.9398827452753
 21
921.3287968320349
 31
0.0
  0
LINE
  5
73
330
1F
100
AcDbEntity
  8
通り芯
  6
Continuous
 62
     3
370
     9
100
AcDbLine
 10
-980.6972722410062
 20
976.2584485121748
 30
0.0
 11
-950.0148720935788
 21
914.0404509648924
 31
0.0
  0
LINE
  5
74
330
1F
100
AcDbEntity
  8
通り芯
  6
Continuous
 62
     3
370
     9
100
AcDbLine
 10
-925.8597777553807
 20
998.972719615728
 30
0.0
 11
-903.5626913710751
 21
933.2854496169346
 31
0.0
  0
LINE
  5
75
330
1F
100
AcDbEntity
  8
通り芯
  6
Continuous
 62
     3
370
     9
100
AcDbLine
 10
-946.6278474608287
 20
991.1562040208922
 30
0.0
 11
-920.0796388780116
 21
927.0653344560843
 31
0.0
  0
LINE
  5
76
330
1F
100
AcDbEntity
  8
通り芯
  6
Continuous
 62
     3
370
     9
100
AcDbLine
 10
-890.4218681835589
 20
1010.235716097841
 30
0.0
 11
-872.4680611922774
 21
943.2304991237514
 31
0.0
  0
LINE
  5
77
330
1F
100
AcDbEntity
  8
通り芯
  6
Continuous
 62
     3
370
     9
100
AcDbLine
 10
-911.6556785494497
 20
1003.793630920099
 30
0.0
 11
-889.3576012275678
 21
938.1043790461546
 31
0.0
  0
LINE
  5
78
330
1F
100
AcDbEntity
  8
通り芯
  6
Continuous
 62
     3
370
     9
100
AcDbLine
 10
-854.3239941865152
 20
1019.157127089259
 30
0.0
 11
-840.7907597191381
 21
951.1213350367432
 31
0.0
  0
LINE
  5
79
330
1F
100
AcDbEntity
  8
通り芯
  6
Continuous
 62
     3
370
     9
100
AcDbLine
 10
-875.9333698934863
 20
1014.118209518298
 30
0.0
 11
-857.9785719646286
 21
947.110019731483
 31
0.0
  0
LINE
  5
7A
330
1F
100
AcDbEntity
  8
通り芯
  6
Continuous
 62
     3
370
     9
100
AcDbLine
 10
-1178.830285756405
 20
589.8017125403628
 30
0.0
 11
-1096.666696691267
 21
564.877650643645
 31
0.0
  0
LINE
  5
7B
330
1F
100
AcDbEntity
  8
通り芯
  6
Continuous
 62
     3
370
     9
100
AcDbLine
 10
-1186.169169439894
 20
560.5125706239629
 30
0.0
 11
-1101.956321468805
 21
543.760770911653
 31
0.0
  0
LINE
  5
7C
330
1F
100
AcDbEntity
  8
通り芯
  6
Continuous
 62
     3
370
     9
100
AcDbLine
 10
-1174.478087925203
 20
604.1564342577554
 30
0.0
 11
-1092.312516984913
 21
579.2313814234619
 31
0.0
  0
LINE
  5
7D
330
1F
100
AcDbEntity
  8
通り芯
  6
Continuous
 62
     3
370
     9
100
AcDbLine
 10
-1145.65369573167
 20
673.7400708030622
 30
0.0
 11
-1069.931200906698
 21
633.2652255354315
 31
0.0
  0
LINE
  5
7E
330
1F
100
AcDbEntity
  8
通り芯
  6
Continuous
 62
     3
370
     9
100
AcDbLine
 10
-1158.565612339266
 20
646.4446952883872
 30
0.0
 11
-1079.239077552526
 21
613.5861962253596
 31
0.0
  0
LINE
  5
7F
330
1F
100
AcDbEntity
  8
通り芯
  6
Continuous
 62
     3
370
     9
100
AcDbLine
 10
-1123.060319012317
 20
712.8682319057104
 30
0.0
 11
-1051.669212329463
 21
665.1664789006127
 31
0.0
  0
LINE
  5
80
330
1F
100
AcDbEntity
  8
通り芯
  6
Continuous
 62
     3
370
     9
100
AcDbLine
 10
-1138.585338006271
 20
686.970078372364
 30
0.0
 11
-1062.860861306146
 21
646.4942421671576
 31
0.0
  0
LINE
  5
81
330
1F
100
AcDbEntity
  8
通り芯
  6
Continuous
 62
     3
370
     9
100
AcDbLine
 10
-1096.739035134271
 20
749.593369387989
 30
0.0
 11
-1030.368018208446
 21
695.1235127428395
 31
0.0
  0
LINE
  5
82
330
1F
100
AcDbEntity
  8
通り芯
  6
Continuous
 62
     3
370
     9
100
AcDbLine
 10
-1114.728515878268
 20
725.3411631673991
 30
0.0
 11
-1043.335427320264
 21
677.6384192247262
 31
0.0
  0
LINE
  5
83
330
1F
100
AcDbEntity
  8
通り芯
  6
Continuous
 62
     3
370
     9
100
AcDbLine
 10
-1066.945505991986
 20
783.5617185354765
 30
0.0
 11
-1006.232742621752
 21
722.8479642276669
 31
0.0
  0
LINE
  5
84
330
1F
100
AcDbEntity
  8
通り芯
  6
Continuous
 62
     3
370
     9
100
AcDbLine
 10
-1087.225043472758
 20
761.1893208954398
 30
0.0
 11
-1020.85204467178
 21
706.7184733127145
 31
0.0
  0
LINE
  5
85
330
1F
100
AcDbEntity
  8
通り芯
  6
Continuous
 62
     3
370
     9
100
AcDbLine
 10
-1033.967103482334
 20
814.4462699482874
 30
0.0
 11
-979.4972468371855
 21
748.0742620848854
 31
0.0
  0
LINE
  5
86
330
1F
100
AcDbEntity
  8
通り芯
  6
Continuous
 62
     3
370
     9
100
AcDbLine
 10
-1056.341482997522
 20
794.169705280243
 30
0.0
 11
-995.6267377521378
 21
733.4549600348582
 31
0.0
  0
LINE
  5
87
330
1F
100
AcDbEntity
  8
通り芯
  6
Continuous
 62
     3
370
     9
100
AcDbLine
 10
-998.1189457542944
 20
841.9487514162226
 30
0.0
 11
-950.4171927491955
 21
770.557644733368
 31
0.0
  0
LINE
  5
88
330
1F
100
AcDbEntity
  8
通り芯
  6
Continuous
 62
     3
370
     9
100
AcDbLine
 10
-1022.373133850034
 20
823.963234422527
 30
0.0
 11
-967.9022862673098
 21
757.5902356215498
 31
0.0
  0
LINE
  5
89
330
1F
100
AcDbEntity
  8
通り芯
  6
Continuous
 62
     3
370
     9
100
AcDbLine
 10
-959.7478609592592
 20
865.8065644817997
 30
0.0
 11
-919.273015691628
 21
790.0830787192511
 31
0.0
  0
LINE
  5
8A
330
1F
100
AcDbEntity
  8
通り芯
  6
Continuous
 62
     3
370
     9
100
AcDbLine
 10
-985.6479963677559
 20
850.2845183005734
 30
0.0
 11
-937.945252425083
 21
778.8914297425679
 31
0.0
  0
LINE
  5
8B
330
1F
100
AcDbEntity
  8
通り芯
  6
Continuous
 62
     3
370
     9
100
AcDbLine
 10
-919.2234688128581
 20
885.7868388147959
 30
0.0
 11
-886.3649697498288
 21
806.4612949656315
 31
0.0
  0
LINE
  5
8C
330
1F
100
AcDbEntity
  8
通り芯
  6
Continuous
 62
     3
370
     9
100
AcDbLine
 10
-946.5198352651071
 20
872.8788859575023
 30
0.0
 11
-906.0449899974781
 21
797.1544092573787
 31
0.0
  0
LINE
  5
8D
330
1F
100
AcDbEntity
  8
通り芯
  6
Continuous
 62
     3
370
     9
100
AcDbLine
 10
-876.9352077822252
 20
901.7003053383091
 30
0.0
 11
-852.0111458855074
 21
819.5357253355938
 31
0.0
  0
LINE
  5
8E
330
1F
100
AcDbEntity
  8
通り芯
  6
Continuous
 62
     3
370
     9
100
AcDbLine
 10
-905.3661977583208
 20
891.5293220642984
 30
0.0
 11
-872.5076986952938
 21
812.2017963399832
 31
0.0
  0
LINE
  5
8F
330
1F
100
AcDbEntity
  8
通り芯
  6
Continuous
 62
     3
370
     9
100
AcDbLine
 10
-833.2913441484327
 20
913.3913868529986
 30
0.0
 11
-816.5405353736985
 21
829.1795298194863
 31
0.0
  0
LINE
  5
90
330
1F
100
AcDbEntity
  8
通り芯
  6
Continuous
 62
     3
370
     9
100
AcDbLine
 10
-862.5814770024083
 20
906.0564669198122
 30
0.0
 11
-837.6574151056905
 21
823.8899050419467
 31
0.0
  0
LINE
  5
91
330
1F
100
AcDbEntity
  8
通り芯
  6
Continuous
 62
     3
370
     9
100
AcDbLine
 10
-1164.304131838466
 20
632.5864332962753
 30
0.0
 11
-1084.978587989303
 21
599.7279342332472
 31
0.0
  0
LINE
  5
92
330
1F
100
AcDbEntity
  8
通り芯
  6
Continuous
 62
     3
370
     9
100
AcDbLine
 10
-1066.087354051682
 20
480.3457207732753
 30
0.0
 11
-995.1055045874721
 21
480.3457207732753
 31
0.0
  0
LINE
  5
93
330
1F
100
AcDbEntity
  8
通り芯
  6
Continuous
 62
     3
370
     9
100
AcDbLine
 10
-1062.129549375494
 20
520.5450853949422
 30
0.0
 11
-992.510239077473
 21
506.696732778584
 31
0.0
  0
LINE
  5
94
330
1F
100
AcDbEntity
  8
通り芯
  6
Continuous
 62
     3
370
     9
100
AcDbLine
 10
-1040.260548023766
 20
581.2053290736792
 30
0.0
 11
-955.1707202984396
 21
545.9596613914885
 31
0.0
  0
LINE
  5
95
330
1F
100
AcDbEntity
  8
通り芯
  6
Continuous
 62
     3
370
     9
100
AcDbLine
 10
-1054.486447856354
 20
534.319117693144
 30
0.0
 11
-964.1565422322599
 21
516.3504466382306
 31
0.0
  0
LINE
  5
96
330
1F
100
AcDbEntity
  8
通り芯
  6
Continuous
 62
     3
370
     9
100
AcDbLine
 10
-1011.423273641753
 20
638.2754059167052
 30
0.0
 11
-934.8436178140485
 21
587.1073532728228
 31
0.0
  0
LINE
  5
97
330
1F
100
AcDbEntity
  8
通り芯
  6
Continuous
 62
     3
370
     9
100
AcDbLine
 10
-1034.523019462139
 20
595.0645820033667
 30
0.0
 11
-949.4341826743896
 21
559.8199052587511
 31
0.0
  0
LINE
  5
98
330
1F
100
AcDbEntity
  8
通り芯
  6
Continuous
 62
     3
370
     9
100
AcDbLine
 10
-972.0057587670833
 20
688.6229622481482
 30
0.0
 11
-906.8813413111222
 21
623.4975538546125
 31
0.0
  0
LINE
  5
99
330
1F
100
AcDbEntity
  8
通り芯
  6
Continuous
 62
     3
370
     9
100
AcDbLine
 10
-1003.092461445278
 20
650.7493281159695
 30
0.0
 11
-926.5137965551519
 21
599.5812754720866
 31
0.0
  0
LINE
  5
9A
330
1F
100
AcDbEntity
  8
通り芯
  6
Continuous
 62
     3
370
     9
100
AcDbLine
 10
-923.5241378901371
 20
730.3136879208079
 30
0.0
 11
-872.3550943086791
 21
653.7340320931047
 31
0.0
  0
LINE
  5
9B
330
1F
100
AcDbEntity
  8
通り芯
  6
Continuous
 62
     3
370
     9
100
AcDbLine
 10
-961.4017357726191
 20
699.2319399304903
 30
0.0
 11
-896.277318316658
 21
634.1075224745298
 31
0.0
  0
LINE
  5
9C
330
1F
100
AcDbEntity
  8
通り芯
  6
Continuous
 62
     3
370
     9
100
AcDbLine
 10
-867.8403827151117
 20
761.7442459376695
 30
0.0
 11
-832.5947150329209
 21
676.6534272747684
 31
0.0
  0
LINE
  5
9D
330
1F
100
AcDbEntity
  8
通り芯
  6
Continuous
 62
     3
370
     9
100
AcDbLine
 10
-911.0541794411749
 20
738.6494548051586
 30
0.0
 11
-859.8861267972932
 21
662.0707899150311
 31
0.0
  0
LINE
  5
9E
330
1F
100
AcDbEntity
  8
通り芯
  6
Continuous
 62
     3
370
     9
100
AcDbLine
 10
-807.0949184048884
 20
781.707674331884
 30
0.0
 11
-789.1262473499744
 21
691.3757868326381
 31
0.0
  0
LINE
  5
9F
330
1F
100
AcDbEntity
  8
通り芯
  6
Continuous
 62
     3
370
     9
100
AcDbLine
 10
-853.9831116605744
 20
767.487720124747
 30
0.0
 11
-818.7384349159577
 21
682.3978923994212
 31
0.0
  0
LINE
  5
A0
330
1F
100
AcDbEntity
  8
通り芯
  6
Continuous
 62
     3
370
     9
100
AcDbLine
 10
-753.1215214850197
 20
793.3115533399375
 30
0.0
 11
-753.1215214850197
 21
722.328712938152
 31
0.0
  0
LINE
  5
A1
330
1F
100
AcDbEntity
  8
通り芯
  6
Continuous
 62
     3
370
     9
100
AcDbLine
 10
-793.3218770442606
 20
789.3537486637495
 30
0.0
 11
-779.4735244279029
 21
719.734438365728
 31
0.0
  0
LINE
  5
A2
330
1F
100
AcDbEntity
  8
通り芯
  6
Continuous
 62
     3
370
     9
100
AcDbLine
 10
-1309.582516956636
 20
480.3447298356996
 30
0.0
 11
-1308.790757833883
 21
480.3447298356996
 31
0.0
  0
LINE
  5
A3
330
1F
100
AcDbEntity
  8
通り芯
  6
Continuous
 62
     3
370
     9
100
AcDbLine
 10
-1309.15641379921
 20
493.3874502032494
 30
0.0
 11
-1307.783965257265
 21
493.2972748838869
 31
0.0
  0
LINE
  5
A4
330
1F
100
AcDbEntity
  8
通り芯
  6
Continuous
 62
     3
370
     9
100
AcDbLine
 10
-1302.604334550596
 20
507.99089725207
 30
0.0
 11
-1299.099388346371
 21
507.7609997345745
 31
0.0
  0
LINE
  5
A5
330
1F
100
AcDbEntity
  8
通り芯
  6
Continuous
 62
     3
370
     9
100
AcDbLine
 10
-1300.430217510147
 20
530.0729501825116
 30
0.0
 11
-1291.243235248518
 21
528.8640063405107
 31
0.0
  0
LINE
  5
A6
330
1F
100
AcDbEntity
  8
通り芯
  6
Continuous
 62
     3
370
     9
100
AcDbLine
 10
-1298.47113392356
 20
544.9449413142684
 30
0.0
 11
-1271.139093718595
 21
541.3468469779535
 31
0.0
  0
LINE
  5
A7
330
1F
100
AcDbEntity
  8
通り芯
  6
Continuous
 62
     3
370
     9
100
AcDbLine
 10
-1294.857184586039
 20
566.8377251678065
 30
0.0
 11
-1257.317496416774
 21
559.3710105370905
 31
0.0
  0
LINE
  5
A8
330
1F
100
AcDbEntity
  8
通り芯
  6
Continuous
 62
     3
370
     9
100
AcDbLine
 10
-1122.075327062361
 20
532.4690372398532
 30
0.0
 11
-1104.882560128992
 21
529.0493116671125
 31
0.0
  0
LINE
  5
A9
330
1F
100
AcDbEntity
  8
通り芯
  6
Continuous
 62
     3
370
     9
100
AcDbLine
 10
-1114.142871771202
 20
508.1137735114207
 30
0.0
 11
-1108.076351934539
 21
507.515247215873
 31
0.0
  0
LINE
  5
AA
330
1F
100
AcDbEntity
  8
通り芯
  6
Continuous
 62
     3
370
     9
100
AcDbLine
 10
-1336.117843350971
 20
465.3449077567147
 30
0.0
 11
-1286.096305481837
 21
465.3449077567147
 31
0.0
  0
LINE
  5
AB
330
1F
100
AcDbEntity
  8
通り芯
  6
Continuous
 62
     3
370
     9
100
AcDbLine
 10
-1126.146098622145
 20
465.3449077567147
 30
0.0
 11
-936.1120179105744
 21
465.3449077567147
 31
0.0
  0
LINE
  5
AC
330
1F
100
AcDbEntity
  8
通り芯
  6
Continuous
 62
     3
370
     9
100
AcDbLine
 10
-753.1215214850197
 20
1036.806716244891
 30
0.0
 11
-753.1215214850197
 21
1036.013966184562
 31
0.0
  0
LINE
  5
AD
330
1F
100
AcDbEntity
  8
通り芯
  6
Continuous
 62
     3
370
     9
100
AcDbLine
 10
-766.1642418525678
 20
1036.380613087464
 30
0.0
 11
-766.0740665332075
 21
1035.007173607946
 31
0.0
  0
LINE
  5
AE
330
1F
100
AcDbEntity
  8
通り芯
  6
Continuous
 62
     3
370
     9
100
AcDbLine
 10
-780.766697963815
 20
1029.827542901277
 30
0.0
 11
-780.5368004463178
 21
1026.32259669705
 31
0.0
  0
LINE
  5
AF
330
1F
100
AcDbEntity
  8
通り芯
  6
Continuous
 62
     3
370
     9
100
AcDbLine
 10
-802.84974183183
 20
1027.653425860826
 30
0.0
 11
-801.6398070522557
 21
1018.467434536774
 31
0.0
  0
LINE
  5
B0
330
1F
100
AcDbEntity
  8
通り芯
  6
Continuous
 62
     3
370
     9
100
AcDbLine
 10
-817.7207420260122
 20
1025.69434227424
 30
0.0
 11
-814.1226476896979
 21
998.3632930068505
 31
0.0
  0
LINE
  5
B1
330
1F
100
AcDbEntity
  8
通り芯
  6
Continuous
 62
     3
370
     9
100
AcDbLine
 10
-839.6145168171249
 20
1022.081383874295
 30
0.0
 11
-832.1468112488349
 21
984.5407047674535
 31
0.0
  0
LINE
  5
B2
330
1F
100
AcDbEntity
  8
通り芯
  6
Continuous
 62
     3
370
     9
100
AcDbLine
 10
-805.2458288891733
 20
849.2985354130404
 30
0.0
 11
-801.8261033164315
 21
832.1057684796726
 31
0.0
  0
LINE
  5
B3
330
1F
100
AcDbEntity
  8
通り芯
  6
Continuous
 62
     3
370
     9
100
AcDbLine
 10
-780.8895742231646
 20
841.3660801218815
 30
0.0
 11
-780.2920388651926
 21
835.29956028522
 31
0.0
  0
LINE
  5
B4
330
1F
100
AcDbEntity
  8
通り芯
  6
Continuous
 62
     3
370
     9
100
AcDbLine
 10
-738.1216994060348
 20
853.3702979104008
 30
0.0
 11
-738.1216994060348
 21
663.3352262612549
 31
0.0
  0
LINE
  5
B5
330
1F
100
AcDbEntity
  8
通り芯
  6
Continuous
 62
     3
370
     9
100
AcDbLine
 10
-738.1216994060348
 20
1063.342042639226
 30
0.0
 11
-738.1216994060348
 21
1013.319513832517
 31
0.0
  0
ARC
  5
B6
330
1F
100
AcDbEntity
  8
通り芯
  6
Continuous
 62
     3
370
     9
100
AcDbCircle
 10
-736.1209964412812
 20
463.3451957295374
 30
0.0
 40
600.0000055232103
100
AcDbArc
 50
90.19097900390625
 51
179.8089904785156
  0
ARC
  5
B7
330
1F
100
AcDbEntity
  8
通り芯
  6
Continuous
 62
     3
370
     9
100
AcDbCircle
 10
-761.1213605313053
 20
688.3355903512795
 30
0.0
 40
5.999999764918361
100
AcDbArc
 50
270.0
 51
90.0
  0
ARC
  5
B8
330
1F
100
AcDbEntity
  8
通り芯
  6
Continuous
 62
     3
370
     9
100
AcDbCircle
 10
-771.1219025423468
 20
688.3355903512795
 30
0.0
 40
5.999999764918361
100
AcDbArc
 50
90.0
 51
270.0
  0
ARC
  5
B9
330
1F
100
AcDbEntity
  8
通り芯
  6
Continuous
 62
     3
370
     9
100
AcDbCircle
 10
-761.1213605313053
 20
688.3355903512795
 30
0.0
 40
10.0000000920535
100
AcDbArc
 50
270.0
 51
90.0
  0
ARC
  5
BA
330
1F
100
AcDbEntity
  8
通り芯
  6
Continuous
 62
     3
370
     9
100
AcDbCircle
 10
-771.1219025423468
 20
688.3355903512795
 30
0.0
 40
10.0000000920535
100
AcDbArc
 50
90.0
 51
270.0
  0
ARC
  5
BB
330
1F
100
AcDbEntity
  8
通り芯
  6
Continuous
 62
     3
370
     9
100
AcDbCircle
 10
-961.1113910630245
 20
488.3445688819863
 30
0.0
 40
5.999999764918361
100
AcDbArc
 50
180.0
 51
0.0
  0
ARC
  5
BC
330
1F
100
AcDbEntity
  8
通り芯
  6
Continuous
 62
     3
370
     9
100
AcDbCircle
 10
-961.1113910630245
 20
498.3451108930267
 30
0.0
 40
5.999999764918361
100
AcDbArc
 50
0.0
 51
180.0
  0
ARC
  5
BD
330
1F
100
AcDbEntity
  8
通り芯
  6
Continuous
 62
     3
370
     9
100
AcDbCircle
 10
-961.1113910630245
 20
488.3445688819863
 30
0.0
 40
10.0000000920535
100
AcDbArc
 50
180.0
 51
0.0
  0
ARC
  5
BE
330
1F
100
AcDbEntity
  8
通り芯
  6
Continuous
 62
     3
370
     9
100
AcDbCircle
 10
-961.1113910630245
 20
498.3451108930267
 30
0.0
 40
10.0000000920535
100
AcDbArc
 50
0.0
 51
180.0
  0
ARC
  5
BF
330
1F
100
AcDbEntity
  8
通り芯
  6
Continuous
 62
     3
370
     9
100
AcDbCircle
 10
-736.1209964412812
 20
463.3451957295374
 30
0.0
 40
200.0000018410701
100
AcDbArc
 50
90.57295227050781
 51
179.4269714355469
  0
ARC
  5
C0
330
1F
100
AcDbEntity
  8
通り芯
  6
Continuous
 62
     3
370
     9
100
AcDbCircle
 10
-1108.051578495155
 20
518.5156452405021
 30
0.0
 40
11.00000029480135
100
AcDbArc
 50
269.8728942871094
 51
73.2518768310547
  0
ARC
  5
C1
330
1F
100
AcDbEntity
  8
通り芯
  6
Continuous
 62
     3
370
     9
100
AcDbCircle
 10
-1302.262461087079
 20
519.1052530978708
 30
0.0
 40
11.12000051267359
100
AcDbArc
 50
84.47782897949219
 51
264.2626647949219
  0
ARC
  5
C2
330
1F
100
AcDbEntity
  8
通り芯
  6
Continuous
 62
     3
370
     9
100
AcDbCircle
 10
-1309.109839733164
 20
486.8581625188709
 30
0.0
 40
6.53000040461658
100
AcDbArc
 50
90.41517639160156
 51
265.8419036865234
  0
ARC
  5
C3
330
1F
100
AcDbEntity
  8
通り芯
  6
Continuous
 62
     3
370
     9
100
AcDbCircle
 10
-1297.402903217268
 20
556.0137140316003
 30
0.0
 40
11.12000051267359
100
AcDbArc
 50
80.72782897949217
 51
260.5126647949219
  0
ARC
  5
C4
330
1F
100
AcDbEntity
  8
通り芯
  6
Continuous
 62
     3
370
     9
100
AcDbCircle
 10
-1290.140321727087
 20
592.5248089975905
 30
0.0
 40
11.12000051267359
100
AcDbArc
 50
76.9778289794922
 51
256.7626647949219
  0
ARC
  5
C5
330
1F
100
AcDbEntity
  8
通り芯
  6
Continuous
 62
     3
370
     9
100
AcDbCircle
 10
-1221.915260597668
 20
576.6172880995298
 30
0.0
 40
8.825000700573204
100
AcDbArc
 50
260.4319458007812
 51
73.28517150878906
  0
ARC
  5
C6
330
1F
100
AcDbEntity
  8
通り芯
  6
Continuous
 62
     3
370
     9
100
AcDbCircle
 10
-1280.505435681373
 20
628.4829607965013
 30
0.0
 40
11.12000051267359
100
AcDbArc
 50
73.22782897949219
 51
253.0126647949219
  0
ARC
  5
C7
330
1F
100
AcDbEntity
  8
通り芯
  6
Continuous
 62
     3
370
     9
100
AcDbCircle
 10
-1213.46652682972
 20
608.1469398739329
 30
0.0
 40
8.825000700573204
100
AcDbArc
 50
256.6819458007812
 51
69.53517150878905
  0
ARC
  5
C8
330
1F
100
AcDbEntity
  8
通り芯
  6
Continuous
 62
     3
370
     9
100
AcDbCircle
 10
-1268.538873520719
 20
663.7335831665694
 30
0.0
 40
11.12000051267359
100
AcDbArc
 50
69.47782897949222
 51
249.2626647949219
  0
ARC
  5
C9
330
1F
100
AcDbEntity
  8
通り芯
  6
Continuous
 62
     3
370
     9
100
AcDbCircle
 10
-1202.974479781275
 20
639.0572556637038
 30
0.0
 40
8.825000700573204
100
AcDbArc
 50
252.9319458007812
 51
65.78517150878908
  0
ARC
  5
CA
330
1F
100
AcDbEntity
  8
通り芯
  6
Continuous
 62
     3
370
     9
100
AcDbCircle
 10
-1254.293154936621
 20
698.1260535963326
 30
0.0
 40
11.12000051267359
100
AcDbArc
 50
65.72782897949219
 51
245.5126647949219
  0
ARC
  5
CB
330
1F
100
AcDbEntity
  8
通り芯
  6
Continuous
 62
     3
370
     9
100
AcDbCircle
 10
-1190.482720705653
 20
669.2144588961638
 30
0.0
 40
8.825000700573204
100
AcDbArc
 50
249.1819458007812
 51
62.03517150878906
  0
ARC
  5
CC
330
1F
100
AcDbEntity
  8
通り芯
  6
Continuous
 62
     3
370
     9
100
AcDbCircle
 10
-1237.827736183605
 20
731.5137133246297
 30
0.0
 40
11.12000051267359
100
AcDbArc
 50
61.97782897949222
 51
241.762664794922
  0
ARC
  5
CD
330
1F
100
AcDbEntity
  8
通り芯
  6
Continuous
 62
     3
370
     9
100
AcDbCircle
 10
-1176.044760231927
 20
698.4907186240837
 30
0.0
 40
8.825000700573204
100
AcDbArc
 50
245.4319458007812
 51
58.28517150878908
  0
ARC
  5
CE
330
1F
100
AcDbEntity
  8
通り芯
  6
Continuous
 62
     3
370
     9
100
AcDbCircle
 10
-1219.214955704673
 20
763.7528764030258
 30
0.0
 40
11.12000051267359
100
AcDbArc
 50
58.22782897949219
 51
238.0126647949219
  0
ARC
  5
CF
330
1F
100
AcDbEntity
  8
通り芯
  6
Continuous
 62
     3
370
     9
100
AcDbCircle
 10
-1159.724018364922
 20
726.759194837811
 30
0.0
 40
8.825000700573204
100
AcDbArc
 50
241.6819458007812
 51
54.53517150878906
  0
ARC
  5
D0
330
1F
100
AcDbEntity
  8
通り芯
  6
Continuous
 62
     3
370
     9
100
AcDbCircle
 10
-1198.532106630711
 20
794.7058025085402
 30
0.0
 40
11.12000051267359
100
AcDbArc
 50
54.47782897949217
 51
234.2626647949219
  0
ARC
  5
D1
330
1F
100
AcDbEntity
  8
通り芯
  6
Continuous
 62
     3
370
     9
100
AcDbCircle
 10
-1141.588869797339
 20
753.9009750282974
 30
0.0
 40
8.825000700573204
100
AcDbArc
 50
237.9319458007812
 51
50.78517150878904
  0
ARC
  5
D2
330
1F
100
AcDbEntity
  8
通り芯
  6
Continuous
 62
     3
370
     9
100
AcDbCircle
 10
-1175.870355218655
 20
824.2397060060664
 30
0.0
 40
11.12000051267359
100
AcDbArc
 50
50.72782897949221
 51
230.5126647949219
  0
ARC
  5
D3
330
1F
100
AcDbEntity
  8
通り芯
  6
Continuous
 62
     3
370
     9
100
AcDbCircle
 10
-1121.717598597638
 20
779.797146686493
 30
0.0
 40
8.825000700573204
100
AcDbArc
 50
234.1819458007812
 51
47.03517150878907
  0
ARC
  5
D4
330
1F
100
AcDbEntity
  8
通り芯
  6
Continuous
 62
     3
370
     9
100
AcDbCircle
 10
-1151.32582241332
 20
852.2277468859533
 30
0.0
 40
11.12000051267359
100
AcDbArc
 50
46.97782897949224
 51
226.762664794922
  0
ARC
  5
D5
330
1F
100
AcDbEntity
  8
通り芯
  6
Continuous
 62
     3
370
     9
100
AcDbCircle
 10
-1100.194434459726
 20
804.339697616678
 30
0.0
 40
8.825000700573204
100
AcDbArc
 50
230.4319458007813
 51
43.28517150878911
  0
ARC
  5
D6
330
1F
100
AcDbEntity
  8
通り芯
  6
Continuous
 62
     3
370
     9
100
AcDbCircle
 10
-1125.002556660121
 20
878.5510126391505
 30
0.0
 40
11.12000051267359
100
AcDbArc
 50
43.22782897949222
 51
223.0126647949219
  0
ARC
  5
D7
330
1F
100
AcDbEntity
  8
通り芯
  6
Continuous
 62
     3
370
     9
100
AcDbCircle
 10
-1077.113516453273
 20
827.4206156231331
 30
0.0
 40
8.825000700573204
100
AcDbArc
 50
226.6819458007812
 51
39.53517150878908
  0
ARC
  5
D8
330
1F
100
AcDbEntity
  8
通り芯
  6
Continuous
 62
     3
370
     9
100
AcDbCircle
 10
-1097.013524842659
 20
903.096536382062
 30
0.0
 40
11.12000051267359
100
AcDbArc
 50
39.47782897949224
 51
219.262664794922
  0
ARC
  5
D9
330
1F
100
AcDbEntity
  8
通り芯
  6
Continuous
 62
     3
370
     9
100
AcDbCircle
 10
-1052.570965523086
 20
848.9437797610434
 30
0.0
 40
8.825000700573204
100
AcDbArc
 50
222.9319458007813
 51
35.78517150878911
  0
ARC
  5
DA
330
1F
100
AcDbEntity
  8
通り芯
  6
Continuous
 62
     3
370
     9
100
AcDbCircle
 10
-1067.479621345134
 20
925.7582877941182
 30
0.0
 40
11.12000051267359
100
AcDbArc
 50
35.72782897949217
 51
215.5126647949219
  0
ARC
  5
DB
330
1F
100
AcDbEntity
  8
通り芯
  6
Continuous
 62
     3
370
     9
100
AcDbCircle
 10
-1026.673802927316
 20
868.8150509607447
 30
0.0
 40
8.825000700573204
100
AcDbArc
 50
219.1819458007812
 51
32.03517150878904
  0
ARC
  5
DC
330
1F
100
AcDbEntity
  8
通り芯
  6
Continuous
 62
     3
370
     9
100
AcDbCircle
 10
-1036.526695239619
 20
946.441136868081
 30
0.0
 40
11.12000051267359
100
AcDbArc
 50
31.9778289794922
 51
211.7626647949219
  0
ARC
  5
DD
330
1F
100
AcDbEntity
  8
通り芯
  6
Continuous
 62
     3
370
     9
100
AcDbCircle
 10
-999.5330136744035
 20
886.9501995283274
 30
0.0
 40
8.825000700573204
100
AcDbArc
 50
215.4319458007812
 51
28.28517150878907
  0
ARC
  5
DE
330
1F
100
AcDbEntity
  8
通り芯
  6
Continuous
 62
     3
370
     9
100
AcDbCircle
 10
-1004.287532161224
 20
965.053917347011
 30
0.0
 40
11.12000051267359
100
AcDbArc
 50
28.22782897949218
 51
208.0126647949219
  0
ARC
  5
DF
330
1F
100
AcDbEntity
  8
通り芯
  6
Continuous
 62
     3
370
     9
100
AcDbCircle
 10
-971.2645374606761
 20
903.270941395334
 30
0.0
 40
8.825000700573204
100
AcDbArc
 50
211.6819458007812
 51
24.53517150878905
  0
ARC
  5
E0
330
1F
100
AcDbEntity
  8
通り芯
  6
Continuous
 62
     3
370
     9
100
AcDbCircle
 10
-970.8998724329256
 20
981.5193361000279
 30
0.0
 40
11.12000051267359
100
AcDbArc
 50
24.47782897949221
 51
204.2626647949219
  0
ARC
  5
E1
330
1F
100
AcDbEntity
  8
通り芯
  6
Continuous
 62
     3
370
     9
100
AcDbCircle
 10
-941.9882777327568
 20
917.708901869061
 30
0.0
 40
8.825000700573204
100
AcDbArc
 50
207.9319458007812
 51
20.78517150878908
  0
ARC
  5
E2
330
1F
100
AcDbEntity
  8
通り芯
  6
Continuous
 62
     3
370
     9
100
AcDbCircle
 10
-936.5074020031641
 20
995.765054684125
 30
0.0
 40
11.12000051267359
100
AcDbArc
 50
20.72782897949219
 51
200.5126647949219
  0
ARC
  5
E3
330
1F
100
AcDbEntity
  8
通り芯
  6
Continuous
 62
     3
370
     9
100
AcDbCircle
 10
-911.8300835627217
 20
930.2006609446828
 30
0.0
 40
8.825000700573204
100
AcDbArc
 50
204.1819458007812
 51
17.03517150878906
  0
ARC
  5
E4
330
1F
100
AcDbEntity
  8
通り芯
  6
Continuous
 62
     3
370
     9
100
AcDbCircle
 10
-901.2567796330943
 20
1007.731616844779
 30
0.0
 40
11.12000051267359
100
AcDbArc
 50
16.97782897949222
 51
196.7626647949219
  0
ARC
  5
E5
330
1F
100
AcDbEntity
  8
通り芯
  6
Continuous
 62
     3
370
     9
100
AcDbCircle
 10
-880.9207587105259
 20
940.6927079931261
 30
0.0
 40
8.825000700573204
100
AcDbArc
 50
200.4319458007812
 51
13.28517150878909
  0
ARC
  5
E6
330
1F
100
AcDbEntity
  8
通り芯
  6
Continuous
 62
     3
370
     9
100
AcDbCircle
 10
-865.298627834183
 20
1017.366502890493
 30
0.0
 40
11.12000051267359
100
AcDbArc
 50
13.2278289794922
 51
193.0126647949219
  0
ARC
  5
E7
330
1F
100
AcDbEntity
  8
通り芯
  6
Continuous
 62
     3
370
     9
100
AcDbCircle
 10
-849.3911069361222
 20
949.1414417610735
 30
0.0
 40
8.825000700573204
100
AcDbArc
 50
196.6819458007813
 51
9.535171508789064
  0
ARC
  5
E8
330
1F
100
AcDbEntity
  8
通り芯
  6
Continuous
 62
     3
370
     9
100
AcDbCircle
 10
-1182.239111015817
 20
575.091244233398
 30
0.0
 40
15.10000064221128
100
AcDbArc
 50
76.95429992675784
 51
254.9129028320313
  0
ARC
  5
E9
330
1F
100
AcDbEntity
  8
通り芯
  6
Continuous
 62
     3
370
     9
100
AcDbCircle
 10
-1100.853407947374
 20
554.7056764320591
 30
0.0
 40
11.00000029480135
100
AcDbArc
 50
264.2478942871094
 51
67.62687683105472
  0
ARC
  5
EA
330
1F
100
AcDbEntity
  8
通り芯
  6
Continuous
 62
     3
370
     9
100
AcDbCircle
 10
-1169.137925331319
 20
618.2802675200775
 30
0.0
 40
15.10000064221128
100
AcDbArc
 50
71.32929992675781
 51
249.2879028320312
  0
ARC
  5
EB
330
1F
100
AcDbEntity
  8
通り芯
  6
Continuous
 62
     3
370
     9
100
AcDbCircle
 10
-1090.142363694765
 20
590.0157550566518
 30
0.0
 40
11.00000029480135
100
AcDbArc
 50
258.6228942871094
 51
62.00187683105469
  0
ARC
  5
EC
330
1F
100
AcDbEntity
  8
通り芯
  6
Continuous
 62
     3
370
     9
100
AcDbCircle
 10
-1151.866874329493
 20
659.9779297557648
 30
0.0
 40
15.10000064221128
100
AcDbArc
 50
65.70429992675783
 51
243.6629028320312
  0
ARC
  5
ED
330
1F
100
AcDbEntity
  8
通り芯
  6
Continuous
 62
     3
370
     9
100
AcDbCircle
 10
-1076.022494182745
 20
624.1059895259143
 30
0.0
 40
11.00000029480135
100
AcDbArc
 50
252.9978942871094
 51
56.37687683105471
  0
ARC
  5
EE
330
1F
100
AcDbEntity
  8
通り芯
  6
Continuous
 62
     3
370
     9
100
AcDbCircle
 10
-1130.591444585436
 20
699.7809193472675
 30
0.0
 40
15.10000064221128
100
AcDbArc
 50
60.07929992675786
 51
238.0379028320313
  0
ARC
  5
EF
330
1F
100
AcDbEntity
  8
通り芯
  6
Continuous
 62
     3
370
     9
100
AcDbCircle
 10
-1058.62856692157
 20
656.647388564811
 30
0.0
 40
11.00000029480135
100
AcDbArc
 50
247.3728942871094
 51
50.75187683105473
  0
ARC
  5
F0
330
1F
100
AcDbEntity
  8
通り芯
  6
Continuous
 62
     3
370
     9
100
AcDbCircle
 10
-1105.51775111483
 20
737.3077253280529
 30
0.0
 40
15.10000064221128
100
AcDbArc
 50
54.45429992675787
 51
232.4129028320313
  0
ARC
  5
F1
330
1F
100
AcDbEntity
  8
通り芯
  6
Continuous
 62
     3
370
     9
100
AcDbCircle
 10
-1038.129041299057
 20
687.327806837087
 30
0.0
 40
11.00000029480135
100
AcDbArc
 50
241.7478942871094
 51
45.12687683105474
  0
ARC
  5
F2
330
1F
100
AcDbEntity
  8
通り芯
  6
Continuous
 62
     3
370
     9
100
AcDbCircle
 10
-1076.886591748502
 20
772.1946736079456
 30
0.0
 40
15.10000064221128
100
AcDbArc
 50
48.82929992675784
 51
226.7879028320312
  0
ARC
  5
F3
330
1F
100
AcDbEntity
  8
通り芯
  6
Continuous
 62
     3
370
     9
100
AcDbCircle
 10
-1014.721113892717
 20
715.8509540076953
 30
0.0
 40
11.00000029480135
100
AcDbArc
 50
236.1228942871094
 51
39.50187683105472
  0
ARC
  5
F4
330
1F
100
AcDbEntity
  8
通り芯
  6
Continuous
 62
     3
370
     9
100
AcDbCircle
 10
-1044.973447132417
 20
804.1088091616074
 30
0.0
 40
15.10000064221128
100
AcDbArc
 50
43.20429992675781
 51
221.1629028320312
  0
ARC
  5
F5
330
1F
100
AcDbEntity
  8
通り芯
  6
Continuous
 62
     3
370
     9
100
AcDbCircle
 10
-988.6297275321651
 20
741.943331305822
 30
0.0
 40
11.00000029480135
100
AcDbArc
 50
230.4978942871094
 51
33.87687683105468
  0
ARC
  5
F6
330
1F
100
AcDbEntity
  8
通り芯
  6
Continuous
 62
     3
370
     9
100
AcDbCircle
 10
-1010.085507914948
 20
832.7399685279356
 30
0.0
 40
15.10000064221128
100
AcDbArc
 50
37.57929992675788
 51
215.5379028320313
  0
ARC
  5
F7
330
1F
100
AcDbEntity
  8
通り芯
  6
Continuous
 62
     3
370
     9
100
AcDbCircle
 10
-960.1065803615568
 20
765.3512587121627
 30
0.0
 40
11.00000029480135
100
AcDbArc
 50
224.8728942871094
 51
28.25187683105475
  0
ARC
  5
F8
330
1F
100
AcDbEntity
  8
通り芯
  6
Continuous
 62
     3
370
     9
100
AcDbCircle
 10
-972.5596928717384
 20
857.8146529361162
 30
0.0
 40
15.10000064221128
100
AcDbArc
 50
31.95429992675784
 51
209.9129028320313
  0
ARC
  5
F9
330
1F
100
AcDbEntity
  8
通り芯
  6
Continuous
 62
     3
370
     9
100
AcDbCircle
 10
-929.4261620892819
 20
785.8507843346739
 30
0.0
 40
11.00000029480135
100
AcDbArc
 50
219.2478942871094
 51
22.62687683105472
  0
ARC
  5
FA
330
1F
100
AcDbEntity
  8
通り芯
  6
Continuous
 62
     3
370
     9
100
AcDbCircle
 10
-932.7567032802351
 20
879.0900826801736
 30
0.0
 40
15.10000064221128
100
AcDbArc
 50
26.32929992675781
 51
204.2879028320312
  0
ARC
  5
FB
330
1F
100
AcDbEntity
  8
通り芯
  6
Continuous
 62
     3
370
     9
100
AcDbCircle
 10
-896.8847630503858
 20
803.24471159585
 30
0.0
 40
11.00000029480135
100
AcDbArc
 50
213.6228942871094
 51
17.00187683105469
  0
ARC
  5
FC
330
1F
100
AcDbEntity
  8
通り芯
  6
Continuous
 62
     3
370
     9
100
AcDbCircle
 10
-891.0600319821235
 20
896.3611336819985
 30
0.0
 40
15.10000064221128
100
AcDbArc
 50
20.70429992675783
 51
198.6629028320312
  0
ARC
  5
FD
330
1F
100
AcDbEntity
  8
通り芯
  6
Continuous
 62
     3
370
     9
100
AcDbCircle
 10
-862.7945285811227
 20
817.3655720454456
 30
0.0
 40
11.00000029480135
100
AcDbArc
 50
207.9978942871094
 51
11.37687683105471
  0
ARC
  5
FE
330
1F
100
AcDbEntity
  8
通り芯
  6
Continuous
 62
     3
370
     9
100
AcDbCircle
 10
-847.8710086954441
 20
909.4623193664971
 30
0.0
 40
15.10000064221128
100
AcDbArc
 50
15.07929992675785
 51
193.0379028320313
  0
ARC
  5
FF
330
1F
100
AcDbEntity
  8
通り芯
  6
Continuous
 62
     3
370
     9
100
AcDbCircle
 10
-827.4854408941057
 20
828.0766162980551
 30
0.0
 40
11.00000029480135
100
AcDbArc
 50
202.3728942871094
 51
5.751876831054727
  0
ARC
  5
100
330
1F
100
AcDbEntity
  8
通り芯
  6
Continuous
 62
     3
370
     9
100
AcDbCircle
 10
-1063.833962005198
 20
500.4181523007849
 30
0.0
 40
20.19899864224394
100
AcDbArc
 50
85.15921020507812
 51
263.5951232910156
  0
ARC
  5
101
330
1F
100
AcDbEntity
  8
通り芯
  6
Continuous
 62
     3
370
     9
100
AcDbCircle
 10
-998.3369520208855
 20
493.967148684864
 30
0.0
 40
13.99999993533241
100
AcDbArc
 50
283.3457489013672
 51
65.40609741210938
  0
ARC
  5
102
330
1F
100
AcDbEntity
  8
通り芯
  6
Continuous
 62
     3
370
     9
100
AcDbCircle
 10
-1047.605377332706
 20
557.8330754200538
 30
0.0
 40
24.50000061261608
100
AcDbArc
 50
72.55450439453125
 51
253.6880340576172
  0
ARC
  5
103
330
1F
100
AcDbEntity
  8
通り芯
  6
Continuous
 62
     3
370
     9
100
AcDbCircle
 10
-961.5771317234673
 20
531.7357434340498
 30
0.0
 40
15.60000025972897
100
AcDbArc
 50
260.4817352294922
 51
65.75416564941406
  0
ARC
  5
104
330
1F
100
AcDbEntity
  8
通り芯
  6
Continuous
 62
     3
370
     9
100
AcDbCircle
 10
-1023.186693599447
 20
616.7849427187837
 30
0.0
 40
24.50000061261608
100
AcDbArc
 50
61.30450439453124
 51
242.4380340576171
  0
ARC
  5
105
330
1F
100
AcDbEntity
  8
通り芯
  6
Continuous
 62
     3
370
     9
100
AcDbCircle
 10
-943.9017781908744
 20
574.4065063687895
 30
0.0
 40
15.60000025972897
100
AcDbArc
 50
249.2317352294922
 51
54.50416564941405
  0
ARC
  5
106
330
1F
100
AcDbEntity
  8
通り芯
  6
Continuous
 62
     3
370
     9
100
AcDbCircle
 10
-987.7368927767218
 20
669.8397405062473
 30
0.0
 40
24.50000061261608
100
AcDbArc
 50
50.05450439453127
 51
231.1880340576172
  0
ARC
  5
107
330
1F
100
AcDbEntity
  8
通り芯
  6
Continuous
 62
     3
370
     9
100
AcDbCircle
 10
-918.2424406132025
 20
612.8083102286625
 30
0.0
 40
15.60000025972897
100
AcDbArc
 50
237.9817352294922
 51
43.25416564941409
  0
ARC
  5
108
330
1F
100
AcDbEntity
  8
通り芯
  6
Continuous
 62
     3
370
     9
100
AcDbCircle
 10
-942.6165321555679
 20
714.9601011274017
 30
0.0
 40
24.50000061261608
100
AcDbArc
 50
38.80450439453126
 51
219.9380340576172
  0
ARC
  5
109
330
1F
100
AcDbEntity
  8
通り芯
  6
Continuous
 62
     3
370
     9
100
AcDbCircle
 10
-885.5841109404075
 20
645.4666399014575
 30
0.0
 40
15.60000025972897
100
AcDbArc
 50
226.7317352294922
 51
32.00416564941408
  0
ARC
  5
10A
330
1F
100
AcDbEntity
  8
通り芯
  6
Continuous
 62
     3
370
     9
100
AcDbCircle
 10
-889.5617343681026
 20
750.4108928877024
 30
0.0
 40
24.50000061261608
100
AcDbArc
 50
27.5545043945313
 51
208.6880340576172
  0
ARC
  5
10B
330
1F
100
AcDbEntity
  8
通り芯
  6
Continuous
 62
     3
370
     9
100
AcDbCircle
 10
-847.1823070805333
 20
671.12597747913
 30
0.0
 40
15.60000025972897
100
AcDbArc
 50
215.4817352294922
 51
20.75416564941412
  0
ARC
  5
10C
330
1F
100
AcDbEntity
  8
通り芯
  6
Continuous
 62
     3
370
     9
100
AcDbCircle
 10
-830.6088761317976
 20
774.8295766209616
 30
0.0
 40
24.50000061261608
100
AcDbArc
 50
16.30450439453123
 51
197.4380340576171
  0
ARC
  5
10D
330
1F
100
AcDbEntity
  8
通り芯
  6
Continuous
 62
     3
370
     9
100
AcDbCircle
 10
-804.5125350833694
 20
688.8003400741467
 30
0.0
 40
15.60000025972897
100
AcDbArc
 50
204.2317352294922
 51
9.504165649414052
  0
ARC
  5
10E
330
1F
100
AcDbEntity
  8
通り芯
  6
Continuous
 62
     3
370
     9
100
AcDbCircle
 10
-773.1949439501038
 20
791.0581612934549
 30
0.0
 40
20.19899864224394
100
AcDbArc
 50
6.404876708984379
 51
184.8407897949219
  0
ARC
  5
10F
330
1F
100
AcDbEntity
  8
通り芯
  6
Continuous
 62
     3
370
     9
100
AcDbCircle
 10
-766.743940334183
 20
725.56115130914
 30
0.0
 40
13.99999993533241
100
AcDbArc
 50
204.5939025878906
 51
346.6542510986328
  0
ARC
  5
110
330
1F
100
AcDbEntity
  8
通り芯
  6
Continuous
 62
     3
370
     9
100
AcDbCircle
 10
-1206.121697520779
 20
463.3451957295374
 30
0.0
 40
80.00000073642803
100
AcDbArc
 50
1.432693481445313
 51
178.5673065185547
  0
ARC
  5
111
330
1F
100
AcDbEntity
  8
通り芯
  6
Continuous
 62
     3
370
     9
100
AcDbCircle
 10
-1206.121697520779
 20
463.3451957295374
 30
0.0
 40
100.0000009205351
100
AcDbArc
 50
166.2465362548828
 51
167.9056243896484
  0
ARC
  5
112
330
1F
100
AcDbEntity
  8
通り芯
  6
Continuous
 62
     3
370
     9
100
AcDbCircle
 10
-1308.790757833883
 20
485.3450008412198
 30
0.0
 40
5.000000046026752
100
AcDbArc
 50
270.0
 51
347.9048919677734
  0
ARC
  5
113
330
1F
100
AcDbEntity
  8
通り芯
  6
Continuous
 62
     3
370
     9
100
AcDbCircle
 10
-1308.110974657151
 20
488.3088951292716
 30
0.0
 40
5.000000046026752
100
AcDbArc
 50
346.2462158203126
 51
86.25012207031254
  0
ARC
  5
114
330
1F
100
AcDbEntity
  8
通り芯
  6
Continuous
 62
     3
370
     9
100
AcDbCircle
 10
-1206.121697520779
 20
463.3451957295374
 30
0.0
 40
100.0000009205351
100
AcDbArc
 50
144.7759552001953
 51
151.9318237304688
  0
ARC
  5
115
330
1F
100
AcDbEntity
  8
通り芯
  6
Continuous
 62
     3
370
     9
100
AcDbCircle
 10
-1291.896263110713
 20
523.9063456507334
 30
0.0
 40
5.000000046026752
100
AcDbArc
 50
324.7760009765625
 51
82.49961853027345
  0
ARC
  5
116
330
1F
100
AcDbEntity
  8
通り芯
  6
Continuous
 62
     3
370
     9
100
AcDbCircle
 10
-1298.772378946484
 20
512.7503704267649
 30
0.0
 40
5.000000046026752
100
AcDbArc
 50
266.251449584961
 51
331.9316101074219
  0
ARC
  5
117
330
1F
100
AcDbEntity
  8
通り芯
  6
Continuous
 62
     3
370
     9
100
AcDbCircle
 10
-1206.121697520779
 20
463.3451957295374
 30
0.0
 40
100.0000009205351
100
AcDbArc
 50
119.7931671142578
 51
127.8069305419922
  0
ARC
  5
118
330
1F
100
AcDbEntity
  8
通り芯
  6
Continuous
 62
     3
370
     9
100
AcDbCircle
 10
-1258.292578990976
 20
554.4668604763852
 30
0.0
 40
5.000000046026752
100
AcDbArc
 50
299.7926788330078
 51
78.7499237060547
  0
ARC
  5
119
330
1F
100
AcDbEntity
  8
通り芯
  6
Continuous
 62
     3
370
     9
100
AcDbCircle
 10
-1270.487056793974
 20
546.3035167301557
 30
0.0
 40
5.000000046026752
100
AcDbArc
 50
262.5003204345703
 51
307.8073272705078
  0
ARC
  5
11A
330
1F
100
AcDbEntity
  8
通り芯
  6
Continuous
 62
     3
370
     9
100
AcDbCircle
 10
-1206.121697520779
 20
463.3451957295374
 30
0.0
 40
100.0000009205351
100
AcDbArc
 50
28.27815246582031
 51
37.70664978027344
  0
ARC
  5
11B
330
1F
100
AcDbEntity
  8
通り芯
  6
Continuous
 62
     3
370
     9
100
AcDbCircle
 10
-1113.652357671373
 20
513.0892710775554
 30
0.0
 40
5.000000046026752
100
AcDbArc
 50
208.2776336669922
 51
264.3742980957031
  0
ARC
  5
11C
330
1F
100
AcDbEntity
  8
通り芯
  6
Continuous
 62
     3
370
     9
100
AcDbCircle
 10
-1123.050409636564
 20
527.564887179148
 30
0.0
 40
5.000000046026752
100
AcDbArc
 50
78.74992370605469
 51
217.7061157226562
  0
ARC
  5
11D
330
1F
100
AcDbEntity
  8
通り芯
  6
Continuous
 62
     3
370
     9
100
AcDbCircle
 10
-791.2924368898205
 20
835.2757777834101
 30
0.0
 40
11.00000029480135
100
AcDbArc
 50
196.7481231689453
 51
0.1271057128906409
  0
ARC
  5
11E
330
1F
100
AcDbEntity
  8
通り芯
  6
Continuous
 62
     3
370
     9
100
AcDbCircle
 10
-791.8810538096152
 20
1029.485669437759
 30
0.0
 40
11.12000051267359
100
AcDbArc
 50
5.737335205078116
 51
185.5221710205078
  0
ARC
  5
11F
330
1F
100
AcDbEntity
  8
通り芯
  6
Continuous
 62
     3
370
     9
100
AcDbCircle
 10
-759.6339632306165
 20
1036.333048083845
 30
0.0
 40
6.53000040461658
100
AcDbArc
 50
4.158096313476562
 51
179.5848236083984
  0
ARC
  5
120
330
1F
100
AcDbEntity
  8
通り芯
  6
Continuous
 62
     3
370
     9
100
AcDbCircle
 10
-828.7895147433453
 20
1024.626111567948
 30
0.0
 40
11.12000051267359
100
AcDbArc
 50
9.487045288085906
 51
189.2718811035156
  0
ARC
  5
121
330
1F
100
AcDbEntity
  8
通り芯
  6
Continuous
 62
     3
370
     9
100
AcDbCircle
 10
-736.1219873788575
 20
933.3449058714591
 30
0.0
 40
80.00000073642803
100
AcDbArc
 50
91.43269348144531
 51
268.5673065185547
  0
ARC
  5
122
330
1F
100
AcDbEntity
  8
通り芯
  6
Continuous
 62
     3
370
     9
100
AcDbCircle
 10
-736.1219873788575
 20
933.3449058714591
 30
0.0
 40
100.0000009205351
100
AcDbArc
 50
102.0943756103515
 51
103.7534637451171
  0
ARC
  5
123
330
1F
100
AcDbEntity
  8
通り芯
  6
Continuous
 62
     3
370
     9
100
AcDbCircle
 10
-758.1217924905393
 20
1036.013966184562
 30
0.0
 40
5.000000046026752
100
AcDbArc
 50
282.0951080322266
 51
0.0000000000000127
  0
ARC
  5
124
330
1F
100
AcDbEntity
  8
通り芯
  6
Continuous
 62
     3
370
     9
100
AcDbCircle
 10
-761.0846958410154
 20
1035.334183007831
 30
0.0
 40
5.000000046026752
100
AcDbArc
 50
183.7498779296875
 51
283.7537841796875
  0
ARC
  5
125
330
1F
100
AcDbEntity
  8
通り芯
  6
Continuous
 62
     3
370
     9
100
AcDbCircle
 10
-736.1219873788575
 20
933.3449058714591
 30
0.0
 40
100.0000009205351
100
AcDbArc
 50
118.0681762695312
 51
125.2240447998047
  0
ARC
  5
126
330
1F
100
AcDbEntity
  8
通り芯
  6
Continuous
 62
     3
370
     9
100
AcDbCircle
 10
-796.683137300053
 20
1019.119471461394
 30
0.0
 40
5.000000046026752
100
AcDbArc
 50
187.5003814697266
 51
305.2239990234375
  0
ARC
  5
127
330
1F
100
AcDbEntity
  8
通り芯
  6
Continuous
 62
     3
370
     9
100
AcDbCircle
 10
-785.5261711385099
 20
1025.995587297165
 30
0.0
 40
5.000000046026752
100
AcDbArc
 50
298.0683898925781
 51
3.748550415039054
  0
ARC
  5
128
330
1F
100
AcDbEntity
  8
通り芯
  6
Continuous
 62
     3
370
     9
100
AcDbCircle
 10
-736.1219873788575
 20
933.3449058714591
 30
0.0
 40
100.0000009205351
100
AcDbArc
 50
142.1930694580078
 51
150.2068328857422
  0
ARC
  5
129
330
1F
100
AcDbEntity
  8
通り芯
  6
Continuous
 62
     3
370
     9
100
AcDbCircle
 10
-827.2436521257048
 20
985.5167782792323
 30
0.0
 40
5.000000046026752
100
AcDbArc
 50
191.2500762939453
 51
330.2073211669922
  0
ARC
  5
12A
330
1F
100
AcDbEntity
  8
通り芯
  6
Continuous
 62
     3
370
     9
100
AcDbCircle
 10
-819.0803083794747
 20
997.7102651446556
 30
0.0
 40
5.000000046026752
100
AcDbArc
 50
322.1926727294922
 51
7.499679565429687
  0
ARC
  5
12B
330
1F
100
AcDbEntity
  8
通り芯
  6
Continuous
 62
     3
370
     9
100
AcDbCircle
 10
-736.1219873788575
 20
933.3449058714591
 30
0.0
 40
100.0000009205351
100
AcDbArc
 50
232.2933502197266
 51
241.7218475341797
  0
ARC
  5
12C
330
1F
100
AcDbEntity
  8
通り芯
  6
Continuous
 62
     3
370
     9
100
AcDbCircle
 10
-785.8660627268744
 20
840.8755660220537
 30
0.0
 40
5.000000046026752
100
AcDbArc
 50
5.625701904296889
 51
61.72236633300782
  0
ARC
  5
12D
330
1F
100
AcDbEntity
  8
通り芯
  6
Continuous
 62
     3
370
     9
100
AcDbCircle
 10
-800.3416788284669
 20
850.2736179872442
 30
0.0
 40
5.000000046026752
100
AcDbArc
 50
52.29388427734375
 51
191.2500762939453
  0
LINE
  5
12E
330
1F
100
AcDbEntity
  8
躯体
  6
JWW_CENTER1
 62
     2
370
     9
100
AcDbLine
 10
-736.1209964412812
 20
1229.725911707268
 30
0.0
 11
-736.1209964412812
 21
-303.0355202481941
 31
0.0
  0
ARC
  5
12F
330
1F
100
AcDbEntity
  8
躯体
  6
Continuous
 62
     2
370
     9
100
AcDbCircle
 10
-736.1209964412812
 20
463.3451957295374
 30
0.0
 40
604.999966860738
100
AcDbArc
 50
90.47352600097656
 51
149.5264739990235
  0
ARC
  5
130
330
1F
100
AcDbEntity
  8
躯体
  6
Continuous
 62
     2
370
     9
100
AcDbCircle
 10
-736.1209964412812
 20
463.3451957295374
 30
0.0
 40
674.9999829885122
100
AcDbArc
 50
90.42442321777344
 51
149.5755920410156
  0
ARC
  5
131
330
1F
100
AcDbEntity
  8
躯体
  6
Continuous
 62
     2
370
     9
100
AcDbCircle
 10
-736.1209964412812
 20
463.3451957295374
 30
0.0
 40
604.999966860738
100
AcDbArc
 50
150.4735260009766
 51
209.5264739990234
  0
ARC
  5
132
330
1F
100
AcDbEntity
  8
躯体
  6
JWW_DASHED3
 62
     2
370
     9
100
AcDbCircle
 10
-736.1209964412812
 20
463.3451957295374
 30
0.0
 40
574.9999511011779
100
AcDbArc
 50
150.4982299804688
 51
209.5017700195312
  0
ARC
  5
133
330
1F
100
AcDbEntity
  8
躯体
  6
Continuous
 62
     2
370
     9
100
AcDbCircle
 10
-736.1209964412812
 20
463.3451957295374
 30
0.0
 40
674.9999829885122
100
AcDbArc
 50
150.4244232177734
 51
209.5755920410156
  0
ARC
  5
134
330
1F
100
AcDbEntity
  8
躯体
  6
Continuous
 62
     2
370
     9
100
AcDbCircle
 10
-736.1209964412812
 20
463.3451957295374
 30
0.0
 40
604.999966860738
100
AcDbArc
 50
210.4735260009765
 51
269.5264739990234
  0
ARC
  5
135
330
1F
100
AcDbEntity
  8
躯体
  6
JWW_DASHED3
 62
     2
370
     9
100
AcDbCircle
 10
-736.1209964412812
 20
463.3451957295374
 30
0.0
 40
574.9999511011779
100
AcDbArc
 50
210.4982299804688
 51
269.5017700195312
  0
ARC
  5
136
330
1F
100
AcDbEntity
  8
躯体
  6
Continuous
 62
     2
370
     9
100
AcDbCircle
 10
-736.1209964412812
 20
463.3451957295374
 30
0.0
 40
674.9999829885122
100
AcDbArc
 50
210.4244232177734
 51
269.5755920410156
  0
ARC
  5
137
330
1F
100
AcDbEntity
  8
躯体
  6
Continuous
 62
     2
370
     9
100
AcDbCircle
 10
-736.1209964412812
 20
463.3451957295374
 30
0.0
 40
604.999966860738
100
AcDbArc
 50
270.4735260009766
 51
329.5264739990234
  0
ARC
  5
138
330
1F
100
AcDbEntity
  8
躯体
  6
JWW_DASHED3
 62
     2
370
     9
100
AcDbCircle
 10
-736.1209964412812
 20
463.3451957295374
 30
0.0
 40
574.9999511011779
100
AcDbArc
 50
270.4982299804688
 51
329.5017700195312
  0
ARC
  5
139
330
1F
100
AcDbEntity
  8
躯体
  6
Continuous
 62
     2
370
     9
100
AcDbCircle
 10
-736.1209964412812
 20
463.3451957295374
 30
0.0
 40
674.9999829885122
100
AcDbArc
 50
270.4244232177734
 51
329.5755920410156
  0
ARC
  5
13A
330
1F
100
AcDbEntity
  8
躯体
  6
Continuous
 62
     2
370
     9
100
AcDbCircle
 10
-736.1209964412812
 20
463.3451957295374
 30
0.0
 40
604.999966860738
100
AcDbArc
 50
330.4735260009766
 51
29.52647399902343
  0
ARC
  5
13B
330
1F
100
AcDbEntity
  8
躯体
  6
JWW_DASHED3
 62
     2
370
     9
100
AcDbCircle
 10
-736.1209964412812
 20
463.3451957295374
 30
0.0
 40
574.9999511011779
100
AcDbArc
 50
330.4982299804688
 51
29.50177001953124
  0
ARC
  5
13C
330
1F
100
AcDbEntity
  8
躯体
  6
Continuous
 62
     2
370
     9
100
AcDbCircle
 10
-736.1209964412812
 20
463.3451957295374
 30
0.0
 40
674.9999829885122
100
AcDbArc
 50
330.4244232177734
 51
29.57559204101561
  0
ARC
  5
13D
330
1F
100
AcDbEntity
  8
躯体
  6
Continuous
 62
     2
370
     9
100
AcDbCircle
 10
-736.1209964412812
 20
463.3451957295374
 30
0.0
 40
604.999966860738
100
AcDbArc
 50
30.47352600097658
 51
89.52647399902347
  0
ARC
  5
13E
330
1F
100
AcDbEntity
  8
躯体
  6
JWW_DASHED3
 62
     2
370
     9
100
AcDbCircle
 10
-736.1209964412812
 20
463.3451957295374
 30
0.0
 40
574.9999511011779
100
AcDbArc
 50
30.49822998046877
 51
89.50177001953128
  0
ARC
  5
13F
330
1F
100
AcDbEntity
  8
躯体
  6
Continuous
 62
     2
370
     9
100
AcDbCircle
 10
-736.1209964412812
 20
463.3451957295374
 30
0.0
 40
674.9999829885122
100
AcDbArc
 50
30.42442321777346
 51
89.57559204101564
  0
LINE
  5
140
330
1F
100
AcDbEntity
  8
躯体
  6
Continuous
 62
     2
370
     9
100
AcDbLine
 10
-131.121896650922
 20
-849.7880181392987
 30
0.0
 11
-161.1215408088894
 21
-849.7880181392987
 31
0.0
  0
LINE
  5
141
330
1F
100
AcDbEntity
  8
躯体
  6
Continuous
 62
     2
370
     9
100
AcDbLine
 10
-161.1215408088894
 20
-849.7880181392987
 30
0.0
 11
-161.1215408088894
 21
-917.7881364390994
 31
0.0
  0
LINE
  5
142
330
1F
100
AcDbEntity
  8
躯体
  6
Continuous
 62
     2
370
     9
100
AcDbLine
 10
-131.121896650922
 20
-817.7876710165755
 30
0.0
 11
-131.121896650922
 21
-849.7880181392987
 31
0.0
  0
LINE
  5
143
330
1F
100
AcDbEntity
  8
躯体
  6
Continuous
 62
     2
370
     9
100
AcDbLine
 10
-129.5205415290586
 20
-917.7881364390994
 30
0.0
 11
-61.1220663239412
 21
-849.388670296408
 31
0.0
  0
LINE
  5
144
330
1F
100
AcDbEntity
  8
躯体
  6
Continuous
 62
     2
370
     9
100
AcDbLine
 10
-136.590881129611
 20
-917.7881364390994
 30
0.0
 11
-61.1220663239412
 21
-842.3183306958562
 31
0.0
  0
LINE
  5
145
330
1F
100
AcDbEntity
  8
躯体
  6
Continuous
 62
     2
370
     9
100
AcDbLine
 10
-143.6622116677374
 20
-917.7881364390994
 30
0.0
 11
-61.1220663239412
 21
-835.2470001577286
 31
0.0
  0
LINE
  5
146
330
1F
100
AcDbEntity
  8
建具
  6
Continuous
 62
     6
370
     9
100
AcDbLine
 10
-61.1220663239412
 20
-927.787687512564
 30
0.0
 11
-161.1215408088894
 21
-927.787687512564
 31
0.0
  0
LINE
  5
147
330
1F
100
AcDbEntity
  8
建具
  6
Continuous
 62
     6
370
     9
100
AcDbLine
 10
-51.12152431290198
 20
-1037.787704008552
 30
0.0
 11
-171.1220828199309
 21
-1037.787704008552
 31
0.0
  0
LINE
  5
148
330
1F
100
AcDbEntity
  8
建具
  6
Continuous
 62
     6
370
     9
100
AcDbLine
 10
-51.12152431290198
 20
-977.7874247550382
 30
0.0
 11
-171.1220828199309
 21
-977.7874247550382
 31
0.0
  0
LINE
  5
149
330
1F
100
AcDbEntity
  8
建具
  6
Continuous
 62
     6
370
     9
100
AcDbLine
 10
-51.12152431290198
 20
-977.7874247550382
 30
0.0
 11
-51.12152431290198
 21
-1037.787704008552
 31
0.0
  0
LINE
  5
14A
330
1F
100
AcDbEntity
  8
建具
  6
Continuous
 62
     6
370
     9
100
AcDbLine
 10
-61.1220663239412
 20
-917.7881364390994
 30
0.0
 11
-61.1220663239412
 21
-977.7874247550382
 31
0.0
  0
LINE
  5
14B
330
1F
100
AcDbEntity
  8
建具
  6
Continuous
 62
     6
370
     9
100
AcDbLine
 10
-161.1215408088894
 20
-917.7881364390994
 30
0.0
 11
-161.1215408088894
 21
-977.7874247550382
 31
0.0
  0
LINE
  5
14C
330
1F
100
AcDbEntity
  8
建具
  6
Continuous
 62
     6
370
     9
100
AcDbLine
 10
-148.1789051364574
 20
-977.7874247550382
 30
0.0
 11
-98.17916789398325
 21
-927.787687512564
 31
0.0
  0
LINE
  5
14D
330
1F
100
AcDbEntity
  8
建具
  6
Continuous
 62
     6
370
     9
100
AcDbLine
 10
-141.1085655359049
 20
-977.7874247550382
 30
0.0
 11
-91.10783735585684
 21
-927.787687512564
 31
0.0
  0
LINE
  5
14E
330
1F
100
AcDbEntity
  8
建具
  6
Continuous
 62
     6
370
     9
100
AcDbLine
 10
-134.0372349977785
 20
-977.7874247550382
 30
0.0
 11
-84.03650681772817
 21
-927.787687512564
 31
0.0
  0
LINE
  5
14F
330
1F
100
AcDbEntity
  8
建具
  6
Continuous
 62
     6
370
     9
100
AcDbLine
 10
-171.1220828199309
 20
-977.7874247550382
 30
0.0
 11
-171.1220828199309
 21
-1037.787704008552
 31
0.0
  0
LINE
  5
150
330
1F
100
AcDbEntity
  8
建具
  6
Continuous
 62
     6
370
     9
100
AcDbLine
 10
-73.8179585400978
 20
-977.7874247550382
 30
0.0
 11
-108.4591543012895
 21
-1037.787704008552
 31
0.0
  0
LINE
  5
151
330
1F
100
AcDbEntity
  8
建具
  6
Continuous
 62
     6
370
     9
100
AcDbLine
 10
-108.4591543012895
 20
-977.7874247550382
 30
0.0
 11
-143.099359124905
 21
-1037.787704008552
 31
0.0
  0
LINE
  5
152
330
1F
100
AcDbEntity
  8
建具
  6
Continuous
 62
     6
370
     9
100
AcDbLine
 10
-67.90206121489902
 20
-1027.542400416386
 30
0.0
 11
-61.98814576485049
 21
-1037.787704008552
 31
0.0
  0
LINE
  5
153
330
1F
100
AcDbEntity
  8
建具
  6
Continuous
 62
     6
370
     9
100
AcDbLine
 10
-102.5432569760908
 20
-1027.542400416386
 30
0.0
 11
-96.62934152604223
 21
-1037.787704008552
 31
0.0
  0
LINE
  5
154
330
1F
100
AcDbEntity
  8
建具
  6
Continuous
 62
     6
370
     9
100
AcDbLine
 10
-137.1844527372802
 20
-1027.542400416386
 30
0.0
 11
-131.2695463496577
 21
-1037.787704008552
 31
0.0
  0
LINE
  5
155
330
1F
100
AcDbEntity
  8
建具
  6
Continuous
 62
     6
370
     9
100
AcDbLine
 10
-88.68202217125074
 20
-977.7874247550382
 30
0.0
 11
-81.24999035567427
 21
-990.6616857347678
 31
0.0
  0
LINE
  5
156
330
1F
100
AcDbEntity
  8
建具
  6
Continuous
 62
     6
370
     9
100
AcDbLine
 10
-123.3232179324425
 20
-977.7874247550382
 30
0.0
 11
-115.891186116866
 21
-990.6616857347678
 31
0.0
  0
LINE
  5
157
330
1F
100
AcDbEntity
  8
建具
  6
Continuous
 62
     6
370
     9
100
AcDbLine
 10
-157.9644136936342
 20
-977.7874247550382
 30
0.0
 11
-150.5323818780555
 21
-990.6616857347678
 31
0.0
  0
LINE
  5
158
330
1F
100
AcDbEntity
  8
建具
  6
Continuous
 62
     6
370
     9
100
AcDbLine
 10
-143.099359124905
 20
-977.7874247550382
 30
0.0
 11
-171.1220828199309
 21
-1026.323547198631
 31
0.0
  0
LINE
  5
159
330
1F
100
AcDbEntity
  8
建具
  6
Continuous
 62
     6
370
     9
100
AcDbLine
 10
-171.1220828199309
 20
-1028.762244571716
 30
0.0
 11
-165.9107421108472
 21
-1037.787704008552
 31
0.0
  0
LINE
  5
15A
330
1F
100
AcDbEntity
  8
建具
  6
Continuous
 62
     6
370
     9
100
AcDbLine
 10
-51.12152431290198
 20
-998.4772103920285
 30
0.0
 11
-73.8179585400978
 21
-1037.787704008552
 31
0.0
  0
LINE
  5
15B
330
1F
100
AcDbEntity
  8
躯体
  6
Continuous
 62
     2
370
     9
100
AcDbLine
 10
-1411.121908433769
 20
-917.7871455015237
 30
0.0
 11
-1311.121443011247
 21
-917.7871455015237
 31
0.0
  0
LINE
  5
15C
330
1F
100
AcDbEntity
  8
躯体
  6
Continuous
 62
     2
370
     9
100
AcDbLine
 10
-1341.121087169215
 20
-849.7880181392987
 30
0.0
 11
-1311.121443011247
 21
-849.7880181392987
 31
0.0
  0
LINE
  5
15D
330
1F
100
AcDbEntity
  8
躯体
  6
Continuous
 62
     2
370
     9
100
AcDbLine
 10
-1341.121087169215
 20
-817.7876710165755
 30
0.0
 11
-1341.121087169215
 21
-849.7880181392987
 31
0.0
  0
LINE
  5
15E
330
1F
100
AcDbEntity
  8
建具
  6
Continuous
 62
     6
370
     9
100
AcDbLine
 10
-1411.121908433769
 20
-927.787687512564
 30
0.0
 11
-1311.121443011247
 21
-927.787687512564
 31
0.0
  0
LINE
  5
15F
330
1F
100
AcDbEntity
  8
建具
  6
Continuous
 62
     6
370
     9
100
AcDbLine
 10
-1421.121459507235
 20
-1037.787704008552
 30
0.0
 11
-1301.121891937782
 21
-1037.787704008552
 31
0.0
  0
LINE
  5
160
330
1F
100
AcDbEntity
  8
建具
  6
Continuous
 62
     6
370
     9
100
AcDbLine
 10
-1421.121459507235
 20
-977.7874247550382
 30
0.0
 11
-1301.121891937782
 21
-977.7874247550382
 31
0.0
  0
LINE
  5
161
330
1F
100
AcDbEntity
  8
建具
  6
Continuous
 62
     6
370
     9
100
AcDbLine
 10
-1421.121459507235
 20
-977.7874247550382
 30
0.0
 11
-1421.121459507235
 21
-1037.787704008552
 31
0.0
  0
LINE
  5
162
330
1F
100
AcDbEntity
  8
建具
  6
Continuous
 62
     6
370
     9
100
AcDbLine
 10
-1411.121908433769
 20
-917.7871455015237
 30
0.0
 11
-1411.121908433769
 21
-977.7874247550382
 31
0.0
  0
LINE
  5
163
330
1F
100
AcDbEntity
  8
建具
  6
Continuous
 62
     6
370
     9
100
AcDbLine
 10
-1311.121443011247
 20
-917.7871455015237
 30
0.0
 11
-1311.121443011247
 21
-977.7874247550382
 31
0.0
  0
LINE
  5
164
330
1F
100
AcDbEntity
  8
建具
  6
Continuous
 62
     6
370
     9
100
AcDbLine
 10
-1398.179272761337
 20
-977.7874247550382
 30
0.0
 11
-1348.179535518863
 21
-927.787687512564
 31
0.0
  0
LINE
  5
165
330
1F
100
AcDbEntity
  8
建具
  6
Continuous
 62
     6
370
     9
100
AcDbLine
 10
-1391.107942223209
 20
-977.7874247550382
 30
0.0
 11
-1341.108204980735
 21
-927.787687512564
 31
0.0
  0
LINE
  5
166
330
1F
100
AcDbEntity
  8
建具
  6
Continuous
 62
     6
370
     9
100
AcDbLine
 10
-1384.036611685082
 20
-977.7874247550382
 30
0.0
 11
-1334.036874442608
 21
-927.787687512564
 31
0.0
  0
LINE
  5
167
330
1F
100
AcDbEntity
  8
建具
  6
Continuous
 62
     6
370
     9
100
AcDbLine
 10
-1301.121891937782
 20
-977.7874247550382
 30
0.0
 11
-1301.121891937782
 21
-1037.787704008552
 31
0.0
  0
LINE
  5
168
330
1F
100
AcDbEntity
  8
建具
  6
Continuous
 62
     6
370
     9
100
AcDbLine
 10
-1323.817335227402
 20
-977.7874247550382
 30
0.0
 11
-1358.458530988593
 21
-1037.787704008552
 31
0.0
  0
LINE
  5
169
330
1F
100
AcDbEntity
  8
建具
  6
Continuous
 62
     6
370
     9
100
AcDbLine
 10
-1358.458530988593
 20
-977.7874247550382
 30
0.0
 11
-1393.098735812209
 21
-1037.787704008552
 31
0.0
  0
LINE
  5
16A
330
1F
100
AcDbEntity
  8
建具
  6
Continuous
 62
     6
370
     9
100
AcDbLine
 10
-1317.902428839779
 20
-1027.542400416386
 30
0.0
 11
-1311.987522452154
 21
-1037.787704008552
 31
0.0
  0
LINE
  5
16B
330
1F
100
AcDbEntity
  8
建具
  6
Continuous
 62
     6
370
     9
100
AcDbLine
 10
-1352.543624600969
 20
-1027.542400416386
 30
0.0
 11
-1346.628718213346
 21
-1037.787704008552
 31
0.0
  0
LINE
  5
16C
330
1F
100
AcDbEntity
  8
建具
  6
Continuous
 62
     6
370
     9
100
AcDbLine
 10
-1387.18482036216
 20
-1027.542400416386
 30
0.0
 11
-1381.268923036961
 21
-1037.787704008552
 31
0.0
  0
LINE
  5
16D
330
1F
100
AcDbEntity
  8
建具
  6
Continuous
 62
     6
370
     9
100
AcDbLine
 10
-1338.682389796131
 20
-977.7874247550382
 30
0.0
 11
-1331.250357980554
 21
-990.6616857347678
 31
0.0
  0
LINE
  5
16E
330
1F
100
AcDbEntity
  8
建具
  6
Continuous
 62
     6
370
     9
100
AcDbLine
 10
-1373.323585557323
 20
-977.7874247550382
 30
0.0
 11
-1365.891553741746
 21
-990.6616857347678
 31
0.0
  0
LINE
  5
16F
330
1F
100
AcDbEntity
  8
建具
  6
Continuous
 62
     6
370
     9
100
AcDbLine
 10
-1407.964781318512
 20
-977.7874247550382
 30
0.0
 11
-1400.531758565362
 21
-990.6616857347678
 31
0.0
  0
LINE
  5
170
330
1F
100
AcDbEntity
  8
建具
  6
Continuous
 62
     6
370
     9
100
AcDbLine
 10
-1393.098735812209
 20
-977.7874247550382
 30
0.0
 11
-1421.121459507235
 21
-1026.323547198631
 31
0.0
  0
LINE
  5
171
330
1F
100
AcDbEntity
  8
建具
  6
Continuous
 62
     6
370
     9
100
AcDbLine
 10
-1421.121459507235
 20
-1028.762244571716
 30
0.0
 11
-1415.910118798153
 21
-1037.787704008552
 31
0.0
  0
LINE
  5
172
330
1F
100
AcDbEntity
  8
建具
  6
Continuous
 62
     6
370
     9
100
AcDbLine
 10
-1301.121891937782
 20
-998.4772103920285
 30
0.0
 11
-1323.817335227402
 21
-1037.787704008552
 31
0.0
  0
LINE
  5
173
330
1F
100
AcDbEntity
  8
躯体
  6
Continuous
 62
     2
370
     9
100
AcDbLine
 10
-1386.591248754489
 20
-917.7871455015237
 30
0.0
 11
-1318.591130454688
 21
-849.7880181392987
 31
0.0
  0
LINE
  5
174
330
1F
100
AcDbEntity
  8
躯体
  6
Continuous
 62
     2
370
     9
100
AcDbLine
 10
-1379.519918216362
 20
-917.7871455015237
 30
0.0
 11
-1311.519799916561
 21
-849.7880181392987
 31
0.0
  0
LINE
  5
175
330
1F
100
AcDbEntity
  8
躯体
  6
Continuous
 62
     2
370
     9
100
AcDbLine
 10
-1311.121443011247
 20
-849.7880181392987
 30
0.0
 11
-1311.121443011247
 21
-917.7871455015237
 31
0.0
  0
LINE
  5
176
330
1F
100
AcDbEntity
  8
躯体
  6
Continuous
 62
     2
370
     9
100
AcDbLine
 10
-1393.661588355041
 20
-917.7871455015237
 30
0.0
 11
-1325.662460992816
 21
-849.7880181392987
 31
0.0
  0
LINE
  5
177
330
1F
100
AcDbEntity
  8
躯体
  6
Continuous
 62
     2
370
     9
100
AcDbLine
 10
-61.1220663239412
 20
-917.7881364390994
 30
0.0
 11
-161.1215408088894
 21
-917.7881364390994
 31
0.0
  0
LINE
  5
178
330
1F
100
AcDbEntity
  8
躯体
  6
Continuous
 62
     2
370
     9
100
AcDbLine
 10
-68.12204935664042
 20
-817.7876710165755
 30
0.0
 11
-131.121896650922
 21
-817.7876710165755
 31
0.0
  0
LINE
  5
179
330
1F
100
AcDbEntity
  8
躯体
  6
Continuous
 62
     2
370
     9
100
AcDbLine
 10
-61.1220663239412
 20
-824.7876540492736
 30
0.0
 11
-61.1220663239412
 21
-917.7881364390994
 31
0.0
  0
LINE
  5
17A
330
1F
100
AcDbEntity
  8
躯体
  6
Continuous
 62
     2
370
     9
100
AcDbLine
 10
-68.12204935664042
 20
-817.7876710165755
 30
0.0
 11
-61.1220663239412
 21
-824.7876540492736
 31
0.0
  0
LINE
  5
17B
330
1F
100
AcDbEntity
  8
躯体
  6
Continuous
 62
     2
370
     9
100
AcDbLine
 10
-1411.121908433769
 20
-824.7876540492736
 30
0.0
 11
-1411.121908433769
 21
-917.7871455015237
 31
0.0
  0
LINE
  5
17C
330
1F
100
AcDbEntity
  8
躯体
  6
Continuous
 62
     2
370
     9
100
AcDbLine
 10
-1404.121925401073
 20
-817.7876710165755
 30
0.0
 11
-1341.121087169215
 21
-817.7876710165755
 31
0.0
  0
LINE
  5
17D
330
1F
100
AcDbEntity
  8
躯体
  6
Continuous
 62
     2
370
     9
100
AcDbLine
 10
-1411.121908433769
 20
-824.7876540492736
 30
0.0
 11
-1404.121925401073
 21
-817.7876710165755
 31
0.0
  0
LINE
  5
17E
330
1F
100
AcDbEntity
  8
通り芯
  6
Continuous
 62
     3
370
     9
100
AcDbLine
 10
-136.1211767188654
 20
-819.7883739813291
 30
0.0
 11
-139.8044916866654
 21
-849.7880181392987
 31
0.0
  0
LINE
  5
17F
330
1F
100
AcDbEntity
  8
通り芯
  6
Continuous
 62
     3
370
     9
100
AcDbLine
 10
-139.8044916866654
 20
-849.7880181392987
 30
0.0
 11
-1332.437501195897
 21
-849.7880181392987
 31
0.0
  0
LINE
  5
180
330
1F
100
AcDbEntity
  8
通り芯
  6
Continuous
 62
     3
370
     9
100
AcDbLine
 10
-156.1212698033721
 20
-819.7883739813291
 30
0.0
 11
-152.4379548355721
 21
-849.7880181392987
 31
0.0
  0
LINE
  5
181
330
1F
100
AcDbEntity
  8
通り芯
  6
Continuous
 62
     3
370
     9
100
AcDbLine
 10
-386.1218448063885
 20
-819.7883739813291
 30
0.0
 11
-384.8930822128789
 21
-829.7889159923694
 31
0.0
  0
LINE
  5
182
330
1F
100
AcDbEntity
  8
通り芯
  6
Continuous
 62
     3
370
     9
100
AcDbLine
 10
-371.1210317898274
 20
-819.7883739813291
 30
0.0
 11
-372.349794383337
 21
-829.7889159923694
 31
0.0
  0
LINE
  5
183
330
1F
100
AcDbEntity
  8
通り芯
  6
Continuous
 62
     3
370
     9
100
AcDbLine
 10
-261.1210152938399
 20
-819.7883739813291
 30
0.0
 11
-259.8932436379066
 21
-829.7889159923694
 31
0.0
  0
LINE
  5
184
330
1F
100
AcDbEntity
  8
通り芯
  6
Continuous
 62
     3
370
     9
100
AcDbLine
 10
-246.1211932148551
 20
-819.7883739813291
 30
0.0
 11
-247.3489648707884
 21
-829.7889159923694
 31
0.0
  0
LINE
  5
185
330
1F
100
AcDbEntity
  8
通り芯
  6
Continuous
 62
     3
370
     9
100
AcDbLine
 10
-1316.121714016767
 20
-819.7883739813291
 30
0.0
 11
-1319.805028984567
 21
-849.7880181392987
 31
0.0
  0
LINE
  5
186
330
1F
100
AcDbEntity
  8
通り芯
  6
Continuous
 62
     3
370
     9
100
AcDbLine
 10
-1086.122129951327
 20
-819.7883739813291
 30
0.0
 11
-1087.34990160726
 21
-829.7879250547941
 31
0.0
  0
LINE
  5
187
330
1F
100
AcDbEntity
  8
通り芯
  6
Continuous
 62
     3
370
     9
100
AcDbLine
 10
-1101.121952030311
 20
-819.7883739813291
 30
0.0
 11
-1099.894180374378
 21
-829.7879250547941
 31
0.0
  0
LINE
  5
188
330
1F
100
AcDbEntity
  8
通り芯
  6
Continuous
 62
     3
370
     9
100
AcDbLine
 10
-1211.121968526299
 20
-819.7883739813291
 30
0.0
 11
-1212.349740182232
 21
-829.7879250547941
 31
0.0
  0
LINE
  5
189
330
1F
100
AcDbEntity
  8
通り芯
  6
Continuous
 62
     3
370
     9
100
AcDbLine
 10
-1226.121790605284
 20
-819.7883739813291
 30
0.0
 11
-1224.89401894935
 21
-829.7879250547941
 31
0.0
  0
LINE
  5
18A
330
1F
100
AcDbEntity
  8
通り芯
  6
Continuous
 62
     3
370
     9
100
AcDbLine
 10
-1336.121807101271
 20
-819.7883739813291
 30
0.0
 11
-1332.437501195897
 21
-849.7880181392987
 31
0.0
  0
LINE
  5
18B
330
1F
100
AcDbEntity
  8
通り芯
  6
Continuous
 62
     3
370
     9
100
AcDbLine
 10
-136.1211767188654
 20
-819.7883739813291
 30
0.0
 11
-1336.121807101271
 21
-819.7883739813291
 31
0.0
  0
LINE
  5
18C
330
1F
100
AcDbEntity
  8
通り芯
  6
Continuous
 62
     3
370
     9
100
AcDbLine
 10
-955.7720203708324
 20
-819.7883739813291
 30
0.0
 11
-952.0877144654584
 21
-849.7880181392987
 31
0.0
  0
LINE
  5
18D
330
1F
100
AcDbEntity
  8
通り芯
  6
Continuous
 62
     3
370
     9
100
AcDbLine
 10
-936.1048823116654
 20
-819.7883739813291
 30
0.0
 11
-939.7881972794654
 21
-849.7880181392987
 31
0.0
  0
LINE
  5
18E
330
1F
100
AcDbEntity
  8
通り芯
  6
Continuous
 62
     3
370
     9
100
AcDbLine
 10
-516.470963449304
 20
-819.7883739813291
 30
0.0
 11
-520.1552693546803
 21
-849.7880181392987
 31
0.0
  0
LINE
  5
18F
330
1F
100
AcDbEntity
  8
通り芯
  6
Continuous
 62
     3
370
     9
100
AcDbLine
 10
-536.138101508471
 20
-819.7883739813291
 30
0.0
 11
-532.454786540671
 21
-849.7880181392987
 31
0.0
  0
LINE
  5
190
330
1F
100
AcDbEntity
  8
通り芯
  6
JWW_CENTER1
 62
     3
370
     9
100
AcDbLine
 10
-736.1209964412812
 20
-785.2874693275296
 30
0.0
 11
-736.1209964412812
 21
-884.2889227930982
 31
0.0
  0
LINE
  5
191
330
1F
100
AcDbEntity
  8
通り芯
  6
Continuous
 62
     3
370
     9
100
AcDbLine
 10
-1317.3494856727
 20
-829.7879250547941
 30
0.0
 11
-954.5439589686018
 21
-829.7879250547941
 31
0.0
  0
LINE
  5
192
330
1F
100
AcDbEntity
  8
通り芯
  6
Continuous
 62
     3
370
     9
100
AcDbLine
 10
-154.8934981474387
 20
-829.7889159923694
 30
0.0
 11
-517.6991465502176
 21
-829.7889159923694
 31
0.0
  0
LINE
  5
193
330
1F
100
AcDbEntity
  8
その他
  6
Continuous
 62
     7
370
     9
100
AcDbLine
 10
-936.1048823116654
 20
-731.3047521359964
 30
0.0
 11
-536.138101508471
 21
-731.3047521359964
 31
0.0
  0
LWPOLYLINE
  5
194
330
1F
100
AcDbEntity
  8
その他
  6
Continuous
 62
     7
370
     9
100
AcDbPolyline
 90
        4
 70
     1
 43
1.0
 10
-935.6048823116655
 20
-731.3047521359964
 42
0.4142135623731
 10
-936.1048823116654
 20
-730.8047521359964
 42
0.4142135623731
 10
-936.6048823116654
 20
-731.3047521359964
 42
0.4142135623731
 10
-936.1048823116654
 20
-731.8047521359963
 42
0.4142135623731
  0
LWPOLYLINE
  5
195
330
1F
100
AcDbEntity
  8
その他
  6
Continuous
 62
     7
370
     9
100
AcDbPolyline
 90
        4
 70
     1
 43
1.0
 10
-535.638101508471
 20
-731.3047521359964
 42
0.4142135623731
 10
-536.138101508471
 20
-730.8047521359964
 42
0.4142135623731
 10
-536.638101508471
 20
-731.3047521359964
 42
0.4142135623731
 10
-536.138101508471
 20
-731.8047521359963
 42
0.4142135623731
  0
LINE
  5
196
330
1F
100
AcDbEntity
  8
その他
  6
Continuous
 62
     7
370
     9
100
AcDbLine
 10
-936.1048823116654
 20
-728.3047521359964
 30
0.0
 11
-936.1048823116654
 21
-799.7883739813291
 31
0.0
  0
LINE
  5
197
330
1F
100
AcDbEntity
  8
その他
  6
Continuous
 62
     7
370
     9
100
AcDbLine
 10
-536.138101508471
 20
-728.3047521359964
 30
0.0
 11
-536.138101508471
 21
-799.7883739813291
 31
0.0
  0
LINE
  5
198
330
1F
100
AcDbEntity
  8
その他
  6
Continuous
 62
     7
370
     9
100
AcDbLine
 10
-1336.121807101271
 20
-651.3047521359964
 30
0.0
 11
-136.1211767188654
 21
-651.3047521359964
 31
0.0
  0
LWPOLYLINE
  5
199
330
1F
100
AcDbEntity
  8
その他
  6
Continuous
 62
     7
370
     9
100
AcDbPolyline
 90
        4
 70
     1
 43
1.0
 10
-1335.621807101271
 20
-651.3047521359964
 42
0.4142135623731
 10
-1336.121807101271
 20
-650.8047521359964
 42
0.4142135623731
 10
-1336.621807101271
 20
-651.3047521359964
 42
0.4142135623731
 10
-1336.121807101271
 20
-651.8047521359963
 42
0.4142135623731
  0
LWPOLYLINE
  5
19A
330
1F
100
AcDbEntity
  8
その他
  6
Continuous
 62
     7
370
     9
100
AcDbPolyline
 90
        4
 70
     1
 43
1.0
 10
-135.6211767188654
 20
-651.3047521359964
 42
0.4142135623731
 10
-136.1211767188654
 20
-650.8047521359964
 42
0.4142135623731
 10
-136.6211767188654
 20
-651.3047521359964
 42
0.4142135623731
 10
-136.1211767188654
 20
-651.8047521359963
 42
0.4142135623731
  0
LINE
  5
19B
330
1F
100
AcDbEntity
  8
その他
  6
Continuous
 62
     7
370
     9
100
AcDbLine
 10
-1336.121807101271
 20
-648.3047521359964
 30
0.0
 11
-1336.121807101271
 21
-799.7883739813291
 31
0.0
  0
LINE
  5
19C
330
1F
100
AcDbEntity
  8
その他
  6
Continuous
 62
     7
370
     9
100
AcDbLine
 10
-136.1211767188654
 20
-648.3047521359964
 30
0.0
 11
-136.1211767188654
 21
-799.7883739813291
 31
0.0
  0
LINE
  5
19D
330
1F
100
AcDbEntity
  8
その他
  6
Continuous
 62
     7
370
     9
100
AcDbLine
 10
-1411.121908433769
 20
-571.3047521359964
 30
0.0
 11
-61.1220663239412
 21
-571.3047521359964
 31
0.0
  0
LWPOLYLINE
  5
19E
330
1F
100
AcDbEntity
  8
その他
  6
Continuous
 62
     7
370
     9
100
AcDbPolyline
 90
        4
 70
     1
 43
1.0
 10
-1410.621908433769
 20
-571.3047521359964
 42
0.4142135623731
 10
-1411.121908433769
 20
-570.8047521359964
 42
0.4142135623731
 10
-1411.621908433769
 20
-571.3047521359964
 42
0.4142135623731
 10
-1411.121908433769
 20
-571.8047521359963
 42
0.4142135623731
  0
LWPOLYLINE
  5
19F
330
1F
100
AcDbEntity
  8
その他
  6
Continuous
 62
     7
370
     9
100
AcDbPolyline
 90
        4
 70
     1
 43
1.0
 10
-60.6220663239412
 20
-571.3047521359964
 42
0.4142135623731
 10
-61.1220663239412
 20
-570.8047521359964
 42
0.4142135623731
 10
-61.6220663239412
 20
-571.3047521359964
 42
0.4142135623731
 10
-61.1220663239412
 20
-571.8047521359963
 42
0.4142135623731
  0
LINE
  5
1A0
330
1F
100
AcDbEntity
  8
その他
  6
Continuous
 62
     7
370
     9
100
AcDbLine
 10
-1411.121908433769
 20
-568.3047521359964
 30
0.0
 11
-1411.121908433769
 21
-804.7876540492736
 31
0.0
  0
LINE
  5
1A1
330
1F
100
AcDbEntity
  8
その他
  6
Continuous
 62
     7
370
     9
100
AcDbLine
 10
-61.1220663239412
 20
-568.3047521359964
 30
0.0
 11
-61.1220663239412
 21
-804.7876540492736
 31
0.0
  0
LINE
  5
1A2
330
1F
100
AcDbEntity
  8
その他
  6
Continuous
 62
     7
370
     9
100
AcDbLine
 10
-1311.121443011247
 20
-950.4460960715193
 30
0.0
 11
-161.1215408088894
 21
-950.4460960715193
 31
0.0
  0
LWPOLYLINE
  5
1A3
330
1F
100
AcDbEntity
  8
その他
  6
Continuous
 62
     7
370
     9
100
AcDbPolyline
 90
        4
 70
     1
 43
1.0
 10
-1310.621443011247
 20
-950.4460960715193
 42
0.4142135623731
 10
-1311.121443011247
 20
-949.9460960715193
 42
0.4142135623731
 10
-1311.621443011247
 20
-950.4460960715193
 42
0.4142135623731
 10
-1311.121443011247
 20
-950.9460960715193
 42
0.4142135623731
  0
LWPOLYLINE
  5
1A4
330
1F
100
AcDbEntity
  8
その他
  6
Continuous
 62
     7
370
     9
100
AcDbPolyline
 90
        4
 70
     1
 43
1.0
 10
-160.6215408088894
 20
-950.4460960715193
 42
0.4142135623731
 10
-161.1215408088894
 20
-949.9460960715193
 42
0.4142135623731
 10
-161.6215408088894
 20
-950.4460960715193
 42
0.4142135623731
 10
-161.1215408088894
 20
-950.9460960715193
 42
0.4142135623731
  0
LWPOLYLINE
  5
1A5
330
1F
100
AcDbEntity
  8
1-4ﾚｲﾔ
  6
Continuous
 62
     7
370
     9
100
AcDbPolyline
 90
        4
 70
     1
 43
1.0
 10
870.795275210139
 20
1.699276537858463
 42
0.4142135623731
 10
870.295275210139
 20
2.199276537858463
 42
0.4142135623731
 10
869.795275210139
 20
1.699276537858463
 42
0.4142135623731
 10
870.295275210139
 20
1.199276537858463
 42
0.4142135623731
  0
LWPOLYLINE
  5
1A6
330
1F
100
AcDbEntity
  8
1-4ﾚｲﾔ
  6
Continuous
 62
     7
370
     9
100
AcDbPolyline
 90
        4
 70
     1
 43
1.0
 10
858.295275210139
 20
1.699276537858463
 42
0.4142135623731
 10
857.795275210139
 20
2.199276537858463
 42
0.4142135623731
 10
857.295275210139
 20
1.699276537858463
 42
0.4142135623731
 10
857.795275210139
 20
1.199276537858463
 42
0.4142135623731
  0
LINE
  5
1A7
330
1F
100
AcDbEntity
  8
1-4ﾚｲﾔ
  6
Continuous
 62
     7
370
     9
100
AcDbLine
 10
870.295275210139
 20
4.699276537858541
 30
0.0
 11
870.295275210139
 21
-115.8248694258034
 31
0.0
  0
LINE
  5
1A8
330
1F
100
AcDbEntity
  8
1-4ﾚｲﾔ
  6
Continuous
 62
     7
370
     9
100
AcDbLine
 10
857.795275210139
 20
4.699276537858541
 30
0.0
 11
857.795275210139
 21
-120.821672149811
 31
0.0
  0
LINE
  5
1A9
330
1F
100
AcDbEntity
  8
1-4ﾚｲﾔ
  6
Continuous
 62
     7
370
     9
100
AcDbLine
 10
857.795275210139
 20
1.699276537858463
 30
0.0
 11
350.4863601771575
 21
1.699276537858463
 31
0.0
  0
TEXT
  5
1AA
330
1F
100
AcDbEntity
  8
1-4ﾚｲﾔ
  6
Continuous
 62
     2
370
   211
100
AcDbText
 10
880.3226528120421
 20
17.3392765378585
 30
0.0
 40
30.48
  1
5
 41
0.9999999999999998
  7
ＭＳ ゴシック
100
AcDbText
  0
LINE
  5
1AB
330
1F
100
AcDbEntity
  8
1-4ﾚｲﾔ
  6
Continuous
 62
     7
370
     9
100
AcDbLine
 10
903.0514442650077
 20
1.699276537858463
 30
0.0
 11
857.795275210139
 21
1.699276537858463
 31
0.0
  0
LINE
  5
1AC
330
1F
100
AcDbEntity
  8
1-4ﾚｲﾔ
  6
Continuous
 62
     7
370
     9
100
AcDbLine
 10
1045.293283908709
 20
79.82445602508454
 30
0.0
 11
870.295275210139
 21
79.82445602508454
 31
0.0
  0
LWPOLYLINE
  5
1AD
330
1F
100
AcDbEntity
  8
1-4ﾚｲﾔ
  6
Continuous
 62
     7
370
     9
100
AcDbPolyline
 90
        4
 70
     1
 43
1.0
 10
1045.793283908709
 20
79.82445602508454
 42
0.4142135623731
 10
1045.293283908709
 20
80.32445602508454
 42
0.4142135623731
 10
1044.793283908709
 20
79.82445602508454
 42
0.4142135623731
 10
1045.293283908709
 20
79.32445602508454
 42
0.4142135623731
  0
LINE
  5
1AE
330
1F
100
AcDbEntity
  8
1-4ﾚｲﾔ
  6
Continuous
 62
     7
370
     9
100
AcDbLine
 10
1045.293283908709
 20
82.82445602508457
 30
0.0
 11
1045.293283908709
 21
-133.3248270075486
 31
0.0
  0
LINE
  5
1AF
330
1F
100
AcDbEntity
  8
1-4ﾚｲﾔ
  6
Continuous
 62
     7
370
     9
100
AcDbLine
 10
870.295275210139
 20
79.82445602508454
 30
0.0
 11
350.4863601771575
 21
79.82445602508454
 31
0.0
  0
TEXT
  5
1B0
330
1F
100
AcDbEntity
  8
1-4ﾚｲﾔ
  6
Continuous
 62
     2
370
   211
100
AcDbText
 10
367.0454263794646
 20
95.46445602508452
 30
0.0
 40
30.48
  1
φ1350
 41
1.104166666666667
  7
ＭＳ ゴシック
100
AcDbText
  0
TEXT
  5
1B1
330
1F
100
AcDbEntity
  8
1-4ﾚｲﾔ
  6
Continuous
 62
     2
370
   211
100
AcDbText
 10
367.0454263794646
 20
17.3392765378585
 30
0.0
 40
30.48
  1
φ1200
 41
1.104166666666667
  7
ＭＳ ゴシック
100
AcDbText
  0
LINE
  5
1B2
330
1F
100
AcDbEntity
  8
その他
  6
Continuous
 62
     7
370
     9
100
AcDbLine
 10
-1149.553146362305
 20
519.9137496948242
 30
0.0
 11
-1262.690238952637
 21
406.7766571044922
 31
0.0
  0
TEXT
  5
1B3
330
1F
100
AcDbEntity
  8
その他
  6
Continuous
 62
     2
370
   211
100
AcDbText
 10
-1256.071715680489
 20
435.5134804921557
 30
0.0
 40
30.48
  1
φ160
 50
45.0
 41
1.1
  7
ＭＳ ゴシック
100
AcDbText
  0
LWPOLYLINE
  5
1B4
330
1F
100
AcDbEntity
  8
その他
  6
Continuous
 62
     7
370
     9
100
AcDbPolyline
 90
        4
 70
     1
 43
1.0
 10
-1149.053146362305
 20
519.9137496948242
 42
0.4142135623731
 10
-1149.553146362305
 20
520.4137496948242
 42
0.4142135623731
 10
-1150.053146362305
 20
519.9137496948242
 42
0.4142135623731
 10
-1149.553146362305
 20
519.4137496948242
 42
0.4142135623731
  0
LWPOLYLINE
  5
1B5
330
1F
100
AcDbEntity
  8
その他
  6
Continuous
 62
     7
370
     9
100
AcDbPolyline
 90
        4
 70
     1
 43
1.0
 10
-1262.190238952637
 20
406.7766571044922
 42
0.4142135623731
 10
-1262.690238952637
 20
407.2766571044922
 42
0.4142135623731
 10
-1263.190238952637
 20
406.7766571044922
 42
0.4142135623731
 10
-1262.690238952637
 20
406.2766571044922
 42
0.4142135623731
  0
LINE
  5
1B6
330
1F
100
AcDbEntity
  8
その他
  6
Continuous
 62
     7
370
     9
100
AcDbLine
 10
-594.6996307373047
 20
604.7665596008301
 30
0.0
 11
-877.5423431396484
 21
321.9238471984863
 31
0.0
  0
LWPOLYLINE
  5
1B7
330
1F
100
AcDbEntity
  8
その他
  6
Continuous
 62
     7
370
     9
100
AcDbPolyline
 90
        4
 70
     1
 43
1.0
 10
-594.1996307373047
 20
604.7665596008301
 42
0.4142135623731
 10
-594.6996307373047
 20
605.2665596008301
 42
0.4142135623731
 10
-595.1996307373047
 20
604.7665596008301
 42
0.4142135623731
 10
-594.6996307373047
 20
604.2665596008301
 42
0.4142135623731
  0
LWPOLYLINE
  5
1B8
330
1F
100
AcDbEntity
  8
その他
  6
Continuous
 62
     7
370
     9
100
AcDbPolyline
 90
        4
 70
     1
 43
1.0
 10
-877.0423431396484
 20
321.9238471984863
 42
0.4142135623731
 10
-877.5423431396484
 20
322.4238471984863
 42
0.4142135623731
 10
-878.0423431396484
 20
321.9238471984863
 42
0.4142135623731
 10
-877.5423431396484
 20
321.4238471984863
 42
0.4142135623731
  0
LINE
  5
1B9
330
1F
100
AcDbEntity
  8
躯体
  6
Continuous
 62
     2
370
     9
100
AcDbLine
 10
-1318.172954797867
 20
805.1661395545703
 30
0.0
 11
-1253.218298214846
 21
767.6647434525701
 31
0.0
  0
LINE
  5
1BA
330
1F
100
AcDbEntity
  8
躯体
  6
Continuous
 62
     2
370
     9
100
AcDbLine
 10
-1323.17223486581
 20
796.5063360830605
 30
0.0
 11
-1258.218108897788
 21
759.0048172412186
 31
0.0
  0
LINE
  5
1BB
330
1F
100
AcDbEntity
  8
躯体
  6
JWW_DASHED3
 62
     2
370
     9
100
AcDbLine
 10
-1253.218298214846
 20
767.6647434525701
 30
0.0
 11
-1231.566992582163
 21
755.1644204369454
 31
0.0
  0
LINE
  5
1BC
330
1F
100
AcDbEntity
  8
躯体
  6
JWW_DASHED3
 62
     2
370
     9
100
AcDbLine
 10
-1258.218108897788
 20
759.0048172412186
 30
0.0
 11
-1236.567263587682
 21
746.5046169654356
 31
0.0
  0
LINE
  5
1BD
330
1F
100
AcDbEntity
  8
躯体
  6
Continuous
 62
     2
370
     9
100
AcDbLine
 10
-741.1212674468009
 20
1138.327279908093
 30
0.0
 11
-741.1212674468009
 21
1063.324365299385
 31
0.0
  0
LINE
  5
1BE
330
1F
100
AcDbEntity
  8
躯体
  6
Continuous
 62
     2
370
     9
100
AcDbLine
 10
-731.1217163733356
 20
1138.327279908093
 30
0.0
 11
-731.1217163733356
 21
1063.324373557114
 31
0.0
  0
LINE
  5
1BF
330
1F
100
AcDbEntity
  8
躯体
  6
JWW_DASHED3
 62
     2
370
     9
100
AcDbLine
 10
-741.1212674468009
 20
1063.324365299385
 30
0.0
 11
-741.1212674468009
 21
1038.323841672844
 31
0.0
  0
LINE
  5
1C0
330
1F
100
AcDbEntity
  8
躯体
  6
JWW_DASHED3
 62
     2
370
     9
100
AcDbLine
 10
-731.1217163733356
 20
1063.324373557114
 30
0.0
 11
-731.1217163733356
 21
1038.323841672844
 31
0.0
  0
LINE
  5
1C1
330
1F
100
AcDbEntity
  8
躯体
  6
Continuous
 62
     2
370
     9
100
AcDbLine
 10
-154.0700290222701
 20
805.1671304921455
 30
0.0
 11
-219.0240548000926
 21
767.6653553857483
 31
0.0
  0
LINE
  5
1C2
330
1F
100
AcDbEntity
  8
躯体
  6
Continuous
 62
     2
370
     9
100
AcDbLine
 10
-149.0707489543267
 20
796.5063360830605
 30
0.0
 11
-214.0241281447785
 21
759.0052483961716
 31
0.0
  0
LINE
  5
1C3
330
1F
100
AcDbEntity
  8
躯体
  6
JWW_DASHED3
 62
     2
370
     9
100
AcDbLine
 10
-219.0240548000926
 20
767.6653553857483
 30
0.0
 11
-240.6759912379736
 21
755.1644204369454
 31
0.0
  0
LINE
  5
1C4
330
1F
100
AcDbEntity
  8
躯体
  6
JWW_DASHED3
 62
     2
370
     9
100
AcDbLine
 10
-214.0241281447785
 20
759.0052483961716
 30
0.0
 11
-235.675720232454
 21
746.5046169654356
 31
0.0
  0
LINE
  5
1C5
330
1F
100
AcDbEntity
  8
躯体
  6
Continuous
 62
     2
370
     9
100
AcDbLine
 10
-149.0697580167505
 20
130.1850463135894
 30
0.0
 11
-214.0236442086093
 21
167.6859976323266
 31
0.0
  0
LINE
  5
1C6
330
1F
100
AcDbEntity
  8
躯体
  6
Continuous
 62
     2
370
     9
100
AcDbLine
 10
-154.0700290222701
 20
121.5252428420796
 30
0.0
 11
-219.02383715298
 21
159.025405896833
 31
0.0
  0
LINE
  5
1C7
330
1F
100
AcDbEntity
  8
躯体
  6
JWW_DASHED3
 62
     2
370
     9
100
AcDbLine
 10
-214.0236442086093
 20
167.6859976323266
 30
0.0
 11
-235.675720232454
 21
180.1867654312143
 31
0.0
  0
LINE
  5
1C8
330
1F
100
AcDbEntity
  8
躯体
  6
JWW_DASHED3
 62
     2
370
     9
100
AcDbLine
 10
-219.02383715298
 20
159.025405896833
 30
0.0
 11
-240.6759912379736
 21
171.5259710221288
 31
0.0
  0
LINE
  5
1C9
330
1F
100
AcDbEntity
  8
躯体
  6
Continuous
 62
     2
370
     9
100
AcDbLine
 10
-731.1217163733356
 20
-211.6358975114436
 30
0.0
 11
-731.1217163733356
 21
-136.6339820980392
 31
0.0
  0
LINE
  5
1CA
330
1F
100
AcDbEntity
  8
躯体
  6
Continuous
 62
     2
370
     9
100
AcDbLine
 10
-741.1212674468009
 20
-211.6358975114436
 30
0.0
 11
-741.1212674468009
 21
-136.6339738403101
 31
0.0
  0
LINE
  5
1CB
330
1F
100
AcDbEntity
  8
躯体
  6
JWW_DASHED3
 62
     2
370
     9
100
AcDbLine
 10
-731.1217163733356
 20
-136.6339820980392
 30
0.0
 11
-731.1217163733356
 21
-111.6324592761943
 31
0.0
  0
LINE
  5
1CC
330
1F
100
AcDbEntity
  8
躯体
  6
JWW_DASHED3
 62
     2
370
     9
100
AcDbLine
 10
-741.1212674468009
 20
-136.6339738403101
 30
0.0
 11
-741.1212674468009
 21
-111.6324592761943
 31
0.0
  0
LINE
  5
1CD
330
1F
100
AcDbEntity
  8
躯体
  6
Continuous
 62
     2
370
     9
100
AcDbLine
 10
-1323.17223486581
 20
130.1850463135894
 30
0.0
 11
-1258.218531791812
 21
167.6863209959113
 31
0.0
  0
LINE
  5
1CE
330
1F
100
AcDbEntity
  8
躯体
  6
Continuous
 62
     2
370
     9
100
AcDbLine
 10
-1318.172954797867
 20
121.5252428420796
 30
0.0
 11
-1253.218407035046
 21
159.0258329129781
 31
0.0
  0
LINE
  5
1CF
330
1F
100
AcDbEntity
  8
躯体
  6
JWW_DASHED3
 62
     2
370
     9
100
AcDbLine
 10
-1253.218407035046
 20
159.0258329129781
 30
0.0
 11
-1231.566992582163
 21
171.5259710221288
 31
0.0
  0
LINE
  5
1D0
330
1F
100
AcDbEntity
  8
躯体
  6
JWW_DASHED3
 62
     2
370
     9
100
AcDbLine
 10
-1258.218531791812
 20
167.6863209959113
 30
0.0
 11
-1236.567263587682
 21
180.1867654312143
 31
0.0
  0
LINE
  5
1D1
330
1F
100
AcDbEntity
  8
その他
  6
Continuous
 62
     7
370
     9
100
AcDbLine
 10
-1206.121697520779
 20
304.1751954664018
 30
0.0
 11
-266.1212862993596
 21
304.1751954664018
 31
0.0
  0
LWPOLYLINE
  5
1D2
330
1F
100
AcDbEntity
  8
その他
  6
Continuous
 62
     7
370
     9
100
AcDbPolyline
 90
        4
 70
     1
 43
1.0
 10
-1205.621697520779
 20
304.1751954664018
 42
0.4142135623731
 10
-1206.121697520779
 20
304.6751954664018
 42
0.4142135623731
 10
-1206.621697520779
 20
304.1751954664018
 42
0.4142135623731
 10
-1206.121697520779
 20
303.6751954664018
 42
0.4142135623731
  0
LWPOLYLINE
  5
1D3
330
1F
100
AcDbEntity
  8
その他
  6
Continuous
 62
     7
370
     9
100
AcDbPolyline
 90
        4
 70
     1
 43
1.0
 10
-265.6212862993595
 20
304.1751954664018
 42
0.4142135623731
 10
-266.1212862993596
 20
304.6751954664018
 42
0.4142135623731
 10
-266.6212862993596
 20
304.1751954664018
 42
0.4142135623731
 10
-266.1212862993596
 20
303.6751954664018
 42
0.4142135623731
  0
TEXT
  5
1D4
330
1F
100
AcDbEntity
  8
F-5ﾚｲﾔ
  6
Continuous
 62
     7
370
     9
100
AcDbText
 10
-294.7781425217914
 20
-1368.51167612973
 30
0.0
 40
22.86
  1
丸型用　コンクリートブロック　ＢＲー１２００
 41
1.031818181818182
  7
ＭＳ ゴシック
100
AcDbText
  0
LINE
  5
1D5
330
1F
100
AcDbEntity
  8
通り芯
  6
Continuous
 62
     3
370
     9
100
AcDbLine
 10
-701.1200903402157
 20
682.334472394595
 30
0.0
 11
-711.1206323512572
 21
682.334472394595
 31
0.0
  0
LINE
  5
1D6
330
1F
100
AcDbEntity
  8
通り芯
  6
Continuous
 62
     3
370
     9
100
AcDbLine
 10
-701.1200903402157
 20
694.3347264328132
 30
0.0
 11
-711.1206323512572
 21
694.3347264328132
 31
0.0
  0
LINE
  5
1D7
330
1F
100
AcDbEntity
  8
通り芯
  6
JWW_CENTER1
 62
     3
370
     9
100
AcDbLine
 10
-728.3173630349249
 20
688.3355903512795
 30
0.0
 11
-683.0255702132256
 21
688.3355903512795
 31
0.0
  0
LINE
  5
1D8
330
1F
100
AcDbEntity
  8
通り芯
  6
JWW_CENTER1
 62
     3
370
     9
100
AcDbLine
 10
-706.1203613457353
 20
706.4717298564374
 30
0.0
 11
-706.1203613457353
 21
670.544297122364
 31
0.0
  0
LINE
  5
1D9
330
1F
100
AcDbEntity
  8
通り芯
  6
Continuous
 62
     3
370
     9
100
AcDbLine
 10
-701.1200903402157
 20
698.3351414247442
 30
0.0
 11
-711.1206323512572
 21
698.3351414247442
 31
0.0
  0
LINE
  5
1DA
330
1F
100
AcDbEntity
  8
通り芯
  6
Continuous
 62
     3
370
     9
100
AcDbLine
 10
-701.1200903402157
 20
678.3350483402392
 30
0.0
 11
-711.1206323512572
 21
678.3350483402392
 31
0.0
  0
LINE
  5
1DB
330
1F
100
AcDbEntity
  8
通り芯
  6
Continuous
 62
     3
370
     9
100
AcDbLine
 10
-517.1307288386486
 20
498.3451108930267
 30
0.0
 11
-517.1307288386486
 21
488.3445688819863
 31
0.0
  0
LINE
  5
1DC
330
1F
100
AcDbEntity
  8
通り芯
  6
Continuous
 62
     3
370
     9
100
AcDbLine
 10
-505.1304748004297
 20
498.3451108930267
 30
0.0
 11
-505.1304748004297
 21
488.3445688819863
 31
0.0
  0
LINE
  5
1DD
330
1F
100
AcDbEntity
  8
通り芯
  6
JWW_CENTER1
 62
     3
370
     9
100
AcDbLine
 10
-511.130601819538
 20
471.1478381983175
 30
0.0
 11
-511.130601819538
 21
516.4396310200174
 31
0.0
  0
LINE
  5
1DE
330
1F
100
AcDbEntity
  8
通り芯
  6
JWW_CENTER1
 62
     3
370
     9
100
AcDbLine
 10
-492.9944623143813
 20
493.3448398875065
 30
0.0
 11
-528.9209041108795
 21
493.3448398875065
 31
0.0
  0
LINE
  5
1DF
330
1F
100
AcDbEntity
  8
通り芯
  6
Continuous
 62
     3
370
     9
100
AcDbLine
 10
-501.1300598084988
 20
498.3451108930267
 30
0.0
 11
-501.1300598084988
 21
488.3445688819863
 31
0.0
  0
LINE
  5
1E0
330
1F
100
AcDbEntity
  8
通り芯
  6
Continuous
 62
     3
370
     9
100
AcDbLine
 10
-521.1311438305795
 20
498.3451108930267
 30
0.0
 11
-521.1311438305795
 21
488.3445688819863
 31
0.0
  0
LINE
  5
1E1
330
1F
100
AcDbEntity
  8
通り芯
  6
Continuous
 62
     3
370
     9
100
AcDbLine
 10
-185.3499645276716
 20
603.1595510568927
 30
0.0
 11
-252.3541905641848
 21
585.2057440656101
 31
0.0
  0
LINE
  5
1E2
330
1F
100
AcDbEntity
  8
通り芯
  6
Continuous
 62
     3
370
     9
100
AcDbLine
 10
-180.3120378942859
 20
581.5491844123464
 30
0.0
 11
-248.3498118219511
 21
568.0159499449688
 31
0.0
  0
LINE
  5
1E3
330
1F
100
AcDbEntity
  8
通り芯
  6
Continuous
 62
     3
370
     9
100
AcDbLine
 10
-195.6735521882949
 20
638.8828506504318
 30
0.0
 11
-261.3608221870884
 21
616.584773328551
 31
0.0
  0
LINE
  5
1E4
330
1F
100
AcDbEntity
  8
通り芯
  6
Continuous
 62
     3
370
     9
100
AcDbLine
 10
-189.2324579481274
 20
617.6480493469659
 30
0.0
 11
-256.2406477349434
 21
599.6932514181082
 31
0.0
  0
LINE
  5
1E5
330
1F
100
AcDbEntity
  8
通り芯
  6
Continuous
 62
     3
370
     9
100
AcDbLine
 10
-208.3109790875021
 20
673.8540286242345
 30
0.0
 11
-272.3998667771586
 21
647.3078019165694
 31
0.0
  0
LINE
  5
1E6
330
1F
100
AcDbEntity
  8
通り芯
  6
Continuous
 62
     3
370
     9
100
AcDbLine
 10
-200.495454430242
 20
653.0859589187866
 30
0.0
 11
-266.1856972417597
 21
630.7878815969058
 31
0.0
  0
LINE
  5
1E7
330
1F
100
AcDbEntity
  8
通り芯
  6
Continuous
 62
     3
370
     9
100
AcDbLine
 10
-223.2097255337946
 20
707.9234534044137
 30
0.0
 11
-285.423759330776
 21
677.2430351321372
 31
0.0
  0
LINE
  5
1E8
330
1F
100
AcDbEntity
  8
通り芯
  6
Continuous
 62
     3
370
     9
100
AcDbLine
 10
-214.0524713994289
 20
687.7112996787712
 30
0.0
 11
-278.1433409642357
 21
661.1640820335309
 31
0.0
  0
LINE
  5
1E9
330
1F
100
AcDbEntity
  8
通り芯
  6
Continuous
 62
     3
370
     9
100
AcDbLine
 10
-240.3033987096198
 20
740.9464481049592
 30
0.0
 11
-300.3789892188654
 21
706.2616510904506
 31
0.0
  0
LINE
  5
1EA
330
1F
100
AcDbEntity
  8
通り芯
  6
Continuous
 62
     3
370
     9
100
AcDbLine
 10
-229.8440526011647
 20
721.3764219281829
 30
0.0
 11
-292.0620501484489
 21
690.6940217807555
 31
0.0
  0
LINE
  5
1EB
330
1F
100
AcDbEntity
  8
通り芯
  6
Continuous
 62
     3
370
     9
100
AcDbLine
 10
-259.5216420471268
 20
772.7793267774375
 30
0.0
 11
-317.1991636238788
 21
734.2407735321585
 31
0.0
  0
LINE
  5
1EC
330
1F
100
AcDbEntity
  8
通り芯
  6
Continuous
 62
     3
370
     9
100
AcDbLine
 10
-247.8047961554755
 20
753.935657843437
 30
0.0
 11
-307.8823685398713
 21
719.2508608289278
 31
0.0
  0
LINE
  5
1ED
330
1F
100
AcDbEntity
  8
通り芯
  6
Continuous
 62
     3
370
     9
100
AcDbLine
 10
-280.7802258524036
 20
803.288312849168
 30
0.0
 11
-335.8139259779607
 21
761.0595080730609
 31
0.0
  0
LINE
  5
1EE
330
1F
100
AcDbEntity
  8
通り芯
  6
Continuous
 62
     3
370
     9
100
AcDbLine
 10
-267.8554270563261
 20
785.2512671015511
 30
0.0
 11
-325.5359214458047
 21
746.7107319811207
 31
0.0
  0
LINE
  5
1EF
330
1F
100
AcDbEntity
  8
通り芯
  6
Continuous
 62
     3
370
     9
100
AcDbLine
 10
-303.9879838685094
 20
832.3416116226206
 30
0.0
 11
-356.1420193999259
 21
786.603896891986
 31
0.0
  0
LINE
  5
1F0
330
1F
100
AcDbEntity
  8
通り芯
  6
Continuous
 62
     3
370
     9
100
AcDbLine
 10
-289.9117156098071
 20
815.1884821922697
 30
0.0
 11
-344.9483885480929
 21
772.9576955410117
 31
0.0
  0
LINE
  5
1F1
330
1F
100
AcDbEntity
  8
通り芯
  6
Continuous
 62
     3
370
     9
100
AcDbLine
 10
-329.0468132754852
 20
859.8143649632935
 30
0.0
 11
-378.0982232582908
 21
810.7639459180625
 31
0.0
  0
LINE
  5
1F2
330
1F
100
AcDbEntity
  8
通り芯
  6
Continuous
 62
     3
370
     9
100
AcDbLine
 10
-313.8785318086791
 20
843.618481230789
 30
0.0
 11
-366.035540152822
 21
797.8787846250036
 31
0.0
  0
LINE
  5
1F3
330
1F
100
AcDbEntity
  8
通り芯
  6
Continuous
 62
     3
370
     9
100
AcDbLine
 10
-355.8487018776048
 20
885.5896422372892
 30
0.0
 11
-401.5864166082399
 21
833.4356067058734
 31
0.0
  0
LINE
  5
1F4
330
1F
100
AcDbEntity
  8
通り芯
  6
Continuous
 62
     3
370
     9
100
AcDbLine
 10
-339.6538090826759
 20
870.4203698329097
 30
0.0
 11
-388.7072009406318
 21
821.3669779749522
 31
0.0
  0
LINE
  5
1F5
330
1F
100
AcDbEntity
  8
通り芯
  6
Continuous
 62
     3
370
     9
100
AcDbLine
 10
-384.2796918537003
 20
909.5564584361613
 30
0.0
 11
-426.5084966298075
 21
854.5227583106031
 31
0.0
  0
LINE
  5
1F6
330
1F
100
AcDbEntity
  8
通り芯
  6
Continuous
 62
     3
370
     9
100
AcDbLine
 10
-367.1275533609235
 20
895.4791992398832
 30
0.0
 11
-412.8672499667089
 21
843.3231818333165
 31
0.0
  0
LINE
  5
1F7
330
1F
100
AcDbEntity
  8
通り芯
  6
Continuous
 62
     3
370
     9
100
AcDbLine
 10
-414.2159160068438
 20
931.6127469896422
 30
0.0
 11
-452.7554601896979
 21
873.9352254128896
 31
0.0
  0
LINE
  5
1F8
330
1F
100
AcDbEntity
  8
通り芯
  6
Continuous
 62
     3
370
     9
100
AcDbLine
 10
-396.1798611968009
 20
918.6879481935664
 30
0.0
 11
-438.4106478480583
 21
863.6512752552823
 31
0.0
  0
LINE
  5
1F9
330
1F
100
AcDbEntity
  8
通り芯
  6
Continuous
 62
     3
370
     9
100
AcDbLine
 10
-445.5315252649568
 20
951.664368828068
 30
0.0
 11
-480.2163222794654
 21
891.588778318823
 31
0.0
  0
LINE
  5
1FA
330
1F
100
AcDbEntity
  8
通り芯
  6
Continuous
 62
     3
370
     9
100
AcDbLine
 10
-426.6888472685303
 20
939.9465319988421
 30
0.0
 11
-465.2293823889606
 21
882.2660376093636
 31
0.0
  0
LINE
  5
1FB
330
1F
100
AcDbEntity
  8
通り芯
  6
Continuous
 62
     3
370
     9
100
AcDbLine
 10
-478.091752117786
 20
969.624121444803
 30
0.0
 11
-508.7721703900631
 21
907.4090967102471
 31
0.0
  0
LINE
  5
1FC
330
1F
100
AcDbEntity
  8
通り芯
  6
Continuous
 62
     3
370
     9
100
AcDbLine
 10
-458.5227168785848
 20
959.1637843987728
 30
0.0
 11
-493.2085048306697
 21
899.0862120143764
 31
0.0
  0
LINE
  5
1FD
330
1F
100
AcDbEntity
  8
通り芯
  6
Continuous
 62
     3
370
     9
100
AcDbLine
 10
-511.7558834296226
 20
985.4166935841163
 30
0.0
 11
-538.3021101372872
 21
921.3287968320349
 31
0.0
  0
LINE
  5
1FE
330
1F
100
AcDbEntity
  8
通り芯
  6
Continuous
 62
     3
370
     9
100
AcDbLine
 10
-491.5447206415563
 20
976.2584485121748
 30
0.0
 11
-522.2271207889837
 21
914.0404509648924
 31
0.0
  0
LINE
  5
1FF
330
1F
100
AcDbEntity
  8
通り芯
  6
Continuous
 62
     3
370
     9
100
AcDbLine
 10
-546.3822151271818
 20
998.972719615728
 30
0.0
 11
-568.6793015114874
 21
933.2854496169346
 31
0.0
  0
LINE
  5
200
330
1F
100
AcDbEntity
  8
通り芯
  6
Continuous
 62
     3
370
     9
100
AcDbLine
 10
-525.6141454217338
 20
991.1562040208922
 30
0.0
 11
-552.1623540045509
 21
927.0653344560843
 31
0.0
  0
LINE
  5
201
330
1F
100
AcDbEntity
  8
通り芯
  6
Continuous
 62
     3
370
     9
100
AcDbLine
 10
-581.8201246990036
 20
1010.235716097841
 30
0.0
 11
-599.773931690285
 21
943.2304991237514
 31
0.0
  0
LINE
  5
202
330
1F
100
AcDbEntity
  8
通り芯
  6
Continuous
 62
     3
370
     9
100
AcDbLine
 10
-560.5863143331128
 20
1003.793630920099
 30
0.0
 11
-582.8843916549947
 21
938.1043790461546
 31
0.0
  0
LINE
  5
203
330
1F
100
AcDbEntity
  8
通り芯
  6
Continuous
 62
     3
370
     9
100
AcDbLine
 10
-617.9179986960473
 20
1019.157127089259
 30
0.0
 11
-631.4512331634244
 21
951.1213350367432
 31
0.0
  0
LINE
  5
204
330
1F
100
AcDbEntity
  8
通り芯
  6
Continuous
 62
     3
370
     9
100
AcDbLine
 10
-596.3086229890762
 20
1014.118209518298
 30
0.0
 11
-614.2634209179339
 21
947.110019731483
 31
0.0
  0
LINE
  5
205
330
1F
100
AcDbEntity
  8
通り芯
  6
Continuous
 62
     3
370
     9
100
AcDbLine
 10
-293.4117071261578
 20
589.8017125403628
 30
0.0
 11
-375.5752961912951
 21
564.877650643645
 31
0.0
  0
LINE
  5
206
330
1F
100
AcDbEntity
  8
通り芯
  6
Continuous
 62
     3
370
     9
100
AcDbLine
 10
-286.0728234426681
 20
560.5125706239629
 30
0.0
 11
-370.2856714137572
 21
543.760770911653
 31
0.0
  0
LINE
  5
207
330
1F
100
AcDbEntity
  8
通り芯
  6
Continuous
 62
     3
370
     9
100
AcDbLine
 10
-297.7639049573593
 20
604.1564342577554
 30
0.0
 11
-379.9294758976491
 21
579.2313814234619
 31
0.0
  0
LINE
  5
208
330
1F
100
AcDbEntity
  8
通り芯
  6
Continuous
 62
     3
370
     9
100
AcDbLine
 10
-326.588297150892
 20
673.7400708030622
 30
0.0
 11
-402.3107919758643
 21
633.2652255354315
 31
0.0
  0
LINE
  5
209
330
1F
100
AcDbEntity
  8
通り芯
  6
Continuous
 62
     3
370
     9
100
AcDbLine
 10
-313.6763805432968
 20
646.4446952883872
 30
0.0
 11
-393.0029153300363
 21
613.5861962253596
 31
0.0
  0
LINE
  5
20A
330
1F
100
AcDbEntity
  8
通り芯
  6
Continuous
 62
     3
370
     9
100
AcDbLine
 10
-349.1816738702453
 20
712.8682319057104
 30
0.0
 11
-420.5727805530994
 21
665.1664789006127
 31
0.0
  0
LINE
  5
20B
330
1F
100
AcDbEntity
  8
通り芯
  6
Continuous
 62
     3
370
     9
100
AcDbLine
 10
-333.6566548762919
 20
686.970078372364
 30
0.0
 11
-409.3811315764167
 21
646.4942421671576
 31
0.0
  0
LINE
  5
20C
330
1F
100
AcDbEntity
  8
通り芯
  6
Continuous
 62
     3
370
     9
100
AcDbLine
 10
-375.5029577482917
 20
749.593369387989
 30
0.0
 11
-441.8739746741169
 21
695.1235127428395
 31
0.0
  0
LINE
  5
20D
330
1F
100
AcDbEntity
  8
通り芯
  6
Continuous
 62
     3
370
     9
100
AcDbLine
 10
-357.5134770042944
 20
725.3411631673991
 30
0.0
 11
-428.9065655622987
 21
677.6384192247262
 31
0.0
  0
LINE
  5
20E
330
1F
100
AcDbEntity
  8
通り芯
  6
Continuous
 62
     3
370
     9
100
AcDbLine
 10
-405.2964868905763
 20
783.5617185354765
 30
0.0
 11
-466.0092502608102
 21
722.8479642276669
 31
0.0
  0
LINE
  5
20F
330
1F
100
AcDbEntity
  8
通り芯
  6
Continuous
 62
     3
370
     9
100
AcDbLine
 10
-385.0169494098047
 20
761.1893208954398
 30
0.0
 11
-451.3899482107824
 21
706.7184733127145
 31
0.0
  0
LINE
  5
210
330
1F
100
AcDbEntity
  8
通り芯
  6
Continuous
 62
     3
370
     9
100
AcDbLine
 10
-438.2748894002286
 20
814.4462699482874
 30
0.0
 11
-492.744746045377
 21
748.0742620848854
 31
0.0
  0
LINE
  5
211
330
1F
100
AcDbEntity
  8
通り芯
  6
Continuous
 62
     3
370
     9
100
AcDbLine
 10
-415.9005098850405
 20
794.169705280243
 30
0.0
 11
-476.6152551304247
 21
733.4549600348582
 31
0.0
  0
LINE
  5
212
330
1F
100
AcDbEntity
  8
通り芯
  6
Continuous
 62
     3
370
     9
100
AcDbLine
 10
-474.1230471282681
 20
841.9487514162226
 30
0.0
 11
-521.824800133367
 21
770.557644733368
 31
0.0
  0
LINE
  5
213
330
1F
100
AcDbEntity
  8
通り芯
  6
Continuous
 62
     3
370
     9
100
AcDbLine
 10
-449.868859032528
 20
823.963234422527
 30
0.0
 11
-504.3397066152527
 21
757.5902356215498
 31
0.0
  0
LINE
  5
214
330
1F
100
AcDbEntity
  8
通り芯
  6
Continuous
 62
     3
370
     9
100
AcDbLine
 10
-512.4941319233033
 20
865.8065644817997
 30
0.0
 11
-552.9689771909345
 21
790.0830787192511
 31
0.0
  0
LINE
  5
215
330
1F
100
AcDbEntity
  8
通り芯
  6
Continuous
 62
     3
370
     9
100
AcDbLine
 10
-486.5939965148066
 20
850.2845183005734
 30
0.0
 11
-534.2967404574795
 21
778.8914297425679
 31
0.0
  0
LINE
  5
216
330
1F
100
AcDbEntity
  8
通り芯
  6
Continuous
 62
     3
370
     9
100
AcDbLine
 10
-553.0185240697044
 20
885.7868388147959
 30
0.0
 11
-585.8770231327337
 21
806.4612949656315
 31
0.0
  0
LINE
  5
217
330
1F
100
AcDbEntity
  8
通り芯
  6
Continuous
 62
     3
370
     9
100
AcDbLine
 10
-525.7221576174554
 20
872.8788859575023
 30
0.0
 11
-566.1970028850844
 21
797.1544092573787
 31
0.0
  0
LINE
  5
218
330
1F
100
AcDbEntity
  8
通り芯
  6
Continuous
 62
     3
370
     9
100
AcDbLine
 10
-595.3067851003373
 20
901.7003053383091
 30
0.0
 11
-620.2308469970551
 21
819.5357253355938
 31
0.0
  0
LINE
  5
219
330
1F
100
AcDbEntity
  8
通り芯
  6
Continuous
 62
     3
370
     9
100
AcDbLine
 10
-566.8757951242417
 20
891.5293220642984
 30
0.0
 11
-599.7342941872687
 21
812.2017963399832
 31
0.0
  0
LINE
  5
21A
330
1F
100
AcDbEntity
  8
通り芯
  6
Continuous
 62
     3
370
     9
100
AcDbLine
 10
-638.9506487341298
 20
913.3913868529986
 30
0.0
 11
-655.701457508864
 21
829.1795298194863
 31
0.0
  0
LINE
  5
21B
330
1F
100
AcDbEntity
  8
通り芯
  6
Continuous
 62
     3
370
     9
100
AcDbLine
 10
-609.6605158801542
 20
906.0564669198122
 30
0.0
 11
-634.584577776872
 21
823.8899050419467
 31
0.0
  0
LINE
  5
21C
330
1F
100
AcDbEntity
  8
通り芯
  6
Continuous
 62
     3
370
     9
100
AcDbLine
 10
-307.9378610440965
 20
632.5864332962753
 30
0.0
 11
-387.2634048932598
 21
599.7279342332472
 31
0.0
  0
LINE
  5
21D
330
1F
100
AcDbEntity
  8
通り芯
  6
Continuous
 62
     3
370
     9
100
AcDbLine
 10
-406.15463883088
 20
480.3457207732753
 30
0.0
 11
-477.1364882950904
 21
480.3457207732753
 31
0.0
  0
LINE
  5
21E
330
1F
100
AcDbEntity
  8
通り芯
  6
Continuous
 62
     3
370
     9
100
AcDbLine
 10
-410.1124435070681
 20
520.5450853949422
 30
0.0
 11
-479.7317538050895
 21
506.696732778584
 31
0.0
  0
LINE
  5
21F
330
1F
100
AcDbEntity
  8
通り芯
  6
Continuous
 62
     3
370
     9
100
AcDbLine
 10
-431.981444858797
 20
581.2053290736792
 30
0.0
 11
-517.0712725841229
 21
545.9596613914885
 31
0.0
  0
LINE
  5
220
330
1F
100
AcDbEntity
  8
通り芯
  6
Continuous
 62
     3
370
     9
100
AcDbLine
 10
-417.7555450262087
 20
534.319117693144
 30
0.0
 11
-508.0854506503026
 21
516.3504466382306
 31
0.0
  0
LINE
  5
221
330
1F
100
AcDbEntity
  8
通り芯
  6
Continuous
 62
     3
370
     9
100
AcDbLine
 10
-460.8187192408097
 20
638.2754059167052
 30
0.0
 11
-537.398375068514
 21
587.1073532728228
 31
0.0
  0
LINE
  5
222
330
1F
100
AcDbEntity
  8
通り芯
  6
Continuous
 62
     3
370
     9
100
AcDbLine
 10
-437.7189734204233
 20
595.0645820033667
 30
0.0
 11
-522.8078102081729
 21
559.8199052587511
 31
0.0
  0
LINE
  5
223
330
1F
100
AcDbEntity
  8
通り芯
  6
Continuous
 62
     3
370
     9
100
AcDbLine
 10
-500.2362341154792
 20
688.6229622481482
 30
0.0
 11
-565.3606515714403
 21
623.4975538546125
 31
0.0
  0
LINE
  5
224
330
1F
100
AcDbEntity
  8
通り芯
  6
Continuous
 62
     3
370
     9
100
AcDbLine
 10
-469.1495314372848
 20
650.7493281159695
 30
0.0
 11
-545.7281963274106
 21
599.5812754720866
 31
0.0
  0
LINE
  5
225
330
1F
100
AcDbEntity
  8
通り芯
  6
Continuous
 62
     3
370
     9
100
AcDbLine
 10
-548.7178549924254
 20
730.3136879208079
 30
0.0
 11
-599.8868985738834
 21
653.7340320931047
 31
0.0
  0
LINE
  5
226
330
1F
100
AcDbEntity
  8
通り芯
  6
Continuous
 62
     3
370
     9
100
AcDbLine
 10
-510.8402571099434
 20
699.2319399304903
 30
0.0
 11
-575.9646745659045
 21
634.1075224745298
 31
0.0
  0
LINE
  5
227
330
1F
100
AcDbEntity
  8
通り芯
  6
Continuous
 62
     3
370
     9
100
AcDbLine
 10
-604.4016101674508
 20
761.7442459376695
 30
0.0
 11
-639.6472778496416
 21
676.6534272747684
 31
0.0
  0
LINE
  5
228
330
1F
100
AcDbEntity
  8
通り芯
  6
Continuous
 62
     3
370
     9
100
AcDbLine
 10
-561.1878134413876
 20
738.6494548051586
 30
0.0
 11
-612.3558660852693
 21
662.0707899150311
 31
0.0
  0
LINE
  5
229
330
1F
100
AcDbEntity
  8
通り芯
  6
Continuous
 62
     3
370
     9
100
AcDbLine
 10
-665.1470744776741
 20
781.707674331884
 30
0.0
 11
-683.1157455325881
 21
691.3757868326381
 31
0.0
  0
LINE
  5
22A
330
1F
100
AcDbEntity
  8
通り芯
  6
Continuous
 62
     3
370
     9
100
AcDbLine
 10
-618.2588812219881
 20
767.487720124747
 30
0.0
 11
-653.5035579666048
 21
682.3978923994212
 31
0.0
  0
LINE
  5
22B
330
1F
100
AcDbEntity
  8
通り芯
  6
Continuous
 62
     3
370
     9
100
AcDbLine
 10
-719.1204713975428
 20
793.3115533399375
 30
0.0
 11
-719.1204713975428
 21
722.328712938152
 31
0.0
  0
LINE
  5
22C
330
1F
100
AcDbEntity
  8
通り芯
  6
Continuous
 62
     3
370
     9
100
AcDbLine
 10
-678.9201158383019
 20
789.3537486637495
 30
0.0
 11
-692.7684684546596
 21
719.734438365728
 31
0.0
  0
LINE
  5
22D
330
1F
100
AcDbEntity
  8
通り芯
  6
Continuous
 62
     3
370
     9
100
AcDbLine
 10
-162.6594759259265
 20
480.3447298356996
 30
0.0
 11
-163.4512350486798
 21
480.3447298356996
 31
0.0
  0
LINE
  5
22E
330
1F
100
AcDbEntity
  8
通り芯
  6
Continuous
 62
     3
370
     9
100
AcDbLine
 10
-163.085579083353
 20
493.3874502032494
 30
0.0
 11
-164.4580276252978
 21
493.2972748838869
 31
0.0
  0
LINE
  5
22F
330
1F
100
AcDbEntity
  8
通り芯
  6
Continuous
 62
     3
370
     9
100
AcDbLine
 10
-169.6376583319662
 20
507.99089725207
 30
0.0
 11
-173.1426045361914
 21
507.7609997345745
 31
0.0
  0
LINE
  5
230
330
1F
100
AcDbEntity
  8
通り芯
  6
Continuous
 62
     3
370
     9
100
AcDbLine
 10
-171.8117753724155
 20
530.0729501825116
 30
0.0
 11
-180.9987576340441
 21
528.8640063405107
 31
0.0
  0
LINE
  5
231
330
1F
100
AcDbEntity
  8
通り芯
  6
Continuous
 62
     3
370
     9
100
AcDbLine
 10
-173.7708589590025
 20
544.9449413142684
 30
0.0
 11
-201.1028991639675
 21
541.3468469779535
 31
0.0
  0
LINE
  5
232
330
1F
100
AcDbEntity
  8
通り芯
  6
Continuous
 62
     3
370
     9
100
AcDbLine
 10
-177.3848082965233
 20
566.8377251678065
 30
0.0
 11
-214.9244964657889
 21
559.3710105370905
 31
0.0
  0
LINE
  5
233
330
1F
100
AcDbEntity
  8
通り芯
  6
Continuous
 62
     3
370
     9
100
AcDbLine
 10
-350.1666658202014
 20
532.4690372398532
 30
0.0
 11
-367.3594327535709
 21
529.0493116671125
 31
0.0
  0
LINE
  5
234
330
1F
100
AcDbEntity
  8
通り芯
  6
Continuous
 62
     3
370
     9
100
AcDbLine
 10
-358.0991211113603
 20
508.1137735114207
 30
0.0
 11
-364.1656409480236
 21
507.515247215873
 31
0.0
  0
LINE
  5
235
330
1F
100
AcDbEntity
  8
通り芯
  6
Continuous
 62
     3
370
     9
100
AcDbLine
 10
-136.1241495315917
 20
465.3449077567147
 30
0.0
 11
-186.1456874007254
 21
465.3449077567147
 31
0.0
  0
LINE
  5
236
330
1F
100
AcDbEntity
  8
通り芯
  6
Continuous
 62
     3
370
     9
100
AcDbLine
 10
-346.0958942604173
 20
465.3449077567147
 30
0.0
 11
-536.1299749719881
 21
465.3449077567147
 31
0.0
  0
LINE
  5
237
330
1F
100
AcDbEntity
  8
通り芯
  6
Continuous
 62
     3
370
     9
100
AcDbLine
 10
-719.1204713975428
 20
1036.806716244891
 30
0.0
 11
-719.1204713975428
 21
1036.013966184562
 31
0.0
  0
LINE
  5
238
330
1F
100
AcDbEntity
  8
通り芯
  6
Continuous
 62
     3
370
     9
100
AcDbLine
 10
-706.0777510299947
 20
1036.380613087464
 30
0.0
 11
-706.167926349355
 21
1035.007173607946
 31
0.0
  0
LINE
  5
239
330
1F
100
AcDbEntity
  8
通り芯
  6
Continuous
 62
     3
370
     9
100
AcDbLine
 10
-691.4752949187475
 20
1029.827542901277
 30
0.0
 11
-691.7051924362447
 21
1026.32259669705
 31
0.0
  0
LINE
  5
23A
330
1F
100
AcDbEntity
  8
通り芯
  6
Continuous
 62
     3
370
     9
100
AcDbLine
 10
-669.3922510507325
 20
1027.653425860826
 30
0.0
 11
-670.6021858303068
 21
1018.467434536774
 31
0.0
  0
LINE
  5
23B
330
1F
100
AcDbEntity
  8
通り芯
  6
Continuous
 62
     3
370
     9
100
AcDbLine
 10
-654.5212508565503
 20
1025.69434227424
 30
0.0
 11
-658.1193451928646
 21
998.3632930068505
 31
0.0
  0
LINE
  5
23C
330
1F
100
AcDbEntity
  8
通り芯
  6
Continuous
 62
     3
370
     9
100
AcDbLine
 10
-632.6274760654376
 20
1022.081383874295
 30
0.0
 11
-640.0951816337276
 21
984.5407047674535
 31
0.0
  0
LINE
  5
23D
330
1F
100
AcDbEntity
  8
通り芯
  6
Continuous
 62
     3
370
     9
100
AcDbLine
 10
-666.9961639933892
 20
849.2985354130404
 30
0.0
 11
-670.415889566131
 21
832.1057684796726
 31
0.0
  0
LINE
  5
23E
330
1F
100
AcDbEntity
  8
通り芯
  6
Continuous
 62
     3
370
     9
100
AcDbLine
 10
-691.3524186593979
 20
841.3660801218815
 30
0.0
 11
-691.9499540173699
 21
835.29956028522
 31
0.0
  0
LINE
  5
23F
330
1F
100
AcDbEntity
  8
通り芯
  6
Continuous
 62
     3
370
     9
100
AcDbLine
 10
-734.1202934765276
 20
853.3702979104008
 30
0.0
 11
-734.1202934765276
 21
663.3352262612549
 31
0.0
  0
LINE
  5
240
330
1F
100
AcDbEntity
  8
通り芯
  6
Continuous
 62
     3
370
     9
100
AcDbLine
 10
-734.1202934765276
 20
1063.342042639226
 30
0.0
 11
-734.1202934765276
 21
1013.319513832517
 31
0.0
  0
ARC
  5
241
330
1F
100
AcDbEntity
  8
通り芯
  6
Continuous
 62
     3
370
     9
100
AcDbCircle
 10
-736.1209964412812
 20
463.3451957295374
 30
0.0
 40
600.0000055232103
100
AcDbArc
 50
0.1910095214843774
 51
89.80902099609375
  0
ARC
  5
242
330
1F
100
AcDbEntity
  8
通り芯
  6
Continuous
 62
     3
370
     9
100
AcDbCircle
 10
-711.1206323512572
 20
688.3355903512795
 30
0.0
 40
5.999999764918361
100
AcDbArc
 50
90.0
 51
270.0
  0
ARC
  5
243
330
1F
100
AcDbEntity
  8
通り芯
  6
Continuous
 62
     3
370
     9
100
AcDbCircle
 10
-701.1200903402157
 20
688.3355903512795
 30
0.0
 40
5.999999764918361
100
AcDbArc
 50
270.0
 51
90.0
  0
ARC
  5
244
330
1F
100
AcDbEntity
  8
通り芯
  6
Continuous
 62
     3
370
     9
100
AcDbCircle
 10
-711.1206323512572
 20
688.3355903512795
 30
0.0
 40
10.0000000920535
100
AcDbArc
 50
90.0
 51
270.0
  0
ARC
  5
245
330
1F
100
AcDbEntity
  8
通り芯
  6
Continuous
 62
     3
370
     9
100
AcDbCircle
 10
-701.1200903402157
 20
688.3355903512795
 30
0.0
 40
10.0000000920535
100
AcDbArc
 50
270.0
 51
90.0
  0
ARC
  5
246
330
1F
100
AcDbEntity
  8
通り芯
  6
Continuous
 62
     3
370
     9
100
AcDbCircle
 10
-511.130601819538
 20
488.3445688819863
 30
0.0
 40
5.999999764918361
100
AcDbArc
 50
180.0
 51
0.0
  0
ARC
  5
247
330
1F
100
AcDbEntity
  8
通り芯
  6
Continuous
 62
     3
370
     9
100
AcDbCircle
 10
-511.130601819538
 20
498.3451108930267
 30
0.0
 40
5.999999764918361
100
AcDbArc
 50
0.0
 51
180.0
  0
ARC
  5
248
330
1F
100
AcDbEntity
  8
通り芯
  6
Continuous
 62
     3
370
     9
100
AcDbCircle
 10
-511.130601819538
 20
488.3445688819863
 30
0.0
 40
10.0000000920535
100
AcDbArc
 50
180.0
 51
0.0
  0
ARC
  5
249
330
1F
100
AcDbEntity
  8
通り芯
  6
Continuous
 62
     3
370
     9
100
AcDbCircle
 10
-511.130601819538
 20
498.3451108930267
 30
0.0
 40
10.0000000920535
100
AcDbArc
 50
0.0
 51
180.0
  0
ARC
  5
24A
330
1F
100
AcDbEntity
  8
通り芯
  6
Continuous
 62
     3
370
     9
100
AcDbCircle
 10
-736.1209964412812
 20
463.3451957295374
 30
0.0
 40
200.0000018410701
100
AcDbArc
 50
0.5730285644531194
 51
89.42704772949219
  0
ARC
  5
24B
330
1F
100
AcDbEntity
  8
通り芯
  6
Continuous
 62
     3
370
     9
100
AcDbCircle
 10
-364.1904143874074
 20
518.5156452405021
 30
0.0
 40
11.00000029480135
100
AcDbArc
 50
106.7481231689453
 51
270.1271057128906
  0
ARC
  5
24C
330
1F
100
AcDbEntity
  8
通り芯
  6
Continuous
 62
     3
370
     9
100
AcDbCircle
 10
-169.9795317954832
 20
519.1052530978708
 30
0.0
 40
11.12000051267359
100
AcDbArc
 50
275.7373352050781
 51
95.52217102050781
  0
ARC
  5
24D
330
1F
100
AcDbEntity
  8
通り芯
  6
Continuous
 62
     3
370
     9
100
AcDbCircle
 10
-163.1321531493987
 20
486.8581625188709
 30
0.0
 40
6.53000040461658
100
AcDbArc
 50
274.1580963134766
 51
89.58482360839842
  0
ARC
  5
24E
330
1F
100
AcDbEntity
  8
通り芯
  6
Continuous
 62
     3
370
     9
100
AcDbCircle
 10
-174.8390896652941
 20
556.0137140316003
 30
0.0
 40
11.12000051267359
100
AcDbArc
 50
279.4873352050781
 51
99.27217102050783
  0
ARC
  5
24F
330
1F
100
AcDbEntity
  8
通り芯
  6
Continuous
 62
     3
370
     9
100
AcDbCircle
 10
-182.1016711554753
 20
592.5248089975905
 30
0.0
 40
11.12000051267358
100
AcDbArc
 50
283.2373352050781
 51
103.0221710205078
  0
ARC
  5
250
330
1F
100
AcDbEntity
  8
通り芯
  6
Continuous
 62
     3
370
     9
100
AcDbCircle
 10
-250.3267322848949
 20
576.6172880995298
 30
0.0
 40
8.825000700573204
100
AcDbArc
 50
106.7148284912109
 51
279.5680541992188
  0
ARC
  5
251
330
1F
100
AcDbEntity
  8
通り芯
  6
Continuous
 62
     3
370
     9
100
AcDbCircle
 10
-191.73655720119
 20
628.4829607965013
 30
0.0
 40
11.12000051267359
100
AcDbArc
 50
286.9873352050781
 51
106.7721710205078
  0
ARC
  5
252
330
1F
100
AcDbEntity
  8
通り芯
  6
Continuous
 62
     3
370
     9
100
AcDbCircle
 10
-258.7754660528428
 20
608.1469398739329
 30
0.0
 40
8.825000700573204
100
AcDbArc
 50
110.464828491211
 51
283.3180541992188
  0
ARC
  5
253
330
1F
100
AcDbEntity
  8
通り芯
  6
Continuous
 62
     3
370
     9
100
AcDbCircle
 10
-203.7031193618434
 20
663.7335831665694
 30
0.0
 40
11.12000051267358
100
AcDbArc
 50
290.7373352050781
 51
110.5221710205078
  0
ARC
  5
254
330
1F
100
AcDbEntity
  8
通り芯
  6
Continuous
 62
     3
370
     9
100
AcDbCircle
 10
-269.2675131012872
 20
639.0572556637038
 30
0.0
 40
8.825000700573204
100
AcDbArc
 50
114.2148284912109
 51
287.0680541992188
  0
ARC
  5
255
330
1F
100
AcDbEntity
  8
通り芯
  6
Continuous
 62
     3
370
     9
100
AcDbCircle
 10
-217.948837945941
 20
698.1260535963326
 30
0.0
 40
11.12000051267359
100
AcDbArc
 50
294.4873352050781
 51
114.2721710205078
  0
ARC
  5
256
330
1F
100
AcDbEntity
  8
通り芯
  6
Continuous
 62
     3
370
     9
100
AcDbCircle
 10
-281.759272176909
 20
669.2144588961638
 30
0.0
 40
8.825000700573204
100
AcDbArc
 50
117.9648284912109
 51
290.8180541992188
  0
ARC
  5
257
330
1F
100
AcDbEntity
  8
通り芯
  6
Continuous
 62
     3
370
     9
100
AcDbCircle
 10
-234.4142566989574
 20
731.5137133246297
 30
0.0
 40
11.12000051267359
100
AcDbArc
 50
298.2373352050781
 51
118.0221710205078
  0
ARC
  5
258
330
1F
100
AcDbEntity
  8
通り芯
  6
Continuous
 62
     3
370
     9
100
AcDbCircle
 10
-296.1972326506354
 20
698.4907186240837
 30
0.0
 40
8.825000700573204
100
AcDbArc
 50
121.7148284912109
 51
294.5680541992188
  0
ARC
  5
259
330
1F
100
AcDbEntity
  8
通り芯
  6
Continuous
 62
     3
370
     9
100
AcDbCircle
 10
-253.027037177889
 20
763.7528764030258
 30
0.0
 40
11.12000051267359
100
AcDbArc
 50
301.9873352050781
 51
121.7721710205078
  0
ARC
  5
25A
330
1F
100
AcDbEntity
  8
通り芯
  6
Continuous
 62
     3
370
     9
100
AcDbCircle
 10
-312.5179745176404
 20
726.759194837811
 30
0.0
 40
8.825000700573204
100
AcDbArc
 50
125.4648284912109
 51
298.3180541992188
  0
ARC
  5
25B
330
1F
100
AcDbEntity
  8
通り芯
  6
Continuous
 62
     3
370
     9
100
AcDbCircle
 10
-273.7098862518512
 20
794.7058025085402
 30
0.0
 40
11.12000051267358
100
AcDbArc
 50
305.7373352050781
 51
125.5221710205078
  0
ARC
  5
25C
330
1F
100
AcDbEntity
  8
通り芯
  6
Continuous
 62
     3
370
     9
100
AcDbCircle
 10
-330.6531230852231
 20
753.9009750282974
 30
0.0
 40
8.825000700573204
100
AcDbArc
 50
129.214828491211
 51
302.0680541992188
  0
ARC
  5
25D
330
1F
100
AcDbEntity
  8
通り芯
  6
Continuous
 62
     3
370
     9
100
AcDbCircle
 10
-296.3716376639074
 20
824.2397060060664
 30
0.0
 40
11.12000051267358
100
AcDbArc
 50
309.4873352050781
 51
129.2721710205078
  0
ARC
  5
25E
330
1F
100
AcDbEntity
  8
通り芯
  6
Continuous
 62
     3
370
     9
100
AcDbCircle
 10
-350.5243942849249
 20
779.797146686493
 30
0.0
 40
8.825000700573204
100
AcDbArc
 50
132.9648284912109
 51
305.8180541992188
  0
ARC
  5
25F
330
1F
100
AcDbEntity
  8
通り芯
  6
Continuous
 62
     3
370
     9
100
AcDbCircle
 10
-320.9161704692422
 20
852.2277468859533
 30
0.0
 40
11.12000051267358
100
AcDbArc
 50
313.2373352050781
 51
133.0221710205078
  0
ARC
  5
260
330
1F
100
AcDbEntity
  8
通り芯
  6
Continuous
 62
     3
370
     9
100
AcDbCircle
 10
-372.0475584228363
 20
804.339697616678
 30
0.0
 40
8.825000700573204
100
AcDbArc
 50
136.7148284912109
 51
309.5680541992187
  0
ARC
  5
261
330
1F
100
AcDbEntity
  8
通り芯
  6
Continuous
 62
     3
370
     9
100
AcDbCircle
 10
-347.2394362224411
 20
878.5510126391505
 30
0.0
 40
11.12000051267358
100
AcDbArc
 50
316.9873352050781
 51
136.7721710205078
  0
ARC
  5
262
330
1F
100
AcDbEntity
  8
通り芯
  6
Continuous
 62
     3
370
     9
100
AcDbCircle
 10
-395.1284764292898
 20
827.4206156231331
 30
0.0
 40
8.825000700573202
100
AcDbArc
 50
140.4648284912109
 51
313.3180541992188
  0
ARC
  5
263
330
1F
100
AcDbEntity
  8
通り芯
  6
Continuous
 62
     3
370
     9
100
AcDbCircle
 10
-375.2284680399036
 20
903.096536382062
 30
0.0
 40
11.12000051267358
100
AcDbArc
 50
320.737335205078
 51
140.5221710205078
  0
ARC
  5
264
330
1F
100
AcDbEntity
  8
通り芯
  6
Continuous
 62
     3
370
     9
100
AcDbCircle
 10
-419.6710273594765
 20
848.9437797610434
 30
0.0
 40
8.825000700573202
100
AcDbArc
 50
144.2148284912109
 51
317.0680541992187
  0
ARC
  5
265
330
1F
100
AcDbEntity
  8
通り芯
  6
Continuous
 62
     3
370
     9
100
AcDbCircle
 10
-404.7623715374282
 20
925.7582877941182
 30
0.0
 40
11.12000051267359
100
AcDbArc
 50
324.4873352050781
 51
144.2721710205078
  0
ARC
  5
266
330
1F
100
AcDbEntity
  8
通り芯
  6
Continuous
 62
     3
370
     9
100
AcDbCircle
 10
-445.5681899552467
 20
868.8150509607447
 30
0.0
 40
8.825000700573206
100
AcDbArc
 50
147.964828491211
 51
320.8180541992188
  0
ARC
  5
267
330
1F
100
AcDbEntity
  8
通り芯
  6
Continuous
 62
     3
370
     9
100
AcDbCircle
 10
-435.7152976429431
 20
946.441136868081
 30
0.0
 40
11.12000051267359
100
AcDbArc
 50
328.2373352050781
 51
148.0221710205078
  0
ARC
  5
268
330
1F
100
AcDbEntity
  8
通り芯
  6
Continuous
 62
     3
370
     9
100
AcDbCircle
 10
-472.708979208159
 20
886.9501995283274
 30
0.0
 40
8.825000700573206
100
AcDbArc
 50
151.7148284912109
 51
324.5680541992188
  0
ARC
  5
269
330
1F
100
AcDbEntity
  8
通り芯
  6
Continuous
 62
     3
370
     9
100
AcDbCircle
 10
-467.9544607213386
 20
965.053917347011
 30
0.0
 40
11.12000051267359
100
AcDbArc
 50
331.9873352050781
 51
151.7721710205078
  0
ARC
  5
26A
330
1F
100
AcDbEntity
  8
通り芯
  6
Continuous
 62
     3
370
     9
100
AcDbCircle
 10
-500.9774554218864
 20
903.270941395334
 30
0.0
 40
8.825000700573206
100
AcDbArc
 50
155.464828491211
 51
328.3180541992188
  0
ARC
  5
26B
330
1F
100
AcDbEntity
  8
通り芯
  6
Continuous
 62
     3
370
     9
100
AcDbCircle
 10
-501.3421204496369
 20
981.5193361000279
 30
0.0
 40
11.12000051267359
100
AcDbArc
 50
335.7373352050781
 51
155.5221710205078
  0
ARC
  5
26C
330
1F
100
AcDbEntity
  8
通り芯
  6
Continuous
 62
     3
370
     9
100
AcDbCircle
 10
-530.2537151498057
 20
917.708901869061
 30
0.0
 40
8.825000700573206
100
AcDbArc
 50
159.2148284912109
 51
332.0680541992188
  0
ARC
  5
26D
330
1F
100
AcDbEntity
  8
通り芯
  6
Continuous
 62
     3
370
     9
100
AcDbCircle
 10
-535.7345908793984
 20
995.765054684125
 30
0.0
 40
11.12000051267359
100
AcDbArc
 50
339.4873352050781
 51
159.2721710205078
  0
ARC
  5
26E
330
1F
100
AcDbEntity
  8
通り芯
  6
Continuous
 62
     3
370
     9
100
AcDbCircle
 10
-560.4119093198408
 20
930.2006609446828
 30
0.0
 40
8.825000700573206
100
AcDbArc
 50
162.9648284912109
 51
335.8180541992188
  0
ARC
  5
26F
330
1F
100
AcDbEntity
  8
通り芯
  6
Continuous
 62
     3
370
     9
100
AcDbCircle
 10
-570.9852132494682
 20
1007.731616844779
 30
0.0
 40
11.12000051267359
100
AcDbArc
 50
343.2373352050781
 51
163.0221710205078
  0
ARC
  5
270
330
1F
100
AcDbEntity
  8
通り芯
  6
Continuous
 62
     3
370
     9
100
AcDbCircle
 10
-591.3212341720366
 20
940.6927079931261
 30
0.0
 40
8.825000700573204
100
AcDbArc
 50
166.7148284912109
 51
339.5680541992188
  0
ARC
  5
271
330
1F
100
AcDbEntity
  8
通り芯
  6
Continuous
 62
     3
370
     9
100
AcDbCircle
 10
-606.9433650483795
 20
1017.366502890493
 30
0.0
 40
11.12000051267359
100
AcDbArc
 50
346.9873352050781
 51
166.7721710205078
  0
ARC
  5
272
330
1F
100
AcDbEntity
  8
通り芯
  6
Continuous
 62
     3
370
     9
100
AcDbCircle
 10
-622.8508859464403
 20
949.1414417610735
 30
0.0
 40
8.825000700573204
100
AcDbArc
 50
170.4648284912109
 51
343.3180541992188
  0
ARC
  5
273
330
1F
100
AcDbEntity
  8
通り芯
  6
Continuous
 62
     3
370
     9
100
AcDbCircle
 10
-290.0028818667458
 20
575.091244233398
 30
0.0
 40
15.10000064221128
100
AcDbArc
 50
285.0870971679688
 51
103.0457000732422
  0
ARC
  5
274
330
1F
100
AcDbEntity
  8
通り芯
  6
Continuous
 62
     3
370
     9
100
AcDbCircle
 10
-371.3885849351884
 20
554.7056764320591
 30
0.0
 40
11.00000029480135
100
AcDbArc
 50
112.3731231689453
 51
275.7521057128906
  0
ARC
  5
275
330
1F
100
AcDbEntity
  8
通り芯
  6
Continuous
 62
     3
370
     9
100
AcDbCircle
 10
-303.1040675512434
 20
618.2802675200775
 30
0.0
 40
15.10000064221128
100
AcDbArc
 50
290.7120971679688
 51
108.6707000732422
  0
ARC
  5
276
330
1F
100
AcDbEntity
  8
通り芯
  6
Continuous
 62
     3
370
     9
100
AcDbCircle
 10
-382.099629187798
 20
590.0157550566518
 30
0.0
 40
11.00000029480135
100
AcDbArc
 50
117.9981231689453
 51
281.3771057128906
  0
ARC
  5
277
330
1F
100
AcDbEntity
  8
通り芯
  6
Continuous
 62
     3
370
     9
100
AcDbCircle
 10
-320.3751185530693
 20
659.9779297557648
 30
0.0
 40
15.10000064221128
100
AcDbArc
 50
296.3370971679688
 51
114.2957000732422
  0
ARC
  5
278
330
1F
100
AcDbEntity
  8
通り芯
  6
Continuous
 62
     3
370
     9
100
AcDbCircle
 10
-396.2194986998172
 20
624.1059895259143
 30
0.0
 40
11.00000029480135
100
AcDbArc
 50
123.6231231689453
 51
287.0021057128906
  0
ARC
  5
279
330
1F
100
AcDbEntity
  8
通り芯
  6
Continuous
 62
     3
370
     9
100
AcDbCircle
 10
-341.6505482971268
 20
699.7809193472675
 30
0.0
 40
15.10000064221128
100
AcDbArc
 50
301.9620971679688
 51
119.9207000732421
  0
ARC
  5
27A
330
1F
100
AcDbEntity
  8
通り芯
  6
Continuous
 62
     3
370
     9
100
AcDbCircle
 10
-413.6134259609928
 20
656.647388564811
 30
0.0
 40
11.00000029480135
100
AcDbArc
 50
129.2481231689453
 51
292.6271057128906
  0
ARC
  5
27B
330
1F
100
AcDbEntity
  8
通り芯
  6
Continuous
 62
     3
370
     9
100
AcDbCircle
 10
-366.7242417677328
 20
737.3077253280529
 30
0.0
 40
15.10000064221128
100
AcDbArc
 50
307.5870971679687
 51
125.5457000732421
  0
ARC
  5
27C
330
1F
100
AcDbEntity
  8
通り芯
  6
Continuous
 62
     3
370
     9
100
AcDbCircle
 10
-434.1129515835057
 20
687.327806837087
 30
0.0
 40
11.00000029480135
100
AcDbArc
 50
134.8731231689453
 51
298.2521057128906
  0
ARC
  5
27D
330
1F
100
AcDbEntity
  8
通り芯
  6
Continuous
 62
     3
370
     9
100
AcDbCircle
 10
-395.3554011340605
 20
772.1946736079456
 30
0.0
 40
15.10000064221128
100
AcDbArc
 50
313.2120971679688
 51
131.1707000732422
  0
ARC
  5
27E
330
1F
100
AcDbEntity
  8
通り芯
  6
Continuous
 62
     3
370
     9
100
AcDbCircle
 10
-457.5208789898459
 20
715.8509540076953
 30
0.0
 40
11.00000029480135
100
AcDbArc
 50
140.4981231689453
 51
303.8771057128906
  0
ARC
  5
27F
330
1F
100
AcDbEntity
  8
通り芯
  6
Continuous
 62
     3
370
     9
100
AcDbCircle
 10
-427.2685457501454
 20
804.1088091616074
 30
0.0
 40
15.10000064221128
100
AcDbArc
 50
318.8370971679688
 51
136.7957000732422
  0
ARC
  5
280
330
1F
100
AcDbEntity
  8
通り芯
  6
Continuous
 62
     3
370
     9
100
AcDbCircle
 10
-483.6122653503974
 20
741.943331305822
 30
0.0
 40
11.00000029480135
100
AcDbArc
 50
146.1231231689453
 51
309.5021057128906
  0
ARC
  5
281
330
1F
100
AcDbEntity
  8
通り芯
  6
Continuous
 62
     3
370
     9
100
AcDbCircle
 10
-462.1564849676149
 20
832.7399685279356
 30
0.0
 40
15.10000064221128
100
AcDbArc
 50
324.4620971679687
 51
142.4207000732421
  0
ARC
  5
282
330
1F
100
AcDbEntity
  8
通り芯
  6
Continuous
 62
     3
370
     9
100
AcDbCircle
 10
-512.1354125210057
 20
765.3512587121627
 30
0.0
 40
11.00000029480135
100
AcDbArc
 50
151.7481231689453
 51
315.1271057128906
  0
ARC
  5
283
330
1F
100
AcDbEntity
  8
通り芯
  6
Continuous
 62
     3
370
     9
100
AcDbCircle
 10
-499.6823000108241
 20
857.8146529361162
 30
0.0
 40
15.10000064221128
100
AcDbArc
 50
330.0870971679687
 51
148.0457000732421
  0
ARC
  5
284
330
1F
100
AcDbEntity
  8
通り芯
  6
Continuous
 62
     3
370
     9
100
AcDbCircle
 10
-542.8158307932806
 20
785.8507843346739
 30
0.0
 40
11.00000029480135
100
AcDbArc
 50
157.3731231689453
 51
320.7521057128906
  0
ARC
  5
285
330
1F
100
AcDbEntity
  8
通り芯
  6
Continuous
 62
     3
370
     9
100
AcDbCircle
 10
-539.4852896023274
 20
879.0900826801736
 30
0.0
 40
15.10000064221128
100
AcDbArc
 50
335.7120971679688
 51
153.6707000732422
  0
ARC
  5
286
330
1F
100
AcDbEntity
  8
通り芯
  6
Continuous
 62
     3
370
     9
100
AcDbCircle
 10
-575.3572298321767
 20
803.24471159585
 30
0.0
 40
11.00000029480135
100
AcDbArc
 50
162.9981231689453
 51
326.3771057128906
  0
ARC
  5
287
330
1F
100
AcDbEntity
  8
通り芯
  6
Continuous
 62
     3
370
     9
100
AcDbCircle
 10
-581.181960900439
 20
896.3611336819985
 30
0.0
 40
15.10000064221128
100
AcDbArc
 50
341.3370971679688
 51
159.2957000732422
  0
ARC
  5
288
330
1F
100
AcDbEntity
  8
通り芯
  6
Continuous
 62
     3
370
     9
100
AcDbCircle
 10
-609.4474643014398
 20
817.3655720454456
 30
0.0
 40
11.00000029480135
100
AcDbArc
 50
168.6231231689453
 51
332.0021057128906
  0
ARC
  5
289
330
1F
100
AcDbEntity
  8
通り芯
  6
Continuous
 62
     3
370
     9
100
AcDbCircle
 10
-624.3709841871184
 20
909.4623193664971
 30
0.0
 40
15.10000064221128
100
AcDbArc
 50
346.9620971679688
 51
164.9207000732422
  0
ARC
  5
28A
330
1F
100
AcDbEntity
  8
通り芯
  6
Continuous
 62
     3
370
     9
100
AcDbCircle
 10
-644.7565519884567
 20
828.0766162980551
 30
0.0
 40
11.00000029480135
100
AcDbArc
 50
174.2481231689453
 51
337.6271057128906
  0
ARC
  5
28B
330
1F
100
AcDbEntity
  8
通り芯
  6
Continuous
 62
     3
370
     9
100
AcDbCircle
 10
-408.4080308773644
 20
500.4181523007849
 30
0.0
 40
20.19899864224394
100
AcDbArc
 50
276.4048767089844
 51
94.84078979492188
  0
ARC
  5
28C
330
1F
100
AcDbEntity
  8
通り芯
  6
Continuous
 62
     3
370
     9
100
AcDbCircle
 10
-473.905040861677
 20
493.967148684864
 30
0.0
 40
13.99999993533241
100
AcDbArc
 50
114.5939025878906
 51
256.6542510986328
  0
ARC
  5
28D
330
1F
100
AcDbEntity
  8
通り芯
  6
Continuous
 62
     3
370
     9
100
AcDbCircle
 10
-424.6366155498565
 20
557.8330754200538
 30
0.0
 40
24.50000061261608
100
AcDbArc
 50
286.3119659423829
 51
107.4454956054688
  0
ARC
  5
28E
330
1F
100
AcDbEntity
  8
通り芯
  6
Continuous
 62
     3
370
     9
100
AcDbCircle
 10
-510.6648611590952
 20
531.7357434340498
 30
0.0
 40
15.60000025972897
100
AcDbArc
 50
114.2458343505859
 51
279.5182647705078
  0
ARC
  5
28F
330
1F
100
AcDbEntity
  8
通り芯
  6
Continuous
 62
     3
370
     9
100
AcDbCircle
 10
-449.0552992831151
 20
616.7849427187837
 30
0.0
 40
24.50000061261608
100
AcDbArc
 50
297.5619659423828
 51
118.6954956054688
  0
ARC
  5
290
330
1F
100
AcDbEntity
  8
通り芯
  6
Continuous
 62
     3
370
     9
100
AcDbCircle
 10
-528.3402146916881
 20
574.4065063687895
 30
0.0
 40
15.60000025972897
100
AcDbArc
 50
125.495834350586
 51
290.7682647705078
  0
ARC
  5
291
330
1F
100
AcDbEntity
  8
通り芯
  6
Continuous
 62
     3
370
     9
100
AcDbCircle
 10
-484.5051001058407
 20
669.8397405062473
 30
0.0
 40
24.50000061261608
100
AcDbArc
 50
308.8119659423828
 51
129.9454956054687
  0
ARC
  5
292
330
1F
100
AcDbEntity
  8
通り芯
  6
Continuous
 62
     3
370
     9
100
AcDbCircle
 10
-553.99955226936
 20
612.8083102286625
 30
0.0
 40
15.60000025972897
100
AcDbArc
 50
136.7458343505859
 51
302.0182647705078
  0
ARC
  5
293
330
1F
100
AcDbEntity
  8
通り芯
  6
Continuous
 62
     3
370
     9
100
AcDbCircle
 10
-529.6254607269946
 20
714.9601011274017
 30
0.0
 40
24.50000061261608
100
AcDbArc
 50
320.0619659423828
 51
141.1954956054688
  0
ARC
  5
294
330
1F
100
AcDbEntity
  8
通り芯
  6
Continuous
 62
     3
370
     9
100
AcDbCircle
 10
-586.657881942155
 20
645.4666399014575
 30
0.0
 40
15.60000025972896
100
AcDbArc
 50
147.9958343505859
 51
313.2682647705078
  0
ARC
  5
295
330
1F
100
AcDbEntity
  8
通り芯
  6
Continuous
 62
     3
370
     9
100
AcDbCircle
 10
-582.6802585144599
 20
750.4108928877024
 30
0.0
 40
24.50000061261608
100
AcDbArc
 50
331.3119659423829
 51
152.4454956054687
  0
ARC
  5
296
330
1F
100
AcDbEntity
  8
通り芯
  6
Continuous
 62
     3
370
     9
100
AcDbCircle
 10
-625.0596858020292
 20
671.12597747913
 30
0.0
 40
15.60000025972896
100
AcDbArc
 50
159.2458343505859
 51
324.5182647705078
  0
ARC
  5
297
330
1F
100
AcDbEntity
  8
通り芯
  6
Continuous
 62
     3
370
     9
100
AcDbCircle
 10
-641.6331167507649
 20
774.8295766209616
 30
0.0
 40
24.50000061261609
100
AcDbArc
 50
342.5619659423829
 51
163.6954956054688
  0
ARC
  5
298
330
1F
100
AcDbEntity
  8
通り芯
  6
Continuous
 62
     3
370
     9
100
AcDbCircle
 10
-667.7294577991931
 20
688.8003400741467
 30
0.0
 40
15.60000025972897
100
AcDbArc
 50
170.4958343505859
 51
335.7682647705078
  0
ARC
  5
299
330
1F
100
AcDbEntity
  8
通り芯
  6
Continuous
 62
     3
370
     9
100
AcDbCircle
 10
-699.0470489324587
 20
791.0581612934549
 30
0.0
 40
20.19899864224394
100
AcDbArc
 50
355.1592102050781
 51
173.5951232910156
  0
ARC
  5
29A
330
1F
100
AcDbEntity
  8
通り芯
  6
Continuous
 62
     3
370
     9
100
AcDbCircle
 10
-705.4980525483795
 20
725.56115130914
 30
0.0
 40
13.99999993533241
100
AcDbArc
 50
193.3457489013672
 51
335.4060974121094
  0
ARC
  5
29B
330
1F
100
AcDbEntity
  8
通り芯
  6
Continuous
 62
     3
370
     9
100
AcDbCircle
 10
-266.1202953617833
 20
463.3451957295374
 30
0.0
 40
80.00000073642803
100
AcDbArc
 50
1.432693481445307
 51
178.5673065185547
  0
ARC
  5
29C
330
1F
100
AcDbEntity
  8
通り芯
  6
Continuous
 62
     3
370
     9
100
AcDbCircle
 10
-266.1202953617833
 20
463.3451957295374
 30
0.0
 40
100.0000009205351
100
AcDbArc
 50
12.09437561035156
 51
13.75346374511718
  0
ARC
  5
29D
330
1F
100
AcDbEntity
  8
通り芯
  6
Continuous
 62
     3
370
     9
100
AcDbCircle
 10
-163.4512350486798
 20
485.3450008412198
 30
0.0
 40
5.000000046026752
100
AcDbArc
 50
192.0951080322266
 51
270.0
  0
ARC
  5
29E
330
1F
100
AcDbEntity
  8
通り芯
  6
Continuous
 62
     3
370
     9
100
AcDbCircle
 10
-164.1310182254111
 20
488.3088951292716
 30
0.0
 40
5.000000046026752
100
AcDbArc
 50
93.74987792968746
 51
193.7537841796874
  0
ARC
  5
29F
330
1F
100
AcDbEntity
  8
通り芯
  6
Continuous
 62
     3
370
     9
100
AcDbCircle
 10
-266.1202953617833
 20
463.3451957295374
 30
0.0
 40
100.0000009205351
100
AcDbArc
 50
28.06817626953125
 51
35.22404479980468
  0
ARC
  5
2A0
330
1F
100
AcDbEntity
  8
通り芯
  6
Continuous
 62
     3
370
     9
100
AcDbCircle
 10
-180.3457297718492
 20
523.9063456507334
 30
0.0
 40
5.000000046026752
100
AcDbArc
 50
97.50038146972655
 51
215.2239990234375
  0
ARC
  5
2A1
330
1F
100
AcDbEntity
  8
通り芯
  6
Continuous
 62
     3
370
     9
100
AcDbCircle
 10
-173.4696139360781
 20
512.7503704267649
 30
0.0
 40
5.000000046026752
100
AcDbArc
 50
208.0683898925781
 51
273.748550415039
  0
ARC
  5
2A2
330
1F
100
AcDbEntity
  8
通り芯
  6
Continuous
 62
     3
370
     9
100
AcDbCircle
 10
-266.1202953617833
 20
463.3451957295374
 30
0.0
 40
100.0000009205351
100
AcDbArc
 50
52.19306945800781
 51
60.20683288574218
  0
ARC
  5
2A3
330
1F
100
AcDbEntity
  8
通り芯
  6
Continuous
 62
     3
370
     9
100
AcDbCircle
 10
-213.9494138915863
 20
554.4668604763852
 30
0.0
 40
5.000000046026752
100
AcDbArc
 50
101.2500762939453
 51
240.2073211669922
  0
ARC
  5
2A4
330
1F
100
AcDbEntity
  8
通り芯
  6
Continuous
 62
     3
370
     9
100
AcDbCircle
 10
-201.7549360885884
 20
546.3035167301557
 30
0.0
 40
5.000000046026752
100
AcDbArc
 50
232.1926727294922
 51
277.4996795654297
  0
ARC
  5
2A5
330
1F
100
AcDbEntity
  8
通り芯
  6
Continuous
 62
     3
370
     9
100
AcDbCircle
 10
-266.1202953617833
 20
463.3451957295374
 30
0.0
 40
100.0000009205351
100
AcDbArc
 50
142.2933502197266
 51
151.7218475341797
  0
ARC
  5
2A6
330
1F
100
AcDbEntity
  8
通り芯
  6
Continuous
 62
     3
370
     9
100
AcDbCircle
 10
-358.5896352111893
 20
513.0892710775554
 30
0.0
 40
5.000000046026752
100
AcDbArc
 50
275.6257019042969
 51
331.7223663330078
  0
ARC
  5
2A7
330
1F
100
AcDbEntity
  8
通り芯
  6
Continuous
 62
     3
370
     9
100
AcDbCircle
 10
-349.1915832459988
 20
527.564887179148
 30
0.0
 40
5.000000046026752
100
AcDbArc
 50
322.2938842773438
 51
101.2500762939453
  0
ARC
  5
2A8
330
1F
100
AcDbEntity
  8
通り芯
  6
Continuous
 62
     3
370
     9
100
AcDbCircle
 10
-680.949555992742
 20
835.2757777834101
 30
0.0
 40
11.00000029480135
100
AcDbArc
 50
179.8728942871093
 51
343.2518768310547
  0
ARC
  5
2A9
330
1F
100
AcDbEntity
  8
通り芯
  6
Continuous
 62
     3
370
     9
100
AcDbCircle
 10
-680.3609390729473
 20
1029.485669437759
 30
0.0
 40
11.12000051267359
100
AcDbArc
 50
354.4778289794922
 51
174.2626647949219
  0
ARC
  5
2AA
330
1F
100
AcDbEntity
  8
通り芯
  6
Continuous
 62
     3
370
     9
100
AcDbCircle
 10
-712.608029651946
 20
1036.333048083845
 30
0.0
 40
6.53000040461658
100
AcDbArc
 50
0.4151763916015545
 51
175.8419036865234
  0
ARC
  5
2AB
330
1F
100
AcDbEntity
  8
通り芯
  6
Continuous
 62
     3
370
     9
100
AcDbCircle
 10
-643.4524781392172
 20
1024.626111567948
 30
0.0
 40
11.12000051267359
100
AcDbArc
 50
350.7281188964844
 51
170.5129547119141
  0
ARC
  5
2AC
330
1F
100
AcDbEntity
  8
通り芯
  6
Continuous
 62
     3
370
     9
100
AcDbCircle
 10
-736.120005503705
 20
933.3449058714591
 30
0.0
 40
80.00000073642803
100
AcDbArc
 50
271.4326934814453
 51
88.56730651855469
  0
ARC
  5
2AD
330
1F
100
AcDbEntity
  8
通り芯
  6
Continuous
 62
     3
370
     9
100
AcDbCircle
 10
-736.120005503705
 20
933.3449058714591
 30
0.0
 40
100.0000009205351
100
AcDbArc
 50
76.24653625488281
 51
77.90562438964844
  0
ARC
  5
2AE
330
1F
100
AcDbEntity
  8
通り芯
  6
Continuous
 62
     3
370
     9
100
AcDbCircle
 10
-714.1202003920232
 20
1036.013966184562
 30
0.0
 40
5.000000046026752
100
AcDbArc
 50
180.0
 51
257.9048919677734
  0
ARC
  5
2AF
330
1F
100
AcDbEntity
  8
通り芯
  6
Continuous
 62
     3
370
     9
100
AcDbCircle
 10
-711.157297041547
 20
1035.334183007831
 30
0.0
 40
5.000000046026752
100
AcDbArc
 50
256.2462158203125
 51
356.2501220703125
  0
ARC
  5
2B0
330
1F
100
AcDbEntity
  8
通り芯
  6
Continuous
 62
     3
370
     9
100
AcDbCircle
 10
-736.120005503705
 20
933.3449058714591
 30
0.0
 40
100.0000009205351
100
AcDbArc
 50
54.77595520019532
 51
61.93182373046876
  0
ARC
  5
2B1
330
1F
100
AcDbEntity
  8
通り芯
  6
Continuous
 62
     3
370
     9
100
AcDbCircle
 10
-675.5588555825095
 20
1019.119471461394
 30
0.0
 40
5.000000046026752
100
AcDbArc
 50
234.7760009765625
 51
352.4996185302734
  0
ARC
  5
2B2
330
1F
100
AcDbEntity
  8
通り芯
  6
Continuous
 62
     3
370
     9
100
AcDbCircle
 10
-686.7158217440526
 20
1025.995587297165
 30
0.0
 40
5.000000046026752
100
AcDbArc
 50
176.2514495849609
 51
241.9316101074218
  0
ARC
  5
2B3
330
1F
100
AcDbEntity
  8
通り芯
  6
Continuous
 62
     3
370
     9
100
AcDbCircle
 10
-736.120005503705
 20
933.3449058714591
 30
0.0
 40
100.0000009205351
100
AcDbArc
 50
29.79316711425779
 51
37.80693054199217
  0
ARC
  5
2B4
330
1F
100
AcDbEntity
  8
通り芯
  6
Continuous
 62
     3
370
     9
100
AcDbCircle
 10
-644.9983407568577
 20
985.5167782792323
 30
0.0
 40
5.000000046026752
100
AcDbArc
 50
209.7926788330078
 51
348.7499237060546
  0
ARC
  5
2B5
330
1F
100
AcDbEntity
  8
通り芯
  6
Continuous
 62
     3
370
     9
100
AcDbCircle
 10
-653.1616845030878
 20
997.7102651446556
 30
0.0
 40
5.000000046026752
100
AcDbArc
 50
172.5003204345703
 51
217.8073272705078
  0
ARC
  5
2B6
330
1F
100
AcDbEntity
  8
通り芯
  6
Continuous
 62
     3
370
     9
100
AcDbCircle
 10
-736.120005503705
 20
933.3449058714591
 30
0.0
 40
100.0000009205351
100
AcDbArc
 50
298.2781524658203
 51
307.7066497802734
  0
ARC
  5
2B7
330
1F
100
AcDbEntity
  8
通り芯
  6
Continuous
 62
     3
370
     9
100
AcDbCircle
 10
-686.3759301556881
 20
840.8755660220537
 30
0.0
 40
5.000000046026752
100
AcDbArc
 50
118.2776336669922
 51
174.3742980957031
  0
ARC
  5
2B8
330
1F
100
AcDbEntity
  8
通り芯
  6
Continuous
 62
     3
370
     9
100
AcDbCircle
 10
-671.9003140540956
 20
850.2736179872442
 30
0.0
 40
5.000000046026752
100
AcDbArc
 50
348.7499237060547
 51
127.7061157226562
  0
LINE
  5
2B9
330
1F
100
AcDbEntity
  8
通り芯
  6
Continuous
 62
     3
370
     9
100
AcDbLine
 10
-771.1219025423468
 20
244.3559190644798
 30
0.0
 11
-761.1213605313053
 21
244.3559190644798
 31
0.0
  0
LINE
  5
2BA
330
1F
100
AcDbEntity
  8
通り芯
  6
Continuous
 62
     3
370
     9
100
AcDbLine
 10
-771.1219025423468
 20
232.3556650262616
 30
0.0
 11
-761.1213605313053
 21
232.3556650262616
 31
0.0
  0
LINE
  5
2BB
330
1F
100
AcDbEntity
  8
通り芯
  6
JWW_CENTER1
 62
     3
370
     9
100
AcDbLine
 10
-743.9246298476376
 20
238.3548011077953
 30
0.0
 11
-789.2164226693369
 21
238.3548011077953
 31
0.0
  0
LINE
  5
2BC
330
1F
100
AcDbEntity
  8
通り芯
  6
JWW_CENTER1
 62
     3
370
     9
100
AcDbLine
 10
-766.1216315368272
 20
220.2186616026374
 30
0.0
 11
-766.1216315368272
 21
256.1460943367108
 31
0.0
  0
LINE
  5
2BD
330
1F
100
AcDbEntity
  8
通り芯
  6
Continuous
 62
     3
370
     9
100
AcDbLine
 10
-771.1219025423468
 20
228.3552500343306
 30
0.0
 11
-761.1213605313053
 21
228.3552500343306
 31
0.0
  0
LINE
  5
2BE
330
1F
100
AcDbEntity
  8
通り芯
  6
Continuous
 62
     3
370
     9
100
AcDbLine
 10
-771.1219025423468
 20
248.3553431188356
 30
0.0
 11
-761.1213605313053
 21
248.3553431188356
 31
0.0
  0
LINE
  5
2BF
330
1F
100
AcDbEntity
  8
通り芯
  6
Continuous
 62
     3
370
     9
100
AcDbLine
 10
-955.1112640439139
 20
428.3452805660481
 30
0.0
 11
-955.1112640439139
 21
438.3458225770885
 31
0.0
  0
LINE
  5
2C0
330
1F
100
AcDbEntity
  8
通り芯
  6
Continuous
 62
     3
370
     9
100
AcDbLine
 10
-967.1115180821328
 20
428.3452805660481
 30
0.0
 11
-967.1115180821328
 21
438.3458225770885
 31
0.0
  0
LINE
  5
2C1
330
1F
100
AcDbEntity
  8
通り芯
  6
JWW_CENTER1
 62
     3
370
     9
100
AcDbLine
 10
-961.1113910630245
 20
455.5425532607574
 30
0.0
 11
-961.1113910630245
 21
410.2507604390574
 31
0.0
  0
LINE
  5
2C2
330
1F
100
AcDbEntity
  8
通り芯
  6
JWW_CENTER1
 62
     3
370
     9
100
AcDbLine
 10
-979.2475305681812
 20
433.3455515715683
 30
0.0
 11
-943.321088771683
 21
433.3455515715683
 31
0.0
  0
LINE
  5
2C3
330
1F
100
AcDbEntity
  8
通り芯
  6
Continuous
 62
     3
370
     9
100
AcDbLine
 10
-971.1119330740637
 20
428.3452805660481
 30
0.0
 11
-971.1119330740637
 21
438.3458225770885
 31
0.0
  0
LINE
  5
2C4
330
1F
100
AcDbEntity
  8
通り芯
  6
Continuous
 62
     3
370
     9
100
AcDbLine
 10
-951.110849051983
 20
428.3452805660481
 30
0.0
 11
-951.110849051983
 21
438.3458225770885
 31
0.0
  0
LINE
  5
2C5
330
1F
100
AcDbEntity
  8
通り芯
  6
Continuous
 62
     3
370
     9
100
AcDbLine
 10
-1286.892028354891
 20
323.5308404021821
 30
0.0
 11
-1219.887802318378
 21
341.4846473934647
 31
0.0
  0
LINE
  5
2C6
330
1F
100
AcDbEntity
  8
通り芯
  6
Continuous
 62
     3
370
     9
100
AcDbLine
 10
-1291.929954988277
 20
345.1412070467284
 30
0.0
 11
-1223.892181060611
 21
358.674441514106
 31
0.0
  0
LINE
  5
2C7
330
1F
100
AcDbEntity
  8
通り芯
  6
Continuous
 62
     3
370
     9
100
AcDbLine
 10
-1276.568440694268
 20
287.807540808643
 30
0.0
 11
-1210.881170695474
 21
310.1056181305238
 31
0.0
  0
LINE
  5
2C8
330
1F
100
AcDbEntity
  8
通り芯
  6
Continuous
 62
     3
370
     9
100
AcDbLine
 10
-1283.009534934435
 20
309.0423421121089
 30
0.0
 11
-1216.001345147619
 21
326.9971400409667
 31
0.0
  0
LINE
  5
2C9
330
1F
100
AcDbEntity
  8
通り芯
  6
Continuous
 62
     3
370
     9
100
AcDbLine
 10
-1263.93101379506
 20
252.8363628348403
 30
0.0
 11
-1199.842126105404
 21
279.3825895425055
 31
0.0
  0
LINE
  5
2CA
330
1F
100
AcDbEntity
  8
通り芯
  6
Continuous
 62
     3
370
     9
100
AcDbLine
 10
-1271.74653845232
 20
273.6044325402883
 30
0.0
 11
-1206.056295640803
 21
295.902509862169
 31
0.0
  0
LINE
  5
2CB
330
1F
100
AcDbEntity
  8
通り芯
  6
Continuous
 62
     3
370
     9
100
AcDbLine
 10
-1249.032267348768
 20
218.766938054661
 30
0.0
 11
-1186.818233551787
 21
249.4473563269376
 31
0.0
  0
LINE
  5
2CC
330
1F
100
AcDbEntity
  8
通り芯
  6
Continuous
 62
     3
370
     9
100
AcDbLine
 10
-1258.189521483134
 20
238.9790917803036
 30
0.0
 11
-1194.098651918327
 21
265.5263094255439
 31
0.0
  0
LINE
  5
2CD
330
1F
100
AcDbEntity
  8
通り芯
  6
Continuous
 62
     3
370
     9
100
AcDbLine
 10
-1231.938594172943
 20
185.7439433541155
 30
0.0
 11
-1171.863003663697
 21
220.4287403686241
 31
0.0
  0
LINE
  5
2CE
330
1F
100
AcDbEntity
  8
通り芯
  6
Continuous
 62
     3
370
     9
100
AcDbLine
 10
-1242.397940281398
 20
205.3139695308919
 30
0.0
 11
-1180.179942734114
 21
235.9963696783193
 31
0.0
  0
LINE
  5
2CF
330
1F
100
AcDbEntity
  8
通り芯
  6
Continuous
 62
     3
370
     9
100
AcDbLine
 10
-1212.720350835436
 20
153.9110646816373
 30
0.0
 11
-1155.042829258684
 21
192.4496179269163
 31
0.0
  0
LINE
  5
2D0
330
1F
100
AcDbEntity
  8
通り芯
  6
Continuous
 62
     3
370
     9
100
AcDbLine
 10
-1224.437196727087
 20
172.7547336156378
 30
0.0
 11
-1164.359624342691
 21
207.439530630147
 31
0.0
  0
LINE
  5
2D1
330
1F
100
AcDbEntity
  8
通り芯
  6
Continuous
 62
     3
370
     9
100
AcDbLine
 10
-1191.461767030159
 20
123.4020786099067
 30
0.0
 11
-1136.428066904602
 21
165.6308833860139
 31
0.0
  0
LINE
  5
2D2
330
1F
100
AcDbEntity
  8
通り芯
  6
Continuous
 62
     3
370
     9
100
AcDbLine
 10
-1204.386565826236
 20
141.4391243575237
 30
0.0
 11
-1146.706071436758
 21
179.9796594779541
 31
0.0
  0
LINE
  5
2D3
330
1F
100
AcDbEntity
  8
通り芯
  6
Continuous
 62
     3
370
     9
100
AcDbLine
 10
-1168.254009014053
 20
94.34877983645421
 30
0.0
 11
-1116.099973482637
 21
140.0864945670888
 31
0.0
  0
LINE
  5
2D4
330
1F
100
AcDbEntity
  8
通り芯
  6
Continuous
 62
     3
370
     9
100
AcDbLine
 10
-1182.330277272755
 20
111.5019092668051
 30
0.0
 11
-1127.29360433447
 21
153.7326959180631
 31
0.0
  0
LINE
  5
2D5
330
1F
100
AcDbEntity
  8
通り芯
  6
Continuous
 62
     3
370
     9
100
AcDbLine
 10
-1143.195179607077
 20
66.87602649578125
 30
0.0
 11
-1094.143769624272
 21
115.9264455410123
 31
0.0
  0
LINE
  5
2D6
330
1F
100
AcDbEntity
  8
通り芯
  6
Continuous
 62
     3
370
     9
100
AcDbLine
 10
-1158.363461073883
 20
83.07191022828576
 30
0.0
 11
-1106.20645272974
 21
128.8116068340712
 31
0.0
  0
LINE
  5
2D7
330
1F
100
AcDbEntity
  8
通り芯
  6
Continuous
 62
     3
370
     9
100
AcDbLine
 10
-1116.393291004958
 20
41.10074922178555
 30
0.0
 11
-1070.655576274323
 21
93.25478475320139
 31
0.0
  0
LINE
  5
2D8
330
1F
100
AcDbEntity
  8
通り芯
  6
Continuous
 62
     3
370
     9
100
AcDbLine
 10
-1132.588183799887
 20
56.27002162616506
 30
0.0
 11
-1083.534791941931
 21
105.3234134841226
 31
0.0
  0
LINE
  5
2D9
330
1F
100
AcDbEntity
  8
通り芯
  6
Continuous
 62
     3
370
     9
100
AcDbLine
 10
-1087.962301028862
 20
17.13393302291351
 30
0.0
 11
-1045.733496252755
 21
72.16763314847171
 31
0.0
  0
LINE
  5
2DA
330
1F
100
AcDbEntity
  8
通り芯
  6
Continuous
 62
     3
370
     9
100
AcDbLine
 10
-1105.114439521639
 20
31.21119221919159
 30
0.0
 11
-1059.374742915854
 21
83.36720962575825
 31
0.0
  0
LINE
  5
2DB
330
1F
100
AcDbEntity
  8
通り芯
  6
Continuous
 62
     3
370
     9
100
AcDbLine
 10
-1058.026076875719
 20
-4.922355530567444
 30
0.0
 11
-1019.486532692865
 21
52.75516604618517
 31
0.0
  0
LINE
  5
2DC
330
1F
100
AcDbEntity
  8
通り芯
  6
Continuous
 62
     3
370
     9
100
AcDbLine
 10
-1076.062131685762
 20
8.00244326550839
 30
0.0
 11
-1033.831345034504
 21
63.03911620379253
 31
0.0
  0
LINE
  5
2DD
330
1F
100
AcDbEntity
  8
通り芯
  6
Continuous
 62
     3
370
     9
100
AcDbLine
 10
-1026.710467617606
 20
-24.97397736899316
 30
0.0
 11
-992.0256706030971
 21
35.10161314025183
 31
0.0
  0
LINE
  5
2DE
330
1F
100
AcDbEntity
  8
通り芯
  6
Continuous
 62
     3
370
     9
100
AcDbLine
 10
-1045.553145614032
 20
-13.25614053976736
 30
0.0
 11
-1007.012610493602
 21
44.4243538497112
 31
0.0
  0
LINE
  5
2DF
330
1F
100
AcDbEntity
  8
通り芯
  6
Continuous
 62
     3
370
     9
100
AcDbLine
 10
-994.1502407647765
 20
-42.93372998572821
 30
0.0
 11
-963.4698224924994
 21
19.28129474882766
 31
0.0
  0
LINE
  5
2E0
330
1F
100
AcDbEntity
  8
通り芯
  6
Continuous
 62
     3
370
     9
100
AcDbLine
 10
-1013.719276003978
 20
-32.47339293969802
 30
0.0
 11
-979.0334880518928
 21
27.60417944469836
 31
0.0
  0
LINE
  5
2E1
330
1F
100
AcDbEntity
  8
通り芯
  6
Continuous
 62
     3
370
     9
100
AcDbLine
 10
-960.4861094529399
 20
-58.72630212504149
 30
0.0
 11
-933.9398827452753
 21
5.361594627039921
 31
0.0
  0
LINE
  5
2E2
330
1F
100
AcDbEntity
  8
通り芯
  6
Continuous
 62
     3
370
     9
100
AcDbLine
 10
-980.6972722410062
 20
-49.56805705310003
 30
0.0
 11
-950.0148720935788
 21
12.64994049418235
 31
0.0
  0
LINE
  5
2E3
330
1F
100
AcDbEntity
  8
通り芯
  6
Continuous
 62
     3
370
     9
100
AcDbLine
 10
-925.8597777553807
 20
-72.28232815665322
 30
0.0
 11
-903.5626913710751
 21
-6.595058157859768
 31
0.0
  0
LINE
  5
2E4
330
1F
100
AcDbEntity
  8
通り芯
  6
Continuous
 62
     3
370
     9
100
AcDbLine
 10
-946.6278474608287
 20
-64.46581256181744
 30
0.0
 11
-920.0796388780116
 21
-0.3749429970095264
 31
0.0
  0
LINE
  5
2E5
330
1F
100
AcDbEntity
  8
通り芯
  6
Continuous
 62
     3
370
     9
100
AcDbLine
 10
-890.4218681835589
 20
-83.54532463876595
 30
0.0
 11
-872.4680611922774
 21
-16.54010766467664
 31
0.0
  0
LINE
  5
2E6
330
1F
100
AcDbEntity
  8
通り芯
  6
Continuous
 62
     3
370
     9
100
AcDbLine
 10
-911.6556785494497
 20
-77.10323946102406
 30
0.0
 11
-889.3576012275678
 21
-11.41398758707979
 31
0.0
  0
LINE
  5
2E7
330
1F
100
AcDbEntity
  8
通り芯
  6
Continuous
 62
     3
370
     9
100
AcDbLine
 10
-854.3239941865152
 20
-92.46673563018433
 30
0.0
 11
-840.7907597191381
 21
-24.43094357766839
 31
0.0
  0
LINE
  5
2E8
330
1F
100
AcDbEntity
  8
通り芯
  6
Continuous
 62
     3
370
     9
100
AcDbLine
 10
-875.9333698934863
 20
-87.42781805922348
 30
0.0
 11
-857.9785719646286
 21
-20.41962827240823
 31
0.0
  0
LINE
  5
2E9
330
1F
100
AcDbEntity
  8
通り芯
  6
Continuous
 62
     3
370
     9
100
AcDbLine
 10
-1178.830285756405
 20
336.888678918712
 30
0.0
 11
-1096.666696691267
 21
361.8127408154298
 31
0.0
  0
LINE
  5
2EA
330
1F
100
AcDbEntity
  8
通り芯
  6
Continuous
 62
     3
370
     9
100
AcDbLine
 10
-1186.169169439894
 20
366.1778208351119
 30
0.0
 11
-1101.956321468805
 21
382.9296205474218
 31
0.0
  0
LINE
  5
2EB
330
1F
100
AcDbEntity
  8
通り芯
  6
Continuous
 62
     3
370
     9
100
AcDbLine
 10
-1174.478087925203
 20
322.5339572013194
 30
0.0
 11
-1092.312516984913
 21
347.4590100356129
 31
0.0
  0
LINE
  5
2EC
330
1F
100
AcDbEntity
  8
通り芯
  6
Continuous
 62
     3
370
     9
100
AcDbLine
 10
-1145.65369573167
 20
252.9503206560126
 30
0.0
 11
-1069.931200906698
 21
293.4251659236434
 31
0.0
  0
LINE
  5
2ED
330
1F
100
AcDbEntity
  8
通り芯
  6
Continuous
 62
     3
370
     9
100
AcDbLine
 10
-1158.565612339266
 20
280.2456961706877
 30
0.0
 11
-1079.239077552526
 21
313.1041952337152
 31
0.0
  0
LINE
  5
2EE
330
1F
100
AcDbEntity
  8
通り芯
  6
Continuous
 62
     3
370
     9
100
AcDbLine
 10
-1123.060319012317
 20
213.8221595533643
 30
0.0
 11
-1051.669212329463
 21
261.5239125584621
 31
0.0
  0
LINE
  5
2EF
330
1F
100
AcDbEntity
  8
通り芯
  6
Continuous
 62
     3
370
     9
100
AcDbLine
 10
-1138.585338006271
 20
239.7203130867108
 30
0.0
 11
-1062.860861306146
 21
280.1961492919172
 31
0.0
  0
LINE
  5
2F0
330
1F
100
AcDbEntity
  8
通り芯
  6
Continuous
 62
     3
370
     9
100
AcDbLine
 10
-1096.739035134271
 20
177.0970220710858
 30
0.0
 11
-1030.368018208446
 21
231.5668787162353
 31
0.0
  0
LINE
  5
2F1
330
1F
100
AcDbEntity
  8
通り芯
  6
Continuous
 62
     3
370
     9
100
AcDbLine
 10
-1114.728515878268
 20
201.3492282916756
 30
0.0
 11
-1043.335427320264
 21
249.0519722343485
 31
0.0
  0
LINE
  5
2F2
330
1F
100
AcDbEntity
  8
通り芯
  6
Continuous
 62
     3
370
     9
100
AcDbLine
 10
-1066.945505991986
 20
143.1286729235983
 30
0.0
 11
-1006.232742621752
 21
203.8424272314079
 31
0.0
  0
LINE
  5
2F3
330
1F
100
AcDbEntity
  8
通り芯
  6
Continuous
 62
     3
370
     9
100
AcDbLine
 10
-1087.225043472758
 20
165.501070563635
 30
0.0
 11
-1020.85204467178
 21
219.9719181463603
 31
0.0
  0
LINE
  5
2F4
330
1F
100
AcDbEntity
  8
通り芯
  6
Continuous
 62
     3
370
     9
100
AcDbLine
 10
-1033.967103482334
 20
112.2441215107874
 30
0.0
 11
-979.4972468371855
 21
178.6161293741894
 31
0.0
  0
LINE
  5
2F5
330
1F
100
AcDbEntity
  8
通り芯
  6
Continuous
 62
     3
370
     9
100
AcDbLine
 10
-1056.341482997522
 20
132.5206861788318
 30
0.0
 11
-995.6267377521378
 21
193.2354314242166
 31
0.0
  0
LINE
  5
2F6
330
1F
100
AcDbEntity
  8
通り芯
  6
Continuous
 62
     3
370
     9
100
AcDbLine
 10
-998.1189457542944
 20
84.74164004285214
 30
0.0
 11
-950.4171927491955
 21
156.1327467257068
 31
0.0
  0
LINE
  5
2F7
330
1F
100
AcDbEntity
  8
通り芯
  6
Continuous
 62
     3
370
     9
100
AcDbLine
 10
-1022.373133850034
 20
102.7271570365478
 30
0.0
 11
-967.9022862673098
 21
169.100155837525
 31
0.0
  0
LINE
  5
2F8
330
1F
100
AcDbEntity
  8
通り芯
  6
Continuous
 62
     3
370
     9
100
AcDbLine
 10
-959.7478609592592
 20
60.88382697727511
 30
0.0
 11
-919.273015691628
 21
136.6073127398236
 31
0.0
  0
LINE
  5
2F9
330
1F
100
AcDbEntity
  8
通り芯
  6
Continuous
 62
     3
370
     9
100
AcDbLine
 10
-985.6479963677559
 20
76.40587315850141
 30
0.0
 11
-937.945252425083
 21
147.7989617165069
 31
0.0
  0
LINE
  5
2FA
330
1F
100
AcDbEntity
  8
通り芯
  6
Continuous
 62
     3
370
     9
100
AcDbLine
 10
-919.2234688128581
 20
40.90355264427885
 30
0.0
 11
-886.3649697498288
 21
120.2290964934433
 31
0.0
  0
LINE
  5
2FB
330
1F
100
AcDbEntity
  8
通り芯
  6
Continuous
 62
     3
370
     9
100
AcDbLine
 10
-946.5198352651071
 20
53.81150550157244
 30
0.0
 11
-906.0449899974781
 21
129.5359822016961
 31
0.0
  0
LINE
  5
2FC
330
1F
100
AcDbEntity
  8
通り芯
  6
Continuous
 62
     3
370
     9
100
AcDbLine
 10
-876.9352077822252
 20
24.99008612076565
 30
0.0
 11
-852.0111458855074
 21
107.154666123481
 31
0.0
  0
LINE
  5
2FD
330
1F
100
AcDbEntity
  8
通り芯
  6
Continuous
 62
     3
370
     9
100
AcDbLine
 10
-905.3661977583208
 20
35.16106939477638
 30
0.0
 11
-872.5076986952938
 21
114.4885951190916
 31
0.0
  0
LINE
  5
2FE
330
1F
100
AcDbEntity
  8
通り芯
  6
Continuous
 62
     3
370
     9
100
AcDbLine
 10
-833.2913441484327
 20
13.29900460607618
 30
0.0
 11
-816.5405353736985
 21
97.51086163958846
 31
0.0
  0
LINE
  5
2FF
330
1F
100
AcDbEntity
  8
通り芯
  6
Continuous
 62
     3
370
     9
100
AcDbLine
 10
-862.5814770024083
 20
20.63392453926255
 30
0.0
 11
-837.6574151056905
 21
102.8004864171281
 31
0.0
  0
LINE
  5
300
330
1F
100
AcDbEntity
  8
通り芯
  6
Continuous
 62
     3
370
     9
100
AcDbLine
 10
-1164.304131838466
 20
294.1039581627995
 30
0.0
 11
-1084.978587989303
 21
326.9624572258276
 31
0.0
  0
LINE
  5
301
330
1F
100
AcDbEntity
  8
通り芯
  6
Continuous
 62
     3
370
     9
100
AcDbLine
 10
-1066.087354051682
 20
446.3446706857995
 30
0.0
 11
-995.1055045874721
 21
446.3446706857995
 31
0.0
  0
LINE
  5
302
330
1F
100
AcDbEntity
  8
通り芯
  6
Continuous
 62
     3
370
     9
100
AcDbLine
 10
-1062.129549375494
 20
406.1453060641326
 30
0.0
 11
-992.510239077473
 21
419.9936586804909
 31
0.0
  0
LINE
  5
303
330
1F
100
AcDbEntity
  8
通り芯
  6
Continuous
 62
     3
370
     9
100
AcDbLine
 10
-1040.260548023766
 20
345.4850623853956
 30
0.0
 11
-955.1707202984396
 21
380.7307300675864
 31
0.0
  0
LINE
  5
304
330
1F
100
AcDbEntity
  8
通り芯
  6
Continuous
 62
     3
370
     9
100
AcDbLine
 10
-1054.486447856354
 20
392.3712737659308
 30
0.0
 11
-964.1565422322599
 21
410.3399448208443
 31
0.0
  0
LINE
  5
305
330
1F
100
AcDbEntity
  8
通り芯
  6
Continuous
 62
     3
370
     9
100
AcDbLine
 10
-1011.423273641753
 20
288.4149855423697
 30
0.0
 11
-934.8436178140485
 21
339.583038186252
 31
0.0
  0
LINE
  5
306
330
1F
100
AcDbEntity
  8
通り芯
  6
Continuous
 62
     3
370
     9
100
AcDbLine
 10
-1034.523019462139
 20
331.6258094557081
 30
0.0
 11
-949.4341826743896
 21
366.8704862003237
 31
0.0
  0
LINE
  5
307
330
1F
100
AcDbEntity
  8
通り芯
  6
Continuous
 62
     3
370
     9
100
AcDbLine
 10
-972.0057587670833
 20
238.0674292109266
 30
0.0
 11
-906.8813413111222
 21
303.1928376044623
 31
0.0
  0
LINE
  5
308
330
1F
100
AcDbEntity
  8
通り芯
  6
Continuous
 62
     3
370
     9
100
AcDbLine
 10
-1003.092461445278
 20
275.9410633431053
 30
0.0
 11
-926.5137965551519
 21
327.1091159869882
 31
0.0
  0
LINE
  5
309
330
1F
100
AcDbEntity
  8
通り芯
  6
Continuous
 62
     3
370
     9
100
AcDbLine
 10
-923.5241378901371
 20
196.3767035382669
 30
0.0
 11
-872.3550943086791
 21
272.9563593659701
 31
0.0
  0
LINE
  5
30A
330
1F
100
AcDbEntity
  8
通り芯
  6
Continuous
 62
     3
370
     9
100
AcDbLine
 10
-961.4017357726191
 20
227.4584515285845
 30
0.0
 11
-896.277318316658
 21
292.582868984545
 31
0.0
  0
LINE
  5
30B
330
1F
100
AcDbEntity
  8
通り芯
  6
Continuous
 62
     3
370
     9
100
AcDbLine
 10
-867.8403827151117
 20
164.9461455214053
 30
0.0
 11
-832.5947150329209
 21
250.0369641843064
 31
0.0
  0
LINE
  5
30C
330
1F
100
AcDbEntity
  8
通り芯
  6
Continuous
 62
     3
370
     9
100
AcDbLine
 10
-911.0541794411749
 20
188.0409366539162
 30
0.0
 11
-859.8861267972932
 21
264.6196015440437
 31
0.0
  0
LINE
  5
30D
330
1F
100
AcDbEntity
  8
通り芯
  6
Continuous
 62
     3
370
     9
100
AcDbLine
 10
-807.0949184048884
 20
144.9827171271907
 30
0.0
 11
-789.1262473499744
 21
235.3146046264366
 31
0.0
  0
LINE
  5
30E
330
1F
100
AcDbEntity
  8
通り芯
  6
Continuous
 62
     3
370
     9
100
AcDbLine
 10
-853.9831116605744
 20
159.2026713343277
 30
0.0
 11
-818.7384349159577
 21
244.2924990596536
 31
0.0
  0
LINE
  5
30F
330
1F
100
AcDbEntity
  8
通り芯
  6
Continuous
 62
     3
370
     9
100
AcDbLine
 10
-753.1215214850197
 20
133.3788381191373
 30
0.0
 11
-753.1215214850197
 21
204.3616785209228
 31
0.0
  0
LINE
  5
310
330
1F
100
AcDbEntity
  8
通り芯
  6
Continuous
 62
     3
370
     9
100
AcDbLine
 10
-793.3218770442606
 20
137.3366427953253
 30
0.0
 11
-779.4735244279029
 21
206.9559530933468
 31
0.0
  0
LINE
  5
311
330
1F
100
AcDbEntity
  8
通り芯
  6
Continuous
 62
     3
370
     9
100
AcDbLine
 10
-1309.582516956636
 20
446.3456616233752
 30
0.0
 11
-1308.790757833883
 21
446.3456616233752
 31
0.0
  0
LINE
  5
312
330
1F
100
AcDbEntity
  8
通り芯
  6
Continuous
 62
     3
370
     9
100
AcDbLine
 10
-1309.15641379921
 20
433.3029412558254
 30
0.0
 11
-1307.783965257265
 21
433.3931165751879
 31
0.0
  0
LINE
  5
313
330
1F
100
AcDbEntity
  8
通り芯
  6
Continuous
 62
     3
370
     9
100
AcDbLine
 10
-1302.604334550596
 20
418.6994942070048
 30
0.0
 11
-1299.099388346371
 21
418.9293917245003
 31
0.0
  0
LINE
  5
314
330
1F
100
AcDbEntity
  8
通り芯
  6
Continuous
 62
     3
370
     9
100
AcDbLine
 10
-1300.430217510147
 20
396.6174412765632
 30
0.0
 11
-1291.243235248518
 21
397.8263851185641
 31
0.0
  0
LINE
  5
315
330
1F
100
AcDbEntity
  8
通り芯
  6
Continuous
 62
     3
370
     9
100
AcDbLine
 10
-1298.47113392356
 20
381.7454501448065
 30
0.0
 11
-1271.139093718595
 21
385.3435444811213
 31
0.0
  0
LINE
  5
316
330
1F
100
AcDbEntity
  8
通り芯
  6
Continuous
 62
     3
370
     9
100
AcDbLine
 10
-1294.857184586039
 20
359.8526662912683
 30
0.0
 11
-1257.317496416774
 21
367.3193809219844
 31
0.0
  0
LINE
  5
317
330
1F
100
AcDbEntity
  8
通り芯
  6
Continuous
 62
     3
370
     9
100
AcDbLine
 10
-1122.075327062361
 20
394.2213542192217
 30
0.0
 11
-1104.882560128992
 21
397.6410797919623
 31
0.0
  0
LINE
  5
318
330
1F
100
AcDbEntity
  8
通り芯
  6
Continuous
 62
     3
370
     9
100
AcDbLine
 10
-1114.142871771202
 20
418.5766179476541
 30
0.0
 11
-1108.076351934539
 21
419.1751442432018
 31
0.0
  0
LINE
  5
319
330
1F
100
AcDbEntity
  8
通り芯
  6
Continuous
 62
     3
370
     9
100
AcDbLine
 10
-1336.117843350971
 20
461.3454837023601
 30
0.0
 11
-1286.096305481837
 21
461.3454837023601
 31
0.0
  0
LINE
  5
31A
330
1F
100
AcDbEntity
  8
通り芯
  6
Continuous
 62
     3
370
     9
100
AcDbLine
 10
-1126.146098622145
 20
461.3454837023601
 30
0.0
 11
-936.1120179105744
 21
461.3454837023601
 31
0.0
  0
LINE
  5
31B
330
1F
100
AcDbEntity
  8
通り芯
  6
Continuous
 62
     3
370
     9
100
AcDbLine
 10
-753.1215214850197
 20
-110.116324785816
 30
0.0
 11
-753.1215214850197
 21
-109.3235747254876
 31
0.0
  0
LINE
  5
31C
330
1F
100
AcDbEntity
  8
通り芯
  6
Continuous
 62
     3
370
     9
100
AcDbLine
 10
-766.1642418525678
 20
-109.6902216283895
 30
0.0
 11
-766.0740665332075
 21
-108.3167821488708
 31
0.0
  0
LINE
  5
31D
330
1F
100
AcDbEntity
  8
通り芯
  6
Continuous
 62
     3
370
     9
100
AcDbLine
 10
-780.766697963815
 20
-103.1371514422018
 30
0.0
 11
-780.5368004463178
 21
-99.63220523797546
 31
0.0
  0
LINE
  5
31E
330
1F
100
AcDbEntity
  8
通り芯
  6
Continuous
 62
     3
370
     9
100
AcDbLine
 10
-802.84974183183
 20
-100.9630344017513
 30
0.0
 11
-801.6398070522557
 21
-91.777043077699
 31
0.0
  0
LINE
  5
31F
330
1F
100
AcDbEntity
  8
通り芯
  6
Continuous
 62
     3
370
     9
100
AcDbLine
 10
-817.7207420260122
 20
-99.0039508151655
 30
0.0
 11
-814.1226476896979
 21
-71.67290154777575
 31
0.0
  0
LINE
  5
320
330
1F
100
AcDbEntity
  8
通り芯
  6
Continuous
 62
     3
370
     9
100
AcDbLine
 10
-839.6145168171249
 20
-95.39099241521981
 30
0.0
 11
-832.1468112488349
 21
-57.85031330837867
 31
0.0
  0
LINE
  5
321
330
1F
100
AcDbEntity
  8
通り芯
  6
Continuous
 62
     3
370
     9
100
AcDbLine
 10
-805.2458288891733
 20
77.39185604603435
 30
0.0
 11
-801.8261033164315
 21
94.58462297940216
 31
0.0
  0
LINE
  5
322
330
1F
100
AcDbEntity
  8
通り芯
  6
Continuous
 62
     3
370
     9
100
AcDbLine
 10
-780.8895742231646
 20
85.32431133719328
 30
0.0
 11
-780.2920388651926
 21
91.39083117385482
 31
0.0
  0
LINE
  5
323
330
1F
100
AcDbEntity
  8
通り芯
  6
Continuous
 62
     3
370
     9
100
AcDbLine
 10
-738.1216994060348
 20
73.32009354867395
 30
0.0
 11
-738.1216994060348
 21
263.3551651978199
 31
0.0
  0
LINE
  5
324
330
1F
100
AcDbEntity
  8
通り芯
  6
Continuous
 62
     3
370
     9
100
AcDbLine
 10
-738.1216994060348
 20
-136.6516511801508
 30
0.0
 11
-738.1216994060348
 21
-86.62912237344258
 31
0.0
  0
ARC
  5
325
330
1F
100
AcDbEntity
  8
通り芯
  6
Continuous
 62
     3
370
     9
100
AcDbCircle
 10
-736.1209964412812
 20
463.3451957295374
 30
0.0
 40
600.0000055232103
100
AcDbArc
 50
180.1910095214844
 51
269.8090209960938
  0
ARC
  5
326
330
1F
100
AcDbEntity
  8
通り芯
  6
Continuous
 62
     3
370
     9
100
AcDbCircle
 10
-761.1213605313053
 20
238.3548011077953
 30
0.0
 40
5.999999764918361
100
AcDbArc
 50
270.0
 51
90.0
  0
ARC
  5
327
330
1F
100
AcDbEntity
  8
通り芯
  6
Continuous
 62
     3
370
     9
100
AcDbCircle
 10
-771.1219025423468
 20
238.3548011077953
 30
0.0
 40
5.999999764918361
100
AcDbArc
 50
90.0
 51
270.0
  0
ARC
  5
328
330
1F
100
AcDbEntity
  8
通り芯
  6
Continuous
 62
     3
370
     9
100
AcDbCircle
 10
-761.1213605313053
 20
238.3548011077953
 30
0.0
 40
10.0000000920535
100
AcDbArc
 50
270.0
 51
90.0
  0
ARC
  5
329
330
1F
100
AcDbEntity
  8
通り芯
  6
Continuous
 62
     3
370
     9
100
AcDbCircle
 10
-771.1219025423468
 20
238.3548011077953
 30
0.0
 40
10.0000000920535
100
AcDbArc
 50
90.0
 51
270.0
  0
ARC
  5
32A
330
1F
100
AcDbEntity
  8
通り芯
  6
Continuous
 62
     3
370
     9
100
AcDbCircle
 10
-961.1113910630245
 20
438.3458225770885
 30
0.0
 40
5.999999764918361
100
AcDbArc
 50
0.0
 51
180.0
  0
ARC
  5
32B
330
1F
100
AcDbEntity
  8
通り芯
  6
Continuous
 62
     3
370
     9
100
AcDbCircle
 10
-961.1113910630245
 20
428.3452805660481
 30
0.0
 40
5.999999764918361
100
AcDbArc
 50
180.0
 51
0.0
  0
ARC
  5
32C
330
1F
100
AcDbEntity
  8
通り芯
  6
Continuous
 62
     3
370
     9
100
AcDbCircle
 10
-961.1113910630245
 20
438.3458225770885
 30
0.0
 40
10.0000000920535
100
AcDbArc
 50
0.0
 51
180.0
  0
ARC
  5
32D
330
1F
100
AcDbEntity
  8
通り芯
  6
Continuous
 62
     3
370
     9
100
AcDbCircle
 10
-961.1113910630245
 20
428.3452805660481
 30
0.0
 40
10.0000000920535
100
AcDbArc
 50
180.0
 51
0.0
  0
ARC
  5
32E
330
1F
100
AcDbEntity
  8
通り芯
  6
Continuous
 62
     3
370
     9
100
AcDbCircle
 10
-736.1209964412812
 20
463.3451957295374
 30
0.0
 40
200.0000018410701
100
AcDbArc
 50
180.5730285644531
 51
269.4270477294922
  0
ARC
  5
32F
330
1F
100
AcDbEntity
  8
通り芯
  6
Continuous
 62
     3
370
     9
100
AcDbCircle
 10
-1108.051578495155
 20
408.1747462185727
 30
0.0
 40
11.00000029480135
100
AcDbArc
 50
286.7481231689453
 51
90.12710571289061
  0
ARC
  5
330
330
1F
100
AcDbEntity
  8
通り芯
  6
Continuous
 62
     3
370
     9
100
AcDbCircle
 10
-1302.262461087079
 20
407.585138361204
 30
0.0
 40
11.12000051267359
100
AcDbArc
 50
95.73733520507811
 51
275.5221710205078
  0
ARC
  5
331
330
1F
100
AcDbEntity
  8
通り芯
  6
Continuous
 62
     3
370
     9
100
AcDbCircle
 10
-1309.109839733164
 20
439.8322289402039
 30
0.0
 40
6.53000040461658
100
AcDbArc
 50
94.15809631347653
 51
269.5848236083984
  0
ARC
  5
332
330
1F
100
AcDbEntity
  8
通り芯
  6
Continuous
 62
     3
370
     9
100
AcDbCircle
 10
-1297.402903217268
 20
370.6766774274745
 30
0.0
 40
11.12000051267359
100
AcDbArc
 50
99.48733520507808
 51
279.2721710205078
  0
ARC
  5
333
330
1F
100
AcDbEntity
  8
通り芯
  6
Continuous
 62
     3
370
     9
100
AcDbCircle
 10
-1290.140321727087
 20
334.1655824614843
 30
0.0
 40
11.12000051267358
100
AcDbArc
 50
103.2373352050781
 51
283.0221710205078
  0
ARC
  5
334
330
1F
100
AcDbEntity
  8
通り芯
  6
Continuous
 62
     3
370
     9
100
AcDbCircle
 10
-1221.915260597668
 20
350.073103359545
 30
0.0
 40
8.825000700573204
100
AcDbArc
 50
286.7148284912109
 51
99.56805419921875
  0
ARC
  5
335
330
1F
100
AcDbEntity
  8
通り芯
  6
Continuous
 62
     3
370
     9
100
AcDbCircle
 10
-1280.505435681373
 20
298.2074306625735
 30
0.0
 40
11.12000051267359
100
AcDbArc
 50
106.9873352050781
 51
286.7721710205078
  0
ARC
  5
336
330
1F
100
AcDbEntity
  8
通り芯
  6
Continuous
 62
     3
370
     9
100
AcDbCircle
 10
-1213.46652682972
 20
318.543451585142
 30
0.0
 40
8.825000700573204
100
AcDbArc
 50
290.4648284912109
 51
103.3180541992188
  0
ARC
  5
337
330
1F
100
AcDbEntity
  8
通り芯
  6
Continuous
 62
     3
370
     9
100
AcDbCircle
 10
-1268.538873520719
 20
262.9568082925055
 30
0.0
 40
11.12000051267358
100
AcDbArc
 50
110.7373352050781
 51
290.5221710205078
  0
ARC
  5
338
330
1F
100
AcDbEntity
  8
通り芯
  6
Continuous
 62
     3
370
     9
100
AcDbCircle
 10
-1202.974479781275
 20
287.633135795371
 30
0.0
 40
8.825000700573204
100
AcDbArc
 50
294.2148284912109
 51
107.0680541992188
  0
ARC
  5
339
330
1F
100
AcDbEntity
  8
通り芯
  6
Continuous
 62
     3
370
     9
100
AcDbCircle
 10
-1254.293154936621
 20
228.5643378627422
 30
0.0
 40
11.12000051267359
100
AcDbArc
 50
114.4873352050781
 51
294.2721710205078
  0
ARC
  5
33A
330
1F
100
AcDbEntity
  8
通り芯
  6
Continuous
 62
     3
370
     9
100
AcDbCircle
 10
-1190.482720705653
 20
257.475932562911
 30
0.0
 40
8.825000700573204
100
AcDbArc
 50
297.964828491211
 51
110.8180541992188
  0
ARC
  5
33B
330
1F
100
AcDbEntity
  8
通り芯
  6
Continuous
 62
     3
370
     9
100
AcDbCircle
 10
-1237.827736183605
 20
195.176678134445
 30
0.0
 40
11.12000051267359
100
AcDbArc
 50
118.2373352050781
 51
298.0221710205078
  0
ARC
  5
33C
330
1F
100
AcDbEntity
  8
通り芯
  6
Continuous
 62
     3
370
     9
100
AcDbCircle
 10
-1176.044760231927
 20
228.1996728349911
 30
0.0
 40
8.825000700573204
100
AcDbArc
 50
301.7148284912109
 51
114.5680541992187
  0
ARC
  5
33D
330
1F
100
AcDbEntity
  8
通り芯
  6
Continuous
 62
     3
370
     9
100
AcDbCircle
 10
-1219.214955704673
 20
162.937515056049
 30
0.0
 40
11.12000051267359
100
AcDbArc
 50
121.9873352050781
 51
301.7721710205078
  0
ARC
  5
33E
330
1F
100
AcDbEntity
  8
通り芯
  6
Continuous
 62
     3
370
     9
100
AcDbCircle
 10
-1159.724018364922
 20
199.9311966212638
 30
0.0
 40
8.825000700573204
100
AcDbArc
 50
305.4648284912109
 51
118.3180541992188
  0
ARC
  5
33F
330
1F
100
AcDbEntity
  8
通り芯
  6
Continuous
 62
     3
370
     9
100
AcDbCircle
 10
-1198.532106630711
 20
131.9845889505346
 30
0.0
 40
11.12000051267359
100
AcDbArc
 50
125.7373352050781
 51
305.5221710205078
  0
ARC
  5
340
330
1F
100
AcDbEntity
  8
通り芯
  6
Continuous
 62
     3
370
     9
100
AcDbCircle
 10
-1141.588869797339
 20
172.7894164307774
 30
0.0
 40
8.825000700573204
100
AcDbArc
 50
309.2148284912109
 51
122.0680541992188
  0
ARC
  5
341
330
1F
100
AcDbEntity
  8
通り芯
  6
Continuous
 62
     3
370
     9
100
AcDbCircle
 10
-1175.870355218655
 20
102.4506854530084
 30
0.0
 40
11.12000051267359
100
AcDbArc
 50
129.487335205078
 51
309.2721710205078
  0
ARC
  5
342
330
1F
100
AcDbEntity
  8
通り芯
  6
Continuous
 62
     3
370
     9
100
AcDbCircle
 10
-1121.717598597638
 20
146.8932447725818
 30
0.0
 40
8.825000700573204
100
AcDbArc
 50
312.9648284912109
 51
125.8180541992188
  0
ARC
  5
343
330
1F
100
AcDbEntity
  8
通り芯
  6
Continuous
 62
     3
370
     9
100
AcDbCircle
 10
-1151.32582241332
 20
74.46264457312154
 30
0.0
 40
11.12000051267359
100
AcDbArc
 50
133.237335205078
 51
313.0221710205078
  0
ARC
  5
344
330
1F
100
AcDbEntity
  8
通り芯
  6
Continuous
 62
     3
370
     9
100
AcDbCircle
 10
-1100.194434459726
 20
122.3506938423968
 30
0.0
 40
8.825000700573204
100
AcDbArc
 50
316.7148284912109
 51
129.5680541992187
  0
ARC
  5
345
330
1F
100
AcDbEntity
  8
通り芯
  6
Continuous
 62
     3
370
     9
100
AcDbCircle
 10
-1125.002556660121
 20
48.1393788199243
 30
0.0
 40
11.12000051267359
100
AcDbArc
 50
136.9873352050781
 51
316.7721710205078
  0
ARC
  5
346
330
1F
100
AcDbEntity
  8
通り芯
  6
Continuous
 62
     3
370
     9
100
AcDbCircle
 10
-1077.113516453273
 20
99.26977583594166
 30
0.0
 40
8.825000700573204
100
AcDbArc
 50
320.4648284912109
 51
133.3180541992188
  0
ARC
  5
347
330
1F
100
AcDbEntity
  8
通り芯
  6
Continuous
 62
     3
370
     9
100
AcDbCircle
 10
-1097.013524842659
 20
23.59385507701276
 30
0.0
 40
11.12000051267359
100
AcDbArc
 50
140.737335205078
 51
320.5221710205078
  0
ARC
  5
348
330
1F
100
AcDbEntity
  8
通り芯
  6
Continuous
 62
     3
370
     9
100
AcDbCircle
 10
-1052.570965523086
 20
77.74661169803139
 30
0.0
 40
8.825000700573204
100
AcDbArc
 50
324.2148284912109
 51
137.0680541992187
  0
ARC
  5
349
330
1F
100
AcDbEntity
  8
通り芯
  6
Continuous
 62
     3
370
     9
100
AcDbCircle
 10
-1067.479621345134
 20
0.9321036649565428
 30
0.0
 40
11.12000051267359
100
AcDbArc
 50
144.4873352050781
 51
324.2721710205078
  0
ARC
  5
34A
330
1F
100
AcDbEntity
  8
通り芯
  6
Continuous
 62
     3
370
     9
100
AcDbCircle
 10
-1026.673802927316
 20
57.87534049833013
 30
0.0
 40
8.825000700573204
100
AcDbArc
 50
327.9648284912109
 51
140.8180541992188
  0
ARC
  5
34B
330
1F
100
AcDbEntity
  8
通り芯
  6
Continuous
 62
     3
370
     9
100
AcDbCircle
 10
-1036.526695239619
 20
-19.75074540900621
 30
0.0
 40
11.12000051267359
100
AcDbArc
 50
148.2373352050781
 51
328.0221710205078
  0
ARC
  5
34C
330
1F
100
AcDbEntity
  8
通り芯
  6
Continuous
 62
     3
370
     9
100
AcDbCircle
 10
-999.5330136744035
 20
39.74019193074739
 30
0.0
 40
8.825000700573204
100
AcDbArc
 50
331.7148284912109
 51
144.5680541992188
  0
ARC
  5
34D
330
1F
100
AcDbEntity
  8
通り芯
  6
Continuous
 62
     3
370
     9
100
AcDbCircle
 10
-1004.287532161224
 20
-38.36352588793616
 30
0.0
 40
11.12000051267359
100
AcDbArc
 50
151.9873352050781
 51
331.7721710205079
  0
ARC
  5
34E
330
1F
100
AcDbEntity
  8
通り芯
  6
Continuous
 62
     3
370
     9
100
AcDbCircle
 10
-971.2645374606761
 20
23.41945006374075
 30
0.0
 40
8.825000700573204
100
AcDbArc
 50
335.4648284912109
 51
148.3180541992188
  0
ARC
  5
34F
330
1F
100
AcDbEntity
  8
通り芯
  6
Continuous
 62
     3
370
     9
100
AcDbCircle
 10
-970.8998724329256
 20
-54.8289446409531
 30
0.0
 40
11.12000051267359
100
AcDbArc
 50
155.7373352050781
 51
335.5221710205078
  0
ARC
  5
350
330
1F
100
AcDbEntity
  8
通り芯
  6
Continuous
 62
     3
370
     9
100
AcDbCircle
 10
-941.9882777327568
 20
8.981489590013751
 30
0.0
 40
8.825000700573204
100
AcDbArc
 50
339.2148284912109
 51
152.0680541992188
  0
ARC
  5
351
330
1F
100
AcDbEntity
  8
通り芯
  6
Continuous
 62
     3
370
     9
100
AcDbCircle
 10
-936.5074020031641
 20
-69.07466322505016
 30
0.0
 40
11.12000051267359
100
AcDbArc
 50
159.4873352050781
 51
339.2721710205078
  0
ARC
  5
352
330
1F
100
AcDbEntity
  8
通り芯
  6
Continuous
 62
     3
370
     9
100
AcDbCircle
 10
-911.8300835627217
 20
-3.510269485608006
 30
0.0
 40
8.825000700573204
100
AcDbArc
 50
342.964828491211
 51
155.8180541992188
  0
ARC
  5
353
330
1F
100
AcDbEntity
  8
通り芯
  6
Continuous
 62
     3
370
     9
100
AcDbCircle
 10
-901.2567796330943
 20
-81.04122538570451
 30
0.0
 40
11.12000051267359
100
AcDbArc
 50
163.2373352050781
 51
343.0221710205078
  0
ARC
  5
354
330
1F
100
AcDbEntity
  8
通り芯
  6
Continuous
 62
     3
370
     9
100
AcDbCircle
 10
-880.9207587105259
 20
-14.00231653405129
 30
0.0
 40
8.825000700573204
100
AcDbArc
 50
346.7148284912109
 51
159.5680541992188
  0
ARC
  5
355
330
1F
100
AcDbEntity
  8
通り芯
  6
Continuous
 62
     3
370
     9
100
AcDbCircle
 10
-865.298627834183
 20
-90.67611143141804
 30
0.0
 40
11.12000051267359
100
AcDbArc
 50
166.9873352050781
 51
346.7721710205078
  0
ARC
  5
356
330
1F
100
AcDbEntity
  8
通り芯
  6
Continuous
 62
     3
370
     9
100
AcDbCircle
 10
-849.3911069361222
 20
-22.45105030199866
 30
0.0
 40
8.825000700573204
100
AcDbArc
 50
350.4648284912109
 51
163.3180541992188
  0
ARC
  5
357
330
1F
100
AcDbEntity
  8
通り芯
  6
Continuous
 62
     3
370
     9
100
AcDbCircle
 10
-1182.239111015817
 20
351.5991472256768
 30
0.0
 40
15.10000064221128
100
AcDbArc
 50
105.0870971679687
 51
283.0457000732422
  0
ARC
  5
358
330
1F
100
AcDbEntity
  8
通り芯
  6
Continuous
 62
     3
370
     9
100
AcDbCircle
 10
-1100.853407947374
 20
371.9847150270157
 30
0.0
 40
11.00000029480135
100
AcDbArc
 50
292.3731231689453
 51
95.7521057128906
  0
ARC
  5
359
330
1F
100
AcDbEntity
  8
通り芯
  6
Continuous
 62
     3
370
     9
100
AcDbCircle
 10
-1169.137925331319
 20
308.4101239389973
 30
0.0
 40
15.10000064221128
100
AcDbArc
 50
110.7120971679687
 51
288.6707000732421
  0
ARC
  5
35A
330
1F
100
AcDbEntity
  8
通り芯
  6
Continuous
 62
     3
370
     9
100
AcDbCircle
 10
-1090.142363694765
 20
336.6746364024231
 30
0.0
 40
11.00000029480135
100
AcDbArc
 50
297.9981231689453
 51
101.3771057128906
  0
ARC
  5
35B
330
1F
100
AcDbEntity
  8
通り芯
  6
Continuous
 62
     3
370
     9
100
AcDbCircle
 10
-1151.866874329493
 20
266.7124617033101
 30
0.0
 40
15.10000064221128
100
AcDbArc
 50
116.3370971679687
 51
294.2957000732421
  0
ARC
  5
35C
330
1F
100
AcDbEntity
  8
通り芯
  6
Continuous
 62
     3
370
     9
100
AcDbCircle
 10
-1076.022494182745
 20
302.5844019331605
 30
0.0
 40
11.00000029480135
100
AcDbArc
 50
303.6231231689453
 51
107.0021057128906
  0
ARC
  5
35D
330
1F
100
AcDbEntity
  8
通り芯
  6
Continuous
 62
     3
370
     9
100
AcDbCircle
 10
-1130.591444585436
 20
226.9094721118073
 30
0.0
 40
15.10000064221128
100
AcDbArc
 50
121.9620971679687
 51
299.9207000732421
  0
ARC
  5
35E
330
1F
100
AcDbEntity
  8
通り芯
  6
Continuous
 62
     3
370
     9
100
AcDbCircle
 10
-1058.62856692157
 20
270.0430028942639
 30
0.0
 40
11.00000029480135
100
AcDbArc
 50
309.2481231689453
 51
112.6271057128906
  0
ARC
  5
35F
330
1F
100
AcDbEntity
  8
通り芯
  6
Continuous
 62
     3
370
     9
100
AcDbCircle
 10
-1105.51775111483
 20
189.3826661310219
 30
0.0
 40
15.10000064221128
100
AcDbArc
 50
127.5870971679687
 51
305.5457000732421
  0
ARC
  5
360
330
1F
100
AcDbEntity
  8
通り芯
  6
Continuous
 62
     3
370
     9
100
AcDbCircle
 10
-1038.129041299057
 20
239.3625846219878
 30
0.0
 40
11.00000029480135
100
AcDbArc
 50
314.8731231689453
 51
118.2521057128906
  0
ARC
  5
361
330
1F
100
AcDbEntity
  8
通り芯
  6
Continuous
 62
     3
370
     9
100
AcDbCircle
 10
-1076.886591748502
 20
154.4957178511292
 30
0.0
 40
15.10000064221128
100
AcDbArc
 50
133.2120971679688
 51
311.1707000732422
  0
ARC
  5
362
330
1F
100
AcDbEntity
  8
通り芯
  6
Continuous
 62
     3
370
     9
100
AcDbCircle
 10
-1014.721113892717
 20
210.8394374513794
 30
0.0
 40
11.00000029480135
100
AcDbArc
 50
320.4981231689453
 51
123.8771057128906
  0
ARC
  5
363
330
1F
100
AcDbEntity
  8
通り芯
  6
Continuous
 62
     3
370
     9
100
AcDbCircle
 10
-1044.973447132417
 20
122.5815822974674
 30
0.0
 40
15.10000064221128
100
AcDbArc
 50
138.8370971679688
 51
316.7957000732421
  0
ARC
  5
364
330
1F
100
AcDbEntity
  8
通り芯
  6
Continuous
 62
     3
370
     9
100
AcDbCircle
 10
-988.6297275321651
 20
184.7470601532528
 30
0.0
 40
11.00000029480135
100
AcDbArc
 50
326.1231231689454
 51
129.5021057128906
  0
ARC
  5
365
330
1F
100
AcDbEntity
  8
通り芯
  6
Continuous
 62
     3
370
     9
100
AcDbCircle
 10
-1010.085507914948
 20
93.95042293113917
 30
0.0
 40
15.10000064221128
100
AcDbArc
 50
144.4620971679687
 51
322.4207000732421
  0
ARC
  5
366
330
1F
100
AcDbEntity
  8
通り芯
  6
Continuous
 62
     3
370
     9
100
AcDbCircle
 10
-960.1065803615568
 20
161.3391327469121
 30
0.0
 40
11.00000029480135
100
AcDbArc
 50
331.7481231689453
 51
135.1271057128906
  0
ARC
  5
367
330
1F
100
AcDbEntity
  8
通り芯
  6
Continuous
 62
     3
370
     9
100
AcDbCircle
 10
-972.5596928717384
 20
68.87573852295859
 30
0.0
 40
15.10000064221128
100
AcDbArc
 50
150.0870971679687
 51
328.0457000732421
  0
ARC
  5
368
330
1F
100
AcDbEntity
  8
通り芯
  6
Continuous
 62
     3
370
     9
100
AcDbCircle
 10
-929.4261620892819
 20
140.8396071244009
 30
0.0
 40
11.00000029480135
100
AcDbArc
 50
337.3731231689453
 51
140.7521057128906
  0
ARC
  5
369
330
1F
100
AcDbEntity
  8
通り芯
  6
Continuous
 62
     3
370
     9
100
AcDbCircle
 10
-932.7567032802351
 20
47.60030877890117
 30
0.0
 40
15.10000064221128
100
AcDbArc
 50
155.7120971679688
 51
333.6707000732422
  0
ARC
  5
36A
330
1F
100
AcDbEntity
  8
通り芯
  6
Continuous
 62
     3
370
     9
100
AcDbCircle
 10
-896.8847630503858
 20
123.4456798632247
 30
0.0
 40
11.00000029480135
100
AcDbArc
 50
342.9981231689453
 51
146.3771057128906
  0
ARC
  5
36B
330
1F
100
AcDbEntity
  8
通り芯
  6
Continuous
 62
     3
370
     9
100
AcDbCircle
 10
-891.0600319821235
 20
30.32925777707632
 30
0.0
 40
15.10000064221128
100
AcDbArc
 50
161.3370971679688
 51
339.2957000732422
  0
ARC
  5
36C
330
1F
100
AcDbEntity
  8
通り芯
  6
Continuous
 62
     3
370
     9
100
AcDbCircle
 10
-862.7945285811227
 20
109.3248194136292
 30
0.0
 40
11.00000029480135
100
AcDbArc
 50
348.6231231689453
 51
152.0021057128906
  0
ARC
  5
36D
330
1F
100
AcDbEntity
  8
通り芯
  6
Continuous
 62
     3
370
     9
100
AcDbCircle
 10
-847.8710086954441
 20
17.22807209257766
 30
0.0
 40
15.10000064221128
100
AcDbArc
 50
166.9620971679687
 51
344.9207000732421
  0
ARC
  5
36E
330
1F
100
AcDbEntity
  8
通り芯
  6
Continuous
 62
     3
370
     9
100
AcDbCircle
 10
-827.4854408941057
 20
98.61377516101967
 30
0.0
 40
11.00000029480135
100
AcDbArc
 50
354.2481231689453
 51
157.6271057128906
  0
ARC
  5
36F
330
1F
100
AcDbEntity
  8
通り芯
  6
Continuous
 62
     3
370
     9
100
AcDbCircle
 10
-1063.833962005198
 20
426.2722391582899
 30
0.0
 40
20.19899864224394
100
AcDbArc
 50
96.40487670898436
 51
274.8407897949219
  0
ARC
  5
370
330
1F
100
AcDbEntity
  8
通り芯
  6
Continuous
 62
     3
370
     9
100
AcDbCircle
 10
-998.3369520208855
 20
432.7232427742108
 30
0.0
 40
13.99999993533241
100
AcDbArc
 50
294.5939025878906
 51
76.65425109863283
  0
ARC
  5
371
330
1F
100
AcDbEntity
  8
通り芯
  6
Continuous
 62
     3
370
     9
100
AcDbCircle
 10
-1047.605377332706
 20
368.857316039021
 30
0.0
 40
24.50000061261608
100
AcDbArc
 50
106.3119659423828
 51
287.4454956054688
  0
ARC
  5
372
330
1F
100
AcDbEntity
  8
通り芯
  6
Continuous
 62
     3
370
     9
100
AcDbCircle
 10
-961.5771317234673
 20
394.954648025025
 30
0.0
 40
15.60000025972897
100
AcDbArc
 50
294.2458343505859
 51
99.51826477050781
  0
ARC
  5
373
330
1F
100
AcDbEntity
  8
通り芯
  6
Continuous
 62
     3
370
     9
100
AcDbCircle
 10
-1023.186693599447
 20
309.9054487402911
 30
0.0
 40
24.50000061261608
100
AcDbArc
 50
117.5619659423828
 51
298.6954956054688
  0
ARC
  5
374
330
1F
100
AcDbEntity
  8
通り芯
  6
Continuous
 62
     3
370
     9
100
AcDbCircle
 10
-943.9017781908744
 20
352.2838850902854
 30
0.0
 40
15.60000025972897
100
AcDbArc
 50
305.4958343505859
 51
110.7682647705078
  0
ARC
  5
375
330
1F
100
AcDbEntity
  8
通り芯
  6
Continuous
 62
     3
370
     9
100
AcDbCircle
 10
-987.7368927767218
 20
256.8506509528276
 30
0.0
 40
24.50000061261608
100
AcDbArc
 50
128.8119659423828
 51
309.9454956054688
  0
ARC
  5
376
330
1F
100
AcDbEntity
  8
通り芯
  6
Continuous
 62
     3
370
     9
100
AcDbCircle
 10
-918.2424406132025
 20
313.8820812304123
 30
0.0
 40
15.60000025972897
100
AcDbArc
 50
316.7458343505859
 51
122.0182647705078
  0
ARC
  5
377
330
1F
100
AcDbEntity
  8
通り芯
  6
Continuous
 62
     3
370
     9
100
AcDbCircle
 10
-942.6165321555679
 20
211.7302903316731
 30
0.0
 40
24.50000061261608
100
AcDbArc
 50
140.0619659423828
 51
321.1954956054688
  0
ARC
  5
378
330
1F
100
AcDbEntity
  8
通り芯
  6
Continuous
 62
     3
370
     9
100
AcDbCircle
 10
-885.5841109404075
 20
281.2237515576173
 30
0.0
 40
15.60000025972897
100
AcDbArc
 50
327.9958343505859
 51
133.2682647705078
  0
ARC
  5
379
330
1F
100
AcDbEntity
  8
通り芯
  6
Continuous
 62
     3
370
     9
100
AcDbCircle
 10
-889.5617343681026
 20
176.2794985713724
 30
0.0
 40
24.50000061261608
100
AcDbArc
 50
151.3119659423828
 51
332.4454956054687
  0
ARC
  5
37A
330
1F
100
AcDbEntity
  8
通り芯
  6
Continuous
 62
     3
370
     9
100
AcDbCircle
 10
-847.1823070805333
 20
255.5644139799448
 30
0.0
 40
15.60000025972897
100
AcDbArc
 50
339.2458343505859
 51
144.5182647705078
  0
ARC
  5
37B
330
1F
100
AcDbEntity
  8
通り芯
  6
Continuous
 62
     3
370
     9
100
AcDbCircle
 10
-830.6088761317976
 20
151.8608148381132
 30
0.0
 40
24.50000061261608
100
AcDbArc
 50
162.5619659423829
 51
343.6954956054688
  0
ARC
  5
37C
330
1F
100
AcDbEntity
  8
通り芯
  6
Continuous
 62
     3
370
     9
100
AcDbCircle
 10
-804.5125350833694
 20
237.8900513849281
 30
0.0
 40
15.60000025972896
100
AcDbArc
 50
350.4958343505859
 51
155.7682647705078
  0
ARC
  5
37D
330
1F
100
AcDbEntity
  8
通り芯
  6
Continuous
 62
     3
370
     9
100
AcDbCircle
 10
-773.1949439501038
 20
135.6322301656199
 30
0.0
 40
20.19899864224394
100
AcDbArc
 50
175.1592102050781
 51
353.5951232910156
  0
ARC
  5
37E
330
1F
100
AcDbEntity
  8
通り芯
  6
Continuous
 62
     3
370
     9
100
AcDbCircle
 10
-766.743940334183
 20
201.1292401499348
 30
0.0
 40
13.99999993533241
100
AcDbArc
 50
13.34574890136718
 51
155.4060974121094
  0
ARC
  5
37F
330
1F
100
AcDbEntity
  8
通り芯
  6
Continuous
 62
     3
370
     9
100
AcDbCircle
 10
-1206.121697520779
 20
463.3451957295374
 30
0.0
 40
80.00000073642803
100
AcDbArc
 50
181.4326934814453
 51
358.5673065185547
  0
ARC
  5
380
330
1F
100
AcDbEntity
  8
通り芯
  6
Continuous
 62
     3
370
     9
100
AcDbCircle
 10
-1206.121697520779
 20
463.3451957295374
 30
0.0
 40
100.0000009205351
100
AcDbArc
 50
192.0943756103516
 51
193.7534637451172
  0
ARC
  5
381
330
1F
100
AcDbEntity
  8
通り芯
  6
Continuous
 62
     3
370
     9
100
AcDbCircle
 10
-1308.790757833883
 20
441.3453906178551
 30
0.0
 40
5.000000046026752
100
AcDbArc
 50
12.09510803222656
 51
90.0
  0
ARC
  5
382
330
1F
100
AcDbEntity
  8
通り芯
  6
Continuous
 62
     3
370
     9
100
AcDbCircle
 10
-1308.110974657151
 20
438.3814963298032
 30
0.0
 40
5.000000046026752
100
AcDbArc
 50
273.7498779296874
 51
13.75378417968746
  0
ARC
  5
383
330
1F
100
AcDbEntity
  8
通り芯
  6
Continuous
 62
     3
370
     9
100
AcDbCircle
 10
-1206.121697520779
 20
463.3451957295374
 30
0.0
 40
100.0000009205351
100
AcDbArc
 50
208.0681762695312
 51
215.2240447998047
  0
ARC
  5
384
330
1F
100
AcDbEntity
  8
通り芯
  6
Continuous
 62
     3
370
     9
100
AcDbCircle
 10
-1291.896263110713
 20
402.7840458083414
 30
0.0
 40
5.000000046026752
100
AcDbArc
 50
277.5003814697266
 51
35.22399902343749
  0
ARC
  5
385
330
1F
100
AcDbEntity
  8
通り芯
  6
Continuous
 62
     3
370
     9
100
AcDbCircle
 10
-1298.772378946484
 20
413.9400210323099
 30
0.0
 40
5.000000046026752
100
AcDbArc
 50
28.06838989257808
 51
93.74855041503902
  0
ARC
  5
386
330
1F
100
AcDbEntity
  8
通り芯
  6
Continuous
 62
     3
370
     9
100
AcDbCircle
 10
-1206.121697520779
 20
463.3451957295374
 30
0.0
 40
100.0000009205351
100
AcDbArc
 50
232.1930694580078
 51
240.2068328857422
  0
ARC
  5
387
330
1F
100
AcDbEntity
  8
通り芯
  6
Continuous
 62
     3
370
     9
100
AcDbCircle
 10
-1258.292578990976
 20
372.2235309826896
 30
0.0
 40
5.000000046026752
100
AcDbArc
 50
281.2500762939453
 51
60.20732116699219
  0
ARC
  5
388
330
1F
100
AcDbEntity
  8
通り芯
  6
Continuous
 62
     3
370
     9
100
AcDbCircle
 10
-1270.487056793974
 20
380.3868747289191
 30
0.0
 40
5.000000046026752
100
AcDbArc
 50
52.19267272949217
 51
97.49967956542967
  0
ARC
  5
389
330
1F
100
AcDbEntity
  8
通り芯
  6
Continuous
 62
     3
370
     9
100
AcDbCircle
 10
-1206.121697520779
 20
463.3451957295374
 30
0.0
 40
100.0000009205351
100
AcDbArc
 50
322.2933502197266
 51
331.7218475341797
  0
ARC
  5
38A
330
1F
100
AcDbEntity
  8
通り芯
  6
Continuous
 62
     3
370
     9
100
AcDbCircle
 10
-1113.652357671373
 20
413.6011203815194
 30
0.0
 40
5.000000046026752
100
AcDbArc
 50
95.62570190429688
 51
151.7223663330078
  0
ARC
  5
38B
330
1F
100
AcDbEntity
  8
通り芯
  6
Continuous
 62
     3
370
     9
100
AcDbCircle
 10
-1123.050409636564
 20
399.1255042799269
 30
0.0
 40
5.000000046026752
100
AcDbArc
 50
142.2938842773438
 51
281.2500762939453
  0
ARC
  5
38C
330
1F
100
AcDbEntity
  8
通り芯
  6
Continuous
 62
     3
370
     9
100
AcDbCircle
 10
-791.2924368898205
 20
91.41461367566464
 30
0.0
 40
11.00000029480135
100
AcDbArc
 50
359.8728942871094
 51
163.2518768310547
  0
ARC
  5
38D
330
1F
100
AcDbEntity
  8
通り芯
  6
Continuous
 62
     3
370
     9
100
AcDbCircle
 10
-791.8810538096152
 20
-102.7952779786848
 30
0.0
 40
11.12000051267359
100
AcDbArc
 50
174.4778289794922
 51
354.2626647949219
  0
ARC
  5
38E
330
1F
100
AcDbEntity
  8
通り芯
  6
Continuous
 62
     3
370
     9
100
AcDbCircle
 10
-759.6339632306165
 20
-109.6426566247699
 30
0.0
 40
6.53000040461658
100
AcDbArc
 50
180.4151763916016
 51
355.8419036865234
  0
ARC
  5
38F
330
1F
100
AcDbEntity
  8
通り芯
  6
Continuous
 62
     3
370
     9
100
AcDbCircle
 10
-828.7895147433453
 20
-97.93572010887331
 30
0.0
 40
11.12000051267359
100
AcDbArc
 50
170.7281188964843
 51
350.5129547119141
  0
ARC
  5
390
330
1F
100
AcDbEntity
  8
通り芯
  6
Continuous
 62
     3
370
     9
100
AcDbCircle
 10
-736.1219873788575
 20
-6.654514412384316
 30
0.0
 40
80.00000073642803
100
AcDbArc
 50
91.4326934814453
 51
268.5673065185547
  0
ARC
  5
391
330
1F
100
AcDbEntity
  8
通り芯
  6
Continuous
 62
     3
370
     9
100
AcDbCircle
 10
-736.1219873788575
 20
-6.654514412384316
 30
0.0
 40
100.0000009205351
100
AcDbArc
 50
256.2465362548828
 51
257.9056243896484
  0
ARC
  5
392
330
1F
100
AcDbEntity
  8
通り芯
  6
Continuous
 62
     3
370
     9
100
AcDbCircle
 10
-758.1217924905393
 20
-109.3235747254876
 30
0.0
 40
5.000000046026752
100
AcDbArc
 50
0.0
 51
77.90489196777344
  0
ARC
  5
393
330
1F
100
AcDbEntity
  8
通り芯
  6
Continuous
 62
     3
370
     9
100
AcDbCircle
 10
-761.0846958410154
 20
-108.6437915487564
 30
0.0
 40
5.000000046026752
100
AcDbArc
 50
76.2462158203125
 51
176.2501220703125
  0
ARC
  5
394
330
1F
100
AcDbEntity
  8
通り芯
  6
Continuous
 62
     3
370
     9
100
AcDbCircle
 10
-736.1219873788575
 20
-6.654514412384316
 30
0.0
 40
100.0000009205351
100
AcDbArc
 50
234.7759552001953
 51
241.9318237304688
  0
ARC
  5
395
330
1F
100
AcDbEntity
  8
通り芯
  6
Continuous
 62
     3
370
     9
100
AcDbCircle
 10
-796.683137300053
 20
-92.42908000231878
 30
0.0
 40
5.000000046026752
100
AcDbArc
 50
54.77600097656251
 51
172.4996185302734
  0
ARC
  5
396
330
1F
100
AcDbEntity
  8
通り芯
  6
Continuous
 62
     3
370
     9
100
AcDbCircle
 10
-785.5261711385099
 20
-99.30519583809044
 30
0.0
 40
5.000000046026752
100
AcDbArc
 50
356.2514495849609
 51
61.93161010742188
  0
ARC
  5
397
330
1F
100
AcDbEntity
  8
通り芯
  6
Continuous
 62
     3
370
     9
100
AcDbCircle
 10
-736.1219873788575
 20
-6.654514412384316
 30
0.0
 40
100.0000009205351
100
AcDbArc
 50
209.7931671142578
 51
217.8069305419922
  0
ARC
  5
398
330
1F
100
AcDbEntity
  8
通り芯
  6
Continuous
 62
     3
370
     9
100
AcDbCircle
 10
-827.2436521257048
 20
-58.82638682015752
 30
0.0
 40
5.000000046026752
100
AcDbArc
 50
29.79267883300776
 51
168.7499237060547
  0
ARC
  5
399
330
1F
100
AcDbEntity
  8
通り芯
  6
Continuous
 62
     3
370
     9
100
AcDbCircle
 10
-819.0803083794747
 20
-71.01987368558085
 30
0.0
 40
5.000000046026752
100
AcDbArc
 50
352.5003204345703
 51
37.80732727050781
  0
ARC
  5
39A
330
1F
100
AcDbEntity
  8
通り芯
  6
Continuous
 62
     3
370
     9
100
AcDbCircle
 10
-736.1219873788575
 20
-6.654514412384316
 30
0.0
 40
100.0000009205351
100
AcDbArc
 50
118.2781524658203
 51
127.7066497802734
  0
ARC
  5
39B
330
1F
100
AcDbEntity
  8
通り芯
  6
Continuous
 62
     3
370
     9
100
AcDbCircle
 10
-785.8660627268744
 20
85.81482543702109
 30
0.0
 40
5.000000046026752
100
AcDbArc
 50
298.2776336669922
 51
354.3742980957031
  0
ARC
  5
39C
330
1F
100
AcDbEntity
  8
通り芯
  6
Continuous
 62
     3
370
     9
100
AcDbCircle
 10
-800.3416788284669
 20
76.41677347183062
 30
0.0
 40
5.000000046026752
100
AcDbArc
 50
168.7499237060547
 51
307.7061157226562
  0
LINE
  5
39D
330
1F
100
AcDbEntity
  8
通り芯
  6
Continuous
 62
     3
370
     9
100
AcDbLine
 10
-701.1200903402157
 20
244.3559190644798
 30
0.0
 11
-711.1206323512572
 21
244.3559190644798
 31
0.0
  0
LINE
  5
39E
330
1F
100
AcDbEntity
  8
通り芯
  6
Continuous
 62
     3
370
     9
100
AcDbLine
 10
-701.1200903402157
 20
232.3556650262616
 30
0.0
 11
-711.1206323512572
 21
232.3556650262616
 31
0.0
  0
LINE
  5
39F
330
1F
100
AcDbEntity
  8
通り芯
  6
JWW_CENTER1
 62
     3
370
     9
100
AcDbLine
 10
-728.3173630349249
 20
238.3548011077953
 30
0.0
 11
-683.0255702132256
 21
238.3548011077953
 31
0.0
  0
LINE
  5
3A0
330
1F
100
AcDbEntity
  8
通り芯
  6
JWW_CENTER1
 62
     3
370
     9
100
AcDbLine
 10
-706.1203613457353
 20
220.2186616026374
 30
0.0
 11
-706.1203613457353
 21
256.1460943367108
 31
0.0
  0
LINE
  5
3A1
330
1F
100
AcDbEntity
  8
通り芯
  6
Continuous
 62
     3
370
     9
100
AcDbLine
 10
-701.1200903402157
 20
228.3552500343306
 30
0.0
 11
-711.1206323512572
 21
228.3552500343306
 31
0.0
  0
LINE
  5
3A2
330
1F
100
AcDbEntity
  8
通り芯
  6
Continuous
 62
     3
370
     9
100
AcDbLine
 10
-701.1200903402157
 20
248.3553431188356
 30
0.0
 11
-711.1206323512572
 21
248.3553431188356
 31
0.0
  0
LINE
  5
3A3
330
1F
100
AcDbEntity
  8
通り芯
  6
Continuous
 62
     3
370
     9
100
AcDbLine
 10
-517.1307288386486
 20
428.3452805660481
 30
0.0
 11
-517.1307288386486
 21
438.3458225770885
 31
0.0
  0
LINE
  5
3A4
330
1F
100
AcDbEntity
  8
通り芯
  6
Continuous
 62
     3
370
     9
100
AcDbLine
 10
-505.1304748004297
 20
428.3452805660481
 30
0.0
 11
-505.1304748004297
 21
438.3458225770885
 31
0.0
  0
LINE
  5
3A5
330
1F
100
AcDbEntity
  8
通り芯
  6
JWW_CENTER1
 62
     3
370
     9
100
AcDbLine
 10
-511.130601819538
 20
455.5425532607574
 30
0.0
 11
-511.130601819538
 21
410.2507604390574
 31
0.0
  0
LINE
  5
3A6
330
1F
100
AcDbEntity
  8
通り芯
  6
JWW_CENTER1
 62
     3
370
     9
100
AcDbLine
 10
-492.9944623143813
 20
433.3455515715683
 30
0.0
 11
-528.9209041108795
 21
433.3455515715683
 31
0.0
  0
LINE
  5
3A7
330
1F
100
AcDbEntity
  8
通り芯
  6
Continuous
 62
     3
370
     9
100
AcDbLine
 10
-501.1300598084988
 20
428.3452805660481
 30
0.0
 11
-501.1300598084988
 21
438.3458225770885
 31
0.0
  0
LINE
  5
3A8
330
1F
100
AcDbEntity
  8
通り芯
  6
Continuous
 62
     3
370
     9
100
AcDbLine
 10
-521.1311438305795
 20
428.3452805660481
 30
0.0
 11
-521.1311438305795
 21
438.3458225770885
 31
0.0
  0
LINE
  5
3A9
330
1F
100
AcDbEntity
  8
通り芯
  6
Continuous
 62
     3
370
     9
100
AcDbLine
 10
-185.3499645276716
 20
323.5308404021821
 30
0.0
 11
-252.3541905641848
 21
341.4846473934647
 31
0.0
  0
LINE
  5
3AA
330
1F
100
AcDbEntity
  8
通り芯
  6
Continuous
 62
     3
370
     9
100
AcDbLine
 10
-180.3120378942859
 20
345.1412070467284
 30
0.0
 11
-248.3498118219511
 21
358.674441514106
 31
0.0
  0
LINE
  5
3AB
330
1F
100
AcDbEntity
  8
通り芯
  6
Continuous
 62
     3
370
     9
100
AcDbLine
 10
-195.6735521882949
 20
287.807540808643
 30
0.0
 11
-261.3608221870884
 21
310.1056181305238
 31
0.0
  0
LINE
  5
3AC
330
1F
100
AcDbEntity
  8
通り芯
  6
Continuous
 62
     3
370
     9
100
AcDbLine
 10
-189.2324579481274
 20
309.0423421121089
 30
0.0
 11
-256.2406477349434
 21
326.9971400409667
 31
0.0
  0
LINE
  5
3AD
330
1F
100
AcDbEntity
  8
通り芯
  6
Continuous
 62
     3
370
     9
100
AcDbLine
 10
-208.3109790875021
 20
252.8363628348403
 30
0.0
 11
-272.3998667771586
 21
279.3825895425055
 31
0.0
  0
LINE
  5
3AE
330
1F
100
AcDbEntity
  8
通り芯
  6
Continuous
 62
     3
370
     9
100
AcDbLine
 10
-200.495454430242
 20
273.6044325402883
 30
0.0
 11
-266.1856972417597
 21
295.902509862169
 31
0.0
  0
LINE
  5
3AF
330
1F
100
AcDbEntity
  8
通り芯
  6
Continuous
 62
     3
370
     9
100
AcDbLine
 10
-223.2097255337946
 20
218.766938054661
 30
0.0
 11
-285.423759330776
 21
249.4473563269376
 31
0.0
  0
LINE
  5
3B0
330
1F
100
AcDbEntity
  8
通り芯
  6
Continuous
 62
     3
370
     9
100
AcDbLine
 10
-214.0524713994289
 20
238.9790917803036
 30
0.0
 11
-278.1433409642357
 21
265.5263094255439
 31
0.0
  0
LINE
  5
3B1
330
1F
100
AcDbEntity
  8
通り芯
  6
Continuous
 62
     3
370
     9
100
AcDbLine
 10
-240.3033987096198
 20
185.7439433541155
 30
0.0
 11
-300.3789892188654
 21
220.4287403686241
 31
0.0
  0
LINE
  5
3B2
330
1F
100
AcDbEntity
  8
通り芯
  6
Continuous
 62
     3
370
     9
100
AcDbLine
 10
-229.8440526011647
 20
205.3139695308919
 30
0.0
 11
-292.0620501484489
 21
235.9963696783193
 31
0.0
  0
LINE
  5
3B3
330
1F
100
AcDbEntity
  8
通り芯
  6
Continuous
 62
     3
370
     9
100
AcDbLine
 10
-259.5216420471268
 20
153.9110646816373
 30
0.0
 11
-317.1991636238788
 21
192.4496179269163
 31
0.0
  0
LINE
  5
3B4
330
1F
100
AcDbEntity
  8
通り芯
  6
Continuous
 62
     3
370
     9
100
AcDbLine
 10
-247.8047961554755
 20
172.7547336156378
 30
0.0
 11
-307.8823685398713
 21
207.439530630147
 31
0.0
  0
LINE
  5
3B5
330
1F
100
AcDbEntity
  8
通り芯
  6
Continuous
 62
     3
370
     9
100
AcDbLine
 10
-280.7802258524036
 20
123.4020786099067
 30
0.0
 11
-335.8139259779607
 21
165.6308833860139
 31
0.0
  0
LINE
  5
3B6
330
1F
100
AcDbEntity
  8
通り芯
  6
Continuous
 62
     3
370
     9
100
AcDbLine
 10
-267.8554270563261
 20
141.4391243575237
 30
0.0
 11
-325.5359214458047
 21
179.9796594779541
 31
0.0
  0
LINE
  5
3B7
330
1F
100
AcDbEntity
  8
通り芯
  6
Continuous
 62
     3
370
     9
100
AcDbLine
 10
-303.9879838685094
 20
94.34877983645421
 30
0.0
 11
-356.1420193999259
 21
140.0864945670888
 31
0.0
  0
LINE
  5
3B8
330
1F
100
AcDbEntity
  8
通り芯
  6
Continuous
 62
     3
370
     9
100
AcDbLine
 10
-289.9117156098071
 20
111.5019092668051
 30
0.0
 11
-344.9483885480929
 21
153.7326959180631
 31
0.0
  0
LINE
  5
3B9
330
1F
100
AcDbEntity
  8
通り芯
  6
Continuous
 62
     3
370
     9
100
AcDbLine
 10
-329.0468132754852
 20
66.87602649578125
 30
0.0
 11
-378.0982232582908
 21
115.9264455410123
 31
0.0
  0
LINE
  5
3BA
330
1F
100
AcDbEntity
  8
通り芯
  6
Continuous
 62
     3
370
     9
100
AcDbLine
 10
-313.8785318086791
 20
83.07191022828576
 30
0.0
 11
-366.035540152822
 21
128.8116068340712
 31
0.0
  0
LINE
  5
3BB
330
1F
100
AcDbEntity
  8
通り芯
  6
Continuous
 62
     3
370
     9
100
AcDbLine
 10
-355.8487018776048
 20
41.10074922178555
 30
0.0
 11
-401.5864166082399
 21
93.25478475320139
 31
0.0
  0
LINE
  5
3BC
330
1F
100
AcDbEntity
  8
通り芯
  6
Continuous
 62
     3
370
     9
100
AcDbLine
 10
-339.6538090826759
 20
56.27002162616506
 30
0.0
 11
-388.7072009406318
 21
105.3234134841226
 31
0.0
  0
LINE
  5
3BD
330
1F
100
AcDbEntity
  8
通り芯
  6
Continuous
 62
     3
370
     9
100
AcDbLine
 10
-384.2796918537003
 20
17.13393302291351
 30
0.0
 11
-426.5084966298075
 21
72.16763314847171
 31
0.0
  0
LINE
  5
3BE
330
1F
100
AcDbEntity
  8
通り芯
  6
Continuous
 62
     3
370
     9
100
AcDbLine
 10
-367.1275533609235
 20
31.21119221919159
 30
0.0
 11
-412.8672499667089
 21
83.36720962575825
 31
0.0
  0
LINE
  5
3BF
330
1F
100
AcDbEntity
  8
通り芯
  6
Continuous
 62
     3
370
     9
100
AcDbLine
 10
-414.2159160068438
 20
-4.922355530567444
 30
0.0
 11
-452.7554601896979
 21
52.75516604618517
 31
0.0
  0
LINE
  5
3C0
330
1F
100
AcDbEntity
  8
通り芯
  6
Continuous
 62
     3
370
     9
100
AcDbLine
 10
-396.1798611968009
 20
8.00244326550839
 30
0.0
 11
-438.4106478480583
 21
63.03911620379253
 31
0.0
  0
LINE
  5
3C1
330
1F
100
AcDbEntity
  8
通り芯
  6
Continuous
 62
     3
370
     9
100
AcDbLine
 10
-445.5315252649568
 20
-24.97397736899316
 30
0.0
 11
-480.2163222794654
 21
35.10161314025183
 31
0.0
  0
LINE
  5
3C2
330
1F
100
AcDbEntity
  8
通り芯
  6
Continuous
 62
     3
370
     9
100
AcDbLine
 10
-426.6888472685303
 20
-13.25614053976736
 30
0.0
 11
-465.2293823889606
 21
44.4243538497112
 31
0.0
  0
LINE
  5
3C3
330
1F
100
AcDbEntity
  8
通り芯
  6
Continuous
 62
     3
370
     9
100
AcDbLine
 10
-478.091752117786
 20
-42.93372998572821
 30
0.0
 11
-508.7721703900631
 21
19.28129474882766
 31
0.0
  0
LINE
  5
3C4
330
1F
100
AcDbEntity
  8
通り芯
  6
Continuous
 62
     3
370
     9
100
AcDbLine
 10
-458.5227168785848
 20
-32.47339293969802
 30
0.0
 11
-493.2085048306697
 21
27.60417944469836
 31
0.0
  0
LINE
  5
3C5
330
1F
100
AcDbEntity
  8
通り芯
  6
Continuous
 62
     3
370
     9
100
AcDbLine
 10
-511.7558834296226
 20
-58.72630212504149
 30
0.0
 11
-538.3021101372872
 21
5.361594627039921
 31
0.0
  0
LINE
  5
3C6
330
1F
100
AcDbEntity
  8
通り芯
  6
Continuous
 62
     3
370
     9
100
AcDbLine
 10
-491.5447206415563
 20
-49.56805705310003
 30
0.0
 11
-522.2271207889837
 21
12.64994049418235
 31
0.0
  0
LINE
  5
3C7
330
1F
100
AcDbEntity
  8
通り芯
  6
Continuous
 62
     3
370
     9
100
AcDbLine
 10
-546.3822151271818
 20
-72.28232815665322
 30
0.0
 11
-568.6793015114874
 21
-6.595058157859768
 31
0.0
  0
LINE
  5
3C8
330
1F
100
AcDbEntity
  8
通り芯
  6
Continuous
 62
     3
370
     9
100
AcDbLine
 10
-525.6141454217338
 20
-64.46581256181744
 30
0.0
 11
-552.1623540045509
 21
-0.3749429970095264
 31
0.0
  0
LINE
  5
3C9
330
1F
100
AcDbEntity
  8
通り芯
  6
Continuous
 62
     3
370
     9
100
AcDbLine
 10
-581.8201246990036
 20
-83.54532463876595
 30
0.0
 11
-599.773931690285
 21
-16.54010766467664
 31
0.0
  0
LINE
  5
3CA
330
1F
100
AcDbEntity
  8
通り芯
  6
Continuous
 62
     3
370
     9
100
AcDbLine
 10
-560.5863143331128
 20
-77.10323946102406
 30
0.0
 11
-582.8843916549947
 21
-11.41398758707979
 31
0.0
  0
LINE
  5
3CB
330
1F
100
AcDbEntity
  8
通り芯
  6
Continuous
 62
     3
370
     9
100
AcDbLine
 10
-617.9179986960473
 20
-92.46673563018433
 30
0.0
 11
-631.4512331634244
 21
-24.43094357766839
 31
0.0
  0
LINE
  5
3CC
330
1F
100
AcDbEntity
  8
通り芯
  6
Continuous
 62
     3
370
     9
100
AcDbLine
 10
-596.3086229890762
 20
-87.42781805922348
 30
0.0
 11
-614.2634209179339
 21
-20.41962827240823
 31
0.0
  0
LINE
  5
3CD
330
1F
100
AcDbEntity
  8
通り芯
  6
Continuous
 62
     3
370
     9
100
AcDbLine
 10
-293.4117071261578
 20
336.888678918712
 30
0.0
 11
-375.5752961912951
 21
361.8127408154298
 31
0.0
  0
LINE
  5
3CE
330
1F
100
AcDbEntity
  8
通り芯
  6
Continuous
 62
     3
370
     9
100
AcDbLine
 10
-286.0728234426681
 20
366.1778208351119
 30
0.0
 11
-370.2856714137572
 21
382.9296205474218
 31
0.0
  0
LINE
  5
3CF
330
1F
100
AcDbEntity
  8
通り芯
  6
Continuous
 62
     3
370
     9
100
AcDbLine
 10
-297.7639049573593
 20
322.5339572013194
 30
0.0
 11
-379.9294758976491
 21
347.4590100356129
 31
0.0
  0
LINE
  5
3D0
330
1F
100
AcDbEntity
  8
通り芯
  6
Continuous
 62
     3
370
     9
100
AcDbLine
 10
-326.588297150892
 20
252.9503206560126
 30
0.0
 11
-402.3107919758643
 21
293.4251659236434
 31
0.0
  0
LINE
  5
3D1
330
1F
100
AcDbEntity
  8
通り芯
  6
Continuous
 62
     3
370
     9
100
AcDbLine
 10
-313.6763805432968
 20
280.2456961706877
 30
0.0
 11
-393.0029153300363
 21
313.1041952337152
 31
0.0
  0
LINE
  5
3D2
330
1F
100
AcDbEntity
  8
通り芯
  6
Continuous
 62
     3
370
     9
100
AcDbLine
 10
-349.1816738702453
 20
213.8221595533643
 30
0.0
 11
-420.5727805530994
 21
261.5239125584621
 31
0.0
  0
LINE
  5
3D3
330
1F
100
AcDbEntity
  8
通り芯
  6
Continuous
 62
     3
370
     9
100
AcDbLine
 10
-333.6566548762919
 20
239.7203130867108
 30
0.0
 11
-409.3811315764167
 21
280.1961492919172
 31
0.0
  0
LINE
  5
3D4
330
1F
100
AcDbEntity
  8
通り芯
  6
Continuous
 62
     3
370
     9
100
AcDbLine
 10
-375.5029577482917
 20
177.0970220710858
 30
0.0
 11
-441.8739746741169
 21
231.5668787162353
 31
0.0
  0
LINE
  5
3D5
330
1F
100
AcDbEntity
  8
通り芯
  6
Continuous
 62
     3
370
     9
100
AcDbLine
 10
-357.5134770042944
 20
201.3492282916756
 30
0.0
 11
-428.9065655622987
 21
249.0519722343485
 31
0.0
  0
LINE
  5
3D6
330
1F
100
AcDbEntity
  8
通り芯
  6
Continuous
 62
     3
370
     9
100
AcDbLine
 10
-405.2964868905763
 20
143.1286729235983
 30
0.0
 11
-466.0092502608102
 21
203.8424272314079
 31
0.0
  0
LINE
  5
3D7
330
1F
100
AcDbEntity
  8
通り芯
  6
Continuous
 62
     3
370
     9
100
AcDbLine
 10
-385.0169494098047
 20
165.501070563635
 30
0.0
 11
-451.3899482107824
 21
219.9719181463603
 31
0.0
  0
LINE
  5
3D8
330
1F
100
AcDbEntity
  8
通り芯
  6
Continuous
 62
     3
370
     9
100
AcDbLine
 10
-438.2748894002286
 20
112.2441215107874
 30
0.0
 11
-492.744746045377
 21
178.6161293741894
 31
0.0
  0
LINE
  5
3D9
330
1F
100
AcDbEntity
  8
通り芯
  6
Continuous
 62
     3
370
     9
100
AcDbLine
 10
-415.9005098850405
 20
132.5206861788318
 30
0.0
 11
-476.6152551304247
 21
193.2354314242166
 31
0.0
  0
LINE
  5
3DA
330
1F
100
AcDbEntity
  8
通り芯
  6
Continuous
 62
     3
370
     9
100
AcDbLine
 10
-474.1230471282681
 20
84.74164004285214
 30
0.0
 11
-521.824800133367
 21
156.1327467257068
 31
0.0
  0
LINE
  5
3DB
330
1F
100
AcDbEntity
  8
通り芯
  6
Continuous
 62
     3
370
     9
100
AcDbLine
 10
-449.868859032528
 20
102.7271570365478
 30
0.0
 11
-504.3397066152527
 21
169.100155837525
 31
0.0
  0
LINE
  5
3DC
330
1F
100
AcDbEntity
  8
通り芯
  6
Continuous
 62
     3
370
     9
100
AcDbLine
 10
-512.4941319233033
 20
60.88382697727511
 30
0.0
 11
-552.9689771909345
 21
136.6073127398236
 31
0.0
  0
LINE
  5
3DD
330
1F
100
AcDbEntity
  8
通り芯
  6
Continuous
 62
     3
370
     9
100
AcDbLine
 10
-486.5939965148066
 20
76.40587315850141
 30
0.0
 11
-534.2967404574795
 21
147.7989617165069
 31
0.0
  0
LINE
  5
3DE
330
1F
100
AcDbEntity
  8
通り芯
  6
Continuous
 62
     3
370
     9
100
AcDbLine
 10
-553.0185240697044
 20
40.90355264427885
 30
0.0
 11
-585.8770231327337
 21
120.2290964934433
 31
0.0
  0
LINE
  5
3DF
330
1F
100
AcDbEntity
  8
通り芯
  6
Continuous
 62
     3
370
     9
100
AcDbLine
 10
-525.7221576174554
 20
53.81150550157244
 30
0.0
 11
-566.1970028850844
 21
129.5359822016961
 31
0.0
  0
LINE
  5
3E0
330
1F
100
AcDbEntity
  8
通り芯
  6
Continuous
 62
     3
370
     9
100
AcDbLine
 10
-595.3067851003373
 20
24.99008612076565
 30
0.0
 11
-620.2308469970551
 21
107.154666123481
 31
0.0
  0
LINE
  5
3E1
330
1F
100
AcDbEntity
  8
通り芯
  6
Continuous
 62
     3
370
     9
100
AcDbLine
 10
-566.8757951242417
 20
35.16106939477638
 30
0.0
 11
-599.7342941872687
 21
114.4885951190916
 31
0.0
  0
LINE
  5
3E2
330
1F
100
AcDbEntity
  8
通り芯
  6
Continuous
 62
     3
370
     9
100
AcDbLine
 10
-638.9506487341298
 20
13.29900460607618
 30
0.0
 11
-655.701457508864
 21
97.51086163958846
 31
0.0
  0
LINE
  5
3E3
330
1F
100
AcDbEntity
  8
通り芯
  6
Continuous
 62
     3
370
     9
100
AcDbLine
 10
-609.6605158801542
 20
20.63392453926255
 30
0.0
 11
-634.584577776872
 21
102.8004864171281
 31
0.0
  0
LINE
  5
3E4
330
1F
100
AcDbEntity
  8
通り芯
  6
Continuous
 62
     3
370
     9
100
AcDbLine
 10
-307.9378610440965
 20
294.1039581627995
 30
0.0
 11
-387.2634048932598
 21
326.9624572258276
 31
0.0
  0
LINE
  5
3E5
330
1F
100
AcDbEntity
  8
通り芯
  6
Continuous
 62
     3
370
     9
100
AcDbLine
 10
-406.15463883088
 20
446.3446706857995
 30
0.0
 11
-477.1364882950904
 21
446.3446706857995
 31
0.0
  0
LINE
  5
3E6
330
1F
100
AcDbEntity
  8
通り芯
  6
Continuous
 62
     3
370
     9
100
AcDbLine
 10
-410.1124435070681
 20
406.1453060641326
 30
0.0
 11
-479.7317538050895
 21
419.9936586804909
 31
0.0
  0
LINE
  5
3E7
330
1F
100
AcDbEntity
  8
通り芯
  6
Continuous
 62
     3
370
     9
100
AcDbLine
 10
-431.981444858797
 20
345.4850623853956
 30
0.0
 11
-517.0712725841229
 21
380.7307300675864
 31
0.0
  0
LINE
  5
3E8
330
1F
100
AcDbEntity
  8
通り芯
  6
Continuous
 62
     3
370
     9
100
AcDbLine
 10
-417.7555450262087
 20
392.3712737659308
 30
0.0
 11
-508.0854506503026
 21
410.3399448208443
 31
0.0
  0
LINE
  5
3E9
330
1F
100
AcDbEntity
  8
通り芯
  6
Continuous
 62
     3
370
     9
100
AcDbLine
 10
-460.8187192408097
 20
288.4149855423697
 30
0.0
 11
-537.398375068514
 21
339.583038186252
 31
0.0
  0
LINE
  5
3EA
330
1F
100
AcDbEntity
  8
通り芯
  6
Continuous
 62
     3
370
     9
100
AcDbLine
 10
-437.7189734204233
 20
331.6258094557081
 30
0.0
 11
-522.8078102081729
 21
366.8704862003237
 31
0.0
  0
LINE
  5
3EB
330
1F
100
AcDbEntity
  8
通り芯
  6
Continuous
 62
     3
370
     9
100
AcDbLine
 10
-500.2362341154792
 20
238.0674292109266
 30
0.0
 11
-565.3606515714403
 21
303.1928376044623
 31
0.0
  0
LINE
  5
3EC
330
1F
100
AcDbEntity
  8
通り芯
  6
Continuous
 62
     3
370
     9
100
AcDbLine
 10
-469.1495314372848
 20
275.9410633431053
 30
0.0
 11
-545.7281963274106
 21
327.1091159869882
 31
0.0
  0
LINE
  5
3ED
330
1F
100
AcDbEntity
  8
通り芯
  6
Continuous
 62
     3
370
     9
100
AcDbLine
 10
-548.7178549924254
 20
196.3767035382669
 30
0.0
 11
-599.8868985738834
 21
272.9563593659701
 31
0.0
  0
LINE
  5
3EE
330
1F
100
AcDbEntity
  8
通り芯
  6
Continuous
 62
     3
370
     9
100
AcDbLine
 10
-510.8402571099434
 20
227.4584515285845
 30
0.0
 11
-575.9646745659045
 21
292.582868984545
 31
0.0
  0
LINE
  5
3EF
330
1F
100
AcDbEntity
  8
通り芯
  6
Continuous
 62
     3
370
     9
100
AcDbLine
 10
-604.4016101674508
 20
164.9461455214053
 30
0.0
 11
-639.6472778496416
 21
250.0369641843064
 31
0.0
  0
LINE
  5
3F0
330
1F
100
AcDbEntity
  8
通り芯
  6
Continuous
 62
     3
370
     9
100
AcDbLine
 10
-561.1878134413876
 20
188.0409366539162
 30
0.0
 11
-612.3558660852693
 21
264.6196015440437
 31
0.0
  0
LINE
  5
3F1
330
1F
100
AcDbEntity
  8
通り芯
  6
Continuous
 62
     3
370
     9
100
AcDbLine
 10
-665.1470744776741
 20
144.9827171271907
 30
0.0
 11
-683.1157455325881
 21
235.3146046264366
 31
0.0
  0
LINE
  5
3F2
330
1F
100
AcDbEntity
  8
通り芯
  6
Continuous
 62
     3
370
     9
100
AcDbLine
 10
-618.2588812219881
 20
159.2026713343277
 30
0.0
 11
-653.5035579666048
 21
244.2924990596536
 31
0.0
  0
LINE
  5
3F3
330
1F
100
AcDbEntity
  8
通り芯
  6
Continuous
 62
     3
370
     9
100
AcDbLine
 10
-719.1204713975428
 20
133.3788381191373
 30
0.0
 11
-719.1204713975428
 21
204.3616785209228
 31
0.0
  0
LINE
  5
3F4
330
1F
100
AcDbEntity
  8
通り芯
  6
Continuous
 62
     3
370
     9
100
AcDbLine
 10
-678.9201158383019
 20
137.3366427953253
 30
0.0
 11
-692.7684684546596
 21
206.9559530933468
 31
0.0
  0
LINE
  5
3F5
330
1F
100
AcDbEntity
  8
通り芯
  6
Continuous
 62
     3
370
     9
100
AcDbLine
 10
-162.6594759259265
 20
446.3456616233752
 30
0.0
 11
-163.4512350486798
 21
446.3456616233752
 31
0.0
  0
LINE
  5
3F6
330
1F
100
AcDbEntity
  8
通り芯
  6
Continuous
 62
     3
370
     9
100
AcDbLine
 10
-163.085579083353
 20
433.3029412558254
 30
0.0
 11
-164.4580276252978
 21
433.3931165751879
 31
0.0
  0
LINE
  5
3F7
330
1F
100
AcDbEntity
  8
通り芯
  6
Continuous
 62
     3
370
     9
100
AcDbLine
 10
-169.6376583319662
 20
418.6994942070048
 30
0.0
 11
-173.1426045361914
 21
418.9293917245003
 31
0.0
  0
LINE
  5
3F8
330
1F
100
AcDbEntity
  8
通り芯
  6
Continuous
 62
     3
370
     9
100
AcDbLine
 10
-171.8117753724155
 20
396.6174412765632
 30
0.0
 11
-180.9987576340441
 21
397.8263851185641
 31
0.0
  0
LINE
  5
3F9
330
1F
100
AcDbEntity
  8
通り芯
  6
Continuous
 62
     3
370
     9
100
AcDbLine
 10
-173.7708589590025
 20
381.7454501448065
 30
0.0
 11
-201.1028991639675
 21
385.3435444811213
 31
0.0
  0
LINE
  5
3FA
330
1F
100
AcDbEntity
  8
通り芯
  6
Continuous
 62
     3
370
     9
100
AcDbLine
 10
-177.3848082965233
 20
359.8526662912683
 30
0.0
 11
-214.9244964657889
 21
367.3193809219844
 31
0.0
  0
LINE
  5
3FB
330
1F
100
AcDbEntity
  8
通り芯
  6
Continuous
 62
     3
370
     9
100
AcDbLine
 10
-350.1666658202014
 20
394.2213542192217
 30
0.0
 11
-367.3594327535709
 21
397.6410797919623
 31
0.0
  0
LINE
  5
3FC
330
1F
100
AcDbEntity
  8
通り芯
  6
Continuous
 62
     3
370
     9
100
AcDbLine
 10
-358.0991211113603
 20
418.5766179476541
 30
0.0
 11
-364.1656409480236
 21
419.1751442432018
 31
0.0
  0
LINE
  5
3FD
330
1F
100
AcDbEntity
  8
通り芯
  6
Continuous
 62
     3
370
     9
100
AcDbLine
 10
-136.1241495315917
 20
461.3454837023601
 30
0.0
 11
-186.1456874007254
 21
461.3454837023601
 31
0.0
  0
LINE
  5
3FE
330
1F
100
AcDbEntity
  8
通り芯
  6
Continuous
 62
     3
370
     9
100
AcDbLine
 10
-346.0958942604173
 20
461.3454837023601
 30
0.0
 11
-536.1299749719881
 21
461.3454837023601
 31
0.0
  0
LINE
  5
3FF
330
1F
100
AcDbEntity
  8
通り芯
  6
Continuous
 62
     3
370
     9
100
AcDbLine
 10
-719.1204713975428
 20
-110.116324785816
 30
0.0
 11
-719.1204713975428
 21
-109.3235747254876
 31
0.0
  0
LINE
  5
400
330
1F
100
AcDbEntity
  8
通り芯
  6
Continuous
 62
     3
370
     9
100
AcDbLine
 10
-706.0777510299947
 20
-109.6902216283895
 30
0.0
 11
-706.167926349355
 21
-108.3167821488708
 31
0.0
  0
LINE
  5
401
330
1F
100
AcDbEntity
  8
通り芯
  6
Continuous
 62
     3
370
     9
100
AcDbLine
 10
-691.4752949187475
 20
-103.1371514422018
 30
0.0
 11
-691.7051924362447
 21
-99.63220523797546
 31
0.0
  0
LINE
  5
402
330
1F
100
AcDbEntity
  8
通り芯
  6
Continuous
 62
     3
370
     9
100
AcDbLine
 10
-669.3922510507325
 20
-100.9630344017513
 30
0.0
 11
-670.6021858303068
 21
-91.777043077699
 31
0.0
  0
LINE
  5
403
330
1F
100
AcDbEntity
  8
通り芯
  6
Continuous
 62
     3
370
     9
100
AcDbLine
 10
-654.5212508565503
 20
-99.0039508151655
 30
0.0
 11
-658.1193451928646
 21
-71.67290154777575
 31
0.0
  0
LINE
  5
404
330
1F
100
AcDbEntity
  8
通り芯
  6
Continuous
 62
     3
370
     9
100
AcDbLine
 10
-632.6274760654376
 20
-95.39099241521981
 30
0.0
 11
-640.0951816337276
 21
-57.85031330837867
 31
0.0
  0
LINE
  5
405
330
1F
100
AcDbEntity
  8
通り芯
  6
Continuous
 62
     3
370
     9
100
AcDbLine
 10
-666.9961639933892
 20
77.39185604603435
 30
0.0
 11
-670.415889566131
 21
94.58462297940216
 31
0.0
  0
LINE
  5
406
330
1F
100
AcDbEntity
  8
通り芯
  6
Continuous
 62
     3
370
     9
100
AcDbLine
 10
-691.3524186593979
 20
85.32431133719328
 30
0.0
 11
-691.9499540173699
 21
91.39083117385482
 31
0.0
  0
LINE
  5
407
330
1F
100
AcDbEntity
  8
通り芯
  6
Continuous
 62
     3
370
     9
100
AcDbLine
 10
-734.1202934765276
 20
73.32009354867395
 30
0.0
 11
-734.1202934765276
 21
263.3551651978199
 31
0.0
  0
LINE
  5
408
330
1F
100
AcDbEntity
  8
通り芯
  6
Continuous
 62
     3
370
     9
100
AcDbLine
 10
-734.1202934765276
 20
-136.6516511801508
 30
0.0
 11
-734.1202934765276
 21
-86.62912237344258
 31
0.0
  0
ARC
  5
409
330
1F
100
AcDbEntity
  8
通り芯
  6
Continuous
 62
     3
370
     9
100
AcDbCircle
 10
-736.1209964412812
 20
463.3451957295374
 30
0.0
 40
600.0000055232103
100
AcDbArc
 50
270.1909790039062
 51
359.8089904785156
  0
ARC
  5
40A
330
1F
100
AcDbEntity
  8
通り芯
  6
Continuous
 62
     3
370
     9
100
AcDbCircle
 10
-711.1206323512572
 20
238.3548011077953
 30
0.0
 40
5.999999764918361
100
AcDbArc
 50
90.0
 51
270.0
  0
ARC
  5
40B
330
1F
100
AcDbEntity
  8
通り芯
  6
Continuous
 62
     3
370
     9
100
AcDbCircle
 10
-701.1200903402157
 20
238.3548011077953
 30
0.0
 40
5.999999764918361
100
AcDbArc
 50
270.0
 51
90.0
  0
ARC
  5
40C
330
1F
100
AcDbEntity
  8
通り芯
  6
Continuous
 62
     3
370
     9
100
AcDbCircle
 10
-711.1206323512572
 20
238.3548011077953
 30
0.0
 40
10.0000000920535
100
AcDbArc
 50
90.0
 51
270.0
  0
ARC
  5
40D
330
1F
100
AcDbEntity
  8
通り芯
  6
Continuous
 62
     3
370
     9
100
AcDbCircle
 10
-701.1200903402157
 20
238.3548011077953
 30
0.0
 40
10.0000000920535
100
AcDbArc
 50
270.0
 51
90.0
  0
ARC
  5
40E
330
1F
100
AcDbEntity
  8
通り芯
  6
Continuous
 62
     3
370
     9
100
AcDbCircle
 10
-511.130601819538
 20
438.3458225770885
 30
0.0
 40
5.999999764918359
100
AcDbArc
 50
0.0
 51
180.0
  0
ARC
  5
40F
330
1F
100
AcDbEntity
  8
通り芯
  6
Continuous
 62
     3
370
     9
100
AcDbCircle
 10
-511.130601819538
 20
428.3452805660481
 30
0.0
 40
5.999999764918359
100
AcDbArc
 50
180.0
 51
0.0
  0
ARC
  5
410
330
1F
100
AcDbEntity
  8
通り芯
  6
Continuous
 62
     3
370
     9
100
AcDbCircle
 10
-511.130601819538
 20
438.3458225770885
 30
0.0
 40
10.0000000920535
100
AcDbArc
 50
0.0
 51
180.0
  0
ARC
  5
411
330
1F
100
AcDbEntity
  8
通り芯
  6
Continuous
 62
     3
370
     9
100
AcDbCircle
 10
-511.130601819538
 20
428.3452805660481
 30
0.0
 40
10.0000000920535
100
AcDbArc
 50
180.0
 51
0.0
  0
ARC
  5
412
330
1F
100
AcDbEntity
  8
通り芯
  6
Continuous
 62
     3
370
     9
100
AcDbCircle
 10
-736.1209964412812
 20
463.3451957295374
 30
0.0
 40
200.0000018410701
100
AcDbArc
 50
270.5729522705078
 51
359.4269714355469
  0
ARC
  5
413
330
1F
100
AcDbEntity
  8
通り芯
  6
Continuous
 62
     3
370
     9
100
AcDbCircle
 10
-364.1904143874074
 20
408.1747462185727
 30
0.0
 40
11.00000029480135
100
AcDbArc
 50
89.87289428710939
 51
253.2518768310547
  0
ARC
  5
414
330
1F
100
AcDbEntity
  8
通り芯
  6
Continuous
 62
     3
370
     9
100
AcDbCircle
 10
-169.9795317954832
 20
407.585138361204
 30
0.0
 40
11.12000051267359
100
AcDbArc
 50
264.4778289794922
 51
84.26266479492193
  0
ARC
  5
415
330
1F
100
AcDbEntity
  8
通り芯
  6
Continuous
 62
     3
370
     9
100
AcDbCircle
 10
-163.1321531493987
 20
439.8322289402039
 30
0.0
 40
6.53000040461658
100
AcDbArc
 50
270.4151763916016
 51
85.84190368652344
  0
ARC
  5
416
330
1F
100
AcDbEntity
  8
通り芯
  6
Continuous
 62
     3
370
     9
100
AcDbCircle
 10
-174.8390896652941
 20
370.6766774274745
 30
0.0
 40
11.12000051267359
100
AcDbArc
 50
260.7278289794921
 51
80.51266479492188
  0
ARC
  5
417
330
1F
100
AcDbEntity
  8
通り芯
  6
Continuous
 62
     3
370
     9
100
AcDbCircle
 10
-182.1016711554753
 20
334.1655824614843
 30
0.0
 40
11.12000051267358
100
AcDbArc
 50
256.9778289794922
 51
76.76266479492193
  0
ARC
  5
418
330
1F
100
AcDbEntity
  8
通り芯
  6
Continuous
 62
     3
370
     9
100
AcDbCircle
 10
-250.3267322848949
 20
350.073103359545
 30
0.0
 40
8.825000700573204
100
AcDbArc
 50
80.43194580078126
 51
253.2851715087891
  0
ARC
  5
419
330
1F
100
AcDbEntity
  8
通り芯
  6
Continuous
 62
     3
370
     9
100
AcDbCircle
 10
-191.73655720119
 20
298.2074306625735
 30
0.0
 40
11.12000051267359
100
AcDbArc
 50
253.2278289794922
 51
73.01266479492193
  0
ARC
  5
41A
330
1F
100
AcDbEntity
  8
通り芯
  6
Continuous
 62
     3
370
     9
100
AcDbCircle
 10
-258.7754660528428
 20
318.543451585142
 30
0.0
 40
8.825000700573204
100
AcDbArc
 50
76.68194580078125
 51
249.5351715087891
  0
ARC
  5
41B
330
1F
100
AcDbEntity
  8
通り芯
  6
Continuous
 62
     3
370
     9
100
AcDbCircle
 10
-203.7031193618434
 20
262.9568082925055
 30
0.0
 40
11.12000051267359
100
AcDbArc
 50
249.4778289794922
 51
69.26266479492188
  0
ARC
  5
41C
330
1F
100
AcDbEntity
  8
通り芯
  6
Continuous
 62
     3
370
     9
100
AcDbCircle
 10
-269.2675131012872
 20
287.633135795371
 30
0.0
 40
8.825000700573204
100
AcDbArc
 50
72.93194580078125
 51
245.7851715087891
  0
ARC
  5
41D
330
1F
100
AcDbEntity
  8
通り芯
  6
Continuous
 62
     3
370
     9
100
AcDbCircle
 10
-217.948837945941
 20
228.5643378627422
 30
0.0
 40
11.12000051267359
100
AcDbArc
 50
245.7278289794922
 51
65.51266479492188
  0
ARC
  5
41E
330
1F
100
AcDbEntity
  8
通り芯
  6
Continuous
 62
     3
370
     9
100
AcDbCircle
 10
-281.759272176909
 20
257.475932562911
 30
0.0
 40
8.825000700573204
100
AcDbArc
 50
69.18194580078124
 51
242.0351715087891
  0
ARC
  5
41F
330
1F
100
AcDbEntity
  8
通り芯
  6
Continuous
 62
     3
370
     9
100
AcDbCircle
 10
-234.4142566989574
 20
195.176678134445
 30
0.0
 40
11.12000051267359
100
AcDbArc
 50
241.9778289794922
 51
61.76266479492193
  0
ARC
  5
420
330
1F
100
AcDbEntity
  8
通り芯
  6
Continuous
 62
     3
370
     9
100
AcDbCircle
 10
-296.1972326506354
 20
228.1996728349911
 30
0.0
 40
8.825000700573204
100
AcDbArc
 50
65.43194580078129
 51
238.2851715087891
  0
ARC
  5
421
330
1F
100
AcDbEntity
  8
通り芯
  6
Continuous
 62
     3
370
     9
100
AcDbCircle
 10
-253.027037177889
 20
162.937515056049
 30
0.0
 40
11.12000051267359
100
AcDbArc
 50
238.2278289794922
 51
58.01266479492188
  0
ARC
  5
422
330
1F
100
AcDbEntity
  8
通り芯
  6
Continuous
 62
     3
370
     9
100
AcDbCircle
 10
-312.5179745176404
 20
199.9311966212638
 30
0.0
 40
8.825000700573206
100
AcDbArc
 50
61.68194580078121
 51
234.535171508789
  0
ARC
  5
423
330
1F
100
AcDbEntity
  8
通り芯
  6
Continuous
 62
     3
370
     9
100
AcDbCircle
 10
-273.7098862518512
 20
131.9845889505346
 30
0.0
 40
11.12000051267359
100
AcDbArc
 50
234.4778289794922
 51
54.26266479492193
  0
ARC
  5
424
330
1F
100
AcDbEntity
  8
通り芯
  6
Continuous
 62
     3
370
     9
100
AcDbCircle
 10
-330.6531230852231
 20
172.7894164307774
 30
0.0
 40
8.825000700573206
100
AcDbArc
 50
57.93194580078119
 51
230.785171508789
  0
ARC
  5
425
330
1F
100
AcDbEntity
  8
通り芯
  6
Continuous
 62
     3
370
     9
100
AcDbCircle
 10
-296.3716376639074
 20
102.4506854530084
 30
0.0
 40
11.12000051267359
100
AcDbArc
 50
230.7278289794922
 51
50.51266479492188
  0
ARC
  5
426
330
1F
100
AcDbEntity
  8
通り芯
  6
Continuous
 62
     3
370
     9
100
AcDbCircle
 10
-350.5243942849249
 20
146.8932447725818
 30
0.0
 40
8.825000700573204
100
AcDbArc
 50
54.18194580078125
 51
227.0351715087891
  0
ARC
  5
427
330
1F
100
AcDbEntity
  8
通り芯
  6
Continuous
 62
     3
370
     9
100
AcDbCircle
 10
-320.9161704692422
 20
74.46264457312154
 30
0.0
 40
11.12000051267359
100
AcDbArc
 50
226.9778289794922
 51
46.76266479492193
  0
ARC
  5
428
330
1F
100
AcDbEntity
  8
通り芯
  6
Continuous
 62
     3
370
     9
100
AcDbCircle
 10
-372.0475584228363
 20
122.3506938423968
 30
0.0
 40
8.825000700573202
100
AcDbArc
 50
50.43194580078131
 51
223.2851715087891
  0
ARC
  5
429
330
1F
100
AcDbEntity
  8
通り芯
  6
Continuous
 62
     3
370
     9
100
AcDbCircle
 10
-347.2394362224411
 20
48.1393788199243
 30
0.0
 40
11.12000051267358
100
AcDbArc
 50
223.2278289794922
 51
43.01266479492193
  0
ARC
  5
42A
330
1F
100
AcDbEntity
  8
通り芯
  6
Continuous
 62
     3
370
     9
100
AcDbCircle
 10
-395.1284764292898
 20
99.26977583594166
 30
0.0
 40
8.825000700573204
100
AcDbArc
 50
46.68194580078123
 51
219.5351715087891
  0
ARC
  5
42B
330
1F
100
AcDbEntity
  8
通り芯
  6
Continuous
 62
     3
370
     9
100
AcDbCircle
 10
-375.2284680399036
 20
23.59385507701276
 30
0.0
 40
11.12000051267359
100
AcDbArc
 50
219.4778289794922
 51
39.26266479492193
  0
ARC
  5
42C
330
1F
100
AcDbEntity
  8
通り芯
  6
Continuous
 62
     3
370
     9
100
AcDbCircle
 10
-419.6710273594765
 20
77.74661169803139
 30
0.0
 40
8.825000700573204
100
AcDbArc
 50
42.93194580078129
 51
215.7851715087891
  0
ARC
  5
42D
330
1F
100
AcDbEntity
  8
通り芯
  6
Continuous
 62
     3
370
     9
100
AcDbCircle
 10
-404.7623715374282
 20
0.9321036649565428
 30
0.0
 40
11.12000051267359
100
AcDbArc
 50
215.7278289794921
 51
35.51266479492182
  0
ARC
  5
42E
330
1F
100
AcDbEntity
  8
通り芯
  6
Continuous
 62
     3
370
     9
100
AcDbCircle
 10
-445.5681899552467
 20
57.87534049833013
 30
0.0
 40
8.825000700573206
100
AcDbArc
 50
39.18194580078124
 51
212.0351715087891
  0
ARC
  5
42F
330
1F
100
AcDbEntity
  8
通り芯
  6
Continuous
 62
     3
370
     9
100
AcDbCircle
 10
-435.7152976429431
 20
-19.75074540900621
 30
0.0
 40
11.12000051267359
100
AcDbArc
 50
211.9778289794922
 51
31.76266479492188
  0
ARC
  5
430
330
1F
100
AcDbEntity
  8
通り芯
  6
Continuous
 62
     3
370
     9
100
AcDbCircle
 10
-472.708979208159
 20
39.74019193074739
 30
0.0
 40
8.825000700573208
100
AcDbArc
 50
35.43194580078124
 51
208.2851715087891
  0
ARC
  5
431
330
1F
100
AcDbEntity
  8
通り芯
  6
Continuous
 62
     3
370
     9
100
AcDbCircle
 10
-467.9544607213386
 20
-38.36352588793616
 30
0.0
 40
11.12000051267359
100
AcDbArc
 50
208.2278289794922
 51
28.01266479492188
  0
ARC
  5
432
330
1F
100
AcDbEntity
  8
通り芯
  6
Continuous
 62
     3
370
     9
100
AcDbCircle
 10
-500.9774554218864
 20
23.41945006374075
 30
0.0
 40
8.825000700573206
100
AcDbArc
 50
31.68194580078123
 51
204.535171508789
  0
ARC
  5
433
330
1F
100
AcDbEntity
  8
通り芯
  6
Continuous
 62
     3
370
     9
100
AcDbCircle
 10
-501.3421204496369
 20
-54.8289446409531
 30
0.0
 40
11.12000051267359
100
AcDbArc
 50
204.4778289794922
 51
24.26266479492188
  0
ARC
  5
434
330
1F
100
AcDbEntity
  8
通り芯
  6
Continuous
 62
     3
370
     9
100
AcDbCircle
 10
-530.2537151498057
 20
8.981489590013751
 30
0.0
 40
8.82500070057321
100
AcDbArc
 50
27.93194580078123
 51
200.7851715087891
  0
ARC
  5
435
330
1F
100
AcDbEntity
  8
通り芯
  6
Continuous
 62
     3
370
     9
100
AcDbCircle
 10
-535.7345908793984
 20
-69.07466322505016
 30
0.0
 40
11.12000051267359
100
AcDbArc
 50
200.7278289794922
 51
20.51266479492194
  0
ARC
  5
436
330
1F
100
AcDbEntity
  8
通り芯
  6
Continuous
 62
     3
370
     9
100
AcDbCircle
 10
-560.4119093198408
 20
-3.510269485608006
 30
0.0
 40
8.82500070057321
100
AcDbArc
 50
24.18194580078121
 51
197.035171508789
  0
ARC
  5
437
330
1F
100
AcDbEntity
  8
通り芯
  6
Continuous
 62
     3
370
     9
100
AcDbCircle
 10
-570.9852132494682
 20
-81.04122538570451
 30
0.0
 40
11.12000051267359
100
AcDbArc
 50
196.9778289794922
 51
16.76266479492193
  0
ARC
  5
438
330
1F
100
AcDbEntity
  8
通り芯
  6
Continuous
 62
     3
370
     9
100
AcDbCircle
 10
-591.3212341720366
 20
-14.00231653405129
 30
0.0
 40
8.825000700573206
100
AcDbArc
 50
20.43194580078126
 51
193.2851715087891
  0
ARC
  5
439
330
1F
100
AcDbEntity
  8
通り芯
  6
Continuous
 62
     3
370
     9
100
AcDbCircle
 10
-606.9433650483795
 20
-90.67611143141804
 30
0.0
 40
11.12000051267359
100
AcDbArc
 50
193.2278289794922
 51
13.01266479492188
  0
ARC
  5
43A
330
1F
100
AcDbEntity
  8
通り芯
  6
Continuous
 62
     3
370
     9
100
AcDbCircle
 10
-622.8508859464403
 20
-22.45105030199866
 30
0.0
 40
8.825000700573206
100
AcDbArc
 50
16.68194580078124
 51
189.5351715087891
  0
ARC
  5
43B
330
1F
100
AcDbEntity
  8
通り芯
  6
Continuous
 62
     3
370
     9
100
AcDbCircle
 10
-290.0028818667458
 20
351.5991472256768
 30
0.0
 40
15.10000064221128
100
AcDbArc
 50
256.9542999267578
 51
74.91290283203125
  0
ARC
  5
43C
330
1F
100
AcDbEntity
  8
通り芯
  6
Continuous
 62
     3
370
     9
100
AcDbCircle
 10
-371.3885849351884
 20
371.9847150270157
 30
0.0
 40
11.00000029480135
100
AcDbArc
 50
84.2478942871094
 51
247.6268768310547
  0
ARC
  5
43D
330
1F
100
AcDbEntity
  8
通り芯
  6
Continuous
 62
     3
370
     9
100
AcDbCircle
 10
-303.1040675512434
 20
308.4101239389973
 30
0.0
 40
15.10000064221128
100
AcDbArc
 50
251.3292999267578
 51
69.2879028320312
  0
ARC
  5
43E
330
1F
100
AcDbEntity
  8
通り芯
  6
Continuous
 62
     3
370
     9
100
AcDbCircle
 10
-382.099629187798
 20
336.6746364024231
 30
0.0
 40
11.00000029480135
100
AcDbArc
 50
78.6228942871094
 51
242.0018768310547
  0
ARC
  5
43F
330
1F
100
AcDbEntity
  8
通り芯
  6
Continuous
 62
     3
370
     9
100
AcDbCircle
 10
-320.3751185530693
 20
266.7124617033101
 30
0.0
 40
15.10000064221128
100
AcDbArc
 50
245.7042999267579
 51
63.66290283203131
  0
ARC
  5
440
330
1F
100
AcDbEntity
  8
通り芯
  6
Continuous
 62
     3
370
     9
100
AcDbCircle
 10
-396.2194986998172
 20
302.5844019331605
 30
0.0
 40
11.00000029480135
100
AcDbArc
 50
72.99789428710936
 51
236.3768768310547
  0
ARC
  5
441
330
1F
100
AcDbEntity
  8
通り芯
  6
Continuous
 62
     3
370
     9
100
AcDbCircle
 10
-341.6505482971268
 20
226.9094721118073
 30
0.0
 40
15.10000064221128
100
AcDbArc
 50
240.0792999267579
 51
58.03790283203131
  0
ARC
  5
442
330
1F
100
AcDbEntity
  8
通り芯
  6
Continuous
 62
     3
370
     9
100
AcDbCircle
 10
-413.6134259609928
 20
270.0430028942639
 30
0.0
 40
11.00000029480135
100
AcDbArc
 50
67.37289428710943
 51
230.7518768310547
  0
ARC
  5
443
330
1F
100
AcDbEntity
  8
通り芯
  6
Continuous
 62
     3
370
     9
100
AcDbCircle
 10
-366.7242417677328
 20
189.3826661310219
 30
0.0
 40
15.10000064221128
100
AcDbArc
 50
234.4542999267579
 51
52.41290283203136
  0
ARC
  5
444
330
1F
100
AcDbEntity
  8
通り芯
  6
Continuous
 62
     3
370
     9
100
AcDbCircle
 10
-434.1129515835057
 20
239.3625846219878
 30
0.0
 40
11.00000029480135
100
AcDbArc
 50
61.7478942871094
 51
225.1268768310547
  0
ARC
  5
445
330
1F
100
AcDbEntity
  8
通り芯
  6
Continuous
 62
     3
370
     9
100
AcDbCircle
 10
-395.3554011340605
 20
154.4957178511292
 30
0.0
 40
15.10000064221128
100
AcDbArc
 50
228.8292999267578
 51
46.78790283203125
  0
ARC
  5
446
330
1F
100
AcDbEntity
  8
通り芯
  6
Continuous
 62
     3
370
     9
100
AcDbCircle
 10
-457.5208789898459
 20
210.8394374513794
 30
0.0
 40
11.00000029480135
100
AcDbArc
 50
56.1228942871094
 51
219.5018768310547
  0
ARC
  5
447
330
1F
100
AcDbEntity
  8
通り芯
  6
Continuous
 62
     3
370
     9
100
AcDbCircle
 10
-427.2685457501454
 20
122.5815822974674
 30
0.0
 40
15.10000064221128
100
AcDbArc
 50
223.2042999267578
 51
41.16290283203125
  0
ARC
  5
448
330
1F
100
AcDbEntity
  8
通り芯
  6
Continuous
 62
     3
370
     9
100
AcDbCircle
 10
-483.6122653503974
 20
184.7470601532528
 30
0.0
 40
11.00000029480135
100
AcDbArc
 50
50.49789428710934
 51
213.8768768310547
  0
ARC
  5
449
330
1F
100
AcDbEntity
  8
通り芯
  6
Continuous
 62
     3
370
     9
100
AcDbCircle
 10
-462.1564849676149
 20
93.95042293113917
 30
0.0
 40
15.10000064221128
100
AcDbArc
 50
217.5792999267579
 51
35.53790283203131
  0
ARC
  5
44A
330
1F
100
AcDbEntity
  8
通り芯
  6
Continuous
 62
     3
370
     9
100
AcDbCircle
 10
-512.1354125210057
 20
161.3391327469121
 30
0.0
 40
11.00000029480135
100
AcDbArc
 50
44.87289428710943
 51
208.2518768310547
  0
ARC
  5
44B
330
1F
100
AcDbEntity
  8
通り芯
  6
Continuous
 62
     3
370
     9
100
AcDbCircle
 10
-499.6823000108241
 20
68.87573852295859
 30
0.0
 40
15.10000064221128
100
AcDbArc
 50
211.9542999267579
 51
29.91290283203131
  0
ARC
  5
44C
330
1F
100
AcDbEntity
  8
通り芯
  6
Continuous
 62
     3
370
     9
100
AcDbCircle
 10
-542.8158307932806
 20
140.8396071244009
 30
0.0
 40
11.00000029480135
100
AcDbArc
 50
39.24789428710943
 51
202.6268768310547
  0
ARC
  5
44D
330
1F
100
AcDbEntity
  8
通り芯
  6
Continuous
 62
     3
370
     9
100
AcDbCircle
 10
-539.4852896023274
 20
47.60030877890117
 30
0.0
 40
15.10000064221128
100
AcDbArc
 50
206.3292999267578
 51
24.28790283203125
  0
ARC
  5
44E
330
1F
100
AcDbEntity
  8
通り芯
  6
Continuous
 62
     3
370
     9
100
AcDbCircle
 10
-575.3572298321767
 20
123.4456798632247
 30
0.0
 40
11.00000029480135
100
AcDbArc
 50
33.62289428710938
 51
197.0018768310547
  0
ARC
  5
44F
330
1F
100
AcDbEntity
  8
通り芯
  6
Continuous
 62
     3
370
     9
100
AcDbCircle
 10
-581.181960900439
 20
30.32925777707632
 30
0.0
 40
15.10000064221128
100
AcDbArc
 50
200.7042999267578
 51
18.66290283203125
  0
ARC
  5
450
330
1F
100
AcDbEntity
  8
通り芯
  6
Continuous
 62
     3
370
     9
100
AcDbCircle
 10
-609.4474643014398
 20
109.3248194136292
 30
0.0
 40
11.00000029480135
100
AcDbArc
 50
27.99789428710939
 51
191.3768768310547
  0
ARC
  5
451
330
1F
100
AcDbEntity
  8
通り芯
  6
Continuous
 62
     3
370
     9
100
AcDbCircle
 10
-624.3709841871184
 20
17.22807209257766
 30
0.0
 40
15.10000064221128
100
AcDbArc
 50
195.0792999267578
 51
13.03790283203125
  0
ARC
  5
452
330
1F
100
AcDbEntity
  8
通り芯
  6
Continuous
 62
     3
370
     9
100
AcDbCircle
 10
-644.7565519884567
 20
98.61377516101967
 30
0.0
 40
11.00000029480135
100
AcDbArc
 50
22.37289428710941
 51
185.7518768310547
  0
ARC
  5
453
330
1F
100
AcDbEntity
  8
通り芯
  6
Continuous
 62
     3
370
     9
100
AcDbCircle
 10
-408.4080308773644
 20
426.2722391582899
 30
0.0
 40
20.19899864224394
100
AcDbArc
 50
265.1592102050781
 51
83.59512329101564
  0
ARC
  5
454
330
1F
100
AcDbEntity
  8
通り芯
  6
Continuous
 62
     3
370
     9
100
AcDbCircle
 10
-473.905040861677
 20
432.7232427742108
 30
0.0
 40
13.99999993533241
100
AcDbArc
 50
103.3457489013672
 51
245.4060974121094
  0
ARC
  5
455
330
1F
100
AcDbEntity
  8
通り芯
  6
Continuous
 62
     3
370
     9
100
AcDbCircle
 10
-424.6366155498565
 20
368.857316039021
 30
0.0
 40
24.50000061261608
100
AcDbArc
 50
252.5545043945312
 51
73.68803405761713
  0
ARC
  5
456
330
1F
100
AcDbEntity
  8
通り芯
  6
Continuous
 62
     3
370
     9
100
AcDbCircle
 10
-510.6648611590952
 20
394.954648025025
 30
0.0
 40
15.60000025972897
100
AcDbArc
 50
80.48173522949219
 51
245.7541656494141
  0
ARC
  5
457
330
1F
100
AcDbEntity
  8
通り芯
  6
Continuous
 62
     3
370
     9
100
AcDbCircle
 10
-449.0552992831151
 20
309.9054487402911
 30
0.0
 40
24.50000061261608
100
AcDbArc
 50
241.3045043945313
 51
62.43803405761719
  0
ARC
  5
458
330
1F
100
AcDbEntity
  8
通り芯
  6
Continuous
 62
     3
370
     9
100
AcDbCircle
 10
-528.3402146916881
 20
352.2838850902854
 30
0.0
 40
15.60000025972897
100
AcDbArc
 50
69.2317352294922
 51
234.5041656494141
  0
ARC
  5
459
330
1F
100
AcDbEntity
  8
通り芯
  6
Continuous
 62
     3
370
     9
100
AcDbCircle
 10
-484.5051001058407
 20
256.8506509528276
 30
0.0
 40
24.50000061261608
100
AcDbArc
 50
230.0545043945313
 51
51.18803405761724
  0
ARC
  5
45A
330
1F
100
AcDbEntity
  8
通り芯
  6
Continuous
 62
     3
370
     9
100
AcDbCircle
 10
-553.99955226936
 20
313.8820812304123
 30
0.0
 40
15.60000025972897
100
AcDbArc
 50
57.98173522949223
 51
223.2541656494141
  0
ARC
  5
45B
330
1F
100
AcDbEntity
  8
通り芯
  6
Continuous
 62
     3
370
     9
100
AcDbCircle
 10
-529.6254607269946
 20
211.7302903316731
 30
0.0
 40
24.50000061261608
100
AcDbArc
 50
218.8045043945313
 51
39.93803405761719
  0
ARC
  5
45C
330
1F
100
AcDbEntity
  8
通り芯
  6
Continuous
 62
     3
370
     9
100
AcDbCircle
 10
-586.657881942155
 20
281.2237515576173
 30
0.0
 40
15.60000025972897
100
AcDbArc
 50
46.73173522949219
 51
212.0041656494141
  0
ARC
  5
45D
330
1F
100
AcDbEntity
  8
通り芯
  6
Continuous
 62
     3
370
     9
100
AcDbCircle
 10
-582.6802585144599
 20
176.2794985713724
 30
0.0
 40
24.50000061261608
100
AcDbArc
 50
207.5545043945313
 51
28.68803405761719
  0
ARC
  5
45E
330
1F
100
AcDbEntity
  8
通り芯
  6
Continuous
 62
     3
370
     9
100
AcDbCircle
 10
-625.0596858020292
 20
255.5644139799448
 30
0.0
 40
15.60000025972897
100
AcDbArc
 50
35.48173522949223
 51
200.7541656494141
  0
ARC
  5
45F
330
1F
100
AcDbEntity
  8
通り芯
  6
Continuous
 62
     3
370
     9
100
AcDbCircle
 10
-641.6331167507649
 20
151.8608148381132
 30
0.0
 40
24.50000061261609
100
AcDbArc
 50
196.3045043945312
 51
17.43803405761713
  0
ARC
  5
460
330
1F
100
AcDbEntity
  8
通り芯
  6
Continuous
 62
     3
370
     9
100
AcDbCircle
 10
-667.7294577991931
 20
237.8900513849281
 30
0.0
 40
15.60000025972897
100
AcDbArc
 50
24.23173522949217
 51
189.5041656494141
  0
ARC
  5
461
330
1F
100
AcDbEntity
  8
通り芯
  6
Continuous
 62
     3
370
     9
100
AcDbCircle
 10
-699.0470489324587
 20
135.6322301656199
 30
0.0
 40
20.19899864224393
100
AcDbArc
 50
186.4048767089844
 51
4.840789794921932
  0
ARC
  5
462
330
1F
100
AcDbEntity
  8
通り芯
  6
Continuous
 62
     3
370
     9
100
AcDbCircle
 10
-705.4980525483795
 20
201.1292401499348
 30
0.0
 40
13.99999993533241
100
AcDbArc
 50
24.59390258789063
 51
166.6542510986328
  0
ARC
  5
463
330
1F
100
AcDbEntity
  8
通り芯
  6
Continuous
 62
     3
370
     9
100
AcDbCircle
 10
-266.1202953617833
 20
463.3451957295374
 30
0.0
 40
80.00000073642803
100
AcDbArc
 50
181.4326934814453
 51
358.5673065185547
  0
ARC
  5
464
330
1F
100
AcDbEntity
  8
通り芯
  6
Continuous
 62
     3
370
     9
100
AcDbCircle
 10
-266.1202953617833
 20
463.3451957295374
 30
0.0
 40
100.0000009205351
100
AcDbArc
 50
346.2465362548828
 51
347.9056243896485
  0
ARC
  5
465
330
1F
100
AcDbEntity
  8
通り芯
  6
Continuous
 62
     3
370
     9
100
AcDbCircle
 10
-163.4512350486798
 20
441.3453906178551
 30
0.0
 40
5.000000046026752
100
AcDbArc
 50
90.0
 51
167.9048919677734
  0
ARC
  5
466
330
1F
100
AcDbEntity
  8
通り芯
  6
Continuous
 62
     3
370
     9
100
AcDbCircle
 10
-164.1310182254111
 20
438.3814963298032
 30
0.0
 40
5.000000046026752
100
AcDbArc
 50
166.2462158203125
 51
266.2501220703126
  0
ARC
  5
467
330
1F
100
AcDbEntity
  8
通り芯
  6
Continuous
 62
     3
370
     9
100
AcDbCircle
 10
-266.1202953617833
 20
463.3451957295374
 30
0.0
 40
100.0000009205351
100
AcDbArc
 50
324.7759552001953
 51
331.9318237304688
  0
ARC
  5
468
330
1F
100
AcDbEntity
  8
通り芯
  6
Continuous
 62
     3
370
     9
100
AcDbCircle
 10
-180.3457297718492
 20
402.7840458083414
 30
0.0
 40
5.000000046026752
100
AcDbArc
 50
144.7760009765625
 51
262.4996185302734
  0
ARC
  5
469
330
1F
100
AcDbEntity
  8
通り芯
  6
Continuous
 62
     3
370
     9
100
AcDbCircle
 10
-173.4696139360781
 20
413.9400210323099
 30
0.0
 40
5.000000046026752
100
AcDbArc
 50
86.25144958496097
 51
151.9316101074219
  0
ARC
  5
46A
330
1F
100
AcDbEntity
  8
通り芯
  6
Continuous
 62
     3
370
     9
100
AcDbCircle
 10
-266.1202953617833
 20
463.3451957295374
 30
0.0
 40
100.0000009205351
100
AcDbArc
 50
299.7931671142578
 51
307.8069305419922
  0
ARC
  5
46B
330
1F
100
AcDbEntity
  8
通り芯
  6
Continuous
 62
     3
370
     9
100
AcDbCircle
 10
-213.9494138915863
 20
372.2235309826896
 30
0.0
 40
5.000000046026752
100
AcDbArc
 50
119.7926788330078
 51
258.7499237060547
  0
ARC
  5
46C
330
1F
100
AcDbEntity
  8
通り芯
  6
Continuous
 62
     3
370
     9
100
AcDbCircle
 10
-201.7549360885884
 20
380.3868747289191
 30
0.0
 40
5.000000046026752
100
AcDbArc
 50
82.50032043457033
 51
127.8073272705078
  0
ARC
  5
46D
330
1F
100
AcDbEntity
  8
通り芯
  6
Continuous
 62
     3
370
     9
100
AcDbCircle
 10
-266.1202953617833
 20
463.3451957295374
 30
0.0
 40
100.0000009205351
100
AcDbArc
 50
208.2781524658203
 51
217.7066497802734
  0
ARC
  5
46E
330
1F
100
AcDbEntity
  8
通り芯
  6
Continuous
 62
     3
370
     9
100
AcDbCircle
 10
-358.5896352111893
 20
413.6011203815194
 30
0.0
 40
5.000000046026752
100
AcDbArc
 50
28.27763366699219
 51
84.37429809570312
  0
ARC
  5
46F
330
1F
100
AcDbEntity
  8
通り芯
  6
Continuous
 62
     3
370
     9
100
AcDbCircle
 10
-349.1915832459988
 20
399.1255042799269
 30
0.0
 40
5.000000046026752
100
AcDbArc
 50
258.7499237060547
 51
37.70611572265631
  0
ARC
  5
470
330
1F
100
AcDbEntity
  8
通り芯
  6
Continuous
 62
     3
370
     9
100
AcDbCircle
 10
-680.949555992742
 20
91.41461367566464
 30
0.0
 40
11.00000029480135
100
AcDbArc
 50
16.74812316894532
 51
180.1271057128907
  0
ARC
  5
471
330
1F
100
AcDbEntity
  8
通り芯
  6
Continuous
 62
     3
370
     9
100
AcDbCircle
 10
-680.3609390729473
 20
-102.7952779786848
 30
0.0
 40
11.12000051267358
100
AcDbArc
 50
185.7373352050781
 51
5.522171020507812
  0
ARC
  5
472
330
1F
100
AcDbEntity
  8
通り芯
  6
Continuous
 62
     3
370
     9
100
AcDbCircle
 10
-712.608029651946
 20
-109.6426566247699
 30
0.0
 40
6.53000040461658
100
AcDbArc
 50
184.1580963134766
 51
359.5848236083985
  0
ARC
  5
473
330
1F
100
AcDbEntity
  8
通り芯
  6
Continuous
 62
     3
370
     9
100
AcDbCircle
 10
-643.4524781392172
 20
-97.93572010887331
 30
0.0
 40
11.12000051267359
100
AcDbArc
 50
189.4870452880859
 51
9.271881103515625
  0
ARC
  5
474
330
1F
100
AcDbEntity
  8
通り芯
  6
Continuous
 62
     3
370
     9
100
AcDbCircle
 10
-736.120005503705
 20
-6.654514412384316
 30
0.0
 40
80.00000073642802
100
AcDbArc
 50
271.4326934814454
 51
88.56730651855469
  0
ARC
  5
475
330
1F
100
AcDbEntity
  8
通り芯
  6
Continuous
 62
     3
370
     9
100
AcDbCircle
 10
-736.120005503705
 20
-6.654514412384316
 30
0.0
 40
100.000000920535
100
AcDbArc
 50
282.0943756103515
 51
283.7534637451171
  0
ARC
  5
476
330
1F
100
AcDbEntity
  8
通り芯
  6
Continuous
 62
     3
370
     9
100
AcDbCircle
 10
-714.1202003920232
 20
-109.3235747254876
 30
0.0
 40
5.000000046026751
100
AcDbArc
 50
102.0951080322266
 51
180.0
  0
ARC
  5
477
330
1F
100
AcDbEntity
  8
通り芯
  6
Continuous
 62
     3
370
     9
100
AcDbCircle
 10
-711.157297041547
 20
-108.6437915487564
 30
0.0
 40
5.000000046026751
100
AcDbArc
 50
3.749877929687512
 51
103.7537841796875
  0
ARC
  5
478
330
1F
100
AcDbEntity
  8
通り芯
  6
Continuous
 62
     3
370
     9
100
AcDbCircle
 10
-736.120005503705
 20
-6.654514412384316
 30
0.0
 40
100.000000920535
100
AcDbArc
 50
298.0681762695312
 51
305.2240447998047
  0
ARC
  5
479
330
1F
100
AcDbEntity
  8
通り芯
  6
Continuous
 62
     3
370
     9
100
AcDbCircle
 10
-675.5588555825095
 20
-92.42908000231878
 30
0.0
 40
5.000000046026751
100
AcDbArc
 50
7.500381469726551
 51
125.2239990234375
  0
ARC
  5
47A
330
1F
100
AcDbEntity
  8
通り芯
  6
Continuous
 62
     3
370
     9
100
AcDbCircle
 10
-686.7158217440526
 20
-99.30519583809044
 30
0.0
 40
5.000000046026751
100
AcDbArc
 50
118.0683898925781
 51
183.7485504150391
  0
ARC
  5
47B
330
1F
100
AcDbEntity
  8
通り芯
  6
Continuous
 62
     3
370
     9
100
AcDbCircle
 10
-736.120005503705
 20
-6.654514412384316
 30
0.0
 40
100.000000920535
100
AcDbArc
 50
322.1930694580078
 51
330.2068328857422
  0
ARC
  5
47C
330
1F
100
AcDbEntity
  8
通り芯
  6
Continuous
 62
     3
370
     9
100
AcDbCircle
 10
-644.9983407568577
 20
-58.82638682015752
 30
0.0
 40
5.000000046026751
100
AcDbArc
 50
11.25007629394534
 51
150.2073211669922
  0
ARC
  5
47D
330
1F
100
AcDbEntity
  8
通り芯
  6
Continuous
 62
     3
370
     9
100
AcDbCircle
 10
-653.1616845030878
 20
-71.01987368558085
 30
0.0
 40
5.000000046026751
100
AcDbArc
 50
142.1926727294922
 51
187.4996795654297
  0
ARC
  5
47E
330
1F
100
AcDbEntity
  8
通り芯
  6
Continuous
 62
     3
370
     9
100
AcDbCircle
 10
-736.120005503705
 20
-6.654514412384316
 30
0.0
 40
100.000000920535
100
AcDbArc
 50
52.29335021972658
 51
61.72184753417971
  0
ARC
  5
47F
330
1F
100
AcDbEntity
  8
通り芯
  6
Continuous
 62
     3
370
     9
100
AcDbCircle
 10
-686.3759301556881
 20
85.81482543702109
 30
0.0
 40
5.000000046026751
100
AcDbArc
 50
185.6257019042969
 51
241.7223663330079
  0
ARC
  5
480
330
1F
100
AcDbEntity
  8
通り芯
  6
Continuous
 62
     3
370
     9
100
AcDbCircle
 10
-671.9003140540956
 20
76.41677347183062
 30
0.0
 40
5.000000046026751
100
AcDbArc
 50
232.2938842773438
 51
11.25007629394531
  0
TEXT
  5
481
330
1F
100
AcDbEntity
  8
F-5ﾚｲﾔ
  6
Continuous
 62
     7
370
     9
100
AcDbText
 10
-790.7781425217913
 20
-1323.681830562294
 30
0.0
 40
22.86
  1
丸型　格子タイプ　支柱穴４ケ　ガーデングレート　ＲＧＣ－３－１２００×４００
 41
1.032456140350877
  7
ＭＳ ゴシック
100
AcDbText
  0
LINE
  5
482
330
1F
100
AcDbEntity
  8
通り芯
  6
JWW_CENTER1
 62
     3
370
     9
100
AcDbLine
 10
-266.1202953617833
 20
373.9039957526551
 30
0.0
 11
-266.1202953617833
 21
552.7863957064197
 31
0.0
  0
LINE
  5
483
330
1F
100
AcDbEntity
  8
その他
  6
Continuous
 62
     7
370
     9
100
AcDbLine
 10
-576.9509961781456
 20
-6.655505349960578
 30
0.0
 11
-576.9509961781456
 21
933.3449058714591
 31
0.0
  0
LWPOLYLINE
  5
484
330
1F
100
AcDbEntity
  8
その他
  6
Continuous
 62
     7
370
     9
100
AcDbPolyline
 90
        4
 70
     1
 43
1.0
 10
-576.4509961781457
 20
-6.655505349960578
 42
0.4142135623731
 10
-576.9509961781456
 20
-6.155505349960578
 42
0.4142135623731
 10
-577.4509961781456
 20
-6.655505349960578
 42
0.4142135623731
 10
-576.9509961781456
 20
-7.155505349960578
 42
0.4142135623731
  0
LWPOLYLINE
  5
485
330
1F
100
AcDbEntity
  8
その他
  6
Continuous
 62
     7
370
     9
100
AcDbPolyline
 90
        4
 70
     1
 43
1.0
 10
-576.4509961781457
 20
933.3449058714591
 42
0.4142135623731
 10
-576.9509961781456
 20
933.8449058714591
 42
0.4142135623731
 10
-577.4509961781456
 20
933.3449058714591
 42
0.4142135623731
 10
-576.9509961781456
 20
932.8449058714591
 42
0.4142135623731
  0
LINE
  5
486
330
1F
100
AcDbEntity
  8
その他
  6
Continuous
 62
     7
370
     9
100
AcDbLine
 10
-1206.121697520779
 20
301.1751954664018
 30
0.0
 11
-1206.121697520779
 21
368.9216770329781
 31
0.0
  0
LINE
  5
487
330
1F
100
AcDbEntity
  8
その他
  6
Continuous
 62
     7
370
     9
100
AcDbLine
 10
-266.1212862993596
 20
301.1751954664018
 30
0.0
 11
-266.1212862993596
 21
368.9216770329781
 31
0.0
  0
LINE
  5
488
330
1F
100
AcDbEntity
  8
通り芯
  6
JWW_CENTER1
 62
     3
370
     9
100
AcDbLine
 10
-736.1209964412812
 20
933.3449058714591
 30
0.0
 11
-828.9209150170575
 21
933.3449058714591
 31
0.0
  0
LINE
  5
489
330
1F
100
AcDbEntity
  8
通り芯
  6
JWW_CENTER1
 62
     3
370
     9
100
AcDbLine
 10
-736.1209964412812
 20
933.3449058714591
 30
0.0
 11
-643.321077865505
 21
933.3449058714591
 31
0.0
  0
LINE
  5
48A
330
1F
100
AcDbEntity
  8
その他
  6
Continuous
 62
     7
370
     9
100
AcDbLine
 10
-573.9509961781456
 20
933.3449058714591
 30
0.0
 11
-632.2929112116053
 21
933.3449058714591
 31
0.0
  0
LINE
  5
48B
330
1F
100
AcDbEntity
  8
通り芯
  6
JWW_CENTER1
 62
     3
370
     9
100
AcDbLine
 10
-643.321077865505
 20
-6.654514412384316
 30
0.0
 11
-828.9209150170575
 21
-6.654514412384316
 31
0.0
  0
LINE
  5
48C
330
1F
100
AcDbEntity
  8
その他
  6
Continuous
 62
     7
370
     9
100
AcDbLine
 10
-573.9509961781457
 20
-6.655505349960578
 30
0.0
 11
-632.2929112116053
 21
-6.655505349960578
 31
0.0
  0
TEXT
  5
48D
330
1F
100
AcDbEntity
  8
1-5ﾚｲﾔ
  6
Continuous
 62
     7
370
     9
100
AcDbText
 10
1118.725620629371
 20
28.91215794256974
 30
0.0
 40
22.86
  1
受枠：コンクリートブロック　ＢＲ－１２００
 41
1.158730158730159
  7
ＭＳ ゴシック
100
AcDbText
  0
LINE
  5
48E
330
1F
100
AcDbEntity
  8
1-5ﾚｲﾔ
  6
Continuous
 62
     7
370
     9
100
AcDbLine
 10
1113.164904162581
 20
18.86221836633915
 30
0.0
 11
1848.725620629371
 21
18.86221836633915
 31
0.0
  0
LINE
  5
48F
330
1F
100
AcDbEntity
  8
通り芯
  6
JWW_CENTER1
 62
     3
370
     9
100
AcDbLine
 10
-1206.121697520779
 20
373.9039957526551
 30
0.0
 11
-1206.121697520779
 21
482.3438476848296
 31
0.0
  0
LINE
  5
490
330
1F
100
AcDbEntity
  8
通り芯
  6
JWW_CENTER1
 62
     3
370
     9
100
AcDbLine
 10
-1206.121697520779
 20
531.1566059239701
 30
0.0
 11
-1206.121697520779
 21
552.7863957064197
 31
0.0
  0
TEXT
  5
491
330
1F
100
AcDbEntity
  8
その他
  6
Continuous
 62
     2
370
   211
100
AcDbText
 10
-592.5909961781456
 20
389.4354699612134
 30
0.0
 40
30.48
  1
940
 50
90.0
 41
1.083333333333333
  7
ＭＳ ゴシック
100
AcDbText
  0
TEXT
  5
492
330
1F
100
AcDbEntity
  8
その他
  6
Continuous
 62
     2
370
   211
100
AcDbText
 10
-808.718557917206
 20
319.8151954664017
 30
0.0
 40
30.48
  1
940
 41
1.083333333333333
  7
ＭＳ ゴシック
100
AcDbText
  0
TEXT
  5
493
330
1F
100
AcDbEntity
  8
その他
  6
Continuous
 62
     2
370
   211
100
AcDbText
 10
-726.5813496901252
 20
494.5208699856866
 30
0.0
 40
30.48
  1
φ400
 50
45.0
 41
1.1
  7
ＭＳ ゴシック
100
AcDbText
  0
LINE
  5
494
330
1F
100
AcDbEntity
  8
1-3ﾚｲﾔ
  6
Continuous
 62
     6
370
     9
100
AcDbLine
 10
770.2941322738151
 20
-535.8244864832212
 30
0.0
 11
770.2941322738151
 21
-685.8239459450368
 31
0.0
  0
LWPOLYLINE
  5
495
330
1F
100
AcDbEntity
  8
1-4ﾚｲﾔ
  6
Continuous
 62
     7
370
     9
100
AcDbPolyline
 90
        4
 70
     1
 43
1.0
 10
1045.793283908709
 20
-308.8474596171649
 42
0.4142135623731
 10
1045.293283908709
 20
-308.3474596171649
 42
0.4142135623731
 10
1044.793283908709
 20
-308.8474596171649
 42
0.4142135623731
 10
1045.293283908709
 20
-309.3474596171649
 42
0.4142135623731
  0
LINE
  5
496
330
1F
100
AcDbEntity
  8
1-4ﾚｲﾔ
  6
Continuous
 62
     7
370
     9
100
AcDbLine
 10
1045.293283908709
 20
-305.8474596171649
 30
0.0
 11
1045.293283908709
 21
-301.1753006341846
 31
0.0
  0
LINE
  5
497
330
1F
100
AcDbEntity
  8
1-4ﾚｲﾔ
  6
Continuous
 62
     7
370
     9
100
AcDbLine
 10
1045.293283908709
 20
-308.8474596171649
 30
0.0
 11
870.2952752101392
 21
-308.8474596171649
 31
0.0
  0
LWPOLYLINE
  5
498
330
1F
100
AcDbEntity
  8
1-4ﾚｲﾔ
  6
Continuous
 62
     7
370
     9
100
AcDbPolyline
 90
        4
 70
     1
 43
1.0
 10
870.7952752101392
 20
-308.8474596171649
 42
0.4142135623731
 10
870.2952752101392
 20
-308.3474596171649
 42
0.4142135623731
 10
869.7952752101392
 20
-308.8474596171649
 42
0.4142135623731
 10
870.2952752101392
 20
-309.3474596171649
 42
0.4142135623731
  0
TEXT
  5
499
330
1F
100
AcDbEntity
  8
1-4ﾚｲﾔ
  6
Continuous
 62
     2
370
   211
100
AcDbText
 10
936.5442795594244
 20
-293.2074596171649
 30
0.0
 40
30.48
  1
70
 41
1.062499999999996
  7
ＭＳ ゴシック
100
AcDbText
  0
LINE
  5
49A
330
1F
100
AcDbEntity
  8
1-4ﾚｲﾔ
  6
Continuous
 62
     7
370
     9
100
AcDbLine
 10
870.2952752101392
 20
-308.8474596171649
 30
0.0
 11
795.2941322738151
 21
-308.8474596171649
 31
0.0
  0
LWPOLYLINE
  5
49B
330
1F
100
AcDbEntity
  8
1-4ﾚｲﾔ
  6
Continuous
 62
     7
370
     9
100
AcDbPolyline
 90
        4
 70
     1
 43
1.0
 10
795.7941322738151
 20
-308.8474596171649
 42
0.4142135623731
 10
795.2941322738151
 20
-308.3474596171649
 42
0.4142135623731
 10
794.7941322738152
 20
-308.8474596171649
 42
0.4142135623731
 10
795.2941322738151
 20
-309.3474596171649
 42
0.4142135623731
  0
TEXT
  5
49C
330
1F
100
AcDbEntity
  8
1-4ﾚｲﾔ
  6
Continuous
 62
     2
370
   211
100
AcDbText
 10
811.5447037419772
 20
-293.2074596171649
 30
0.0
 40
30.48
  1
30
 41
1.0625
  7
ＭＳ ゴシック
100
AcDbText
  0
LINE
  5
49D
330
1F
100
AcDbEntity
  8
1-4ﾚｲﾔ
  6
Continuous
 62
     7
370
     9
100
AcDbLine
 10
795.2941322738151
 20
-311.8474596171649
 30
0.0
 11
795.2941322738151
 21
-301.1753006341846
 31
0.0
  0
LINE
  5
49E
330
1F
100
AcDbEntity
  8
1-3ﾚｲﾔ
  6
Continuous
 62
     6
370
     9
100
AcDbLine
 10
1070.29463893631
 20
-535.8244864832212
 30
0.0
 11
1070.29463893631
 21
-685.8239459450368
 31
0.0
  0
LINE
  5
49F
330
1F
100
AcDbEntity
  8
1-3ﾚｲﾔ
  6
Continuous
 62
     6
370
     9
100
AcDbLine
 10
1045.293283908709
 20
-385.8237883494372
 30
0.0
 11
1045.293283908709
 21
-535.8244864832212
 31
0.0
  0
LINE
  5
4A0
330
1F
100
AcDbEntity
  8
1-3ﾚｲﾔ
  6
Continuous
 62
     6
370
     9
100
AcDbLine
 10
951.0551204871967
 20
-535.8244864832212
 30
0.0
 11
864.452131084219
 21
-685.8227072730688
 31
0.0
  0
LINE
  5
4A1
330
1F
100
AcDbEntity
  8
1-3ﾚｲﾔ
  6
Continuous
 62
     6
370
     9
100
AcDbLine
 10
864.452131084219
 20
-535.8244864832212
 30
0.0
 11
777.8491416812425
 21
-685.8227072730688
 31
0.0
  0
LINE
  5
4A2
330
1F
100
AcDbEntity
  8
1-3ﾚｲﾔ
  6
Continuous
 62
     6
370
     9
100
AcDbLine
 10
879.2393970532781
 20
-660.2119256365904
 30
0.0
 11
894.0266630223373
 21
-685.8227072730688
 31
0.0
  0
LINE
  5
4A3
330
1F
100
AcDbEntity
  8
1-3ﾚｲﾔ
  6
Continuous
 62
     6
370
     9
100
AcDbLine
 10
792.6364076503016
 20
-660.2119256365904
 30
0.0
 11
807.4236736193608
 21
-685.8227072730688
 31
0.0
  0
LINE
  5
4A4
330
1F
100
AcDbEntity
  8
1-3ﾚｲﾔ
  6
Continuous
 62
     6
370
     9
100
AcDbLine
 10
913.8924840653739
 20
-535.8244864832212
 30
0.0
 11
932.4725636043165
 21
-568.0076615886082
 31
0.0
  0
LINE
  5
4A5
330
1F
100
AcDbEntity
  8
1-3ﾚｲﾔ
  6
Continuous
 62
     6
370
     9
100
AcDbLine
 10
827.2894946623974
 20
-535.8244864832212
 30
0.0
 11
845.8695742013385
 21
-568.0076615886082
 31
0.0
  0
LINE
  5
4A6
330
1F
100
AcDbEntity
  8
1-3ﾚｲﾔ
  6
Continuous
 62
     6
370
     9
100
AcDbLine
 10
1037.655632546235
 20
-535.8244864832212
 30
0.0
 11
951.0526431432578
 21
-685.8227072730688
 31
0.0
  0
LINE
  5
4A7
330
1F
100
AcDbEntity
  8
1-3ﾚｲﾔ
  6
Continuous
 62
     6
370
     9
100
AcDbLine
 10
965.839909112317
 20
-660.2119256365904
 30
0.0
 11
980.6271750813761
 21
-685.8227072730688
 31
0.0
  0
LINE
  5
4A8
330
1F
100
AcDbEntity
  8
1-3ﾚｲﾔ
  6
Continuous
 62
     6
370
     9
100
AcDbLine
 10
1000.492996124412
 20
-535.8244864832212
 30
0.0
 11
1019.075553007293
 21
-568.0076615886082
 31
0.0
  0
LINE
  5
4A9
330
1F
100
AcDbEntity
  8
1-1ﾚｲﾔ
  6
Continuous
 62
     2
370
     9
100
AcDbLine
 10
1027.793326326965
 20
-135.8248694258034
 30
0.0
 11
1045.293283908709
 21
-153.3248270075486
 31
0.0
  0
LINE
  5
4AA
330
1F
100
AcDbEntity
  8
1-1ﾚｲﾔ
  6
Continuous
 62
     2
370
     9
100
AcDbLine
 10
870.2952752101392
 20
-135.8248694258034
 30
0.0
 11
870.2952752101392
 21
-215.823259888673
 31
0.0
  0
LINE
  5
4AB
330
1F
100
AcDbEntity
  8
1-1ﾚｲﾔ
  6
Continuous
 62
     2
370
     9
100
AcDbLine
 10
870.2952752101392
 20
-215.823259888673
 30
0.0
 11
795.2941322738151
 21
-215.823259888673
 31
0.0
  0
LINE
  5
4AC
330
1F
100
AcDbEntity
  8
1-1ﾚｲﾔ
  6
Continuous
 62
     2
370
     9
100
AcDbLine
 10
1027.793326326965
 20
-135.8248694258034
 30
0.0
 11
870.2952752101392
 21
-135.8248694258034
 31
0.0
  0
LINE
  5
4AD
330
1F
100
AcDbEntity
  8
1-0ﾚｲﾔ
  6
Continuous
 62
     3
370
     9
100
AcDbLine
 10
482.7953878836292
 20
-140.821672149811
 30
0.0
 11
479.7259587437959
 21
-165.8230271774119
 31
0.0
  0
LINE
  5
4AE
330
1F
100
AcDbEntity
  8
1-0ﾚｲﾔ
  6
Continuous
 62
     3
370
     9
100
AcDbLine
 10
445.2952133501834
 20
-140.821672149811
 30
0.0
 11
448.3646424900168
 21
-165.8230271774119
 31
0.0
  0
LINE
  5
4AF
330
1F
100
AcDbEntity
  8
1-0ﾚｲﾔ
  6
Continuous
 62
     3
370
     9
100
AcDbLine
 10
807.7950424988773
 20
-140.821672149811
 30
0.0
 11
817.0045685903456
 21
-215.823259888673
 31
0.0
  0
LINE
  5
4B0
330
1F
100
AcDbEntity
  8
1-0ﾚｲﾔ
  6
Continuous
 62
     3
370
     9
100
AcDbLine
 10
857.7952752101392
 20
-140.821672149811
 30
0.0
 11
848.5869877906391
 21
-215.823259888673
 31
0.0
  0
LINE
  5
4B1
330
1F
100
AcDbEntity
  8
1-0ﾚｲﾔ
  6
Continuous
 62
     3
370
     9
100
AcDbLine
 10
810.8644716387106
 20
-165.8230271774119
 30
0.0
 11
350.4863601771576
 21
-165.8230271774119
 31
0.0
  0
LINE
  5
4B2
330
1F
100
AcDbEntity
  8
1-0ﾚｲﾔ
  6
Continuous
 62
     3
370
     9
100
AcDbLine
 10
848.5869877906391
 20
-215.823259888673
 30
0.0
 11
350.4863601771576
 21
-215.823259888673
 31
0.0
  0
LINE
  5
4B3
330
1F
100
AcDbEntity
  8
1-0ﾚｲﾔ
  6
Continuous
 62
     3
370
     9
100
AcDbLine
 10
857.7952752101392
 20
-140.821672149811
 30
0.0
 11
350.4863723537237
 21
-140.8219235055826
 31
0.0
  0
LINE
  5
4B4
330
1F
100
AcDbEntity
  8
1-0ﾚｲﾔ
  6
Continuous
 62
     3
370
     9
100
AcDbLine
 10
350.4863601771576
 20
-115.8219235055856
 30
0.0
 11
350.4863601771576
 21
-240.823259888673
 31
0.0
  0
LWPOLYLINE
  5
4B5
330
1F
100
AcDbEntity
  8
1-4ﾚｲﾔ
  6
Continuous
 62
     7
370
     9
100
AcDbPolyline
 90
        4
 70
     1
 43
1.0
 10
269.5724712769832
 20
-215.823259888673
 42
0.4142135623731
 10
269.0724712769832
 20
-215.323259888673
 42
0.4142135623731
 10
268.5724712769831
 20
-215.823259888673
 42
0.4142135623731
 10
269.0724712769832
 20
-216.323259888673
 42
0.4142135623731
  0
LWPOLYLINE
  5
4B6
330
1F
100
AcDbEntity
  8
1-4ﾚｲﾔ
  6
Continuous
 62
     7
370
     9
100
AcDbPolyline
 90
        4
 70
     1
 43
1.0
 10
269.5724712769832
 20
-165.8230271774119
 42
0.4142135623731
 10
269.0724712769832
 20
-165.3230271774119
 42
0.4142135623731
 10
268.5724712769831
 20
-165.8230271774119
 42
0.4142135623731
 10
269.0724712769832
 20
-166.3230271774119
 42
0.4142135623731
  0
LINE
  5
4B7
330
1F
100
AcDbEntity
  8
1-4ﾚｲﾔ
  6
Continuous
 62
     7
370
     9
100
AcDbLine
 10
266.0724712769832
 20
-215.823259888673
 30
0.0
 11
330.4863601771576
 21
-215.823259888673
 31
0.0
  0
LINE
  5
4B8
330
1F
100
AcDbEntity
  8
1-4ﾚｲﾔ
  6
Continuous
 62
     7
370
     9
100
AcDbLine
 10
266.0724712769832
 20
-165.8230271774119
 30
0.0
 11
330.4863601771576
 21
-165.8230271774119
 31
0.0
  0
LWPOLYLINE
  5
4B9
330
1F
100
AcDbEntity
  8
1-4ﾚｲﾔ
  6
Continuous
 62
     7
370
     9
100
AcDbPolyline
 90
        4
 70
     1
 43
1.0
 10
269.5724712769832
 20
-140.8219235055826
 42
0.4142135623731
 10
269.0724712769832
 20
-140.3219235055826
 42
0.4142135623731
 10
268.5724712769831
 20
-140.8219235055826
 42
0.4142135623731
 10
269.0724712769832
 20
-141.3219235055826
 42
0.4142135623731
  0
LINE
  5
4BA
330
1F
100
AcDbEntity
  8
1-4ﾚｲﾔ
  6
Continuous
 62
     7
370
     9
100
AcDbLine
 10
266.0724712769832
 20
-140.8219235055826
 30
0.0
 11
330.4863723537237
 21
-140.8219235055826
 31
0.0
  0
LINE
  5
4BB
330
1F
100
AcDbEntity
  8
1-4ﾚｲﾔ
  6
Continuous
 62
     7
370
     9
100
AcDbLine
 10
208.7304277712575
 20
-215.823259888673
 30
0.0
 11
208.7304277712575
 21
-140.8219235055826
 31
0.0
  0
LWPOLYLINE
  5
4BC
330
1F
100
AcDbEntity
  8
1-4ﾚｲﾔ
  6
Continuous
 62
     7
370
     9
100
AcDbPolyline
 90
        4
 70
     1
 43
1.0
 10
209.2304277712575
 20
-215.823259888673
 42
0.4142135623731
 10
208.7304277712575
 20
-215.323259888673
 42
0.4142135623731
 10
208.2304277712575
 20
-215.823259888673
 42
0.4142135623731
 10
208.7304277712575
 20
-216.323259888673
 42
0.4142135623731
  0
LWPOLYLINE
  5
4BD
330
1F
100
AcDbEntity
  8
1-4ﾚｲﾔ
  6
Continuous
 62
     7
370
     9
100
AcDbPolyline
 90
        4
 70
     1
 43
1.0
 10
209.2304277712575
 20
-140.8219235055826
 42
0.4142135623731
 10
208.7304277712575
 20
-140.3219235055826
 42
0.4142135623731
 10
208.2304277712575
 20
-140.8219235055826
 42
0.4142135623731
 10
208.7304277712575
 20
-141.3219235055826
 42
0.4142135623731
  0
LINE
  5
4BE
330
1F
100
AcDbEntity
  8
1-4ﾚｲﾔ
  6
Continuous
 62
     7
370
     9
100
AcDbLine
 10
205.7304277712575
 20
-215.823259888673
 30
0.0
 11
330.4863601771576
 21
-215.823259888673
 31
0.0
  0
LINE
  5
4BF
330
1F
100
AcDbEntity
  8
1-4ﾚｲﾔ
  6
Continuous
 62
     7
370
     9
100
AcDbLine
 10
205.7304277712575
 20
-140.8219235055826
 30
0.0
 11
330.4863723537237
 21
-140.8219235055826
 31
0.0
  0
LINE
  5
4C0
330
1F
100
AcDbEntity
  8
1-4ﾚｲﾔ
  6
Continuous
 62
     7
370
     9
100
AcDbLine
 10
269.0724712769832
 20
-165.8230271774119
 30
0.0
 11
269.0724712769832
 21
-80.71151558151249
 31
0.0
  0
LINE
  5
4C1
330
1F
100
AcDbEntity
  8
1-4ﾚｲﾔ
  6
Continuous
 62
     7
370
     9
100
AcDbLine
 10
269.0724712769832
 20
-275.9357739823897
 30
0.0
 11
269.0724712769832
 21
-165.8230271774119
 31
0.0
  0
LINE
  5
4C2
330
1F
100
AcDbEntity
  8
1-4ﾚｲﾔ
  6
Continuous
 62
     7
370
     9
100
AcDbLine
 10
445.2952384421347
 20
-91.2330524425313
 30
0.0
 11
482.795365072772
 21
-91.2330524425313
 31
0.0
  0
LWPOLYLINE
  5
4C3
330
1F
100
AcDbEntity
  8
1-4ﾚｲﾔ
  6
Continuous
 62
     7
370
     9
100
AcDbPolyline
 90
        4
 70
     1
 43
1.0
 10
445.7952384421347
 20
-91.2330524425313
 42
0.4142135623731
 10
445.2952384421347
 20
-90.73305244253129
 42
0.4142135623731
 10
444.7952384421347
 20
-91.2330524425313
 42
0.4142135623731
 10
445.2952384421347
 20
-91.7330524425313
 42
0.4142135623731
  0
LWPOLYLINE
  5
4C4
330
1F
100
AcDbEntity
  8
1-4ﾚｲﾔ
  6
Continuous
 62
     7
370
     9
100
AcDbPolyline
 90
        4
 70
     1
 43
1.0
 10
483.295365072772
 20
-91.2330524425313
 42
0.4142135623731
 10
482.795365072772
 20
-90.73305244253129
 42
0.4142135623731
 10
482.295365072772
 20
-91.2330524425313
 42
0.4142135623731
 10
482.795365072772
 20
-91.7330524425313
 42
0.4142135623731
  0
LINE
  5
4C5
330
1F
100
AcDbEntity
  8
1-4ﾚｲﾔ
  6
Continuous
 62
     7
370
     9
100
AcDbLine
 10
445.2952384421347
 20
-88.23305244253129
 30
0.0
 11
445.2952384421347
 21
-120.8218765307404
 31
0.0
  0
LINE
  5
4C6
330
1F
100
AcDbEntity
  8
1-4ﾚｲﾔ
  6
Continuous
 62
     7
370
     9
100
AcDbLine
 10
482.795365072772
 20
-88.23305244253129
 30
0.0
 11
482.795365072772
 21
-120.8218579505948
 31
0.0
  0
LINE
  5
4C7
330
1F
100
AcDbEntity
  8
1-1ﾚｲﾔ
  6
Continuous
 62
     2
370
     9
100
AcDbLine
 10
795.2941322738151
 20
-215.823259888673
 30
0.0
 11
795.2941322738151
 21
-385.8237883494372
 31
0.0
  0
LINE
  5
4C8
330
1F
100
AcDbEntity
  8
1-1ﾚｲﾔ
  6
Continuous
 62
     2
370
     9
100
AcDbLine
 10
1045.293283908709
 20
-153.3248270075486
 30
0.0
 11
1045.293283908709
 21
-385.8237883494372
 31
0.0
  0
LINE
  5
4C9
330
1F
100
AcDbEntity
  8
1-1ﾚｲﾔ
  6
Continuous
 62
     2
370
     9
100
AcDbLine
 10
826.4420103241599
 20
-385.8237883494372
 30
0.0
 11
895.5211191788964
 21
-316.7446794947006
 31
0.0
  0
LINE
  5
4CA
330
1F
100
AcDbEntity
  8
1-1ﾚｲﾔ
  6
Continuous
 62
     2
370
     9
100
AcDbLine
 10
844.1198435193327
 20
-385.8237883494372
 30
0.0
 11
913.1982710466185
 21
-316.7446794947006
 31
0.0
  0
LINE
  5
4CB
330
1F
100
AcDbEntity
  8
1-1ﾚｲﾔ
  6
Continuous
 62
     2
370
     9
100
AcDbLine
 10
861.7981325277027
 20
-385.8237883494372
 30
0.0
 11
930.8765084709255
 21
-316.7446794947006
 31
0.0
  0
LINE
  5
4CC
330
1F
100
AcDbEntity
  8
1-1ﾚｲﾔ
  6
Continuous
 62
     2
370
     9
100
AcDbLine
 10
960.0923486230505
 20
-252.173450050546
 30
0.0
 11
1045.293283908709
 21
-166.9725147648873
 31
0.0
  0
LINE
  5
4CD
330
1F
100
AcDbEntity
  8
1-1ﾚｲﾔ
  6
Continuous
 62
     2
370
     9
100
AcDbLine
 10
977.76886362455
 20
-252.173450050546
 30
0.0
 11
1045.293283908709
 21
-184.6483637662654
 31
0.0
  0
LINE
  5
4CE
330
1F
100
AcDbEntity
  8
1-1ﾚｲﾔ
  6
Continuous
 62
     2
370
     9
100
AcDbLine
 10
995.4470528310037
 20
-252.173450050546
 30
0.0
 11
1045.293283908709
 21
-202.3266901115843
 31
0.0
  0
LINE
  5
4CF
330
1F
100
AcDbEntity
  8
1-4ﾚｲﾔ
  6
Continuous
 62
     7
370
     9
100
AcDbLine
 10
1228.58647138807
 20
-135.8248694258034
 30
0.0
 11
1228.58647138807
 21
-385.8237883494372
 31
0.0
  0
LWPOLYLINE
  5
4D0
330
1F
100
AcDbEntity
  8
1-4ﾚｲﾔ
  6
Continuous
 62
     7
370
     9
100
AcDbPolyline
 90
        4
 70
     1
 43
1.0
 10
1229.08647138807
 20
-135.8248694258034
 42
0.4142135623731
 10
1228.58647138807
 20
-135.3248694258034
 42
0.4142135623731
 10
1228.08647138807
 20
-135.8248694258034
 42
0.4142135623731
 10
1228.58647138807
 20
-136.3248694258034
 42
0.4142135623731
  0
LWPOLYLINE
  5
4D1
330
1F
100
AcDbEntity
  8
1-4ﾚｲﾔ
  6
Continuous
 62
     7
370
     9
100
AcDbPolyline
 90
        4
 70
     1
 43
1.0
 10
1229.08647138807
 20
-385.8237883494372
 42
0.4142135623731
 10
1228.58647138807
 20
-385.3237883494372
 42
0.4142135623731
 10
1228.08647138807
 20
-385.8237883494372
 42
0.4142135623731
 10
1228.58647138807
 20
-386.3237883494372
 42
0.4142135623731
  0
LINE
  5
4D2
330
1F
100
AcDbEntity
  8
1-4ﾚｲﾔ
  6
Continuous
 62
     7
370
     9
100
AcDbLine
 10
1231.58647138807
 20
-385.8237883494372
 30
0.0
 11
1065.293283908709
 21
-385.8237883494372
 31
0.0
  0
TEXT
  5
4D3
330
1F
100
AcDbEntity
  8
1-4ﾚｲﾔ
  6
Continuous
 62
     2
370
   211
100
AcDbText
 10
1212.94647138807
 20
-293.3243288876203
 30
0.0
 40
30.48
  1
100
 50
90.0
 41
1.083333333333333
  7
ＭＳ ゴシック
100
AcDbText
  0
LINE
  5
4D4
330
1F
100
AcDbEntity
  8
1-4ﾚｲﾔ
  6
Continuous
 62
     7
370
     9
100
AcDbLine
 10
1228.58647138807
 20
-385.8237883494372
 30
0.0
 11
1228.58647138807
 21
-410.8226660330981
 31
0.0
  0
LWPOLYLINE
  5
4D5
330
1F
100
AcDbEntity
  8
1-4ﾚｲﾔ
  6
Continuous
 62
     7
370
     9
100
AcDbPolyline
 90
        4
 70
     1
 43
1.0
 10
1229.08647138807
 20
-410.8226660330981
 42
0.4142135623731
 10
1228.58647138807
 20
-410.3226660330981
 42
0.4142135623731
 10
1228.08647138807
 20
-410.8226660330981
 42
0.4142135623731
 10
1228.58647138807
 20
-411.3226660330981
 42
0.4142135623731
  0
LINE
  5
4D6
330
1F
100
AcDbEntity
  8
1-4ﾚｲﾔ
  6
Continuous
 62
     7
370
     9
100
AcDbLine
 10
1231.58647138807
 20
-410.8226660330981
 30
0.0
 11
1065.293283908709
 21
-410.8226660330981
 31
0.0
  0
LINE
  5
4D7
330
1F
100
AcDbEntity
  8
1-4ﾚｲﾔ
  6
Continuous
 62
     7
370
     9
100
AcDbLine
 10
1228.58647138807
 20
-410.8226660330981
 30
0.0
 11
1228.58647138807
 21
-535.8244864832212
 31
0.0
  0
LWPOLYLINE
  5
4D8
330
1F
100
AcDbEntity
  8
1-4ﾚｲﾔ
  6
Continuous
 62
     7
370
     9
100
AcDbPolyline
 90
        4
 70
     1
 43
1.0
 10
1229.08647138807
 20
-535.8244864832212
 42
0.4142135623731
 10
1228.58647138807
 20
-535.3244864832212
 42
0.4142135623731
 10
1228.08647138807
 20
-535.8244864832212
 42
0.4142135623731
 10
1228.58647138807
 20
-536.3244864832212
 42
0.4142135623731
  0
LINE
  5
4D9
330
1F
100
AcDbEntity
  8
1-4ﾚｲﾔ
  6
Continuous
 62
     7
370
     9
100
AcDbLine
 10
1231.58647138807
 20
-535.8244864832212
 30
0.0
 11
1090.29463893631
 21
-535.8244864832212
 31
0.0
  0
TEXT
  5
4DA
330
1F
100
AcDbEntity
  8
1-4ﾚｲﾔ
  6
Continuous
 62
     2
370
   211
100
AcDbText
 10
1212.94647138807
 20
-494.5735762581597
 30
0.0
 40
30.48
  1
50
 50
90.0
 41
1.0625
  7
ＭＳ ゴシック
100
AcDbText
  0
LINE
  5
4DB
330
1F
100
AcDbEntity
  8
1-4ﾚｲﾔ
  6
Continuous
 62
     7
370
     9
100
AcDbLine
 10
1228.58647138807
 20
-535.8244864832212
 30
0.0
 11
1228.58647138807
 21
-685.8239459450368
 31
0.0
  0
LWPOLYLINE
  5
4DC
330
1F
100
AcDbEntity
  8
1-4ﾚｲﾔ
  6
Continuous
 62
     7
370
     9
100
AcDbPolyline
 90
        4
 70
     1
 43
1.0
 10
1229.08647138807
 20
-685.8239459450368
 42
0.4142135623731
 10
1228.58647138807
 20
-685.3239459450368
 42
0.4142135623731
 10
1228.08647138807
 20
-685.8239459450368
 42
0.4142135623731
 10
1228.58647138807
 20
-686.3239459450368
 42
0.4142135623731
  0
LINE
  5
4DD
330
1F
100
AcDbEntity
  8
1-4ﾚｲﾔ
  6
Continuous
 62
     7
370
     9
100
AcDbLine
 10
1231.58647138807
 20
-685.8239459450368
 30
0.0
 11
1090.29463893631
 21
-685.8239459450368
 31
0.0
  0
TEXT
  5
4DE
330
1F
100
AcDbEntity
  8
1-4ﾚｲﾔ
  6
Continuous
 62
     2
370
   211
100
AcDbText
 10
1212.94647138807
 20
-632.074216214129
 30
0.0
 40
30.48
  1
60
 50
90.0
 41
1.0625
  7
ＭＳ ゴシック
100
AcDbText
  0
LINE
  5
4DF
330
1F
100
AcDbEntity
  8
1-4ﾚｲﾔ
  6
Continuous
 62
     7
370
     9
100
AcDbLine
 10
1141.081624092356
 20
-135.8248694258034
 30
0.0
 11
1141.081624092356
 21
-215.823259888673
 31
0.0
  0
LWPOLYLINE
  5
4E0
330
1F
100
AcDbEntity
  8
1-4ﾚｲﾔ
  6
Continuous
 62
     7
370
     9
100
AcDbPolyline
 90
        4
 70
     1
 43
1.0
 10
1141.581624092356
 20
-135.8248694258034
 42
0.4142135623731
 10
1141.081624092356
 20
-135.3248694258034
 42
0.4142135623731
 10
1140.581624092356
 20
-135.8248694258034
 42
0.4142135623731
 10
1141.081624092356
 20
-136.3248694258034
 42
0.4142135623731
  0
LWPOLYLINE
  5
4E1
330
1F
100
AcDbEntity
  8
1-4ﾚｲﾔ
  6
Continuous
 62
     7
370
     9
100
AcDbPolyline
 90
        4
 70
     1
 43
1.0
 10
1141.581624092356
 20
-215.823259888673
 42
0.4142135623731
 10
1141.081624092356
 20
-215.323259888673
 42
0.4142135623731
 10
1140.581624092356
 20
-215.823259888673
 42
0.4142135623731
 10
1141.081624092356
 20
-216.323259888673
 42
0.4142135623731
  0
LINE
  5
4E2
330
1F
100
AcDbEntity
  8
1-4ﾚｲﾔ
  6
Continuous
 62
     7
370
     9
100
AcDbLine
 10
1144.081624092356
 20
-135.8248694258034
 30
0.0
 11
1047.793326326965
 21
-135.8248694258034
 31
0.0
  0
TEXT
  5
4E3
330
1F
100
AcDbEntity
  8
1-4ﾚｲﾔ
  6
Continuous
 62
     2
370
   211
100
AcDbText
 10
1125.441624092356
 20
-197.0740646572382
 30
0.0
 40
30.48
  1
32
 50
90.0
 41
1.0625
  7
ＭＳ ゴシック
100
AcDbText
  0
LINE
  5
4E4
330
1F
100
AcDbEntity
  8
1-4ﾚｲﾔ
  6
Continuous
 62
     7
370
     9
100
AcDbLine
 10
1141.081624092356
 20
-215.823259888673
 30
0.0
 11
1141.081624092356
 21
-385.8237883494372
 31
0.0
  0
LWPOLYLINE
  5
4E5
330
1F
100
AcDbEntity
  8
1-4ﾚｲﾔ
  6
Continuous
 62
     7
370
     9
100
AcDbPolyline
 90
        4
 70
     1
 43
1.0
 10
1141.581624092356
 20
-385.8237883494372
 42
0.4142135623731
 10
1141.081624092356
 20
-385.3237883494372
 42
0.4142135623731
 10
1140.581624092356
 20
-385.8237883494372
 42
0.4142135623731
 10
1141.081624092356
 20
-386.3237883494372
 42
0.4142135623731
  0
LINE
  5
4E6
330
1F
100
AcDbEntity
  8
1-4ﾚｲﾔ
  6
Continuous
 62
     7
370
     9
100
AcDbLine
 10
1144.081624092356
 20
-385.8237883494372
 30
0.0
 11
1085.293283908709
 21
-385.8237883494372
 31
0.0
  0
TEXT
  5
4E7
330
1F
100
AcDbEntity
  8
1-4ﾚｲﾔ
  6
Continuous
 62
     2
370
   211
100
AcDbText
 10
1125.441624092356
 20
-322.0735241190551
 30
0.0
 40
30.48
  1
68
 50
90.0
 41
1.0625
  7
ＭＳ ゴシック
100
AcDbText
  0
LINE
  5
4E8
330
1F
100
AcDbEntity
  8
1-4ﾚｲﾔ
  6
Continuous
 62
     7
370
     9
100
AcDbLine
 10
1144.081624092356
 20
-215.823259888673
 30
0.0
 11
1065.293283908709
 21
-215.823259888673
 31
0.0
  0
LINE
  5
4E9
330
1F
100
AcDbEntity
  8
1-4ﾚｲﾔ
  6
Continuous
 62
     7
370
     9
100
AcDbLine
 10
1231.58647138807
 20
-135.8248694258034
 30
0.0
 11
1065.293283908709
 21
-135.8248694258034
 31
0.0
  0
TEXT
  5
4EA
330
1F
100
AcDbEntity
  8
1-4ﾚｲﾔ
  6
Continuous
 62
     2
370
   211
100
AcDbText
 10
1282.420252856538
 20
-419.5732271912676
 30
0.0
 40
30.48
  1
10
 50
90.0
 41
1.0625
  7
ＭＳ ゴシック
100
AcDbText
  0
LINE
  5
4EB
330
1F
100
AcDbEntity
  8
1-3ﾚｲﾔ
  6
Continuous
 62
     6
370
     9
100
AcDbLine
 10
837.2622796990386
 20
-535.8244864832212
 30
0.0
 11
962.2616228052237
 21
-410.8226660330981
 31
0.0
  0
LINE
  5
4EC
330
1F
100
AcDbEntity
  8
1-3ﾚｲﾔ
  6
Continuous
 62
     6
370
     9
100
AcDbLine
 10
854.9406060443574
 20
-535.8244864832212
 30
0.0
 11
979.9399491505426
 21
-410.8226660330981
 31
0.0
  0
LINE
  5
4ED
330
1F
100
AcDbEntity
  8
1-3ﾚｲﾔ
  6
Continuous
 62
     6
370
     9
100
AcDbLine
 10
872.6189323896749
 20
-535.8244864832212
 30
0.0
 11
997.6182754958603
 21
-410.8226660330981
 31
0.0
  0
LINE
  5
4EE
330
1F
100
AcDbEntity
  8
1-3ﾚｲﾔ
  6
Continuous
 62
     6
370
     9
100
AcDbLine
 10
1045.293283908709
 20
-410.8226660330981
 30
0.0
 11
795.2941322738151
 21
-410.8226660330981
 31
0.0
  0
LINE
  5
4EF
330
1F
100
AcDbEntity
  8
1-3ﾚｲﾔ
  6
Continuous
 62
     6
370
     9
100
AcDbLine
 10
795.2941322738151
 20
-385.8237883494372
 30
0.0
 11
795.2941322738151
 21
-535.8244864832212
 31
0.0
  0
LINE
  5
4F0
330
1F
100
AcDbEntity
  8
1-3ﾚｲﾔ
  6
Continuous
 62
     6
370
     9
100
AcDbLine
 10
1045.293283908709
 20
-385.8237883494372
 30
0.0
 11
795.2941322738151
 21
-385.8237883494372
 31
0.0
  0
LINE
  5
4F1
330
1F
100
AcDbEntity
  8
1-3ﾚｲﾔ
  6
Continuous
 62
     6
370
     9
100
AcDbLine
 10
1070.29463893631
 20
-535.8244864832212
 30
0.0
 11
770.2941322738151
 21
-535.8244864832212
 31
0.0
  0
LINE
  5
4F2
330
1F
100
AcDbEntity
  8
1-3ﾚｲﾔ
  6
Continuous
 62
     6
370
     9
100
AcDbLine
 10
1070.29463893631
 20
-685.8239459450368
 30
0.0
 11
770.2941322738151
 21
-685.8239459450368
 31
0.0
  0
LINE
  5
4F3
330
1F
100
AcDbEntity
  8
1-4ﾚｲﾔ
  6
Continuous
 62
     7
370
     9
100
AcDbLine
 10
870.2952752101392
 20
-311.8474596171649
 30
0.0
 11
870.2952752101392
 21
-241.4481477757204
 31
0.0
  0
LINE
  5
4F4
330
1F
100
AcDbEntity
  8
1-4ﾚｲﾔ
  6
Continuous
 62
     7
370
     9
100
AcDbLine
 10
863.8294506907886
 20
-400.4656152111079
 30
0.0
 11
863.0793095469897
 21
-400.4656152111079
 31
0.0
  0
LINE
  5
4F5
330
1F
100
AcDbEntity
  8
1-4ﾚｲﾔ
  6
Continuous
 62
     7
370
     9
100
AcDbLine
 10
863.8294506907886
 20
-399.7154740673091
 30
0.0
 11
863.8294506907886
 21
-400.4656152111079
 31
0.0
  0
LINE
  5
4F6
330
1F
100
AcDbEntity
  8
1-4ﾚｲﾔ
  6
Continuous
 62
     7
370
     9
100
AcDbLine
 10
863.0793095469897
 20
-399.7154740673091
 30
0.0
 11
863.8294506907886
 21
-399.7154740673091
 31
0.0
  0
LINE
  5
4F7
330
1F
100
AcDbEntity
  8
1-4ﾚｲﾔ
  6
Continuous
 62
     7
370
     9
100
AcDbLine
 10
890.7522321582263
 20
-387.0190934520747
 30
0.0
 11
890.0023413539355
 21
-387.0190934520747
 31
0.0
  0
LINE
  5
4F8
330
1F
100
AcDbEntity
  8
1-4ﾚｲﾔ
  6
Continuous
 62
     7
370
     9
100
AcDbLine
 10
890.7522321582263
 20
-386.2689523082759
 30
0.0
 11
890.7522321582263
 21
-387.0190934520747
 31
0.0
  0
LINE
  5
4F9
330
1F
100
AcDbEntity
  8
1-4ﾚｲﾔ
  6
Continuous
 62
     7
370
     9
100
AcDbLine
 10
890.0023413539355
 20
-386.2689523082759
 30
0.0
 11
890.7522321582263
 21
-386.2689523082759
 31
0.0
  0
LINE
  5
4FA
330
1F
100
AcDbEntity
  8
1-4ﾚｲﾔ
  6
Continuous
 62
     7
370
     9
100
AcDbLine
 10
890.0023413539355
 20
-387.0190934520747
 30
0.0
 11
890.0023413539355
 21
-386.2689523082759
 31
0.0
  0
LINE
  5
4FB
330
1F
100
AcDbEntity
  8
1-4ﾚｲﾔ
  6
Continuous
 62
     7
370
     9
100
AcDbLine
 10
876.9301415324634
 20
-390.9682206493404
 30
0.0
 11
876.1802483439868
 21
-390.9682206493404
 31
0.0
  0
LINE
  5
4FC
330
1F
100
AcDbEntity
  8
1-4ﾚｲﾔ
  6
Continuous
 62
     7
370
     9
100
AcDbLine
 10
876.9301415324634
 20
-390.2180890422847
 30
0.0
 11
876.9301415324634
 21
-390.9682206493404
 31
0.0
  0
LINE
  5
4FD
330
1F
100
AcDbEntity
  8
1-4ﾚｲﾔ
  6
Continuous
 62
     7
370
     9
100
AcDbLine
 10
876.1802483439868
 20
-390.2180890422847
 30
0.0
 11
876.9301415324634
 21
-390.2180890422847
 31
0.0
  0
LINE
  5
4FE
330
1F
100
AcDbEntity
  8
1-4ﾚｲﾔ
  6
Continuous
 62
     7
370
     9
100
AcDbLine
 10
876.1802483439868
 20
-390.9682206493404
 30
0.0
 11
876.1802483439868
 21
-390.2180890422847
 31
0.0
  0
LINE
  5
4FF
330
1F
100
AcDbEntity
  8
1-4ﾚｲﾔ
  6
Continuous
 62
     7
370
     9
100
AcDbLine
 10
917.4091959834522
 20
-409.3164281230952
 30
0.0
 11
916.6593039870685
 21
-409.3164281230952
 31
0.0
  0
LINE
  5
500
330
1F
100
AcDbEntity
  8
1-4ﾚｲﾔ
  6
Continuous
 62
     7
370
     9
100
AcDbLine
 10
917.4091959834522
 20
-408.5662869792964
 30
0.0
 11
917.4091959834522
 21
-409.3164281230952
 31
0.0
  0
LINE
  5
501
330
1F
100
AcDbEntity
  8
1-4ﾚｲﾔ
  6
Continuous
 62
     7
370
     9
100
AcDbLine
 10
916.6593039870685
 20
-408.5662869792964
 30
0.0
 11
917.4091959834522
 21
-408.5662869792964
 31
0.0
  0
LINE
  5
502
330
1F
100
AcDbEntity
  8
1-4ﾚｲﾔ
  6
Continuous
 62
     7
370
     9
100
AcDbLine
 10
916.6593039870685
 20
-409.3164281230952
 30
0.0
 11
916.6593039870685
 21
-408.5662869792964
 31
0.0
  0
LINE
  5
503
330
1F
100
AcDbEntity
  8
1-4ﾚｲﾔ
  6
Continuous
 62
     7
370
     9
100
AcDbLine
 10
910.4981494784778
 20
-392.5324181896236
 30
0.0
 11
909.7482574820941
 21
-392.5324181896236
 31
0.0
  0
LINE
  5
504
330
1F
100
AcDbEntity
  8
1-4ﾚｲﾔ
  6
Continuous
 62
     7
370
     9
100
AcDbLine
 10
910.4981494784778
 20
-391.7822770458247
 30
0.0
 11
910.4981494784778
 21
-392.5324181896236
 31
0.0
  0
LINE
  5
505
330
1F
100
AcDbEntity
  8
1-4ﾚｲﾔ
  6
Continuous
 62
     7
370
     9
100
AcDbLine
 10
909.7482574820941
 20
-391.7822770458247
 30
0.0
 11
910.4981494784778
 21
-391.7822770458247
 31
0.0
  0
LINE
  5
506
330
1F
100
AcDbEntity
  8
1-4ﾚｲﾔ
  6
Continuous
 62
     7
370
     9
100
AcDbLine
 10
909.7482574820941
 20
-392.5324181896236
 30
0.0
 11
909.7482574820941
 21
-391.7822770458247
 31
0.0
  0
LINE
  5
507
330
1F
100
AcDbEntity
  8
1-4ﾚｲﾔ
  6
Continuous
 62
     7
370
     9
100
AcDbLine
 10
877.4238730311816
 20
-410.2204160076167
 30
0.0
 11
876.6737366557544
 21
-410.2204160076167
 31
0.0
  0
LINE
  5
508
330
1F
100
AcDbEntity
  8
1-4ﾚｲﾔ
  6
Continuous
 62
     7
370
     9
100
AcDbLine
 10
877.4238730311816
 20
-409.4702748638179
 30
0.0
 11
877.4238730311816
 21
-410.2204160076167
 31
0.0
  0
LINE
  5
509
330
1F
100
AcDbEntity
  8
1-4ﾚｲﾔ
  6
Continuous
 62
     7
370
     9
100
AcDbLine
 10
876.6737366557544
 20
-409.4702748638179
 30
0.0
 11
877.4238730311816
 21
-409.4702748638179
 31
0.0
  0
LINE
  5
50A
330
1F
100
AcDbEntity
  8
1-4ﾚｲﾔ
  6
Continuous
 62
     7
370
     9
100
AcDbLine
 10
876.6737366557544
 20
-410.2204160076167
 30
0.0
 11
876.6737366557544
 21
-409.4702748638179
 31
0.0
  0
LINE
  5
50B
330
1F
100
AcDbEntity
  8
1-4ﾚｲﾔ
  6
Continuous
 62
     7
370
     9
100
AcDbLine
 10
892.7269245028918
 20
-404.7903184276607
 30
0.0
 11
891.976783359093
 21
-404.7903184276607
 31
0.0
  0
LINE
  5
50C
330
1F
100
AcDbEntity
  8
1-4ﾚｲﾔ
  6
Continuous
 62
     7
370
     9
100
AcDbLine
 10
892.7269245028918
 20
-404.0401772838619
 30
0.0
 11
892.7269245028918
 21
-404.7903184276607
 31
0.0
  0
LINE
  5
50D
330
1F
100
AcDbEntity
  8
1-4ﾚｲﾔ
  6
Continuous
 62
     7
370
     9
100
AcDbLine
 10
891.976783359093
 20
-404.0401772838619
 30
0.0
 11
892.7269245028918
 21
-404.0401772838619
 31
0.0
  0
LINE
  5
50E
330
1F
100
AcDbEntity
  8
1-4ﾚｲﾔ
  6
Continuous
 62
     7
370
     9
100
AcDbLine
 10
891.976783359093
 20
-404.7903184276607
 30
0.0
 11
891.976783359093
 21
-404.0401772838619
 31
0.0
  0
LINE
  5
50F
330
1F
100
AcDbEntity
  8
1-4ﾚｲﾔ
  6
Continuous
 62
     7
370
     9
100
AcDbLine
 10
802.2982292452102
 20
-400.7860903228036
 30
0.0
 11
801.5480881014114
 21
-400.7860903228036
 31
0.0
  0
LINE
  5
510
330
1F
100
AcDbEntity
  8
1-4ﾚｲﾔ
  6
Continuous
 62
     7
370
     9
100
AcDbLine
 10
802.2982292452102
 20
-400.0359491790048
 30
0.0
 11
802.2982292452102
 21
-400.7860903228036
 31
0.0
  0
LINE
  5
511
330
1F
100
AcDbEntity
  8
1-4ﾚｲﾔ
  6
Continuous
 62
     7
370
     9
100
AcDbLine
 10
801.5480881014114
 20
-400.0359491790048
 30
0.0
 11
802.2982292452102
 21
-400.0359491790048
 31
0.0
  0
LINE
  5
512
330
1F
100
AcDbEntity
  8
1-4ﾚｲﾔ
  6
Continuous
 62
     7
370
     9
100
AcDbLine
 10
829.221010712648
 20
-387.3395685637704
 30
0.0
 11
828.4711199083572
 21
-387.3395685637704
 31
0.0
  0
LINE
  5
513
330
1F
100
AcDbEntity
  8
1-4ﾚｲﾔ
  6
Continuous
 62
     7
370
     9
100
AcDbLine
 10
829.221010712648
 20
-386.5894274199716
 30
0.0
 11
829.221010712648
 21
-387.3395685637704
 31
0.0
  0
LINE
  5
514
330
1F
100
AcDbEntity
  8
1-4ﾚｲﾔ
  6
Continuous
 62
     7
370
     9
100
AcDbLine
 10
828.4711199083572
 20
-386.5894274199716
 30
0.0
 11
829.221010712648
 21
-386.5894274199716
 31
0.0
  0
LINE
  5
515
330
1F
100
AcDbEntity
  8
1-4ﾚｲﾔ
  6
Continuous
 62
     7
370
     9
100
AcDbLine
 10
828.4711199083572
 20
-387.3395685637704
 30
0.0
 11
828.4711199083572
 21
-386.5894274199716
 31
0.0
  0
LINE
  5
516
330
1F
100
AcDbEntity
  8
1-4ﾚｲﾔ
  6
Continuous
 62
     7
370
     9
100
AcDbLine
 10
815.398920086885
 20
-391.288695761036
 30
0.0
 11
814.6490268984085
 21
-391.288695761036
 31
0.0
  0
LINE
  5
517
330
1F
100
AcDbEntity
  8
1-4ﾚｲﾔ
  6
Continuous
 62
     7
370
     9
100
AcDbLine
 10
815.398920086885
 20
-390.5385641539804
 30
0.0
 11
815.398920086885
 21
-391.288695761036
 31
0.0
  0
LINE
  5
518
330
1F
100
AcDbEntity
  8
1-4ﾚｲﾔ
  6
Continuous
 62
     7
370
     9
100
AcDbLine
 10
814.6490268984085
 20
-390.5385641539804
 30
0.0
 11
815.398920086885
 21
-390.5385641539804
 31
0.0
  0
LINE
  5
519
330
1F
100
AcDbEntity
  8
1-4ﾚｲﾔ
  6
Continuous
 62
     7
370
     9
100
AcDbLine
 10
814.6490268984085
 20
-391.288695761036
 30
0.0
 11
814.6490268984085
 21
-390.5385641539804
 31
0.0
  0
LINE
  5
51A
330
1F
100
AcDbEntity
  8
1-4ﾚｲﾔ
  6
Continuous
 62
     7
370
     9
100
AcDbLine
 10
855.8779745378738
 20
-409.6369032347909
 30
0.0
 11
855.1280825414901
 21
-409.6369032347909
 31
0.0
  0
LINE
  5
51B
330
1F
100
AcDbEntity
  8
1-4ﾚｲﾔ
  6
Continuous
 62
     7
370
     9
100
AcDbLine
 10
855.8779745378738
 20
-408.8867620909921
 30
0.0
 11
855.8779745378738
 21
-409.6369032347909
 31
0.0
  0
LINE
  5
51C
330
1F
100
AcDbEntity
  8
1-4ﾚｲﾔ
  6
Continuous
 62
     7
370
     9
100
AcDbLine
 10
855.1280825414901
 20
-408.8867620909921
 30
0.0
 11
855.8779745378738
 21
-408.8867620909921
 31
0.0
  0
LINE
  5
51D
330
1F
100
AcDbEntity
  8
1-4ﾚｲﾔ
  6
Continuous
 62
     7
370
     9
100
AcDbLine
 10
855.1280825414901
 20
-409.6369032347909
 30
0.0
 11
855.1280825414901
 21
-408.8867620909921
 31
0.0
  0
LINE
  5
51E
330
1F
100
AcDbEntity
  8
1-4ﾚｲﾔ
  6
Continuous
 62
     7
370
     9
100
AcDbLine
 10
848.9669280328994
 20
-392.8528933013192
 30
0.0
 11
848.2170360365158
 21
-392.8528933013192
 31
0.0
  0
LINE
  5
51F
330
1F
100
AcDbEntity
  8
1-4ﾚｲﾔ
  6
Continuous
 62
     7
370
     9
100
AcDbLine
 10
848.9669280328994
 20
-392.1027521575204
 30
0.0
 11
848.9669280328994
 21
-392.8528933013192
 31
0.0
  0
LINE
  5
520
330
1F
100
AcDbEntity
  8
1-4ﾚｲﾔ
  6
Continuous
 62
     7
370
     9
100
AcDbLine
 10
848.2170360365158
 20
-392.1027521575204
 30
0.0
 11
848.9669280328994
 21
-392.1027521575204
 31
0.0
  0
LINE
  5
521
330
1F
100
AcDbEntity
  8
1-4ﾚｲﾔ
  6
Continuous
 62
     7
370
     9
100
AcDbLine
 10
848.2170360365158
 20
-392.8528933013192
 30
0.0
 11
848.2170360365158
 21
-392.1027521575204
 31
0.0
  0
LINE
  5
522
330
1F
100
AcDbEntity
  8
1-4ﾚｲﾔ
  6
Continuous
 62
     7
370
     9
100
AcDbLine
 10
815.8926515856033
 20
-410.5408911193124
 30
0.0
 11
815.142515210176
 21
-410.5408911193124
 31
0.0
  0
LINE
  5
523
330
1F
100
AcDbEntity
  8
1-4ﾚｲﾔ
  6
Continuous
 62
     7
370
     9
100
AcDbLine
 10
815.8926515856033
 20
-409.7907499755136
 30
0.0
 11
815.8926515856033
 21
-410.5408911193124
 31
0.0
  0
LINE
  5
524
330
1F
100
AcDbEntity
  8
1-4ﾚｲﾔ
  6
Continuous
 62
     7
370
     9
100
AcDbLine
 10
815.142515210176
 20
-409.7907499755136
 30
0.0
 11
815.8926515856033
 21
-409.7907499755136
 31
0.0
  0
LINE
  5
525
330
1F
100
AcDbEntity
  8
1-4ﾚｲﾔ
  6
Continuous
 62
     7
370
     9
100
AcDbLine
 10
815.142515210176
 20
-410.5408911193124
 30
0.0
 11
815.142515210176
 21
-409.7907499755136
 31
0.0
  0
LINE
  5
526
330
1F
100
AcDbEntity
  8
1-4ﾚｲﾔ
  6
Continuous
 62
     7
370
     9
100
AcDbLine
 10
831.1957030573135
 20
-405.1107935393563
 30
0.0
 11
830.4455619135147
 21
-405.1107935393563
 31
0.0
  0
LINE
  5
527
330
1F
100
AcDbEntity
  8
1-4ﾚｲﾔ
  6
Continuous
 62
     7
370
     9
100
AcDbLine
 10
831.1957030573135
 20
-404.3606523955575
 30
0.0
 11
831.1957030573135
 21
-405.1107935393563
 31
0.0
  0
LINE
  5
528
330
1F
100
AcDbEntity
  8
1-4ﾚｲﾔ
  6
Continuous
 62
     7
370
     9
100
AcDbLine
 10
830.4455619135147
 20
-404.3606523955575
 30
0.0
 11
831.1957030573135
 21
-404.3606523955575
 31
0.0
  0
LINE
  5
529
330
1F
100
AcDbEntity
  8
1-4ﾚｲﾔ
  6
Continuous
 62
     7
370
     9
100
AcDbLine
 10
830.4455619135147
 20
-405.1107935393563
 30
0.0
 11
830.4455619135147
 21
-404.3606523955575
 31
0.0
  0
LINE
  5
52A
330
1F
100
AcDbEntity
  8
1-4ﾚｲﾔ
  6
Continuous
 62
     7
370
     9
100
AcDbLine
 10
926.0016223597585
 20
-400.4656152111079
 30
0.0
 11
925.2514812159596
 21
-400.4656152111079
 31
0.0
  0
LINE
  5
52B
330
1F
100
AcDbEntity
  8
1-4ﾚｲﾔ
  6
Continuous
 62
     7
370
     9
100
AcDbLine
 10
926.0016223597585
 20
-399.7154740673091
 30
0.0
 11
926.0016223597585
 21
-400.4656152111079
 31
0.0
  0
LINE
  5
52C
330
1F
100
AcDbEntity
  8
1-4ﾚｲﾔ
  6
Continuous
 62
     7
370
     9
100
AcDbLine
 10
925.2514812159596
 20
-399.7154740673091
 30
0.0
 11
926.0016223597585
 21
-399.7154740673091
 31
0.0
  0
LINE
  5
52D
330
1F
100
AcDbEntity
  8
1-4ﾚｲﾔ
  6
Continuous
 62
     7
370
     9
100
AcDbLine
 10
952.9244038271962
 20
-387.0190934520747
 30
0.0
 11
952.1745130229054
 21
-387.0190934520747
 31
0.0
  0
LINE
  5
52E
330
1F
100
AcDbEntity
  8
1-4ﾚｲﾔ
  6
Continuous
 62
     7
370
     9
100
AcDbLine
 10
952.9244038271962
 20
-386.2689523082759
 30
0.0
 11
952.9244038271962
 21
-387.0190934520747
 31
0.0
  0
LINE
  5
52F
330
1F
100
AcDbEntity
  8
1-4ﾚｲﾔ
  6
Continuous
 62
     7
370
     9
100
AcDbLine
 10
952.1745130229054
 20
-386.2689523082759
 30
0.0
 11
952.9244038271962
 21
-386.2689523082759
 31
0.0
  0
LINE
  5
530
330
1F
100
AcDbEntity
  8
1-4ﾚｲﾔ
  6
Continuous
 62
     7
370
     9
100
AcDbLine
 10
952.1745130229054
 20
-387.0190934520747
 30
0.0
 11
952.1745130229054
 21
-386.2689523082759
 31
0.0
  0
LINE
  5
531
330
1F
100
AcDbEntity
  8
1-4ﾚｲﾔ
  6
Continuous
 62
     7
370
     9
100
AcDbLine
 10
939.1023132014333
 20
-390.9682206493404
 30
0.0
 11
938.3524200129567
 21
-390.9682206493404
 31
0.0
  0
LINE
  5
532
330
1F
100
AcDbEntity
  8
1-4ﾚｲﾔ
  6
Continuous
 62
     7
370
     9
100
AcDbLine
 10
939.1023132014333
 20
-390.2180890422847
 30
0.0
 11
939.1023132014333
 21
-390.9682206493404
 31
0.0
  0
LINE
  5
533
330
1F
100
AcDbEntity
  8
1-4ﾚｲﾔ
  6
Continuous
 62
     7
370
     9
100
AcDbLine
 10
938.3524200129567
 20
-390.2180890422847
 30
0.0
 11
939.1023132014333
 21
-390.2180890422847
 31
0.0
  0
LINE
  5
534
330
1F
100
AcDbEntity
  8
1-4ﾚｲﾔ
  6
Continuous
 62
     7
370
     9
100
AcDbLine
 10
938.3524200129567
 20
-390.9682206493404
 30
0.0
 11
938.3524200129567
 21
-390.2180890422847
 31
0.0
  0
LINE
  5
535
330
1F
100
AcDbEntity
  8
1-4ﾚｲﾔ
  6
Continuous
 62
     7
370
     9
100
AcDbLine
 10
979.581367652422
 20
-409.3164281230952
 30
0.0
 11
978.8314756560384
 21
-409.3164281230952
 31
0.0
  0
LINE
  5
536
330
1F
100
AcDbEntity
  8
1-4ﾚｲﾔ
  6
Continuous
 62
     7
370
     9
100
AcDbLine
 10
979.581367652422
 20
-408.5662869792964
 30
0.0
 11
979.581367652422
 21
-409.3164281230952
 31
0.0
  0
LINE
  5
537
330
1F
100
AcDbEntity
  8
1-4ﾚｲﾔ
  6
Continuous
 62
     7
370
     9
100
AcDbLine
 10
978.8314756560384
 20
-408.5662869792964
 30
0.0
 11
979.581367652422
 21
-408.5662869792964
 31
0.0
  0
LINE
  5
538
330
1F
100
AcDbEntity
  8
1-4ﾚｲﾔ
  6
Continuous
 62
     7
370
     9
100
AcDbLine
 10
978.8314756560384
 20
-409.3164281230952
 30
0.0
 11
978.8314756560384
 21
-408.5662869792964
 31
0.0
  0
LINE
  5
539
330
1F
100
AcDbEntity
  8
1-4ﾚｲﾔ
  6
Continuous
 62
     7
370
     9
100
AcDbLine
 10
972.6703211474477
 20
-392.5324181896236
 30
0.0
 11
971.920429151064
 21
-392.5324181896236
 31
0.0
  0
LINE
  5
53A
330
1F
100
AcDbEntity
  8
1-4ﾚｲﾔ
  6
Continuous
 62
     7
370
     9
100
AcDbLine
 10
972.6703211474477
 20
-391.7822770458247
 30
0.0
 11
972.6703211474477
 21
-392.5324181896236
 31
0.0
  0
LINE
  5
53B
330
1F
100
AcDbEntity
  8
1-4ﾚｲﾔ
  6
Continuous
 62
     7
370
     9
100
AcDbLine
 10
971.920429151064
 20
-391.7822770458247
 30
0.0
 11
972.6703211474477
 21
-391.7822770458247
 31
0.0
  0
LINE
  5
53C
330
1F
100
AcDbEntity
  8
1-4ﾚｲﾔ
  6
Continuous
 62
     7
370
     9
100
AcDbLine
 10
971.920429151064
 20
-392.5324181896236
 30
0.0
 11
971.920429151064
 21
-391.7822770458247
 31
0.0
  0
LINE
  5
53D
330
1F
100
AcDbEntity
  8
1-4ﾚｲﾔ
  6
Continuous
 62
     7
370
     9
100
AcDbLine
 10
939.5960447001515
 20
-410.2204160076167
 30
0.0
 11
938.8459083247243
 21
-410.2204160076167
 31
0.0
  0
LINE
  5
53E
330
1F
100
AcDbEntity
  8
1-4ﾚｲﾔ
  6
Continuous
 62
     7
370
     9
100
AcDbLine
 10
939.5960447001515
 20
-409.4702748638179
 30
0.0
 11
939.5960447001515
 21
-410.2204160076167
 31
0.0
  0
LINE
  5
53F
330
1F
100
AcDbEntity
  8
1-4ﾚｲﾔ
  6
Continuous
 62
     7
370
     9
100
AcDbLine
 10
938.8459083247243
 20
-409.4702748638179
 30
0.0
 11
939.5960447001515
 21
-409.4702748638179
 31
0.0
  0
LINE
  5
540
330
1F
100
AcDbEntity
  8
1-4ﾚｲﾔ
  6
Continuous
 62
     7
370
     9
100
AcDbLine
 10
938.8459083247243
 20
-410.2204160076167
 30
0.0
 11
938.8459083247243
 21
-409.4702748638179
 31
0.0
  0
LINE
  5
541
330
1F
100
AcDbEntity
  8
1-4ﾚｲﾔ
  6
Continuous
 62
     7
370
     9
100
AcDbLine
 10
954.8990961718617
 20
-404.7903184276607
 30
0.0
 11
954.1489550280629
 21
-404.7903184276607
 31
0.0
  0
LINE
  5
542
330
1F
100
AcDbEntity
  8
1-4ﾚｲﾔ
  6
Continuous
 62
     7
370
     9
100
AcDbLine
 10
954.8990961718617
 20
-404.0401772838619
 30
0.0
 11
954.8990961718617
 21
-404.7903184276607
 31
0.0
  0
LINE
  5
543
330
1F
100
AcDbEntity
  8
1-4ﾚｲﾔ
  6
Continuous
 62
     7
370
     9
100
AcDbLine
 10
954.1489550280629
 20
-404.0401772838619
 30
0.0
 11
954.8990961718617
 21
-404.0401772838619
 31
0.0
  0
LINE
  5
544
330
1F
100
AcDbEntity
  8
1-4ﾚｲﾔ
  6
Continuous
 62
     7
370
     9
100
AcDbLine
 10
954.1489550280629
 20
-404.7903184276607
 30
0.0
 11
954.1489550280629
 21
-404.0401772838619
 31
0.0
  0
LINE
  5
545
330
1F
100
AcDbEntity
  8
1-4ﾚｲﾔ
  6
Continuous
 62
     7
370
     9
100
AcDbLine
 10
988.1737940287283
 20
-400.4656152111079
 30
0.0
 11
987.4236528849294
 21
-400.4656152111079
 31
0.0
  0
LINE
  5
546
330
1F
100
AcDbEntity
  8
1-4ﾚｲﾔ
  6
Continuous
 62
     7
370
     9
100
AcDbLine
 10
988.1737940287283
 20
-399.7154740673091
 30
0.0
 11
988.1737940287283
 21
-400.4656152111079
 31
0.0
  0
LINE
  5
547
330
1F
100
AcDbEntity
  8
1-4ﾚｲﾔ
  6
Continuous
 62
     7
370
     9
100
AcDbLine
 10
987.4236528849294
 20
-399.7154740673091
 30
0.0
 11
988.1737940287283
 21
-399.7154740673091
 31
0.0
  0
LINE
  5
548
330
1F
100
AcDbEntity
  8
1-4ﾚｲﾔ
  6
Continuous
 62
     7
370
     9
100
AcDbLine
 10
1015.096575496166
 20
-387.0190934520747
 30
0.0
 11
1014.346684691875
 21
-387.0190934520747
 31
0.0
  0
LINE
  5
549
330
1F
100
AcDbEntity
  8
1-4ﾚｲﾔ
  6
Continuous
 62
     7
370
     9
100
AcDbLine
 10
1015.096575496166
 20
-386.2689523082759
 30
0.0
 11
1015.096575496166
 21
-387.0190934520747
 31
0.0
  0
LINE
  5
54A
330
1F
100
AcDbEntity
  8
1-4ﾚｲﾔ
  6
Continuous
 62
     7
370
     9
100
AcDbLine
 10
1014.346684691875
 20
-386.2689523082759
 30
0.0
 11
1015.096575496166
 21
-386.2689523082759
 31
0.0
  0
LINE
  5
54B
330
1F
100
AcDbEntity
  8
1-4ﾚｲﾔ
  6
Continuous
 62
     7
370
     9
100
AcDbLine
 10
1014.346684691875
 20
-387.0190934520747
 30
0.0
 11
1014.346684691875
 21
-386.2689523082759
 31
0.0
  0
LINE
  5
54C
330
1F
100
AcDbEntity
  8
1-4ﾚｲﾔ
  6
Continuous
 62
     7
370
     9
100
AcDbLine
 10
1001.274484870403
 20
-390.9682206493404
 30
0.0
 11
1000.524591681926
 21
-390.9682206493404
 31
0.0
  0
LINE
  5
54D
330
1F
100
AcDbEntity
  8
1-4ﾚｲﾔ
  6
Continuous
 62
     7
370
     9
100
AcDbLine
 10
1001.274484870403
 20
-390.2180890422847
 30
0.0
 11
1001.274484870403
 21
-390.9682206493404
 31
0.0
  0
LINE
  5
54E
330
1F
100
AcDbEntity
  8
1-4ﾚｲﾔ
  6
Continuous
 62
     7
370
     9
100
AcDbLine
 10
1000.524591681926
 20
-390.2180890422847
 30
0.0
 11
1001.274484870403
 21
-390.2180890422847
 31
0.0
  0
LINE
  5
54F
330
1F
100
AcDbEntity
  8
1-4ﾚｲﾔ
  6
Continuous
 62
     7
370
     9
100
AcDbLine
 10
1000.524591681926
 20
-390.9682206493404
 30
0.0
 11
1000.524591681926
 21
-390.2180890422847
 31
0.0
  0
LINE
  5
550
330
1F
100
AcDbEntity
  8
1-4ﾚｲﾔ
  6
Continuous
 62
     7
370
     9
100
AcDbLine
 10
1041.753539321392
 20
-409.3164281230952
 30
0.0
 11
1041.003647325008
 21
-409.3164281230952
 31
0.0
  0
LINE
  5
551
330
1F
100
AcDbEntity
  8
1-4ﾚｲﾔ
  6
Continuous
 62
     7
370
     9
100
AcDbLine
 10
1041.753539321392
 20
-408.5662869792964
 30
0.0
 11
1041.753539321392
 21
-409.3164281230952
 31
0.0
  0
LINE
  5
552
330
1F
100
AcDbEntity
  8
1-4ﾚｲﾔ
  6
Continuous
 62
     7
370
     9
100
AcDbLine
 10
1041.003647325008
 20
-408.5662869792964
 30
0.0
 11
1041.753539321392
 21
-408.5662869792964
 31
0.0
  0
LINE
  5
553
330
1F
100
AcDbEntity
  8
1-4ﾚｲﾔ
  6
Continuous
 62
     7
370
     9
100
AcDbLine
 10
1041.003647325008
 20
-409.3164281230952
 30
0.0
 11
1041.003647325008
 21
-408.5662869792964
 31
0.0
  0
LINE
  5
554
330
1F
100
AcDbEntity
  8
1-4ﾚｲﾔ
  6
Continuous
 62
     7
370
     9
100
AcDbLine
 10
1034.842492816417
 20
-392.5324181896236
 30
0.0
 11
1034.092600820034
 21
-392.5324181896236
 31
0.0
  0
LINE
  5
555
330
1F
100
AcDbEntity
  8
1-4ﾚｲﾔ
  6
Continuous
 62
     7
370
     9
100
AcDbLine
 10
1034.842492816417
 20
-391.7822770458247
 30
0.0
 11
1034.842492816417
 21
-392.5324181896236
 31
0.0
  0
LINE
  5
556
330
1F
100
AcDbEntity
  8
1-4ﾚｲﾔ
  6
Continuous
 62
     7
370
     9
100
AcDbLine
 10
1034.092600820034
 20
-391.7822770458247
 30
0.0
 11
1034.842492816417
 21
-391.7822770458247
 31
0.0
  0
LINE
  5
557
330
1F
100
AcDbEntity
  8
1-4ﾚｲﾔ
  6
Continuous
 62
     7
370
     9
100
AcDbLine
 10
1034.092600820034
 20
-392.5324181896236
 30
0.0
 11
1034.092600820034
 21
-391.7822770458247
 31
0.0
  0
LINE
  5
558
330
1F
100
AcDbEntity
  8
1-4ﾚｲﾔ
  6
Continuous
 62
     7
370
     9
100
AcDbLine
 10
1001.768216369121
 20
-410.2204160076167
 30
0.0
 11
1001.018079993694
 21
-410.2204160076167
 31
0.0
  0
LINE
  5
559
330
1F
100
AcDbEntity
  8
1-4ﾚｲﾔ
  6
Continuous
 62
     7
370
     9
100
AcDbLine
 10
1001.768216369121
 20
-409.4702748638179
 30
0.0
 11
1001.768216369121
 21
-410.2204160076167
 31
0.0
  0
LINE
  5
55A
330
1F
100
AcDbEntity
  8
1-4ﾚｲﾔ
  6
Continuous
 62
     7
370
     9
100
AcDbLine
 10
1001.018079993694
 20
-409.4702748638179
 30
0.0
 11
1001.768216369121
 21
-409.4702748638179
 31
0.0
  0
LINE
  5
55B
330
1F
100
AcDbEntity
  8
1-4ﾚｲﾔ
  6
Continuous
 62
     7
370
     9
100
AcDbLine
 10
1001.018079993694
 20
-410.2204160076167
 30
0.0
 11
1001.018079993694
 21
-409.4702748638179
 31
0.0
  0
LINE
  5
55C
330
1F
100
AcDbEntity
  8
1-4ﾚｲﾔ
  6
Continuous
 62
     7
370
     9
100
AcDbLine
 10
1017.071267840832
 20
-404.7903184276607
 30
0.0
 11
1016.321126697033
 21
-404.7903184276607
 31
0.0
  0
LINE
  5
55D
330
1F
100
AcDbEntity
  8
1-4ﾚｲﾔ
  6
Continuous
 62
     7
370
     9
100
AcDbLine
 10
1017.071267840832
 20
-404.0401772838619
 30
0.0
 11
1017.071267840832
 21
-404.7903184276607
 31
0.0
  0
LINE
  5
55E
330
1F
100
AcDbEntity
  8
1-4ﾚｲﾔ
  6
Continuous
 62
     7
370
     9
100
AcDbLine
 10
1016.321126697033
 20
-404.0401772838619
 30
0.0
 11
1017.071267840832
 21
-404.0401772838619
 31
0.0
  0
LINE
  5
55F
330
1F
100
AcDbEntity
  8
1-4ﾚｲﾔ
  6
Continuous
 62
     7
370
     9
100
AcDbLine
 10
1016.321126697033
 20
-404.7903184276607
 30
0.0
 11
1016.321126697033
 21
-404.0401772838619
 31
0.0
  0
LINE
  5
560
330
1F
100
AcDbEntity
  8
1-4ﾚｲﾔ
  6
Continuous
 62
     7
370
     9
100
AcDbLine
 10
798.9402670250961
 20
-390.7949527958717
 30
0.0
 11
798.1903738366195
 21
-390.7949527958717
 31
0.0
  0
LINE
  5
561
330
1F
100
AcDbEntity
  8
1-4ﾚｲﾔ
  6
Continuous
 62
     7
370
     9
100
AcDbLine
 10
798.9402670250961
 20
-390.0448211888161
 30
0.0
 11
798.9402670250961
 21
-390.7949527958717
 31
0.0
  0
LINE
  5
562
330
1F
100
AcDbEntity
  8
1-4ﾚｲﾔ
  6
Continuous
 62
     7
370
     9
100
AcDbLine
 10
798.1903738366195
 20
-390.0448211888161
 30
0.0
 11
798.9402670250961
 21
-390.0448211888161
 31
0.0
  0
LINE
  5
563
330
1F
100
AcDbEntity
  8
1-4ﾚｲﾔ
  6
Continuous
 62
     7
370
     9
100
AcDbLine
 10
798.1903738366195
 20
-390.7949527958717
 30
0.0
 11
798.1903738366195
 21
-390.0448211888161
 31
0.0
  0
LINE
  5
564
330
1F
100
AcDbEntity
  8
1-4ﾚｲﾔ
  6
Continuous
 62
     7
370
     9
100
AcDbLine
 10
801.5480881014114
 20
-400.0359491790048
 30
0.0
 11
801.5480881014114
 21
-400.7860903228036
 31
0.0
  0
LINE
  5
565
330
1F
100
AcDbEntity
  8
1-4ﾚｲﾔ
  6
Continuous
 62
     7
370
     9
100
AcDbLine
 10
925.2514812159596
 20
-399.7154740673091
 30
0.0
 11
925.2514812159596
 21
-400.4656152111079
 31
0.0
  0
LINE
  5
566
330
1F
100
AcDbEntity
  8
1-4ﾚｲﾔ
  6
Continuous
 62
     7
370
     9
100
AcDbLine
 10
863.0793095469897
 20
-399.7154740673091
 30
0.0
 11
863.0793095469897
 21
-400.4656152111079
 31
0.0
  0
LINE
  5
567
330
1F
100
AcDbEntity
  8
1-4ﾚｲﾔ
  6
Continuous
 62
     7
370
     9
100
AcDbLine
 10
987.4236528849294
 20
-399.7154740673091
 30
0.0
 11
987.4236528849294
 21
-400.4656152111079
 31
0.0
  0
TEXT
  5
568
330
1F
100
AcDbEntity
  8
1-4ﾚｲﾔ
  6
Continuous
 62
     7
370
     9
100
AcDbText
 10
237.2248548293773
 20
-310.6885393939393
 30
0.0
 40
22.86
  1
本体：ＦＣ２００
 41
1.145833333333333
  7
ＭＳ ゴシック
100
AcDbText
  0
LINE
  5
569
330
1F
100
AcDbEntity
  8
1-4ﾚｲﾔ
  6
Continuous
 62
     7
370
     9
100
AcDbLine
 10
231.9048979873664
 20
-321.0784211712829
 30
0.0
 11
515.9159595147657
 21
-321.0784211712829
 31
0.0
  0
TEXT
  5
56A
330
1F
100
AcDbEntity
  8
1-4ﾚｲﾔ
  6
Continuous
 62
     7
370
     9
100
AcDbText
 10
286.6140517442409
 20
-351.3988064688954
 30
0.0
 40
22.86
  1
樹脂系塗装
 41
1.133333333333333
  7
ＭＳ ゴシック
100
AcDbText
  0
LINE
  5
56B
330
1F
100
AcDbEntity
  8
1-4ﾚｲﾔ
  6
Continuous
 62
     7
370
     9
100
AcDbLine
 10
660.0491533432046
 20
-215.823259888673
 30
0.0
 11
641.9566802597056
 21
-233.0761558114702
 31
0.0
  0
LINE
  5
56C
330
1F
100
AcDbEntity
  8
1-4ﾚｲﾔ
  6
Continuous
 62
     7
370
     9
100
AcDbLine
 10
515.9159595147657
 20
-321.0784211712829
 30
0.0
 11
660.0491533432046
 21
-215.823259888673
 31
0.0
  0
LINE
  5
56D
330
1F
100
AcDbEntity
  8
1-4ﾚｲﾔ
  6
Continuous
 62
     7
370
     9
100
AcDbLine
 10
660.0491533432046
 20
-215.823259888673
 30
0.0
 11
638.1077882824217
 21
-227.8056010317659
 31
0.0
  0
TEXT
  5
56E
330
1F
100
AcDbEntity
  8
1-4ﾚｲﾔ
  6
Continuous
 62
     7
370
     9
100
AcDbText
 10
435.8021175318005
 20
-468.8001159634032
 30
0.0
 40
22.86
  1
ならしモルタル
 41
1.142857142857143
  7
ＭＳ ゴシック
100
AcDbText
  0
TEXT
  5
56F
330
1F
100
AcDbEntity
  8
1-4ﾚｲﾔ
  6
Continuous
 62
     7
370
     9
100
AcDbText
 10
453.3021175318005
 20
-565.2926937684814
 30
0.0
 40
22.86
  1
コンクリート
 41
1.138888888888889
  7
ＭＳ ゴシック
100
AcDbText
  0
LINE
  5
570
330
1F
100
AcDbEntity
  8
1-4ﾚｲﾔ
  6
Continuous
 62
     7
370
     9
100
AcDbLine
 10
683.9706269503098
 20
-478.2231954064827
 30
0.0
 11
795.2941322738151
 21
-396.9277408610282
 31
0.0
  0
LINE
  5
571
330
1F
100
AcDbEntity
  8
1-4ﾚｲﾔ
  6
Continuous
 62
     7
370
     9
100
AcDbLine
 10
683.9706269503098
 20
-574.7157732115609
 30
0.0
 11
795.2941322738151
 21
-493.420318666106
 31
0.0
  0
LINE
  5
572
330
1F
100
AcDbEntity
  8
1-4ﾚｲﾔ
  6
Continuous
 62
     7
370
     9
100
AcDbLine
 10
451.1626603416569
 20
-574.7157732115609
 30
0.0
 11
683.9706269503098
 21
-574.7157732115609
 31
0.0
  0
LINE
  5
573
330
1F
100
AcDbEntity
  8
1-4ﾚｲﾔ
  6
Continuous
 62
     7
370
     9
100
AcDbLine
 10
431.5549206424469
 20
-478.2231954064827
 30
0.0
 11
683.9706269503098
 21
-478.2231954064827
 31
0.0
  0
LINE
  5
574
330
1F
100
AcDbEntity
  8
1-4ﾚｲﾔ
  6
Continuous
 62
     7
370
     9
100
AcDbLine
 10
795.2941322738151
 20
-396.9277408610282
 30
0.0
 11
773.3527672130323
 21
-408.9100820041211
 31
0.0
  0
LINE
  5
575
330
1F
100
AcDbEntity
  8
1-4ﾚｲﾔ
  6
Continuous
 62
     7
370
     9
100
AcDbLine
 10
795.2941322738151
 20
-396.9277408610282
 30
0.0
 11
777.2016591903163
 21
-414.1806367838253
 31
0.0
  0
LINE
  5
576
330
1F
100
AcDbEntity
  8
1-4ﾚｲﾔ
  6
Continuous
 62
     7
370
     9
100
AcDbLine
 10
795.2941322738151
 20
-493.420318666106
 30
0.0
 11
773.3527672130323
 21
-505.4026598091989
 31
0.0
  0
LINE
  5
577
330
1F
100
AcDbEntity
  8
1-4ﾚｲﾔ
  6
Continuous
 62
     7
370
     9
100
AcDbLine
 10
795.2941322738151
 20
-493.420318666106
 30
0.0
 11
777.2016591903163
 21
-510.6732145889032
 31
0.0
  0
TEXT
  5
578
330
1F
100
AcDbEntity
  8
1-4ﾚｲﾔ
  6
Continuous
 62
     7
370
     9
100
AcDbText
 10
336.0628669175499
 20
-676.4008665019574
 30
0.0
 40
22.86
  1
クラッシャーラン基礎
 41
1.15
  7
ＭＳ ゴシック
100
AcDbText
  0
LINE
  5
579
330
1F
100
AcDbEntity
  8
1-4ﾚｲﾔ
  6
Continuous
 62
     7
370
     9
100
AcDbLine
 10
333.1551068847897
 20
-685.8239459450368
 30
0.0
 11
683.9706269503098
 21
-685.8239459450368
 31
0.0
  0
LINE
  5
57A
330
1F
100
AcDbEntity
  8
1-4ﾚｲﾔ
  6
Continuous
 62
     7
370
     9
100
AcDbLine
 10
683.9706269503098
 20
-685.8239459450368
 30
0.0
 11
770.2952545901531
 21
-622.7842507606777
 31
0.0
  0
LINE
  5
57B
330
1F
100
AcDbEntity
  8
1-4ﾚｲﾔ
  6
Continuous
 62
     7
370
     9
100
AcDbLine
 10
770.2952545901531
 20
-622.7842507606777
 30
0.0
 11
748.3538895293701
 21
-634.7665919037705
 31
0.0
  0
LINE
  5
57C
330
1F
100
AcDbEntity
  8
1-4ﾚｲﾔ
  6
Continuous
 62
     7
370
     9
100
AcDbLine
 10
770.2952545901531
 20
-622.7842507606777
 30
0.0
 11
752.2027815066542
 21
-640.0371466834747
 31
0.0
  0
LINE
  5
57D
330
1F
100
AcDbEntity
  8
1-5ﾚｲﾔ
  6
Continuous
 62
     7
370
     9
100
AcDbLine
 10
1113.164904162581
 20
18.86221836633915
 30
0.0
 11
1011.894940212329
 21
-135.8248694258033
 31
0.0
  0
LINE
  5
57E
330
1F
100
AcDbEntity
  8
1-5ﾚｲﾔ
  6
Continuous
 62
     7
370
     9
100
AcDbLine
 10
1011.894940212329
 20
-135.8248694258033
 30
0.0
 11
1022.741063057133
 21
-113.3001803217242
 31
0.0
  0
LINE
  5
57F
330
1F
100
AcDbEntity
  8
1-5ﾚｲﾔ
  6
Continuous
 62
     7
370
     9
100
AcDbLine
 10
1011.894940212329
 20
-135.8248694258033
 30
0.0
 11
1028.201308908378
 21
-116.8748736487983
 31
0.0
  0
LINE
  5
580
330
1F
100
AcDbEntity
  8
1-4ﾚｲﾔ
  6
Continuous
 62
     7
370
     9
100
AcDbLine
 10
795.2941322738151
 20
-787.1176910120187
 30
0.0
 11
1045.293283908709
 21
-787.1176910120187
 31
0.0
  0
LWPOLYLINE
  5
581
330
1F
100
AcDbEntity
  8
1-4ﾚｲﾔ
  6
Continuous
 62
     7
370
     9
100
AcDbPolyline
 90
        4
 70
     1
 43
1.0
 10
795.7941322738151
 20
-787.1176910120187
 42
0.4142135623731
 10
795.2941322738151
 20
-786.6176910120187
 42
0.4142135623731
 10
794.7941322738152
 20
-787.1176910120187
 42
0.4142135623731
 10
795.2941322738151
 20
-787.6176910120187
 42
0.4142135623731
  0
LWPOLYLINE
  5
582
330
1F
100
AcDbEntity
  8
1-4ﾚｲﾔ
  6
Continuous
 62
     7
370
     9
100
AcDbPolyline
 90
        4
 70
     1
 43
1.0
 10
1045.793283908709
 20
-787.1176910120187
 42
0.4142135623731
 10
1045.293283908709
 20
-786.6176910120187
 42
0.4142135623731
 10
1044.793283908709
 20
-787.1176910120187
 42
0.4142135623731
 10
1045.293283908709
 20
-787.6176910120187
 42
0.4142135623731
  0
TEXT
  5
583
330
1F
100
AcDbEntity
  8
1-4ﾚｲﾔ
  6
Continuous
 62
     2
370
   211
100
AcDbText
 10
887.7937080912623
 20
-771.4776910120187
 30
0.0
 40
30.48
  1
100
 41
1.083333333333333
  7
ＭＳ ゴシック
100
AcDbText
  0
LINE
  5
584
330
1F
100
AcDbEntity
  8
1-4ﾚｲﾔ
  6
Continuous
 62
     7
370
     9
100
AcDbLine
 10
795.2941322738151
 20
-790.1176910120187
 30
0.0
 11
795.2941322738151
 21
-703.1027975836173
 31
0.0
  0
LINE
  5
585
330
1F
100
AcDbEntity
  8
1-4ﾚｲﾔ
  6
Continuous
 62
     7
370
     9
100
AcDbLine
 10
1045.293283908709
 20
-790.1176910120187
 30
0.0
 11
1045.293283908709
 21
-703.1027975836173
 31
0.0
  0
TEXT
  5
586
330
1F
100
AcDbEntity
  8
1-4ﾚｲﾔ
  6
Continuous
 62
     2
370
   211
100
AcDbText
 10
442.7953017574533
 20
-79.59305244253129
 30
0.0
 40
30.48
  1
15
 41
1.0625
  7
ＭＳ ゴシック
100
AcDbText
  0
TEXT
  5
587
330
1F
100
AcDbEntity
  8
1-4ﾚｲﾔ
  6
Continuous
 62
     2
370
   211
100
AcDbText
 10
257.4324712769832
 20
-127.8537370703606
 30
0.0
 40
30.48
  1
10
 50
90.0
 41
1.0625
  7
ＭＳ ゴシック
100
AcDbText
  0
TEXT
  5
588
330
1F
100
AcDbEntity
  8
1-4ﾚｲﾔ
  6
Continuous
 62
     2
370
   211
100
AcDbText
 10
197.0904277712575
 20
-199.5725916971279
 30
0.0
 40
30.48
  1
30
 50
90.0
 41
1.0625
  7
ＭＳ ゴシック
100
AcDbText
  0
TEXT
  5
589
330
1F
100
AcDbEntity
  8
1-4ﾚｲﾔ
  6
Continuous
 62
     2
370
   211
100
AcDbText
 10
257.4324712769832
 20
-266.50732968462
 30
0.0
 40
30.48
  1
20
 50
90.0
 41
1.0625
  7
ＭＳ ゴシック
100
AcDbText
  0
TEXT
  5
58A
330
1F
100
AcDbEntity
  8
1-5ﾚｲﾔ
  6
Continuous
 62
     2
370
     9
100
AcDbText
 10
429.0583541618483
 20
-894.2335668802986
 30
0.0
 40
30.48
  1
納まり詳細図　Ｓ＝１：４
 41
1.114583333333333
  7
ＭＳ ゴシック
100
AcDbText
  0
LINE
  5
58B
330
1F
100
AcDbEntity
  8
1-5ﾚｲﾔ
  6
Continuous
 62
     7
370
     9
100
AcDbLine
 10
414.0583541618483
 20
-844.8735668802985
 30
0.0
 11
979.0583541618482
 21
-844.8735668802985
 31
0.0
  0
LINE
  5
58C
330
1F
100
AcDbEntity
  8
1-5ﾚｲﾔ
  6
Continuous
 62
     7
370
     9
100
AcDbLine
 10
414.0583541618483
 20
-914.8735668802985
 30
0.0
 11
979.0583541618482
 21
-914.8735668802985
 31
0.0
  0
LINE
  5
58D
330
1F
100
AcDbEntity
  8
1-5ﾚｲﾔ
  6
Continuous
 62
     7
370
     9
100
AcDbLine
 10
414.0583541618483
 20
-844.8735668802985
 30
0.0
 11
414.0583541618483
 21
-914.8735668802985
 31
0.0
  0
LINE
  5
58E
330
1F
100
AcDbEntity
  8
1-5ﾚｲﾔ
  6
Continuous
 62
     7
370
     9
100
AcDbLine
 10
979.0583541618482
 20
-844.8735668802985
 30
0.0
 11
979.0583541618482
 21
-914.8735668802985
 31
0.0
  0
LINE
  5
58F
330
1F
100
AcDbEntity
  8
1-E
  6
Continuous
 62
     7
370
     9
100
AcDbLine
 10
599.5209140731429
 20
921.5472549151395
 30
0.0
 11
611.0017436139696
 21
949.2636928845689
 31
0.0
  0
LINE
  5
590
330
1F
100
AcDbEntity
  8
1-E
  6
Continuous
 62
     7
370
     9
100
AcDbLine
 10
599.5209140731429
 20
921.5472549151395
 30
0.0
 11
617.7837863640302
 21
945.3477456000907
 31
0.0
  0
LINE
  5
591
330
1F
100
AcDbEntity
  8
1-E
  6
Continuous
 62
     7
370
     9
100
AcDbLine
 10
599.5209140731429
 20
921.5472549151395
 30
0.0
 11
657.2561150508361
 21
1021.547215442597
 31
0.0
  0
TEXT
  5
592
330
1F
100
AcDbEntity
  8
1-E
  6
Continuous
 62
     3
370
     9
100
AcDbText
 10
726.2568001883872
 20
985.648029467769
 30
0.0
 40
22.86
  1
ＦＣ２００，樹脂系塗装
 41
1.030303030303031
  7
ＭＳ ゴシック
100
AcDbText
  0
TEXT
  5
593
330
1F
100
AcDbEntity
  8
1-E
  6
Continuous
 62
     3
370
     9
100
AcDbText
 10
725.4598040616399
 20
1036.14992638858
 30
0.0
 40
22.86
  1
本体：ＲＧＣ－３－１２００×４００
 41
1.031372549019608
  7
ＭＳ ゴシック
100
AcDbText
  0
LINE
  5
594
330
1F
100
AcDbEntity
  8
1-E
  6
Continuous
 62
     7
370
     9
100
AcDbLine
 10
657.2561150508361
 20
1021.547215442597
 30
0.0
 11
1249.506727671976
 21
1021.547215442597
 31
0.0
  0
LINE
  5
595
330
1F
100
AcDbEntity
  8
1-4ﾚｲﾔ
  6
Continuous
 62
     4
370
     9
100
AcDbLine
 10
554.0310160508936
 20
844.0466280675888
 30
0.0
 11
554.0310160508936
 21
846.547007475317
 31
0.0
  0
LINE
  5
596
330
1F
100
AcDbEntity
  8
1-4ﾚｲﾔ
  6
Continuous
 62
     3
370
     9
100
AcDbLine
 10
466.5308510910119
 20
921.5470074753172
 30
0.0
 11
466.5308510910119
 21
884.0470074753172
 31
0.0
  0
LINE
  5
597
330
1F
100
AcDbEntity
  8
1-4ﾚｲﾔ
  6
Continuous
 62
     3
370
     9
100
AcDbLine
 10
516.531510930539
 20
884.0470074753172
 30
0.0
 11
466.5308510910119
 21
884.0470074753172
 31
0.0
  0
LINE
  5
598
330
1F
100
AcDbEntity
  8
1-4ﾚｲﾔ
  6
Continuous
 62
     3
370
     9
100
AcDbLine
 10
516.531510930539
 20
921.5470074753172
 30
0.0
 11
516.531510930539
 21
884.0470074753172
 31
0.0
  0
LINE
  5
599
330
1F
100
AcDbEntity
  8
1-4ﾚｲﾔ
  6
Continuous
 62
     2
370
     9
100
AcDbLine
 10
511.5307521150827
 20
907.5468623106213
 30
0.0
 11
471.5311150268228
 21
907.5468623106213
 31
0.0
  0
LINE
  5
59A
330
1F
100
AcDbEntity
  8
1-4ﾚｲﾔ
  6
Continuous
 62
     2
370
     9
100
AcDbLine
 10
471.5311150268228
 20
907.5468623106213
 30
0.0
 11
474.1292331644916
 21
909.0468425154354
 31
0.0
  0
LINE
  5
59B
330
1F
100
AcDbEntity
  8
1-4ﾚｲﾔ
  6
Continuous
 62
     2
370
     9
100
AcDbLine
 10
508.9331288570593
 20
909.0468425154354
 30
0.0
 11
474.1292331644916
 21
909.0468425154354
 31
0.0
  0
LINE
  5
59C
330
1F
100
AcDbEntity
  8
1-4ﾚｲﾔ
  6
Continuous
 62
     2
370
     9
100
AcDbLine
 10
511.5307521150827
 20
907.5468623106213
 30
0.0
 11
508.9331288570593
 21
909.0468425154354
 31
0.0
  0
LINE
  5
59D
330
1F
100
AcDbEntity
  8
1-4ﾚｲﾔ
  6
Continuous
 62
     2
370
     9
100
AcDbLine
 10
471.5311150268228
 20
907.5468623106213
 30
0.0
 11
471.5311150268228
 21
884.0470074753172
 31
0.0
  0
LINE
  5
59E
330
1F
100
AcDbEntity
  8
1-4ﾚｲﾔ
  6
Continuous
 62
     2
370
     9
100
AcDbLine
 10
511.5307521150827
 20
884.0470074753172
 30
0.0
 11
511.5307521150827
 21
907.5468623106213
 31
0.0
  0
LINE
  5
59F
330
1F
100
AcDbEntity
  8
1-4ﾚｲﾔ
  6
Continuous
 62
     2
370
     9
100
AcDbLine
 10
474.031246994728
 20
907.5468623106213
 30
0.0
 11
474.031246994728
 21
884.0470074753172
 31
0.0
  0
LINE
  5
5A0
330
1F
100
AcDbEntity
  8
1-4ﾚｲﾔ
  6
Continuous
 62
     2
370
     9
100
AcDbLine
 10
479.031510930539
 20
907.5468623106213
 30
0.0
 11
479.031510930539
 21
824.0468095234588
 31
0.0
  0
LINE
  5
5A1
330
1F
100
AcDbEntity
  8
1-4ﾚｲﾔ
  6
Continuous
 62
     2
370
     9
100
AcDbLine
 10
484.0317748663499
 20
907.5468623106213
 30
0.0
 11
484.0317748663499
 21
884.0470074753172
 31
0.0
  0
LINE
  5
5A2
330
1F
100
AcDbEntity
  8
1-4ﾚｲﾔ
  6
Continuous
 62
     2
370
     9
100
AcDbLine
 10
489.0320388021603
 20
907.5468623106213
 30
0.0
 11
489.0320388021603
 21
884.0470074753172
 31
0.0
  0
LINE
  5
5A3
330
1F
100
AcDbEntity
  8
1-4ﾚｲﾔ
  6
Continuous
 62
     2
370
     9
100
AcDbLine
 10
494.0318078583259
 20
907.5468623106213
 30
0.0
 11
494.0318078583259
 21
884.0470074753172
 31
0.0
  0
LINE
  5
5A4
330
1F
100
AcDbEntity
  8
1-4ﾚｲﾔ
  6
Continuous
 62
     2
370
     9
100
AcDbLine
 10
499.0320717941369
 20
907.5468623106213
 30
0.0
 11
499.0320717941369
 21
884.0470074753172
 31
0.0
  0
LINE
  5
5A5
330
1F
100
AcDbEntity
  8
1-4ﾚｲﾔ
  6
Continuous
 62
     2
370
     9
100
AcDbLine
 10
504.0323357299478
 20
907.5468623106213
 30
0.0
 11
504.0323357299478
 21
884.0470074753172
 31
0.0
  0
LINE
  5
5A6
330
1F
100
AcDbEntity
  8
1-4ﾚｲﾔ
  6
Continuous
 62
     2
370
     9
100
AcDbLine
 10
509.0325996657588
 20
907.5468623106213
 30
0.0
 11
509.0325996657588
 21
884.0470074753172
 31
0.0
  0
LINE
  5
5A7
330
1F
100
AcDbEntity
  8
1-4ﾚｲﾔ
  6
JWW_CENTER1
 62
     2
370
     9
100
AcDbLine
 10
491.5311810107754
 20
814.9746758663644
 30
0.0
 11
491.5311810107754
 21
913.5769707882396
 31
0.0
  0
LINE
  5
5A8
330
1F
100
AcDbEntity
  8
1-4ﾚｲﾔ
  6
Continuous
 62
     2
370
     9
100
AcDbLine
 10
481.5311480187988
 20
884.0470074753172
 30
0.0
 11
481.5311480187988
 21
821.546924995376
 31
0.0
  0
LINE
  5
5A9
330
1F
100
AcDbEntity
  8
1-4ﾚｲﾔ
  6
Continuous
 62
     2
370
     9
100
AcDbLine
 10
501.531214002752
 20
821.546924995376
 30
0.0
 11
501.531214002752
 21
884.0470074753172
 31
0.0
  0
LINE
  5
5AA
330
1F
100
AcDbEntity
  8
1-4ﾚｲﾔ
  6
Continuous
 62
     2
370
     9
100
AcDbLine
 10
504.0308510910119
 20
824.0468095234588
 30
0.0
 11
504.0308510910119
 21
884.0470074753172
 31
0.0
  0
LINE
  5
5AB
330
1F
100
AcDbEntity
  8
1-4ﾚｲﾔ
  6
Continuous
 62
     2
370
     9
100
AcDbLine
 10
479.0310160508936
 20
824.0468095234588
 30
0.0
 11
504.0308510910119
 21
824.0468095234588
 31
0.0
  0
LINE
  5
5AC
330
1F
100
AcDbEntity
  8
1-4ﾚｲﾔ
  6
Continuous
 62
     2
370
     9
100
AcDbLine
 10
479.0310160508936
 20
824.0468095234588
 30
0.0
 11
481.5311480187988
 21
821.546924995376
 31
0.0
  0
LINE
  5
5AD
330
1F
100
AcDbEntity
  8
1-4ﾚｲﾔ
  6
Continuous
 62
     2
370
     9
100
AcDbLine
 10
501.531214002752
 20
821.546924995376
 30
0.0
 11
481.5311480187988
 21
821.546924995376
 31
0.0
  0
LINE
  5
5AE
330
1F
100
AcDbEntity
  8
1-4ﾚｲﾔ
  6
Continuous
 62
     2
370
     9
100
AcDbLine
 10
504.0308510910119
 20
824.0468095234588
 30
0.0
 11
501.531214002752
 21
821.546924995376
 31
0.0
  0
LINE
  5
5AF
330
1F
100
AcDbEntity
  8
1-4ﾚｲﾔ
  6
Continuous
 62
     3
370
     9
100
AcDbLine
 10
476.5313789626338
 20
884.0470074753172
 30
0.0
 11
476.5313789626338
 21
846.547007475317
 31
0.0
  0
LINE
  5
5B0
330
1F
100
AcDbEntity
  8
1-4ﾚｲﾔ
  6
Continuous
 62
     3
370
     9
100
AcDbLine
 10
506.5314779385624
 20
884.0470074753172
 30
0.0
 11
506.5314779385624
 21
846.547007475317
 31
0.0
  0
LINE
  5
5B1
330
1F
100
AcDbEntity
  8
1-4ﾚｲﾔ
  6
Continuous
 62
     4
370
     9
100
AcDbLine
 10
479.0310160508936
 20
846.547007475317
 30
0.0
 11
429.0313459706572
 21
846.547007475317
 31
0.0
  0
LINE
  5
5B2
330
1F
100
AcDbEntity
  8
1-4ﾚｲﾔ
  6
Continuous
 62
     4
370
     9
100
AcDbLine
 10
541.5313459706572
 20
831.547205427175
 30
0.0
 11
504.0308510910119
 21
831.547205427175
 31
0.0
  0
LINE
  5
5B3
330
1F
100
AcDbEntity
  8
1-4ﾚｲﾔ
  6
Continuous
 62
     4
370
     9
100
AcDbLine
 10
479.0310160508936
 20
831.547205427175
 30
0.0
 11
456.5310655388582
 21
831.547205427175
 31
0.0
  0
LINE
  5
5B4
330
1F
100
AcDbEntity
  8
1-4ﾚｲﾔ
  6
Continuous
 62
     4
370
     9
100
AcDbLine
 10
504.0308510910119
 20
846.547007475317
 30
0.0
 11
554.0310160508936
 21
846.547007475317
 31
0.0
  0
ARC
  5
5B5
330
1F
100
AcDbEntity
  8
1-4ﾚｲﾔ
  6
Continuous
 62
     4
370
     9
100
AcDbCircle
 10
456.5310655388582
 20
819.0470404672932
 30
0.0
 40
12.50000064437454
100
AcDbArc
 50
90.0
 51
180.0
  0
ARC
  5
5B6
330
1F
100
AcDbEntity
  8
1-4ﾚｲﾔ
  6
Continuous
 62
     4
370
     9
100
AcDbCircle
 10
541.5313459706572
 20
844.0466280675888
 30
0.0
 40
12.50000064437454
100
AcDbArc
 50
270.0
 51
0.0
  0
LINE
  5
5B7
330
1F
100
AcDbEntity
  8
1-4ﾚｲﾔ
  6
Continuous
 62
     3
370
     9
100
AcDbLine
 10
679.0311810107754
 20
871.5470074753172
 30
0.0
 11
572.8920340513166
 21
871.5470074753172
 31
0.0
  0
LINE
  5
5B8
330
1F
100
AcDbEntity
  8
1-0ﾚｲﾔ
  6
Continuous
 62
     3
370
     9
100
AcDbLine
 10
429.0313459706574
 20
921.5470074753172
 30
0.0
 11
438.2403138496688
 21
846.547007475317
 31
0.0
  0
LINE
  5
5B9
330
1F
100
AcDbEntity
  8
1-4ﾚｲﾔ
  6
Continuous
 62
     3
370
     9
100
AcDbLine
 10
679.0311810107754
 20
921.5470074753172
 30
0.0
 11
429.0313459706574
 21
921.5470074753172
 31
0.0
  0
LINE
  5
5BA
330
1F
100
AcDbEntity
  8
1-4ﾚｲﾔ
  6
Continuous
 62
     3
370
     9
100
AcDbLine
 10
569.822378091646
 20
846.547007475317
 30
0.0
 11
554.0310160508936
 21
846.547007475317
 31
0.0
  0
LINE
  5
5BB
330
1F
100
AcDbEntity
  8
1-0ﾚｲﾔ
  6
Continuous
 62
     3
370
     9
100
AcDbLine
 10
579.0313459706574
 20
921.547007475317
 30
0.0
 11
569.822378091646
 21
846.547007475317
 31
0.0
  0
LINE
  5
5BC
330
1F
100
AcDbEntity
  8
1-E
  6
Continuous
 62
     7
370
     9
100
AcDbLine
 10
491.5314284505978
 20
821.5471724351987
 30
0.0
 11
509.7943007414851
 21
797.7465067749442
 31
0.0
  0
LINE
  5
5BD
330
1F
100
AcDbEntity
  8
1-E
  6
Continuous
 62
     7
370
     9
100
AcDbLine
 10
491.5314284505978
 20
821.5471724351987
 30
0.0
 11
503.0119080408189
 21
793.83073446577
 31
0.0
  0
LINE
  5
5BE
330
1F
100
AcDbEntity
  8
1-E
  6
Continuous
 62
     7
370
     9
100
AcDbLine
 10
491.5314284505978
 20
821.5471724351987
 30
0.0
 11
556.3566963804816
 21
709.2664590721836
 31
0.0
  0
TEXT
  5
5BF
330
1F
100
AcDbEntity
  8
1-E
  6
Continuous
 62
     3
370
     9
100
AcDbText
 10
571.175557220812
 20
724.9125477508458
 30
0.0
 40
22.86
  1
六角穴付ボルト：ＳＵＳ３０４
 41
1.030952380952382
  7
ＭＳ ゴシック
100
AcDbText
  0
LINE
  5
5C0
330
1F
100
AcDbEntity
  8
1-E
  6
Continuous
 62
     7
370
     9
100
AcDbLine
 10
1004.337115145928
 20
709.2664590721836
 30
0.0
 11
556.3566963804816
 21
709.2664590721836
 31
0.0
  0
TEXT
  5
5C1
330
1F
100
AcDbEntity
  8
1-E
  6
Continuous
 62
     3
370
     9
100
AcDbText
 10
687.8469057632047
 20
669.9717023644437
 30
0.0
 40
22.86
  1
Ｍ１０×２５
 41
1.027777777777778
  7
ＭＳ ゴシック
100
AcDbText
  0
TEXT
  5
5C2
330
1F
100
AcDbEntity
  8
1-E
  6
Continuous
 62
     3
370
     9
100
AcDbText
 10
511.8058126677847
 20
558.5820416840672
 30
0.0
 40
22.86
  1
樹脂系塗装，Ｌ５０×５０×６
 41
1.030952380952382
  7
ＭＳ ゴシック
100
AcDbText
  0
LINE
  5
5C3
330
1F
100
AcDbEntity
  8
1-E
  6
Continuous
 62
     7
370
     9
100
AcDbLine
 10
429.0313459706572
 20
721.5470899552578
 30
0.0
 11
502.1067251122661
 21
594.9767577174134
 31
0.0
  0
LINE
  5
5C4
330
1F
100
AcDbEntity
  8
1-E
  6
Continuous
 62
     7
370
     9
100
AcDbLine
 10
948.0866003484089
 20
594.9767577174134
 30
0.0
 11
502.1067251122661
 21
594.9767577174134
 31
0.0
  0
LINE
  5
5C5
330
1F
100
AcDbEntity
  8
1-E
  6
Continuous
 62
     7
370
     9
100
AcDbLine
 10
429.0313459706572
 20
721.5470899552578
 30
0.0
 11
447.2942182615445
 21
697.7464242950033
 31
0.0
  0
LINE
  5
5C6
330
1F
100
AcDbEntity
  8
1-E
  6
Continuous
 62
     7
370
     9
100
AcDbLine
 10
429.0313459706572
 20
721.5470899552578
 30
0.0
 11
440.5118255608783
 21
693.8306519858291
 31
0.0
  0
LINE
  5
5C7
330
1F
100
AcDbEntity
  8
1-0ﾚｲﾔ
  6
Continuous
 62
     7
370
     9
100
AcDbLine
 10
318.6644414740766
 20
921.5472549151395
 30
0.0
 11
318.6644414740766
 21
846.5472549151395
 31
0.0
  0
LWPOLYLINE
  5
5C8
330
1F
100
AcDbEntity
  8
1-0ﾚｲﾔ
  6
Continuous
 62
     7
370
     9
100
AcDbPolyline
 90
        4
 70
     1
 43
1.0
 10
319.1644414740766
 20
921.5472549151395
 42
0.4142135623731
 10
318.6644414740766
 20
922.0472549151395
 42
0.4142135623731
 10
318.1644414740766
 20
921.5472549151395
 42
0.4142135623731
 10
318.6644414740766
 20
921.0472549151395
 42
0.4142135623731
  0
LWPOLYLINE
  5
5C9
330
1F
100
AcDbEntity
  8
1-0ﾚｲﾔ
  6
Continuous
 62
     7
370
     9
100
AcDbPolyline
 90
        4
 70
     1
 43
1.0
 10
319.1644414740766
 20
846.5472549151395
 42
0.4142135623731
 10
318.6644414740766
 20
847.0472549151395
 42
0.4142135623731
 10
318.1644414740766
 20
846.5472549151395
 42
0.4142135623731
 10
318.6644414740766
 20
846.0472549151395
 42
0.4142135623731
  0
LINE
  5
5CA
330
1F
100
AcDbEntity
  8
1-0ﾚｲﾔ
  6
Continuous
 62
     7
370
     9
100
AcDbLine
 10
315.6644414740766
 20
921.5472549151395
 30
0.0
 11
409.0313459706572
 21
921.5472549151395
 31
0.0
  0
LINE
  5
5CB
330
1F
100
AcDbEntity
  8
1-0ﾚｲﾔ
  6
Continuous
 62
     7
370
     9
100
AcDbLine
 10
315.6644414740766
 20
846.5472549151395
 30
0.0
 11
409.0313459706572
 21
846.5472549151395
 31
0.0
  0
TEXT
  5
5CC
330
1F
100
AcDbEntity
  8
1-0ﾚｲﾔ
  6
Continuous
 62
     2
370
   211
100
AcDbText
 10
303.0244414740766
 20
862.7972549151395
 30
0.0
 40
30.48
  1
30
 50
90.0
 41
1.0625
  7
ＭＳ ゴシック
100
AcDbText
  0
LINE
  5
5CD
330
1F
100
AcDbEntity
  8
1-0ﾚｲﾔ
  6
Continuous
 62
     7
370
     9
100
AcDbLine
 10
318.6644414740766
 20
846.5472549151395
 30
0.0
 11
318.6644414740766
 21
721.5470899552578
 31
0.0
  0
LWPOLYLINE
  5
5CE
330
1F
100
AcDbEntity
  8
1-0ﾚｲﾔ
  6
Continuous
 62
     7
370
     9
100
AcDbPolyline
 90
        4
 70
     1
 43
1.0
 10
319.1644414740766
 20
721.5470899552578
 42
0.4142135623731
 10
318.6644414740766
 20
722.0470899552578
 42
0.4142135623731
 10
318.1644414740766
 20
721.5470899552578
 42
0.4142135623731
 10
318.6644414740766
 20
721.0470899552579
 42
0.4142135623731
  0
LINE
  5
5CF
330
1F
100
AcDbEntity
  8
1-0ﾚｲﾔ
  6
Continuous
 62
     7
370
     9
100
AcDbLine
 10
315.6644414740766
 20
721.5470899552578
 30
0.0
 11
409.0313459706572
 21
721.5470899552578
 31
0.0
  0
TEXT
  5
5D0
330
1F
100
AcDbEntity
  8
1-0ﾚｲﾔ
  6
Continuous
 62
     2
370
   211
100
AcDbText
 10
303.0244414740766
 20
762.7971724351987
 30
0.0
 40
30.48
  1
50
 50
90.0
 41
1.0625
  7
ＭＳ ゴシック
100
AcDbText
  0
TEXT
  5
5D1
330
1F
100
AcDbEntity
  8
1-E
  6
Continuous
 62
     3
370
     9
100
AcDbText
 10
575.5769596346623
 20
613.1738113406866
 30
0.0
 40
22.86
  1
連結金具：ＳＳ４００
 41
1.03
  7
ＭＳ ゴシック
100
AcDbText
  0
TEXT
  5
5D2
330
1F
100
AcDbEntity
  8
1-5ﾚｲﾔ
  6
Continuous
 62
     2
370
     9
100
AcDbText
 10
451.5583541618483
 20
441.5142239173705
 30
0.0
 40
30.48
  1
連結部詳細　Ｓ＝１：４
 41
1.113636363636364
  7
ＭＳ ゴシック
100
AcDbText
  0
LINE
  5
5D3
330
1F
100
AcDbEntity
  8
1-5ﾚｲﾔ
  6
Continuous
 62
     7
370
     9
100
AcDbLine
 10
436.5583541618483
 20
490.8742239173706
 30
0.0
 11
956.5583541618482
 21
490.8742239173706
 31
0.0
  0
LINE
  5
5D4
330
1F
100
AcDbEntity
  8
1-5ﾚｲﾔ
  6
Continuous
 62
     7
370
     9
100
AcDbLine
 10
436.5583541618483
 20
420.8742239173705
 30
0.0
 11
956.5583541618482
 21
420.8742239173705
 31
0.0
  0
LINE
  5
5D5
330
1F
100
AcDbEntity
  8
1-5ﾚｲﾔ
  6
Continuous
 62
     7
370
     9
100
AcDbLine
 10
436.5583541618483
 20
490.8742239173706
 30
0.0
 11
436.5583541618483
 21
420.8742239173705
 31
0.0
  0
LINE
  5
5D6
330
1F
100
AcDbEntity
  8
1-5ﾚｲﾔ
  6
Continuous
 62
     7
370
     9
100
AcDbLine
 10
956.5583541618482
 20
490.8742239173706
 30
0.0
 11
956.5583541618482
 21
420.8742239173705
 31
0.0
  0
LINE
  5
5D7
330
1F
100
AcDbEntity
  8
1-4ﾚｲﾔ
  6
Continuous
 62
     4
370
     9
100
AcDbLine
 10
444.0311480187988
 20
734.0467600354942
 30
0.0
 11
444.0311480187988
 21
819.0470404672932
 31
0.0
  0
LINE
  5
5D8
330
1F
100
AcDbEntity
  8
1-4ﾚｲﾔ
  6
Continuous
 62
     4
370
     9
100
AcDbLine
 10
431.5314779385624
 20
721.5470899552578
 30
0.0
 11
429.0313459706572
 21
721.5470899552578
 31
0.0
  0
LINE
  5
5D9
330
1F
100
AcDbEntity
  8
1-4ﾚｲﾔ
  6
Continuous
 62
     4
370
     9
100
AcDbLine
 10
429.0313459706572
 20
846.547007475317
 30
0.0
 11
429.0313459706572
 21
721.5470899552578
 31
0.0
  0
ARC
  5
5DA
330
1F
100
AcDbEntity
  8
1-4ﾚｲﾔ
  6
Continuous
 62
     4
370
     9
100
AcDbCircle
 10
431.5314779385624
 20
734.0467600354942
 30
0.0
 40
12.50000064437454
100
AcDbArc
 50
270.0
 51
0.0
  0
LINE
  5
5DB
330
1F
100
AcDbEntity
  8
1-4ﾚｲﾔ
  6
Continuous
 62
     3
370
     9
100
AcDbLine
 10
679.0311810107754
 20
821.546924995376
 30
0.0
 11
679.0311810107754
 21
946.5470899552581
 31
0.0
  0
LINE
  5
5DC
330
1F
100
AcDbEntity
  8
躯体
  6
JWW_CENTER1
 62
     2
370
     9
100
AcDbLine
 10
-1502.501216950224
 20
463.3451957295374
 30
0.0
 11
-1266.999516719293
 21
463.3451957295374
 31
0.0
  0
LINE
  5
5DD
330
1F
100
AcDbEntity
  8
躯体
  6
JWW_CENTER1
 62
     2
370
     9
100
AcDbLine
 10
-1234.938904862447
 20
463.3451957295374
 30
0.0
 11
30.25922406766384
 21
463.3451957295374
 31
0.0
  0
TEXT
  5
5DE
330
1F
100
AcDbEntity
  8
その他
  6
Continuous
 62
     2
370
   211
100
AcDbText
 10
-802.3718222225931
 20
-555.6647521359964
 30
0.0
 40
30.48
  1
φ1350
 41
1.104166666666667
  7
ＭＳ ゴシック
100
AcDbText
  0
TEXT
  5
5DF
330
1F
100
AcDbEntity
  8
その他
  6
Continuous
 62
     2
370
   211
100
AcDbText
 10
-802.3713267538061
 20
-635.6647521359964
 30
0.0
 40
30.48
  1
φ1200
 41
1.104166666666667
  7
ＭＳ ゴシック
100
AcDbText
  0
TEXT
  5
5E0
330
1F
100
AcDbEntity
  8
その他
  6
Continuous
 62
     2
370
   211
100
AcDbText
 10
-791.121326753806
 20
-715.6647521359964
 30
0.0
 40
30.48
  1
φ400
 41
1.1
  7
ＭＳ ゴシック
100
AcDbText
  0
TEXT
  5
5E1
330
1F
100
AcDbEntity
  8
その他
  6
Continuous
 62
     2
370
   211
100
AcDbText
 10
-802.3713267538061
 20
-934.8060960715193
 30
0.0
 40
30.48
  1
φ1150
 41
1.104166666666667
  7
ＭＳ ゴシック
100
AcDbText
  0
ENDSEC
  0
SECTION
  2
OBJECTS
  0
DICTIONARY
  5
C
330
0
100
AcDbDictionary
281
     1
  3
ACAD_GROUP
350
D
  3
ACAD_LAYOUT
350
1A
  3
ACAD_MLEADERSTYLE
350
5E3
  3
ACAD_MLINESTYLE
350
17
  3
ACAD_PLOTSETTINGS
350
19
  3
ACAD_PLOTSTYLENAME
350
E
  3
ACAD_TABLESTYLE
350
5E2
  3
ACAD_VISUALSTYLE
350
2A
  0
DICTIONARY
  5
D
102
{ACAD_REACTORS
330
C
102
}
330
C
100
AcDbDictionary
281
     1
  0
DICTIONARY
  5
1A
102
{ACAD_REACTORS
330
C
102
}
330
C
100
AcDbDictionary
281
     1
  3
Layout1
350
1E
  3
Layout2
350
26
  3
Model
350
22
  0
DICTIONARY
  5
5E3
102
{ACAD_REACTORS
330
C
102
}
330
C
100
AcDbDictionary
281
     1
  0
DICTIONARY
  5
17
102
{ACAD_REACTORS
330
C
102
}
330
C
100
AcDbDictionary
281
     1
  3
Standard
350
18
  0
DICTIONARY
  5
19
102
{ACAD_REACTORS
330
C
102
}
330
C
100
AcDbDictionary
281
     1
  0
ACDBDICTIONARYWDFLT
  5
E
102
{ACAD_REACTORS
330
C
102
}
330
C
100
AcDbDictionary
281
     1
  3
Normal
350
F
100
AcDbDictionaryWithDefault
340
F
  0
DICTIONARY
  5
5E2
102
{ACAD_REACTORS
330
C
102
}
330
C
100
AcDbDictionary
281
     1
  0
DICTIONARY
  5
2A
102
{ACAD_REACTORS
330
C
102
}
330
C
100
AcDbDictionary
281
     1
  3
2dWireframe
350
2F
  3
3D Hidden
350
31
  3
3dWireframe
350
30
  3
Basic
350
32
  3
Brighten
350
36
  3
ColorChange
350
3A
  3
Conceptual
350
34
  3
Dim
350
35
  3
Facepattern
350
39
  3
Flat
350
2B
  3
FlatWithEdges
350
2C
  3
Gouraud
350
2D
  3
GouraudWithEdges
350
2E
  3
Linepattern
350
38
  3
Realistic
350
33
  3
Thicken
350
37
  0
LAYOUT
  5
1E
102
{ACAD_REACTORS
330
1A
102
}
330
1A
100
AcDbPlotSettings
  1

  2
none_device
  4

  6

 40
0.0
 41
0.0
 42
0.0
 43
0.0
 44
0.0
 45
0.0
 46
0.0
 47
0.0
 48
0.0
 49
0.0
140
0.0
141
0.0
142
1.0
143
1.0
 70
   688
 72
     0
 73
     0
 74
     5
  7

 75
    16
 76
     0
 77
     5
 78
   300
147
1.0
148
0.0
149
0.0
100
AcDbLayout
  1
Layout1
 70
     1
 71
     1
 10
0.0
 20
0.0
 11
420.0
 21
297.0
 12
0.0
 22
0.0
 32
0.0
 14
1.000000000000000E+20
 24
1.000000000000000E+20
 34
1.000000000000000E+20
 15
-1.000000000000000E+20
 25
-1.000000000000000E+20
 35
-1.000000000000000E+20
146
0.0
 13
0.0
 23
0.0
 33
0.0
 16
1.0
 26
0.0
 36
0.0
 17
0.0
 27
1.0
 37
0.0
 76
     0
330
1B
  0
LAYOUT
  5
26
102
{ACAD_REACTORS
330
1A
102
}
330
1A
100
AcDbPlotSettings
  1

  2
none_device
  4

  6

 40
0.0
 41
0.0
 42
0.0
 43
0.0
 44
0.0
 45
0.0
 46
0.0
 47
0.0
 48
0.0
 49
0.0
140
0.0
141
0.0
142
1.0
143
1.0
 70
   688
 72
     0
 73
     0
 74
     5
  7

 75
    16
 76
     0
 77
     5
 78
   300
147
1.0
148
0.0
149
0.0
100
AcDbLayout
  1
Layout2
 70
     1
 71
     2
 10
0.0
 20
0.0
 11
0.0
 21
0.0
 12
0.0
 22
0.0
 32
0.0
 14
0.0
 24
0.0
 34
0.0
 15
0.0
 25
0.0
 35
0.0
146
0.0
 13
0.0
 23
0.0
 33
0.0
 16
1.0
 26
0.0
 36
0.0
 17
0.0
 27
1.0
 37
0.0
 76
     0
330
23
  0
LAYOUT
  5
22
102
{ACAD_REACTORS
330
1A
102
}
330
1A
100
AcDbPlotSettings
  1

  2
none_device
  4

  6

 40
0.0
 41
0.0
 42
0.0
 43
0.0
 44
0.0
 45
0.0
 46
0.0
 47
0.0
 48
0.0
 49
0.0
140
0.0
141
0.0
142
1.0
143
1.0
 70
  1712
 72
     0
 73
     0
 74
     0
  7

 75
     0
 76
     0
 77
     5
 78
   300
147
1.0
148
0.0
149
0.0
100
AcDbLayout
  1
Model
 70
     1
 71
     0
 10
-2100.0
 20
-1485.0
 11
2100.0
 21
1485.0
 12
0.0
 22
0.0
 32
0.0
 14
-2100.0
 24
-1485.0
 34
0.0
 15
2100.0
 25
1485.0
 35
0.0
146
0.0
 13
0.0
 23
0.0
 33
0.0
 16
1.0
 26
0.0
 36
0.0
 17
0.0
 27
1.0
 37
0.0
 76
     0
330
1F
331
29
  0
MLINESTYLE
  5
18
102
{ACAD_REACTORS
330
17
102
}
330
17
100
AcDbMlineStyle
  2
Standard
 70
     0
  3

 62
   256
 51
90.0
 52
90.0
 71
     2
 49
0.5
 62
   256
  6
BYLAYER
 49
-0.5
 62
   256
  6
BYLAYER
  0
ACDBPLACEHOLDER
  5
F
102
{ACAD_REACTORS
330
E
102
}
330
E
  0
VISUALSTYLE
  5
2F
102
{ACAD_REACTORS
330
2A
102
}
330
2A
100
AcDbVisualStyle
  2
2dWireframe
 70
     4
 71
     0
 72
     2
 73
     0
 90
        0
 40
-0.6
 41
-30.0
 62
     5
 63
     7
421
 16777215
 74
     1
 91
        4
 64
     7
 65
   257
 75
     1
175
     1
 42
1.0
 92
        0
 66
   257
 43
1.0
 76
     1
 77
     6
 78
     2
 67
     7
 79
     5
170
     0
171
     0
290
     0
174
     0
 93
        1
 44
0.0
173
     0
291
     0
 45
0.0
1001
ACAD
1000
AcDbSavedByObjectVersion
1070
     0
  0
VISUALSTYLE
  5
31
102
{ACAD_REACTORS
330
2A
102
}
330
2A
100
AcDbVisualStyle
  2
3D Hidden
 70
     6
 71
     1
 72
     2
 73
     2
 90
        0
 40
-0.6
 41
-30.0
 62
     5
 63
     7
421
 16777215
 74
     2
 91
        2
 64
     7
 65
   257
 75
     2
175
     1
 42
40.0
 92
        0
 66
   257
 43
1.0
 76
     1
 77
     6
 78
     2
 67
     7
 79
     3
170
     0
171
     0
290
     0
174
     0
 93
        1
 44
0.0
173
     0
291
     0
 45
0.0
1001
ACAD
1000
AcDbSavedByObjectVersion
1070
     0
  0
VISUALSTYLE
  5
30
102
{ACAD_REACTORS
330
2A
102
}
330
2A
100
AcDbVisualStyle
  2
3dWireframe
 70
     5
 71
     0
 72
     2
 73
     0
 90
        0
 40
-0.6
 41
-30.0
 62
     5
 63
     7
421
 16777215
 74
     1
 91
        4
 64
     7
 65
   257
 75
     1
175
     1
 42
1.0
 92
        0
 66
   257
 43
1.0
 76
     1
 77
     6
 78
     2
 67
     7
 79
     5
170
     0
171
     0
290
     0
174
     0
 93
        1
 44
0.0
173
     0
291
     0
 45
0.0
1001
ACAD
1000
AcDbSavedByObjectVersion
1070
     0
  0
VISUALSTYLE
  5
32
102
{ACAD_REACTORS
330
2A
102
}
330
2A
100
AcDbVisualStyle
  2
Basic
 70
     7
 71
     1
 72
     0
 73
     1
 90
        0
 40
-0.6
 41
-30.0
 62
     5
 63
     7
421
 16777215
 74
     0
 91
        4
 64
     7
 65
   257
 75
     1
175
     1
 42
1.0
 92
        8
 66
     7
 43
1.0
 76
     1
 77
     6
 78
     2
 67
     7
 79
     5
170
     0
171
     0
290
     0
174
     0
 93
        1
 44
0.0
173
     0
291
     1
 45
0.0
1001
ACAD
1000
AcDbSavedByObjectVersion
1070
     0
  0
VISUALSTYLE
  5
36
102
{ACAD_REACTORS
330
2A
102
}
330
2A
100
AcDbVisualStyle
  2
Brighten
 70
    12
 71
     2
 72
     2
 73
     0
 90
        0
 40
-0.6
 41
-30.0
 62
     5
 63
     7
421
 16777215
 74
     1
 91
        4
 64
     7
 65
   257
 75
     1
175
     1
 42
1.0
 92
        8
 66
     7
 43
1.0
 76
     1
 77
     6
 78
     2
 67
     7
 79
     5
170
     0
171
     0
290
     0
174
     0
 93
        1
 44
50.0
173
     0
291
     1
 45
0.0
1001
ACAD
1000
AcDbSavedByObjectVersion
1070
     0
  0
VISUALSTYLE
  5
3A
102
{ACAD_REACTORS
330
2A
102
}
330
2A
100
AcDbVisualStyle
  2
ColorChange
 70
    16
 71
     2
 72
     2
 73
     3
 90
        0
 40
-0.6
 41
-30.0
 62
     5
 63
     8
421
  8421504
 74
     1
 91
        4
 64
     7
 65
   257
 75
     1
175
     1
 42
1.0
 92
        8
 66
     8
424
  8421504
 43
1.0
 76
     1
 77
     6
 78
     2
 67
     7
 79
     5
170
     0
171
     0
290
     0
174
     0
 93
        1
 44
0.0
173
     0
291
     1
 45
0.0
1001
ACAD
1000
AcDbSavedByObjectVersion
1070
     0
  0
VISUALSTYLE
  5
34
102
{ACAD_REACTORS
330
2A
102
}
330
2A
100
AcDbVisualStyle
  2
Conceptual
 70
     9
 71
     3
 72
     2
 73
     0
 90
        0
 40
-0.6
 41
-30.0
 62
     5
 63
     7
421
 16777215
 74
     2
 91
        2
 64
     7
 65
   257
 75
     1
175
     1
 42
40.0
 92
        8
 66
     7
 43
1.0
 76
     1
 77
     6
 78
     2
 67
     7
 79
     3
170
     0
171
     0
290
     0
174
     0
 93
        1
 44
0.0
173
     0
291
     0
 45
0.0
1001
ACAD
1000
AcDbSavedByObjectVersion
1070
     0
  0
VISUALSTYLE
  5
35
102
{ACAD_REACTORS
330
2A
102
}
330
2A
100
AcDbVisualStyle
  2
Dim
 70
    11
 71
     2
 72
     2
 73
     0
 90
        0
 40
-0.6
 41
-30.0
 62
     5
 63
     7
421
 16777215
 74
     1
 91
        4
 64
     7
 65
   257
 75
     1
175
     1
 42
1.0
 92
        8
 66
     7
 43
1.0
 76
     1
 77
     6
 78
     2
 67
     7
 79
     5
170
     0
171
     0
290
     0
174
     0
 93
        1
 44
-50.0
173
     0
291
     1
 45
0.0
1001
ACAD
1000
AcDbSavedByObjectVersion
1070
     0
  0
VISUALSTYLE
  5
39
102
{ACAD_REACTORS
330
2A
102
}
330
2A
100
AcDbVisualStyle
  2
Facepattern
 70
    15
 71
     2
 72
     2
 73
     0
 90
        0
 40
-0.6
 41
-30.0
 62
     5
 63
     7
421
 16777215
 74
     1
 91
        4
 64
     7
 65
   257
 75
     1
175
     1
 42
1.0
 92
        8
 66
     7
 43
1.0
 76
     1
 77
     6
 78
     2
 67
     7
 79
     5
170
     0
171
     0
290
     0
174
     0
 93
        1
 44
0.0
173
     0
291
     1
 45
0.0
1001
ACAD
1000
AcDbSavedByObjectVersion
1070
     0
  0
VISUALSTYLE
  5
2B
102
{ACAD_REACTORS
330
2A
102
}
330
2A
100
AcDbVisualStyle
  2
Flat
 70
     0
 71
     2
 72
     1
 73
     1
 90
        2
 40
-0.6
 41
30.0
 62
     5
 63
     7
421
 16777215
 74
     0
 91
        4
 64
     7
 65
   257
 75
     1
175
     1
 42
1.0
 92
        8
 66
     7
 43
1.0
 76
     1
 77
     6
 78
     2
 67
     7
 79
     5
170
     0
171
     0
290
     0
174
     0
 93
       13
 44
0.0
173
     0
291
     1
 45
0.0
1001
ACAD
1000
AcDbSavedByObjectVersion
1070
     0
  0
VISUALSTYLE
  5
2C
102
{ACAD_REACTORS
330
2A
102
}
330
2A
100
AcDbVisualStyle
  2
FlatWithEdges
 70
     1
 71
     2
 72
     1
 73
     1
 90
        2
 40
-0.6
 41
30.0
 62
     5
 63
     7
421
 16777215
 74
     1
 91
        4
 64
     7
 65
   257
 75
     1
175
     1
 42
1.0
 92
        0
 66
   257
 43
1.0
 76
     1
 77
     6
 78
     2
 67
     7
 79
     5
170
     0
171
     0
290
     0
174
     0
 93
       13
 44
0.0
173
     0
291
     1
 45
0.0
1001
ACAD
1000
AcDbSavedByObjectVersion
1070
     0
  0
VISUALSTYLE
  5
2D
102
{ACAD_REACTORS
330
2A
102
}
330
2A
100
AcDbVisualStyle
  2
Gouraud
 70
     2
 71
     2
 72
     2
 73
     1
 90
        2
 40
-0.6
 41
30.0
 62
     5
 63
     7
421
 16777215
 74
     0
 91
        4
 64
     7
 65
   257
 75
     1
175
     1
 42
1.0
 92
        0
 66
     7
 43
1.0
 76
     1
 77
     6
 78
     2
 67
     7
 79
     5
170
     0
171
     0
290
     0
174
     0
 93
       13
 44
0.0
173
     0
291
     1
 45
0.0
1001
ACAD
1000
AcDbSavedByObjectVersion
1070
     0
  0
VISUALSTYLE
  5
2E
102
{ACAD_REACTORS
330
2A
102
}
330
2A
100
AcDbVisualStyle
  2
GouraudWithEdges
 70
     3
 71
     2
 72
     2
 73
     1
 90
        2
 40
-0.6
 41
30.0
 62
     5
 63
     7
421
 16777215
 74
     1
 91
        4
 64
     7
 65
   257
 75
     1
175
     1
 42
1.0
 92
        0
 66
   257
 43
1.0
 76
     1
 77
     6
 78
     2
 67
     7
 79
     5
170
     0
171
     0
290
     0
174
     0
 93
       13
 44
0.0
173
     0
291
     1
 45
0.0
1001
ACAD
1000
AcDbSavedByObjectVersion
1070
     0
  0
VISUALSTYLE
  5
38
102
{ACAD_REACTORS
330
2A
102
}
330
2A
100
AcDbVisualStyle
  2
Linepattern
 70
    14
 71
     2
 72
     2
 73
     0
 90
        0
 40
-0.6
 41
-30.0
 62
     5
 63
     7
421
 16777215
 74
     1
 91
        4
 64
     7
 65
   257
 75
     7
175
     7
 42
1.0
 92
        8
 66
     7
 43
1.0
 76
     1
 77
     6
 78
     2
 67
     7
 79
     5
170
     0
171
     0
290
     0
174
     0
 93
        1
 44
0.0
173
     0
291
     1
 45
0.0
1001
ACAD
1000
AcDbSavedByObjectVersion
1070
     0
  0
VISUALSTYLE
  5
33
102
{ACAD_REACTORS
330
2A
102
}
330
2A
100
AcDbVisualStyle
  2
Realistic
 70
     8
 71
     2
 72
     2
 73
     0
 90
        0
 40
-0.6
 41
-30.0
 62
     5
 63
     7
421
 16777215
 74
     1
 91
        0
 64
     7
 65
   257
 75
     1
175
     1
 42
1.0
 92
        8
 66
     8
424
  7895160
 43
1.0
 76
     1
 77
     6
 78
     2
 67
     7
 79
     5
170
     0
171
     0
290
     0
174
     0
 93
       13
 44
0.0
173
     0
291
     0
 45
0.0
1001
ACAD
1000
AcDbSavedByObjectVersion
1070
     0
  0
VISUALSTYLE
  5
37
102
{ACAD_REACTORS
330
2A
102
}
330
2A
100
AcDbVisualStyle
  2
Thicken
 70
    13
 71
     2
 72
     2
 73
     0
 90
        0
 40
-0.6
 41
-30.0
 62
     5
 63
     7
421
 16777215
 74
     1
 91
        4
 64
     7
 65
   257
 75
     1
175
     1
 42
1.0
 92
       12
 66
     7
 43
1.0
 76
     1
 77
     6
 78
     2
 67
     7
 79
     5
170
     0
171
     0
290
     0
174
     0
 93
        1
 44
0.0
173
     0
291
     1
 45
0.0
1001
ACAD
1000
AcDbSavedByObjectVersion
1070
     0
  0
ENDSEC
  0
EOF
