  0
SECTION
  2
HEADER
  9
$ACADVER
  1
AC1018
  9
$ACADMAINTVER
 70
     0
  9
$DWGCODEPAGE
  3
ANSI_932
  9
$INSBASE
 10
0.0
 20
0.0
 30
0.0
  9
$EXTMIN
 10
-3150.0
 20
-2227.5
 30
0.0
  9
$EXTMAX
 10
3150.0
 20
2227.5
 30
0.0
  9
$LIMMIN
 10
-3150.0
 20
-2227.5
  9
$LIMMAX
 10
3150.0
 20
2227.5
  9
$ORTHOMODE
 70
     0
  9
$REGENMODE
 70
     1
  9
$FILLMODE
 70
     1
  9
$QTEXTMODE
 70
     0
  9
$MIRRTEXT
 70
     1
  9
$LTSCALE
 40
15.0
  9
$ATTMODE
 70
     1
  9
$TEXTSIZE
 40
2.5
  9
$TRACEWID
 40
1.0
  9
$TEXTSTYLE
  7
Standard
  9
$CLAYER
  8
0
  9
$CELTYPE
  6
ByLayer
  9
$CECOLOR
 62
   256
  9
$CELTSCALE
 40
1.0
  9
$DISPSILH
 70
     0
  9
$DIMSCALE
 40
1.0
  9
$DIMASZ
 40
2.5
  9
$DIMEXO
 40
0.625
  9
$DIMDLI
 40
3.75
  9
$DIMRND
 40
0.0
  9
$DIMDLE
 40
0.0
  9
$DIMEXE
 40
1.25
  9
$DIMTP
 40
0.0
  9
$DIMTM
 40
0.0
  9
$DIMTXT
 40
2.5
  9
$DIMCEN
 40
2.5
  9
$DIMTSZ
 40
0.0
  9
$DIMTOL
 70
     0
  9
$DIMLIM
 70
     0
  9
$DIMTIH
 70
     0
  9
$DIMTOH
 70
     0
  9
$DIMSE1
 70
     0
  9
$DIMSE2
 70
     0
  9
$DIMTAD
 70
     1
  9
$DIMZIN
 70
     8
  9
$DIMBLK
  1

  9
$DIMASO
 70
     1
  9
$DIMSHO
 70
     1
  9
$DIMPOST
  1

  9
$DIMAPOST
  1

  9
$DIMALT
 70
     0
  9
$DIMALTD
 70
     3
  9
$DIMALTF
 40
0.03937007874016
  9
$DIMLFAC
 40
1.0
  9
$DIMTOFL
 70
     1
  9
$DIMTVP
 40
0.0
  9
$DIMTIX
 70
     0
  9
$DIMSOXD
 70
     0
  9
$DIMSAH
 70
     0
  9
$DIMBLK1
  1

  9
$DIMBLK2
  1

  9
$DIMSTYLE
  2
ISO-25
  9
$DIMCLRD
 70
     0
  9
$DIMCLRE
 70
     0
  9
$DIMCLRT
 70
     0
  9
$DIMTFAC
 40
1.0
  9
$DIMGAP
 40
0.625
  9
$DIMJUST
 70
     0
  9
$DIMSD1
 70
     0
  9
$DIMSD2
 70
     0
  9
$DIMTOLJ
 70
     0
  9
$DIMTZIN
 70
     8
  9
$DIMALTZ
 70
     0
  9
$DIMALTTZ
 70
     0
  9
$DIMUPT
 70
     0
  9
$DIMDEC
 70
     2
  9
$DIMTDEC
 70
     2
  9
$DIMALTU
 70
     2
  9
$DIMALTTD
 70
     3
  9
$DIMTXSTY
  7
Standard
  9
$DIMAUNIT
 70
     0
  9
$DIMADEC
 70
     0
  9
$DIMALTRND
 40
0.0
  9
$DIMAZIN
 70
     0
  9
$DIMDSEP
 70
    44
  9
$DIMATFIT
 70
     3
  9
$DIMFRAC
 70
     0
  9
$DIMLDRBLK
  1

  9
$DIMLUNIT
 70
     2
  9
$DIMLWD
 70
    -2
  9
$DIMLWE
 70
    -2
  9
$DIMTMOVE
 70
     0
  9
$LUNITS
 70
     2
  9
$LUPREC
 70
     4
  9
$SKETCHINC
 40
1.0
  9
$FILLETRAD
 40
10.0
  9
$AUNITS
 70
     0
  9
$AUPREC
 70
     0
  9
$MENU
  1
.
  9
$ELEVATION
 40
0.0
  9
$PELEVATION
 40
0.0
  9
$THICKNESS
 40
0.0
  9
$LIMCHECK
 70
     0
  9
$CHAMFERA
 40
10.0
  9
$CHAMFERB
 40
10.0
  9
$CHAMFERC
 40
20.0
  9
$CHAMFERD
 40
0.0
  9
$SKPOLY
 70
     0
  9
$TDCREATE
 40
2456499.583348171
  9
$TDUCREATE
 40
2456499.208348171
  9
$TDUPDATE
 40
2456499.583348183
  9
$TDUUPDATE
 40
2456499.208348183
  9
$TDINDWG
 40
0.0000000116
  9
$TDUSRTIMER
 40
0.0000000116
  9
$USRTIMER
 70
     1
  9
$ANGBASE
 50
0.0
  9
$ANGDIR
 70
     0
  9
$PDMODE
 70
     0
  9
$PDSIZE
 40
0.0
  9
$PLINEWID
 40
0.0
  9
$SPLFRAME
 70
     0
  9
$SPLINETYPE
 70
     6
  9
$SPLINESEGS
 70
     8
  9
$HANDSEED
  5
42F
  9
$SURFTAB1
 70
     6
  9
$SURFTAB2
 70
     6
  9
$SURFTYPE
 70
     6
  9
$SURFU
 70
     6
  9
$SURFV
 70
     6
  9
$UCSBASE
  2

  9
$UCSNAME
  2

  9
$UCSORG
 10
0.0
 20
0.0
 30
0.0
  9
$UCSXDIR
 10
1.0
 20
0.0
 30
0.0
  9
$UCSYDIR
 10
0.0
 20
1.0
 30
0.0
  9
$UCSORTHOREF
  2

  9
$UCSORTHOVIEW
 70
     0
  9
$UCSORGTOP
 10
0.0
 20
0.0
 30
0.0
  9
$UCSORGBOTTOM
 10
0.0
 20
0.0
 30
0.0
  9
$UCSORGLEFT
 10
0.0
 20
0.0
 30
0.0
  9
$UCSORGRIGHT
 10
0.0
 20
0.0
 30
0.0
  9
$UCSORGFRONT
 10
0.0
 20
0.0
 30
0.0
  9
$UCSORGBACK
 10
0.0
 20
0.0
 30
0.0
  9
$PUCSBASE
  2

  9
$PUCSNAME
  2

  9
$PUCSORG
 10
0.0
 20
0.0
 30
0.0
  9
$PUCSXDIR
 10
1.0
 20
0.0
 30
0.0
  9
$PUCSYDIR
 10
0.0
 20
1.0
 30
0.0
  9
$PUCSORTHOREF
  2

  9
$PUCSORTHOVIEW
 70
     0
  9
$PUCSORGTOP
 10
0.0
 20
0.0
 30
0.0
  9
$PUCSORGBOTTOM
 10
0.0
 20
0.0
 30
0.0
  9
$PUCSORGLEFT
 10
0.0
 20
0.0
 30
0.0
  9
$PUCSORGRIGHT
 10
0.0
 20
0.0
 30
0.0
  9
$PUCSORGFRONT
 10
0.0
 20
0.0
 30
0.0
  9
$PUCSORGBACK
 10
0.0
 20
0.0
 30
0.0
  9
$USERI1
 70
     0
  9
$USERI2
 70
     0
  9
$USERI3
 70
     0
  9
$USERI4
 70
     0
  9
$USERI5
 70
     0
  9
$USERR1
 40
0.0
  9
$USERR2
 40
0.0
  9
$USERR3
 40
0.0
  9
$USERR4
 40
0.0
  9
$USERR5
 40
0.0
  9
$WORLDVIEW
 70
     1
  9
$SHADEDGE
 70
     3
  9
$SHADEDIF
 70
    70
  9
$TILEMODE
 70
     1
  9
$MAXACTVP
 70
    64
  9
$PINSBASE
 10
0.0
 20
0.0
 30
0.0
  9
$PLIMCHECK
 70
     0
  9
$PEXTMIN
 10
1.000000000000000E+20
 20
1.000000000000000E+20
 30
1.000000000000000E+20
  9
$PEXTMAX
 10
-1.000000000000000E+20
 20
-1.000000000000000E+20
 30
-1.000000000000000E+20
  9
$PLIMMIN
 10
0.0
 20
0.0
  9
$PLIMMAX
 10
420.0
 20
297.0
  9
$UNITMODE
 70
     0
  9
$VISRETAIN
 70
     1
  9
$PLINEGEN
 70
     0
  9
$PSLTSCALE
 70
     1
  9
$TREEDEPTH
 70
  3020
  9
$CMLSTYLE
  2
Standard
  9
$CMLJUST
 70
     0
  9
$CMLSCALE
 40
20.0
  9
$PROXYGRAPHICS
 70
     1
  9
$MEASUREMENT
 70
     1
  9
$CELWEIGHT
370
    -1
  9
$ENDCAPS
280
     0
  9
$JOINSTYLE
280
     0
  9
$LWDISPLAY
290
     0
  9
$INSUNITS
 70
     4
  9
$HYPERLINKBASE
  1

  9
$STYLESHEET
  1

  9
$XEDIT
290
     1
  9
$CEPSNTYPE
380
     0
  9
$PSTYLEMODE
290
     1
  9
$FINGERPRINTGUID
  2
{3ACACBB4-BF5D-4F46-8B18-5D72B0847715}
  9
$VERSIONGUID
  2
{FAEB1C32-E019-11D5-929B-00C0DF256EC4}
  9
$EXTNAMES
290
     1
  9
$PSVPSCALE
 40
0.0
  9
$OLESTARTUP
290
     0
  9
$SORTENTS
280
   127
  9
$INDEXCTL
280
     0
  9
$HIDETEXT
280
     1
  9
$XCLIPFRAME
290
     0
  9
$HALOGAP
280
     0
  9
$OBSCOLOR
 70
   257
  9
$OBSLTYPE
280
     0
  9
$INTERSECTIONDISPLAY
280
     0
  9
$INTERSECTIONCOLOR
 70
   257
  9
$DIMASSOC
280
     2
  9
$PROJECTNAME
  1

  0
ENDSEC
  0
SECTION
  2
CLASSES
  0
CLASS
  1
ACDBDICTIONARYWDFLT
  2
AcDbDictionaryWithDefault
  3
ObjectDBX Classes
 90
        0
 91
        4
280
     0
281
     0
  0
CLASS
  1
VISUALSTYLE
  2
AcDbVisualStyle
  3
ObjectDBX Classes
 90
     4095
 91
        4
280
     0
281
     0
  0
ENDSEC
  0
SECTION
  2
TABLES
  0
TABLE
  2
VPORT
  5
8
330
0
100
AcDbSymbolTable
 70
     1
  0
VPORT
  5
29
330
8
100
AcDbSymbolTableRecord
100
AcDbViewportTableRecord
  2
*Active
 70
     0
 10
0.0
 20
0.0
 11
1.0
 21
1.0
 12
0.0
 22
0.0
 13
0.0
 23
0.0
 14
10.0
 24
10.0
 15
10.0
 25
10.0
 16
0.0
 26
0.0
 36
1.0
 17
0.0
 27
0.0
 37
0.0
 40
4900.5
 41
1.414141414141414
 42
50.0
 43
0.0
 44
0.0
 50
0.0
 51
0.0
 71
     0
 72
 10000
 73
     1
 74
     3
 75
     0
 76
     0
 77
     0
 78
     0
281
     0
 65
     1
110
0.0
120
0.0
130
0.0
111
1.0
121
0.0
131
0.0
112
0.0
122
1.0
132
0.0
 79
     0
146
0.0
  0
ENDTAB
  0
TABLE
  2
LTYPE
  5
5
330
0
100
AcDbSymbolTable
 70
     6
  0
LTYPE
  5
14
330
5
100
AcDbSymbolTableRecord
100
AcDbLinetypeTableRecord
  2
ByBlock
 70
     0
  3

 72
    65
 73
     0
 40
0.0
  0
LTYPE
  5
15
330
5
100
AcDbSymbolTableRecord
100
AcDbLinetypeTableRecord
  2
ByLayer
 70
     0
  3

 72
    65
 73
     0
 40
0.0
  0
LTYPE
  5
16
330
5
100
AcDbSymbolTableRecord
100
AcDbLinetypeTableRecord
  2
Continuous
 70
     0
  3
Solid line
 72
    65
 73
     0
 40
0.0
  0
LTYPE
  5
3C
330
5
100
AcDbSymbolTableRecord
100
AcDbLinetypeTableRecord
  2
JWW_CENTER1
 70
     0
  3
-----  --  ----------  --  -----
 72
    65
 73
     4
 40
6.773333333333333
 49
4.233333333333333
 74
     0
 49
-0.8466666666666667
 74
     0
 49
0.8466666666666667
 74
     0
 49
-0.8466666666666667
 74
     0
  0
LTYPE
  5
3D
330
5
100
AcDbSymbolTableRecord
100
AcDbLinetypeTableRecord
  2
JWW_DASHED1
 70
     0
  3
-  --  --  --  --  --  --  --  -
 72
    65
 73
     2
 40
0.6773333333333333
 49
0.3386666666666667
 74
     0
 49
-0.3386666666666667
 74
     0
  0
LTYPE
  5
3E
330
5
100
AcDbSymbolTableRecord
100
AcDbLinetypeTableRecord
  2
JWW_CENTER2
 70
     0
  3
-------------  --  -------------
 72
    65
 73
     4
 40
13.54666666666667
 49
11.00666666666667
 74
     0
 49
-0.8466666666666667
 74
     0
 49
0.8466666666666667
 74
     0
 49
-0.8466666666666667
 74
     0
  0
LTYPE
  5
3F
330
5
100
AcDbSymbolTableRecord
100
AcDbLinetypeTableRecord
  2
JWW_DASHED3
 70
     0
  3
---  ------  ------  ------  ---
 72
    65
 73
     2
 40
3.386666666666667
 49
2.54
 74
     0
 49
-0.8466666666666667
 74
     0
  0
LTYPE
  5
40
330
5
100
AcDbSymbolTableRecord
100
AcDbLinetypeTableRecord
  2
JWW_DASHED2
 70
     0
  3
--    ----    ----    ----    --
 72
    65
 73
     2
 40
1.354666666666667
 49
0.6773333333333333
 74
     0
 49
-0.6773333333333333
 74
     0
  0
ENDTAB
  0
TABLE
  2
LAYER
  5
2
330
0
100
AcDbSymbolTable
 70
    12
  0
LAYER
  5
10
330
2
100
AcDbSymbolTableRecord
100
AcDbLayerTableRecord
  2
0
 70
     0
 62
     7
  6
Continuous
370
    -3
390
F
  0
LAYER
  5
41
330
2
100
AcDbSymbolTableRecord
100
AcDbLayerTableRecord
  2
3-0
 70
     0
 62
     7
  6
Continuous
370
    -3
390
F
  0
LAYER
  5
42
330
2
100
AcDbSymbolTableRecord
100
AcDbLayerTableRecord
  2
3-4
 70
     0
 62
     7
  6
Continuous
370
    -3
390
F
  0
LAYER
  5
43
330
2
100
AcDbSymbolTableRecord
100
AcDbLayerTableRecord
  2
3-5
 70
     0
 62
     7
  6
Continuous
370
    -3
390
F
  0
LAYER
  5
44
330
2
100
AcDbSymbolTableRecord
100
AcDbLayerTableRecord
  2
3-2
 70
     0
 62
     7
  6
Continuous
370
    -3
390
F
  0
LAYER
  5
45
330
2
100
AcDbSymbolTableRecord
100
AcDbLayerTableRecord
  2
3-6
 70
     0
 62
     7
  6
Continuous
370
    -3
390
F
  0
LAYER
  5
46
330
2
100
AcDbSymbolTableRecord
100
AcDbLayerTableRecord
  2
3-1
 70
     0
 62
     7
  6
Continuous
370
    -3
390
F
  0
LAYER
  5
47
330
2
100
AcDbSymbolTableRecord
100
AcDbLayerTableRecord
  2
3-3
 70
     0
 62
     7
  6
Continuous
370
    -3
390
F
  0
LAYER
  5
48
330
2
100
AcDbSymbolTableRecord
100
AcDbLayerTableRecord
  2
F-Eﾚｲﾔ
 70
     0
 62
     7
  6
Continuous
370
    -3
390
F
  0
LAYER
  5
49
330
2
100
AcDbSymbolTableRecord
100
AcDbLayerTableRecord
  2
5-2
 70
     0
 62
     7
  6
Continuous
370
    -3
390
F
  0
LAYER
  5
4A
330
2
100
AcDbSymbolTableRecord
100
AcDbLayerTableRecord
  2
5-0
 70
     0
 62
     7
  6
Continuous
370
    -3
390
F
  0
LAYER
  5
4B
330
2
100
AcDbSymbolTableRecord
100
AcDbLayerTableRecord
  2
5-4
 70
     0
 62
     7
  6
Continuous
370
    -3
390
F
  0
ENDTAB
  0
TABLE
  2
STYLE
  5
3
330
0
100
AcDbSymbolTable
 70
     2
  0
STYLE
  5
11
330
3
100
AcDbSymbolTableRecord
100
AcDbTextStyleTableRecord
  2
Standard
 70
     0
 40
0.0
 41
1.0
 50
0.0
 71
     0
 42
2.5
  3
txt
  4

1001
ACAD
1000

1071
        0
  0
STYLE
  5
3B
330
3
100
AcDbSymbolTableRecord
100
AcDbTextStyleTableRecord
  2
ＭＳ ゴシック
 70
     0
 40
1.0
 41
1.0
 50
0.0
 71
     0
 42
10.0
  3

  4

1001
ACAD
1000
MS Gothic
1071
    32817
  0
ENDTAB
  0
TABLE
  2
VIEW
  5
6
330
0
100
AcDbSymbolTable
 70
     0
  0
ENDTAB
  0
TABLE
  2
UCS
  5
7
330
0
100
AcDbSymbolTable
 70
     0
  0
ENDTAB
  0
TABLE
  2
APPID
  5
9
330
0
100
AcDbSymbolTable
 70
     1
  0
APPID
  5
12
330
9
100
AcDbSymbolTableRecord
100
AcDbRegAppTableRecord
  2
ACAD
 70
     0
  0
ENDTAB
  0
TABLE
  2
DIMSTYLE
  5
A
330
0
100
AcDbSymbolTable
 70
     1
100
AcDbDimStyleTable
  0
DIMSTYLE
105
27
330
A
100
AcDbSymbolTableRecord
100
AcDbDimStyleTableRecord
  2
ISO-25
 70
     0
 41
2.5
 42
0.625
 43
3.75
 44
1.25
 73
     0
 74
     0
 77
     1
 78
     8
140
2.5
141
2.5
143
0.03937007874016
147
0.625
171
     3
172
     1
271
     2
272
     2
274
     3
278
    44
283
     0
284
     8
340
11
  0
ENDTAB
  0
TABLE
  2
BLOCK_RECORD
  5
1
330
0
100
AcDbSymbolTable
 70
     1
  0
BLOCK_RECORD
  5
1F
330
1
100
AcDbSymbolTableRecord
100
AcDbBlockTableRecord
  2
*Model_Space
340
22
  0
BLOCK_RECORD
  5
1B
330
1
100
AcDbSymbolTableRecord
100
AcDbBlockTableRecord
  2
*Paper_Space
340
1E
  0
BLOCK_RECORD
  5
23
330
1
100
AcDbSymbolTableRecord
100
AcDbBlockTableRecord
  2
*Paper_Space0
340
26
  0
ENDTAB
  0
ENDSEC
  0
SECTION
  2
BLOCKS
  0
BLOCK
  5
20
330
1F
100
AcDbEntity
  8
0
100
AcDbBlockBegin
  2
*Model_Space
 70
     0
 10
0.0
 20
0.0
 30
0.0
  3
*Model_Space
  1

  0
ENDBLK
  5
21
330
1F
100
AcDbEntity
  8
0
100
AcDbBlockEnd
  0
BLOCK
  5
1C
330
1B
100
AcDbEntity
 67
     1
  8
0
100
AcDbBlockBegin
  2
*Paper_Space
 70
     0
 10
0.0
 20
0.0
 30
0.0
  3
*Paper_Space
  1

  0
ENDBLK
  5
1D
330
1B
100
AcDbEntity
 67
     1
  8
0
100
AcDbBlockEnd
  0
BLOCK
  5
24
330
23
100
AcDbEntity
  8
0
100
AcDbBlockBegin
  2
*Paper_Space0
 70
     0
 10
0.0
 20
0.0
 30
0.0
  3
*Paper_Space0
  1

  0
ENDBLK
  5
25
330
23
100
AcDbEntity
  8
0
100
AcDbBlockEnd
  0
ENDSEC
  0
SECTION
  2
ENTITIES
  0
LINE
  5
4C
330
1F
100
AcDbEntity
  8
3-0
  6
JWW_CENTER1
 62
     4
370
     9
100
AcDbLine
 10
1066.966639962489
 20
1606.475146475153
 30
0.0
 11
946.9671772603901
 21
1606.475146475153
 31
0.0
  0
LINE
  5
4D
330
1F
100
AcDbEntity
  8
3-0
  6
JWW_CENTER1
 62
     4
370
     9
100
AcDbLine
 10
1006.96690861144
 20
1546.476115025317
 30
0.0
 11
1006.96690861144
 21
1666.475577727416
 31
0.0
  0
LINE
  5
4E
330
1F
100
AcDbEntity
  8
3-0
  6
JWW_DASHED1
 62
     3
370
     9
100
AcDbLine
 10
1381.967334855991
 20
1686.475342365013
 30
0.0
 11
1381.967334855991
 21
1526.47582546181
 31
0.0
  0
LINE
  5
4F
330
1F
100
AcDbEntity
  8
3-0
  6
Continuous
 62
     3
370
     9
100
AcDbLine
 10
1131.966821123788
 20
1506.475448410652
 30
0.0
 11
1131.966821123788
 21
1706.475719416172
 31
0.0
  0
ARC
  5
50
330
1F
100
AcDbEntity
  8
3-0
  6
Continuous
 62
     3
370
     9
100
AcDbCircle
 10
1131.966821123788
 20
-3343.523599535173
 30
0.0
 40
4850.000097797643
100
AcDbArc
 50
85.29232788085938
 51
95.37037658691408
  0
ARC
  5
51
330
1F
100
AcDbEntity
  8
3-0
  6
Continuous
 62
     3
370
     9
100
AcDbCircle
 10
1131.966821123788
 20
-3343.523599535173
 30
0.0
 40
5050.000018852557
100
AcDbArc
 50
85.47917175292969
 51
95.15708923339844
  0
ARC
  5
52
330
1F
100
AcDbEntity
  8
3-0
  6
Continuous
 62
     3
370
     9
100
AcDbCircle
 10
1131.966821123788
 20
-3343.523599535173
 30
0.0
 40
5024.999897489216
100
AcDbArc
 50
85.45663452148438
 51
95.18283081054689
  0
LINE
  5
53
330
1F
100
AcDbEntity
  8
3-0
  6
JWW_DASHED1
 62
     3
370
     9
100
AcDbLine
 10
1381.967334855991
 20
1686.475342365013
 30
0.0
 11
881.9668211237879
 21
1686.475342365013
 31
0.0
  0
LINE
  5
54
330
1F
100
AcDbEntity
  8
3-0
  6
JWW_DASHED1
 62
     3
370
     9
100
AcDbLine
 10
881.9668211237879
 20
1526.47582546181
 30
0.0
 11
881.9668211237879
 21
1686.475342365013
 31
0.0
  0
LINE
  5
55
330
1F
100
AcDbEntity
  8
3-0
  6
JWW_DASHED1
 62
     3
370
     9
100
AcDbLine
 10
1381.967334855991
 20
1526.47582546181
 30
0.0
 11
881.9668211237879
 21
1526.47582546181
 31
0.0
  0
LINE
  5
56
330
1F
100
AcDbEntity
  8
3-0
  6
Continuous
 62
     4
370
     9
100
AcDbLine
 10
687.9284948161742
 20
1596.548535064549
 30
0.0
 11
678.0378408303666
 21
1590.838041070974
 31
0.0
  0
LINE
  5
57
330
1F
100
AcDbEntity
  8
3-0
  6
Continuous
 62
     4
370
     9
100
AcDbLine
 10
678.0378408303666
 20
1699.419315390774
 30
0.0
 11
678.0378408303666
 21
1590.838041070974
 31
0.0
  0
LINE
  5
58
330
1F
100
AcDbEntity
  8
3-0
  6
Continuous
 62
     4
370
     9
100
AcDbLine
 10
668.1471868445585
 20
1562.286620954918
 30
0.0
 11
687.9284948161742
 21
1596.548535064549
 31
0.0
  0
LINE
  5
59
330
1F
100
AcDbEntity
  8
3-0
  6
Continuous
 62
     4
370
     9
100
AcDbLine
 10
668.1471868445585
 20
1562.286620954918
 30
0.0
 11
678.0378408303666
 21
1567.996764997886
 31
0.0
  0
LINE
  5
5A
330
1F
100
AcDbEntity
  8
3-0
  6
Continuous
 62
     4
370
     9
100
AcDbLine
 10
678.0378408303666
 20
1567.996764997886
 30
0.0
 11
678.0378408303666
 21
1459.416190579299
 31
0.0
  0
LINE
  5
5B
330
1F
100
AcDbEntity
  8
3-0
  6
Continuous
 62
     4
370
     9
100
AcDbLine
 10
1539.905992638704
 20
1596.548535064549
 30
0.0
 11
1530.015338652896
 21
1590.838041070974
 31
0.0
  0
LINE
  5
5C
330
1F
100
AcDbEntity
  8
3-0
  6
Continuous
 62
     4
370
     9
100
AcDbLine
 10
1530.015338652896
 20
1699.419315390774
 30
0.0
 11
1530.015338652896
 21
1590.838041070974
 31
0.0
  0
LINE
  5
5D
330
1F
100
AcDbEntity
  8
3-0
  6
Continuous
 62
     4
370
     9
100
AcDbLine
 10
1520.124684667088
 20
1562.286620954918
 30
0.0
 11
1539.905992638704
 21
1596.548535064549
 31
0.0
  0
LINE
  5
5E
330
1F
100
AcDbEntity
  8
3-0
  6
Continuous
 62
     4
370
     9
100
AcDbLine
 10
1520.124684667088
 20
1562.286620954918
 30
0.0
 11
1530.015338652896
 21
1567.996764997886
 31
0.0
  0
LINE
  5
5F
330
1F
100
AcDbEntity
  8
3-0
  6
Continuous
 62
     4
370
     9
100
AcDbLine
 10
1530.015338652896
 20
1567.996764997886
 30
0.0
 11
1530.015338652896
 21
1459.416190579299
 31
0.0
  0
LINE
  5
60
330
1F
100
AcDbEntity
  8
3-0
  6
Continuous
 62
     7
370
     9
100
AcDbLine
 10
1020.533793716411
 20
1592.908261370182
 30
0.0
 11
993.3996735558618
 21
1620.042381530731
 31
0.0
  0
LINE
  5
61
330
1F
100
AcDbEntity
  8
3-0
  6
Continuous
 62
     7
370
     9
100
AcDbLine
 10
993.3996735558618
 20
1592.908261370182
 30
0.0
 11
1020.533793716411
 21
1620.042381530731
 31
0.0
  0
CIRCLE
  5
62
330
1F
100
AcDbEntity
  8
3-0
  6
Continuous
 62
     3
370
     9
100
AcDbCircle
 10
1006.96690861144
 20
1606.47549642576
 30
0.0
 40
42.49999999999999
  0
CIRCLE
  5
63
330
1F
100
AcDbEntity
  8
3-0
  6
Continuous
 62
     7
370
     9
100
AcDbCircle
 10
1006.96690861144
 20
1606.47549642576
 30
0.0
 40
40.0
  0
LINE
  5
64
330
1F
100
AcDbEntity
  8
3-0
  6
Continuous
 62
     3
370
     9
100
AcDbLine
 10
2105.062032346736
 20
1197.458475097574
 30
0.0
 11
2105.062032346736
 21
997.458495717559
 31
0.0
  0
LINE
  5
65
330
1F
100
AcDbEntity
  8
3-0
  6
Continuous
 62
     3
370
     9
100
AcDbLine
 10
2095.062246794581
 20
1197.458475097574
 30
0.0
 11
2105.062032346736
 21
1197.458475097574
 31
0.0
  0
LINE
  5
66
330
1F
100
AcDbEntity
  8
3-0
  6
Continuous
 62
     3
370
     9
100
AcDbLine
 10
1905.062609706321
 20
1007.45846684958
 30
0.0
 11
1905.062609706321
 21
997.458495717559
 31
0.0
  0
LINE
  5
67
330
1F
100
AcDbEntity
  8
3-0
  6
Continuous
 62
     3
370
     9
100
AcDbLine
 10
2080.062197306618
 20
1047.458351377663
 30
0.0
 11
2080.062197306618
 21
1182.458425609609
 31
0.0
  0
LINE
  5
68
330
1F
100
AcDbEntity
  8
3-0
  6
Continuous
 62
     3
370
     9
100
AcDbLine
 10
1925.062180810629
 20
997.458495717559
 30
0.0
 11
1925.062180810629
 21
967.4585823214974
 31
0.0
  0
LINE
  5
69
330
1F
100
AcDbEntity
  8
3-0
  6
Continuous
 62
     3
370
     9
100
AcDbLine
 10
1925.062180810629
 20
967.4585823214974
 30
0.0
 11
2085.062461242429
 21
967.4585823214974
 31
0.0
  0
LINE
  5
6A
330
1F
100
AcDbEntity
  8
3-0
  6
Continuous
 62
     3
370
     9
100
AcDbLine
 10
2085.062461242429
 20
997.458495717559
 30
0.0
 11
2085.062461242429
 21
967.4585823214974
 31
0.0
  0
LINE
  5
6B
330
1F
100
AcDbEntity
  8
3-0
  6
Continuous
 62
     3
370
     9
100
AcDbLine
 10
2085.062461242429
 20
997.458495717559
 30
0.0
 11
2085.133723911347
 21
994.7386371871536
 31
0.0
  0
LINE
  5
6C
330
1F
100
AcDbEntity
  8
3-0
  6
Continuous
 62
     3
370
     9
100
AcDbLine
 10
2085.133723911347
 20
994.7386371871536
 30
0.0
 11
2085.133723911347
 21
989.4117526854645
 31
0.0
  0
LINE
  5
6D
330
1F
100
AcDbEntity
  8
3-0
  6
Continuous
 62
     3
370
     9
100
AcDbLine
 10
2085.133723911347
 20
989.4117526854645
 30
0.0
 11
2086.101708497496
 21
986.9904921610239
 31
0.0
  0
LINE
  5
6E
330
1F
100
AcDbEntity
  8
3-0
  6
Continuous
 62
     3
370
     9
100
AcDbLine
 10
2086.101708497496
 20
986.9904921610239
 30
0.0
 11
2086.101708497496
 21
984.569231636584
 31
0.0
  0
LINE
  5
6F
330
1F
100
AcDbEntity
  8
3-0
  6
Continuous
 62
     3
370
     9
100
AcDbLine
 10
2086.101708497496
 20
984.569231636584
 30
0.0
 11
2088.039162308729
 21
984.0848681837755
 31
0.0
  0
LINE
  5
70
330
1F
100
AcDbEntity
  8
3-0
  6
Continuous
 62
     3
370
     9
100
AcDbLine
 10
2088.039162308729
 20
984.0848681837755
 30
0.0
 11
2089.975873800494
 21
985.5377729623333
 31
0.0
  0
LINE
  5
71
330
1F
100
AcDbEntity
  8
3-0
  6
Continuous
 62
     3
370
     9
100
AcDbLine
 10
2089.975873800494
 20
985.5377729623333
 30
0.0
 11
2091.913327611727
 21
986.9904921610239
 31
0.0
  0
LINE
  5
72
330
1F
100
AcDbEntity
  8
3-0
  6
Continuous
 62
     3
370
     9
100
AcDbLine
 10
2091.913327611727
 20
986.9904921610239
 30
0.0
 11
2092.881312197876
 21
989.4117526854645
 31
0.0
  0
LINE
  5
73
330
1F
100
AcDbEntity
  8
3-0
  6
Continuous
 62
     3
370
     9
100
AcDbLine
 10
2092.881312197876
 20
989.4117526854645
 30
0.0
 11
2093.850039103493
 21
991.8331987897724
 31
0.0
  0
LINE
  5
74
330
1F
100
AcDbEntity
  8
3-0
  6
Continuous
 62
     3
370
     9
100
AcDbLine
 10
2093.850039103493
 20
991.8331987897724
 30
0.0
 11
2093.850039103493
 21
994.254459314213
 31
0.0
  0
LINE
  5
75
330
1F
100
AcDbEntity
  8
3-0
  6
Continuous
 62
     3
370
     9
100
AcDbLine
 10
2093.850039103493
 20
994.254459314213
 30
0.0
 11
2094.818766009109
 21
996.6755342587865
 31
0.0
  0
LINE
  5
76
330
1F
100
AcDbEntity
  8
3-0
  6
Continuous
 62
     3
370
     9
100
AcDbLine
 10
2092.397319904802
 20
996.6755342587865
 30
0.0
 11
2096.755477500874
 21
996.6755342587865
 31
0.0
  0
LINE
  5
77
330
1F
100
AcDbEntity
  8
3-0
  6
Continuous
 62
     3
370
     9
100
AcDbLine
 10
2092.397319904802
 20
996.6755342587865
 30
0.0
 11
2090.459866093569
 21
995.7071785129036
 31
0.0
  0
LINE
  5
78
330
1F
100
AcDbEntity
  8
3-0
  6
Continuous
 62
     3
370
     9
100
AcDbLine
 10
2090.459866093569
 20
995.7071785129036
 30
0.0
 11
2088.523154601804
 21
994.7386371871536
 31
0.0
  0
LINE
  5
79
330
1F
100
AcDbEntity
  8
3-0
  6
Continuous
 62
     3
370
     9
100
AcDbLine
 10
2088.523154601804
 20
994.7386371871536
 30
0.0
 11
2087.554427696186
 21
992.3173766627137
 31
0.0
  0
LINE
  5
7A
330
1F
100
AcDbEntity
  8
3-0
  6
Continuous
 62
     3
370
     9
100
AcDbLine
 10
2087.554427696186
 20
992.3173766627137
 30
0.0
 11
2086.586443110038
 21
989.8959305584059
 31
0.0
  0
LINE
  5
7B
330
1F
100
AcDbEntity
  8
3-0
  6
Continuous
 62
     3
370
     9
100
AcDbLine
 10
2086.586443110038
 20
989.8959305584059
 30
0.0
 11
2089.975873800494
 21
989.4117526854645
 31
0.0
  0
LINE
  5
7C
330
1F
100
AcDbEntity
  8
3-0
  6
Continuous
 62
     3
370
     9
100
AcDbLine
 10
2089.975873800494
 20
989.4117526854645
 30
0.0
 11
2091.913327611727
 21
990.3802940112146
 31
0.0
  0
LINE
  5
7D
330
1F
100
AcDbEntity
  8
3-0
  6
Continuous
 62
     3
370
     9
100
AcDbLine
 10
2091.913327611727
 20
990.3802940112146
 30
0.0
 11
2093.850039103493
 21
990.8646574640223
 31
0.0
  0
LINE
  5
7E
330
1F
100
AcDbEntity
  8
3-0
  6
Continuous
 62
     3
370
     9
100
AcDbLine
 10
2093.850039103493
 20
990.8646574640223
 30
0.0
 11
2095.786750595257
 21
992.3173766627137
 31
0.0
  0
LINE
  5
7F
330
1F
100
AcDbEntity
  8
3-0
  6
Continuous
 62
     3
370
     9
100
AcDbLine
 10
2095.786750595257
 20
992.3173766627137
 30
0.0
 11
2093.366046810419
 21
993.7700958614043
 31
0.0
  0
LINE
  5
80
330
1F
100
AcDbEntity
  8
3-0
  6
Continuous
 62
     3
370
     9
100
AcDbLine
 10
2093.366046810419
 20
993.7700958614043
 30
0.0
 11
2091.428592999185
 21
992.3173766627137
 31
0.0
  0
LINE
  5
81
330
1F
100
AcDbEntity
  8
3-0
  6
Continuous
 62
     3
370
     9
100
AcDbLine
 10
2091.428592999185
 20
992.3173766627137
 30
0.0
 11
2088.523154601804
 21
990.8646574640223
 31
0.0
  0
LINE
  5
82
330
1F
100
AcDbEntity
  8
3-0
  6
Continuous
 62
     3
370
     9
100
AcDbLine
 10
2088.523154601804
 20
990.8646574640223
 30
0.0
 11
2086.586443110038
 21
987.9590334867739
 31
0.0
  0
LINE
  5
83
330
1F
100
AcDbEntity
  8
3-0
  6
Continuous
 62
     3
370
     9
100
AcDbLine
 10
2086.586443110038
 20
987.9590334867739
 30
0.0
 11
2089.975873800494
 21
988.4432113597153
 31
0.0
  0
LINE
  5
84
330
1F
100
AcDbEntity
  8
3-0
  6
Continuous
 62
     3
370
     9
100
AcDbLine
 10
2089.975873800494
 20
988.4432113597153
 30
0.0
 11
2091.913327611727
 21
989.8959305584059
 31
0.0
  0
LINE
  5
85
330
1F
100
AcDbEntity
  8
3-0
  6
Continuous
 62
     3
370
     9
100
AcDbLine
 10
2091.913327611727
 20
989.8959305584059
 30
0.0
 11
2093.850039103493
 21
991.3488353369637
 31
0.0
  0
LINE
  5
86
330
1F
100
AcDbEntity
  8
3-0
  6
Continuous
 62
     3
370
     9
100
AcDbLine
 10
2093.850039103493
 20
991.3488353369637
 30
0.0
 11
2091.428592999185
 21
990.8646574640223
 31
0.0
  0
LINE
  5
87
330
1F
100
AcDbEntity
  8
3-0
  6
Continuous
 62
     3
370
     9
100
AcDbLine
 10
2091.428592999185
 20
990.8646574640223
 30
0.0
 11
2089.49188150742
 21
989.4117526854645
 31
0.0
  0
LINE
  5
88
330
1F
100
AcDbEntity
  8
3-0
  6
Continuous
 62
     3
370
     9
100
AcDbLine
 10
2089.49188150742
 20
989.4117526854645
 30
0.0
 11
2090.944600706111
 21
991.8331987897724
 31
0.0
  0
LINE
  5
89
330
1F
100
AcDbEntity
  8
3-0
  6
Continuous
 62
     3
370
     9
100
AcDbLine
 10
2090.944600706111
 20
991.8331987897724
 30
0.0
 11
2091.913327611727
 21
994.254459314213
 31
0.0
  0
LINE
  5
8A
330
1F
100
AcDbEntity
  8
3-0
  6
Continuous
 62
     3
370
     9
100
AcDbLine
 10
2091.913327611727
 20
994.254459314213
 30
0.0
 11
2089.49188150742
 21
994.254459314213
 31
0.0
  0
LINE
  5
8B
330
1F
100
AcDbEntity
  8
3-0
  6
Continuous
 62
     3
370
     9
100
AcDbLine
 10
2089.49188150742
 20
994.254459314213
 30
0.0
 11
2087.554427696186
 21
992.8015545356543
 31
0.0
  0
LINE
  5
8C
330
1F
100
AcDbEntity
  8
3-0
  6
Continuous
 62
     3
370
     9
100
AcDbLine
 10
2087.554427696186
 20
992.8015545356543
 30
0.0
 11
2085.617716204421
 21
991.3488353369637
 31
0.0
  0
LINE
  5
8D
330
1F
100
AcDbEntity
  8
3-0
  6
Continuous
 62
     3
370
     9
100
AcDbLine
 10
2085.617716204421
 20
991.3488353369637
 30
0.0
 11
2088.039162308729
 21
991.3488353369637
 31
0.0
  0
LINE
  5
8E
330
1F
100
AcDbEntity
  8
3-0
  6
Continuous
 62
     3
370
     9
100
AcDbLine
 10
2088.039162308729
 20
991.3488353369637
 30
0.0
 11
2089.975873800494
 21
993.7700958614043
 31
0.0
  0
LINE
  5
8F
330
1F
100
AcDbEntity
  8
3-0
  6
Continuous
 62
     3
370
     9
100
AcDbLine
 10
2089.975873800494
 20
993.7700958614043
 30
0.0
 11
2087.554427696186
 21
993.7700958614043
 31
0.0
  0
LINE
  5
90
330
1F
100
AcDbEntity
  8
3-0
  6
Continuous
 62
     3
370
     9
100
AcDbLine
 10
2087.554427696186
 20
993.7700958614043
 30
0.0
 11
2086.586443110038
 21
991.3488353369637
 31
0.0
  0
LINE
  5
91
330
1F
100
AcDbEntity
  8
3-0
  6
Continuous
 62
     3
370
     9
100
AcDbLine
 10
2086.586443110038
 20
991.3488353369637
 30
0.0
 11
2089.007889214346
 21
993.2857324085958
 31
0.0
  0
LINE
  5
92
330
1F
100
AcDbEntity
  8
3-0
  6
Continuous
 62
     3
370
     9
100
AcDbLine
 10
2089.007889214346
 20
993.2857324085958
 30
0.0
 11
2089.007889214346
 21
995.7071785129036
 31
0.0
  0
LINE
  5
93
330
1F
100
AcDbEntity
  8
3-0
  6
Continuous
 62
     3
370
     9
100
AcDbLine
 10
2089.007889214346
 20
995.7071785129036
 30
0.0
 11
2086.586443110038
 21
994.7386371871536
 31
0.0
  0
LINE
  5
94
330
1F
100
AcDbEntity
  8
3-0
  6
Continuous
 62
     3
370
     9
100
AcDbLine
 10
2086.586443110038
 20
994.7386371871536
 30
0.0
 11
2088.039162308729
 21
997.159712131727
 31
0.0
  0
LINE
  5
95
330
1F
100
AcDbEntity
  8
3-0
  6
Continuous
 62
     3
370
     9
100
AcDbLine
 10
2088.039162308729
 20
997.159712131727
 30
0.0
 11
2085.617716204421
 21
994.7386371871536
 31
0.0
  0
LINE
  5
96
330
1F
100
AcDbEntity
  8
3-0
  6
Continuous
 62
     3
370
     9
100
AcDbLine
 10
2085.617716204421
 20
994.7386371871536
 30
0.0
 11
2086.586443110038
 21
992.3173766627137
 31
0.0
  0
LINE
  5
97
330
1F
100
AcDbEntity
  8
3-0
  6
Continuous
 62
     3
370
     9
100
AcDbLine
 10
2086.586443110038
 20
992.3173766627137
 30
0.0
 11
2088.039162308729
 21
989.8959305584059
 31
0.0
  0
LINE
  5
98
330
1F
100
AcDbEntity
  8
3-0
  6
Continuous
 62
     3
370
     9
100
AcDbLine
 10
2088.039162308729
 20
989.8959305584059
 30
0.0
 11
2089.975873800494
 21
989.4117526854645
 31
0.0
  0
LINE
  5
99
330
1F
100
AcDbEntity
  8
3-0
  6
Continuous
 62
     3
370
     9
100
AcDbLine
 10
2089.975873800494
 20
989.4117526854645
 30
0.0
 11
2089.975873800494
 21
989.8959305584059
 31
0.0
  0
LINE
  5
9A
330
1F
100
AcDbEntity
  8
3-0
  6
Continuous
 62
     3
370
     9
100
AcDbLine
 10
1925.062180810629
 20
997.458495717559
 30
0.0
 11
1924.990918141711
 21
994.7386371871536
 31
0.0
  0
LINE
  5
9B
330
1F
100
AcDbEntity
  8
3-0
  6
Continuous
 62
     3
370
     9
100
AcDbLine
 10
1924.990918141711
 20
994.7386371871536
 30
0.0
 11
1924.990918141711
 21
989.4117526854645
 31
0.0
  0
LINE
  5
9C
330
1F
100
AcDbEntity
  8
3-0
  6
Continuous
 62
     3
370
     9
100
AcDbLine
 10
1924.990918141711
 20
989.4117526854645
 30
0.0
 11
1924.022191236093
 21
986.9904921610239
 31
0.0
  0
LINE
  5
9D
330
1F
100
AcDbEntity
  8
3-0
  6
Continuous
 62
     3
370
     9
100
AcDbLine
 10
1924.022191236093
 20
986.9904921610239
 30
0.0
 11
1924.022191236093
 21
984.569231636584
 31
0.0
  0
LINE
  5
9E
330
1F
100
AcDbEntity
  8
3-0
  6
Continuous
 62
     3
370
     9
100
AcDbLine
 10
1924.022191236093
 20
984.569231636584
 30
0.0
 11
1922.084737424861
 21
984.0848681837755
 31
0.0
  0
LINE
  5
9F
330
1F
100
AcDbEntity
  8
3-0
  6
Continuous
 62
     3
370
     9
100
AcDbLine
 10
1922.084737424861
 20
984.0848681837755
 30
0.0
 11
1920.148025933095
 21
985.5377729623333
 31
0.0
  0
LINE
  5
A0
330
1F
100
AcDbEntity
  8
3-0
  6
Continuous
 62
     3
370
     9
100
AcDbLine
 10
1920.148025933095
 20
985.5377729623333
 30
0.0
 11
1918.210572121862
 21
986.9904921610239
 31
0.0
  0
LINE
  5
A1
330
1F
100
AcDbEntity
  8
3-0
  6
Continuous
 62
     3
370
     9
100
AcDbLine
 10
1918.210572121862
 20
986.9904921610239
 30
0.0
 11
1917.242587535714
 21
989.4117526854645
 31
0.0
  0
LINE
  5
A2
330
1F
100
AcDbEntity
  8
3-0
  6
Continuous
 62
     3
370
     9
100
AcDbLine
 10
1917.242587535714
 20
989.4117526854645
 30
0.0
 11
1916.273860630096
 21
991.8331987897724
 31
0.0
  0
LINE
  5
A3
330
1F
100
AcDbEntity
  8
3-0
  6
Continuous
 62
     3
370
     9
100
AcDbLine
 10
1916.273860630096
 20
991.8331987897724
 30
0.0
 11
1916.273860630096
 21
994.254459314213
 31
0.0
  0
LINE
  5
A4
330
1F
100
AcDbEntity
  8
3-0
  6
Continuous
 62
     3
370
     9
100
AcDbLine
 10
1916.273860630096
 20
994.254459314213
 30
0.0
 11
1915.305133724481
 21
996.6755342587865
 31
0.0
  0
LINE
  5
A5
330
1F
100
AcDbEntity
  8
3-0
  6
Continuous
 62
     3
370
     9
100
AcDbLine
 10
1917.726579828787
 20
996.6755342587865
 30
0.0
 11
1913.368422232715
 21
996.6755342587865
 31
0.0
  0
LINE
  5
A6
330
1F
100
AcDbEntity
  8
3-0
  6
Continuous
 62
     3
370
     9
100
AcDbLine
 10
1917.726579828787
 20
996.6755342587865
 30
0.0
 11
1919.664033640021
 21
995.7071785129036
 31
0.0
  0
LINE
  5
A7
330
1F
100
AcDbEntity
  8
3-0
  6
Continuous
 62
     3
370
     9
100
AcDbLine
 10
1919.664033640021
 20
995.7071785129036
 30
0.0
 11
1921.600745131786
 21
994.7386371871536
 31
0.0
  0
LINE
  5
A8
330
1F
100
AcDbEntity
  8
3-0
  6
Continuous
 62
     3
370
     9
100
AcDbLine
 10
1921.600745131786
 20
994.7386371871536
 30
0.0
 11
1922.569472037403
 21
992.3173766627137
 31
0.0
  0
LINE
  5
A9
330
1F
100
AcDbEntity
  8
3-0
  6
Continuous
 62
     3
370
     9
100
AcDbLine
 10
1922.569472037403
 20
992.3173766627137
 30
0.0
 11
1923.538198943018
 21
989.8959305584059
 31
0.0
  0
LINE
  5
AA
330
1F
100
AcDbEntity
  8
3-0
  6
Continuous
 62
     3
370
     9
100
AcDbLine
 10
1923.538198943018
 20
989.8959305584059
 30
0.0
 11
1920.148025933095
 21
989.4117526854645
 31
0.0
  0
LINE
  5
AB
330
1F
100
AcDbEntity
  8
3-0
  6
Continuous
 62
     3
370
     9
100
AcDbLine
 10
1920.148025933095
 20
989.4117526854645
 30
0.0
 11
1918.210572121862
 21
990.3802940112146
 31
0.0
  0
LINE
  5
AC
330
1F
100
AcDbEntity
  8
3-0
  6
Continuous
 62
     3
370
     9
100
AcDbLine
 10
1918.210572121862
 20
990.3802940112146
 30
0.0
 11
1916.273860630096
 21
990.8646574640223
 31
0.0
  0
LINE
  5
AD
330
1F
100
AcDbEntity
  8
3-0
  6
Continuous
 62
     3
370
     9
100
AcDbLine
 10
1916.273860630096
 20
990.8646574640223
 30
0.0
 11
1914.337149138331
 21
992.3173766627137
 31
0.0
  0
LINE
  5
AE
330
1F
100
AcDbEntity
  8
3-0
  6
Continuous
 62
     3
370
     9
100
AcDbLine
 10
1914.337149138331
 20
992.3173766627137
 30
0.0
 11
1916.758595242639
 21
993.7700958614043
 31
0.0
  0
LINE
  5
AF
330
1F
100
AcDbEntity
  8
3-0
  6
Continuous
 62
     3
370
     9
100
AcDbLine
 10
1916.758595242639
 20
993.7700958614043
 30
0.0
 11
1918.694564414935
 21
992.3173766627137
 31
0.0
  0
LINE
  5
B0
330
1F
100
AcDbEntity
  8
3-0
  6
Continuous
 62
     3
370
     9
100
AcDbLine
 10
1918.694564414935
 20
992.3173766627137
 30
0.0
 11
1921.600745131786
 21
990.8646574640223
 31
0.0
  0
LINE
  5
B1
330
1F
100
AcDbEntity
  8
3-0
  6
Continuous
 62
     3
370
     9
100
AcDbLine
 10
1921.600745131786
 20
990.8646574640223
 30
0.0
 11
1923.538198943018
 21
987.9590334867739
 31
0.0
  0
LINE
  5
B2
330
1F
100
AcDbEntity
  8
3-0
  6
Continuous
 62
     3
370
     9
100
AcDbLine
 10
1923.538198943018
 20
987.9590334867739
 30
0.0
 11
1920.148025933095
 21
988.4432113597153
 31
0.0
  0
LINE
  5
B3
330
1F
100
AcDbEntity
  8
3-0
  6
Continuous
 62
     3
370
     9
100
AcDbLine
 10
1920.148025933095
 20
988.4432113597153
 30
0.0
 11
1918.210572121862
 21
989.8959305584059
 31
0.0
  0
LINE
  5
B4
330
1F
100
AcDbEntity
  8
3-0
  6
Continuous
 62
     3
370
     9
100
AcDbLine
 10
1918.210572121862
 20
989.8959305584059
 30
0.0
 11
1916.273860630096
 21
991.3488353369637
 31
0.0
  0
LINE
  5
B5
330
1F
100
AcDbEntity
  8
3-0
  6
Continuous
 62
     3
370
     9
100
AcDbLine
 10
1916.273860630096
 20
991.3488353369637
 30
0.0
 11
1918.694564414935
 21
990.8646574640223
 31
0.0
  0
LINE
  5
B6
330
1F
100
AcDbEntity
  8
3-0
  6
Continuous
 62
     3
370
     9
100
AcDbLine
 10
1918.694564414935
 20
990.8646574640223
 30
0.0
 11
1920.63201822617
 21
989.4117526854645
 31
0.0
  0
LINE
  5
B7
330
1F
100
AcDbEntity
  8
3-0
  6
Continuous
 62
     3
370
     9
100
AcDbLine
 10
1920.63201822617
 20
989.4117526854645
 30
0.0
 11
1919.179299027479
 21
991.8331987897724
 31
0.0
  0
LINE
  5
B8
330
1F
100
AcDbEntity
  8
3-0
  6
Continuous
 62
     3
370
     9
100
AcDbLine
 10
1919.179299027479
 20
991.8331987897724
 30
0.0
 11
1918.210572121862
 21
994.254459314213
 31
0.0
  0
LINE
  5
B9
330
1F
100
AcDbEntity
  8
3-0
  6
Continuous
 62
     3
370
     9
100
AcDbLine
 10
1918.210572121862
 20
994.254459314213
 30
0.0
 11
1920.63201822617
 21
994.254459314213
 31
0.0
  0
LINE
  5
BA
330
1F
100
AcDbEntity
  8
3-0
  6
Continuous
 62
     3
370
     9
100
AcDbLine
 10
1920.63201822617
 20
994.254459314213
 30
0.0
 11
1922.569472037403
 21
992.8015545356543
 31
0.0
  0
LINE
  5
BB
330
1F
100
AcDbEntity
  8
3-0
  6
Continuous
 62
     3
370
     9
100
AcDbLine
 10
1922.569472037403
 20
992.8015545356543
 30
0.0
 11
1924.506183529168
 21
991.3488353369637
 31
0.0
  0
LINE
  5
BC
330
1F
100
AcDbEntity
  8
3-0
  6
Continuous
 62
     3
370
     9
100
AcDbLine
 10
1924.506183529168
 20
991.3488353369637
 30
0.0
 11
1922.084737424861
 21
991.3488353369637
 31
0.0
  0
LINE
  5
BD
330
1F
100
AcDbEntity
  8
3-0
  6
Continuous
 62
     3
370
     9
100
AcDbLine
 10
1922.084737424861
 20
991.3488353369637
 30
0.0
 11
1920.148025933095
 21
993.7700958614043
 31
0.0
  0
LINE
  5
BE
330
1F
100
AcDbEntity
  8
3-0
  6
Continuous
 62
     3
370
     9
100
AcDbLine
 10
1920.148025933095
 20
993.7700958614043
 30
0.0
 11
1922.569472037403
 21
993.7700958614043
 31
0.0
  0
LINE
  5
BF
330
1F
100
AcDbEntity
  8
3-0
  6
Continuous
 62
     3
370
     9
100
AcDbLine
 10
1922.569472037403
 20
993.7700958614043
 30
0.0
 11
1923.538198943018
 21
991.3488353369637
 31
0.0
  0
LINE
  5
C0
330
1F
100
AcDbEntity
  8
3-0
  6
Continuous
 62
     3
370
     9
100
AcDbLine
 10
1923.538198943018
 20
991.3488353369637
 30
0.0
 11
1921.116752838712
 21
993.2857324085958
 31
0.0
  0
LINE
  5
C1
330
1F
100
AcDbEntity
  8
3-0
  6
Continuous
 62
     3
370
     9
100
AcDbLine
 10
1921.116752838712
 20
993.2857324085958
 30
0.0
 11
1921.116752838712
 21
995.7071785129036
 31
0.0
  0
LINE
  5
C2
330
1F
100
AcDbEntity
  8
3-0
  6
Continuous
 62
     3
370
     9
100
AcDbLine
 10
1921.116752838712
 20
995.7071785129036
 30
0.0
 11
1923.538198943018
 21
994.7386371871536
 31
0.0
  0
LINE
  5
C3
330
1F
100
AcDbEntity
  8
3-0
  6
Continuous
 62
     3
370
     9
100
AcDbLine
 10
1923.538198943018
 20
994.7386371871536
 30
0.0
 11
1922.084737424861
 21
997.159712131727
 31
0.0
  0
LINE
  5
C4
330
1F
100
AcDbEntity
  8
3-0
  6
Continuous
 62
     3
370
     9
100
AcDbLine
 10
1922.084737424861
 20
997.159712131727
 30
0.0
 11
1924.506183529168
 21
994.7386371871536
 31
0.0
  0
LINE
  5
C5
330
1F
100
AcDbEntity
  8
3-0
  6
Continuous
 62
     3
370
     9
100
AcDbLine
 10
1924.506183529168
 20
994.7386371871536
 30
0.0
 11
1923.538198943018
 21
992.3173766627137
 31
0.0
  0
LINE
  5
C6
330
1F
100
AcDbEntity
  8
3-0
  6
Continuous
 62
     3
370
     9
100
AcDbLine
 10
1923.538198943018
 20
992.3173766627137
 30
0.0
 11
1922.084737424861
 21
989.8959305584059
 31
0.0
  0
LINE
  5
C7
330
1F
100
AcDbEntity
  8
3-0
  6
Continuous
 62
     3
370
     9
100
AcDbLine
 10
1922.084737424861
 20
989.8959305584059
 30
0.0
 11
1920.148025933095
 21
989.4117526854645
 31
0.0
  0
LINE
  5
C8
330
1F
100
AcDbEntity
  8
3-0
  6
Continuous
 62
     3
370
     9
100
AcDbLine
 10
1920.148025933095
 20
989.4117526854645
 30
0.0
 11
1920.148025933095
 21
989.8959305584059
 31
0.0
  0
ARC
  5
C9
330
1F
100
AcDbEntity
  8
3-0
  6
Continuous
 62
     3
370
     9
100
AcDbCircle
 10
2095.062246794581
 20
1182.458425609609
 30
0.0
 40
14.99999874346965
100
AcDbArc
 50
90.0
 51
180.0
  0
ARC
  5
CA
330
1F
100
AcDbEntity
  8
3-0
  6
Continuous
 62
     3
370
     9
100
AcDbCircle
 10
1920.061916874818
 20
1007.45846684958
 30
0.0
 40
14.99999874346965
100
AcDbArc
 50
90.0
 51
180.0
  0
ARC
  5
CB
330
1F
100
AcDbEntity
  8
3-0
  6
Continuous
 62
     3
370
     9
100
AcDbCircle
 10
2055.061619947031
 20
1047.458351377663
 30
0.0
 40
24.99999742250185
100
AcDbArc
 50
270.0
 51
0.0
  0
LINE
  5
CC
330
1F
100
AcDbEntity
  8
3-0
  6
JWW_CENTER1
 62
     4
370
     9
100
AcDbLine
 10
2005.061949866795
 20
1057.37098817309
 30
0.0
 11
2005.061949866795
 21
877.3369413034105
 31
0.0
  0
LINE
  5
CD
330
1F
100
AcDbEntity
  8
3-0
  6
Continuous
 62
     7
370
     9
100
AcDbLine
 10
2043.811768410925
 20
959.4587909957473
 30
0.0
 11
2043.811768410925
 21
967.4583967416302
 31
0.0
  0
LINE
  5
CE
330
1F
100
AcDbEntity
  8
3-0
  6
Continuous
 62
     7
370
     9
100
AcDbLine
 10
2043.811768410925
 20
959.4587909957473
 30
0.0
 11
1966.312131322664
 21
959.4587909957473
 31
0.0
  0
LINE
  5
CF
330
1F
100
AcDbEntity
  8
3-0
  6
Continuous
 62
     7
370
     9
100
AcDbLine
 10
1966.312131322664
 20
959.4587909957473
 30
0.0
 11
1966.312131322664
 21
967.4583967416302
 31
0.0
  0
LINE
  5
D0
330
1F
100
AcDbEntity
  8
3-0
  6
Continuous
 62
     7
370
     9
100
AcDbLine
 10
1990.561481380731
 20
926.9583744720466
 30
0.0
 11
1990.561481380731
 21
922.462516614677
 31
0.0
  0
LINE
  5
D1
330
1F
100
AcDbEntity
  8
3-0
  6
Continuous
 62
     7
370
     9
100
AcDbLine
 10
2019.56167603339
 20
926.9583744720466
 30
0.0
 11
2019.56167603339
 21
922.462516614677
 31
0.0
  0
LINE
  5
D2
330
1F
100
AcDbEntity
  8
3-0
  6
Continuous
 62
     7
370
     9
100
AcDbLine
 10
1990.561481380731
 20
922.462516614677
 30
0.0
 11
1986.065994683095
 21
926.9583744720466
 31
0.0
  0
LINE
  5
D3
330
1F
100
AcDbEntity
  8
3-0
  6
Continuous
 62
     7
370
     9
100
AcDbLine
 10
2019.56167603339
 20
922.462516614677
 30
0.0
 11
2024.057905050493
 21
926.9583744720466
 31
0.0
  0
LINE
  5
D4
330
1F
100
AcDbEntity
  8
3-0
  6
Continuous
 62
     7
370
     9
100
AcDbLine
 10
1990.561481380731
 20
922.462516614677
 30
0.0
 11
2019.56167603339
 21
922.462516614677
 31
0.0
  0
LINE
  5
D5
330
1F
100
AcDbEntity
  8
3-0
  6
Continuous
 62
     7
370
     9
100
AcDbLine
 10
2037.562180810629
 20
959.4587909957473
 30
0.0
 11
2037.562180810629
 21
930.566789405534
 31
0.0
  0
LINE
  5
D6
330
1F
100
AcDbEntity
  8
3-0
  6
Continuous
 62
     7
370
     9
100
AcDbLine
 10
1972.562461242428
 20
959.4587909957473
 30
0.0
 11
1972.562461242428
 21
930.566789405534
 31
0.0
  0
ARC
  5
D7
330
1F
100
AcDbEntity
  8
3-0
  6
Continuous
 62
     7
370
     9
100
AcDbCircle
 10
1988.811834394878
 20
965.3524364111825
 30
0.0
 40
38.39398944700087
100
AcDbArc
 50
244.9606628417968
 51
295.0396728515625
  0
ARC
  5
D8
330
1F
100
AcDbEntity
  8
3-0
  6
Continuous
 62
     7
370
     9
100
AcDbCircle
 10
2021.312065338712
 20
965.3524364111825
 30
0.0
 40
38.39398944700087
100
AcDbArc
 50
244.9603271484375
 51
295.0393371582032
  0
LINE
  5
D9
330
1F
100
AcDbEntity
  8
3-0
  6
Continuous
 62
     7
370
     9
100
AcDbLine
 10
2005.061949866795
 20
959.4587909957473
 30
0.0
 11
2005.061974102881
 21
930.566908378916
 31
0.0
  0
LINE
  5
DA
330
1F
100
AcDbEntity
  8
3-0
  6
Continuous
 62
     3
370
     9
100
AcDbLine
 10
1980.061949866795
 20
997.458495717559
 30
0.0
 11
1980.061949866795
 21
967.4583967416302
 31
0.0
  0
LINE
  5
DB
330
1F
100
AcDbEntity
  8
3-0
  6
Continuous
 62
     3
370
     9
100
AcDbLine
 10
2030.061949866794
 20
997.458495717559
 30
0.0
 11
2030.061949866794
 21
967.4583967416302
 31
0.0
  0
LINE
  5
DC
330
1F
100
AcDbEntity
  8
3-0
  6
JWW_DASHED1
 62
     7
370
     9
100
AcDbLine
 10
1965.561646340612
 20
1022.485017680419
 30
0.0
 11
1965.561646340612
 21
1020.985161195517
 31
0.0
  0
LINE
  5
DD
330
1F
100
AcDbEntity
  8
3-0
  6
JWW_DASHED1
 62
     7
370
     9
100
AcDbLine
 10
2044.561511073509
 20
1022.485017680419
 30
0.0
 11
2044.561511073509
 21
1020.985161195517
 31
0.0
  0
LINE
  5
DE
330
1F
100
AcDbEntity
  8
3-0
  6
Continuous
 62
     7
370
     9
100
AcDbLine
 10
1965.561646340612
 20
1022.485017680419
 30
0.0
 11
2044.561511073509
 21
1022.485017680419
 31
0.0
  0
LINE
  5
DF
330
1F
100
AcDbEntity
  8
3-0
  6
Continuous
 62
     7
370
     9
100
AcDbLine
 10
1965.561646340612
 20
1020.985161195517
 30
0.0
 11
2044.561511073509
 21
1020.985161195517
 31
0.0
  0
LINE
  5
E0
330
1F
100
AcDbEntity
  8
3-0
  6
Continuous
 62
     7
370
     9
100
AcDbLine
 10
2024.734158085756
 20
1001.157808207763
 30
0.0
 11
2044.561511073509
 21
1020.985161195517
 31
0.0
  0
LINE
  5
E1
330
1F
100
AcDbEntity
  8
3-0
  6
Continuous
 62
     7
370
     9
100
AcDbLine
 10
1986.88996929247
 20
999.235200785888
 30
0.0
 11
2023.233188121651
 21
999.235200785888
 31
0.0
  0
LINE
  5
E2
330
1F
100
AcDbEntity
  8
3-0
  6
Continuous
 62
     7
370
     9
100
AcDbLine
 10
1985.388999328365
 20
1001.157808207763
 30
0.0
 11
1965.561646340612
 21
1020.985161195517
 31
0.0
  0
LINE
  5
E3
330
1F
100
AcDbEntity
  8
3-0
  6
Continuous
 62
     7
370
     9
100
AcDbLine
 10
2022.127132114471
 20
996.6033071124294
 30
0.0
 11
2019.56167603339
 21
986.7349121060951
 31
0.0
  0
LINE
  5
E4
330
1F
100
AcDbEntity
  8
3-0
  6
Continuous
 62
     7
370
     9
100
AcDbLine
 10
1987.995282980181
 20
996.6033071124294
 30
0.0
 11
1990.561481380729
 21
986.7349121060951
 31
0.0
  0
LINE
  5
E5
330
1F
100
AcDbEntity
  8
3-0
  6
Continuous
 62
     7
370
     9
100
AcDbLine
 10
1985.061636443018
 20
986.7349121060951
 30
0.0
 11
2025.061520971101
 21
986.7349121060951
 31
0.0
  0
LINE
  5
E6
330
1F
100
AcDbEntity
  8
3-0
  6
Continuous
 62
     7
370
     9
100
AcDbLine
 10
1985.061636443018
 20
986.7349121060951
 30
0.0
 11
1988.854146604548
 21
993.303325917856
 31
0.0
  0
LINE
  5
E7
330
1F
100
AcDbEntity
  8
3-0
  6
Continuous
 62
     7
370
     9
100
AcDbLine
 10
2025.061520971101
 20
986.7349121060951
 30
0.0
 11
2021.26975312904
 21
993.303325917856
 31
0.0
  0
ARC
  5
E8
330
1F
100
AcDbEntity
  8
3-0
  6
Continuous
 62
     7
370
     9
100
AcDbCircle
 10
2031.805493337021
 20
994.0868441162302
 30
0.0
 40
9.999999403953552
100
AcDbArc
 50
135.0
 51
165.4257965087891
  0
ARC
  5
E9
330
1F
100
AcDbEntity
  8
3-0
  6
Continuous
 62
     7
370
     9
100
AcDbCircle
 10
1978.317664077098
 20
994.0868441162302
 30
0.0
 40
9.999999403953552
100
AcDbArc
 50
14.57420349121094
 51
45.0
  0
LINE
  5
EA
330
1F
100
AcDbEntity
  8
3-0
  6
Continuous
 62
     7
370
     9
100
AcDbLine
 10
1985.061636443018
 20
986.7349121060951
 30
0.0
 11
1985.061636443018
 21
967.4583967416302
 31
0.0
  0
LINE
  5
EB
330
1F
100
AcDbEntity
  8
3-0
  6
Continuous
 62
     7
370
     9
100
AcDbLine
 10
1990.561481380729
 20
986.7349121060951
 30
0.0
 11
1990.561481380729
 21
967.4583967416302
 31
0.0
  0
LINE
  5
EC
330
1F
100
AcDbEntity
  8
3-0
  6
Continuous
 62
     7
370
     9
100
AcDbLine
 10
2019.56167603339
 20
986.7349121060951
 30
0.0
 11
2019.56167603339
 21
967.4583967416302
 31
0.0
  0
LINE
  5
ED
330
1F
100
AcDbEntity
  8
3-0
  6
Continuous
 62
     7
370
     9
100
AcDbLine
 10
2025.061520971101
 20
986.7349121060951
 30
0.0
 11
2025.061520971101
 21
967.4583967416302
 31
0.0
  0
LINE
  5
EE
330
1F
100
AcDbEntity
  8
3-0
  6
Continuous
 62
     3
370
     9
100
AcDbLine
 10
1905.062609706321
 20
997.458495717559
 30
0.0
 11
1985.061949866794
 21
997.458495717559
 31
0.0
  0
LINE
  5
EF
330
1F
100
AcDbEntity
  8
3-0
  6
Continuous
 62
     3
370
     9
100
AcDbLine
 10
2025.061949866795
 20
997.458495717559
 30
0.0
 11
2105.062032346736
 21
997.458495717559
 31
0.0
  0
LINE
  5
F0
330
1F
100
AcDbEntity
  8
3-0
  6
Continuous
 62
     3
370
     9
100
AcDbLine
 10
1985.061949866794
 20
997.458495717559
 30
0.0
 11
1965.065067143186
 21
1022.458330757678
 31
0.0
  0
LINE
  5
F1
330
1F
100
AcDbEntity
  8
3-0
  6
Continuous
 62
     3
370
     9
100
AcDbLine
 10
1965.065067143186
 20
1022.458330757678
 30
0.0
 11
1920.061916874818
 21
1022.458330757678
 31
0.0
  0
LINE
  5
F2
330
1F
100
AcDbEntity
  8
3-0
  6
Continuous
 62
     3
370
     9
100
AcDbLine
 10
2055.061619947031
 20
1022.458330757678
 30
0.0
 11
2045.058832590404
 21
1022.458330757678
 31
0.0
  0
LINE
  5
F3
330
1F
100
AcDbEntity
  8
3-0
  6
Continuous
 62
     3
370
     9
100
AcDbLine
 10
2025.061949866795
 20
997.458495717559
 30
0.0
 11
2045.058832590404
 21
1022.458330757678
 31
0.0
  0
LINE
  5
F4
330
1F
100
AcDbEntity
  8
3-0
  6
JWW_CENTER2
 62
     4
370
     9
100
AcDbLine
 10
1006.444361825405
 20
1083.437529946936
 30
0.0
 11
1006.444361825405
 21
904.2452801599725
 31
0.0
  0
LINE
  5
F5
330
1F
100
AcDbEntity
  8
3-0
  6
Continuous
 62
     3
370
     9
100
AcDbLine
 10
1131.444361825405
 20
1197.461629955312
 30
0.0
 11
1131.444361825405
 21
997.458495717559
 31
0.0
  0
LINE
  5
F6
330
1F
100
AcDbEntity
  8
3-0
  6
Continuous
 62
     3
370
     9
100
AcDbLine
 10
1381.444939184991
 20
997.458495717559
 30
0.0
 11
1381.444939184991
 21
967.4583967416302
 31
0.0
  0
LINE
  5
F7
330
1F
100
AcDbEntity
  8
3-0
  6
Continuous
 62
     3
370
     9
100
AcDbLine
 10
677.5152648817822
 20
1197.461629955312
 30
0.0
 11
1529.493133864045
 21
1197.461629955312
 31
0.0
  0
LINE
  5
F8
330
1F
100
AcDbEntity
  8
3-0
  6
Continuous
 62
     3
370
     9
100
AcDbLine
 10
1381.444939184991
 20
997.458495717559
 30
0.0
 11
1381.357345487778
 21
995.3547623455153
 31
0.0
  0
LINE
  5
F9
330
1F
100
AcDbEntity
  8
3-0
  6
Continuous
 62
     3
370
     9
100
AcDbLine
 10
1381.357345487778
 20
995.3547623455153
 30
0.0
 11
1382.28895642
 21
993.026291754563
 31
0.0
  0
LINE
  5
FA
330
1F
100
AcDbEntity
  8
3-0
  6
Continuous
 62
     3
370
     9
100
AcDbLine
 10
1382.28895642
 20
993.026291754563
 30
0.0
 11
1382.28895642
 21
990.698192323345
 31
0.0
  0
LINE
  5
FB
330
1F
100
AcDbEntity
  8
3-0
  6
Continuous
 62
     3
370
     9
100
AcDbLine
 10
1382.28895642
 20
990.698192323345
 30
0.0
 11
1381.823522113624
 21
988.3697217323927
 31
0.0
  0
LINE
  5
FC
330
1F
100
AcDbEntity
  8
3-0
  6
Continuous
 62
     3
370
     9
100
AcDbLine
 10
1381.823522113624
 20
988.3697217323927
 30
0.0
 11
1384.152178284442
 21
987.438296380038
 31
0.0
  0
LINE
  5
FD
330
1F
100
AcDbEntity
  8
3-0
  6
Continuous
 62
     3
370
     9
100
AcDbLine
 10
1384.152178284442
 20
987.438296380038
 30
0.0
 11
1385.549223523041
 21
989.7667669709903
 31
0.0
  0
LINE
  5
FE
330
1F
100
AcDbEntity
  8
3-0
  6
Continuous
 62
     3
370
     9
100
AcDbLine
 10
1385.549223523041
 20
989.7667669709903
 30
0.0
 11
1387.411703068016
 21
990.232386857234
 31
0.0
  0
LINE
  5
FF
330
1F
100
AcDbEntity
  8
3-0
  6
Continuous
 62
     3
370
     9
100
AcDbLine
 10
1387.411703068016
 20
990.232386857234
 30
0.0
 11
1389.274182612989
 21
992.094866402209
 31
0.0
  0
LINE
  5
100
330
1F
100
AcDbEntity
  8
3-0
  6
Continuous
 62
     3
370
     9
100
AcDbLine
 10
1389.274182612989
 20
992.094866402209
 30
0.0
 11
1391.136662157964
 21
993.026291754563
 31
0.0
  0
LINE
  5
101
330
1F
100
AcDbEntity
  8
3-0
  6
Continuous
 62
     3
370
     9
100
AcDbLine
 10
1391.136662157964
 20
993.026291754563
 30
0.0
 11
1391.136662157964
 21
995.3547623455153
 31
0.0
  0
LINE
  5
102
330
1F
100
AcDbEntity
  8
3-0
  6
Continuous
 62
     3
370
     9
100
AcDbLine
 10
1391.136662157964
 20
995.3547623455153
 30
0.0
 11
1388.808005987145
 21
996.7516220042465
 31
0.0
  0
LINE
  5
103
330
1F
100
AcDbEntity
  8
3-0
  6
Continuous
 62
     3
370
     9
100
AcDbLine
 10
1388.808005987145
 20
996.7516220042465
 30
0.0
 11
1386.94552644217
 21
996.7516220042465
 31
0.0
  0
LINE
  5
104
330
1F
100
AcDbEntity
  8
3-0
  6
Continuous
 62
     3
370
     9
100
AcDbLine
 10
1386.94552644217
 20
996.7516220042465
 30
0.0
 11
1385.083046897195
 21
996.2860021180028
 31
0.0
  0
LINE
  5
105
330
1F
100
AcDbEntity
  8
3-0
  6
Continuous
 62
     3
370
     9
100
AcDbLine
 10
1385.083046897195
 20
996.2860021180028
 30
0.0
 11
1383.22056735222
 21
994.8891424592715
 31
0.0
  0
LINE
  5
106
330
1F
100
AcDbEntity
  8
3-0
  6
Continuous
 62
     3
370
     9
100
AcDbLine
 10
1383.22056735222
 20
994.8891424592715
 30
0.0
 11
1385.549223523041
 21
993.9577171069177
 31
0.0
  0
LINE
  5
107
330
1F
100
AcDbEntity
  8
3-0
  6
Continuous
 62
     3
370
     9
100
AcDbLine
 10
1383.22056735222
 20
994.8891424592715
 30
0.0
 11
1385.549223523041
 21
993.4920972206739
 31
0.0
  0
LINE
  5
108
330
1F
100
AcDbEntity
  8
3-0
  6
Continuous
 62
     3
370
     9
100
AcDbLine
 10
1385.549223523041
 20
993.4920972206739
 30
0.0
 11
1387.411703068016
 21
993.9577171069177
 31
0.0
  0
LINE
  5
109
330
1F
100
AcDbEntity
  8
3-0
  6
Continuous
 62
     3
370
     9
100
AcDbLine
 10
1387.411703068016
 20
993.9577171069177
 30
0.0
 11
1385.083046897195
 21
994.8891424592715
 31
0.0
  0
LINE
  5
10A
330
1F
100
AcDbEntity
  8
3-0
  6
Continuous
 62
     3
370
     9
100
AcDbLine
 10
1385.083046897195
 20
994.8891424592715
 30
0.0
 11
1383.22056735222
 21
993.4920972206739
 31
0.0
  0
LINE
  5
10B
330
1F
100
AcDbEntity
  8
3-0
  6
Continuous
 62
     3
370
     9
100
AcDbLine
 10
1383.22056735222
 20
993.4920972206739
 30
0.0
 11
1382.28895642
 21
991.1636266297215
 31
0.0
  0
LINE
  5
10C
330
1F
100
AcDbEntity
  8
3-0
  6
Continuous
 62
     3
370
     9
100
AcDbLine
 10
1382.28895642
 20
991.1636266297215
 30
0.0
 11
1384.617612590819
 21
991.6292465159653
 31
0.0
  0
LINE
  5
10D
330
1F
100
AcDbEntity
  8
3-0
  6
Continuous
 62
     3
370
     9
100
AcDbLine
 10
1384.617612590819
 20
991.6292465159653
 30
0.0
 11
1386.480092135794
 21
992.5606718683192
 31
0.0
  0
LINE
  5
10E
330
1F
100
AcDbEntity
  8
3-0
  6
Continuous
 62
     3
370
     9
100
AcDbLine
 10
1386.480092135794
 20
992.5606718683192
 30
0.0
 11
1384.152178284442
 21
992.5606718683192
 31
0.0
  0
LINE
  5
10F
330
1F
100
AcDbEntity
  8
3-0
  6
Continuous
 62
     3
370
     9
100
AcDbLine
 10
1384.152178284442
 20
992.5606718683192
 30
0.0
 11
1382.28895642
 21
991.6292465159653
 31
0.0
  0
LINE
  5
110
330
1F
100
AcDbEntity
  8
3-0
  6
Continuous
 62
     3
370
     9
100
AcDbLine
 10
1382.28895642
 20
991.6292465159653
 30
0.0
 11
1384.617612590819
 21
991.6292465159653
 31
0.0
  0
LINE
  5
111
330
1F
100
AcDbEntity
  8
3-0
  6
Continuous
 62
     3
370
     9
100
AcDbLine
 10
1384.617612590819
 20
991.6292465159653
 30
0.0
 11
1387.411703068016
 21
992.5606718683192
 31
0.0
  0
LINE
  5
112
330
1F
100
AcDbEntity
  8
3-0
  6
Continuous
 62
     3
370
     9
100
AcDbLine
 10
1387.411703068016
 20
992.5606718683192
 30
0.0
 11
1389.274182612989
 21
993.9577171069177
 31
0.0
  0
LINE
  5
113
330
1F
100
AcDbEntity
  8
3-0
  6
Continuous
 62
     3
370
     9
100
AcDbLine
 10
1389.274182612989
 20
993.9577171069177
 30
0.0
 11
1386.94552644217
 21
993.9577171069177
 31
0.0
  0
LINE
  5
114
330
1F
100
AcDbEntity
  8
3-0
  6
Continuous
 62
     3
370
     9
100
AcDbLine
 10
1386.94552644217
 20
993.9577171069177
 30
0.0
 11
1385.083046897195
 21
992.094866402209
 31
0.0
  0
LINE
  5
115
330
1F
100
AcDbEntity
  8
3-0
  6
Continuous
 62
     3
370
     9
100
AcDbLine
 10
1385.083046897195
 20
992.094866402209
 30
0.0
 11
1388.342571680769
 21
993.4920972206739
 31
0.0
  0
LINE
  5
116
330
1F
100
AcDbEntity
  8
3-0
  6
Continuous
 62
     3
370
     9
100
AcDbLine
 10
1388.342571680769
 20
993.4920972206739
 30
0.0
 11
1390.205051225742
 21
994.4233369931615
 31
0.0
  0
LINE
  5
117
330
1F
100
AcDbEntity
  8
3-0
  6
Continuous
 62
     3
370
     9
100
AcDbLine
 10
1390.205051225742
 20
994.4233369931615
 30
0.0
 11
1387.877137374392
 21
992.5606718683192
 31
0.0
  0
LINE
  5
118
330
1F
100
AcDbEntity
  8
3-0
  6
Continuous
 62
     3
370
     9
100
AcDbLine
 10
1387.877137374392
 20
992.5606718683192
 30
0.0
 11
1388.342571680769
 21
994.8891424592715
 31
0.0
  0
LINE
  5
119
330
1F
100
AcDbEntity
  8
3-0
  6
Continuous
 62
     3
370
     9
100
AcDbLine
 10
1388.342571680769
 20
994.8891424592715
 30
0.0
 11
1384.152178284442
 21
994.8891424592715
 31
0.0
  0
LINE
  5
11A
330
1F
100
AcDbEntity
  8
3-0
  6
Continuous
 62
     3
370
     9
100
AcDbLine
 10
1384.152178284442
 20
994.8891424592715
 30
0.0
 11
1383.22056735222
 21
997.2172418904903
 31
0.0
  0
LINE
  5
11B
330
1F
100
AcDbEntity
  8
3-0
  6
Continuous
 62
     3
370
     9
100
AcDbLine
 10
1383.22056735222
 20
997.2172418904903
 30
0.0
 11
1383.22056735222
 21
994.8891424592715
 31
0.0
  0
LINE
  5
11C
330
1F
100
AcDbEntity
  8
3-0
  6
Continuous
 62
     3
370
     9
100
AcDbLine
 10
1383.22056735222
 20
994.8891424592715
 30
0.0
 11
1381.357345487778
 21
993.4920972206739
 31
0.0
  0
LINE
  5
11D
330
1F
100
AcDbEntity
  8
3-0
  6
Continuous
 62
     3
370
     9
100
AcDbLine
 10
1381.357345487778
 20
993.4920972206739
 30
0.0
 11
1381.357345487778
 21
991.1636266297215
 31
0.0
  0
LINE
  5
11E
330
1F
100
AcDbEntity
  8
3-0
  6
Continuous
 62
     3
370
     9
100
AcDbLine
 10
1381.357345487778
 20
991.1636266297215
 30
0.0
 11
1383.686001658597
 21
992.094866402209
 31
0.0
  0
LINE
  5
11F
330
1F
100
AcDbEntity
  8
3-0
  6
Continuous
 62
     3
370
     9
100
AcDbLine
 10
1383.686001658597
 20
992.094866402209
 30
0.0
 11
1383.22056735222
 21
989.7667669709903
 31
0.0
  0
LINE
  5
120
330
1F
100
AcDbEntity
  8
3-0
  6
Continuous
 62
     3
370
     9
100
AcDbLine
 10
1383.22056735222
 20
989.7667669709903
 30
0.0
 11
1382.755133045844
 21
989.3011470847465
 31
0.0
  0
ARC
  5
121
330
1F
100
AcDbEntity
  8
3-0
  6
Continuous
 62
     3
370
     9
100
AcDbCircle
 10
1140.836930052813
 20
997.8059012285387
 30
0.0
 40
9.508535346469364
100
AcDbArc
 50
182.1183013916016
 51
357.9061584472656
  0
ARC
  5
122
330
1F
100
AcDbEntity
  8
3-0
  6
Continuous
 62
     3
370
     9
100
AcDbCircle
 10
1159.841050750658
 20
997.8059012285387
 30
0.0
 40
9.508535346469364
100
AcDbArc
 50
182.1183013916016
 51
357.9061584472656
  0
ARC
  5
123
330
1F
100
AcDbEntity
  8
3-0
  6
Continuous
 62
     3
370
     9
100
AcDbCircle
 10
1178.845171448505
 20
997.8059012285387
 30
0.0
 40
9.508535346469364
100
AcDbArc
 50
182.1183013916016
 51
357.9061584472656
  0
ARC
  5
124
330
1F
100
AcDbEntity
  8
3-0
  6
Continuous
 62
     3
370
     9
100
AcDbCircle
 10
1197.849292146352
 20
997.8059012285387
 30
0.0
 40
9.508535346469364
100
AcDbArc
 50
182.1183013916016
 51
357.9061584472656
  0
ARC
  5
125
330
1F
100
AcDbEntity
  8
3-0
  6
Continuous
 62
     3
370
     9
100
AcDbCircle
 10
1216.853412844197
 20
997.8059012285387
 30
0.0
 40
9.508535346469364
100
AcDbArc
 50
182.1183013916016
 51
357.9061584472656
  0
ARC
  5
126
330
1F
100
AcDbEntity
  8
3-0
  6
Continuous
 62
     3
370
     9
100
AcDbCircle
 10
1235.857533542044
 20
997.8059012285387
 30
0.0
 40
9.508535346469364
100
AcDbArc
 50
182.1183013916016
 51
357.9061584472656
  0
ARC
  5
127
330
1F
100
AcDbEntity
  8
3-0
  6
Continuous
 62
     3
370
     9
100
AcDbCircle
 10
1254.861654239889
 20
997.8059012285387
 30
0.0
 40
9.508535346469364
100
AcDbArc
 50
182.1183013916016
 51
357.9061584472656
  0
ARC
  5
128
330
1F
100
AcDbEntity
  8
3-0
  6
Continuous
 62
     3
370
     9
100
AcDbCircle
 10
1273.865774937736
 20
997.8059012285387
 30
0.0
 40
9.508535346469364
100
AcDbArc
 50
182.1183013916016
 51
357.9061584472656
  0
ARC
  5
129
330
1F
100
AcDbEntity
  8
3-0
  6
Continuous
 62
     3
370
     9
100
AcDbCircle
 10
1292.869895635583
 20
997.8059012285387
 30
0.0
 40
9.508535346469364
100
AcDbArc
 50
182.1183013916016
 51
357.9061584472656
  0
ARC
  5
12A
330
1F
100
AcDbEntity
  8
3-0
  6
Continuous
 62
     3
370
     9
100
AcDbCircle
 10
1311.874016333428
 20
997.8059012285387
 30
0.0
 40
9.508535346469364
100
AcDbArc
 50
182.1183013916016
 51
357.9061584472656
  0
ARC
  5
12B
330
1F
100
AcDbEntity
  8
3-0
  6
Continuous
 62
     3
370
     9
100
AcDbCircle
 10
1330.878137031275
 20
997.8059012285387
 30
0.0
 40
9.508535346469364
100
AcDbArc
 50
182.1183013916016
 51
357.9061584472656
  0
ARC
  5
12C
330
1F
100
AcDbEntity
  8
3-0
  6
Continuous
 62
     3
370
     9
100
AcDbCircle
 10
1349.882257729122
 20
997.8059012285387
 30
0.0
 40
9.508535346469364
100
AcDbArc
 50
182.1183013916016
 51
357.9061584472656
  0
ARC
  5
12D
330
1F
100
AcDbEntity
  8
3-0
  6
Continuous
 62
     3
370
     9
100
AcDbCircle
 10
1368.886378426967
 20
997.8059012285387
 30
0.0
 40
9.508535346469364
100
AcDbArc
 50
182.1183013916016
 51
357.9061584472656
  0
LINE
  5
12E
330
1F
100
AcDbEntity
  8
3-4
  6
Continuous
 62
     3
370
     9
100
AcDbLine
 10
864.5895774940111
 20
997.458495717559
 30
0.0
 11
864.5895774940111
 21
967.4583967416302
 31
0.0
  0
LINE
  5
12F
330
1F
100
AcDbEntity
  8
3-0
  6
Continuous
 62
     3
370
     9
100
AcDbLine
 10
864.5895774940111
 20
967.4583967416302
 30
0.0
 11
1381.444939184991
 21
967.4583967416302
 31
0.0
  0
LINE
  5
130
330
1F
100
AcDbEntity
  8
3-0
  6
Continuous
 62
     4
370
     9
100
AcDbLine
 10
687.4059294721541
 20
1114.59112593689
 30
0.0
 11
677.5152648817822
 21
1108.880647850161
 31
0.0
  0
LINE
  5
131
330
1F
100
AcDbEntity
  8
3-0
  6
Continuous
 62
     4
370
     9
100
AcDbLine
 10
677.5152648817822
 20
1217.461757799221
 30
0.0
 11
677.5152648817822
 21
1108.880647850161
 31
0.0
  0
LINE
  5
132
330
1F
100
AcDbEntity
  8
3-0
  6
Continuous
 62
     4
370
     9
100
AcDbLine
 10
667.6246002914103
 20
1080.328999735982
 30
0.0
 11
687.4059294721541
 21
1114.59112593689
 31
0.0
  0
LINE
  5
133
330
1F
100
AcDbEntity
  8
3-0
  6
Continuous
 62
     4
370
     9
100
AcDbLine
 10
667.6246002914103
 20
1080.328999735982
 30
0.0
 11
677.5152648817822
 21
1086.039477822711
 31
0.0
  0
LINE
  5
134
330
1F
100
AcDbEntity
  8
3-0
  6
Continuous
 62
     4
370
     9
100
AcDbLine
 10
677.5152648817822
 20
1086.039477822711
 30
0.0
 11
677.5152648817822
 21
977.4585534535177
 31
0.0
  0
LINE
  5
135
330
1F
100
AcDbEntity
  8
3-0
  6
Continuous
 62
     4
370
     9
100
AcDbLine
 10
1539.383798454417
 20
1114.59112593689
 30
0.0
 11
1529.493133864045
 21
1108.880647850161
 31
0.0
  0
LINE
  5
136
330
1F
100
AcDbEntity
  8
3-0
  6
Continuous
 62
     4
370
     9
100
AcDbLine
 10
1529.493133864045
 20
1217.461757799221
 30
0.0
 11
1529.493133864045
 21
1108.880647850161
 31
0.0
  0
LINE
  5
137
330
1F
100
AcDbEntity
  8
3-0
  6
Continuous
 62
     4
370
     9
100
AcDbLine
 10
1519.602469273673
 20
1080.328999735982
 30
0.0
 11
1539.383798454417
 21
1114.59112593689
 31
0.0
  0
LINE
  5
138
330
1F
100
AcDbEntity
  8
3-0
  6
Continuous
 62
     4
370
     9
100
AcDbLine
 10
1519.602469273673
 20
1080.328999735982
 30
0.0
 11
1529.493133864045
 21
1086.039477822711
 31
0.0
  0
LINE
  5
139
330
1F
100
AcDbEntity
  8
3-0
  6
Continuous
 62
     4
370
     9
100
AcDbLine
 10
1529.493133864045
 20
1086.039477822711
 30
0.0
 11
1529.493133864045
 21
977.4585534535177
 31
0.0
  0
LINE
  5
13A
330
1F
100
AcDbEntity
  8
3-0
  6
Continuous
 62
     7
370
     9
100
AcDbLine
 10
1043.944114385582
 20
930.566789405534
 30
0.0
 11
1043.944114385582
 21
959.4587909957473
 31
0.0
  0
LINE
  5
13B
330
1F
100
AcDbEntity
  8
3-0
  6
Continuous
 62
     7
370
     9
100
AcDbLine
 10
1025.179762875869
 20
930.566789405534
 30
0.0
 11
1025.179762875869
 21
959.4587909957473
 31
0.0
  0
LINE
  5
13C
330
1F
100
AcDbEntity
  8
3-0
  6
Continuous
 62
     7
370
     9
100
AcDbLine
 10
987.7074761360042
 20
930.566789405534
 30
0.0
 11
987.7074761360042
 21
959.4587909957473
 31
0.0
  0
LINE
  5
13D
330
1F
100
AcDbEntity
  8
3-0
  6
Continuous
 62
     7
370
     9
100
AcDbLine
 10
1034.561938630725
 20
926.9583744720466
 30
0.0
 11
978.326042700616
 21
926.9583744720466
 31
0.0
  0
LINE
  5
13E
330
1F
100
AcDbEntity
  8
3-0
  6
Continuous
 62
     7
370
     9
100
AcDbLine
 10
1045.193438050067
 20
959.4587909957473
 30
0.0
 11
1045.193438050067
 21
967.4583967416302
 31
0.0
  0
LINE
  5
13F
330
1F
100
AcDbEntity
  8
3-0
  6
Continuous
 62
     7
370
     9
100
AcDbLine
 10
968.9438669457597
 20
930.566789405534
 30
0.0
 11
968.9438669457597
 21
959.4587909957473
 31
0.0
  0
LINE
  5
140
330
1F
100
AcDbEntity
  8
3-0
  6
Continuous
 62
     7
370
     9
100
AcDbLine
 10
1045.193438050067
 20
959.4587909957473
 30
0.0
 11
967.6938009618066
 21
959.4587909957473
 31
0.0
  0
LINE
  5
141
330
1F
100
AcDbEntity
  8
3-0
  6
Continuous
 62
     7
370
     9
100
AcDbLine
 10
967.6938009618066
 20
959.4587909957473
 30
0.0
 11
967.6938009618066
 21
967.4583967416302
 31
0.0
  0
LINE
  5
142
330
1F
100
AcDbEntity
  8
3-0
  6
Continuous
 62
     7
370
     9
100
AcDbLine
 10
991.9438933393401
 20
926.9583744720466
 30
0.0
 11
991.9438933393401
 21
922.462516614677
 31
0.0
  0
LINE
  5
143
330
1F
100
AcDbEntity
  8
3-0
  6
Continuous
 62
     7
370
     9
100
AcDbLine
 10
1020.944087992001
 20
926.9583744720466
 30
0.0
 11
1020.944087992001
 21
922.462516614677
 31
0.0
  0
LINE
  5
144
330
1F
100
AcDbEntity
  8
3-0
  6
Continuous
 62
     7
370
     9
100
AcDbLine
 10
991.9438933393401
 20
922.462516614677
 30
0.0
 11
987.448406641705
 21
926.9583744720466
 31
0.0
  0
LINE
  5
145
330
1F
100
AcDbEntity
  8
3-0
  6
Continuous
 62
     7
370
     9
100
AcDbLine
 10
1020.944087992001
 20
922.462516614677
 30
0.0
 11
1025.440317009104
 21
926.9583744720466
 31
0.0
  0
LINE
  5
146
330
1F
100
AcDbEntity
  8
3-0
  6
Continuous
 62
     7
370
     9
100
AcDbLine
 10
991.9438933393401
 20
922.462516614677
 30
0.0
 11
1020.944087992001
 21
922.462516614677
 31
0.0
  0
ARC
  5
147
330
1F
100
AcDbEntity
  8
3-0
  6
Continuous
 62
     7
370
     9
100
AcDbCircle
 10
1034.561938630725
 20
940.9592619562098
 30
0.0
 40
14.00086573652319
100
AcDbArc
 50
227.9255676269531
 51
312.0746307373047
  0
ARC
  5
148
330
1F
100
AcDbEntity
  8
3-0
  6
Continuous
 62
     7
370
     9
100
AcDbCircle
 10
1006.444361825405
 20
977.405477611563
 30
0.0
 40
50.44705094517889
100
AcDbArc
 50
248.1978607177734
 51
291.8021392822266
  0
ARC
  5
149
330
1F
100
AcDbEntity
  8
3-0
  6
Continuous
 62
     7
370
     9
100
AcDbCircle
 10
978.326042700616
 20
940.9592619562098
 30
0.0
 40
14.00094692771499
100
AcDbArc
 50
227.9257202148438
 51
312.0742797851562
  0
LINE
  5
14A
330
1F
100
AcDbEntity
  8
3-0
  6
Continuous
 62
     3
370
     9
100
AcDbLine
 10
981.4443618254047
 20
997.458495717559
 30
0.0
 11
981.4443618254047
 21
967.4583967416302
 31
0.0
  0
LINE
  5
14B
330
1F
100
AcDbEntity
  8
3-0
  6
Continuous
 62
     3
370
     9
100
AcDbLine
 10
1031.444361825405
 20
997.458495717559
 30
0.0
 11
1031.444361825405
 21
967.4583967416302
 31
0.0
  0
LINE
  5
14C
330
1F
100
AcDbEntity
  8
3-0
  6
Continuous
 62
     3
370
     9
100
AcDbLine
 10
677.5152648817822
 20
997.458495717559
 30
0.0
 11
986.4443618254053
 21
997.458495717559
 31
0.0
  0
LINE
  5
14D
330
1F
100
AcDbEntity
  8
3-0
  6
Continuous
 62
     3
370
     9
100
AcDbLine
 10
1026.444361825405
 20
997.458495717559
 30
0.0
 11
1529.493133864045
 21
997.458495717559
 31
0.0
  0
LINE
  5
14E
330
1F
100
AcDbEntity
  8
3-0
  6
Continuous
 62
     3
370
     9
100
AcDbLine
 10
966.4443618254047
 20
1022.462227934884
 30
0.0
 11
677.5152648817822
 21
1022.462227934884
 31
0.0
  0
LINE
  5
14F
330
1F
100
AcDbEntity
  8
3-0
  6
Continuous
 62
     3
370
     9
100
AcDbLine
 10
1529.493133864045
 20
1022.462227934884
 30
0.0
 11
1046.444361825405
 21
1022.462227934884
 31
0.0
  0
LINE
  5
150
330
1F
100
AcDbEntity
  8
3-0
  6
Continuous
 62
     3
370
     9
100
AcDbLine
 10
986.4443618254053
 20
997.458495717559
 30
0.0
 11
966.4443618254047
 21
1022.462227934884
 31
0.0
  0
LINE
  5
151
330
1F
100
AcDbEntity
  8
3-0
  6
Continuous
 62
     3
370
     9
100
AcDbLine
 10
1026.444361825405
 20
997.458495717559
 30
0.0
 11
1046.444361825405
 21
1022.462227934884
 31
0.0
  0
LINE
  5
152
330
1F
100
AcDbEntity
  8
3-0
  6
JWW_DASHED1
 62
     7
370
     9
100
AcDbLine
 10
966.9440582992222
 20
1022.485017680419
 30
0.0
 11
966.9440582992222
 21
1020.985161195517
 31
0.0
  0
LINE
  5
153
330
1F
100
AcDbEntity
  8
3-0
  6
JWW_DASHED1
 62
     7
370
     9
100
AcDbLine
 10
1045.943923032119
 20
1022.485017680419
 30
0.0
 11
1045.943923032119
 21
1020.985161195517
 31
0.0
  0
LINE
  5
154
330
1F
100
AcDbEntity
  8
3-0
  6
Continuous
 62
     7
370
     9
100
AcDbLine
 10
966.9440582992222
 20
1022.485017680419
 30
0.0
 11
1045.943923032119
 21
1022.485017680419
 31
0.0
  0
LINE
  5
155
330
1F
100
AcDbEntity
  8
3-0
  6
Continuous
 62
     7
370
     9
100
AcDbLine
 10
966.9440582992222
 20
1020.985161195517
 30
0.0
 11
1045.943923032119
 21
1020.985161195517
 31
0.0
  0
LINE
  5
156
330
1F
100
AcDbEntity
  8
3-0
  6
Continuous
 62
     7
370
     9
100
AcDbLine
 10
1026.116570044366
 20
1001.157808207763
 30
0.0
 11
1045.943923032119
 21
1020.985161195517
 31
0.0
  0
LINE
  5
157
330
1F
100
AcDbEntity
  8
3-0
  6
Continuous
 62
     7
370
     9
100
AcDbLine
 10
988.27238125108
 20
999.235200785888
 30
0.0
 11
1024.615600080261
 21
999.235200785888
 31
0.0
  0
LINE
  5
158
330
1F
100
AcDbEntity
  8
3-0
  6
Continuous
 62
     7
370
     9
100
AcDbLine
 10
986.7714112869753
 20
1001.157808207763
 30
0.0
 11
966.9440582992222
 21
1020.985161195517
 31
0.0
  0
LINE
  5
159
330
1F
100
AcDbEntity
  8
3-0
  6
Continuous
 62
     7
370
     9
100
AcDbLine
 10
1023.509544073082
 20
996.6033071124294
 30
0.0
 11
1020.944087992001
 21
986.7349121060951
 31
0.0
  0
LINE
  5
15A
330
1F
100
AcDbEntity
  8
3-0
  6
Continuous
 62
     7
370
     9
100
AcDbLine
 10
989.3776949387917
 20
996.6033071124294
 30
0.0
 11
991.9438933393401
 21
986.7349121060951
 31
0.0
  0
LINE
  5
15B
330
1F
100
AcDbEntity
  8
3-0
  6
Continuous
 62
     7
370
     9
100
AcDbLine
 10
986.4440484016292
 20
986.7349121060951
 30
0.0
 11
1026.443932929712
 21
986.7349121060951
 31
0.0
  0
LINE
  5
15C
330
1F
100
AcDbEntity
  8
3-0
  6
Continuous
 62
     7
370
     9
100
AcDbLine
 10
986.4440484016292
 20
986.7349121060951
 30
0.0
 11
990.2365585631582
 21
993.303325917856
 31
0.0
  0
LINE
  5
15D
330
1F
100
AcDbEntity
  8
3-0
  6
Continuous
 62
     7
370
     9
100
AcDbLine
 10
1026.443932929712
 20
986.7349121060951
 30
0.0
 11
1022.652165087651
 21
993.303325917856
 31
0.0
  0
ARC
  5
15E
330
1F
100
AcDbEntity
  8
3-0
  6
Continuous
 62
     7
370
     9
100
AcDbCircle
 10
1033.187905295632
 20
994.0868441162302
 30
0.0
 40
9.999999403953552
100
AcDbArc
 50
135.0
 51
165.4257965087891
  0
ARC
  5
15F
330
1F
100
AcDbEntity
  8
3-0
  6
Continuous
 62
     7
370
     9
100
AcDbCircle
 10
979.7000760357089
 20
994.0868441162302
 30
0.0
 40
9.999999403953552
100
AcDbArc
 50
14.57420349121094
 51
45.0
  0
LINE
  5
160
330
1F
100
AcDbEntity
  8
3-0
  6
Continuous
 62
     7
370
     9
100
AcDbLine
 10
986.4440484016292
 20
986.7349121060951
 30
0.0
 11
986.4440484016292
 21
967.4583967416302
 31
0.0
  0
LINE
  5
161
330
1F
100
AcDbEntity
  8
3-0
  6
Continuous
 62
     7
370
     9
100
AcDbLine
 10
991.9438933393401
 20
986.7349121060951
 30
0.0
 11
991.9438933393401
 21
967.4583967416302
 31
0.0
  0
LINE
  5
162
330
1F
100
AcDbEntity
  8
3-0
  6
Continuous
 62
     7
370
     9
100
AcDbLine
 10
1020.944087992001
 20
986.7349121060951
 30
0.0
 11
1020.944087992001
 21
967.4583967416302
 31
0.0
  0
LINE
  5
163
330
1F
100
AcDbEntity
  8
3-0
  6
Continuous
 62
     7
370
     9
100
AcDbLine
 10
1026.443932929712
 20
986.7349121060951
 30
0.0
 11
1026.443932929712
 21
967.4583967416302
 31
0.0
  0
TEXT
  5
164
330
1F
100
AcDbEntity
  8
3-0
  6
Continuous
 62
     7
370
     9
100
AcDbText
 10
1228.903369234327
 20
820.6309087826718
 30
0.0
 40
34.29
  1
皿ネジ･平座金･六角ナット
 41
1.152777777777778
  7
ＭＳ ゴシック
100
AcDbText
  0
TEXT
  5
165
330
1F
100
AcDbEntity
  8
3-0
  6
Continuous
 62
     7
370
     9
100
AcDbText
 10
1245.669513627451
 20
755.4292361427462
 30
0.0
 40
34.29
  1
M8･S20C･ユニクロ
 41
1.145833333333333
  7
ＭＳ ゴシック
100
AcDbText
  0
LINE
  5
166
330
1F
100
AcDbEntity
  8
3-5
  6
Continuous
 62
     7
370
     9
100
AcDbLine
 10
1218.765700531508
 20
805.6950448645184
 30
0.0
 11
1849.432028108397
 21
805.6950448645184
 31
0.0
  0
LINE
  5
167
330
1F
100
AcDbEntity
  8
3-4
  6
Continuous
 62
     7
370
     9
100
AcDbLine
 10
2214.919373678989
 20
967.4585823214974
 30
0.0
 11
2214.919373678989
 21
1197.458475097574
 31
0.0
  0
LWPOLYLINE
  5
168
330
1F
100
AcDbEntity
  8
3-4
  6
Continuous
 62
     7
370
     9
100
AcDbPolyline
 90
        4
 70
     1
 43
1.5
 10
2215.66937367899
 20
967.4585823214974
 42
0.4142135623731
 10
2214.919373678989
 20
968.2085823214973
 42
0.4142135623731
 10
2214.169373678989
 20
967.4585823214974
 42
0.4142135623731
 10
2214.919373678989
 20
966.7085823214974
 42
0.4142135623731
  0
LWPOLYLINE
  5
169
330
1F
100
AcDbEntity
  8
3-4
  6
Continuous
 62
     7
370
     9
100
AcDbPolyline
 90
        4
 70
     1
 43
1.5
 10
2215.66937367899
 20
997.458495717559
 42
0.4142135623731
 10
2214.919373678989
 20
998.208495717559
 42
0.4142135623731
 10
2214.169373678989
 20
997.458495717559
 42
0.4142135623731
 10
2214.919373678989
 20
996.7084957175591
 42
0.4142135623731
  0
LINE
  5
16A
330
1F
100
AcDbEntity
  8
3-4
  6
Continuous
 62
     7
370
     9
100
AcDbLine
 10
2307.088093853013
 20
967.4585823214974
 30
0.0
 11
2128.620477257685
 21
967.4585823214974
 31
0.0
  0
LINE
  5
16B
330
1F
100
AcDbEntity
  8
3-4
  6
Continuous
 62
     7
370
     9
100
AcDbLine
 10
2219.41937367899
 20
997.458495717559
 30
0.0
 11
2128.620477257685
 21
997.458495717559
 31
0.0
  0
TEXT
  5
16C
330
1F
100
AcDbEntity
  8
3-4
  6
Continuous
 62
     7
370
   211
100
AcDbText
 10
2197.45937367899
 20
967.4585390195277
 30
0.0
 40
45.72
  1
6
 50
90.0
  7
ＭＳ ゴシック
100
AcDbText
  0
LWPOLYLINE
  5
16D
330
1F
100
AcDbEntity
  8
3-4
  6
Continuous
 62
     7
370
     9
100
AcDbPolyline
 90
        4
 70
     1
 43
1.5
 10
2215.66937367899
 20
1197.458475097574
 42
0.4142135623731
 10
2214.919373678989
 20
1198.208475097574
 42
0.4142135623731
 10
2214.169373678989
 20
1197.458475097574
 42
0.4142135623731
 10
2214.919373678989
 20
1196.708475097574
 42
0.4142135623731
  0
LINE
  5
16E
330
1F
100
AcDbEntity
  8
3-4
  6
Continuous
 62
     7
370
     9
100
AcDbLine
 10
2307.088093853013
 20
1197.458475097574
 30
0.0
 11
2128.620477257685
 21
1197.458475097574
 31
0.0
  0
TEXT
  5
16F
330
1F
100
AcDbEntity
  8
3-4
  6
Continuous
 62
     7
370
   211
100
AcDbText
 10
2197.45937367899
 20
1065.583485407566
 30
0.0
 40
45.72
  1
40
 50
90.0
 41
1.0625
  7
ＭＳ ゴシック
100
AcDbText
  0
LINE
  5
170
330
1F
100
AcDbEntity
  8
3-4
  6
Continuous
 62
     7
370
     9
100
AcDbLine
 10
2302.588093853012
 20
967.4585823214974
 30
0.0
 11
2302.588093853012
 21
1197.458475097574
 31
0.0
  0
LWPOLYLINE
  5
171
330
1F
100
AcDbEntity
  8
3-4
  6
Continuous
 62
     7
370
     9
100
AcDbPolyline
 90
        4
 70
     1
 43
1.5
 10
2303.338093853013
 20
967.4585823214974
 42
0.4142135623731
 10
2302.588093853012
 20
968.2085823214973
 42
0.4142135623731
 10
2301.838093853012
 20
967.4585823214974
 42
0.4142135623731
 10
2302.588093853012
 20
966.7085823214974
 42
0.4142135623731
  0
LWPOLYLINE
  5
172
330
1F
100
AcDbEntity
  8
3-4
  6
Continuous
 62
     7
370
     9
100
AcDbPolyline
 90
        4
 70
     1
 43
1.5
 10
2303.338093853013
 20
1197.458475097574
 42
0.4142135623731
 10
2302.588093853012
 20
1198.208475097574
 42
0.4142135623731
 10
2301.838093853012
 20
1197.458475097574
 42
0.4142135623731
 10
2302.588093853012
 20
1196.708475097574
 42
0.4142135623731
  0
TEXT
  5
173
330
1F
100
AcDbEntity
  8
3-4
  6
Continuous
 62
     7
370
   211
100
AcDbText
 10
2285.128093853013
 20
1050.583528709536
 30
0.0
 40
45.72
  1
46
 50
90.0
 41
1.0625
  7
ＭＳ ゴシック
100
AcDbText
  0
LINE
  5
174
330
1F
100
AcDbEntity
  8
3-4
  6
Continuous
 62
     7
370
     9
100
AcDbLine
 10
1905.062609706321
 20
1294.394657781721
 30
0.0
 11
2105.062032346736
 21
1294.394657781721
 31
0.0
  0
LWPOLYLINE
  5
175
330
1F
100
AcDbEntity
  8
3-4
  6
Continuous
 62
     7
370
     9
100
AcDbPolyline
 90
        4
 70
     1
 43
1.5
 10
1905.812609706321
 20
1294.394657781721
 42
0.4142135623731
 10
1905.062609706321
 20
1295.144657781721
 42
0.4142135623731
 10
1904.312609706321
 20
1294.394657781721
 42
0.4142135623731
 10
1905.062609706321
 20
1293.644657781721
 42
0.4142135623731
  0
LWPOLYLINE
  5
176
330
1F
100
AcDbEntity
  8
3-4
  6
Continuous
 62
     7
370
     9
100
AcDbPolyline
 90
        4
 70
     1
 43
1.5
 10
2105.812032346736
 20
1294.394657781721
 42
0.4142135623731
 10
2105.062032346736
 20
1295.144657781721
 42
0.4142135623731
 10
2104.312032346735
 20
1294.394657781721
 42
0.4142135623731
 10
2105.062032346736
 20
1293.644657781721
 42
0.4142135623731
  0
LINE
  5
177
330
1F
100
AcDbEntity
  8
3-4
  6
Continuous
 62
     7
370
     9
100
AcDbLine
 10
2105.062032346736
 20
1298.894657781721
 30
0.0
 11
2105.062032346736
 21
1214.944880124013
 31
0.0
  0
TEXT
  5
178
330
1F
100
AcDbEntity
  8
3-4
  6
Continuous
 62
     7
370
   211
100
AcDbText
 10
1973.187321026528
 20
1311.85465778172
 30
0.0
 40
45.72
  1
40
 41
1.062500000000014
  7
ＭＳ ゴシック
100
AcDbText
  0
LINE
  5
179
330
1F
100
AcDbEntity
  8
3-4
  6
Continuous
 62
     7
370
     9
100
AcDbLine
 10
1905.062609706321
 20
1298.894657781721
 30
0.0
 11
1905.062609706321
 21
1073.853033593944
 31
0.0
  0
LINE
  5
17A
330
1F
100
AcDbEntity
  8
3-5
  6
Continuous
 62
     7
370
     9
100
AcDbLine
 10
1218.765700531508
 20
805.6950448645184
 30
0.0
 11
1006.444361825405
 21
922.462516614677
 31
0.0
  0
TEXT
  5
17B
330
1F
100
AcDbEntity
  8
3-0
  6
Continuous
 62
     7
370
     9
100
AcDbText
 10
1200.520905580116
 20
601.7638391575994
 30
0.0
 40
45.72
  1
接続部詳細図　Ｓ＝１：３
 41
1.114583333333333
  7
ＭＳ ゴシック
100
AcDbText
  0
LINE
  5
17C
330
1F
100
AcDbEntity
  8
3-5
  6
Continuous
 62
     7
370
     9
100
AcDbLine
 10
1190.920483305552
 20
575.7608780457888
 30
0.0
 11
1987.529209490114
 21
575.7608780457888
 31
0.0
  0
LINE
  5
17D
330
1F
100
AcDbEntity
  8
3-4
  6
Continuous
 62
     7
370
     9
100
AcDbLine
 10
1538.398572804852
 20
-925.7750765408912
 30
0.0
 11
1633.398843810371
 21
-925.7750765408912
 31
0.0
  0
LINE
  5
17E
330
1F
100
AcDbEntity
  8
3-2
  6
Continuous
 62
     3
370
     9
100
AcDbLine
 10
1658.39975108972
 20
-295.9583986318736
 30
0.0
 11
1458.398843810372
 21
-295.9583986318736
 31
0.0
  0
LINE
  5
17F
330
1F
100
AcDbEntity
  8
3-2
  6
Continuous
 62
     3
370
     9
100
AcDbLine
 10
1658.39975108972
 20
-95.95786251225803
 30
0.0
 11
1653.401714112314
 21
-95.95786251225803
 31
0.0
  0
LINE
  5
180
330
1F
100
AcDbEntity
  8
3-2
  6
Continuous
 62
     3
370
     9
100
AcDbLine
 10
1633.40065836907
 20
-245.9605843503068
 30
0.0
 11
1633.40065836907
 21
-115.9581759360334
 31
0.0
  0
LINE
  5
181
330
1F
100
AcDbEntity
  8
3-2
  6
Continuous
 62
     3
370
     9
100
AcDbLine
 10
1458.398843810372
 20
-295.9583986318736
 30
0.0
 11
1458.398843810372
 21
-290.9599904947327
 31
0.0
  0
LINE
  5
182
330
1F
100
AcDbEntity
  8
3-2
  6
Continuous
 62
     3
370
     9
100
AcDbLine
 10
1608.402307967887
 20
-270.9596770709572
 30
0.0
 11
1478.399899553614
 21
-270.9596770709572
 31
0.0
  0
LINE
  5
183
330
1F
100
AcDbEntity
  8
3-2
  6
Continuous
 62
     3
370
     9
100
AcDbLine
 10
1658.39975108972
 20
-295.9583986318736
 30
0.0
 11
1658.39975108972
 21
-95.95786251225803
 31
0.0
  0
ARC
  5
184
330
1F
100
AcDbEntity
  8
3-2
  6
Continuous
 62
     3
370
     9
100
AcDbCircle
 10
1608.402307967887
 20
-245.9605843503068
 30
0.0
 40
24.99999742250185
100
AcDbArc
 50
270.0
 51
0.0
  0
ARC
  5
185
330
1F
100
AcDbEntity
  8
3-2
  6
Continuous
 62
     3
370
     9
100
AcDbCircle
 10
1653.401714112314
 20
-115.9581759360334
 30
0.0
 40
19.9999988079071
100
AcDbArc
 50
90.0
 51
180.0
  0
ARC
  5
186
330
1F
100
AcDbEntity
  8
3-2
  6
Continuous
 62
     3
370
     9
100
AcDbCircle
 10
1478.399899553614
 20
-290.9599904947327
 30
0.0
 40
19.9999988079071
100
AcDbArc
 50
90.0
 51
180.0
  0
LINE
  5
187
330
1F
100
AcDbEntity
  8
3-0
  6
Continuous
 62
     3
370
     9
100
AcDbLine
 10
1494.648843810371
 20
-318.4583986318736
 30
0.0
 11
1633.398843810371
 21
-318.4583986318736
 31
0.0
  0
LINE
  5
188
330
1F
100
AcDbEntity
  8
3-0
  6
Continuous
 62
     3
370
     9
100
AcDbLine
 10
1480.898843810372
 20
-559.7083986318738
 30
0.0
 11
1480.898843810372
 21
-332.2083986318735
 31
0.0
  0
ARC
  5
189
330
1F
100
AcDbEntity
  8
3-0
  6
Continuous
 62
     3
370
     9
100
AcDbCircle
 10
1494.648843810371
 20
-332.2083986318735
 30
0.0
 40
13.75
100
AcDbArc
 50
90.0
 51
180.0
  0
LINE
  5
18A
330
1F
100
AcDbEntity
  8
3-0
  6
Continuous
 62
     3
370
     9
100
AcDbLine
 10
1633.398843810371
 20
-573.4583986318737
 30
0.0
 11
1633.398843810371
 21
-595.9583986318737
 31
0.0
  0
LINE
  5
18B
330
1F
100
AcDbEntity
  8
3-0
  6
Continuous
 62
     3
370
     9
100
AcDbLine
 10
1633.398843810371
 20
-318.4583986318736
 30
0.0
 11
1633.398843810371
 21
-295.9583986318736
 31
0.0
  0
ARC
  5
18C
330
1F
100
AcDbEntity
  8
3-0
  6
Continuous
 62
     3
370
     9
100
AcDbCircle
 10
1494.648843810371
 20
-332.2083986318735
 30
0.0
 40
36.25
100
AcDbArc
 50
90.0
 51
180.0
  0
LINE
  5
18D
330
1F
100
AcDbEntity
  8
3-0
  6
Continuous
 62
     3
370
     9
100
AcDbLine
 10
1494.648843810371
 20
-295.9583986318736
 30
0.0
 11
1633.398843810371
 21
-295.9583986318736
 31
0.0
  0
ARC
  5
18E
330
1F
100
AcDbEntity
  8
3-0
  6
Continuous
 62
     3
370
     9
100
AcDbCircle
 10
1494.648843810371
 20
-559.7083986318738
 30
0.0
 40
36.25
100
AcDbArc
 50
180.0
 51
270.0
  0
ARC
  5
18F
330
1F
100
AcDbEntity
  8
3-0
  6
Continuous
 62
     3
370
     9
100
AcDbCircle
 10
1494.648843810371
 20
-559.7083986318738
 30
0.0
 40
13.75
100
AcDbArc
 50
180.0
 51
270.0
  0
LINE
  5
190
330
1F
100
AcDbEntity
  8
3-0
  6
Continuous
 62
     3
370
     9
100
AcDbLine
 10
1458.398843810372
 20
-559.7083986318738
 30
0.0
 11
1458.398843810372
 21
-332.2083986318735
 31
0.0
  0
LINE
  5
191
330
1F
100
AcDbEntity
  8
3-0
  6
Continuous
 62
     3
370
     9
100
AcDbLine
 10
1494.648843810371
 20
-573.4583986318737
 30
0.0
 11
1633.398843810371
 21
-573.4583986318737
 31
0.0
  0
LINE
  5
192
330
1F
100
AcDbEntity
  8
3-0
  6
Continuous
 62
     3
370
     9
100
AcDbLine
 10
1494.648843810371
 20
-595.9583986318737
 30
0.0
 11
1633.398843810371
 21
-595.9583986318737
 31
0.0
  0
LINE
  5
193
330
1F
100
AcDbEntity
  8
3-0
  6
JWW_DASHED3
 62
     3
370
     9
100
AcDbLine
 10
1538.398572804852
 20
-573.4583986318737
 30
0.0
 11
1538.398572804852
 21
-595.9583986318737
 31
0.0
  0
TEXT
  5
194
330
1F
100
AcDbEntity
  8
3-4
  6
Continuous
 62
     7
370
     0
100
AcDbText
 10
1848.266102084229
 20
169.7106197317124
 30
0.0
 40
34.29
  1
受枠：L40X40X5
 41
1.154761904761905
  7
ＭＳ ゴシック
100
AcDbText
  0
TEXT
  5
195
330
1F
100
AcDbEntity
  8
3-4
  6
Continuous
 62
     7
370
     0
100
AcDbText
 10
1849.714698035888
 20
92.9350342937853
 30
0.0
 40
34.29
  1
SS400
 41
1.133333333333333
  7
ＭＳ ゴシック
100
AcDbText
  0
TEXT
  5
196
330
1F
100
AcDbEntity
  8
3-4
  6
Continuous
 62
     7
370
     0
100
AcDbText
 10
2009.060252718379
 20
94.38363024544356
 30
0.0
 40
34.29
  1
樹脂系塗装
 41
1.133333333333333
  7
ＭＳ ゴシック
100
AcDbText
  0
LINE
  5
197
330
1F
100
AcDbEntity
  8
3-4
  6
Continuous
 62
     7
370
     9
100
AcDbLine
 10
1826.328971748249
 20
146.4641405143887
 30
0.0
 11
2271.25611996866
 21
146.4641405143887
 31
0.0
  0
LINE
  5
198
330
1F
100
AcDbEntity
  8
3-5
  6
Continuous
 62
     7
370
     9
100
AcDbLine
 10
1826.328971748249
 20
146.4641405143887
 30
0.0
 11
1646.91312653294
 21
-165.7073922321518
 31
0.0
  0
LINE
  5
199
330
1F
100
AcDbEntity
  8
3-4
  6
Continuous
 62
     7
370
     9
100
AcDbLine
 10
1802.257336918323
 20
-595.9583986318737
 30
0.0
 11
1802.257336918323
 21
-95.95786251225803
 31
0.0
  0
LINE
  5
19A
330
1F
100
AcDbEntity
  8
3-4
  6
Continuous
 62
     7
370
     9
100
AcDbLine
 10
1894.482497190037
 20
-595.9583986318737
 30
0.0
 11
1691.577753071321
 21
-595.9583986318737
 31
0.0
  0
LINE
  5
19B
330
1F
100
AcDbEntity
  8
3-4
  6
Continuous
 62
     7
370
     9
100
AcDbLine
 10
1806.757336918323
 20
-295.9583986318736
 30
0.0
 11
1691.577753071321
 21
-295.9583986318736
 31
0.0
  0
TEXT
  5
19C
330
1F
100
AcDbEntity
  8
3-4
  6
Continuous
 62
     7
370
   211
100
AcDbText
 10
1784.797336918323
 20
-477.8333986318736
 30
0.0
 40
45.72
  1
60
 50
90.0
 41
1.0625
  7
ＭＳ ゴシック
100
AcDbText
  0
LINE
  5
19D
330
1F
100
AcDbEntity
  8
3-4
  6
Continuous
 62
     7
370
     9
100
AcDbLine
 10
1894.482497190037
 20
-95.95786251225803
 30
0.0
 11
1691.577753071321
 21
-95.95786251225803
 31
0.0
  0
TEXT
  5
19E
330
1F
100
AcDbEntity
  8
3-4
  6
Continuous
 62
     7
370
   211
100
AcDbText
 10
1784.797336918323
 20
-227.8331305720658
 30
0.0
 40
45.72
  1
40
 50
90.0
 41
1.0625
  7
ＭＳ ゴシック
100
AcDbText
  0
LINE
  5
19F
330
1F
100
AcDbEntity
  8
3-4
  6
Continuous
 62
     7
370
     9
100
AcDbLine
 10
1889.982497190037
 20
-595.9583986318737
 30
0.0
 11
1889.982497190037
 21
-95.95786251225803
 31
0.0
  0
TEXT
  5
1A0
330
1F
100
AcDbEntity
  8
3-4
  6
Continuous
 62
     7
370
   211
100
AcDbText
 10
1872.522497190037
 20
-394.7081305720654
 30
0.0
 40
45.72
  1
100
 50
90.0
 41
1.083333333333325
  7
ＭＳ ゴシック
100
AcDbText
  0
LINE
  5
1A1
330
1F
100
AcDbEntity
  8
3-4
  6
Continuous
 62
     7
370
     9
100
AcDbLine
 10
1458.398843810372
 20
-741.6069646120978
 30
0.0
 11
1633.398843810371
 21
-741.6069646120978
 31
0.0
  0
LINE
  5
1A2
330
1F
100
AcDbEntity
  8
3-4
  6
Continuous
 62
     7
370
     9
100
AcDbLine
 10
1458.398843810372
 20
-746.1069646120978
 30
0.0
 11
1458.398843810372
 21
-623.126622824821
 31
0.0
  0
LINE
  5
1A3
330
1F
100
AcDbEntity
  8
3-4
  6
Continuous
 62
     7
370
     9
100
AcDbLine
 10
1633.398843810371
 20
-746.1069646120978
 30
0.0
 11
1633.398843810371
 21
-623.126622824821
 31
0.0
  0
TEXT
  5
1A4
330
1F
100
AcDbEntity
  8
3-4
  6
Continuous
 62
     7
370
   211
100
AcDbText
 10
1514.023843810372
 20
-724.1469646120981
 30
0.0
 40
45.72
  1
35
 41
1.0625
  7
ＭＳ ゴシック
100
AcDbText
  0
LINE
  5
1A5
330
1F
100
AcDbEntity
  8
3-4
  6
Continuous
 62
     7
370
     9
100
AcDbLine
 10
1633.401715304407
 20
19.24178265377506
 30
0.0
 11
1633.401715304407
 21
-62.57559982847937
 31
0.0
  0
TEXT
  5
1A6
330
1F
100
AcDbEntity
  8
3-4
  6
Continuous
 62
     7
370
   211
100
AcDbText
 10
1514.025279557389
 20
32.20178265377438
 30
0.0
 40
45.72
  1
35
 41
1.062500000000014
  7
ＭＳ ゴシック
100
AcDbText
  0
LINE
  5
1A7
330
1F
100
AcDbEntity
  8
3-4
  6
Continuous
 62
     7
370
     9
100
AcDbLine
 10
1658.39975108972
 20
19.24178265377506
 30
0.0
 11
1658.39975108972
 21
-62.57559982847937
 31
0.0
  0
TEXT
  5
1A8
330
1F
100
AcDbEntity
  8
3-4
  6
Continuous
 62
     7
370
   211
100
AcDbText
 10
1630.900733197064
 20
32.20178265377438
 30
0.0
 40
45.72
  1
5
  7
ＭＳ ゴシック
100
AcDbText
  0
LINE
  5
1A9
330
1F
100
AcDbEntity
  8
3-4
  6
Continuous
 62
     7
370
     9
100
AcDbLine
 10
1391.866309761528
 20
-295.9583986318736
 30
0.0
 11
1431.470986146548
 21
-295.9583986318736
 31
0.0
  0
LINE
  5
1AA
330
1F
100
AcDbEntity
  8
3-4
  6
Continuous
 62
     7
370
     9
100
AcDbLine
 10
1391.866309761528
 20
-270.9596770709572
 30
0.0
 11
1431.470986146548
 21
-270.9596770709572
 31
0.0
  0
TEXT
  5
1AB
330
1F
100
AcDbEntity
  8
3-4
  6
Continuous
 62
     7
370
   211
100
AcDbText
 10
1378.906309761527
 20
-298.4590378514155
 30
0.0
 40
45.72
  1
5
 50
90.0
  7
ＭＳ ゴシック
100
AcDbText
  0
TEXT
  5
1AC
330
1F
100
AcDbEntity
  8
3-4
  6
Continuous
 62
     7
370
   211
100
AcDbText
 10
1378.906309761527
 20
-215.3337697916076
 30
0.0
 40
45.72
  1
35
 50
90.0
 41
1.0625
  7
ＭＳ ゴシック
100
AcDbText
  0
LINE
  5
1AD
330
1F
100
AcDbEntity
  8
3-0
  6
JWW_CENTER2
 62
     4
370
     9
100
AcDbLine
 10
1570.898843810372
 20
-543.299296577703
 30
0.0
 11
1570.898843810372
 21
-628.0796103089351
 31
0.0
  0
LINE
  5
1AE
330
1F
100
AcDbEntity
  8
3-0
  6
JWW_CENTER2
 62
     4
370
     9
100
AcDbLine
 10
1526.847285619609
 20
-1076.918625333663
 30
0.0
 11
1651.184960619595
 21
-1076.918625333663
 31
0.0
  0
LINE
  5
1AF
330
1F
100
AcDbEntity
  8
3-0
  6
JWW_CENTER2
 62
     4
370
     9
100
AcDbLine
 10
1570.898843810372
 20
-1032.889545734919
 30
0.0
 11
1570.898843810372
 21
-1117.669859466151
 31
0.0
  0
LINE
  5
1B0
330
1F
100
AcDbEntity
  8
3-0
  6
Continuous
 62
     3
370
     9
100
AcDbLine
 10
1458.398843810372
 20
-981.9186253336642
 30
0.0
 11
1633.398843810371
 21
-981.9186253336642
 31
0.0
  0
LINE
  5
1B1
330
1F
100
AcDbEntity
  8
3-0
  6
Continuous
 62
     3
370
     9
100
AcDbLine
 10
1458.398843810372
 20
-981.9186253336642
 30
0.0
 11
1458.398843810372
 21
-1171.918625333664
 31
0.0
  0
LINE
  5
1B2
330
1F
100
AcDbEntity
  8
3-0
  6
Continuous
 62
     3
370
     9
100
AcDbLine
 10
1458.398843810372
 20
-1171.918625333664
 30
0.0
 11
1633.398843810371
 21
-1171.918625333664
 31
0.0
  0
ARC
  5
1B3
330
1F
100
AcDbEntity
  8
3-0
  6
Continuous
 62
     3
370
     9
100
AcDbCircle
 10
1570.898572804852
 20
-1076.918625333663
 30
0.0
 40
32.5
100
AcDbArc
 50
90.0
 51
270.0
  0
LINE
  5
1B4
330
1F
100
AcDbEntity
  8
3-0
  6
Continuous
 62
     3
370
     9
100
AcDbLine
 10
1633.398843810371
 20
-981.9186253336642
 30
0.0
 11
1633.398843810371
 21
-1044.418625333664
 31
0.0
  0
LINE
  5
1B5
330
1F
100
AcDbEntity
  8
3-0
  6
Continuous
 62
     3
370
     9
100
AcDbLine
 10
1570.898843810372
 20
-1044.418625333664
 30
0.0
 11
1633.398843810371
 21
-1044.418625333664
 31
0.0
  0
LINE
  5
1B6
330
1F
100
AcDbEntity
  8
3-0
  6
Continuous
 62
     3
370
     9
100
AcDbLine
 10
1570.898843810372
 20
-1109.418625333664
 30
0.0
 11
1633.398843810371
 21
-1109.418625333664
 31
0.0
  0
LINE
  5
1B7
330
1F
100
AcDbEntity
  8
3-0
  6
Continuous
 62
     3
370
     9
100
AcDbLine
 10
1633.398843810371
 20
-1109.418625333664
 30
0.0
 11
1633.398843810371
 21
-1171.918625333664
 31
0.0
  0
LINE
  5
1B8
330
1F
100
AcDbEntity
  8
3-4
  6
Continuous
 62
     7
370
     9
100
AcDbLine
 10
1806.757336918323
 20
-1109.418625333664
 30
0.0
 11
1691.577753071321
 21
-1109.418625333664
 31
0.0
  0
LINE
  5
1B9
330
1F
100
AcDbEntity
  8
3-4
  6
Continuous
 62
     7
370
     9
100
AcDbLine
 10
1806.757336918323
 20
-1044.418625333664
 30
0.0
 11
1691.577753071321
 21
-1044.418625333664
 31
0.0
  0
TEXT
  5
1BA
330
1F
100
AcDbEntity
  8
3-4
  6
Continuous
 62
     7
370
   211
100
AcDbText
 10
1784.797336918323
 20
-1108.793625333663
 30
0.0
 40
45.72
  1
13
 50
90.0
 41
1.0625
  7
ＭＳ ゴシック
100
AcDbText
  0
LINE
  5
1BB
330
1F
100
AcDbEntity
  8
3-4
  6
Continuous
 62
     7
370
     9
100
AcDbLine
 10
1889.982497190037
 20
-1171.918625333664
 30
0.0
 11
1889.982497190037
 21
-981.9186253336642
 31
0.0
  0
LINE
  5
1BC
330
1F
100
AcDbEntity
  8
3-4
  6
Continuous
 62
     7
370
     9
100
AcDbLine
 10
1894.482497190037
 20
-1171.918625333664
 30
0.0
 11
1691.577753071321
 21
-1171.918625333664
 31
0.0
  0
LINE
  5
1BD
330
1F
100
AcDbEntity
  8
3-4
  6
Continuous
 62
     7
370
     9
100
AcDbLine
 10
1894.482497190037
 20
-981.9186253336642
 30
0.0
 11
1691.577753071321
 21
-981.9186253336642
 31
0.0
  0
TEXT
  5
1BE
330
1F
100
AcDbEntity
  8
3-4
  6
Continuous
 62
     7
370
   211
100
AcDbText
 10
1872.522497190037
 20
-1108.793625333663
 30
0.0
 40
45.72
  1
38
 50
90.0
 41
1.0625
  7
ＭＳ ゴシック
100
AcDbText
  0
LINE
  5
1BF
330
1F
100
AcDbEntity
  8
3-4
  6
Continuous
 62
     7
370
     9
100
AcDbLine
 10
1633.398843810371
 20
-921.2750765408906
 30
0.0
 11
1633.398843810371
 21
-970.1609812992216
 31
0.0
  0
TEXT
  5
1C0
330
1F
100
AcDbEntity
  8
3-4
  6
Continuous
 62
     7
370
   211
100
AcDbText
 10
1554.023708307612
 20
-908.3150765408908
 30
0.0
 40
45.72
  1
19
 41
1.0625
  7
ＭＳ ゴシック
100
AcDbText
  0
LINE
  5
1C1
330
1F
100
AcDbEntity
  8
3-4
  6
Continuous
 62
     7
370
     9
100
AcDbLine
 10
1538.398572804852
 20
-921.2750765408906
 30
0.0
 11
1538.398572804852
 21
-1039.918872993893
 31
0.0
  0
TEXT
  5
1C2
330
1F
100
AcDbEntity
  8
3-0
  6
Continuous
 62
     7
370
     9
100
AcDbText
 10
1213.731211644638
 20
-1383.256115944017
 30
0.0
 40
45.72
  1
断面詳細図　Ｓ＝１：３
 41
1.113636363636364
  7
ＭＳ ゴシック
100
AcDbText
  0
LINE
  5
1C3
330
1F
100
AcDbEntity
  8
3-5
  6
Continuous
 62
     7
370
     9
100
AcDbLine
 10
1197.234199655427
 20
-1413.844004164012
 30
0.0
 11
1951.022151271173
 21
-1413.844004164012
 31
0.0
  0
LINE
  5
1C4
330
1F
100
AcDbEntity
  8
3-4
  6
Continuous
 62
     7
370
     9
100
AcDbLine
 10
1458.398843810372
 20
19.24178265377506
 30
0.0
 11
1458.398843810372
 21
-162.7454241893592
 31
0.0
  0
LINE
  5
1C5
330
1F
100
AcDbEntity
  8
3-4
  6
Continuous
 62
     7
370
     9
100
AcDbLine
 10
1391.866309761528
 20
-95.95786251225803
 30
0.0
 11
1518.762881971067
 21
-95.95786251225803
 31
0.0
  0
LWPOLYLINE
  5
1C6
330
1F
100
AcDbEntity
  8
3-4
  6
Continuous
 62
     7
370
     9
100
AcDbPolyline
 90
        4
 70
     1
 43
1.5
 10
1890.732497190037
 20
-1171.918625333664
 42
0.4142135623731
 10
1889.982497190037
 20
-1171.168625333664
 42
0.4142135623731
 10
1889.232497190037
 20
-1171.918625333664
 42
0.4142135623731
 10
1889.982497190037
 20
-1172.668625333664
 42
0.4142135623731
  0
LWPOLYLINE
  5
1C7
330
1F
100
AcDbEntity
  8
3-4
  6
Continuous
 62
     7
370
     9
100
AcDbPolyline
 90
        4
 70
     1
 43
1.5
 10
1890.732497190037
 20
-981.9186253336642
 42
0.4142135623731
 10
1889.982497190037
 20
-981.1686253336642
 42
0.4142135623731
 10
1889.232497190037
 20
-981.9186253336642
 42
0.4142135623731
 10
1889.982497190037
 20
-982.6686253336642
 42
0.4142135623731
  0
LWPOLYLINE
  5
1C8
330
1F
100
AcDbEntity
  8
3-4
  6
Continuous
 62
     7
370
     9
100
AcDbPolyline
 90
        4
 70
     1
 43
1.5
 10
1803.007336918323
 20
-1044.418625333664
 42
0.4142135623731
 10
1802.257336918323
 20
-1043.668625333664
 42
0.4142135623731
 10
1801.507336918323
 20
-1044.418625333664
 42
0.4142135623731
 10
1802.257336918323
 20
-1045.168625333664
 42
0.4142135623731
  0
LWPOLYLINE
  5
1C9
330
1F
100
AcDbEntity
  8
3-4
  6
Continuous
 62
     7
370
     9
100
AcDbPolyline
 90
        4
 70
     1
 43
1.5
 10
1803.007336918323
 20
-1109.418625333664
 42
0.4142135623731
 10
1802.257336918323
 20
-1108.668625333664
 42
0.4142135623731
 10
1801.507336918323
 20
-1109.418625333664
 42
0.4142135623731
 10
1802.257336918323
 20
-1110.168625333664
 42
0.4142135623731
  0
LWPOLYLINE
  5
1CA
330
1F
100
AcDbEntity
  8
3-4
  6
Continuous
 62
     7
370
     9
100
AcDbPolyline
 90
        4
 70
     1
 43
1.5
 10
1634.148843810371
 20
-925.7750765408912
 42
0.4142135623731
 10
1633.398843810371
 20
-925.0250765408912
 42
0.4142135623731
 10
1632.648843810371
 20
-925.7750765408912
 42
0.4142135623731
 10
1633.398843810371
 20
-926.5250765408912
 42
0.4142135623731
  0
LWPOLYLINE
  5
1CB
330
1F
100
AcDbEntity
  8
3-4
  6
Continuous
 62
     7
370
     9
100
AcDbPolyline
 90
        4
 70
     1
 43
1.5
 10
1539.148572804851
 20
-925.7750765408912
 42
0.4142135623731
 10
1538.398572804852
 20
-925.0250765408912
 42
0.4142135623731
 10
1537.648572804852
 20
-925.7750765408912
 42
0.4142135623731
 10
1538.398572804852
 20
-926.5250765408912
 42
0.4142135623731
  0
LINE
  5
1CC
330
1F
100
AcDbEntity
  8
3-4
  6
Continuous
 62
     7
370
     9
100
AcDbLine
 10
1802.257336918323
 20
-1109.418625333664
 30
0.0
 11
1802.257336918323
 21
-1044.418625333664
 31
0.0
  0
LWPOLYLINE
  5
1CD
330
1F
100
AcDbEntity
  8
3-4
  6
Continuous
 62
     7
370
     9
100
AcDbPolyline
 90
        4
 70
     1
 43
1.5
 10
1659.14975108972
 20
14.74178265377489
 42
0.4142135623731
 10
1658.39975108972
 20
15.49178265377489
 42
0.4142135623731
 10
1657.64975108972
 20
14.74178265377489
 42
0.4142135623731
 10
1658.39975108972
 20
13.99178265377489
 42
0.4142135623731
  0
LWPOLYLINE
  5
1CE
330
1F
100
AcDbEntity
  8
3-4
  6
Continuous
 62
     7
370
     9
100
AcDbPolyline
 90
        4
 70
     1
 43
1.5
 10
1634.151715304407
 20
14.74178265377489
 42
0.4142135623731
 10
1633.401715304407
 20
15.49178265377489
 42
0.4142135623731
 10
1632.651715304407
 20
14.74178265377489
 42
0.4142135623731
 10
1633.401715304407
 20
13.99178265377489
 42
0.4142135623731
  0
LWPOLYLINE
  5
1CF
330
1F
100
AcDbEntity
  8
3-4
  6
Continuous
 62
     7
370
     9
100
AcDbPolyline
 90
        4
 70
     1
 43
1.5
 10
1459.148843810372
 20
14.74178265377489
 42
0.4142135623731
 10
1458.398843810372
 20
15.49178265377489
 42
0.4142135623731
 10
1457.648843810372
 20
14.74178265377489
 42
0.4142135623731
 10
1458.398843810372
 20
13.99178265377489
 42
0.4142135623731
  0
LWPOLYLINE
  5
1D0
330
1F
100
AcDbEntity
  8
3-4
  6
Continuous
 62
     7
370
     9
100
AcDbPolyline
 90
        4
 70
     1
 43
1.5
 10
1397.116309761527
 20
-95.95786251225803
 42
0.4142135623731
 10
1396.366309761527
 20
-95.20786251225803
 42
0.4142135623731
 10
1395.616309761527
 20
-95.95786251225803
 42
0.4142135623731
 10
1396.366309761527
 20
-96.70786251225803
 42
0.4142135623731
  0
LWPOLYLINE
  5
1D1
330
1F
100
AcDbEntity
  8
3-4
  6
Continuous
 62
     7
370
     9
100
AcDbPolyline
 90
        4
 70
     1
 43
1.5
 10
1397.116309761527
 20
-270.9596770709572
 42
0.4142135623731
 10
1396.366309761527
 20
-270.2096770709572
 42
0.4142135623731
 10
1395.616309761527
 20
-270.9596770709572
 42
0.4142135623731
 10
1396.366309761527
 20
-271.7096770709572
 42
0.4142135623731
  0
LWPOLYLINE
  5
1D2
330
1F
100
AcDbEntity
  8
3-4
  6
Continuous
 62
     7
370
     9
100
AcDbPolyline
 90
        4
 70
     1
 43
1.5
 10
1397.116309761527
 20
-295.9583986318736
 42
0.4142135623731
 10
1396.366309761527
 20
-295.2083986318736
 42
0.4142135623731
 10
1395.616309761527
 20
-295.9583986318736
 42
0.4142135623731
 10
1396.366309761527
 20
-296.7083986318736
 42
0.4142135623731
  0
LWPOLYLINE
  5
1D3
330
1F
100
AcDbEntity
  8
3-4
  6
Continuous
 62
     7
370
     9
100
AcDbPolyline
 90
        4
 70
     1
 43
1.5
 10
1803.007336918323
 20
-95.95786251225803
 42
0.4142135623731
 10
1802.257336918323
 20
-95.20786251225803
 42
0.4142135623731
 10
1801.507336918323
 20
-95.95786251225803
 42
0.4142135623731
 10
1802.257336918323
 20
-96.70786251225803
 42
0.4142135623731
  0
LWPOLYLINE
  5
1D4
330
1F
100
AcDbEntity
  8
3-4
  6
Continuous
 62
     7
370
     9
100
AcDbPolyline
 90
        4
 70
     1
 43
1.5
 10
1803.007336918323
 20
-295.9583986318736
 42
0.4142135623731
 10
1802.257336918323
 20
-295.2083986318736
 42
0.4142135623731
 10
1801.507336918323
 20
-295.9583986318736
 42
0.4142135623731
 10
1802.257336918323
 20
-296.7083986318736
 42
0.4142135623731
  0
LWPOLYLINE
  5
1D5
330
1F
100
AcDbEntity
  8
3-4
  6
Continuous
 62
     7
370
     9
100
AcDbPolyline
 90
        4
 70
     1
 43
1.5
 10
1803.007336918323
 20
-595.9583986318737
 42
0.4142135623731
 10
1802.257336918323
 20
-595.2083986318737
 42
0.4142135623731
 10
1801.507336918323
 20
-595.9583986318737
 42
0.4142135623731
 10
1802.257336918323
 20
-596.7083986318736
 42
0.4142135623731
  0
LWPOLYLINE
  5
1D6
330
1F
100
AcDbEntity
  8
3-4
  6
Continuous
 62
     7
370
     9
100
AcDbPolyline
 90
        4
 70
     1
 43
1.5
 10
1890.732497190037
 20
-595.9583986318737
 42
0.4142135623731
 10
1889.982497190037
 20
-595.2083986318737
 42
0.4142135623731
 10
1889.232497190037
 20
-595.9583986318737
 42
0.4142135623731
 10
1889.982497190037
 20
-596.7083986318736
 42
0.4142135623731
  0
LWPOLYLINE
  5
1D7
330
1F
100
AcDbEntity
  8
3-4
  6
Continuous
 62
     7
370
     9
100
AcDbPolyline
 90
        4
 70
     1
 43
1.5
 10
1890.732497190037
 20
-95.95786251225803
 42
0.4142135623731
 10
1889.982497190037
 20
-95.20786251225803
 42
0.4142135623731
 10
1889.232497190037
 20
-95.95786251225803
 42
0.4142135623731
 10
1889.982497190037
 20
-96.70786251225803
 42
0.4142135623731
  0
LWPOLYLINE
  5
1D8
330
1F
100
AcDbEntity
  8
3-4
  6
Continuous
 62
     7
370
     9
100
AcDbPolyline
 90
        4
 70
     1
 43
1.5
 10
1634.148843810371
 20
-741.6069646120978
 42
0.4142135623731
 10
1633.398843810371
 20
-740.856964612098
 42
0.4142135623731
 10
1632.648843810371
 20
-741.6069646120978
 42
0.4142135623731
 10
1633.398843810371
 20
-742.3569646120978
 42
0.4142135623731
  0
LWPOLYLINE
  5
1D9
330
1F
100
AcDbEntity
  8
3-4
  6
Continuous
 62
     7
370
     9
100
AcDbPolyline
 90
        4
 70
     1
 43
1.5
 10
1459.148843810372
 20
-741.6069646120978
 42
0.4142135623731
 10
1458.398843810372
 20
-740.856964612098
 42
0.4142135623731
 10
1457.648843810372
 20
-741.6069646120978
 42
0.4142135623731
 10
1458.398843810372
 20
-742.3569646120978
 42
0.4142135623731
  0
LINE
  5
1DA
330
1F
100
AcDbEntity
  8
3-4
  6
Continuous
 62
     7
370
     9
100
AcDbLine
 10
1396.366309761527
 20
-295.9583986318736
 30
0.0
 11
1396.366309761527
 21
-95.95786251225803
 31
0.0
  0
LINE
  5
1DB
330
1F
100
AcDbEntity
  8
3-4
  6
Continuous
 62
     7
370
     9
100
AcDbLine
 10
1458.398843810372
 20
14.74178265377489
 30
0.0
 11
1658.39975108972
 21
14.74178265377489
 31
0.0
  0
TEXT
  5
1DC
330
1F
100
AcDbEntity
  8
3-4
  6
Continuous
 62
     6
370
     0
100
AcDbText
 10
4552.658930738464
 20
446.9696342999717
 30
0.0
 40
28.575
  1
・
 41
0.9999999999999998
  7
ＭＳ ゴシック
100
AcDbText
  0
LINE
  5
1DD
330
1F
100
AcDbEntity
  8
3-4
  6
Continuous
 62
     7
370
     9
100
AcDbLine
 10
4674.826848102877
 20
1162.835109516155
 30
0.0
 11
4712.006030404395
 21
1157.940377307903
 31
0.0
  0
LINE
  5
1DE
330
1F
100
AcDbEntity
  8
3-4
  6
Continuous
 62
     7
370
     9
100
AcDbLine
 10
4674.826848102877
 20
1162.835109516155
 30
0.0
 11
4712.006030404395
 21
1167.729841724407
 31
0.0
  0
LINE
  5
1DF
330
1F
100
AcDbEntity
  8
3-6
  6
Continuous
 62
     6
370
     9
100
AcDbLine
 10
4874.827755382226
 20
553.4565609507744
 30
0.0
 11
5447.215341431513
 21
553.4565609507744
 31
0.0
  0
LINE
  5
1E0
330
1F
100
AcDbEntity
  8
3-1
  6
Continuous
 62
     2
370
     9
100
AcDbLine
 10
4674.828332741813
 20
478.4565609507744
 30
0.0
 11
4874.827755382226
 21
478.4565609507744
 31
0.0
  0
LINE
  5
1E1
330
1F
100
AcDbEntity
  8
3-6
  6
Continuous
 62
     6
370
     9
100
AcDbLine
 10
4889.827557430369
 20
945.8643648728606
 30
0.0
 11
4922.420330867869
 21
978.4571383103606
 31
0.0
  0
LINE
  5
1E2
330
1F
100
AcDbEntity
  8
3-6
  6
Continuous
 62
     6
370
     9
100
AcDbLine
 10
4889.827557430369
 20
733.7321944792004
 30
0.0
 11
5134.55234661164
 21
978.4571383103606
 31
0.0
  0
LINE
  5
1E3
330
1F
100
AcDbEntity
  8
3-6
  6
Continuous
 62
     6
370
     9
100
AcDbLine
 10
4889.827557430369
 20
875.1537960581966
 30
0.0
 11
4993.131208982311
 21
978.4571383103606
 31
0.0
  0
LINE
  5
1E4
330
1F
100
AcDbEntity
  8
3-6
  6
Continuous
 62
     6
370
     9
100
AcDbLine
 10
4889.827557430369
 20
804.4426086439754
 30
0.0
 11
5063.841468497197
 21
978.4571383103606
 31
0.0
  0
LINE
  5
1E5
330
1F
100
AcDbEntity
  8
3-2
  6
Continuous
 62
     3
370
     9
100
AcDbLine
 10
4874.827755382226
 20
778.4560248311589
 30
0.0
 11
4674.826848102877
 21
778.4560248311589
 31
0.0
  0
LINE
  5
1E6
330
1F
100
AcDbEntity
  8
3-2
  6
Continuous
 62
     3
370
     9
100
AcDbLine
 10
4874.827755382226
 20
978.4565609507745
 30
0.0
 11
4869.82971840482
 21
978.4565609507745
 31
0.0
  0
LINE
  5
1E7
330
1F
100
AcDbEntity
  8
3-2
  6
Continuous
 62
     3
370
     9
100
AcDbLine
 10
4849.828662661576
 20
828.4538391127257
 30
0.0
 11
4849.828662661576
 21
958.4562475269992
 31
0.0
  0
LINE
  5
1E8
330
1F
100
AcDbEntity
  8
3-2
  6
Continuous
 62
     3
370
     9
100
AcDbLine
 10
4674.826848102877
 20
778.4560248311589
 30
0.0
 11
4674.826848102877
 21
783.4544329682999
 31
0.0
  0
LINE
  5
1E9
330
1F
100
AcDbEntity
  8
3-2
  6
Continuous
 62
     3
370
     9
100
AcDbLine
 10
4824.830312260394
 20
803.4547463920753
 30
0.0
 11
4694.827903846121
 21
803.4547463920753
 31
0.0
  0
ARC
  5
1EA
330
1F
100
AcDbEntity
  8
3-2
  6
Continuous
 62
     3
370
     9
100
AcDbCircle
 10
4824.830312260394
 20
828.4538391127257
 30
0.0
 40
24.99999742250185
100
AcDbArc
 50
270.0
 51
0.0
  0
ARC
  5
1EB
330
1F
100
AcDbEntity
  8
3-2
  6
Continuous
 62
     3
370
     9
100
AcDbCircle
 10
4869.82971840482
 20
958.4562475269992
 30
0.0
 40
19.9999988079071
100
AcDbArc
 50
90.0
 51
180.0
  0
ARC
  5
1EC
330
1F
100
AcDbEntity
  8
3-2
  6
Continuous
 62
     3
370
     9
100
AcDbCircle
 10
4694.827903846121
 20
783.4544329682999
 30
0.0
 40
19.9999988079071
100
AcDbArc
 50
90.0
 51
180.0
  0
LINE
  5
1ED
330
1F
100
AcDbEntity
  8
3-0
  6
Continuous
 62
     3
370
     9
100
AcDbLine
 10
4711.076848102877
 20
755.9560248311589
 30
0.0
 11
4849.826848102877
 21
755.9560248311589
 31
0.0
  0
LINE
  5
1EE
330
1F
100
AcDbEntity
  8
3-0
  6
Continuous
 62
     3
370
     9
100
AcDbLine
 10
4697.326848102877
 20
514.7060248311587
 30
0.0
 11
4697.326848102877
 21
742.2060248311591
 31
0.0
  0
ARC
  5
1EF
330
1F
100
AcDbEntity
  8
3-0
  6
Continuous
 62
     3
370
     9
100
AcDbCircle
 10
4711.076848102877
 20
742.2060248311591
 30
0.0
 40
13.75
100
AcDbArc
 50
90.0
 51
180.0
  0
LINE
  5
1F0
330
1F
100
AcDbEntity
  8
3-0
  6
Continuous
 62
     3
370
     9
100
AcDbLine
 10
4849.826848102877
 20
500.9560248311589
 30
0.0
 11
4849.826848102877
 21
478.456024831159
 31
0.0
  0
LINE
  5
1F1
330
1F
100
AcDbEntity
  8
3-0
  6
Continuous
 62
     3
370
     9
100
AcDbLine
 10
4849.826848102877
 20
755.9560248311589
 30
0.0
 11
4849.826848102877
 21
778.4560248311589
 31
0.0
  0
ARC
  5
1F2
330
1F
100
AcDbEntity
  8
3-0
  6
Continuous
 62
     3
370
     9
100
AcDbCircle
 10
4711.076848102877
 20
742.2060248311591
 30
0.0
 40
36.25
100
AcDbArc
 50
90.0
 51
180.0
  0
LINE
  5
1F3
330
1F
100
AcDbEntity
  8
3-0
  6
Continuous
 62
     3
370
     9
100
AcDbLine
 10
4711.076848102877
 20
778.4560248311589
 30
0.0
 11
4849.826848102877
 21
778.4560248311589
 31
0.0
  0
ARC
  5
1F4
330
1F
100
AcDbEntity
  8
3-0
  6
Continuous
 62
     3
370
     9
100
AcDbCircle
 10
4711.076848102877
 20
514.7060248311587
 30
0.0
 40
36.25
100
AcDbArc
 50
180.0
 51
270.0
  0
ARC
  5
1F5
330
1F
100
AcDbEntity
  8
3-0
  6
Continuous
 62
     3
370
     9
100
AcDbCircle
 10
4711.076848102877
 20
514.7060248311587
 30
0.0
 40
13.75
100
AcDbArc
 50
180.0
 51
270.0
  0
LINE
  5
1F6
330
1F
100
AcDbEntity
  8
3-0
  6
Continuous
 62
     3
370
     9
100
AcDbLine
 10
4674.826848102877
 20
514.7060248311587
 30
0.0
 11
4674.826848102877
 21
742.2060248311591
 31
0.0
  0
LINE
  5
1F7
330
1F
100
AcDbEntity
  8
3-0
  6
Continuous
 62
     3
370
     9
100
AcDbLine
 10
4711.076848102877
 20
500.9560248311589
 30
0.0
 11
4849.826848102877
 21
500.9560248311589
 31
0.0
  0
LINE
  5
1F8
330
1F
100
AcDbEntity
  8
3-0
  6
Continuous
 62
     3
370
     9
100
AcDbLine
 10
4711.076848102877
 20
478.456024831159
 30
0.0
 11
4849.826848102877
 21
478.456024831159
 31
0.0
  0
LINE
  5
1F9
330
1F
100
AcDbEntity
  8
3-0
  6
JWW_DASHED3
 62
     3
370
     9
100
AcDbLine
 10
4754.826577097358
 20
500.9560248311589
 30
0.0
 11
4754.826577097358
 21
478.456024831159
 31
0.0
  0
LINE
  5
1FA
330
1F
100
AcDbEntity
  8
3-0
  6
Continuous
 62
     2
370
     9
100
AcDbLine
 10
4852.32656767108
 20
512.4560380279495
 30
0.0
 11
4852.32656767108
 21
500.9560248311589
 31
0.0
  0
LINE
  5
1FB
330
1F
100
AcDbEntity
  8
3-0
  6
Continuous
 62
     2
370
     9
100
AcDbLine
 10
4722.326757374944
 20
500.9560248311589
 30
0.0
 11
4852.32656767108
 21
500.9560248311589
 31
0.0
  0
LINE
  5
1FC
330
1F
100
AcDbEntity
  8
3-0
  6
Continuous
 62
     2
370
     9
100
AcDbLine
 10
4722.326757374944
 20
512.4560380279495
 30
0.0
 11
4722.326757374944
 21
500.9560248311589
 31
0.0
  0
LINE
  5
1FD
330
1F
100
AcDbEntity
  8
3-0
  6
Continuous
 62
     2
370
     9
100
AcDbLine
 10
4722.326757374944
 20
512.4560380279495
 30
0.0
 11
4852.32656767108
 21
512.4560380279495
 31
0.0
  0
LINE
  5
1FE
330
1F
100
AcDbEntity
  8
3-0
  6
Continuous
 62
     2
370
     9
100
AcDbLine
 10
4757.326749126949
 20
594.5012683779285
 30
0.0
 11
4817.326575919074
 21
594.5012683779285
 31
0.0
  0
LINE
  5
1FF
330
1F
100
AcDbEntity
  8
3-0
  6
Continuous
 62
     2
370
     9
100
AcDbLine
 10
4762.061633852983
 20
599.2365242636968
 30
0.0
 11
4762.061633852983
 21
562.4560792679198
 31
0.0
  0
LINE
  5
200
330
1F
100
AcDbEntity
  8
3-0
  6
Continuous
 62
     2
370
     9
100
AcDbLine
 10
4812.591691193039
 20
599.2365242636968
 30
0.0
 11
4812.591691193039
 21
562.4560792679198
 31
0.0
  0
LINE
  5
201
330
1F
100
AcDbEntity
  8
3-0
  6
Continuous
 62
     2
370
     9
100
AcDbLine
 10
4762.061633852983
 20
599.2365242636968
 30
0.0
 11
4757.326749126949
 21
594.5012683779285
 31
0.0
  0
LINE
  5
202
330
1F
100
AcDbEntity
  8
3-0
  6
Continuous
 62
     2
370
     9
100
AcDbLine
 10
4812.591691193039
 20
599.2365242636968
 30
0.0
 11
4817.326575919074
 21
594.5012683779285
 31
0.0
  0
LINE
  5
203
330
1F
100
AcDbEntity
  8
3-0
  6
Continuous
 62
     2
370
     9
100
AcDbLine
 10
4757.326749126949
 20
594.5012683779285
 30
0.0
 11
4757.326749126949
 21
562.4560792679198
 31
0.0
  0
LINE
  5
204
330
1F
100
AcDbEntity
  8
3-0
  6
Continuous
 62
     2
370
     9
100
AcDbLine
 10
4817.326575919074
 20
594.5012683779285
 30
0.0
 11
4817.326575919074
 21
562.4560792679198
 31
0.0
  0
LINE
  5
205
330
1F
100
AcDbEntity
  8
3-0
  6
Continuous
 62
     2
370
     9
100
AcDbLine
 10
4762.061633852983
 20
599.2365242636968
 30
0.0
 11
4812.591691193039
 21
599.2365242636968
 31
0.0
  0
LINE
  5
206
330
1F
100
AcDbEntity
  8
3-0
  6
Continuous
 62
     2
370
     9
100
AcDbLine
 10
4732.576704587781
 20
556.8266995830593
 30
0.0
 11
4732.576704587781
 21
512.4560380279495
 31
0.0
  0
LINE
  5
207
330
1F
100
AcDbEntity
  8
3-0
  6
Continuous
 62
     2
370
     9
100
AcDbLine
 10
4842.076991617975
 20
556.8266995830593
 30
0.0
 11
4842.076991617975
 21
512.4560380279495
 31
0.0
  0
LINE
  5
208
330
1F
100
AcDbEntity
  8
3-0
  6
Continuous
 62
     2
370
     9
100
AcDbLine
 10
4760.000955010079
 20
556.8266995830593
 30
0.0
 11
4760.000955010079
 21
512.4560380279495
 31
0.0
  0
LINE
  5
209
330
1F
100
AcDbEntity
  8
3-0
  6
Continuous
 62
     2
370
     9
100
AcDbLine
 10
4814.652741195679
 20
556.8266995830593
 30
0.0
 11
4814.652741195679
 21
512.4560380279495
 31
0.0
  0
LINE
  5
20A
330
1F
100
AcDbEntity
  8
3-0
  6
Continuous
 62
     2
370
     9
100
AcDbLine
 10
4746.28882979893
 20
562.4560792679198
 30
0.0
 11
4828.364866406827
 21
562.4560792679198
 31
0.0
  0
ARC
  5
20B
330
1F
100
AcDbEntity
  8
3-0
  6
Continuous
 62
     2
370
     9
100
AcDbCircle
 10
4746.28882979893
 20
542.9408716164206
 30
0.0
 40
19.51515110763344
100
AcDbArc
 50
45.36129760742188
 51
134.6389617919922
  0
ARC
  5
20C
330
1F
100
AcDbEntity
  8
3-0
  6
Continuous
 62
     2
370
     9
100
AcDbCircle
 10
4787.326848102878
 20
493.3164440272105
 30
0.0
 40
69.13950185518007
100
AcDbArc
 50
66.71980285644531
 51
113.2803039550781
  0
ARC
  5
20D
330
1F
100
AcDbEntity
  8
3-0
  6
Continuous
 62
     2
370
     9
100
AcDbCircle
 10
4828.364866406827
 20
542.9408716164206
 30
0.0
 40
19.51530334111807
100
AcDbArc
 50
45.36129760742188
 51
134.63818359375
  0
LINE
  5
20E
330
1F
100
AcDbEntity
  8
3-0
  6
Continuous
 62
     2
370
     9
100
AcDbLine
 10
4784.326640253428
 20
309.9565370315921
 30
0.0
 11
4790.326437352773
 21
309.9565370315921
 31
0.0
  0
LINE
  5
20F
330
1F
100
AcDbEntity
  8
3-0
  6
Continuous
 62
     2
370
     9
100
AcDbLine
 10
4784.326640253428
 20
309.9565370315921
 30
0.0
 11
4773.867977550198
 21
190.4132552702163
 31
0.0
  0
LINE
  5
210
330
1F
100
AcDbEntity
  8
3-0
  6
Continuous
 62
     2
370
     9
100
AcDbLine
 10
4773.867977550198
 20
190.4132552702163
 30
0.0
 11
4746.970650230201
 21
192.7665626333655
 31
0.0
  0
LINE
  5
211
330
1F
100
AcDbEntity
  8
3-0
  6
Continuous
 62
     2
370
     9
100
AcDbLine
 10
4775.785636175619
 20
212.3294643106772
 30
0.0
 11
4748.888308855623
 21
214.6827716738268
 31
0.0
  0
LINE
  5
212
330
1F
100
AcDbEntity
  8
3-0
  6
Continuous
 62
     2
370
     9
100
AcDbLine
 10
4777.703294801042
 20
234.245828001028
 30
0.0
 11
4750.805348881489
 21
236.5989807142882
 31
0.0
  0
LINE
  5
213
330
1F
100
AcDbEntity
  8
3-0
  6
Continuous
 62
     2
370
     9
100
AcDbLine
 10
4779.620334826907
 20
256.1620370414893
 30
0.0
 11
4752.723007506913
 21
258.515344404639
 31
0.0
  0
LINE
  5
214
330
1F
100
AcDbEntity
  8
3-0
  6
Continuous
 62
     2
370
     9
100
AcDbLine
 10
4781.537993452331
 20
278.0782460819507
 30
0.0
 11
4754.640666132334
 21
280.4317080949889
 31
0.0
  0
LINE
  5
215
330
1F
100
AcDbEntity
  8
3-0
  6
Continuous
 62
     2
370
     9
100
AcDbLine
 10
4783.455033478196
 20
299.9946097723015
 30
0.0
 11
4756.5577061582
 21
302.3477624855612
 31
0.0
  0
LINE
  5
216
330
1F
100
AcDbEntity
  8
3-0
  6
Continuous
 62
     2
370
     9
100
AcDbLine
 10
4751.876763313499
 20
214.4212587112796
 30
0.0
 11
4750.805348881489
 21
236.5989807142882
 31
0.0
  0
LINE
  5
217
330
1F
100
AcDbEntity
  8
3-0
  6
Continuous
 62
     2
370
     9
100
AcDbLine
 10
4753.794421938921
 20
236.3376224016295
 30
0.0
 11
4752.723007506913
 21
258.515344404639
 31
0.0
  0
LINE
  5
218
330
1F
100
AcDbEntity
  8
3-0
  6
Continuous
 62
     2
370
     9
100
AcDbLine
 10
4755.711461964787
 20
258.2538314420913
 30
0.0
 11
4754.640666132334
 21
280.4317080949889
 31
0.0
  0
LINE
  5
219
330
1F
100
AcDbEntity
  8
3-0
  6
Continuous
 62
     2
370
     9
100
AcDbLine
 10
4757.629120590211
 20
280.1701951324421
 30
0.0
 11
4756.5577061582
 21
302.3477624855612
 31
0.0
  0
LINE
  5
21A
330
1F
100
AcDbEntity
  8
3-0
  6
Continuous
 62
     2
370
     9
100
AcDbLine
 10
4748.888308855623
 20
214.6827716738268
 30
0.0
 11
4746.970650230201
 21
192.7665626333655
 31
0.0
  0
LINE
  5
21B
330
1F
100
AcDbEntity
  8
3-0
  6
Continuous
 62
     2
370
     9
100
AcDbLine
 10
4790.327055952331
 20
309.9565370315921
 30
0.0
 11
4800.78571865556
 21
190.4132552702163
 31
0.0
  0
LINE
  5
21C
330
1F
100
AcDbEntity
  8
3-0
  6
Continuous
 62
     2
370
     9
100
AcDbLine
 10
4800.78571865556
 20
190.4132552702163
 30
0.0
 11
4827.683045975557
 21
192.7664079834765
 31
0.0
  0
LINE
  5
21D
330
1F
100
AcDbEntity
  8
3-0
  6
Continuous
 62
     2
370
     9
100
AcDbLine
 10
4798.868060030138
 20
212.3294643106772
 30
0.0
 11
4825.765387350134
 21
214.6827716738268
 31
0.0
  0
LINE
  5
21E
330
1F
100
AcDbEntity
  8
3-0
  6
Continuous
 62
     2
370
     9
100
AcDbLine
 10
4796.950401404716
 20
234.245828001028
 30
0.0
 11
4823.848347324268
 21
236.5989807142882
 31
0.0
  0
LINE
  5
21F
330
1F
100
AcDbEntity
  8
3-0
  6
Continuous
 62
     2
370
     9
100
AcDbLine
 10
4795.03336137885
 20
256.1620370414893
 30
0.0
 11
4821.930688698846
 21
258.515344404639
 31
0.0
  0
LINE
  5
220
330
1F
100
AcDbEntity
  8
3-0
  6
Continuous
 62
     2
370
     9
100
AcDbLine
 10
4793.115702753428
 20
278.0782460819507
 30
0.0
 11
4820.013030073424
 21
280.4317080949889
 31
0.0
  0
LINE
  5
221
330
1F
100
AcDbEntity
  8
3-0
  6
Continuous
 62
     2
370
     9
100
AcDbLine
 10
4791.198662727562
 20
299.9946097723015
 30
0.0
 11
4818.095990047559
 21
302.3477624855612
 31
0.0
  0
LINE
  5
222
330
1F
100
AcDbEntity
  8
3-0
  6
Continuous
 62
     2
370
     9
100
AcDbLine
 10
4822.776932892259
 20
214.4212587112796
 30
0.0
 11
4823.848347324268
 21
236.5989807142882
 31
0.0
  0
LINE
  5
223
330
1F
100
AcDbEntity
  8
3-0
  6
Continuous
 62
     2
370
     9
100
AcDbLine
 10
4820.859274266835
 20
236.3376224016295
 30
0.0
 11
4821.930688698846
 21
258.515344404639
 31
0.0
  0
LINE
  5
224
330
1F
100
AcDbEntity
  8
3-0
  6
Continuous
 62
     2
370
     9
100
AcDbLine
 10
4818.94223424097
 20
258.2538314420913
 30
0.0
 11
4820.013030073424
 21
280.4317080949889
 31
0.0
  0
LINE
  5
225
330
1F
100
AcDbEntity
  8
3-0
  6
Continuous
 62
     2
370
     9
100
AcDbLine
 10
4817.024575615548
 20
280.1701951324421
 30
0.0
 11
4818.095990047559
 21
302.3477624855612
 31
0.0
  0
LINE
  5
226
330
1F
100
AcDbEntity
  8
3-0
  6
Continuous
 62
     2
370
     9
100
AcDbLine
 10
4825.765387350134
 20
214.6827716738268
 30
0.0
 11
4827.683045975557
 21
192.7664079834765
 31
0.0
  0
ARC
  5
227
330
1F
100
AcDbEntity
  8
3-0
  6
Continuous
 62
     2
370
     9
100
AcDbCircle
 10
4544.993564807376
 20
320.404992842139
 30
0.0
 40
212.3332732432598
100
AcDbArc
 50
355.12158203125
 51
359.9159088134766
  0
ARC
  5
228
330
1F
100
AcDbEntity
  8
3-0
  6
Continuous
 62
     2
370
     9
100
AcDbCircle
 10
5029.660131398381
 20
320.404992842139
 30
0.0
 40
212.3332732432598
100
AcDbArc
 50
180.0840911865234
 51
184.87841796875
  0
LINE
  5
229
330
1F
100
AcDbEntity
  8
3-0
  6
JWW_CENTER2
 62
     2
370
     9
100
AcDbLine
 10
4787.326848102878
 20
626.3337129211588
 30
0.0
 11
4787.326848102878
 21
179.9420659259643
 31
0.0
  0
LINE
  5
22A
330
1F
100
AcDbEntity
  8
3-0
  6
Continuous
 62
     2
370
     9
100
AcDbLine
 10
4817.326452199162
 20
500.9560248311589
 30
0.0
 11
4817.326452199162
 21
320.0932186656178
 31
0.0
  0
LINE
  5
22B
330
1F
100
AcDbEntity
  8
3-0
  6
Continuous
 62
     2
370
     9
100
AcDbLine
 10
4757.326625407039
 20
500.9560248311589
 30
0.0
 11
4757.326625407039
 21
320.0932186656178
 31
0.0
  0
LINE
  5
22C
330
1F
100
AcDbEntity
  8
3-3
  6
Continuous
 62
     6
370
     9
100
AcDbLine
 10
4650.206214590947
 20
-21.54338749926232
 30
0.0
 11
5037.326848102878
 21
365.5778282855528
 31
0.0
  0
LINE
  5
22D
330
1F
100
AcDbEntity
  8
3-3
  6
Continuous
 62
     6
370
     9
100
AcDbLine
 10
4671.419849185015
 20
-21.54338749926232
 30
0.0
 11
5037.326848102878
 21
344.3647934414692
 31
0.0
  0
LINE
  5
22E
330
1F
100
AcDbEntity
  8
3-3
  6
Continuous
 62
     6
370
     9
100
AcDbLine
 10
4692.632865179523
 20
-21.54338749926232
 30
0.0
 11
5037.326848102878
 21
323.1517977107536
 31
0.0
  0
LINE
  5
22F
330
1F
100
AcDbEntity
  8
3-6
  6
Continuous
 62
     6
370
     9
100
AcDbLine
 10
4537.326848102878
 20
478.4565609507744
 30
0.0
 11
4537.326848102878
 21
-21.54338749926232
 31
0.0
  0
LINE
  5
230
330
1F
100
AcDbEntity
  8
3-6
  6
Continuous
 62
     6
370
     9
100
AcDbLine
 10
5037.326848102878
 20
403.4566228107299
 30
0.0
 11
4537.326848102878
 21
403.4566228107299
 31
0.0
  0
LINE
  5
231
330
1F
100
AcDbEntity
  8
3-3
  6
Continuous
 62
     6
370
     9
100
AcDbLine
 10
4537.326848102878
 20
186.7590292530373
 30
0.0
 11
4754.023922374414
 21
403.4566228107299
 31
0.0
  0
LINE
  5
232
330
1F
100
AcDbEntity
  8
3-3
  6
Continuous
 62
     6
370
     9
100
AcDbLine
 10
4537.326848102878
 20
165.5457980759542
 30
0.0
 11
4775.236938368925
 21
403.4566228107299
 31
0.0
  0
LINE
  5
233
330
1F
100
AcDbEntity
  8
3-3
  6
Continuous
 62
     6
370
     9
100
AcDbLine
 10
4537.326848102878
 20
144.332815542972
 30
0.0
 11
4796.449954363436
 21
403.4566228107299
 31
0.0
  0
LINE
  5
234
330
1F
100
AcDbEntity
  8
3-6
  6
Continuous
 62
     6
370
     9
100
AcDbLine
 10
4874.827755382226
 20
978.4571383103606
 30
0.0
 11
5447.215341431513
 21
978.4571383103606
 31
0.0
  0
LINE
  5
235
330
1F
100
AcDbEntity
  8
3-2
  6
Continuous
 62
     3
370
     9
100
AcDbLine
 10
4874.827755382226
 20
478.4565609507744
 30
0.0
 11
4874.827755382226
 21
978.4565609507745
 31
0.0
  0
LINE
  5
236
330
1F
100
AcDbEntity
  8
3-6
  6
Continuous
 62
     6
370
     9
100
AcDbLine
 10
5287.326848102879
 20
-21.54338749926232
 30
0.0
 11
4287.326848102878
 21
-21.54338749926232
 31
0.0
  0
LINE
  5
237
330
1F
100
AcDbEntity
  8
3-6
  6
Continuous
 62
     6
370
     9
100
AcDbLine
 10
4287.326848102878
 20
-21.54338749926232
 30
0.0
 11
4287.326848102878
 21
-321.5432947093287
 31
0.0
  0
LINE
  5
238
330
1F
100
AcDbEntity
  8
3-3
  6
Continuous
 62
     6
370
     9
100
AcDbLine
 10
4504.097741921502
 20
-321.5432947093287
 30
0.0
 11
4448.472032594012
 21
-225.1947126219923
 31
0.0
  0
LINE
  5
239
330
1F
100
AcDbEntity
  8
3-3
  6
Continuous
 62
     6
370
     9
100
AcDbLine
 10
4613.941227985691
 20
-225.1931661231014
 30
0.0
 11
4669.573123308749
 21
-321.5432947093287
 31
0.0
  0
LINE
  5
23A
330
1F
100
AcDbEntity
  8
3-3
  6
Continuous
 62
     6
370
     9
100
AcDbLine
 10
4833.930076697685
 20
-321.5432947093287
 30
0.0
 11
4778.304367370193
 21
-225.1947126219923
 31
0.0
  0
LINE
  5
23B
330
1F
100
AcDbEntity
  8
3-3
  6
Continuous
 62
     6
370
     9
100
AcDbLine
 10
4943.773562761874
 20
-225.1931661231014
 30
0.0
 11
4999.405458084932
 21
-321.5432947093287
 31
0.0
  0
LINE
  5
23C
330
1F
100
AcDbEntity
  8
3-3
  6
Continuous
 62
     6
370
     9
100
AcDbLine
 10
4287.326868599741
 20
-21.54338749926232
 30
0.0
 11
4343.954070112486
 21
-119.6206460474834
 31
0.0
  0
LINE
  5
23D
330
1F
100
AcDbEntity
  8
3-3
  6
Continuous
 62
     6
370
     9
100
AcDbLine
 10
4287.326848102878
 20
-217.6969766963702
 30
0.0
 11
4400.576365430728
 21
-21.54338749926232
 31
0.0
  0
LINE
  5
23E
330
1F
100
AcDbEntity
  8
3-3
  6
Continuous
 62
     6
370
     9
100
AcDbLine
 10
4452.79486244393
 20
-21.54338749926232
 30
0.0
 11
4509.423884103724
 21
-119.6206460474834
 31
0.0
  0
LINE
  5
23F
330
1F
100
AcDbEntity
  8
3-3
  6
Continuous
 62
     6
370
     9
100
AcDbLine
 10
4392.844467467849
 20
-321.5432947093287
 30
0.0
 11
4566.051734334943
 21
-21.54338749926232
 31
0.0
  0
LINE
  5
240
330
1F
100
AcDbEntity
  8
3-3
  6
Continuous
 62
     6
370
     9
100
AcDbLine
 10
4618.270113108562
 20
-21.54338749926232
 30
0.0
 11
4674.892460895847
 21
-119.6206460474834
 31
0.0
  0
LINE
  5
241
330
1F
100
AcDbEntity
  8
3-3
  6
Continuous
 62
     6
370
     9
100
AcDbLine
 10
4558.31366285953
 20
-321.5432947093287
 30
0.0
 11
4731.517856408947
 21
-21.54338749926232
 31
0.0
  0
LINE
  5
242
330
1F
100
AcDbEntity
  8
3-3
  6
Continuous
 62
     6
370
     9
100
AcDbLine
 10
4782.627197220113
 20
-21.54338749926232
 30
0.0
 11
4839.256218879906
 21
-119.6206460474834
 31
0.0
  0
LINE
  5
243
330
1F
100
AcDbEntity
  8
3-3
  6
Continuous
 62
     6
370
     9
100
AcDbLine
 10
4722.676802244032
 20
-321.5432947093287
 30
0.0
 11
4895.884069111125
 21
-21.54338749926232
 31
0.0
  0
LINE
  5
244
330
1F
100
AcDbEntity
  8
3-3
  6
Continuous
 62
     6
370
     9
100
AcDbLine
 10
4948.102447884744
 20
-21.54338749926232
 30
0.0
 11
5004.72479567203
 21
-119.6206460474834
 31
0.0
  0
LINE
  5
245
330
1F
100
AcDbEntity
  8
3-3
  6
Continuous
 62
     6
370
     9
100
AcDbLine
 10
4888.145997635713
 20
-321.5432947093287
 30
0.0
 11
5061.35019118513
 21
-21.54338749926232
 31
0.0
  0
LINE
  5
246
330
1F
100
AcDbEntity
  8
3-6
  6
Continuous
 62
     6
370
     9
100
AcDbLine
 10
4287.326848102878
 20
-321.5432947093287
 30
0.0
 11
5287.326848102879
 21
-321.5432947093287
 31
0.0
  0
LINE
  5
247
330
1F
100
AcDbEntity
  8
3-6
  6
Continuous
 62
     6
370
     9
100
AcDbLine
 10
5287.326848102879
 20
-21.54338749926232
 30
0.0
 11
5287.326848102879
 21
-321.5432947093287
 31
0.0
  0
LINE
  5
248
330
1F
100
AcDbEntity
  8
3-3
  6
Continuous
 62
     6
370
     9
100
AcDbLine
 10
5052.509137020214
 20
-321.5432947093287
 30
0.0
 11
5225.716543322265
 21
-21.54338749926232
 31
0.0
  0
LINE
  5
249
330
1F
100
AcDbEntity
  8
3-3
  6
Continuous
 62
     6
370
     9
100
AcDbLine
 10
5112.459534413889
 20
-21.54338749926232
 30
0.0
 11
5169.08975673646
 21
-119.6225117355606
 31
0.0
  0
LINE
  5
24A
330
1F
100
AcDbEntity
  8
3-3
  6
Continuous
 62
     6
370
     9
100
AcDbLine
 10
5163.762337970809
 20
-321.5432947093287
 30
0.0
 11
5108.136702146376
 21
-225.1947126219923
 31
0.0
  0
LINE
  5
24B
330
1F
100
AcDbEntity
  8
3-6
  6
Continuous
 62
     6
370
     9
100
AcDbLine
 10
4889.827557430369
 20
678.4570558304198
 30
0.0
 11
5447.215341431513
 21
678.4570558304198
 31
0.0
  0
LINE
  5
24C
330
1F
100
AcDbEntity
  8
3-6
  6
Continuous
 62
     6
370
     9
100
AcDbLine
 10
4905.262848081406
 20
678.4570558304198
 30
0.0
 11
5205.263224726083
 21
978.4571383103606
 31
0.0
  0
LINE
  5
24D
330
1F
100
AcDbEntity
  8
3-6
  6
Continuous
 62
     6
370
     9
100
AcDbLine
 10
4975.97508383515
 20
678.4570558304198
 30
0.0
 11
5275.97348424097
 21
978.4571383103606
 31
0.0
  0
LINE
  5
24E
330
1F
100
AcDbEntity
  8
3-6
  6
Continuous
 62
     6
370
     9
100
AcDbLine
 10
5046.685197619447
 20
678.4570558304198
 30
0.0
 11
5346.684321733712
 21
978.4571383103606
 31
0.0
  0
LINE
  5
24F
330
1F
100
AcDbEntity
  8
3-6
  6
Continuous
 62
     6
370
     9
100
AcDbLine
 10
5117.39558118461
 20
678.4570558304198
 30
0.0
 11
5417.395077449813
 21
978.4571383103606
 31
0.0
  0
LINE
  5
250
330
1F
100
AcDbEntity
  8
3-3
  6
Continuous
 62
     6
370
     9
100
AcDbLine
 10
5251.468693806003
 20
151.7279566598373
 30
0.0
 11
5308.209794588424
 21
53.45661250073725
 31
0.0
  0
LINE
  5
251
330
1F
100
AcDbEntity
  8
3-3
  6
Continuous
 62
     6
370
     9
100
AcDbLine
 10
5142.734307664876
 20
53.45661250073725
 30
0.0
 11
5085.999498414322
 21
151.7264101609463
 31
0.0
  0
LINE
  5
252
330
1F
100
AcDbEntity
  8
3-3
  6
Continuous
 62
     6
370
     9
100
AcDbLine
 10
5037.326868599739
 20
553.4565609507744
 30
0.0
 11
5093.954070112484
 21
455.3793024025529
 31
0.0
  0
LINE
  5
253
330
1F
100
AcDbEntity
  8
3-3
  6
Continuous
 62
     6
370
     9
100
AcDbLine
 10
5037.326848102878
 20
357.3029717536671
 30
0.0
 11
5150.576365430729
 21
553.4565609507744
 31
0.0
  0
LINE
  5
254
330
1F
100
AcDbEntity
  8
3-3
  6
Continuous
 62
     6
370
     9
100
AcDbLine
 10
5037.326848102878
 20
70.69713679272944
 30
0.0
 11
5316.051734340306
 21
553.4565609507744
 31
0.0
  0
LINE
  5
255
330
1F
100
AcDbEntity
  8
3-3
  6
Continuous
 62
     6
370
     9
100
AcDbLine
 10
5202.794862443929
 20
553.4565609507744
 30
0.0
 11
5259.423884103724
 21
455.3793024025529
 31
0.0
  0
LINE
  5
256
330
1F
100
AcDbEntity
  8
3-6
  6
Continuous
 62
     6
370
     9
100
AcDbLine
 10
5037.326848102878
 20
553.4565609507744
 30
0.0
 11
5037.326848102878
 21
-21.54338749926232
 31
0.0
  0
LINE
  5
257
330
1F
100
AcDbEntity
  8
3-6
  6
Continuous
 62
     6
370
     9
100
AcDbLine
 10
4537.326848102878
 20
478.4565609507744
 30
0.0
 11
5037.326848102878
 21
478.4565609507744
 31
0.0
  0
LINE
  5
258
330
1F
100
AcDbEntity
  8
3-6
  6
Continuous
 62
     6
370
     9
100
AcDbLine
 10
4889.827557430369
 20
978.4565609507745
 30
0.0
 11
4889.827557430369
 21
678.4570558304198
 31
0.0
  0
TEXT
  5
259
330
1F
100
AcDbEntity
  8
3-4
  6
Continuous
 62
     6
370
     0
100
AcDbText
 10
4902.773699678574
 20
614.740705937293
 30
0.0
 40
14.2875
  1
・
 41
0.9999999999999998
  7
ＭＳ ゴシック
100
AcDbText
  0
TEXT
  5
25A
330
1F
100
AcDbEntity
  8
3-4
  6
Continuous
 62
     6
370
     0
100
AcDbText
 10
5033.082314873359
 20
593.0226034048289
 30
0.0
 40
14.2875
  1
・
 41
0.9999999999999998
  7
ＭＳ ゴシック
100
AcDbText
  0
TEXT
  5
25B
330
1F
100
AcDbEntity
  8
3-4
  6
Continuous
 62
     6
370
     0
100
AcDbText
 10
5106.923925343693
 20
636.4588084697571
 30
0.0
 40
14.2875
  1
・
 41
0.9999999999999998
  7
ＭＳ ゴシック
100
AcDbText
  0
TEXT
  5
25C
330
1F
100
AcDbEntity
  8
3-4
  6
Continuous
 62
     6
370
     0
100
AcDbText
 10
5146.016942921818
 20
597.3662548413
 30
0.0
 40
14.2875
  1
・
 41
0.9999999999999998
  7
ＭＳ ゴシック
100
AcDbText
  0
TEXT
  5
25D
330
1F
100
AcDbEntity
  8
3-4
  6
Continuous
 62
     6
370
     0
100
AcDbText
 10
5237.233159138033
 20
623.4280088102344
 30
0.0
 40
14.2875
  1
・
 41
0.9999999999999998
  7
ＭＳ ゴシック
100
AcDbText
  0
TEXT
  5
25E
330
1F
100
AcDbEntity
  8
3-4
  6
Continuous
 62
     6
370
     0
100
AcDbText
 10
5224.201740878954
 20
579.9918037453067
 30
0.0
 40
14.2875
  1
・
 41
0.9999999999999998
  7
ＭＳ ゴシック
100
AcDbText
  0
TEXT
  5
25F
330
1F
100
AcDbEntity
  8
3-4
  6
Continuous
 62
     6
370
     0
100
AcDbText
 10
4950.553092230306
 20
575.6479976589461
 30
0.0
 40
14.2875
  1
・
 41
0.9999999999999998
  7
ＭＳ ゴシック
100
AcDbText
  0
TEXT
  5
260
330
1F
100
AcDbEntity
  8
3-4
  6
Continuous
 62
     6
370
     0
100
AcDbText
 10
4998.333103381593
 20
627.7716602467051
 30
0.0
 40
14.2875
  1
・
 41
0.9999999999999998
  7
ＭＳ ゴシック
100
AcDbText
  0
TEXT
  5
261
330
1F
100
AcDbEntity
  8
3-4
  6
Continuous
 62
     6
370
     0
100
AcDbText
 10
4946.209904743502
 20
649.4897627791692
 30
0.0
 40
14.2875
  1
・
 41
0.9999999999999998
  7
ＭＳ ゴシック
100
AcDbText
  0
TEXT
  5
262
330
1F
100
AcDbEntity
  8
3-4
  6
Continuous
 62
     6
370
     0
100
AcDbText
 10
5015.707709127476
 20
566.9608494358941
 30
0.0
 40
14.2875
  1
・
 41
0.9999999999999998
  7
ＭＳ ゴシック
100
AcDbText
  0
TEXT
  5
263
330
1F
100
AcDbEntity
  8
3-4
  6
Continuous
 62
     6
370
     0
100
AcDbText
 10
5289.356357776124
 20
627.7716602467051
 30
0.0
 40
14.2875
  1
・
 41
0.9999999999999998
  7
ＭＳ ゴシック
100
AcDbText
  0
TEXT
  5
264
330
1F
100
AcDbEntity
  8
3-4
  6
Continuous
 62
     6
370
     0
100
AcDbText
 10
5183.686897835868
 20
641.5014327685507
 30
0.0
 40
14.2875
  1
・
 41
0.9999999999999998
  7
ＭＳ ゴシック
100
AcDbText
  0
TEXT
  5
265
330
1F
100
AcDbEntity
  8
3-4
  6
Continuous
 62
     6
370
     0
100
AcDbText
 10
5311.177896571635
 20
578.3516857312078
 30
0.0
 40
14.2875
  1
・
 41
0.9999999999999998
  7
ＭＳ ゴシック
100
AcDbText
  0
TEXT
  5
266
330
1F
100
AcDbEntity
  8
3-4
  6
Continuous
 62
     6
370
     0
100
AcDbText
 10
4992.03782010023
 20
413.0871826327709
 30
0.0
 40
28.575
  1
・
 41
0.9999999999999998
  7
ＭＳ ゴシック
100
AcDbText
  0
TEXT
  5
267
330
1F
100
AcDbEntity
  8
3-4
  6
Continuous
 62
     6
370
     0
100
AcDbText
 10
4954.876421497493
 20
443.6906873644364
 30
0.0
 40
28.575
  1
・
 41
0.9999999999999998
  7
ＭＳ ゴシック
100
AcDbText
  0
TEXT
  5
268
330
1F
100
AcDbEntity
  8
3-4
  6
Continuous
 62
     6
370
     0
100
AcDbText
 10
4866.891345393955
 20
446.9696342999717
 30
0.0
 40
28.575
  1
・
 41
0.9999999999999998
  7
ＭＳ ゴシック
100
AcDbText
  0
TEXT
  5
269
330
1F
100
AcDbEntity
  8
3-4
  6
Continuous
 62
     6
370
     0
100
AcDbText
 10
4821.53257945238
 20
413.0871826327709
 30
0.0
 40
28.575
  1
・
 41
0.9999999999999998
  7
ＭＳ ゴシック
100
AcDbText
  0
TEXT
  5
26A
330
1F
100
AcDbEntity
  8
3-4
  6
Continuous
 62
     6
370
     0
100
AcDbText
 10
4905.692217464459
 20
415.2731472564615
 30
0.0
 40
28.575
  1
・
 41
0.9999999999999998
  7
ＭＳ ゴシック
100
AcDbText
  0
TEXT
  5
26B
330
1F
100
AcDbEntity
  8
3-4
  6
Continuous
 62
     6
370
     0
100
AcDbText
 10
4667.968564638131
 20
448.0626166118172
 30
0.0
 40
28.575
  1
・
 41
0.9999999999999998
  7
ＭＳ ゴシック
100
AcDbText
  0
TEXT
  5
26C
330
1F
100
AcDbEntity
  8
3-4
  6
Continuous
 62
     6
370
     0
100
AcDbText
 10
4697.479087057951
 20
414.1801649446164
 30
0.0
 40
28.575
  1
・
 41
0.9999999999999998
  7
ＭＳ ゴシック
100
AcDbText
  0
TEXT
  5
26D
330
1F
100
AcDbEntity
  8
3-4
  6
Continuous
 62
     6
370
     0
100
AcDbText
 10
4599.657170147807
 20
410.9012180090807
 30
0.0
 40
28.575
  1
・
 41
0.9999999999999998
  7
ＭＳ ゴシック
100
AcDbText
  0
LINE
  5
26E
330
1F
100
AcDbEntity
  8
3-3
  6
Continuous
 62
     6
370
     9
100
AcDbLine
 10
5192.844013828174
 20
53.45661250073725
 30
0.0
 11
5447.215341431513
 21
494.0429639851498
 31
0.0
  0
LINE
  5
26F
330
1F
100
AcDbEntity
  8
3-3
  6
Continuous
 62
     6
370
     9
100
AcDbLine
 10
5358.315065018524
 20
53.45661250073725
 30
0.0
 11
5447.215341431513
 21
207.4372561469565
 31
0.0
  0
LINE
  5
270
330
1F
100
AcDbEntity
  8
3-3
  6
Continuous
 62
     6
370
     9
100
AcDbLine
 10
5368.270117340433
 20
553.4565609507744
 30
0.0
 11
5424.892831555308
 21
455.3790419346731
 31
0.0
  0
LINE
  5
271
330
1F
100
AcDbEntity
  8
3-6
  6
Continuous
 62
     6
370
     9
100
AcDbLine
 10
5329.527025660341
 20
678.4570558304198
 30
0.0
 11
5447.215341431513
 21
796.1455458668732
 31
0.0
  0
LINE
  5
272
330
1F
100
AcDbEntity
  8
3-6
  6
Continuous
 62
     6
370
     9
100
AcDbLine
 10
5258.816737629272
 20
678.4570558304198
 30
0.0
 11
5447.215341431513
 21
866.8559923254502
 31
0.0
  0
LINE
  5
273
330
1F
100
AcDbEntity
  8
3-6
  6
Continuous
 62
     6
370
     9
100
AcDbLine
 10
5188.106644294322
 20
678.4570558304198
 30
0.0
 11
5447.215341431513
 21
937.5673827952669
 31
0.0
  0
LINE
  5
274
330
1F
100
AcDbEntity
  8
3-6
  6
Continuous
 62
     6
370
     9
100
AcDbLine
 10
5037.326848102878
 20
53.45661250073725
 30
0.0
 11
5447.215341431513
 21
53.45661250073725
 31
0.0
  0
LINE
  5
275
330
1F
100
AcDbEntity
  8
3-2
  6
JWW_DASHED2
 62
     3
370
     9
100
AcDbLine
 10
4824.828662661576
 20
938.4549113519568
 30
0.0
 11
4819.828398725766
 21
938.4549113519568
 31
0.0
  0
LINE
  5
276
330
1F
100
AcDbEntity
  8
3-2
  6
JWW_DASHED2
 62
     3
370
     9
100
AcDbLine
 10
4764.828464709719
 20
938.4549113519568
 30
0.0
 11
4722.328077053997
 21
938.4549113519568
 31
0.0
  0
LINE
  5
277
330
1F
100
AcDbEntity
  8
3-2
  6
JWW_DASHED2
 62
     3
370
     9
100
AcDbLine
 10
4779.580579495403
 20
805.6786406659877
 30
0.0
 11
4764.828464709719
 21
938.4549113519568
 31
0.0
  0
LINE
  5
278
330
1F
100
AcDbEntity
  8
3-2
  6
JWW_DASHED2
 62
     3
370
     9
100
AcDbLine
 10
4802.5906272018
 20
803.4552082797443
 30
0.0
 11
4782.065493914216
 21
803.4552082797443
 31
0.0
  0
LINE
  5
279
330
1F
100
AcDbEntity
  8
3-2
  6
JWW_DASHED2
 62
     3
370
     9
100
AcDbLine
 10
4805.074799301146
 20
805.6786406659877
 30
0.0
 11
4819.828398725766
 21
938.4549113519568
 31
0.0
  0
LINE
  5
27A
330
1F
100
AcDbEntity
  8
3-2
  6
JWW_DASHED2
 62
     3
370
     9
100
AcDbLine
 10
4764.426498717848
 20
961.4452875924552
 30
0.0
 11
4759.828943093376
 21
938.4549113519568
 31
0.0
  0
LINE
  5
27B
330
1F
100
AcDbEntity
  8
3-2
  6
JWW_DASHED2
 62
     3
370
     9
100
AcDbLine
 10
4817.778483515145
 20
963.4547463920752
 30
0.0
 11
4766.877637600872
 21
963.4547463920752
 31
0.0
  0
LINE
  5
27C
330
1F
100
AcDbEntity
  8
3-2
  6
JWW_DASHED2
 62
     3
370
     9
100
AcDbLine
 10
4820.231107037104
 20
961.4452875924552
 30
0.0
 11
4824.828662661576
 21
938.4549113519568
 31
0.0
  0
LINE
  5
27D
330
1F
100
AcDbEntity
  8
3-2
  6
JWW_DASHED2
 62
     3
370
     9
100
AcDbLine
 10
4722.730785365335
 20
961.4454731723221
 30
0.0
 11
4727.329454469009
 21
938.4549113519568
 31
0.0
  0
LINE
  5
27E
330
1F
100
AcDbEntity
  8
3-2
  6
JWW_DASHED2
 62
     3
370
     9
100
AcDbLine
 10
4707.937100689448
 20
900.0773660209815
 30
0.0
 11
4722.328077053997
 21
938.4549113519568
 31
0.0
  0
LINE
  5
27F
330
1F
100
AcDbEntity
  8
3-2
  6
JWW_DASHED2
 62
     3
370
     9
100
AcDbLine
 10
4684.061508483473
 20
898.4550268238739
 30
0.0
 11
4705.596196247408
 21
898.4550268238739
 31
0.0
  0
LINE
  5
280
330
1F
100
AcDbEntity
  8
3-2
  6
JWW_DASHED2
 62
     3
370
     9
100
AcDbLine
 10
4681.720232881699
 20
900.0773660209815
 30
0.0
 11
4667.328143037949
 21
938.4549113519568
 31
0.0
  0
ARC
  5
281
330
1F
100
AcDbEntity
  8
3-2
  6
JWW_DASHED2
 62
     3
370
     9
100
AcDbCircle
 10
4782.065493914216
 20
805.9547835080486
 30
0.0
 40
2.500000032218727
100
AcDbArc
 50
186.3410797119141
 51
270.0
  0
ARC
  5
282
330
1F
100
AcDbEntity
  8
3-2
  6
JWW_DASHED2
 62
     3
370
     9
100
AcDbCircle
 10
4802.5906272018
 20
805.9547835080486
 30
0.0
 40
2.500000032218727
100
AcDbArc
 50
270.0
 51
353.6589202880859
  0
ARC
  5
283
330
1F
100
AcDbEntity
  8
3-2
  6
JWW_DASHED2
 62
     3
370
     9
100
AcDbCircle
 10
4766.877637600872
 20
960.9546144241697
 30
0.0
 40
2.500000032218727
100
AcDbArc
 50
90.0
 51
168.6900634765625
  0
ARC
  5
284
330
1F
100
AcDbEntity
  8
3-2
  6
JWW_DASHED2
 62
     3
370
     9
100
AcDbCircle
 10
4817.778483515145
 20
960.9546144241697
 30
0.0
 40
2.500000032218727
100
AcDbArc
 50
11.30836486816406
 51
90.0
  0
ARC
  5
285
330
1F
100
AcDbEntity
  8
3-2
  6
JWW_DASHED2
 62
     3
370
     9
100
AcDbCircle
 10
4720.279275322577
 20
960.9546144241697
 30
0.0
 40
2.500000032218727
100
AcDbArc
 50
11.31385803222656
 51
90.0
  0
ARC
  5
286
330
1F
100
AcDbEntity
  8
3-2
  6
JWW_DASHED2
 62
     3
370
     9
100
AcDbCircle
 10
4705.596196247408
 20
900.9547876320455
 30
0.0
 40
2.500000032218727
100
AcDbArc
 50
270.0
 51
339.4458312988281
  0
ARC
  5
287
330
1F
100
AcDbEntity
  8
3-2
  6
JWW_DASHED2
 62
     3
370
     9
100
AcDbCircle
 10
4684.061508483473
 20
900.9547876320455
 30
0.0
 40
2.500000032218727
100
AcDbArc
 50
200.5569763183594
 51
270.0
  0
LINE
  5
288
330
1F
100
AcDbEntity
  8
3-2
  6
JWW_DASHED2
 62
     3
370
     9
100
AcDbLine
 10
4584.221024689132
 20
900.0773660209815
 30
0.0
 11
4569.828563685647
 21
938.4549113519568
 31
0.0
  0
LINE
  5
289
330
1F
100
AcDbEntity
  8
3-2
  6
JWW_DASHED2
 62
     3
370
     9
100
AcDbLine
 10
4569.426968853511
 20
961.4452875924552
 30
0.0
 11
4564.829784388772
 21
938.4549113519568
 31
0.0
  0
ARC
  5
28A
330
1F
100
AcDbEntity
  8
3-2
  6
JWW_DASHED2
 62
     3
370
     9
100
AcDbCircle
 10
4571.8777365768
 20
960.9546144241697
 30
0.0
 40
2.500000032218727
100
AcDbArc
 50
90.0
 51
168.6900634765625
  0
LINE
  5
28B
330
1F
100
AcDbEntity
  8
3-2
  6
JWW_DASHED2
 62
     3
370
     9
100
AcDbLine
 10
4571.8777365768
 20
963.4547463920752
 30
0.0
 11
4622.779695970275
 21
963.4547463920752
 31
0.0
  0
LINE
  5
28C
330
1F
100
AcDbEntity
  8
3-2
  6
JWW_DASHED2
 62
     3
370
     9
100
AcDbLine
 10
4625.2308348533
 20
961.4454731723221
 30
0.0
 11
4629.829132797239
 21
938.4549113519568
 31
0.0
  0
ARC
  5
28D
330
1F
100
AcDbEntity
  8
3-2
  6
JWW_DASHED2
 62
     3
370
     9
100
AcDbCircle
 10
4622.779695970275
 20
960.9546144241697
 30
0.0
 40
2.500000032218727
100
AcDbArc
 50
11.31385803222656
 51
90.0
  0
LINE
  5
28E
330
1F
100
AcDbEntity
  8
3-2
  6
JWW_DASHED2
 62
     3
370
     9
100
AcDbLine
 10
4667.328143037949
 20
938.4549113519568
 30
0.0
 11
4624.828497701695
 21
938.4549113519568
 31
0.0
  0
LINE
  5
28F
330
1F
100
AcDbEntity
  8
3-2
  6
JWW_DASHED2
 62
     3
370
     9
100
AcDbLine
 10
4610.437892496881
 20
900.0773660209815
 30
0.0
 11
4624.828497701695
 21
938.4549113519568
 31
0.0
  0
ARC
  5
290
330
1F
100
AcDbEntity
  8
3-2
  6
JWW_DASHED2
 62
     3
370
     9
100
AcDbCircle
 10
4608.096616895107
 20
900.9547876320455
 30
0.0
 40
2.500000032218727
100
AcDbArc
 50
270.0
 51
339.4458312988281
  0
LINE
  5
291
330
1F
100
AcDbEntity
  8
3-2
  6
JWW_DASHED2
 62
     3
370
     9
100
AcDbLine
 10
4586.56192913117
 20
898.4550268238739
 30
0.0
 11
4608.096616895107
 21
898.4550268238739
 31
0.0
  0
ARC
  5
292
330
1F
100
AcDbEntity
  8
3-2
  6
JWW_DASHED2
 62
     3
370
     9
100
AcDbCircle
 10
4586.56192913117
 20
900.9547876320455
 30
0.0
 40
2.500000032218727
100
AcDbArc
 50
200.5569763183594
 51
270.0
  0
LINE
  5
293
330
1F
100
AcDbEntity
  8
3-2
  6
JWW_DASHED2
 62
     3
370
     9
100
AcDbLine
 10
4666.926177046078
 20
961.4452875924552
 30
0.0
 11
4662.329363741074
 21
938.4549113519568
 31
0.0
  0
ARC
  5
294
330
1F
100
AcDbEntity
  8
3-2
  6
JWW_DASHED2
 62
     3
370
     9
100
AcDbCircle
 10
4669.37805824857
 20
960.9546144241697
 30
0.0
 40
2.500000032218727
100
AcDbArc
 50
90.0
 51
168.6900634765625
  0
LINE
  5
295
330
1F
100
AcDbEntity
  8
3-2
  6
JWW_DASHED2
 62
     3
370
     9
100
AcDbLine
 10
4720.279275322577
 20
963.4547463920752
 30
0.0
 11
4669.37805824857
 21
963.4547463920752
 31
0.0
  0
LINE
  5
296
330
1F
100
AcDbEntity
  8
3-2
  6
JWW_DASHED2
 62
     3
370
     9
100
AcDbLine
 10
4311.146624252645
 20
813.4549938318978
 30
0.0
 11
4778.717633113963
 21
813.4549938318978
 31
0.0
  0
LINE
  5
297
330
1F
100
AcDbEntity
  8
3-2
  6
JWW_DASHED2
 62
     3
370
     9
100
AcDbLine
 10
4486.721445336831
 20
900.0773660209815
 30
0.0
 11
4472.328984333346
 21
938.4549113519568
 31
0.0
  0
LINE
  5
298
330
1F
100
AcDbEntity
  8
3-2
  6
JWW_DASHED2
 62
     3
370
     9
100
AcDbLine
 10
4471.927389501209
 20
961.4452875924552
 30
0.0
 11
4467.330205036471
 21
938.4549113519568
 31
0.0
  0
ARC
  5
299
330
1F
100
AcDbEntity
  8
3-2
  6
JWW_DASHED2
 62
     3
370
     9
100
AcDbCircle
 10
4474.378157224499
 20
960.9546144241697
 30
0.0
 40
2.500000032218727
100
AcDbArc
 50
90.0
 51
168.6900634765625
  0
LINE
  5
29A
330
1F
100
AcDbEntity
  8
3-2
  6
JWW_DASHED2
 62
     3
370
     9
100
AcDbLine
 10
4474.378157224499
 20
963.4547463920752
 30
0.0
 11
4525.280116617974
 21
963.4547463920752
 31
0.0
  0
LINE
  5
29B
330
1F
100
AcDbEntity
  8
3-2
  6
JWW_DASHED2
 62
     3
370
     9
100
AcDbLine
 10
4527.731255500998
 20
961.4454731723221
 30
0.0
 11
4532.329553444938
 21
938.4549113519568
 31
0.0
  0
ARC
  5
29C
330
1F
100
AcDbEntity
  8
3-2
  6
JWW_DASHED2
 62
     3
370
     9
100
AcDbCircle
 10
4525.280116617974
 20
960.9546144241697
 30
0.0
 40
2.500000032218727
100
AcDbArc
 50
11.31385803222656
 51
90.0
  0
LINE
  5
29D
330
1F
100
AcDbEntity
  8
3-2
  6
JWW_DASHED2
 62
     3
370
     9
100
AcDbLine
 10
4512.938313144578
 20
900.0773660209815
 30
0.0
 11
4527.328918349393
 21
938.4549113519568
 31
0.0
  0
ARC
  5
29E
330
1F
100
AcDbEntity
  8
3-2
  6
JWW_DASHED2
 62
     3
370
     9
100
AcDbCircle
 10
4510.597037542805
 20
900.9547876320455
 30
0.0
 40
2.500000032218727
100
AcDbArc
 50
270.0
 51
339.4458312988281
  0
LINE
  5
29F
330
1F
100
AcDbEntity
  8
3-2
  6
JWW_DASHED2
 62
     3
370
     9
100
AcDbLine
 10
4489.062349778869
 20
898.4550268238739
 30
0.0
 11
4510.597037542805
 21
898.4550268238739
 31
0.0
  0
ARC
  5
2A0
330
1F
100
AcDbEntity
  8
3-2
  6
JWW_DASHED2
 62
     3
370
     9
100
AcDbCircle
 10
4489.062349778869
 20
900.9547876320455
 30
0.0
 40
2.500000032218727
100
AcDbArc
 50
200.5569763183594
 51
270.0
  0
LINE
  5
2A1
330
1F
100
AcDbEntity
  8
3-2
  6
JWW_DASHED2
 62
     3
370
     9
100
AcDbLine
 10
4389.221865984528
 20
900.0773660209815
 30
0.0
 11
4374.829404981045
 21
938.4549113519568
 31
0.0
  0
LINE
  5
2A2
330
1F
100
AcDbEntity
  8
3-2
  6
JWW_DASHED2
 62
     3
370
     9
100
AcDbLine
 10
4374.427810148907
 20
961.4452875924552
 30
0.0
 11
4369.83062568417
 21
938.4549113519568
 31
0.0
  0
ARC
  5
2A3
330
1F
100
AcDbEntity
  8
3-2
  6
JWW_DASHED2
 62
     3
370
     9
100
AcDbCircle
 10
4376.878577872198
 20
960.9546144241697
 30
0.0
 40
2.500000032218727
100
AcDbArc
 50
90.0
 51
168.6900634765625
  0
LINE
  5
2A4
330
1F
100
AcDbEntity
  8
3-2
  6
JWW_DASHED2
 62
     3
370
     9
100
AcDbLine
 10
4376.878577872198
 20
963.4547463920752
 30
0.0
 11
4427.780537265672
 21
963.4547463920752
 31
0.0
  0
LINE
  5
2A5
330
1F
100
AcDbEntity
  8
3-2
  6
JWW_DASHED2
 62
     3
370
     9
100
AcDbLine
 10
4430.231676148696
 20
961.4454731723221
 30
0.0
 11
4434.829974092637
 21
938.4549113519568
 31
0.0
  0
ARC
  5
2A6
330
1F
100
AcDbEntity
  8
3-2
  6
JWW_DASHED2
 62
     3
370
     9
100
AcDbCircle
 10
4427.780537265672
 20
960.9546144241697
 30
0.0
 40
2.500000032218727
100
AcDbArc
 50
11.31385803222656
 51
90.0
  0
LINE
  5
2A7
330
1F
100
AcDbEntity
  8
3-2
  6
JWW_DASHED2
 62
     3
370
     9
100
AcDbLine
 10
4415.438733792277
 20
900.0773660209815
 30
0.0
 11
4429.829338997092
 21
938.4549113519568
 31
0.0
  0
ARC
  5
2A8
330
1F
100
AcDbEntity
  8
3-2
  6
JWW_DASHED2
 62
     3
370
     9
100
AcDbCircle
 10
4413.097458190504
 20
900.9547876320455
 30
0.0
 40
2.500000032218727
100
AcDbArc
 50
270.0
 51
339.4458312988281
  0
LINE
  5
2A9
330
1F
100
AcDbEntity
  8
3-2
  6
JWW_DASHED2
 62
     3
370
     9
100
AcDbLine
 10
4391.562770426568
 20
898.4550268238739
 30
0.0
 11
4413.097458190504
 21
898.4550268238739
 31
0.0
  0
ARC
  5
2AA
330
1F
100
AcDbEntity
  8
3-2
  6
JWW_DASHED2
 62
     3
370
     9
100
AcDbCircle
 10
4391.562770426568
 20
900.9547876320455
 30
0.0
 40
2.500000032218727
100
AcDbArc
 50
200.5569763183594
 51
270.0
  0
LINE
  5
2AB
330
1F
100
AcDbEntity
  8
3-2
  6
JWW_DASHED2
 62
     3
370
     9
100
AcDbLine
 10
4429.829338997092
 20
938.4549113519568
 30
0.0
 11
4472.328984333346
 21
938.4549113519568
 31
0.0
  0
LINE
  5
2AC
330
1F
100
AcDbEntity
  8
3-2
  6
JWW_DASHED2
 62
     3
370
     9
100
AcDbLine
 10
4527.328918349393
 20
938.4549113519568
 30
0.0
 11
4569.828563685647
 21
938.4549113519568
 31
0.0
  0
LINE
  5
2AD
330
1F
100
AcDbEntity
  8
3-2
  6
JWW_DASHED2
 62
     3
370
     9
100
AcDbLine
 10
4374.829404981045
 20
938.4549113519568
 30
0.0
 11
4324.482331484867
 21
938.4549113519568
 31
0.0
  0
LINE
  5
2AE
330
1F
100
AcDbEntity
  8
3-4
  6
Continuous
 62
     7
370
     9
100
AcDbLine
 10
5621.406109227119
 20
478.4565609507744
 30
0.0
 11
5621.406109227119
 21
978.4571383103606
 31
0.0
  0
LINE
  5
2AF
330
1F
100
AcDbEntity
  8
3-4
  6
Continuous
 62
     7
370
     9
100
AcDbLine
 10
5621.406109227119
 20
478.4565609507744
 30
0.0
 11
5616.511377018867
 21
515.6357432522925
 31
0.0
  0
LINE
  5
2B0
330
1F
100
AcDbEntity
  8
3-4
  6
Continuous
 62
     7
370
     9
100
AcDbLine
 10
5621.406109227119
 20
478.4565609507744
 30
0.0
 11
5626.300841435371
 21
515.6357432522925
 31
0.0
  0
LINE
  5
2B1
330
1F
100
AcDbEntity
  8
3-4
  6
Continuous
 62
     7
370
     9
100
AcDbLine
 10
5621.406109227119
 20
978.4571383103606
 30
0.0
 11
5616.511377018867
 21
941.2779560088425
 31
0.0
  0
LINE
  5
2B2
330
1F
100
AcDbEntity
  8
3-4
  6
Continuous
 62
     7
370
     9
100
AcDbLine
 10
5621.406109227119
 20
978.4571383103606
 30
0.0
 11
5626.300841435371
 21
941.2779560088425
 31
0.0
  0
LINE
  5
2B3
330
1F
100
AcDbEntity
  8
3-4
  6
Continuous
 62
     7
370
     9
100
AcDbLine
 10
5625.906109227119
 20
978.4571383103606
 30
0.0
 11
5482.423285048179
 21
978.4571383103606
 31
0.0
  0
TEXT
  5
2B4
330
1F
100
AcDbEntity
  8
3-4
  6
Continuous
 62
     7
370
   211
100
AcDbText
 10
5603.946109227119
 20
679.7068496305676
 30
0.0
 40
45.72
  1
100
 50
90.0
 41
1.083333333333332
  7
ＭＳ ゴシック
100
AcDbText
  0
TEXT
  5
2B5
330
1F
100
AcDbEntity
  8
3-4
  6
Continuous
 62
     7
370
     0
100
AcDbText
 10
4502.22863031249
 20
-198.1653180222068
 30
0.0
 40
34.29
  1
クラッシャーラン基礎
 41
1.15
  7
ＭＳ ゴシック
100
AcDbText
  0
TEXT
  5
2B6
330
1F
100
AcDbEntity
  8
3-4
  6
Continuous
 62
     7
370
     0
100
AcDbText
 10
4600.979584334368
 20
32.25357469551075
 30
0.0
 40
34.29
  1
コンクリート
 41
1.138888888888889
  7
ＭＳ ゴシック
100
AcDbText
  0
LINE
  5
2B7
330
1F
100
AcDbEntity
  8
3-4
  6
Continuous
 62
     7
370
     9
100
AcDbLine
 10
4674.826848102877
 20
94.67902177586744
 30
0.0
 11
4849.826848102877
 21
94.67902177586744
 31
0.0
  0
LINE
  5
2B8
330
1F
100
AcDbEntity
  8
3-4
  6
Continuous
 62
     7
370
     9
100
AcDbLine
 10
4674.826848102877
 20
94.67902177586744
 30
0.0
 11
4712.006030404395
 21
99.57375398411948
 31
0.0
  0
LINE
  5
2B9
330
1F
100
AcDbEntity
  8
3-4
  6
Continuous
 62
     7
370
     9
100
AcDbLine
 10
4674.826848102877
 20
94.67902177586744
 30
0.0
 11
4712.006030404395
 21
89.7842895676154
 31
0.0
  0
LINE
  5
2BA
330
1F
100
AcDbEntity
  8
3-4
  6
Continuous
 62
     7
370
     9
100
AcDbLine
 10
4849.826848102877
 20
94.67902177586744
 30
0.0
 11
4812.64766580136
 21
99.57375398411948
 31
0.0
  0
LINE
  5
2BB
330
1F
100
AcDbEntity
  8
3-4
  6
Continuous
 62
     7
370
     9
100
AcDbLine
 10
4849.826848102877
 20
94.67902177586744
 30
0.0
 11
4812.64766580136
 21
89.7842895676154
 31
0.0
  0
LINE
  5
2BC
330
1F
100
AcDbEntity
  8
3-4
  6
Continuous
 62
     7
370
     9
100
AcDbLine
 10
4674.826848102877
 20
90.17902177586727
 30
0.0
 11
4674.826848102877
 21
442.4275872769833
 31
0.0
  0
LINE
  5
2BD
330
1F
100
AcDbEntity
  8
3-4
  6
Continuous
 62
     7
370
     9
100
AcDbLine
 10
4849.826848102877
 20
90.17902177586727
 30
0.0
 11
4849.826848102877
 21
442.4275872769833
 31
0.0
  0
TEXT
  5
2BE
330
1F
100
AcDbEntity
  8
3-4
  6
Continuous
 62
     7
370
   211
100
AcDbText
 10
4730.451848102877
 20
112.1390217758675
 30
0.0
 40
45.72
  1
35
 41
1.0625
  7
ＭＳ ゴシック
100
AcDbText
  0
TEXT
  5
2BF
330
1F
100
AcDbEntity
  8
3-4
  6
Continuous
 62
     7
370
     0
100
AcDbText
 10
5058.403667964282
 20
1261.181360010609
 30
0.0
 40
34.29
  1
受枠：L40X40X5
 41
1.154761904761905
  7
ＭＳ ゴシック
100
AcDbText
  0
TEXT
  5
2C0
330
1F
100
AcDbEntity
  8
3-4
  6
Continuous
 62
     7
370
     0
100
AcDbText
 10
5059.852263915941
 20
1184.405774572682
 30
0.0
 40
34.29
  1
SS400
 41
1.133333333333333
  7
ＭＳ ゴシック
100
AcDbText
  0
TEXT
  5
2C1
330
1F
100
AcDbEntity
  8
3-4
  6
Continuous
 62
     7
370
     0
100
AcDbText
 10
5219.197818598432
 20
1185.85437052434
 30
0.0
 40
34.29
  1
樹脂系塗装
 41
1.133333333333333
  7
ＭＳ ゴシック
100
AcDbText
  0
LINE
  5
2C2
330
1F
100
AcDbEntity
  8
3-4
  6
Continuous
 62
     7
370
     9
100
AcDbLine
 10
5036.466537628303
 20
1237.934880793285
 30
0.0
 11
5481.393685848713
 21
1237.934880793285
 31
0.0
  0
LINE
  5
2C3
330
1F
100
AcDbEntity
  8
3-5
  6
Continuous
 62
     7
370
     9
100
AcDbLine
 10
5036.466537628303
 20
1237.934880793285
 30
0.0
 11
4857.050692412993
 21
925.7633480467446
 31
0.0
  0
LINE
  5
2C4
330
1F
100
AcDbEntity
  8
3-4
  6
Continuous
 62
     7
370
     9
100
AcDbLine
 10
4674.826848102877
 20
1162.835109516155
 30
0.0
 11
4942.401239432489
 21
1162.835109516155
 31
0.0
  0
LINE
  5
2C5
330
1F
100
AcDbEntity
  8
3-4
  6
Continuous
 62
     7
370
     9
100
AcDbLine
 10
4824.828662661576
 20
1162.835109516155
 30
0.0
 11
4787.649480360058
 21
1167.729841724407
 31
0.0
  0
LINE
  5
2C6
330
1F
100
AcDbEntity
  8
3-4
  6
Continuous
 62
     7
370
     9
100
AcDbLine
 10
4824.828662661576
 20
1162.835109516155
 30
0.0
 11
4787.649480360058
 21
1157.940377307903
 31
0.0
  0
LINE
  5
2C7
330
1F
100
AcDbEntity
  8
3-4
  6
Continuous
 62
     7
370
     9
100
AcDbLine
 10
4824.828662661576
 20
1167.335109516155
 30
0.0
 11
4824.828662661576
 21
998.2256321533692
 31
0.0
  0
TEXT
  5
2C8
330
1F
100
AcDbEntity
  8
3-4
  6
Continuous
 62
     7
370
   211
100
AcDbText
 10
4717.952755382227
 20
1180.295109516155
 30
0.0
 40
45.72
  1
30
 41
1.0625
  7
ＭＳ ゴシック
100
AcDbText
  0
LINE
  5
2C9
330
1F
100
AcDbEntity
  8
3-4
  6
Continuous
 62
     7
370
     9
100
AcDbLine
 10
4849.829719596913
 20
1167.335109516155
 30
0.0
 11
4849.829719596913
 21
998.2256321533692
 31
0.0
  0
TEXT
  5
2CA
330
1F
100
AcDbEntity
  8
3-4
  6
Continuous
 62
     7
370
   211
100
AcDbText
 10
4822.329191129244
 20
1180.295109516155
 30
0.0
 40
45.72
  1
5
  7
ＭＳ ゴシック
100
AcDbText
  0
LINE
  5
2CB
330
1F
100
AcDbEntity
  8
3-4
  6
Continuous
 62
     7
370
     9
100
AcDbLine
 10
4874.827755382226
 20
1167.335109516155
 30
0.0
 11
4874.827755382226
 21
998.2256321533692
 31
0.0
  0
LINE
  5
2CC
330
1F
100
AcDbEntity
  8
3-4
  6
Continuous
 62
     7
370
     9
100
AcDbLine
 10
4874.827755382226
 20
1162.835109516155
 30
0.0
 11
4912.006937683745
 21
1157.940377307903
 31
0.0
  0
LINE
  5
2CD
330
1F
100
AcDbEntity
  8
3-4
  6
Continuous
 62
     7
370
     9
100
AcDbLine
 10
4874.827755382226
 20
1162.835109516155
 30
0.0
 11
4912.006937683745
 21
1167.729841724407
 31
0.0
  0
TEXT
  5
2CE
330
1F
100
AcDbEntity
  8
3-4
  6
Continuous
 62
     7
370
   211
100
AcDbText
 10
4882.250060544565
 20
1181.473875932201
 30
0.0
 40
45.72
  1
5
  7
ＭＳ ゴシック
100
AcDbText
  0
LWPOLYLINE
  5
2CF
330
1F
100
AcDbEntity
  8
3-5
  6
Continuous
 62
     7
370
     9
100
AcDbPolyline
 90
        4
 70
     1
 43
1.5
 10
4850.579719596913
 20
1162.835109516155
 42
0.4142135623731
 10
4849.829719596913
 20
1163.585109516155
 42
0.4142135623731
 10
4849.079719596913
 20
1162.835109516155
 42
0.4142135623731
 10
4849.829719596913
 20
1162.085109516155
 42
0.4142135623731
  0
LINE
  5
2D0
330
1F
100
AcDbEntity
  8
3-4
  6
Continuous
 62
     7
370
     9
100
AcDbLine
 10
4674.826848102877
 20
1167.335109516155
 30
0.0
 11
4674.826848102877
 21
857.3297346118294
 31
0.0
  0
LINE
  5
2D1
330
1F
100
AcDbEntity
  8
3-5
  6
Continuous
 62
     7
370
     9
100
AcDbLine
 10
4596.67725711265
 20
524.6813838989617
 30
0.0
 11
4727.431384426121
 21
661.0252178259904
 31
0.0
  0
LINE
  5
2D2
330
1F
100
AcDbEntity
  8
3-5
  6
Continuous
 62
     7
370
     9
100
AcDbLine
 10
4393.753643944339
 20
524.6813838989617
 30
0.0
 11
4596.67725711265
 21
524.6813838989617
 31
0.0
  0
TEXT
  5
2D3
330
1F
100
AcDbEntity
  8
3-4
  6
Continuous
 62
     7
370
     0
100
AcDbText
 10
4395.865165134575
 20
541.9136553156718
 30
0.0
 40
34.29
  1
モルタル
 41
1.125
  7
ＭＳ ゴシック
100
AcDbText
  0
TEXT
  5
2D4
330
1F
100
AcDbEntity
  8
3-4
  6
Continuous
 62
     6
370
     0
100
AcDbText
 10
5041.597821637283
 20
566.9608494358941
 30
0.0
 40
14.2875
  1
・
 41
0.9999999999999998
  7
ＭＳ ゴシック
100
AcDbText
  0
LINE
  5
2D5
330
1F
100
AcDbEntity
  8
3-4
  6
Continuous
 62
     7
370
     9
100
AcDbLine
 10
5625.906109227119
 20
478.4565609507744
 30
0.0
 11
4947.956663805331
 21
478.4565609507744
 31
0.0
  0
LINE
  5
2D6
330
1F
100
AcDbEntity
  8
3-4
  6
Continuous
 62
     7
370
     9
100
AcDbLine
 10
5052.928578281609
 20
478.4565609507744
 30
0.0
 11
5052.928578281609
 21
978.4565609507745
 31
0.0
  0
LINE
  5
2D7
330
1F
100
AcDbEntity
  8
3-4
  6
Continuous
 62
     7
370
     9
100
AcDbLine
 10
5052.928578281609
 20
478.4565609507744
 30
0.0
 11
5048.033846073356
 21
515.6357432522925
 31
0.0
  0
LINE
  5
2D8
330
1F
100
AcDbEntity
  8
3-4
  6
Continuous
 62
     7
370
     9
100
AcDbLine
 10
5052.928578281609
 20
478.4565609507744
 30
0.0
 11
5057.823310489861
 21
515.6357432522925
 31
0.0
  0
LINE
  5
2D9
330
1F
100
AcDbEntity
  8
3-4
  6
Continuous
 62
     7
370
     9
100
AcDbLine
 10
5057.823310489861
 20
815.635207132677
 30
0.0
 11
5048.033846073356
 21
741.2768425296408
 31
0.0
  0
LINE
  5
2DA
330
1F
100
AcDbEntity
  8
3-4
  6
Continuous
 62
     7
370
     9
100
AcDbLine
 10
5048.033846073356
 20
815.635207132677
 30
0.0
 11
5057.823310489861
 21
741.2768425296408
 31
0.0
  0
LINE
  5
2DB
330
1F
100
AcDbEntity
  8
3-4
  6
Continuous
 62
     7
370
     9
100
AcDbLine
 10
5057.428578281609
 20
778.4560248311589
 30
0.0
 11
4947.956663805331
 21
778.4560248311589
 31
0.0
  0
TEXT
  5
2DC
330
1F
100
AcDbEntity
  8
3-4
  6
Continuous
 62
     7
370
   211
100
AcDbText
 10
5035.468578281609
 20
596.5812928909669
 30
0.0
 40
45.72
  1
60
 50
90.0
 41
1.0625
  7
ＭＳ ゴシック
100
AcDbText
  0
LINE
  5
2DD
330
1F
100
AcDbEntity
  8
3-4
  6
Continuous
 62
     7
370
     9
100
AcDbLine
 10
5052.928578281609
 20
978.4565609507745
 30
0.0
 11
5048.033846073356
 21
941.2773786492564
 31
0.0
  0
LINE
  5
2DE
330
1F
100
AcDbEntity
  8
3-4
  6
Continuous
 62
     7
370
     9
100
AcDbLine
 10
5052.928578281609
 20
978.4565609507745
 30
0.0
 11
5057.823310489861
 21
941.2773786492564
 31
0.0
  0
LINE
  5
2DF
330
1F
100
AcDbEntity
  8
3-4
  6
Continuous
 62
     7
370
     9
100
AcDbLine
 10
5057.428578281609
 20
978.4565609507745
 30
0.0
 11
4947.956663805331
 21
978.4565609507745
 31
0.0
  0
TEXT
  5
2E0
330
1F
100
AcDbEntity
  8
3-4
  6
Continuous
 62
     7
370
   211
100
AcDbText
 10
5035.468578281609
 20
846.5812928909667
 30
0.0
 40
45.72
  1
40
 50
90.0
 41
1.0625
  7
ＭＳ ゴシック
100
AcDbText
  0
TEXT
  5
2E1
330
1F
100
AcDbEntity
  8
3-4
  6
Continuous
 62
     7
370
     0
100
AcDbText
 10
5073.760189488605
 20
601.1547012886947
 30
0.0
 40
34.29
  1
サンドクッション
 41
1.145833333333333
  7
ＭＳ ゴシック
100
AcDbText
  0
TEXT
  5
2E2
330
1F
100
AcDbEntity
  8
3-4
  6
Continuous
 62
     7
370
     0
100
AcDbText
 10
5202.835350888813
 20
1068.691739367978
 30
0.0
 40
34.29
  1
インターロッキングブロック
 41
1.153846153846154
  7
ＭＳ ゴシック
100
AcDbText
  0
LINE
  5
2E3
330
1F
100
AcDbEntity
  8
3-4
  6
Continuous
 62
     7
370
     9
100
AcDbLine
 10
5199.010168478861
 20
1048.583447302945
 30
0.0
 11
5887.119353739333
 21
1048.583447302945
 31
0.0
  0
LINE
  5
2E4
330
1F
100
AcDbEntity
  8
3-5
  6
Continuous
 62
     7
370
     9
100
AcDbLine
 10
5199.010168478861
 20
1048.583447302945
 30
0.0
 11
5102.944712846263
 21
906.7259064960406
 31
0.0
  0
LINE
  5
2E5
330
1F
100
AcDbEntity
  8
3-5
  6
Continuous
 62
     7
370
     9
100
AcDbLine
 10
4094.896960682077
 20
297.79370325934
 30
0.0
 11
4479.580550739171
 21
297.79370325934
 31
0.0
  0
TEXT
  5
2E6
330
1F
100
AcDbEntity
  8
3-4
  6
Continuous
 62
     7
370
     0
100
AcDbText
 10
4107.598777334905
 20
248.4926493517101
 30
0.0
 40
34.29
  1
Ｍ１２（別途）
 41
1.142857142857143
  7
ＭＳ ゴシック
100
AcDbText
  0
TEXT
  5
2E7
330
1F
100
AcDbEntity
  8
3-4
  6
Continuous
 62
     7
370
     0
100
AcDbText
 10
4110.018170983063
 20
315.0259746760501
 30
0.0
 40
34.29
  1
アンカーボルト
 41
1.142857142857143
  7
ＭＳ ゴシック
100
AcDbText
  0
LINE
  5
2E8
330
1F
100
AcDbEntity
  8
3-5
  6
Continuous
 62
     7
370
     9
100
AcDbLine
 10
4479.580550739171
 20
297.79370325934
 30
0.0
 11
4787.326848102878
 21
523.5787755233348
 31
0.0
  0
TEXT
  5
2E9
330
1F
100
AcDbEntity
  8
3-4
  6
Continuous
 62
     6
370
     0
100
AcDbText
 10
4715.515257396774
 20
710.4176531806205
 30
0.0
 40
28.575
  1
・
 41
0.9999999999999998
  7
ＭＳ ゴシック
100
AcDbText
  0
TEXT
  5
2EA
330
1F
100
AcDbEntity
  8
3-4
  6
Continuous
 62
     6
370
     0
100
AcDbText
 10
4710.033814691594
 20
576.5138385254828
 30
0.0
 40
28.575
  1
・
 41
0.9999999999999998
  7
ＭＳ ゴシック
100
AcDbText
  0
TEXT
  5
2EB
330
1F
100
AcDbEntity
  8
3-4
  6
Continuous
 62
     6
370
     0
100
AcDbText
 10
4744.488597409874
 20
646.9895304492394
 30
0.0
 40
28.575
  1
・
 41
0.9999999999999998
  7
ＭＳ ゴシック
100
AcDbText
  0
TEXT
  5
2EC
330
1F
100
AcDbEntity
  8
3-4
  6
Continuous
 62
     6
370
     0
100
AcDbText
 10
4783.641759589739
 20
716.6821591293987
 30
0.0
 40
28.575
  1
・
 41
0.9999999999999998
  7
ＭＳ ゴシック
100
AcDbText
  0
TEXT
  5
2ED
330
1F
100
AcDbEntity
  8
3-4
  6
Continuous
 62
     6
370
     0
100
AcDbText
 10
4814.964289333631
 20
607.8363682693745
 30
0.0
 40
28.575
  1
・
 41
0.9999999999999998
  7
ＭＳ ゴシック
100
AcDbText
  0
TEXT
  5
2EE
330
1F
100
AcDbEntity
  8
3-4
  6
Continuous
 62
     6
370
     0
100
AcDbText
 10
4828.276364474786
 20
679.0951234367286
 30
0.0
 40
28.575
  1
・
 41
0.9999999999999998
  7
ＭＳ ゴシック
100
AcDbText
  0
LINE
  5
2EF
330
1F
100
AcDbEntity
  8
3-5
  6
Continuous
 62
     7
370
     9
100
AcDbLine
 10
4417.8469160267
 20
-608.8146833413039
 30
0.0
 11
5095.487866359063
 21
-608.8146833413039
 31
0.0
  0
TEXT
  5
2F0
330
1F
100
AcDbEntity
  8
3-0
  6
Continuous
 62
     7
370
     9
100
AcDbText
 10
4429.531893476137
 20
-582.9635781817335
 30
0.0
 40
45.72
  1
納まり図　Ｓ＝１：３
 41
1.1125
  7
ＭＳ ゴシック
100
AcDbText
  0
TEXT
  5
2F1
330
1F
100
AcDbEntity
  8
3-5
  6
Continuous
 62
     3
370
     9
100
AcDbText
 10
4063.357054619947
 20
-833.9687576924719
 30
0.0
 40
68.58
  1
蓋とセットの図面のときにご利用下さい
 41
1.157407407407407
  7
ＭＳ ゴシック
100
AcDbText
  0
TEXT
  5
2F2
330
1F
100
AcDbEntity
  8
F-Eﾚｲﾔ
  6
Continuous
 62
     7
370
     9
100
AcDbText
 10
-1077.068913439508
 20
-1987.413327781658
 30
0.0
 40
45.72
  1
丸型用　インターロッキングブロック用
 41
1.118055555555556
  7
ＭＳ ゴシック
100
AcDbText
  0
TEXT
  5
2F3
330
1F
100
AcDbEntity
  8
F-Eﾚｲﾔ
  6
Continuous
 62
     7
370
     9
100
AcDbText
 10
-413.8146808107189
 20
-2059.871745156675
 30
0.0
 40
45.72
  1
スチール製受枠　RH-E-2000
 41
1.12
  7
ＭＳ ゴシック
100
AcDbText
  0
LINE
  5
2F4
330
1F
100
AcDbEntity
  8
5-2
  6
JWW_DASHED1
 62
     3
370
     9
100
AcDbLine
 10
-254.5339028732352
 20
881.9552620648736
 30
0.0
 11
-244.6987791593394
 21
845.2500806658891
 31
0.0
  0
LINE
  5
2F5
330
1F
100
AcDbEntity
  8
5-2
  6
JWW_CENTER2
 62
     4
370
     9
100
AcDbLine
 10
-263.9888961401028
 20
868.9454860075914
 30
0.0
 11
-259.6003441714208
 21
852.567187088814
 31
0.0
  0
LINE
  5
2F6
330
1F
100
AcDbEntity
  8
5-2
  6
JWW_DASHED1
 62
     3
370
     9
100
AcDbLine
 10
-244.6987791593394
 20
845.2500806658891
 30
0.0
 11
-278.5061830794568
 21
836.1914140873007
 31
0.0
  0
LINE
  5
2F7
330
1F
100
AcDbEntity
  8
5-2
  6
JWW_DASHED1
 62
     3
370
     9
100
AcDbLine
 10
-260.0274594792384
 20
854.1612031182794
 30
0.0
 11
-247.953386650625
 21
857.3964411820609
 31
0.0
  0
ARC
  5
2F8
330
1F
100
AcDbEntity
  8
5-2
  6
JWW_DASHED1
 62
     3
370
     9
100
AcDbCircle
 10
-261.7098356266507
 20
860.4397069608805
 30
0.0
 40
6.5
100
AcDbArc
 50
105.0
 51
285.0
  0
LINE
  5
2F9
330
1F
100
AcDbEntity
  8
5-2
  6
JWW_DASHED1
 62
     3
370
     9
100
AcDbLine
 10
-263.3921070655713
 20
866.7182388600374
 30
0.0
 11
-251.3180342369578
 21
869.9534769238189
 31
0.0
  0
LINE
  5
2FA
330
1F
100
AcDbEntity
  8
5-2
  6
JWW_DASHED1
 62
     3
370
     9
100
AcDbLine
 10
-288.3413067933526
 20
872.8965954862856
 30
0.0
 11
-254.5339028732352
 21
881.9552620648736
 31
0.0
  0
LINE
  5
2FB
330
1F
100
AcDbEntity
  8
5-2
  6
JWW_CENTER2
 62
     4
370
     9
100
AcDbLine
 10
-233.8196889321524
 20
867.9128492444569
 30
0.0
 11
-293.3159828516004
 21
851.9708653360962
 31
0.0
  0
LINE
  5
2FC
330
1F
100
AcDbEntity
  8
5-2
  6
JWW_DASHED1
 62
     3
370
     9
100
AcDbLine
 10
-274.1595168611559
 20
837.3560997902621
 30
0.0
 11
-283.9946405750518
 21
874.0612811892468
 31
0.0
  0
LINE
  5
2FD
330
1F
100
AcDbEntity
  8
5-2
  6
JWW_DASHED1
 62
     3
370
     9
100
AcDbLine
 10
-288.3413067933526
 20
872.8965954862856
 30
0.0
 11
-278.5061830794568
 21
836.1914140873007
 31
0.0
  0
LINE
  5
2FE
330
1F
100
AcDbEntity
  8
5-2
  6
JWW_DASHED1
 62
     3
370
     9
100
AcDbLine
 10
-523.1309409404354
 20
1327.586301788019
 30
0.0
 11
-496.2608832553466
 21
1300.716244102931
 31
0.0
  0
LINE
  5
2FF
330
1F
100
AcDbEntity
  8
5-2
  6
JWW_CENTER2
 62
     4
370
     9
100
AcDbLine
 10
-524.8143172735125
 20
1311.592008591433
 30
0.0
 11
-512.8245703234169
 21
1299.602261641337
 31
0.0
  0
LINE
  5
300
330
1F
100
AcDbEntity
  8
5-2
  6
JWW_DASHED1
 62
     3
370
     9
100
AcDbLine
 10
-496.2608832553466
 20
1300.716244102931
 30
0.0
 11
-521.0096205968757
 21
1275.967506761402
 31
0.0
  0
LINE
  5
301
330
1F
100
AcDbEntity
  8
5-2
  6
JWW_DASHED1
 62
     3
370
     9
100
AcDbLine
 10
-513.9914710450648
 20
1300.769162362985
 30
0.0
 11
-505.152636280233
 21
1309.607997127817
 31
0.0
  0
ARC
  5
302
330
1F
100
AcDbEntity
  8
5-2
  6
JWW_DASHED1
 62
     3
370
     9
100
AcDbCircle
 10
-518.5877034487455
 20
1305.36531811473
 30
0.0
 40
6.5
100
AcDbArc
 50
135.0
 51
314.9999999999999
  0
LINE
  5
303
330
1F
100
AcDbEntity
  8
5-2
  6
JWW_DASHED1
 62
     3
370
     9
100
AcDbLine
 10
-523.1838592004901
 20
1309.96155051841
 30
0.0
 11
-514.3450244356584
 21
1318.800385283242
 31
0.0
  0
LINE
  5
304
330
1F
100
AcDbEntity
  8
5-2
  6
JWW_DASHED1
 62
     3
370
     9
100
AcDbLine
 10
-547.8796782819646
 20
1302.83756444649
 30
0.0
 11
-523.1309409404354
 21
1327.586301788019
 31
0.0
  0
LINE
  5
305
330
1F
100
AcDbEntity
  8
5-2
  6
JWW_CENTER2
 62
     4
370
     9
100
AcDbLine
 10
-498.1706990378235
 20
1325.782322525652
 30
0.0
 11
-541.7250090489108
 21
1282.228012514564
 31
0.0
  0
LINE
  5
306
330
1F
100
AcDbEntity
  8
5-2
  6
JWW_DASHED1
 62
     3
370
     9
100
AcDbLine
 10
-517.8276400815362
 20
1279.149487276741
 30
0.0
 11
-544.6976977666252
 21
1306.01954496183
 31
0.0
  0
LINE
  5
307
330
1F
100
AcDbEntity
  8
5-2
  6
JWW_DASHED1
 62
     3
370
     9
100
AcDbLine
 10
-547.8796782819646
 20
1302.83756444649
 30
0.0
 11
-521.0096205968757
 21
1275.967506761402
 31
0.0
  0
LINE
  5
308
330
1F
100
AcDbEntity
  8
5-2
  6
JWW_DASHED1
 62
     3
370
     9
100
AcDbLine
 10
-978.5583191494597
 20
1579.215583869536
 30
0.0
 11
-941.8531377504748
 21
1569.38046015564
 31
0.0
  0
LINE
  5
309
330
1F
100
AcDbEntity
  8
5-2
  6
JWW_CENTER2
 62
     4
370
     9
100
AcDbLine
 10
-972.0190192197404
 20
1564.522431479177
 30
0.0
 11
-955.640720300963
 21
1560.133879510495
 31
0.0
  0
LINE
  5
30A
330
1F
100
AcDbEntity
  8
5-2
  6
JWW_DASHED1
 62
     3
370
     9
100
AcDbLine
 10
-941.8531377504748
 20
1569.38046015564
 30
0.0
 11
-950.9118043290632
 21
1535.573056235523
 31
0.0
  0
LINE
  5
30B
330
1F
100
AcDbEntity
  8
5-2
  6
JWW_DASHED1
 62
     3
370
     9
100
AcDbLine
 10
-957.2347363304286
 20
1560.560994818312
 30
0.0
 11
-953.999498266647
 21
1572.635067646926
 31
0.0
  0
ARC
  5
30C
330
1F
100
AcDbEntity
  8
5-2
  6
JWW_DASHED1
 62
     3
370
     9
100
AcDbCircle
 10
-963.5132682295854
 20
1562.243266257233
 30
0.0
 40
6.5
100
AcDbArc
 50
165.0
 51
344.9999999999999
  0
LINE
  5
30D
330
1F
100
AcDbEntity
  8
5-2
  6
JWW_DASHED1
 62
     3
370
     9
100
AcDbLine
 10
-969.7917720721866
 20
1563.925642404645
 30
0.0
 11
-966.556534008405
 21
1575.999715233258
 31
0.0
  0
LINE
  5
30E
330
1F
100
AcDbEntity
  8
5-2
  6
JWW_DASHED1
 62
     3
370
     9
100
AcDbLine
 10
-987.616985728048
 20
1545.408179949419
 30
0.0
 11
-978.5583191494597
 21
1579.215583869536
 31
0.0
  0
LINE
  5
30F
330
1F
100
AcDbEntity
  8
5-2
  6
JWW_CENTER2
 62
     4
370
     9
100
AcDbLine
 10
-956.0401259460091
 20
1590.133412951731
 30
0.0
 11
-971.9821098543698
 21
1530.637119032283
 31
0.0
  0
LINE
  5
310
330
1F
100
AcDbEntity
  8
5-2
  6
JWW_DASHED1
 62
     3
370
     9
100
AcDbLine
 10
-949.7471186261016
 20
1539.919722453824
 30
0.0
 11
-986.4523000250865
 21
1549.754846167719
 31
0.0
  0
LINE
  5
311
330
1F
100
AcDbEntity
  8
5-2
  6
JWW_DASHED1
 62
     3
370
     9
100
AcDbLine
 10
-987.616985728048
 20
1545.408179949419
 30
0.0
 11
-950.9118043290632
 21
1535.573056235523
 31
0.0
  0
LINE
  5
312
330
1F
100
AcDbEntity
  8
5-2
  6
JWW_DASHED1
 62
     3
370
     9
100
AcDbLine
 10
-1498.784639298176
 20
1569.419245383658
 30
0.0
 11
-1462.079457899192
 21
1579.254369097554
 31
0.0
  0
LINE
  5
313
330
1F
100
AcDbEntity
  8
5-2
  6
JWW_CENTER2
 62
     4
370
     9
100
AcDbLine
 10
-1485.774863240894
 20
1559.96425211679
 30
0.0
 11
-1469.396564322117
 21
1564.352804085472
 31
0.0
  0
LINE
  5
314
330
1F
100
AcDbEntity
  8
5-2
  6
JWW_DASHED1
 62
     3
370
     9
100
AcDbLine
 10
-1462.079457899192
 20
1579.254369097554
 30
0.0
 11
-1453.020791320604
 21
1545.446965177436
 31
0.0
  0
LINE
  5
315
330
1F
100
AcDbEntity
  8
5-2
  6
JWW_DASHED1
 62
     3
370
     9
100
AcDbLine
 10
-1470.990580351582
 20
1563.925688777654
 30
0.0
 11
-1474.225818415364
 21
1575.999761606268
 31
0.0
  0
ARC
  5
316
330
1F
100
AcDbEntity
  8
5-2
  6
JWW_DASHED1
 62
     3
370
     9
100
AcDbCircle
 10
-1477.269084194183
 20
1562.243312630242
 30
0.0
 40
6.5
100
AcDbArc
 50
195.0
 51
14.99999999999998
  0
LINE
  5
317
330
1F
100
AcDbEntity
  8
5-2
  6
JWW_DASHED1
 62
     3
370
     9
100
AcDbLine
 10
-1483.54761609334
 20
1560.561041191322
 30
0.0
 11
-1486.782854157122
 21
1572.635114019935
 31
0.0
  0
LINE
  5
318
330
1F
100
AcDbEntity
  8
5-2
  6
JWW_DASHED1
 62
     3
370
     9
100
AcDbLine
 10
-1489.725972719589
 20
1535.61184146354
 30
0.0
 11
-1498.784639298176
 21
1569.419245383658
 31
0.0
  0
LINE
  5
319
330
1F
100
AcDbEntity
  8
5-2
  6
JWW_CENTER2
 62
     4
370
     9
100
AcDbLine
 10
-1484.74222647776
 20
1590.13345932474
 30
0.0
 11
-1468.800242569399
 21
1530.637165405293
 31
0.0
  0
LINE
  5
31A
330
1F
100
AcDbEntity
  8
5-2
  6
JWW_DASHED1
 62
     3
370
     9
100
AcDbLine
 10
-1454.185477023565
 20
1549.793631395737
 30
0.0
 11
-1490.89065842255
 21
1539.958507681841
 31
0.0
  0
LINE
  5
31B
330
1F
100
AcDbEntity
  8
5-2
  6
JWW_DASHED1
 62
     3
370
     9
100
AcDbLine
 10
-1489.725972719589
 20
1535.61184146354
 30
0.0
 11
-1453.020791320604
 21
1545.446965177436
 31
0.0
  0
LINE
  5
31C
330
1F
100
AcDbEntity
  8
5-2
  6
JWW_DASHED1
 62
     3
370
     9
100
AcDbLine
 10
-1944.415679021323
 20
1300.822207316458
 30
0.0
 11
-1917.545621336234
 21
1327.692265001547
 31
0.0
  0
LINE
  5
31D
330
1F
100
AcDbEntity
  8
5-2
  6
JWW_CENTER2
 62
     4
370
     9
100
AcDbLine
 10
-1928.421385824736
 20
1299.138830983381
 30
0.0
 11
-1916.43163887464
 21
1311.128577933476
 31
0.0
  0
LINE
  5
31E
330
1F
100
AcDbEntity
  8
5-2
  6
JWW_DASHED1
 62
     3
370
     9
100
AcDbLine
 10
-1917.545621336234
 20
1327.692265001547
 30
0.0
 11
-1892.796883994705
 21
1302.943527660017
 31
0.0
  0
LINE
  5
31F
330
1F
100
AcDbEntity
  8
5-2
  6
JWW_DASHED1
 62
     3
370
     9
100
AcDbLine
 10
-1917.598539596288
 20
1309.961677211828
 30
0.0
 11
-1926.43737436112
 21
1318.80051197666
 31
0.0
  0
ARC
  5
320
330
1F
100
AcDbEntity
  8
5-2
  6
JWW_DASHED1
 62
     3
370
     9
100
AcDbCircle
 10
-1922.194695348033
 20
1305.365444808147
 30
0.0
 40
6.5
100
AcDbArc
 50
225.0
 51
44.99999999999997
  0
LINE
  5
321
330
1F
100
AcDbEntity
  8
5-2
  6
JWW_DASHED1
 62
     3
370
     9
100
AcDbLine
 10
-1926.790927751713
 20
1300.769289056403
 30
0.0
 11
-1935.629762516545
 21
1309.608123821235
 31
0.0
  0
LINE
  5
322
330
1F
100
AcDbEntity
  8
5-2
  6
JWW_DASHED1
 62
     3
370
     9
100
AcDbLine
 10
-1919.666941679794
 20
1276.073469974928
 30
0.0
 11
-1944.415679021323
 21
1300.822207316458
 31
0.0
  0
LINE
  5
323
330
1F
100
AcDbEntity
  8
5-2
  6
JWW_CENTER2
 62
     4
370
     9
100
AcDbLine
 10
-1942.611699758955
 20
1325.782449219069
 30
0.0
 11
-1899.057389747868
 21
1282.228139207982
 31
0.0
  0
LINE
  5
324
330
1F
100
AcDbEntity
  8
5-2
  6
JWW_DASHED1
 62
     3
370
     9
100
AcDbLine
 10
-1895.978864510044
 20
1306.125508175357
 30
0.0
 11
-1922.848922195133
 21
1279.255450490268
 31
0.0
  0
LINE
  5
325
330
1F
100
AcDbEntity
  8
5-2
  6
JWW_DASHED1
 62
     3
370
     9
100
AcDbLine
 10
-1919.666941679794
 20
1276.073469974928
 30
0.0
 11
-1892.796883994705
 21
1302.943527660017
 31
0.0
  0
LINE
  5
326
330
1F
100
AcDbEntity
  8
5-2
  6
JWW_DASHED1
 62
     3
370
     9
100
AcDbLine
 10
-2196.044961102839
 20
845.3948291074332
 30
0.0
 11
-2186.209837388944
 21
882.100010506418
 31
0.0
  0
LINE
  5
327
330
1F
100
AcDbEntity
  8
5-2
  6
JWW_CENTER2
 62
     4
370
     9
100
AcDbLine
 10
-2181.35180871248
 20
851.9341290371525
 30
0.0
 11
-2176.963256743798
 21
868.3124279559299
 31
0.0
  0
LINE
  5
328
330
1F
100
AcDbEntity
  8
5-2
  6
JWW_DASHED1
 62
     3
370
     9
100
AcDbLine
 10
-2186.209837388944
 20
882.100010506418
 30
0.0
 11
-2152.402433468826
 21
873.0413439278298
 31
0.0
  0
LINE
  5
329
330
1F
100
AcDbEntity
  8
5-2
  6
JWW_DASHED1
 62
     3
370
     9
100
AcDbLine
 10
-2177.390372051615
 20
866.7184119264643
 30
0.0
 11
-2189.464444880229
 21
869.9536499902458
 31
0.0
  0
ARC
  5
32A
330
1F
100
AcDbEntity
  8
5-2
  6
JWW_DASHED1
 62
     3
370
     9
100
AcDbCircle
 10
-2179.072643490536
 20
860.4398800273076
 30
0.0
 40
6.5
100
AcDbArc
 50
255.0
 51
74.99999999999997
  0
LINE
  5
32B
330
1F
100
AcDbEntity
  8
5-2
  6
JWW_DASHED1
 62
     3
370
     9
100
AcDbLine
 10
-2180.755019637948
 20
854.1613761847063
 30
0.0
 11
-2192.829092466562
 21
857.3966142484878
 31
0.0
  0
LINE
  5
32C
330
1F
100
AcDbEntity
  8
5-2
  6
JWW_DASHED1
 62
     3
370
     9
100
AcDbLine
 10
-2162.237557182722
 20
836.3361625288449
 30
0.0
 11
-2196.044961102839
 21
845.3948291074332
 31
0.0
  0
LINE
  5
32D
330
1F
100
AcDbEntity
  8
5-2
  6
JWW_CENTER2
 62
     4
370
     9
100
AcDbLine
 10
-2206.962790185035
 20
867.9130223108838
 30
0.0
 11
-2147.466496265587
 21
851.971038402523
 31
0.0
  0
LINE
  5
32E
330
1F
100
AcDbEntity
  8
5-2
  6
JWW_DASHED1
 62
     3
370
     9
100
AcDbLine
 10
-2156.749099687127
 20
874.2060296307912
 30
0.0
 11
-2166.584223401023
 21
837.5008482318065
 31
0.0
  0
LINE
  5
32F
330
1F
100
AcDbEntity
  8
5-2
  6
JWW_DASHED1
 62
     3
370
     9
100
AcDbLine
 10
-2162.237557182722
 20
836.3361625288449
 30
0.0
 11
-2152.402433468826
 21
873.0413439278298
 31
0.0
  0
LINE
  5
330
330
1F
100
AcDbEntity
  8
5-2
  6
JWW_DASHED1
 62
     3
370
     9
100
AcDbLine
 10
-2186.248622616961
 20
325.1685089587165
 30
0.0
 11
-2196.083746330857
 21
361.8736903577012
 31
0.0
  0
LINE
  5
331
330
1F
100
AcDbEntity
  8
5-2
  6
JWW_CENTER2
 62
     4
370
     9
100
AcDbLine
 10
-2176.793629350093
 20
338.1782850159987
 30
0.0
 11
-2181.182181318775
 21
354.5565839347761
 31
0.0
  0
LINE
  5
332
330
1F
100
AcDbEntity
  8
5-2
  6
JWW_DASHED1
 62
     3
370
     9
100
AcDbLine
 10
-2196.083746330857
 20
361.8736903577012
 30
0.0
 11
-2162.276342410739
 21
370.9323569362894
 31
0.0
  0
LINE
  5
333
330
1F
100
AcDbEntity
  8
5-2
  6
JWW_DASHED1
 62
     3
370
     9
100
AcDbLine
 10
-2180.755066010958
 20
352.9625679053108
 30
0.0
 11
-2192.829138839571
 21
349.7273298415292
 31
0.0
  0
ARC
  5
334
330
1F
100
AcDbEntity
  8
5-2
  6
JWW_DASHED1
 62
     3
370
     9
100
AcDbCircle
 10
-2179.072689863546
 20
346.6840640627097
 30
0.0
 40
6.5
100
AcDbArc
 50
285.0
 51
105.0
  0
LINE
  5
335
330
1F
100
AcDbEntity
  8
5-2
  6
JWW_DASHED1
 62
     3
370
     9
100
AcDbLine
 10
-2177.390418424625
 20
340.4055321635527
 30
0.0
 11
-2189.464491253239
 21
337.1702940997712
 31
0.0
  0
LINE
  5
336
330
1F
100
AcDbEntity
  8
5-2
  6
JWW_DASHED1
 62
     3
370
     9
100
AcDbLine
 10
-2152.441218696844
 20
334.2271755373046
 30
0.0
 11
-2186.248622616961
 21
325.1685089587165
 31
0.0
  0
LINE
  5
337
330
1F
100
AcDbEntity
  8
5-2
  6
JWW_CENTER2
 62
     4
370
     9
100
AcDbLine
 10
-2206.962836558044
 20
339.2109217791332
 30
0.0
 11
-2147.466542638595
 21
355.152905687494
 31
0.0
  0
LINE
  5
338
330
1F
100
AcDbEntity
  8
5-2
  6
JWW_DASHED1
 62
     3
370
     9
100
AcDbLine
 10
-2166.623008629041
 20
369.7676712333281
 30
0.0
 11
-2156.787884915144
 21
333.0624898343435
 31
0.0
  0
LINE
  5
339
330
1F
100
AcDbEntity
  8
5-2
  6
JWW_DASHED1
 62
     3
370
     9
100
AcDbLine
 10
-2152.441218696844
 20
334.2271755373046
 30
0.0
 11
-2162.276342410739
 21
370.9323569362894
 31
0.0
  0
LINE
  5
33A
330
1F
100
AcDbEntity
  8
5-2
  6
JWW_DASHED1
 62
     3
370
     9
100
AcDbLine
 10
-1917.651584549761
 20
-120.4625307644294
 30
0.0
 11
-1944.52164223485
 21
-93.59247307934054
 31
0.0
  0
LINE
  5
33B
330
1F
100
AcDbEntity
  8
5-2
  6
JWW_CENTER2
 62
     4
370
     9
100
AcDbLine
 10
-1915.968208216683
 20
-104.4682375678426
 30
0.0
 11
-1927.957955166779
 21
-92.478490617747
 31
0.0
  0
LINE
  5
33C
330
1F
100
AcDbEntity
  8
5-2
  6
JWW_DASHED1
 62
     3
370
     9
100
AcDbLine
 10
-1944.52164223485
 20
-93.59247307934054
 30
0.0
 11
-1919.77290489332
 21
-68.84373573781146
 31
0.0
  0
LINE
  5
33D
330
1F
100
AcDbEntity
  8
5-2
  6
JWW_DASHED1
 62
     3
370
     9
100
AcDbLine
 10
-1926.791054445132
 20
-93.645391339395
 30
0.0
 11
-1935.629889209963
 21
-102.4842261042268
 31
0.0
  0
ARC
  5
33E
330
1F
100
AcDbEntity
  8
5-2
  6
JWW_DASHED1
 62
     3
370
     9
100
AcDbCircle
 10
-1922.194822041451
 20
-98.24154709113968
 30
0.0
 40
6.5
100
AcDbArc
 50
314.9999999999999
 51
134.9999999999999
  0
LINE
  5
33F
330
1F
100
AcDbEntity
  8
5-2
  6
JWW_DASHED1
 62
     3
370
     9
100
AcDbLine
 10
-1917.598666289706
 20
-102.8377794948201
 30
0.0
 11
-1926.437501054538
 21
-111.676614259652
 31
0.0
  0
LINE
  5
340
330
1F
100
AcDbEntity
  8
5-2
  6
JWW_DASHED1
 62
     3
370
     9
100
AcDbLine
 10
-1892.902847208231
 20
-95.71379342290028
 30
0.0
 11
-1917.651584549761
 21
-120.4625307644294
 31
0.0
  0
LINE
  5
341
330
1F
100
AcDbEntity
  8
5-2
  6
JWW_CENTER2
 62
     4
370
     9
100
AcDbLine
 10
-1942.611826452373
 20
-118.6585515020616
 30
0.0
 11
-1899.057516441285
 21
-75.1042414909743
 31
0.0
  0
LINE
  5
342
330
1F
100
AcDbEntity
  8
5-2
  6
JWW_DASHED1
 62
     3
370
     9
100
AcDbLine
 10
-1922.95488540866
 20
-72.02571625315086
 30
0.0
 11
-1896.08482772357
 21
-98.89577393823969
 31
0.0
  0
LINE
  5
343
330
1F
100
AcDbEntity
  8
5-2
  6
JWW_DASHED1
 62
     3
370
     9
100
AcDbLine
 10
-1892.902847208231
 20
-95.71379342290028
 30
0.0
 11
-1919.77290489332
 21
-68.84373573781146
 31
0.0
  0
LINE
  5
344
330
1F
100
AcDbEntity
  8
5-2
  6
JWW_DASHED1
 62
     3
370
     9
100
AcDbLine
 10
-1462.224206340736
 20
-372.091812845946
 30
0.0
 11
-1498.929387739721
 21
-362.2566891320502
 31
0.0
  0
LINE
  5
345
330
1F
100
AcDbEntity
  8
5-2
  6
JWW_CENTER2
 62
     4
370
     9
100
AcDbLine
 10
-1468.763506270455
 20
-357.3986604555867
 30
0.0
 11
-1485.141805189233
 21
-353.0101084869048
 31
0.0
  0
LINE
  5
346
330
1F
100
AcDbEntity
  8
5-2
  6
JWW_DASHED1
 62
     3
370
     9
100
AcDbLine
 10
-1498.929387739721
 20
-362.2566891320502
 30
0.0
 11
-1489.870721161133
 21
-328.4492852119326
 31
0.0
  0
LINE
  5
347
330
1F
100
AcDbEntity
  8
5-2
  6
JWW_DASHED1
 62
     3
370
     9
100
AcDbLine
 10
-1483.547789159767
 20
-353.4372237947222
 30
0.0
 11
-1486.783027223549
 21
-365.5112966233358
 31
0.0
  0
ARC
  5
348
330
1F
100
AcDbEntity
  8
5-2
  6
JWW_DASHED1
 62
     3
370
     9
100
AcDbCircle
 10
-1477.269257260611
 20
-355.1194952336426
 30
0.0
 40
6.5
100
AcDbArc
 50
344.9999999999999
 51
165.0
  0
LINE
  5
349
330
1F
100
AcDbEntity
  8
5-2
  6
JWW_DASHED1
 62
     3
370
     9
100
AcDbLine
 10
-1470.990753418009
 20
-356.8018713810551
 30
0.0
 11
-1474.225991481791
 21
-368.8759442096685
 31
0.0
  0
LINE
  5
34A
330
1F
100
AcDbEntity
  8
5-2
  6
JWW_DASHED1
 62
     3
370
     9
100
AcDbLine
 10
-1453.165539762148
 20
-338.2844089258286
 30
0.0
 11
-1462.224206340736
 21
-372.091812845946
 31
0.0
  0
LINE
  5
34B
330
1F
100
AcDbEntity
  8
5-2
  6
JWW_CENTER2
 62
     4
370
     9
100
AcDbLine
 10
-1484.742399544187
 20
-383.0096419281411
 30
0.0
 11
-1468.800415635826
 21
-323.5133480086931
 31
0.0
  0
LINE
  5
34C
330
1F
100
AcDbEntity
  8
5-2
  6
JWW_DASHED1
 62
     3
370
     9
100
AcDbLine
 10
-1491.035406864094
 20
-332.7959514302338
 30
0.0
 11
-1454.33022546511
 21
-342.6310751441292
 31
0.0
  0
LINE
  5
34D
330
1F
100
AcDbEntity
  8
5-2
  6
JWW_DASHED1
 62
     3
370
     9
100
AcDbLine
 10
-1453.165539762148
 20
-338.2844089258286
 30
0.0
 11
-1489.870721161133
 21
-328.4492852119326
 31
0.0
  0
LINE
  5
34E
330
1F
100
AcDbEntity
  8
5-2
  6
JWW_DASHED1
 62
     3
370
     9
100
AcDbLine
 10
-941.9978861920195
 20
-362.2954743600677
 30
0.0
 11
-978.7030675910041
 21
-372.1305980739634
 31
0.0
  0
LINE
  5
34F
330
1F
100
AcDbEntity
  8
5-2
  6
JWW_CENTER2
 62
     4
370
     9
100
AcDbLine
 10
-955.0076622493017
 20
-352.8404810932
 30
0.0
 11
-971.3859611680791
 21
-357.229033061882
 31
0.0
  0
LINE
  5
350
330
1F
100
AcDbEntity
  8
5-2
  6
JWW_DASHED1
 62
     3
370
     9
100
AcDbLine
 10
-978.7030675910041
 20
-372.1305980739634
 30
0.0
 11
-987.7617341695924
 21
-338.323194153846
 31
0.0
  0
LINE
  5
351
330
1F
100
AcDbEntity
  8
5-2
  6
JWW_DASHED1
 62
     3
370
     9
100
AcDbLine
 10
-969.7919451386138
 20
-356.8019177540644
 30
0.0
 11
-966.5567070748322
 21
-368.8759905826778
 31
0.0
  0
ARC
  5
352
330
1F
100
AcDbEntity
  8
5-2
  6
JWW_DASHED1
 62
     3
370
     9
100
AcDbCircle
 10
-963.5134412960126
 20
-355.1195416066521
 30
0.0
 40
6.5
100
AcDbArc
 50
14.99999999999998
 51
195.0
  0
LINE
  5
353
330
1F
100
AcDbEntity
  8
5-2
  6
JWW_DASHED1
 62
     3
370
     9
100
AcDbLine
 10
-957.2349093968556
 20
-353.4372701677315
 30
0.0
 11
-953.9996713330742
 21
-365.5113429963449
 31
0.0
  0
LINE
  5
354
330
1F
100
AcDbEntity
  8
5-2
  6
JWW_DASHED1
 62
     3
370
     9
100
AcDbLine
 10
-951.0565527706076
 20
-328.4880704399503
 30
0.0
 11
-941.9978861920195
 21
-362.2954743600677
 31
0.0
  0
LINE
  5
355
330
1F
100
AcDbEntity
  8
5-2
  6
JWW_CENTER2
 62
     4
370
     9
100
AcDbLine
 10
-956.0402990124362
 20
-383.0096883011505
 30
0.0
 11
-971.9822829207969
 21
-323.5133943817024
 31
0.0
  0
LINE
  5
356
330
1F
100
AcDbEntity
  8
5-2
  6
JWW_DASHED1
 62
     3
370
     9
100
AcDbLine
 10
-986.597048466631
 20
-342.669860372147
 30
0.0
 11
-949.8918670676464
 21
-332.834736658251
 31
0.0
  0
LINE
  5
357
330
1F
100
AcDbEntity
  8
5-2
  6
JWW_DASHED1
 62
     3
370
     9
100
AcDbLine
 10
-951.0565527706076
 20
-328.4880704399503
 30
0.0
 11
-987.7617341695924
 21
-338.323194153846
 31
0.0
  0
LINE
  5
358
330
1F
100
AcDbEntity
  8
5-2
  6
JWW_DASHED1
 62
     3
370
     9
100
AcDbLine
 10
-496.3668464688735
 20
-93.69843629286757
 30
0.0
 11
-523.2369041539623
 21
-120.5684939779564
 31
0.0
  0
LINE
  5
359
330
1F
100
AcDbEntity
  8
5-2
  6
JWW_CENTER2
 62
     4
370
     9
100
AcDbLine
 10
-512.3611396654602
 20
-92.01505995979042
 30
0.0
 11
-524.3508866155559
 21
-104.004806909886
 31
0.0
  0
LINE
  5
35A
330
1F
100
AcDbEntity
  8
5-2
  6
JWW_DASHED1
 62
     3
370
     9
100
AcDbLine
 10
-523.2369041539623
 20
-120.5684939779564
 30
0.0
 11
-547.9856414954914
 21
-95.81975663642721
 31
0.0
  0
LINE
  5
35B
330
1F
100
AcDbEntity
  8
5-2
  6
JWW_DASHED1
 62
     3
370
     9
100
AcDbLine
 10
-523.1839858939079
 20
-102.8379061882381
 30
0.0
 11
-514.345151129076
 21
-111.67674095307
 31
0.0
  0
ARC
  5
35C
330
1F
100
AcDbEntity
  8
5-2
  6
JWW_DASHED1
 62
     3
370
     9
100
AcDbCircle
 10
-518.5878301421632
 20
-98.24167378455746
 30
0.0
 40
6.5
100
AcDbArc
 50
44.99999999999995
 51
224.9999999999999
  0
LINE
  5
35D
330
1F
100
AcDbEntity
  8
5-2
  6
JWW_DASHED1
 62
     3
370
     9
100
AcDbLine
 10
-513.9915977384827
 20
-93.64551803281279
 30
0.0
 11
-505.1527629736509
 21
-102.4843527976446
 31
0.0
  0
LINE
  5
35E
330
1F
100
AcDbEntity
  8
5-2
  6
JWW_DASHED1
 62
     3
370
     9
100
AcDbLine
 10
-521.1155838104025
 20
-68.94969895133828
 30
0.0
 11
-496.3668464688735
 21
-93.69843629286757
 31
0.0
  0
LINE
  5
35F
330
1F
100
AcDbEntity
  8
5-2
  6
JWW_CENTER2
 62
     4
370
     9
100
AcDbLine
 10
-498.1708257312413
 20
-118.6586781954795
 30
0.0
 11
-541.7251357423286
 21
-75.10436818439219
 31
0.0
  0
LINE
  5
360
330
1F
100
AcDbEntity
  8
5-2
  6
JWW_DASHED1
 62
     3
370
     9
100
AcDbLine
 10
-544.803660980152
 20
-99.00173715176683
 30
0.0
 11
-517.9336032950632
 21
-72.1316794666778
 31
0.0
  0
LINE
  5
361
330
1F
100
AcDbEntity
  8
5-2
  6
JWW_DASHED1
 62
     3
370
     9
100
AcDbLine
 10
-521.1155838104025
 20
-68.94969895133828
 30
0.0
 11
-547.9856414954914
 21
-95.81975663642721
 31
0.0
  0
LINE
  5
362
330
1F
100
AcDbEntity
  8
5-2
  6
JWW_DASHED1
 62
     3
370
     9
100
AcDbLine
 10
-244.7375643873568
 20
361.7289419161567
 30
0.0
 11
-254.5726881012527
 21
325.0237605171718
 31
0.0
  0
LINE
  5
363
330
1F
100
AcDbEntity
  8
5-2
  6
JWW_CENTER2
 62
     4
370
     9
100
AcDbLine
 10
-259.4307167777162
 20
355.1896419864373
 30
0.0
 11
-263.8192687463981
 21
338.8113430676599
 31
0.0
  0
LINE
  5
364
330
1F
100
AcDbEntity
  8
5-2
  6
JWW_DASHED1
 62
     3
370
     9
100
AcDbLine
 10
-254.5726881012527
 20
325.0237605171718
 30
0.0
 11
-288.3800920213702
 21
334.0824270957601
 31
0.0
  0
LINE
  5
365
330
1F
100
AcDbEntity
  8
5-2
  6
JWW_DASHED1
 62
     3
370
     9
100
AcDbLine
 10
-263.3921534385806
 20
340.4053590971255
 30
0.0
 11
-251.318080609967
 21
337.1701210333439
 31
0.0
  0
ARC
  5
366
330
1F
100
AcDbEntity
  8
5-2
  6
JWW_DASHED1
 62
     3
370
     9
100
AcDbCircle
 10
-261.7098819996602
 20
346.6838909962823
 30
0.0
 40
6.5
100
AcDbArc
 50
74.99999999999997
 51
255.0
  0
LINE
  5
367
330
1F
100
AcDbEntity
  8
5-2
  6
JWW_DASHED1
 62
     3
370
     9
100
AcDbLine
 10
-260.0275058522477
 20
352.9623948388835
 30
0.0
 11
-247.9534330236343
 21
349.727156775102
 31
0.0
  0
LINE
  5
368
330
1F
100
AcDbEntity
  8
5-2
  6
JWW_DASHED1
 62
     3
370
     9
100
AcDbLine
 10
-278.5449683074742
 20
370.787608494745
 30
0.0
 11
-244.7375643873568
 21
361.7289419161567
 31
0.0
  0
LINE
  5
369
330
1F
100
AcDbEntity
  8
5-2
  6
JWW_CENTER2
 62
     4
370
     9
100
AcDbLine
 10
-233.8197353051617
 20
339.210748712706
 30
0.0
 11
-293.3160292246097
 21
355.1527326210668
 31
0.0
  0
LINE
  5
36A
330
1F
100
AcDbEntity
  8
5-2
  6
JWW_DASHED1
 62
     3
370
     9
100
AcDbLine
 10
-284.0334258030691
 20
332.9177413927986
 30
0.0
 11
-274.1983020891737
 21
369.6229227917834
 31
0.0
  0
LINE
  5
36B
330
1F
100
AcDbEntity
  8
5-2
  6
JWW_DASHED1
 62
     3
370
     9
100
AcDbLine
 10
-278.5449683074742
 20
370.787608494745
 30
0.0
 11
-288.3800920213702
 21
334.0824270957601
 31
0.0
  0
LINE
  5
36C
330
1F
100
AcDbEntity
  8
5-0
  6
JWW_CENTER2
 62
     4
370
     9
100
AcDbLine
 10
-2346.684049352938
 20
603.561885511795
 30
0.0
 11
-137.9865203930215
 21
603.561885511795
 31
0.0
  0
LINE
  5
36D
330
1F
100
AcDbEntity
  8
5-0
  6
JWW_CENTER2
 62
     4
370
     9
100
AcDbLine
 10
-1220.391262745098
 20
-464.9712606810501
 30
0.0
 11
-1220.391262745098
 21
1683.912010707724
 31
0.0
  0
LINE
  5
36E
330
1F
100
AcDbEntity
  8
5-2
  6
Continuous
 62
     3
370
     9
100
AcDbLine
 10
-288.3800920213702
 20
-1244.386384718885
 30
0.0
 11
-288.3800920213702
 21
-1304.386384718885
 31
0.0
  0
LINE
  5
36F
330
1F
100
AcDbEntity
  8
5-2
  6
Continuous
 62
     2
370
     9
100
AcDbLine
 10
-250.3910562410285
 20
603.561885511795
 30
0.0
 11
-210.391118072703
 21
603.561885511795
 31
0.0
  0
CIRCLE
  5
370
330
1F
100
AcDbEntity
  8
5-2
  6
Continuous
 62
     3
370
     9
100
AcDbCircle
 10
-1220.391262745098
 20
603.561885511795
 30
0.0
 40
970.0000762939453
  0
CIRCLE
  5
371
330
1F
100
AcDbEntity
  8
5-2
  6
Continuous
 62
     3
370
     9
100
AcDbCircle
 10
-1220.391262745098
 20
603.561885511795
 30
0.0
 40
1010.000053611962
  0
LINE
  5
372
330
1F
100
AcDbEntity
  8
5-2
  6
Continuous
 62
     3
370
     9
100
AcDbLine
 10
-210.3913947130034
 20
-1204.386314610935
 30
0.0
 11
-2230.391501936927
 21
-1204.386314610935
 31
0.0
  0
LINE
  5
373
330
1F
100
AcDbEntity
  8
5-2
  6
Continuous
 62
     3
370
     9
100
AcDbLine
 10
-2230.391501936927
 20
-1204.386314610935
 30
0.0
 11
-2230.391501936927
 21
-1244.386384718885
 31
0.0
  0
LINE
  5
374
330
1F
100
AcDbEntity
  8
5-2
  6
Continuous
 62
     3
370
     9
100
AcDbLine
 10
-210.3913947130034
 20
-1244.386384718885
 30
0.0
 11
-2230.391501936927
 21
-1244.386384718885
 31
0.0
  0
LINE
  5
375
330
1F
100
AcDbEntity
  8
5-2
  6
Continuous
 62
     3
370
     9
100
AcDbLine
 10
-210.3913947130034
 20
-1204.386314610935
 30
0.0
 11
-210.3913947130034
 21
-1244.386384718885
 31
0.0
  0
LINE
  5
376
330
1F
100
AcDbEntity
  8
5-2
  6
Continuous
 62
     3
370
     9
100
AcDbLine
 10
-274.2845571319307
 20
-1248.886384718885
 30
0.0
 11
-274.2845571319307
 21
-1299.886384718885
 31
0.0
  0
ARC
  5
377
330
1F
100
AcDbEntity
  8
5-2
  6
JWW_DASHED3
 62
     3
370
     9
100
AcDbCircle
 10
-212.3917600991414
 20
-1207.386769900208
 30
0.0
 40
3.000000219892811
100
AcDbArc
 50
90.0
 51
180.0
  0
LINE
  5
378
330
1F
100
AcDbEntity
  8
5-2
  6
JWW_DASHED3
 62
     3
370
     9
100
AcDbLine
 10
-215.3920298085479
 20
-1207.386769900208
 30
0.0
 11
-215.3920298085479
 21
-1234.886180168631
 31
0.0
  0
ARC
  5
379
330
1F
100
AcDbEntity
  8
5-2
  6
JWW_DASHED3
 62
     3
370
     9
100
AcDbCircle
 10
-219.8912281035226
 20
-1234.886180168631
 30
0.0
 40
4.500000057993709
100
AcDbArc
 50
270.0
 51
0.0
  0
LINE
  5
37A
330
1F
100
AcDbEntity
  8
5-2
  6
JWW_DASHED3
 62
     3
370
     9
100
AcDbLine
 10
-2220.891297386674
 20
-1239.386306362941
 30
0.0
 11
-219.8912281035226
 21
-1239.386306362941
 31
0.0
  0
ARC
  5
37B
330
1F
100
AcDbEntity
  8
5-2
  6
JWW_DASHED3
 62
     3
370
     9
100
AcDbCircle
 10
-247.3917518511471
 20
-1242.386761652215
 30
0.0
 40
3.000000219892811
100
AcDbArc
 50
90.0
 51
180.0
  0
LINE
  5
37C
330
1F
100
AcDbEntity
  8
5-2
  6
JWW_DASHED3
 62
     3
370
     9
100
AcDbLine
 10
-250.391464820953
 20
-1242.386761652215
 30
0.0
 11
-250.391464820953
 21
-1244.386384718885
 31
0.0
  0
ARC
  5
37D
330
1F
100
AcDbEntity
  8
5-2
  6
JWW_DASHED3
 62
     3
370
     9
100
AcDbCircle
 10
-2193.391144798783
 20
-1242.386761652215
 30
0.0
 40
3.000000219892811
100
AcDbArc
 50
0.0
 51
90.0
  0
LINE
  5
37E
330
1F
100
AcDbEntity
  8
5-2
  6
JWW_DASHED3
 62
     3
370
     9
100
AcDbLine
 10
-2190.39124624911
 20
-1242.386761652215
 30
0.0
 11
-2190.39124624911
 21
-1244.386384718885
 31
0.0
  0
ARC
  5
37F
330
1F
100
AcDbEntity
  8
5-2
  6
JWW_DASHED3
 62
     3
370
     9
100
AcDbCircle
 10
-2220.891297386674
 20
-1234.886180168631
 30
0.0
 40
4.500000057993709
100
AcDbArc
 50
180.0
 51
270.0
  0
LINE
  5
380
330
1F
100
AcDbEntity
  8
5-2
  6
JWW_DASHED3
 62
     3
370
     9
100
AcDbLine
 10
-2225.391238001116
 20
-1207.386769900208
 30
0.0
 11
-2225.391238001116
 21
-1234.886180168631
 31
0.0
  0
ARC
  5
381
330
1F
100
AcDbEntity
  8
5-2
  6
JWW_DASHED3
 62
     3
370
     9
100
AcDbCircle
 10
-2228.390950970921
 20
-1207.386769900208
 30
0.0
 40
3.000000219892811
100
AcDbArc
 50
0.0
 51
90.0
  0
CIRCLE
  5
382
330
1F
100
AcDbEntity
  8
5-2
  6
Continuous
 62
     7
370
     9
100
AcDbCircle
 10
-1220.391262745098
 20
603.561885511795
 30
0.0
 40
1005.000053611962
  0
LINE
  5
383
330
1F
100
AcDbEntity
  8
5-2
  6
JWW_DASHED1
 62
     4
370
     9
100
AcDbLine
 10
-246.3905606769782
 20
653.5618855117951
 30
0.0
 11
-214.3906101423178
 21
653.5618855117949
 31
0.0
  0
LINE
  5
384
330
1F
100
AcDbEntity
  8
5-2
  6
JWW_DASHED1
 62
     4
370
     9
100
AcDbLine
 10
-246.3904513231713
 20
553.5620940261704
 30
0.0
 11
-246.3905606769782
 21
653.5618855117951
 31
0.0
  0
LINE
  5
385
330
1F
100
AcDbEntity
  8
5-2
  6
JWW_DASHED1
 62
     4
370
     9
100
AcDbLine
 10
-214.3905007885105
 20
553.5620940261706
 30
0.0
 11
-246.3904513231713
 21
553.5620940261704
 31
0.0
  0
LINE
  5
386
330
1F
100
AcDbEntity
  8
5-2
  6
JWW_DASHED1
 62
     4
370
     9
100
AcDbLine
 10
-214.3905007885105
 20
553.5620940261706
 30
0.0
 11
-214.3906101423178
 21
653.5618855117949
 31
0.0
  0
LINE
  5
387
330
1F
100
AcDbEntity
  8
5-2
  6
JWW_CENTER1
 62
     4
370
     9
100
AcDbLine
 10
-230.3911977921444
 20
616.5617859589933
 30
0.0
 11
-230.3911977921442
 21
640.5617488599886
 31
0.0
  0
LINE
  5
388
330
1F
100
AcDbEntity
  8
5-2
  6
JWW_CENTER1
 62
     4
370
     9
100
AcDbLine
 10
-242.3907855682948
 20
628.5618986342733
 30
0.0
 11
-218.3908226672993
 21
628.5618986342731
 31
0.0
  0
LINE
  5
389
330
1F
100
AcDbEntity
  8
5-2
  6
Continuous
 62
     7
370
     9
100
AcDbLine
 10
-233.1042701680714
 20
625.8486950335636
 30
0.0
 11
-227.6776005170873
 21
631.2753646845474
 31
0.0
  0
LINE
  5
38A
330
1F
100
AcDbEntity
  8
5-2
  6
Continuous
 62
     7
370
     9
100
AcDbLine
 10
-233.1044013928539
 20
631.2752334597656
 30
0.0
 11
-227.6776005170873
 21
625.848432583999
 31
0.0
  0
CIRCLE
  5
38B
330
1F
100
AcDbEntity
  8
5-2
  6
Continuous
 62
     3
370
     9
100
AcDbCircle
 10
-230.3910665673617
 20
628.5618986342731
 30
0.0
 40
6.999999365291081
  0
LINE
  5
38C
330
1F
100
AcDbEntity
  8
5-2
  6
JWW_DASHED1
 62
     4
370
     9
100
AcDbLine
 10
-1270.391262745098
 20
1577.562587579915
 30
0.0
 11
-1270.391262745098
 21
1609.562538114575
 31
0.0
  0
LINE
  5
38D
330
1F
100
AcDbEntity
  8
5-2
  6
JWW_DASHED1
 62
     4
370
     9
100
AcDbLine
 10
-1170.391471259473
 20
1577.562696933722
 30
0.0
 11
-1270.391262745098
 21
1577.562587579915
 31
0.0
  0
LINE
  5
38E
330
1F
100
AcDbEntity
  8
5-2
  6
JWW_DASHED1
 62
     4
370
     9
100
AcDbLine
 10
-1170.391471259473
 20
1609.562647468382
 30
0.0
 11
-1170.391471259473
 21
1577.562696933722
 31
0.0
  0
LINE
  5
38F
330
1F
100
AcDbEntity
  8
5-2
  6
JWW_DASHED1
 62
     4
370
     9
100
AcDbLine
 10
-1170.391471259473
 20
1609.562647468382
 30
0.0
 11
-1270.391262745098
 21
1609.562538114575
 31
0.0
  0
LINE
  5
390
330
1F
100
AcDbEntity
  8
5-2
  6
JWW_CENTER1
 62
     4
370
     9
100
AcDbLine
 10
-1233.391163192296
 20
1593.561950464748
 30
0.0
 11
-1257.391126093291
 21
1593.561950464749
 31
0.0
  0
LINE
  5
391
330
1F
100
AcDbEntity
  8
5-2
  6
JWW_CENTER1
 62
     4
370
     9
100
AcDbLine
 10
-1245.391275867576
 20
1581.562362688598
 30
0.0
 11
-1245.391275867576
 21
1605.562325589594
 31
0.0
  0
LINE
  5
392
330
1F
100
AcDbEntity
  8
5-2
  6
Continuous
 62
     7
370
     9
100
AcDbLine
 10
-1242.678072266866
 20
1590.848878088821
 30
0.0
 11
-1248.10474191785
 21
1596.275547739805
 31
0.0
  0
LINE
  5
393
330
1F
100
AcDbEntity
  8
5-2
  6
Continuous
 62
     7
370
     9
100
AcDbLine
 10
-1248.104610693068
 20
1590.848746864039
 30
0.0
 11
-1242.677809817302
 21
1596.275547739805
 31
0.0
  0
CIRCLE
  5
394
330
1F
100
AcDbEntity
  8
5-2
  6
Continuous
 62
     3
370
     9
100
AcDbCircle
 10
-1245.391275867576
 20
1593.562081689531
 30
0.0
 40
6.999999365291081
  0
LINE
  5
395
330
1F
100
AcDbEntity
  8
5-2
  6
JWW_DASHED1
 62
     4
370
     9
100
AcDbLine
 10
-2194.391964813218
 20
553.561885511795
 30
0.0
 11
-2226.391915347878
 21
553.5618855117953
 31
0.0
  0
LINE
  5
396
330
1F
100
AcDbEntity
  8
5-2
  6
JWW_DASHED1
 62
     4
370
     9
100
AcDbLine
 10
-2194.392074167025
 20
653.5616769974199
 30
0.0
 11
-2194.391964813218
 21
553.561885511795
 31
0.0
  0
LINE
  5
397
330
1F
100
AcDbEntity
  8
5-2
  6
JWW_DASHED1
 62
     4
370
     9
100
AcDbLine
 10
-2226.392024701685
 20
653.5616769974197
 30
0.0
 11
-2194.392074167025
 21
653.5616769974199
 31
0.0
  0
LINE
  5
398
330
1F
100
AcDbEntity
  8
5-2
  6
JWW_DASHED1
 62
     4
370
     9
100
AcDbLine
 10
-2226.392024701685
 20
653.5616769974197
 30
0.0
 11
-2226.391915347878
 21
553.5618855117953
 31
0.0
  0
LINE
  5
399
330
1F
100
AcDbEntity
  8
5-2
  6
JWW_CENTER1
 62
     4
370
     9
100
AcDbLine
 10
-2210.391327698052
 20
590.5619850645969
 30
0.0
 11
-2210.391327698052
 21
566.5620221636017
 31
0.0
  0
LINE
  5
39A
330
1F
100
AcDbEntity
  8
5-2
  6
JWW_CENTER1
 62
     4
370
     9
100
AcDbLine
 10
-2198.391739921901
 20
578.5618723893169
 30
0.0
 11
-2222.391702822897
 21
578.5618723893172
 31
0.0
  0
LINE
  5
39B
330
1F
100
AcDbEntity
  8
5-2
  6
Continuous
 62
     7
370
     9
100
AcDbLine
 10
-2207.678255322125
 20
581.2750759900266
 30
0.0
 11
-2213.104924973109
 21
575.8484063390428
 31
0.0
  0
LINE
  5
39C
330
1F
100
AcDbEntity
  8
5-2
  6
Continuous
 62
     7
370
     9
100
AcDbLine
 10
-2207.678124097342
 20
575.8485375638246
 30
0.0
 11
-2213.104924973109
 21
581.2753384395912
 31
0.0
  0
CIRCLE
  5
39D
330
1F
100
AcDbEntity
  8
5-2
  6
Continuous
 62
     3
370
     9
100
AcDbCircle
 10
-2210.391458922834
 20
578.5618723893172
 30
0.0
 40
6.999999365291081
  0
LINE
  5
39E
330
1F
100
AcDbEntity
  8
5-2
  6
JWW_DASHED1
 62
     4
370
     9
100
AcDbLine
 10
-1170.391262745098
 20
-370.4388165563247
 30
0.0
 11
-1170.391262745098
 21
-402.438767090985
 31
0.0
  0
LINE
  5
39F
330
1F
100
AcDbEntity
  8
5-2
  6
JWW_DASHED1
 62
     4
370
     9
100
AcDbLine
 10
-1270.391054230723
 20
-370.4389259101316
 30
0.0
 11
-1170.391262745098
 21
-370.4388165563247
 31
0.0
  0
LINE
  5
3A0
330
1F
100
AcDbEntity
  8
5-2
  6
JWW_DASHED1
 62
     4
370
     9
100
AcDbLine
 10
-1270.391054230723
 20
-402.4388764447923
 30
0.0
 11
-1270.391054230723
 21
-370.4389259101316
 31
0.0
  0
LINE
  5
3A1
330
1F
100
AcDbEntity
  8
5-2
  6
JWW_DASHED1
 62
     4
370
     9
100
AcDbLine
 10
-1270.391054230723
 20
-402.4388764447923
 30
0.0
 11
-1170.391262745098
 21
-402.438767090985
 31
0.0
  0
LINE
  5
3A2
330
1F
100
AcDbEntity
  8
5-2
  6
JWW_CENTER1
 62
     4
370
     9
100
AcDbLine
 10
-1207.3913622979
 20
-386.4381794411585
 30
0.0
 11
-1183.391399396904
 21
-386.4381794411587
 31
0.0
  0
LINE
  5
3A3
330
1F
100
AcDbEntity
  8
5-2
  6
JWW_CENTER1
 62
     4
370
     9
100
AcDbLine
 10
-1195.39124962262
 20
-374.438591665008
 30
0.0
 11
-1195.39124962262
 21
-398.4385545660035
 31
0.0
  0
LINE
  5
3A4
330
1F
100
AcDbEntity
  8
5-2
  6
Continuous
 62
     7
370
     9
100
AcDbLine
 10
-1198.10445322333
 20
-383.7251070652314
 30
0.0
 11
-1192.677783572346
 21
-389.1517767162155
 31
0.0
  0
LINE
  5
3A5
330
1F
100
AcDbEntity
  8
5-2
  6
Continuous
 62
     7
370
     9
100
AcDbLine
 10
-1192.677914797128
 20
-383.724975840449
 30
0.0
 11
-1198.104715672894
 21
-389.1517767162155
 31
0.0
  0
CIRCLE
  5
3A6
330
1F
100
AcDbEntity
  8
5-2
  6
Continuous
 62
     3
370
     9
100
AcDbCircle
 10
-1195.39124962262
 20
-386.4383106659412
 30
0.0
 40
6.999999365291081
  0
LINE
  5
3A7
330
1F
100
AcDbEntity
  8
5-2
  6
Continuous
 62
     3
370
     9
100
AcDbLine
 10
-987.7617341695924
 20
-1244.386384718885
 30
0.0
 11
-987.7617341695924
 21
-1304.386384718885
 31
0.0
  0
LINE
  5
3A8
330
1F
100
AcDbEntity
  8
5-2
  6
Continuous
 62
     3
370
     9
100
AcDbLine
 10
-941.9978861920195
 20
-1244.386384718885
 30
0.0
 11
-941.9978861920195
 21
-1248.886384718885
 31
0.0
  0
LINE
  5
3A9
330
1F
100
AcDbEntity
  8
5-2
  6
Continuous
 62
     3
370
     9
100
AcDbLine
 10
-941.9978861920195
 20
-1299.886384718885
 30
0.0
 11
-941.9978861920195
 21
-1304.386384718885
 31
0.0
  0
LINE
  5
3AA
330
1F
100
AcDbEntity
  8
5-2
  6
Continuous
 62
     3
370
     9
100
AcDbLine
 10
-941.9978861920195
 20
-1304.386384718885
 30
0.0
 11
-987.7617341695924
 21
-1304.386384718885
 31
0.0
  0
LINE
  5
3AB
330
1F
100
AcDbEntity
  8
5-2
  6
Continuous
 62
     3
370
     9
100
AcDbLine
 10
-941.9978861920195
 20
-1299.886384718885
 30
0.0
 11
-986.597048466631
 21
-1299.886384718885
 31
0.0
  0
LINE
  5
3AC
330
1F
100
AcDbEntity
  8
5-2
  6
Continuous
 62
     3
370
     9
100
AcDbLine
 10
-941.9978861920195
 20
-1248.886384718885
 30
0.0
 11
-986.597048466631
 21
-1248.886384718885
 31
0.0
  0
LINE
  5
3AD
330
1F
100
AcDbEntity
  8
5-2
  6
Continuous
 62
     3
370
     9
100
AcDbLine
 10
-949.8918670676464
 20
-1248.886384718885
 30
0.0
 11
-949.8918670676464
 21
-1299.886384718885
 31
0.0
  0
LINE
  5
3AE
330
1F
100
AcDbEntity
  8
5-2
  6
Continuous
 62
     3
370
     9
100
AcDbLine
 10
-547.9856414954914
 20
-1244.386384718885
 30
0.0
 11
-547.9856414954914
 21
-1304.386384718885
 31
0.0
  0
LINE
  5
3AF
330
1F
100
AcDbEntity
  8
5-2
  6
Continuous
 62
     3
370
     9
100
AcDbLine
 10
-523.2369041539623
 20
-1244.386384718885
 30
0.0
 11
-523.2369041539623
 21
-1248.886384718885
 31
0.0
  0
LINE
  5
3B0
330
1F
100
AcDbEntity
  8
5-2
  6
Continuous
 62
     3
370
     9
100
AcDbLine
 10
-523.2369041539623
 20
-1299.886384718885
 30
0.0
 11
-523.2369041539623
 21
-1304.386384718885
 31
0.0
  0
LINE
  5
3B1
330
1F
100
AcDbEntity
  8
5-2
  6
Continuous
 62
     3
370
     9
100
AcDbLine
 10
-517.9336032950632
 20
-1248.886384718885
 30
0.0
 11
-517.9336032950632
 21
-1299.886384718885
 31
0.0
  0
LINE
  5
3B2
330
1F
100
AcDbEntity
  8
5-2
  6
Continuous
 62
     3
370
     9
100
AcDbLine
 10
-496.3668464688735
 20
-1299.886384718885
 30
0.0
 11
-496.3668464688735
 21
-1304.386384718885
 31
0.0
  0
LINE
  5
3B3
330
1F
100
AcDbEntity
  8
5-2
  6
Continuous
 62
     3
370
     9
100
AcDbLine
 10
-496.3668464688735
 20
-1244.386384718885
 30
0.0
 11
-496.3668464688735
 21
-1248.886384718885
 31
0.0
  0
LINE
  5
3B4
330
1F
100
AcDbEntity
  8
5-2
  6
Continuous
 62
     3
370
     9
100
AcDbLine
 10
-547.9856414954914
 20
-1304.386384718885
 30
0.0
 11
-496.3668464688735
 21
-1304.386384718885
 31
0.0
  0
LINE
  5
3B5
330
1F
100
AcDbEntity
  8
5-2
  6
Continuous
 62
     3
370
     9
100
AcDbLine
 10
-496.3668464688735
 20
-1248.886384718885
 30
0.0
 11
-544.803660980152
 21
-1248.886384718885
 31
0.0
  0
LINE
  5
3B6
330
1F
100
AcDbEntity
  8
5-2
  6
Continuous
 62
     3
370
     9
100
AcDbLine
 10
-544.803660980152
 20
-1299.886384718885
 30
0.0
 11
-496.3668464688735
 21
-1299.886384718885
 31
0.0
  0
LINE
  5
3B7
330
1F
100
AcDbEntity
  8
5-2
  6
Continuous
 62
     3
370
     9
100
AcDbLine
 10
-244.7375643873568
 20
-1248.886384718885
 30
0.0
 11
-244.7375643873568
 21
-1244.386384718885
 31
0.0
  0
LINE
  5
3B8
330
1F
100
AcDbEntity
  8
5-2
  6
Continuous
 62
     3
370
     9
100
AcDbLine
 10
-244.7375643873568
 20
-1299.886384718885
 30
0.0
 11
-244.7375643873568
 21
-1304.386384718885
 31
0.0
  0
LINE
  5
3B9
330
1F
100
AcDbEntity
  8
5-2
  6
Continuous
 62
     3
370
     9
100
AcDbLine
 10
-288.3800920213702
 20
-1304.386384718885
 30
0.0
 11
-244.7375643873568
 21
-1304.386384718885
 31
0.0
  0
LINE
  5
3BA
330
1F
100
AcDbEntity
  8
5-2
  6
Continuous
 62
     3
370
     9
100
AcDbLine
 10
-284.0334258030691
 20
-1248.886384718885
 30
0.0
 11
-244.7375643873568
 21
-1248.886384718885
 31
0.0
  0
LINE
  5
3BB
330
1F
100
AcDbEntity
  8
5-2
  6
Continuous
 62
     3
370
     9
100
AcDbLine
 10
-284.0334258030691
 20
-1299.886384718885
 30
0.0
 11
-244.7375643873568
 21
-1299.886384718885
 31
0.0
  0
LINE
  5
3BC
330
1F
100
AcDbEntity
  8
5-2
  6
Continuous
 62
     7
370
     9
100
AcDbLine
 10
-1270.391303985068
 20
-1244.386941458486
 30
0.0
 11
-1270.391303985068
 21
-1250.386924137698
 31
0.0
  0
LINE
  5
3BD
330
1F
100
AcDbEntity
  8
5-2
  6
Continuous
 62
     7
370
     9
100
AcDbLine
 10
-1170.391262745098
 20
-1250.386924137698
 30
0.0
 11
-1270.391303985068
 21
-1250.386924137698
 31
0.0
  0
LINE
  5
3BE
330
1F
100
AcDbEntity
  8
5-2
  6
Continuous
 62
     7
370
     9
100
AcDbLine
 10
-1170.391262745098
 20
-1244.386384718885
 30
0.0
 11
-1170.391262745098
 21
-1250.386924137698
 31
0.0
  0
LINE
  5
3BF
330
1F
100
AcDbEntity
  8
5-2
  6
Continuous
 62
     7
370
     9
100
AcDbLine
 10
-1202.89128748908
 20
-1257.765301278877
 30
0.0
 11
-1202.89128748908
 21
-1251.986900960835
 31
0.0
  0
LINE
  5
3C0
330
1F
100
AcDbEntity
  8
5-2
  6
Continuous
 62
     7
370
     9
100
AcDbLine
 10
-1199.138491419084
 20
-1257.765301278877
 30
0.0
 11
-1199.138491419084
 21
-1251.986900960835
 31
0.0
  0
LINE
  5
3C1
330
1F
100
AcDbEntity
  8
5-2
  6
Continuous
 62
     7
370
     9
100
AcDbLine
 10
-1191.644034071111
 20
-1257.765301278877
 30
0.0
 11
-1191.644034071111
 21
-1251.986900960835
 31
0.0
  0
LINE
  5
3C2
330
1F
100
AcDbEntity
  8
5-2
  6
Continuous
 62
     7
370
     9
100
AcDbLine
 10
-1201.014889454082
 20
-1258.486928591615
 30
0.0
 11
-1189.767636036113
 21
-1258.486928591615
 31
0.0
  0
LINE
  5
3C3
330
1F
100
AcDbEntity
  8
5-2
  6
Continuous
 62
     7
370
     9
100
AcDbLine
 10
-1203.14107799003
 20
-1251.986900960835
 30
0.0
 11
-1203.14107799003
 21
-1250.386924137698
 31
0.0
  0
LINE
  5
3C4
330
1F
100
AcDbEntity
  8
5-2
  6
Continuous
 62
     7
370
     9
100
AcDbLine
 10
-1187.891238001115
 20
-1257.765301278877
 30
0.0
 11
-1187.891238001115
 21
-1251.986900960835
 31
0.0
  0
LINE
  5
3C5
330
1F
100
AcDbEntity
  8
5-2
  6
Continuous
 62
     7
370
     9
100
AcDbLine
 10
-1203.14107799003
 20
-1251.986900960835
 30
0.0
 11
-1187.641261920298
 21
-1251.986900960835
 31
0.0
  0
LINE
  5
3C6
330
1F
100
AcDbEntity
  8
5-2
  6
Continuous
 62
     7
370
     9
100
AcDbLine
 10
-1187.641261920298
 20
-1251.986900960835
 30
0.0
 11
-1187.641261920298
 21
-1250.386924137698
 31
0.0
  0
LINE
  5
3C7
330
1F
100
AcDbEntity
  8
5-2
  6
Continuous
 62
     7
370
     9
100
AcDbLine
 10
-1192.491206163858
 20
-1258.486928591615
 30
0.0
 11
-1192.491206163858
 21
-1259.386155837049
 31
0.0
  0
LINE
  5
3C8
330
1F
100
AcDbEntity
  8
5-2
  6
Continuous
 62
     7
370
     9
100
AcDbLine
 10
-1198.291319326337
 20
-1258.486928591615
 30
0.0
 11
-1198.291319326337
 21
-1259.386155837049
 31
0.0
  0
LINE
  5
3C9
330
1F
100
AcDbEntity
  8
5-2
  6
Continuous
 62
     7
370
     9
100
AcDbLine
 10
-1192.491206163858
 20
-1259.386155837049
 30
0.0
 11
-1191.592071708357
 21
-1258.486928591615
 31
0.0
  0
LINE
  5
3CA
330
1F
100
AcDbEntity
  8
5-2
  6
Continuous
 62
     7
370
     9
100
AcDbLine
 10
-1198.291319326337
 20
-1259.386155837049
 30
0.0
 11
-1199.190453781838
 21
-1258.486928591615
 31
0.0
  0
LINE
  5
3CB
330
1F
100
AcDbEntity
  8
5-2
  6
Continuous
 62
     7
370
     9
100
AcDbLine
 10
-1192.491206163858
 20
-1259.386155837049
 30
0.0
 11
-1198.291319326337
 21
-1259.386155837049
 31
0.0
  0
ARC
  5
3CC
330
1F
100
AcDbEntity
  8
5-2
  6
Continuous
 62
     7
370
     9
100
AcDbCircle
 10
-1201.014889454082
 20
-1255.686806768742
 30
0.0
 40
2.80017311105857
100
AcDbArc
 50
227.9253692626953
 51
312.0744323730469
  0
ARC
  5
3CD
330
1F
100
AcDbEntity
  8
5-2
  6
Continuous
 62
     7
370
     9
100
AcDbCircle
 10
-1195.391262745098
 20
-1248.397507963712
 30
0.0
 40
10.08941047900432
100
AcDbArc
 50
248.1978607177734
 51
291.8021392822266
  0
ARC
  5
3CE
330
1F
100
AcDbEntity
  8
5-2
  6
Continuous
 62
     7
370
     9
100
AcDbCircle
 10
-1189.767636036113
 20
-1255.686806768742
 30
0.0
 40
2.800189421789066
100
AcDbArc
 50
227.9257202148438
 51
312.0742797851562
  0
LINE
  5
3CF
330
1F
100
AcDbEntity
  8
5-2
  6
JWW_CENTER1
 62
     4
370
     9
100
AcDbLine
 10
-1195.391262745098
 20
-1236.741514888727
 30
0.0
 11
-1195.391262745098
 21
-1262.303935295585
 31
0.0
  0
LINE
  5
3D0
330
1F
100
AcDbEntity
  8
5-2
  6
Continuous
 62
     3
370
     9
100
AcDbLine
 10
-2166.497968358265
 20
-1248.886384718885
 30
0.0
 11
-2166.497968358265
 21
-1299.886384718885
 31
0.0
  0
LINE
  5
3D1
330
1F
100
AcDbEntity
  8
5-2
  6
Continuous
 62
     3
370
     9
100
AcDbLine
 10
-1453.020791320604
 20
-1244.386384718885
 30
0.0
 11
-1453.020791320604
 21
-1304.386384718885
 31
0.0
  0
LINE
  5
3D2
330
1F
100
AcDbEntity
  8
5-2
  6
Continuous
 62
     3
370
     9
100
AcDbLine
 10
-1498.784639298176
 20
-1244.386384718885
 30
0.0
 11
-1498.784639298176
 21
-1248.886384718885
 31
0.0
  0
LINE
  5
3D3
330
1F
100
AcDbEntity
  8
5-2
  6
Continuous
 62
     3
370
     9
100
AcDbLine
 10
-1498.784639298176
 20
-1299.886384718885
 30
0.0
 11
-1498.784639298176
 21
-1304.386384718885
 31
0.0
  0
LINE
  5
3D4
330
1F
100
AcDbEntity
  8
5-2
  6
Continuous
 62
     3
370
     9
100
AcDbLine
 10
-1498.784639298176
 20
-1304.386384718885
 30
0.0
 11
-1453.020791320604
 21
-1304.386384718885
 31
0.0
  0
LINE
  5
3D5
330
1F
100
AcDbEntity
  8
5-2
  6
Continuous
 62
     3
370
     9
100
AcDbLine
 10
-1498.784639298176
 20
-1299.886384718885
 30
0.0
 11
-1454.185477023565
 21
-1299.886384718885
 31
0.0
  0
LINE
  5
3D6
330
1F
100
AcDbEntity
  8
5-2
  6
Continuous
 62
     3
370
     9
100
AcDbLine
 10
-1498.784639298176
 20
-1248.886384718885
 30
0.0
 11
-1454.185477023565
 21
-1248.886384718885
 31
0.0
  0
LINE
  5
3D7
330
1F
100
AcDbEntity
  8
5-2
  6
Continuous
 62
     3
370
     9
100
AcDbLine
 10
-1490.89065842255
 20
-1248.886384718885
 30
0.0
 11
-1490.89065842255
 21
-1299.886384718885
 31
0.0
  0
LINE
  5
3D8
330
1F
100
AcDbEntity
  8
5-2
  6
Continuous
 62
     3
370
     9
100
AcDbLine
 10
-1892.796883994705
 20
-1244.386384718885
 30
0.0
 11
-1892.796883994705
 21
-1304.386384718885
 31
0.0
  0
LINE
  5
3D9
330
1F
100
AcDbEntity
  8
5-2
  6
Continuous
 62
     3
370
     9
100
AcDbLine
 10
-1917.545621336234
 20
-1244.386384718885
 30
0.0
 11
-1917.545621336234
 21
-1248.886384718885
 31
0.0
  0
LINE
  5
3DA
330
1F
100
AcDbEntity
  8
5-2
  6
Continuous
 62
     3
370
     9
100
AcDbLine
 10
-1917.545621336234
 20
-1299.886384718885
 30
0.0
 11
-1917.545621336234
 21
-1304.386384718885
 31
0.0
  0
LINE
  5
3DB
330
1F
100
AcDbEntity
  8
5-2
  6
Continuous
 62
     3
370
     9
100
AcDbLine
 10
-1922.848922195133
 20
-1248.886384718885
 30
0.0
 11
-1922.848922195133
 21
-1299.886384718885
 31
0.0
  0
LINE
  5
3DC
330
1F
100
AcDbEntity
  8
5-2
  6
Continuous
 62
     3
370
     9
100
AcDbLine
 10
-1944.415679021323
 20
-1299.886384718885
 30
0.0
 11
-1944.415679021323
 21
-1304.386384718885
 31
0.0
  0
LINE
  5
3DD
330
1F
100
AcDbEntity
  8
5-2
  6
Continuous
 62
     3
370
     9
100
AcDbLine
 10
-1944.415679021323
 20
-1244.386384718885
 30
0.0
 11
-1944.415679021323
 21
-1248.886384718885
 31
0.0
  0
LINE
  5
3DE
330
1F
100
AcDbEntity
  8
5-2
  6
Continuous
 62
     3
370
     9
100
AcDbLine
 10
-1892.796883994705
 20
-1304.386384718885
 30
0.0
 11
-1944.415679021323
 21
-1304.386384718885
 31
0.0
  0
LINE
  5
3DF
330
1F
100
AcDbEntity
  8
5-2
  6
Continuous
 62
     3
370
     9
100
AcDbLine
 10
-1944.415679021323
 20
-1248.886384718885
 30
0.0
 11
-1895.978864510044
 21
-1248.886384718885
 31
0.0
  0
LINE
  5
3E0
330
1F
100
AcDbEntity
  8
5-2
  6
Continuous
 62
     3
370
     9
100
AcDbLine
 10
-1895.978864510044
 20
-1299.886384718885
 30
0.0
 11
-1944.415679021323
 21
-1299.886384718885
 31
0.0
  0
LINE
  5
3E1
330
1F
100
AcDbEntity
  8
5-2
  6
Continuous
 62
     3
370
     9
100
AcDbLine
 10
-2152.402433468826
 20
-1244.386384718885
 30
0.0
 11
-2152.402433468826
 21
-1304.386384718885
 31
0.0
  0
LINE
  5
3E2
330
1F
100
AcDbEntity
  8
5-2
  6
Continuous
 62
     3
370
     9
100
AcDbLine
 10
-2196.044961102839
 20
-1248.886384718885
 30
0.0
 11
-2196.044961102839
 21
-1244.386384718885
 31
0.0
  0
LINE
  5
3E3
330
1F
100
AcDbEntity
  8
5-2
  6
Continuous
 62
     3
370
     9
100
AcDbLine
 10
-2196.044961102839
 20
-1299.886384718885
 30
0.0
 11
-2196.044961102839
 21
-1304.386384718885
 31
0.0
  0
LINE
  5
3E4
330
1F
100
AcDbEntity
  8
5-2
  6
Continuous
 62
     3
370
     9
100
AcDbLine
 10
-2152.402433468826
 20
-1304.386384718885
 30
0.0
 11
-2196.044961102839
 21
-1304.386384718885
 31
0.0
  0
LINE
  5
3E5
330
1F
100
AcDbEntity
  8
5-2
  6
Continuous
 62
     3
370
     9
100
AcDbLine
 10
-2156.749099687127
 20
-1248.886384718885
 30
0.0
 11
-2196.044961102839
 21
-1248.886384718885
 31
0.0
  0
LINE
  5
3E6
330
1F
100
AcDbEntity
  8
5-2
  6
Continuous
 62
     3
370
     9
100
AcDbLine
 10
-2156.749099687127
 20
-1299.886384718885
 30
0.0
 11
-2196.044961102839
 21
-1299.886384718885
 31
0.0
  0
LINE
  5
3E7
330
1F
100
AcDbEntity
  8
5-2
  6
Continuous
 62
     3
370
     9
100
AcDbLine
 10
-284.0334258030691
 20
-1248.886384718885
 30
0.0
 11
-284.0334258030691
 21
-1299.886384718885
 31
0.0
  0
LINE
  5
3E8
330
1F
100
AcDbEntity
  8
5-2
  6
Continuous
 62
     3
370
     9
100
AcDbLine
 10
-254.5726881012527
 20
-1244.386384718885
 30
0.0
 11
-254.5726881012527
 21
-1248.886384718885
 31
0.0
  0
LINE
  5
3E9
330
1F
100
AcDbEntity
  8
5-2
  6
Continuous
 62
     3
370
     9
100
AcDbLine
 10
-254.5726881012527
 20
-1299.886384718885
 30
0.0
 11
-254.5726881012527
 21
-1304.386384718885
 31
0.0
  0
LINE
  5
3EA
330
1F
100
AcDbEntity
  8
5-2
  6
Continuous
 62
     3
370
     9
100
AcDbLine
 10
-544.803660980152
 20
-1248.886384718885
 30
0.0
 11
-544.803660980152
 21
-1299.886384718885
 31
0.0
  0
LINE
  5
3EB
330
1F
100
AcDbEntity
  8
5-2
  6
Continuous
 62
     3
370
     9
100
AcDbLine
 10
-986.597048466631
 20
-1248.886384718885
 30
0.0
 11
-986.597048466631
 21
-1299.886384718885
 31
0.0
  0
LINE
  5
3EC
330
1F
100
AcDbEntity
  8
5-2
  6
Continuous
 62
     3
370
     9
100
AcDbLine
 10
-978.7030675910041
 20
-1244.386384718885
 30
0.0
 11
-978.7030675910041
 21
-1248.886384718885
 31
0.0
  0
LINE
  5
3ED
330
1F
100
AcDbEntity
  8
5-2
  6
Continuous
 62
     3
370
     9
100
AcDbLine
 10
-978.7030675910041
 20
-1299.886384718885
 30
0.0
 11
-978.7030675910041
 21
-1304.386384718885
 31
0.0
  0
LINE
  5
3EE
330
1F
100
AcDbEntity
  8
5-2
  6
Continuous
 62
     3
370
     9
100
AcDbLine
 10
-1462.079457899192
 20
-1244.386384718885
 30
0.0
 11
-1462.079457899192
 21
-1248.886384718885
 31
0.0
  0
LINE
  5
3EF
330
1F
100
AcDbEntity
  8
5-2
  6
Continuous
 62
     3
370
     9
100
AcDbLine
 10
-1454.185477023565
 20
-1248.886384718885
 30
0.0
 11
-1454.185477023565
 21
-1299.886384718885
 31
0.0
  0
LINE
  5
3F0
330
1F
100
AcDbEntity
  8
5-2
  6
Continuous
 62
     3
370
     9
100
AcDbLine
 10
-1462.079457899192
 20
-1299.886384718885
 30
0.0
 11
-1462.079457899192
 21
-1304.386384718885
 31
0.0
  0
LINE
  5
3F1
330
1F
100
AcDbEntity
  8
5-2
  6
Continuous
 62
     3
370
     9
100
AcDbLine
 10
-1895.978864510044
 20
-1248.886384718885
 30
0.0
 11
-1895.978864510044
 21
-1299.886384718885
 31
0.0
  0
LINE
  5
3F2
330
1F
100
AcDbEntity
  8
5-2
  6
Continuous
 62
     3
370
     9
100
AcDbLine
 10
-2186.209837388944
 20
-1244.386384718885
 30
0.0
 11
-2186.209837388944
 21
-1248.886384718885
 31
0.0
  0
LINE
  5
3F3
330
1F
100
AcDbEntity
  8
5-2
  6
Continuous
 62
     3
370
     9
100
AcDbLine
 10
-2186.209837388944
 20
-1299.886384718885
 30
0.0
 11
-2186.209837388944
 21
-1304.386384718885
 31
0.0
  0
LINE
  5
3F4
330
1F
100
AcDbEntity
  8
5-2
  6
Continuous
 62
     3
370
     9
100
AcDbLine
 10
-2156.749099687127
 20
-1248.886384718885
 30
0.0
 11
-2156.749099687127
 21
-1299.886384718885
 31
0.0
  0
TEXT
  5
3F5
330
1F
100
AcDbEntity
  8
5-4
  6
Continuous
 62
     2
370
     9
100
AcDbText
 10
-525.1139671868303
 20
744.2675065030122
 30
0.0
 40
45.72
  1
15ﾟ
 50
277.4999973260057
 41
1.083333333333332
  7
ＭＳ ゴシック
100
AcDbText
  0
ARC
  5
3F6
330
1F
100
AcDbEntity
  8
5-4
  6
Continuous
 62
     7
370
     9
100
AcDbCircle
 10
-1220.391262745098
 20
603.561885511795
 30
0.0
 40
690.2348685679038
100
AcDbArc
 50
0.0
 51
14.99999465201139
  0
LINE
  5
3F7
330
1F
100
AcDbEntity
  8
5-4
  6
Continuous
 62
     7
370
     9
100
AcDbLine
 10
-530.156394177194
 20
603.561885511795
 30
0.0
 11
-535.051126385446
 21
640.7410678133128
 31
0.0
  0
LINE
  5
3F8
330
1F
100
AcDbEntity
  8
5-4
  6
Continuous
 62
     7
370
     9
100
AcDbLine
 10
-530.156394177194
 20
603.561885511795
 30
0.0
 11
-525.2616619689421
 21
640.7410678133128
 31
0.0
  0
LINE
  5
3F9
330
1F
100
AcDbEntity
  8
5-4
  6
Continuous
 62
     7
370
     9
100
AcDbLine
 10
-568.0261857951903
 20
816.8532366684154
 30
0.0
 11
-539.3249348354279
 21
747.5622690510936
 31
0.0
  0
LINE
  5
3FA
330
1F
100
AcDbEntity
  8
5-4
  6
Continuous
 62
     7
370
     9
100
AcDbLine
 10
-558.5702890532558
 20
819.3869356181465
 30
0.0
 11
-548.7808315773624
 21
745.0285701013626
 31
0.0
  0
LINE
  5
3FB
330
1F
100
AcDbEntity
  8
5-4
  6
Continuous
 62
     7
370
     9
100
AcDbLine
 10
-360.4420877358069
 20
833.9844864567236
 30
0.0
 11
-558.0222266423217
 21
781.0430675625112
 31
0.0
  0
TEXT
  5
3FC
330
1F
100
AcDbEntity
  8
5-4
  6
Continuous
 62
     2
370
     9
100
AcDbText
 10
-631.884491468586
 20
999.6280032990124
 30
0.0
 40
45.72
  1
30ﾟ
 50
299.9999946520114
 41
1.083333333333334
  7
ＭＳ ゴシック
100
AcDbText
  0
ARC
  5
3FD
330
1F
100
AcDbEntity
  8
5-4
  6
Continuous
 62
     7
370
     9
100
AcDbCircle
 10
-1220.391262745098
 20
603.561885511795
 30
0.0
 40
690.2348685679038
100
AcDbArc
 50
14.99999465201139
 51
44.99999465201139
  0
LINE
  5
3FE
330
1F
100
AcDbEntity
  8
5-4
  6
Continuous
 62
     7
370
     9
100
AcDbLine
 10
-762.072209142998
 20
1114.46015249589
 30
0.0
 11
-702.5707128827903
 21
1068.803039766365
 31
0.0
  0
LINE
  5
3FF
330
1F
100
AcDbEntity
  8
5-4
  6
Continuous
 62
     7
370
     9
100
AcDbLine
 10
-755.1500118237857
 20
1121.382348522866
 30
0.0
 11
-709.4929102020026
 21
1061.880843739389
 31
0.0
  0
LINE
  5
400
330
1F
100
AcDbEntity
  8
5-4
  6
Continuous
 62
     7
370
     9
100
AcDbLine
 10
-590.8647316960459
 20
1233.088299040833
 30
0.0
 11
-735.5034418252397
 21
1088.449615912794
 31
0.0
  0
TEXT
  5
401
330
1F
100
AcDbEntity
  8
5-4
  6
Continuous
 62
     2
370
     9
100
AcDbText
 10
-908.7625074140885
 20
1240.818590732061
 30
0.0
 40
45.72
  1
30ﾟ
 50
329.9999946520114
 41
1.083333333333333
  7
ＭＳ ゴシック
100
AcDbText
  0
ARC
  5
402
330
1F
100
AcDbEntity
  8
5-4
  6
Continuous
 62
     7
370
     9
100
AcDbCircle
 10
-1220.391262745098
 20
603.561885511795
 30
0.0
 40
690.2348685679038
100
AcDbArc
 50
44.99999465201139
 51
74.99999465201138
  0
LINE
  5
403
330
1F
100
AcDbEntity
  8
5-4
  6
Continuous
 62
     7
370
     9
100
AcDbLine
 10
-1078.924452779285
 20
1275.172290270516
 30
0.0
 11
-1004.566089089998
 21
1265.382818913401
 31
0.0
  0
LINE
  5
404
330
1F
100
AcDbEntity
  8
5-4
  6
Continuous
 62
     7
370
     9
100
AcDbLine
 10
-1076.390752064327
 20
1284.628186539459
 30
0.0
 11
-1007.099789804956
 21
1255.926922644458
 31
0.0
  0
LINE
  5
405
330
1F
100
AcDbEntity
  8
5-4
  6
Continuous
 62
     7
370
     9
100
AcDbLine
 10
-989.9685012648445
 20
1463.511017505776
 30
0.0
 11
-1042.90995704332
 21
1265.930888482369
 31
0.0
  0
TEXT
  5
406
330
1F
100
AcDbEntity
  8
5-4
  6
Continuous
 62
     2
370
     9
100
AcDbText
 10
-1176.351450246702
 20
1311.565476189448
 30
0.0
 40
45.72
  1
15ﾟ
 50
352.4999973260057
 41
1.083333333333333
  7
ＭＳ ゴシック
100
AcDbText
  0
ARC
  5
407
330
1F
100
AcDbEntity
  8
5-4
  6
Continuous
 62
     7
370
     9
100
AcDbCircle
 10
-1220.391262745098
 20
603.561885511795
 30
0.0
 40
690.2348685679038
100
AcDbArc
 50
74.99999465201138
 51
90.0
  0
LINE
  5
408
330
1F
100
AcDbEntity
  8
5-4
  6
Continuous
 62
     7
370
     9
100
AcDbLine
 10
-1220.391262745098
 20
1293.796754079699
 30
0.0
 11
-1183.21208044358
 21
1298.691486287951
 31
0.0
  0
LINE
  5
409
330
1F
100
AcDbEntity
  8
5-4
  6
Continuous
 62
     7
370
     9
100
AcDbLine
 10
-1220.391262745098
 20
1293.796754079699
 30
0.0
 11
-1183.21208044358
 21
1288.902021871447
 31
0.0
  0
TEXT
  5
40A
330
1F
100
AcDbEntity
  8
5-4
  6
Continuous
 62
     2
370
     9
100
AcDbText
 10
-984.538264121132
 20
908.3577953014496
 30
0.0
 40
45.72
  1
90ﾟ
 50
315.0
 41
1.083333333333332
  7
ＭＳ ゴシック
100
AcDbText
  0
ARC
  5
40B
330
1F
100
AcDbEntity
  8
5-4
  6
Continuous
 62
     7
370
     9
100
AcDbCircle
 10
-1220.391262745098
 20
603.561885511795
 30
0.0
 40
364.8365093803759
100
AcDbArc
 50
0.0
 51
90.0
  0
LINE
  5
40C
330
1F
100
AcDbEntity
  8
5-4
  6
Continuous
 62
     7
370
     9
100
AcDbLine
 10
-855.5547533647222
 20
603.561885511795
 30
0.0
 11
-860.4494855729741
 21
640.7410678133128
 31
0.0
  0
LINE
  5
40D
330
1F
100
AcDbEntity
  8
5-4
  6
Continuous
 62
     7
370
     9
100
AcDbLine
 10
-855.5547533647222
 20
603.561885511795
 30
0.0
 11
-850.6600211564701
 21
640.7410678133128
 31
0.0
  0
LINE
  5
40E
330
1F
100
AcDbEntity
  8
5-4
  6
Continuous
 62
     7
370
     9
100
AcDbLine
 10
-1220.391262745098
 20
968.3983948921709
 30
0.0
 11
-1183.21208044358
 21
973.293127100423
 31
0.0
  0
LINE
  5
40F
330
1F
100
AcDbEntity
  8
5-4
  6
Continuous
 62
     7
370
     9
100
AcDbLine
 10
-1220.391262745098
 20
968.3983948921709
 30
0.0
 11
-1183.21208044358
 21
963.503662683919
 31
0.0
  0
LINE
  5
410
330
1F
100
AcDbEntity
  8
5-4
  6
Continuous
 62
     7
370
     9
100
AcDbLine
 10
-2190.391339039043
 20
-566.8550940045345
 30
0.0
 11
-250.3911864511526
 21
-566.8550940045345
 31
0.0
  0
LINE
  5
411
330
1F
100
AcDbEntity
  8
5-4
  6
Continuous
 62
     7
370
     9
100
AcDbLine
 10
-2190.391339039043
 20
-571.3550940045345
 30
0.0
 11
-2190.391339039043
 21
475.4411126814478
 31
0.0
  0
LINE
  5
412
330
1F
100
AcDbEntity
  8
5-4
  6
Continuous
 62
     7
370
     9
100
AcDbLine
 10
-250.3911864511526
 20
-571.3550940045345
 30
0.0
 11
-250.3911864511526
 21
475.4411126814478
 31
0.0
  0
TEXT
  5
413
330
1F
100
AcDbEntity
  8
5-4
  6
Continuous
 62
     2
370
   211
100
AcDbText
 10
-1286.016262745098
 20
-549.3950940045344
 30
0.0
 40
45.72
  1
1940
 41
1.09375
  7
ＭＳ ゴシック
100
AcDbText
  0
LINE
  5
414
330
1F
100
AcDbEntity
  8
5-4
  6
Continuous
 62
     7
370
     9
100
AcDbLine
 10
-2230.39131635706
 20
-705.0857667879309
 30
0.0
 11
-210.391118072703
 21
-705.0857667879309
 31
0.0
  0
LINE
  5
415
330
1F
100
AcDbEntity
  8
5-4
  6
Continuous
 62
     7
370
     9
100
AcDbLine
 10
-2230.39131635706
 20
-709.5857667879309
 30
0.0
 11
-2230.39131635706
 21
475.4411126814478
 31
0.0
  0
LINE
  5
416
330
1F
100
AcDbEntity
  8
5-4
  6
Continuous
 62
     7
370
     9
100
AcDbLine
 10
-210.391118072703
 20
-709.5857667879309
 30
0.0
 11
-210.391118072703
 21
475.4411126814478
 31
0.0
  0
TEXT
  5
417
330
1F
100
AcDbEntity
  8
5-4
  6
Continuous
 62
     2
370
   211
100
AcDbText
 10
-1286.016217214881
 20
-687.6257667879307
 30
0.0
 40
45.72
  1
2020
 41
1.09375
  7
ＭＳ ゴシック
100
AcDbText
  0
LINE
  5
418
330
1F
100
AcDbEntity
  8
5-0
  6
JWW_CENTER2
 62
     4
370
     9
100
AcDbLine
 10
-1220.391262745098
 20
-1143.117495370828
 30
0.0
 11
-1220.391262745098
 21
-1306.880988763946
 31
0.0
  0
LWPOLYLINE
  5
419
330
1F
100
AcDbEntity
  8
5-4
  6
Continuous
 62
     7
370
     9
100
AcDbPolyline
 90
        4
 70
     1
 43
1.5
 10
-2189.641339039043
 20
-566.8550940045345
 42
0.4142135623731
 10
-2190.391339039043
 20
-566.1050940045346
 42
0.4142135623731
 10
-2191.141339039043
 20
-566.8550940045345
 42
0.4142135623731
 10
-2190.391339039043
 20
-567.6050940045345
 42
0.4142135623731
  0
LWPOLYLINE
  5
41A
330
1F
100
AcDbEntity
  8
5-4
  6
Continuous
 62
     7
370
     9
100
AcDbPolyline
 90
        4
 70
     1
 43
1.5
 10
-2229.64131635706
 20
-705.0857667879309
 42
0.4142135623731
 10
-2230.39131635706
 20
-704.335766787931
 42
0.4142135623731
 10
-2231.14131635706
 20
-705.0857667879309
 42
0.4142135623731
 10
-2230.39131635706
 20
-705.8357667879309
 42
0.4142135623731
  0
LWPOLYLINE
  5
41B
330
1F
100
AcDbEntity
  8
5-4
  6
Continuous
 62
     7
370
     9
100
AcDbPolyline
 90
        4
 70
     1
 43
1.5
 10
-249.6411864511526
 20
-566.8550940045345
 42
0.4142135623731
 10
-250.3911864511526
 20
-566.1050940045346
 42
0.4142135623731
 10
-251.1411864511526
 20
-566.8550940045345
 42
0.4142135623731
 10
-250.3911864511526
 20
-567.6050940045345
 42
0.4142135623731
  0
LWPOLYLINE
  5
41C
330
1F
100
AcDbEntity
  8
5-4
  6
Continuous
 62
     7
370
     9
100
AcDbPolyline
 90
        4
 70
     1
 43
1.5
 10
-209.6411180727029
 20
-705.0857667879309
 42
0.4142135623731
 10
-210.391118072703
 20
-704.335766787931
 42
0.4142135623731
 10
-211.141118072703
 20
-705.0857667879309
 42
0.4142135623731
 10
-210.391118072703
 20
-705.8357667879309
 42
0.4142135623731
  0
LWPOLYLINE
  5
41D
330
1F
100
AcDbEntity
  8
5-4
  6
Continuous
 62
     7
370
     9
100
AcDbPolyline
 90
        4
 70
     1
 43
1.5
 10
-41.9984868058162
 20
-1304.386384718885
 42
0.4142135623731
 10
-42.7484868058162
 20
-1303.636384718885
 42
0.4142135623731
 10
-43.4984868058162
 20
-1304.386384718885
 42
0.4142135623731
 10
-42.7484868058162
 20
-1305.136384718885
 42
0.4142135623731
  0
LWPOLYLINE
  5
41E
330
1F
100
AcDbEntity
  8
5-4
  6
Continuous
 62
     7
370
     9
100
AcDbPolyline
 90
        4
 70
     1
 43
1.5
 10
-41.9984868058162
 20
-1244.386384718885
 42
0.4142135623731
 10
-42.7484868058162
 20
-1243.636384718885
 42
0.4142135623731
 10
-43.4984868058162
 20
-1244.386384718885
 42
0.4142135623731
 10
-42.7484868058162
 20
-1245.136384718885
 42
0.4142135623731
  0
LINE
  5
41F
330
1F
100
AcDbEntity
  8
5-4
  6
Continuous
 62
     7
370
     9
100
AcDbLine
 10
-38.24848680581619
 20
-1304.386384718885
 30
0.0
 11
-182.529477677149
 21
-1304.386384718885
 31
0.0
  0
LINE
  5
420
330
1F
100
AcDbEntity
  8
5-4
  6
Continuous
 62
     7
370
     9
100
AcDbLine
 10
-38.24848680581619
 20
-1244.386384718885
 30
0.0
 11
-182.529477677149
 21
-1244.386384718885
 31
0.0
  0
LWPOLYLINE
  5
421
330
1F
100
AcDbEntity
  8
5-4
  6
Continuous
 62
     7
370
     9
100
AcDbPolyline
 90
        4
 70
     1
 43
1.5
 10
-41.9984868058162
 20
-1204.386314610935
 42
0.4142135623731
 10
-42.7484868058162
 20
-1203.636314610935
 42
0.4142135623731
 10
-43.4984868058162
 20
-1204.386314610935
 42
0.4142135623731
 10
-42.7484868058162
 20
-1205.136314610935
 42
0.4142135623731
  0
LINE
  5
422
330
1F
100
AcDbEntity
  8
5-4
  6
Continuous
 62
     7
370
     9
100
AcDbLine
 10
-38.24848680581619
 20
-1204.386314610935
 30
0.0
 11
-182.529477677149
 21
-1204.386314610935
 31
0.0
  0
LINE
  5
423
330
1F
100
AcDbEntity
  8
5-4
  6
Continuous
 62
     7
370
     9
100
AcDbLine
 10
64.70220685718115
 20
-1304.386384718885
 30
0.0
 11
64.70220685718115
 21
-1204.386314610935
 31
0.0
  0
LWPOLYLINE
  5
424
330
1F
100
AcDbEntity
  8
5-4
  6
Continuous
 62
     7
370
     9
100
AcDbPolyline
 90
        4
 70
     1
 43
1.5
 10
65.45220685718114
 20
-1304.386384718885
 42
0.4142135623731
 10
64.70220685718115
 20
-1303.636384718885
 42
0.4142135623731
 10
63.95220685718115
 20
-1304.386384718885
 42
0.4142135623731
 10
64.70220685718115
 20
-1305.136384718885
 42
0.4142135623731
  0
LWPOLYLINE
  5
425
330
1F
100
AcDbEntity
  8
5-4
  6
Continuous
 62
     7
370
     9
100
AcDbPolyline
 90
        4
 70
     1
 43
1.5
 10
65.45220685718114
 20
-1204.386314610935
 42
0.4142135623731
 10
64.70220685718115
 20
-1203.636314610935
 42
0.4142135623731
 10
63.95220685718115
 20
-1204.386314610935
 42
0.4142135623731
 10
64.70220685718115
 20
-1205.136314610935
 42
0.4142135623731
  0
LINE
  5
426
330
1F
100
AcDbEntity
  8
5-4
  6
Continuous
 62
     7
370
     9
100
AcDbLine
 10
69.20220685718115
 20
-1304.386384718885
 30
0.0
 11
-42.7484868058162
 21
-1304.386384718885
 31
0.0
  0
LINE
  5
427
330
1F
100
AcDbEntity
  8
5-4
  6
Continuous
 62
     7
370
     9
100
AcDbLine
 10
69.20220685718115
 20
-1204.386314610935
 30
0.0
 11
-42.7484868058162
 21
-1204.386314610935
 31
0.0
  0
TEXT
  5
428
330
1F
100
AcDbEntity
  8
5-4
  6
Continuous
 62
     2
370
   211
100
AcDbText
 10
47.24220685718115
 20
-1303.13634966491
 30
0.0
 40
45.72
  1
100
 50
90.0
 41
1.083333333333333
  7
ＭＳ ゴシック
100
AcDbText
  0
TEXT
  5
429
330
1F
100
AcDbEntity
  8
5-4
  6
Continuous
 62
     2
370
   211
100
AcDbText
 10
-58.81561556071865
 20
-1190.733767141103
 30
0.0
 40
45.72
  1
40
 50
90.0
 41
1.0625
  7
ＭＳ ゴシック
100
AcDbText
  0
TEXT
  5
42A
330
1F
100
AcDbEntity
  8
5-4
  6
Continuous
 62
     2
370
   211
100
AcDbText
 10
-62.61917993816989
 20
-1381.862877108028
 30
0.0
 40
45.72
  1
60
 50
90.0
 41
1.0625
  7
ＭＳ ゴシック
100
AcDbText
  0
LINE
  5
42B
330
1F
100
AcDbEntity
  8
5-4
  6
Continuous
 62
     7
370
     9
100
AcDbLine
 10
-42.7484868058162
 20
-1244.386384718885
 30
0.0
 11
-42.7484868058162
 21
-1118.466043969529
 31
0.0
  0
LINE
  5
42C
330
1F
100
AcDbEntity
  8
5-4
  6
Continuous
 62
     7
370
     9
100
AcDbLine
 10
-42.7484868058162
 20
-1386.617332579842
 30
0.0
 11
-42.7484868058162
 21
-1244.386384718885
 31
0.0
  0
ENDSEC
  0
SECTION
  2
OBJECTS
  0
DICTIONARY
  5
C
330
0
100
AcDbDictionary
281
     1
  3
ACAD_GROUP
350
D
  3
ACAD_LAYOUT
350
1A
  3
ACAD_MLEADERSTYLE
350
42E
  3
ACAD_MLINESTYLE
350
17
  3
ACAD_PLOTSETTINGS
350
19
  3
ACAD_PLOTSTYLENAME
350
E
  3
ACAD_TABLESTYLE
350
42D
  3
ACAD_VISUALSTYLE
350
2A
  0
DICTIONARY
  5
D
102
{ACAD_REACTORS
330
C
102
}
330
C
100
AcDbDictionary
281
     1
  0
DICTIONARY
  5
1A
102
{ACAD_REACTORS
330
C
102
}
330
C
100
AcDbDictionary
281
     1
  3
Layout1
350
1E
  3
Layout2
350
26
  3
Model
350
22
  0
DICTIONARY
  5
42E
102
{ACAD_REACTORS
330
C
102
}
330
C
100
AcDbDictionary
281
     1
  0
DICTIONARY
  5
17
102
{ACAD_REACTORS
330
C
102
}
330
C
100
AcDbDictionary
281
     1
  3
Standard
350
18
  0
DICTIONARY
  5
19
102
{ACAD_REACTORS
330
C
102
}
330
C
100
AcDbDictionary
281
     1
  0
ACDBDICTIONARYWDFLT
  5
E
102
{ACAD_REACTORS
330
C
102
}
330
C
100
AcDbDictionary
281
     1
  3
Normal
350
F
100
AcDbDictionaryWithDefault
340
F
  0
DICTIONARY
  5
42D
102
{ACAD_REACTORS
330
C
102
}
330
C
100
AcDbDictionary
281
     1
  0
DICTIONARY
  5
2A
102
{ACAD_REACTORS
330
C
102
}
330
C
100
AcDbDictionary
281
     1
  3
2dWireframe
350
2F
  3
3D Hidden
350
31
  3
3dWireframe
350
30
  3
Basic
350
32
  3
Brighten
350
36
  3
ColorChange
350
3A
  3
Conceptual
350
34
  3
Dim
350
35
  3
Facepattern
350
39
  3
Flat
350
2B
  3
FlatWithEdges
350
2C
  3
Gouraud
350
2D
  3
GouraudWithEdges
350
2E
  3
Linepattern
350
38
  3
Realistic
350
33
  3
Thicken
350
37
  0
LAYOUT
  5
1E
102
{ACAD_REACTORS
330
1A
102
}
330
1A
100
AcDbPlotSettings
  1

  2
none_device
  4

  6

 40
0.0
 41
0.0
 42
0.0
 43
0.0
 44
0.0
 45
0.0
 46
0.0
 47
0.0
 48
0.0
 49
0.0
140
0.0
141
0.0
142
1.0
143
1.0
 70
   688
 72
     0
 73
     0
 74
     5
  7

 75
    16
 76
     0
 77
     5
 78
   300
147
1.0
148
0.0
149
0.0
100
AcDbLayout
  1
Layout1
 70
     1
 71
     1
 10
0.0
 20
0.0
 11
420.0
 21
297.0
 12
0.0
 22
0.0
 32
0.0
 14
1.000000000000000E+20
 24
1.000000000000000E+20
 34
1.000000000000000E+20
 15
-1.000000000000000E+20
 25
-1.000000000000000E+20
 35
-1.000000000000000E+20
146
0.0
 13
0.0
 23
0.0
 33
0.0
 16
1.0
 26
0.0
 36
0.0
 17
0.0
 27
1.0
 37
0.0
 76
     0
330
1B
  0
LAYOUT
  5
26
102
{ACAD_REACTORS
330
1A
102
}
330
1A
100
AcDbPlotSettings
  1

  2
none_device
  4

  6

 40
0.0
 41
0.0
 42
0.0
 43
0.0
 44
0.0
 45
0.0
 46
0.0
 47
0.0
 48
0.0
 49
0.0
140
0.0
141
0.0
142
1.0
143
1.0
 70
   688
 72
     0
 73
     0
 74
     5
  7

 75
    16
 76
     0
 77
     5
 78
   300
147
1.0
148
0.0
149
0.0
100
AcDbLayout
  1
Layout2
 70
     1
 71
     2
 10
0.0
 20
0.0
 11
0.0
 21
0.0
 12
0.0
 22
0.0
 32
0.0
 14
0.0
 24
0.0
 34
0.0
 15
0.0
 25
0.0
 35
0.0
146
0.0
 13
0.0
 23
0.0
 33
0.0
 16
1.0
 26
0.0
 36
0.0
 17
0.0
 27
1.0
 37
0.0
 76
     0
330
23
  0
LAYOUT
  5
22
102
{ACAD_REACTORS
330
1A
102
}
330
1A
100
AcDbPlotSettings
  1

  2
none_device
  4

  6

 40
0.0
 41
0.0
 42
0.0
 43
0.0
 44
0.0
 45
0.0
 46
0.0
 47
0.0
 48
0.0
 49
0.0
140
0.0
141
0.0
142
1.0
143
1.0
 70
  1712
 72
     0
 73
     0
 74
     0
  7

 75
     0
 76
     0
 77
     5
 78
   300
147
1.0
148
0.0
149
0.0
100
AcDbLayout
  1
Model
 70
     1
 71
     0
 10
-3150.0
 20
-2227.5
 11
3150.0
 21
2227.5
 12
0.0
 22
0.0
 32
0.0
 14
-3150.0
 24
-2227.5
 34
0.0
 15
3150.0
 25
2227.5
 35
0.0
146
0.0
 13
0.0
 23
0.0
 33
0.0
 16
1.0
 26
0.0
 36
0.0
 17
0.0
 27
1.0
 37
0.0
 76
     0
330
1F
331
29
  0
MLINESTYLE
  5
18
102
{ACAD_REACTORS
330
17
102
}
330
17
100
AcDbMlineStyle
  2
Standard
 70
     0
  3

 62
   256
 51
90.0
 52
90.0
 71
     2
 49
0.5
 62
   256
  6
BYLAYER
 49
-0.5
 62
   256
  6
BYLAYER
  0
ACDBPLACEHOLDER
  5
F
102
{ACAD_REACTORS
330
E
102
}
330
E
  0
VISUALSTYLE
  5
2F
102
{ACAD_REACTORS
330
2A
102
}
330
2A
100
AcDbVisualStyle
  2
2dWireframe
 70
     4
 71
     0
 72
     2
 73
     0
 90
        0
 40
-0.6
 41
-30.0
 62
     5
 63
     7
421
 16777215
 74
     1
 91
        4
 64
     7
 65
   257
 75
     1
175
     1
 42
1.0
 92
        0
 66
   257
 43
1.0
 76
     1
 77
     6
 78
     2
 67
     7
 79
     5
170
     0
171
     0
290
     0
174
     0
 93
        1
 44
0.0
173
     0
291
     0
 45
0.0
1001
ACAD
1000
AcDbSavedByObjectVersion
1070
     0
  0
VISUALSTYLE
  5
31
102
{ACAD_REACTORS
330
2A
102
}
330
2A
100
AcDbVisualStyle
  2
3D Hidden
 70
     6
 71
     1
 72
     2
 73
     2
 90
        0
 40
-0.6
 41
-30.0
 62
     5
 63
     7
421
 16777215
 74
     2
 91
        2
 64
     7
 65
   257
 75
     2
175
     1
 42
40.0
 92
        0
 66
   257
 43
1.0
 76
     1
 77
     6
 78
     2
 67
     7
 79
     3
170
     0
171
     0
290
     0
174
     0
 93
        1
 44
0.0
173
     0
291
     0
 45
0.0
1001
ACAD
1000
AcDbSavedByObjectVersion
1070
     0
  0
VISUALSTYLE
  5
30
102
{ACAD_REACTORS
330
2A
102
}
330
2A
100
AcDbVisualStyle
  2
3dWireframe
 70
     5
 71
     0
 72
     2
 73
     0
 90
        0
 40
-0.6
 41
-30.0
 62
     5
 63
     7
421
 16777215
 74
     1
 91
        4
 64
     7
 65
   257
 75
     1
175
     1
 42
1.0
 92
        0
 66
   257
 43
1.0
 76
     1
 77
     6
 78
     2
 67
     7
 79
     5
170
     0
171
     0
290
     0
174
     0
 93
        1
 44
0.0
173
     0
291
     0
 45
0.0
1001
ACAD
1000
AcDbSavedByObjectVersion
1070
     0
  0
VISUALSTYLE
  5
32
102
{ACAD_REACTORS
330
2A
102
}
330
2A
100
AcDbVisualStyle
  2
Basic
 70
     7
 71
     1
 72
     0
 73
     1
 90
        0
 40
-0.6
 41
-30.0
 62
     5
 63
     7
421
 16777215
 74
     0
 91
        4
 64
     7
 65
   257
 75
     1
175
     1
 42
1.0
 92
        8
 66
     7
 43
1.0
 76
     1
 77
     6
 78
     2
 67
     7
 79
     5
170
     0
171
     0
290
     0
174
     0
 93
        1
 44
0.0
173
     0
291
     1
 45
0.0
1001
ACAD
1000
AcDbSavedByObjectVersion
1070
     0
  0
VISUALSTYLE
  5
36
102
{ACAD_REACTORS
330
2A
102
}
330
2A
100
AcDbVisualStyle
  2
Brighten
 70
    12
 71
     2
 72
     2
 73
     0
 90
        0
 40
-0.6
 41
-30.0
 62
     5
 63
     7
421
 16777215
 74
     1
 91
        4
 64
     7
 65
   257
 75
     1
175
     1
 42
1.0
 92
        8
 66
     7
 43
1.0
 76
     1
 77
     6
 78
     2
 67
     7
 79
     5
170
     0
171
     0
290
     0
174
     0
 93
        1
 44
50.0
173
     0
291
     1
 45
0.0
1001
ACAD
1000
AcDbSavedByObjectVersion
1070
     0
  0
VISUALSTYLE
  5
3A
102
{ACAD_REACTORS
330
2A
102
}
330
2A
100
AcDbVisualStyle
  2
ColorChange
 70
    16
 71
     2
 72
     2
 73
     3
 90
        0
 40
-0.6
 41
-30.0
 62
     5
 63
     8
421
  8421504
 74
     1
 91
        4
 64
     7
 65
   257
 75
     1
175
     1
 42
1.0
 92
        8
 66
     8
424
  8421504
 43
1.0
 76
     1
 77
     6
 78
     2
 67
     7
 79
     5
170
     0
171
     0
290
     0
174
     0
 93
        1
 44
0.0
173
     0
291
     1
 45
0.0
1001
ACAD
1000
AcDbSavedByObjectVersion
1070
     0
  0
VISUALSTYLE
  5
34
102
{ACAD_REACTORS
330
2A
102
}
330
2A
100
AcDbVisualStyle
  2
Conceptual
 70
     9
 71
     3
 72
     2
 73
     0
 90
        0
 40
-0.6
 41
-30.0
 62
     5
 63
     7
421
 16777215
 74
     2
 91
        2
 64
     7
 65
   257
 75
     1
175
     1
 42
40.0
 92
        8
 66
     7
 43
1.0
 76
     1
 77
     6
 78
     2
 67
     7
 79
     3
170
     0
171
     0
290
     0
174
     0
 93
        1
 44
0.0
173
     0
291
     0
 45
0.0
1001
ACAD
1000
AcDbSavedByObjectVersion
1070
     0
  0
VISUALSTYLE
  5
35
102
{ACAD_REACTORS
330
2A
102
}
330
2A
100
AcDbVisualStyle
  2
Dim
 70
    11
 71
     2
 72
     2
 73
     0
 90
        0
 40
-0.6
 41
-30.0
 62
     5
 63
     7
421
 16777215
 74
     1
 91
        4
 64
     7
 65
   257
 75
     1
175
     1
 42
1.0
 92
        8
 66
     7
 43
1.0
 76
     1
 77
     6
 78
     2
 67
     7
 79
     5
170
     0
171
     0
290
     0
174
     0
 93
        1
 44
-50.0
173
     0
291
     1
 45
0.0
1001
ACAD
1000
AcDbSavedByObjectVersion
1070
     0
  0
VISUALSTYLE
  5
39
102
{ACAD_REACTORS
330
2A
102
}
330
2A
100
AcDbVisualStyle
  2
Facepattern
 70
    15
 71
     2
 72
     2
 73
     0
 90
        0
 40
-0.6
 41
-30.0
 62
     5
 63
     7
421
 16777215
 74
     1
 91
        4
 64
     7
 65
   257
 75
     1
175
     1
 42
1.0
 92
        8
 66
     7
 43
1.0
 76
     1
 77
     6
 78
     2
 67
     7
 79
     5
170
     0
171
     0
290
     0
174
     0
 93
        1
 44
0.0
173
     0
291
     1
 45
0.0
1001
ACAD
1000
AcDbSavedByObjectVersion
1070
     0
  0
VISUALSTYLE
  5
2B
102
{ACAD_REACTORS
330
2A
102
}
330
2A
100
AcDbVisualStyle
  2
Flat
 70
     0
 71
     2
 72
     1
 73
     1
 90
        2
 40
-0.6
 41
30.0
 62
     5
 63
     7
421
 16777215
 74
     0
 91
        4
 64
     7
 65
   257
 75
     1
175
     1
 42
1.0
 92
        8
 66
     7
 43
1.0
 76
     1
 77
     6
 78
     2
 67
     7
 79
     5
170
     0
171
     0
290
     0
174
     0
 93
       13
 44
0.0
173
     0
291
     1
 45
0.0
1001
ACAD
1000
AcDbSavedByObjectVersion
1070
     0
  0
VISUALSTYLE
  5
2C
102
{ACAD_REACTORS
330
2A
102
}
330
2A
100
AcDbVisualStyle
  2
FlatWithEdges
 70
     1
 71
     2
 72
     1
 73
     1
 90
        2
 40
-0.6
 41
30.0
 62
     5
 63
     7
421
 16777215
 74
     1
 91
        4
 64
     7
 65
   257
 75
     1
175
     1
 42
1.0
 92
        0
 66
   257
 43
1.0
 76
     1
 77
     6
 78
     2
 67
     7
 79
     5
170
     0
171
     0
290
     0
174
     0
 93
       13
 44
0.0
173
     0
291
     1
 45
0.0
1001
ACAD
1000
AcDbSavedByObjectVersion
1070
     0
  0
VISUALSTYLE
  5
2D
102
{ACAD_REACTORS
330
2A
102
}
330
2A
100
AcDbVisualStyle
  2
Gouraud
 70
     2
 71
     2
 72
     2
 73
     1
 90
        2
 40
-0.6
 41
30.0
 62
     5
 63
     7
421
 16777215
 74
     0
 91
        4
 64
     7
 65
   257
 75
     1
175
     1
 42
1.0
 92
        0
 66
     7
 43
1.0
 76
     1
 77
     6
 78
     2
 67
     7
 79
     5
170
     0
171
     0
290
     0
174
     0
 93
       13
 44
0.0
173
     0
291
     1
 45
0.0
1001
ACAD
1000
AcDbSavedByObjectVersion
1070
     0
  0
VISUALSTYLE
  5
2E
102
{ACAD_REACTORS
330
2A
102
}
330
2A
100
AcDbVisualStyle
  2
GouraudWithEdges
 70
     3
 71
     2
 72
     2
 73
     1
 90
        2
 40
-0.6
 41
30.0
 62
     5
 63
     7
421
 16777215
 74
     1
 91
        4
 64
     7
 65
   257
 75
     1
175
     1
 42
1.0
 92
        0
 66
   257
 43
1.0
 76
     1
 77
     6
 78
     2
 67
     7
 79
     5
170
     0
171
     0
290
     0
174
     0
 93
       13
 44
0.0
173
     0
291
     1
 45
0.0
1001
ACAD
1000
AcDbSavedByObjectVersion
1070
     0
  0
VISUALSTYLE
  5
38
102
{ACAD_REACTORS
330
2A
102
}
330
2A
100
AcDbVisualStyle
  2
Linepattern
 70
    14
 71
     2
 72
     2
 73
     0
 90
        0
 40
-0.6
 41
-30.0
 62
     5
 63
     7
421
 16777215
 74
     1
 91
        4
 64
     7
 65
   257
 75
     7
175
     7
 42
1.0
 92
        8
 66
     7
 43
1.0
 76
     1
 77
     6
 78
     2
 67
     7
 79
     5
170
     0
171
     0
290
     0
174
     0
 93
        1
 44
0.0
173
     0
291
     1
 45
0.0
1001
ACAD
1000
AcDbSavedByObjectVersion
1070
     0
  0
VISUALSTYLE
  5
33
102
{ACAD_REACTORS
330
2A
102
}
330
2A
100
AcDbVisualStyle
  2
Realistic
 70
     8
 71
     2
 72
     2
 73
     0
 90
        0
 40
-0.6
 41
-30.0
 62
     5
 63
     7
421
 16777215
 74
     1
 91
        0
 64
     7
 65
   257
 75
     1
175
     1
 42
1.0
 92
        8
 66
     8
424
  7895160
 43
1.0
 76
     1
 77
     6
 78
     2
 67
     7
 79
     5
170
     0
171
     0
290
     0
174
     0
 93
       13
 44
0.0
173
     0
291
     0
 45
0.0
1001
ACAD
1000
AcDbSavedByObjectVersion
1070
     0
  0
VISUALSTYLE
  5
37
102
{ACAD_REACTORS
330
2A
102
}
330
2A
100
AcDbVisualStyle
  2
Thicken
 70
    13
 71
     2
 72
     2
 73
     0
 90
        0
 40
-0.6
 41
-30.0
 62
     5
 63
     7
421
 16777215
 74
     1
 91
        4
 64
     7
 65
   257
 75
     1
175
     1
 42
1.0
 92
       12
 66
     7
 43
1.0
 76
     1
 77
     6
 78
     2
 67
     7
 79
     5
170
     0
171
     0
290
     0
174
     0
 93
        1
 44
0.0
173
     0
291
     1
 45
0.0
1001
ACAD
1000
AcDbSavedByObjectVersion
1070
     0
  0
ENDSEC
  0
EOF
