  0
SECTION
  2
HEADER
  9
$ACADVER
  1
AC1018
  9
$ACADMAINTVER
 70
     0
  9
$DWGCODEPAGE
  3
ANSI_932
  9
$INSBASE
 10
0.0
 20
0.0
 30
0.0
  9
$EXTMIN
 10
-2100.0
 20
-1485.0
 30
0.0
  9
$EXTMAX
 10
2100.0
 20
1485.0
 30
0.0
  9
$LIMMIN
 10
-2100.0
 20
-1485.0
  9
$LIMMAX
 10
2100.0
 20
1485.0
  9
$ORTHOMODE
 70
     0
  9
$REGENMODE
 70
     1
  9
$FILLMODE
 70
     1
  9
$QTEXTMODE
 70
     0
  9
$MIRRTEXT
 70
     1
  9
$LTSCALE
 40
10.0
  9
$ATTMODE
 70
     1
  9
$TEXTSIZE
 40
2.5
  9
$TRACEWID
 40
1.0
  9
$TEXTSTYLE
  7
Standard
  9
$CLAYER
  8
0
  9
$CELTYPE
  6
ByLayer
  9
$CECOLOR
 62
   256
  9
$CELTSCALE
 40
1.0
  9
$DISPSILH
 70
     0
  9
$DIMSCALE
 40
1.0
  9
$DIMASZ
 40
2.5
  9
$DIMEXO
 40
0.625
  9
$DIMDLI
 40
3.75
  9
$DIMRND
 40
0.0
  9
$DIMDLE
 40
0.0
  9
$DIMEXE
 40
1.25
  9
$DIMTP
 40
0.0
  9
$DIMTM
 40
0.0
  9
$DIMTXT
 40
2.5
  9
$DIMCEN
 40
2.5
  9
$DIMTSZ
 40
0.0
  9
$DIMTOL
 70
     0
  9
$DIMLIM
 70
     0
  9
$DIMTIH
 70
     0
  9
$DIMTOH
 70
     0
  9
$DIMSE1
 70
     0
  9
$DIMSE2
 70
     0
  9
$DIMTAD
 70
     1
  9
$DIMZIN
 70
     8
  9
$DIMBLK
  1

  9
$DIMASO
 70
     1
  9
$DIMSHO
 70
     1
  9
$DIMPOST
  1

  9
$DIMAPOST
  1

  9
$DIMALT
 70
     0
  9
$DIMALTD
 70
     3
  9
$DIMALTF
 40
0.03937007874016
  9
$DIMLFAC
 40
1.0
  9
$DIMTOFL
 70
     1
  9
$DIMTVP
 40
0.0
  9
$DIMTIX
 70
     0
  9
$DIMSOXD
 70
     0
  9
$DIMSAH
 70
     0
  9
$DIMBLK1
  1

  9
$DIMBLK2
  1

  9
$DIMSTYLE
  2
ISO-25
  9
$DIMCLRD
 70
     0
  9
$DIMCLRE
 70
     0
  9
$DIMCLRT
 70
     0
  9
$DIMTFAC
 40
1.0
  9
$DIMGAP
 40
0.625
  9
$DIMJUST
 70
     0
  9
$DIMSD1
 70
     0
  9
$DIMSD2
 70
     0
  9
$DIMTOLJ
 70
     0
  9
$DIMTZIN
 70
     8
  9
$DIMALTZ
 70
     0
  9
$DIMALTTZ
 70
     0
  9
$DIMUPT
 70
     0
  9
$DIMDEC
 70
     2
  9
$DIMTDEC
 70
     2
  9
$DIMALTU
 70
     2
  9
$DIMALTTD
 70
     3
  9
$DIMTXSTY
  7
Standard
  9
$DIMAUNIT
 70
     0
  9
$DIMADEC
 70
     0
  9
$DIMALTRND
 40
0.0
  9
$DIMAZIN
 70
     0
  9
$DIMDSEP
 70
    44
  9
$DIMATFIT
 70
     3
  9
$DIMFRAC
 70
     0
  9
$DIMLDRBLK
  1

  9
$DIMLUNIT
 70
     2
  9
$DIMLWD
 70
    -2
  9
$DIMLWE
 70
    -2
  9
$DIMTMOVE
 70
     0
  9
$LUNITS
 70
     2
  9
$LUPREC
 70
     4
  9
$SKETCHINC
 40
1.0
  9
$FILLETRAD
 40
10.0
  9
$AUNITS
 70
     0
  9
$AUPREC
 70
     0
  9
$MENU
  1
.
  9
$ELEVATION
 40
0.0
  9
$PELEVATION
 40
0.0
  9
$THICKNESS
 40
0.0
  9
$LIMCHECK
 70
     0
  9
$CHAMFERA
 40
10.0
  9
$CHAMFERB
 40
10.0
  9
$CHAMFERC
 40
20.0
  9
$CHAMFERD
 40
0.0
  9
$SKPOLY
 70
     0
  9
$TDCREATE
 40
2456499.583487928
  9
$TDUCREATE
 40
2456499.208487928
  9
$TDUPDATE
 40
2456499.58348794
  9
$TDUUPDATE
 40
2456499.20848794
  9
$TDINDWG
 40
0.0000000116
  9
$TDUSRTIMER
 40
0.0000000116
  9
$USRTIMER
 70
     1
  9
$ANGBASE
 50
0.0
  9
$ANGDIR
 70
     0
  9
$PDMODE
 70
     0
  9
$PDSIZE
 40
0.0
  9
$PLINEWID
 40
0.0
  9
$SPLFRAME
 70
     0
  9
$SPLINETYPE
 70
     6
  9
$SPLINESEGS
 70
     8
  9
$HANDSEED
  5
5FD
  9
$SURFTAB1
 70
     6
  9
$SURFTAB2
 70
     6
  9
$SURFTYPE
 70
     6
  9
$SURFU
 70
     6
  9
$SURFV
 70
     6
  9
$UCSBASE
  2

  9
$UCSNAME
  2

  9
$UCSORG
 10
0.0
 20
0.0
 30
0.0
  9
$UCSXDIR
 10
1.0
 20
0.0
 30
0.0
  9
$UCSYDIR
 10
0.0
 20
1.0
 30
0.0
  9
$UCSORTHOREF
  2

  9
$UCSORTHOVIEW
 70
     0
  9
$UCSORGTOP
 10
0.0
 20
0.0
 30
0.0
  9
$UCSORGBOTTOM
 10
0.0
 20
0.0
 30
0.0
  9
$UCSORGLEFT
 10
0.0
 20
0.0
 30
0.0
  9
$UCSORGRIGHT
 10
0.0
 20
0.0
 30
0.0
  9
$UCSORGFRONT
 10
0.0
 20
0.0
 30
0.0
  9
$UCSORGBACK
 10
0.0
 20
0.0
 30
0.0
  9
$PUCSBASE
  2

  9
$PUCSNAME
  2

  9
$PUCSORG
 10
0.0
 20
0.0
 30
0.0
  9
$PUCSXDIR
 10
1.0
 20
0.0
 30
0.0
  9
$PUCSYDIR
 10
0.0
 20
1.0
 30
0.0
  9
$PUCSORTHOREF
  2

  9
$PUCSORTHOVIEW
 70
     0
  9
$PUCSORGTOP
 10
0.0
 20
0.0
 30
0.0
  9
$PUCSORGBOTTOM
 10
0.0
 20
0.0
 30
0.0
  9
$PUCSORGLEFT
 10
0.0
 20
0.0
 30
0.0
  9
$PUCSORGRIGHT
 10
0.0
 20
0.0
 30
0.0
  9
$PUCSORGFRONT
 10
0.0
 20
0.0
 30
0.0
  9
$PUCSORGBACK
 10
0.0
 20
0.0
 30
0.0
  9
$USERI1
 70
     0
  9
$USERI2
 70
     0
  9
$USERI3
 70
     0
  9
$USERI4
 70
     0
  9
$USERI5
 70
     0
  9
$USERR1
 40
0.0
  9
$USERR2
 40
0.0
  9
$USERR3
 40
0.0
  9
$USERR4
 40
0.0
  9
$USERR5
 40
0.0
  9
$WORLDVIEW
 70
     1
  9
$SHADEDGE
 70
     3
  9
$SHADEDIF
 70
    70
  9
$TILEMODE
 70
     1
  9
$MAXACTVP
 70
    64
  9
$PINSBASE
 10
0.0
 20
0.0
 30
0.0
  9
$PLIMCHECK
 70
     0
  9
$PEXTMIN
 10
1.000000000000000E+20
 20
1.000000000000000E+20
 30
1.000000000000000E+20
  9
$PEXTMAX
 10
-1.000000000000000E+20
 20
-1.000000000000000E+20
 30
-1.000000000000000E+20
  9
$PLIMMIN
 10
0.0
 20
0.0
  9
$PLIMMAX
 10
420.0
 20
297.0
  9
$UNITMODE
 70
     0
  9
$VISRETAIN
 70
     1
  9
$PLINEGEN
 70
     0
  9
$PSLTSCALE
 70
     1
  9
$TREEDEPTH
 70
  3020
  9
$CMLSTYLE
  2
Standard
  9
$CMLJUST
 70
     0
  9
$CMLSCALE
 40
20.0
  9
$PROXYGRAPHICS
 70
     1
  9
$MEASUREMENT
 70
     1
  9
$CELWEIGHT
370
    -1
  9
$ENDCAPS
280
     0
  9
$JOINSTYLE
280
     0
  9
$LWDISPLAY
290
     0
  9
$INSUNITS
 70
     4
  9
$HYPERLINKBASE
  1

  9
$STYLESHEET
  1

  9
$XEDIT
290
     1
  9
$CEPSNTYPE
380
     0
  9
$PSTYLEMODE
290
     1
  9
$FINGERPRINTGUID
  2
{04157DC5-6B34-4F25-9A6B-7A0ECA109C0E}
  9
$VERSIONGUID
  2
{FAEB1C32-E019-11D5-929B-00C0DF256EC4}
  9
$EXTNAMES
290
     1
  9
$PSVPSCALE
 40
0.0
  9
$OLESTARTUP
290
     0
  9
$SORTENTS
280
   127
  9
$INDEXCTL
280
     0
  9
$HIDETEXT
280
     1
  9
$XCLIPFRAME
290
     0
  9
$HALOGAP
280
     0
  9
$OBSCOLOR
 70
   257
  9
$OBSLTYPE
280
     0
  9
$INTERSECTIONDISPLAY
280
     0
  9
$INTERSECTIONCOLOR
 70
   257
  9
$DIMASSOC
280
     2
  9
$PROJECTNAME
  1

  0
ENDSEC
  0
SECTION
  2
CLASSES
  0
CLASS
  1
ACDBDICTIONARYWDFLT
  2
AcDbDictionaryWithDefault
  3
ObjectDBX Classes
 90
        0
 91
        4
280
     0
281
     0
  0
CLASS
  1
VISUALSTYLE
  2
AcDbVisualStyle
  3
ObjectDBX Classes
 90
     4095
 91
        4
280
     0
281
     0
  0
ENDSEC
  0
SECTION
  2
TABLES
  0
TABLE
  2
VPORT
  5
8
330
0
100
AcDbSymbolTable
 70
     1
  0
VPORT
  5
29
330
8
100
AcDbSymbolTableRecord
100
AcDbViewportTableRecord
  2
*Active
 70
     0
 10
0.0
 20
0.0
 11
1.0
 21
1.0
 12
0.0
 22
0.0
 13
0.0
 23
0.0
 14
10.0
 24
10.0
 15
10.0
 25
10.0
 16
0.0
 26
0.0
 36
1.0
 17
0.0
 27
0.0
 37
0.0
 40
3267.0
 41
1.414141414141414
 42
50.0
 43
0.0
 44
0.0
 50
0.0
 51
0.0
 71
     0
 72
 10000
 73
     1
 74
     3
 75
     0
 76
     0
 77
     0
 78
     0
281
     0
 65
     1
110
0.0
120
0.0
130
0.0
111
1.0
121
0.0
131
0.0
112
0.0
122
1.0
132
0.0
 79
     0
146
0.0
  0
ENDTAB
  0
TABLE
  2
LTYPE
  5
5
330
0
100
AcDbSymbolTable
 70
     3
  0
LTYPE
  5
14
330
5
100
AcDbSymbolTableRecord
100
AcDbLinetypeTableRecord
  2
ByBlock
 70
     0
  3

 72
    65
 73
     0
 40
0.0
  0
LTYPE
  5
15
330
5
100
AcDbSymbolTableRecord
100
AcDbLinetypeTableRecord
  2
ByLayer
 70
     0
  3

 72
    65
 73
     0
 40
0.0
  0
LTYPE
  5
16
330
5
100
AcDbSymbolTableRecord
100
AcDbLinetypeTableRecord
  2
Continuous
 70
     0
  3
Solid line
 72
    65
 73
     0
 40
0.0
  0
LTYPE
  5
3C
330
5
100
AcDbSymbolTableRecord
100
AcDbLinetypeTableRecord
  2
JWW_DASHED3
 70
     0
  3
---  ------  ------  ------  ---
 72
    65
 73
     2
 40
3.386666666666667
 49
2.54
 74
     0
 49
-0.8466666666666667
 74
     0
  0
LTYPE
  5
3D
330
5
100
AcDbSymbolTableRecord
100
AcDbLinetypeTableRecord
  2
JWW_CENTER1
 70
     0
  3
-----  --  ----------  --  -----
 72
    65
 73
     4
 40
6.773333333333333
 49
4.233333333333333
 74
     0
 49
-0.8466666666666667
 74
     0
 49
0.8466666666666667
 74
     0
 49
-0.8466666666666667
 74
     0
  0
ENDTAB
  0
TABLE
  2
LAYER
  5
2
330
0
100
AcDbSymbolTable
 70
    13
  0
LAYER
  5
10
330
2
100
AcDbSymbolTableRecord
100
AcDbLayerTableRecord
  2
0
 70
     0
 62
     7
  6
Continuous
370
    -3
390
F
  0
LAYER
  5
3E
330
2
100
AcDbSymbolTableRecord
100
AcDbLayerTableRecord
  2
C-4
 70
     0
 62
     7
  6
Continuous
370
    -3
390
F
  0
LAYER
  5
3F
330
2
100
AcDbSymbolTableRecord
100
AcDbLayerTableRecord
  2
C-1
 70
     0
 62
     7
  6
Continuous
370
    -3
390
F
  0
LAYER
  5
40
330
2
100
AcDbSymbolTableRecord
100
AcDbLayerTableRecord
  2
C-3
 70
     0
 62
     7
  6
Continuous
370
    -3
390
F
  0
LAYER
  5
41
330
2
100
AcDbSymbolTableRecord
100
AcDbLayerTableRecord
  2
1-5
 70
     0
 62
     7
  6
Continuous
370
    -3
390
F
  0
LAYER
  5
42
330
2
100
AcDbSymbolTableRecord
100
AcDbLayerTableRecord
  2
C-0
 70
     0
 62
     7
  6
Continuous
370
    -3
390
F
  0
LAYER
  5
43
330
2
100
AcDbSymbolTableRecord
100
AcDbLayerTableRecord
  2
F-5
 70
     0
 62
     7
  6
Continuous
370
    -3
390
F
  0
LAYER
  5
44
330
2
100
AcDbSymbolTableRecord
100
AcDbLayerTableRecord
  2
1-2
 70
     0
 62
     7
  6
Continuous
370
    -3
390
F
  0
LAYER
  5
45
330
2
100
AcDbSymbolTableRecord
100
AcDbLayerTableRecord
  2
1-0
 70
     0
 62
     7
  6
Continuous
370
    -3
390
F
  0
LAYER
  5
46
330
2
100
AcDbSymbolTableRecord
100
AcDbLayerTableRecord
  2
1-4
 70
     0
 62
     7
  6
Continuous
370
    -3
390
F
  0
LAYER
  5
47
330
2
100
AcDbSymbolTableRecord
100
AcDbLayerTableRecord
  2
1-1
 70
     0
 62
     7
  6
Continuous
370
    -3
390
F
  0
LAYER
  5
48
330
2
100
AcDbSymbolTableRecord
100
AcDbLayerTableRecord
  2
1-6
 70
     0
 62
     7
  6
Continuous
370
    -3
390
F
  0
LAYER
  5
49
330
2
100
AcDbSymbolTableRecord
100
AcDbLayerTableRecord
  2
1-E
 70
     0
 62
     7
  6
Continuous
370
    -3
390
F
  0
ENDTAB
  0
TABLE
  2
STYLE
  5
3
330
0
100
AcDbSymbolTable
 70
     2
  0
STYLE
  5
11
330
3
100
AcDbSymbolTableRecord
100
AcDbTextStyleTableRecord
  2
Standard
 70
     0
 40
0.0
 41
1.0
 50
0.0
 71
     0
 42
2.5
  3
txt
  4

1001
ACAD
1000

1071
        0
  0
STYLE
  5
3B
330
3
100
AcDbSymbolTableRecord
100
AcDbTextStyleTableRecord
  2
ＭＳ ゴシック
 70
     0
 40
1.0
 41
1.0
 50
0.0
 71
     0
 42
10.0
  3

  4

1001
ACAD
1000
MS Gothic
1071
    32817
  0
ENDTAB
  0
TABLE
  2
VIEW
  5
6
330
0
100
AcDbSymbolTable
 70
     0
  0
ENDTAB
  0
TABLE
  2
UCS
  5
7
330
0
100
AcDbSymbolTable
 70
     0
  0
ENDTAB
  0
TABLE
  2
APPID
  5
9
330
0
100
AcDbSymbolTable
 70
     1
  0
APPID
  5
12
330
9
100
AcDbSymbolTableRecord
100
AcDbRegAppTableRecord
  2
ACAD
 70
     0
  0
ENDTAB
  0
TABLE
  2
DIMSTYLE
  5
A
330
0
100
AcDbSymbolTable
 70
     1
100
AcDbDimStyleTable
  0
DIMSTYLE
105
27
330
A
100
AcDbSymbolTableRecord
100
AcDbDimStyleTableRecord
  2
ISO-25
 70
     0
 41
2.5
 42
0.625
 43
3.75
 44
1.25
 73
     0
 74
     0
 77
     1
 78
     8
140
2.5
141
2.5
143
0.03937007874016
147
0.625
171
     3
172
     1
271
     2
272
     2
274
     3
278
    44
283
     0
284
     8
340
11
  0
ENDTAB
  0
TABLE
  2
BLOCK_RECORD
  5
1
330
0
100
AcDbSymbolTable
 70
     1
  0
BLOCK_RECORD
  5
1F
330
1
100
AcDbSymbolTableRecord
100
AcDbBlockTableRecord
  2
*Model_Space
340
22
  0
BLOCK_RECORD
  5
1B
330
1
100
AcDbSymbolTableRecord
100
AcDbBlockTableRecord
  2
*Paper_Space
340
1E
  0
BLOCK_RECORD
  5
23
330
1
100
AcDbSymbolTableRecord
100
AcDbBlockTableRecord
  2
*Paper_Space0
340
26
  0
ENDTAB
  0
ENDSEC
  0
SECTION
  2
BLOCKS
  0
BLOCK
  5
20
330
1F
100
AcDbEntity
  8
0
100
AcDbBlockBegin
  2
*Model_Space
 70
     0
 10
0.0
 20
0.0
 30
0.0
  3
*Model_Space
  1

  0
ENDBLK
  5
21
330
1F
100
AcDbEntity
  8
0
100
AcDbBlockEnd
  0
BLOCK
  5
1C
330
1B
100
AcDbEntity
 67
     1
  8
0
100
AcDbBlockBegin
  2
*Paper_Space
 70
     0
 10
0.0
 20
0.0
 30
0.0
  3
*Paper_Space
  1

  0
ENDBLK
  5
1D
330
1B
100
AcDbEntity
 67
     1
  8
0
100
AcDbBlockEnd
  0
BLOCK
  5
24
330
23
100
AcDbEntity
  8
0
100
AcDbBlockBegin
  2
*Paper_Space0
 70
     0
 10
0.0
 20
0.0
 30
0.0
  3
*Paper_Space0
  1

  0
ENDBLK
  5
25
330
23
100
AcDbEntity
  8
0
100
AcDbBlockEnd
  0
ENDSEC
  0
SECTION
  2
ENTITIES
  0
LINE
  5
4A
330
1F
100
AcDbEntity
  8
C-4
  6
Continuous
 62
     7
370
    13
100
AcDbLine
 10
-1477.944669940953
 20
1026.708039189992
 30
0.0
 11
-1477.944669940953
 21
684.7488967822983
 31
0.0
  0
LINE
  5
4B
330
1F
100
AcDbEntity
  8
C-1
  6
Continuous
 62
     2
370
    13
100
AcDbLine
 10
-272.9455453503051
 20
654.7500656408886
 30
0.0
 11
-272.9455453503051
 21
64.74979699193796
 31
0.0
  0
LINE
  5
4C
330
1F
100
AcDbEntity
  8
C-1
  6
Continuous
 62
     2
370
    13
100
AcDbLine
 10
-177.945350933302
 20
654.7500656408886
 30
0.0
 11
-177.945350933302
 21
64.74979699193796
 31
0.0
  0
LINE
  5
4D
330
1F
100
AcDbEntity
  8
C-1
  6
Continuous
 62
     2
370
    13
100
AcDbLine
 10
-1322.944982130138
 20
819.7490994472957
 30
0.0
 11
-882.9444206773969
 21
819.7490994472957
 31
0.0
  0
LINE
  5
4E
330
1F
100
AcDbEntity
  8
C-1
  6
Continuous
 62
     2
370
    13
100
AcDbLine
 10
-1322.944982130138
 20
914.7492938642995
 30
0.0
 11
-882.9444206773969
 21
914.7492938642995
 31
0.0
  0
LINE
  5
4F
330
1F
100
AcDbEntity
  8
C-1
  6
Continuous
 62
     2
370
    13
100
AcDbLine
 10
-1482.943744931025
 20
654.7500656408886
 30
0.0
 11
-1482.943744931025
 21
64.74979699193796
 31
0.0
  0
LINE
  5
50
330
1F
100
AcDbEntity
  8
C-1
  6
Continuous
 62
     2
370
    13
100
AcDbLine
 10
-1577.944930285604
 20
654.7500656408886
 30
0.0
 11
-1577.944930285604
 21
64.74979699193796
 31
0.0
  0
LINE
  5
51
330
1F
100
AcDbEntity
  8
C-1
  6
Continuous
 62
     2
370
    13
100
AcDbLine
 10
-177.945350933302
 20
669.7498877198734
 30
0.0
 11
-272.9455453503051
 21
669.7498877198734
 31
0.0
  0
LINE
  5
52
330
1F
100
AcDbEntity
  8
C-1
  6
Continuous
 62
     2
370
    13
100
AcDbLine
 10
-383.5956168957621
 20
914.7492938642995
 30
0.0
 11
-177.945350933302
 21
709.0990279018376
 31
0.0
  0
LINE
  5
53
330
1F
100
AcDbEntity
  8
C-1
  6
Continuous
 62
     2
370
    13
100
AcDbLine
 10
-177.945350933302
 20
709.0990279018376
 30
0.0
 11
-177.945350933302
 21
669.7498877198734
 31
0.0
  0
LINE
  5
54
330
1F
100
AcDbEntity
  8
C-1
  6
Continuous
 62
     2
370
    13
100
AcDbLine
 10
-1372.293673385568
 20
914.7492938642995
 30
0.0
 11
-1577.943939348029
 21
709.0990279018376
 31
0.0
  0
LINE
  5
55
330
1F
100
AcDbEntity
  8
C-1
  6
Continuous
 62
     2
370
    13
100
AcDbLine
 10
-1577.943939348029
 20
709.0990279018376
 30
0.0
 11
-1577.943939348029
 21
669.7498877198734
 31
0.0
  0
LINE
  5
56
330
1F
100
AcDbEntity
  8
C-1
  6
Continuous
 62
     2
370
    13
100
AcDbLine
 10
-432.9443081511927
 20
819.7490994472957
 30
0.0
 11
-872.9443741351447
 21
819.7490994472957
 31
0.0
  0
LINE
  5
57
330
1F
100
AcDbEntity
  8
C-1
  6
Continuous
 62
     2
370
    13
100
AcDbLine
 10
-432.9443081511927
 20
914.7492938642995
 30
0.0
 11
-872.9443741351447
 21
914.7492938642995
 31
0.0
  0
LINE
  5
58
330
1F
100
AcDbEntity
  8
C-1
  6
Continuous
 62
     2
370
    13
100
AcDbLine
 10
-1332.944533203603
 20
819.7481085097195
 30
0.0
 11
-1482.94275399345
 21
669.7498877198734
 31
0.0
  0
LINE
  5
59
330
1F
100
AcDbEntity
  8
C-1
  6
Continuous
 62
     2
370
    13
100
AcDbLine
 10
-1332.944533203603
 20
914.7492938642995
 30
0.0
 11
-1332.944533203603
 21
819.7481085097195
 31
0.0
  0
LINE
  5
5A
330
1F
100
AcDbEntity
  8
C-1
  6
Continuous
 62
     2
370
    13
100
AcDbLine
 10
-1332.944533203603
 20
914.7492938642995
 30
0.0
 11
-1372.293673385568
 21
914.7492938642995
 31
0.0
  0
LINE
  5
5B
330
1F
100
AcDbEntity
  8
C-1
  6
Continuous
 62
     2
370
    13
100
AcDbLine
 10
-422.9437661401523
 20
819.7481085097195
 30
0.0
 11
-272.9455453503051
 21
669.7498877198734
 31
0.0
  0
LINE
  5
5C
330
1F
100
AcDbEntity
  8
C-1
  6
Continuous
 62
     2
370
    13
100
AcDbLine
 10
-422.9437661401523
 20
914.7492938642995
 30
0.0
 11
-422.9437661401523
 21
819.7481085097195
 31
0.0
  0
LINE
  5
5D
330
1F
100
AcDbEntity
  8
C-1
  6
Continuous
 62
     2
370
    13
100
AcDbLine
 10
-422.9437661401523
 20
914.7492938642995
 30
0.0
 11
-383.5956168957621
 21
914.7492938642995
 31
0.0
  0
LINE
  5
5E
330
1F
100
AcDbEntity
  8
C-1
  6
Continuous
 62
     2
370
    13
100
AcDbLine
 10
-1577.943939348029
 20
669.7498877198734
 30
0.0
 11
-1482.94275399345
 21
669.7498877198734
 31
0.0
  0
LINE
  5
5F
330
1F
100
AcDbEntity
  8
C-1
  6
JWW_DASHED3
 62
     2
370
    13
100
AcDbLine
 10
-432.9443081511927
 20
774.7496332103412
 30
0.0
 11
-872.9443741351447
 21
774.7496332103412
 31
0.0
  0
LINE
  5
60
330
1F
100
AcDbEntity
  8
C-1
  6
JWW_DASHED3
 62
     2
370
    13
100
AcDbLine
 10
-317.9460025248347
 20
654.7500656408886
 30
0.0
 11
-317.9460025248347
 21
64.74979699193796
 31
0.0
  0
LINE
  5
61
330
1F
100
AcDbEntity
  8
C-1
  6
JWW_DASHED3
 62
     2
370
    13
100
AcDbLine
 10
-1322.944982130138
 20
774.7496332103412
 30
0.0
 11
-882.9444206773969
 21
774.7496332103412
 31
0.0
  0
LINE
  5
62
330
1F
100
AcDbEntity
  8
C-1
  6
JWW_DASHED3
 62
     2
370
    13
100
AcDbLine
 10
-1437.944278694071
 20
654.7500656408886
 30
0.0
 11
-1437.944278694071
 21
64.74979699193796
 31
0.0
  0
LINE
  5
63
330
1F
100
AcDbEntity
  8
C-1
  6
Continuous
 62
     2
370
    13
100
AcDbLine
 10
-1577.944930285604
 20
64.74979699193796
 30
0.0
 11
-1477.944669940953
 21
64.74979699193796
 31
0.0
  0
LINE
  5
64
330
1F
100
AcDbEntity
  8
C-1
  6
Continuous
 62
     2
370
    13
100
AcDbLine
 10
-1577.944930285604
 20
654.7500656408886
 30
0.0
 11
-1477.944669940953
 21
654.7500656408886
 31
0.0
  0
LINE
  5
65
330
1F
100
AcDbEntity
  8
C-1
  6
Continuous
 62
     2
370
    13
100
AcDbLine
 10
-1322.944982130138
 20
914.7492938642995
 30
0.0
 11
-1322.944982130138
 21
814.7490994472957
 31
0.0
  0
LINE
  5
66
330
1F
100
AcDbEntity
  8
C-1
  6
Continuous
 62
     2
370
    13
100
AcDbLine
 10
-1322.944982130138
 20
814.7490994472957
 30
0.0
 11
-1322.944982130138
 21
774.7496332103412
 31
0.0
  0
LINE
  5
67
330
1F
100
AcDbEntity
  8
C-1
  6
Continuous
 62
     2
370
    13
100
AcDbLine
 10
-882.9444206773969
 20
914.7492938642995
 30
0.0
 11
-882.9444206773969
 21
814.7490994472957
 31
0.0
  0
LINE
  5
68
330
1F
100
AcDbEntity
  8
C-1
  6
Continuous
 62
     2
370
    13
100
AcDbLine
 10
-872.9443741351447
 20
914.7492938642995
 30
0.0
 11
-872.9443741351447
 21
814.7490994472957
 31
0.0
  0
LINE
  5
69
330
1F
100
AcDbEntity
  8
C-1
  6
Continuous
 62
     2
370
    13
100
AcDbLine
 10
-432.9443081511927
 20
914.7492938642995
 30
0.0
 11
-432.9443081511927
 21
814.7490994472957
 31
0.0
  0
LINE
  5
6A
330
1F
100
AcDbEntity
  8
C-1
  6
Continuous
 62
     2
370
    13
100
AcDbLine
 10
-177.945350933302
 20
654.7500656408886
 30
0.0
 11
-277.9450304961222
 21
654.7500656408886
 31
0.0
  0
LINE
  5
6B
330
1F
100
AcDbEntity
  8
C-1
  6
Continuous
 62
     2
370
    13
100
AcDbLine
 10
-177.945350933302
 20
64.74979699193796
 30
0.0
 11
-277.9450304961222
 21
64.74979699193796
 31
0.0
  0
LINE
  5
6C
330
1F
100
AcDbEntity
  8
C-1
  6
JWW_DASHED3
 62
     2
370
    13
100
AcDbLine
 10
-277.9450304961222
 20
64.74979699193796
 30
0.0
 11
-317.9460025248347
 21
64.74979699193796
 31
0.0
  0
LINE
  5
6D
330
1F
100
AcDbEntity
  8
C-1
  6
JWW_DASHED3
 62
     2
370
    13
100
AcDbLine
 10
-277.9450304961222
 20
654.7500656408886
 30
0.0
 11
-317.9460025248347
 21
654.7500656408886
 31
0.0
  0
LINE
  5
6E
330
1F
100
AcDbEntity
  8
C-1
  6
JWW_DASHED3
 62
     2
370
    13
100
AcDbLine
 10
-432.9443081511927
 20
814.7490994472957
 30
0.0
 11
-432.9443081511927
 21
774.7496332103412
 31
0.0
  0
LINE
  5
6F
330
1F
100
AcDbEntity
  8
C-1
  6
JWW_DASHED3
 62
     2
370
    13
100
AcDbLine
 10
-872.9443741351447
 20
814.7490994472957
 30
0.0
 11
-872.9443741351447
 21
774.7496332103412
 31
0.0
  0
LINE
  5
70
330
1F
100
AcDbEntity
  8
C-1
  6
JWW_DASHED3
 62
     2
370
    13
100
AcDbLine
 10
-882.9444206773969
 20
814.7490994472957
 30
0.0
 11
-882.9444206773969
 21
774.7496332103412
 31
0.0
  0
LINE
  5
71
330
1F
100
AcDbEntity
  8
C-1
  6
JWW_DASHED3
 62
     2
370
    13
100
AcDbLine
 10
-1477.944669940953
 20
654.7500656408886
 30
0.0
 11
-1437.944278694071
 21
654.7500656408886
 31
0.0
  0
LINE
  5
72
330
1F
100
AcDbEntity
  8
C-1
  6
JWW_DASHED3
 62
     2
370
    13
100
AcDbLine
 10
-1477.944669940953
 20
64.74979699193796
 30
0.0
 11
-1437.944278694071
 21
64.74979699193796
 31
0.0
  0
LINE
  5
73
330
1F
100
AcDbEntity
  8
C-4
  6
Continuous
 62
     7
370
    13
100
AcDbLine
 10
-1577.944639894688
 20
-260.7377216135325
 30
0.0
 11
-177.9443405643046
 21
-260.7377216135325
 31
0.0
  0
LWPOLYLINE
  5
74
330
1F
100
AcDbEntity
  8
C-4
  6
Continuous
 62
     7
370
    13
100
AcDbPolyline
 90
        4
 70
     1
 43
1.0
 10
-1577.444639894688
 20
-260.7377216135325
 42
0.4142135623731
 10
-1577.944639894688
 20
-260.2377216135325
 42
0.4142135623731
 10
-1578.444639894688
 20
-260.7377216135325
 42
0.4142135623731
 10
-1577.944639894688
 20
-261.2377216135325
 42
0.4142135623731
  0
LWPOLYLINE
  5
75
330
1F
100
AcDbEntity
  8
C-4
  6
Continuous
 62
     7
370
    13
100
AcDbPolyline
 90
        4
 70
     1
 43
1.0
 10
-177.4443405643046
 20
-260.7377216135325
 42
0.4142135623731
 10
-177.9443405643046
 20
-260.2377216135325
 42
0.4142135623731
 10
-178.4443405643046
 20
-260.7377216135325
 42
0.4142135623731
 10
-177.9443405643046
 20
-261.2377216135325
 42
0.4142135623731
  0
TEXT
  5
76
330
1F
100
AcDbEntity
  8
C-4
  6
Continuous
 62
     2
370
   211
100
AcDbText
 10
-921.6944902294963
 20
-245.0977216135325
 30
0.0
 40
30.48
  1
1400
 41
1.09375
  7
ＭＳ ゴシック
100
AcDbText
  0
LINE
  5
77
330
1F
100
AcDbEntity
  8
C-1
  6
Continuous
 62
     2
370
    13
100
AcDbLine
 10
-285.4855699762061
 20
-629.3136054931588
 30
0.0
 11
-177.9450605423858
 21
-521.7730960593397
 31
0.0
  0
LINE
  5
78
330
1F
100
AcDbEntity
  8
C-1
  6
Continuous
 62
     2
370
    13
100
AcDbLine
 10
-278.4152303756548
 20
-629.3136054931588
 30
0.0
 11
-177.9450605423858
 21
-528.8444265974672
 31
0.0
  0
LINE
  5
79
330
1F
100
AcDbEntity
  8
C-1
  6
Continuous
 62
     2
370
    13
100
AcDbLine
 10
-271.3438998375273
 20
-629.3136054931588
 30
0.0
 11
-177.9450605423858
 21
-535.9157571355936
 31
0.0
  0
LINE
  5
7A
330
1F
100
AcDbEntity
  8
C-1
  6
Continuous
 62
     2
370
    13
100
AcDbLine
 10
-1531.342827598295
 20
-629.3136054931588
 30
0.0
 11
-1443.343111682777
 21
-541.3143850464294
 31
0.0
  0
LINE
  5
7B
330
1F
100
AcDbEntity
  8
C-1
  6
Continuous
 62
     2
370
    13
100
AcDbLine
 10
-1538.414158136422
 20
-629.3136054931588
 30
0.0
 11
-1450.414442220905
 21
-541.3143850464294
 31
0.0
  0
LINE
  5
7C
330
1F
100
AcDbEntity
  8
C-1
  6
Continuous
 62
     2
370
    13
100
AcDbLine
 10
-1545.48548867455
 20
-629.3136054931588
 30
0.0
 11
-1457.485277290244
 21
-541.3143850464294
 31
0.0
  0
LINE
  5
7D
330
1F
100
AcDbEntity
  8
C-1
  6
Continuous
 62
     2
370
    13
100
AcDbLine
 10
-177.9450605423858
 20
-514.3143089292269
 30
0.0
 11
-177.9450605423858
 21
-629.3136054931588
 31
0.0
  0
LINE
  5
7E
330
1F
100
AcDbEntity
  8
C-1
  6
Continuous
 62
     2
370
    13
100
AcDbLine
 10
-1577.944639894688
 20
-514.3143089292269
 30
0.0
 11
-1577.944639894688
 21
-629.3136054931588
 31
0.0
  0
LINE
  5
7F
330
1F
100
AcDbEntity
  8
C-1
  6
Continuous
 62
     2
370
    13
100
AcDbLine
 10
-1577.944639894688
 20
-629.3136054931588
 30
0.0
 11
-1437.944483771943
 21
-629.3136054931588
 31
0.0
  0
LINE
  5
80
330
1F
100
AcDbEntity
  8
C-1
  6
Continuous
 62
     2
370
    13
100
AcDbLine
 10
-1437.944483771943
 20
-546.3136651143739
 30
0.0
 11
-1437.944483771943
 21
-629.3136054931588
 31
0.0
  0
LINE
  5
81
330
1F
100
AcDbEntity
  8
C-1
  6
Continuous
 62
     2
370
    13
100
AcDbLine
 10
-1487.944716483204
 20
-509.3140379237062
 30
0.0
 11
-1572.944368889167
 21
-509.3140379237062
 31
0.0
  0
LINE
  5
82
330
1F
100
AcDbEntity
  8
C-1
  6
Continuous
 62
     2
370
    13
100
AcDbLine
 10
-317.9457121339192
 20
-629.3136054931588
 30
0.0
 11
-177.9450605423858
 21
-629.3136054931588
 31
0.0
  0
LINE
  5
83
330
1F
100
AcDbEntity
  8
C-1
  6
Continuous
 62
     2
370
    13
100
AcDbLine
 10
-317.9457121339192
 20
-546.3136651143739
 30
0.0
 11
-317.9457121339192
 21
-629.3136054931588
 31
0.0
  0
LINE
  5
84
330
1F
100
AcDbEntity
  8
C-1
  6
Continuous
 62
     2
370
    13
100
AcDbLine
 10
-182.9443406103314
 20
-509.3140379237062
 30
0.0
 11
-267.94498395387
 21
-509.3140379237062
 31
0.0
  0
LINE
  5
85
330
1F
100
AcDbEntity
  8
C-3
  6
Continuous
 62
     6
370
    13
100
AcDbLine
 10
-1577.944639894688
 20
-629.3136054931588
 30
0.0
 11
-1577.944639894688
 21
-689.3138847466732
 31
0.0
  0
LINE
  5
86
330
1F
100
AcDbEntity
  8
C-3
  6
Continuous
 62
     6
370
    13
100
AcDbLine
 10
-1437.944483771943
 20
-629.3136054931588
 30
0.0
 11
-1437.944483771943
 21
-689.3138847466732
 31
0.0
  0
LINE
  5
87
330
1F
100
AcDbEntity
  8
C-3
  6
Continuous
 62
     6
370
    13
100
AcDbLine
 10
-1550.002677612058
 20
-689.3138847466732
 30
0.0
 11
-1500.001949432009
 21
-639.3141475041991
 31
0.0
  0
LINE
  5
88
330
1F
100
AcDbEntity
  8
C-3
  6
Continuous
 62
     6
370
    13
100
AcDbLine
 10
-1542.931347073931
 20
-689.3138847466732
 30
0.0
 11
-1492.931609831456
 21
-639.3141475041991
 31
0.0
  0
LINE
  5
89
330
1F
100
AcDbEntity
  8
C-3
  6
Continuous
 62
     6
370
    13
100
AcDbLine
 10
-1535.860016535803
 20
-689.3138847466732
 30
0.0
 11
-1485.860279293329
 21
-639.3141475041991
 31
0.0
  0
LINE
  5
8A
330
1F
100
AcDbEntity
  8
C-3
  6
Continuous
 62
     6
370
    13
100
AcDbLine
 10
-1475.640740078123
 20
-689.3138847466732
 30
0.0
 11
-1510.281935839314
 21
-749.3141640001877
 31
0.0
  0
LINE
  5
8B
330
1F
100
AcDbEntity
  8
C-3
  6
Continuous
 62
     6
370
    13
100
AcDbLine
 10
-1510.281935839314
 20
-689.3138847466732
 30
0.0
 11
-1544.922636131718
 21
-749.3141640001877
 31
0.0
  0
LINE
  5
8C
330
1F
100
AcDbEntity
  8
C-3
  6
Continuous
 62
     6
370
    13
100
AcDbLine
 10
-1504.36702945169
 20
-739.068860408021
 30
0.0
 11
-1498.452123064067
 21
-749.3141640001877
 31
0.0
  0
LINE
  5
8D
330
1F
100
AcDbEntity
  8
C-3
  6
Continuous
 62
     6
370
    13
100
AcDbLine
 10
-1539.007234275306
 20
-739.068860408021
 30
0.0
 11
-1533.092327887682
 21
-749.3141640001877
 31
0.0
  0
LINE
  5
8E
330
1F
100
AcDbEntity
  8
C-3
  6
Continuous
 62
     6
370
    13
100
AcDbLine
 10
-1490.505794646853
 20
-689.3138847466732
 30
0.0
 11
-1483.0727718937
 21
-702.1871547888272
 31
0.0
  0
LINE
  5
8F
330
1F
100
AcDbEntity
  8
C-3
  6
Continuous
 62
     6
370
    13
100
AcDbLine
 10
-1525.146990408043
 20
-689.3138847466732
 30
0.0
 11
-1517.71396765489
 21
-702.1871547888272
 31
0.0
  0
LINE
  5
90
330
1F
100
AcDbEntity
  8
C-3
  6
Continuous
 62
     6
370
    13
100
AcDbLine
 10
-1559.788186169234
 20
-689.3138847466732
 30
0.0
 11
-1552.355163416082
 21
-702.1871547888272
 31
0.0
  0
LINE
  5
91
330
1F
100
AcDbEntity
  8
C-3
  6
Continuous
 62
     6
370
    13
100
AcDbLine
 10
-1577.944639894688
 20
-639.3141475041991
 30
0.0
 11
-1437.944483771943
 21
-639.3141475041991
 31
0.0
  0
LINE
  5
92
330
1F
100
AcDbEntity
  8
C-3
  6
Continuous
 62
     6
370
    13
100
AcDbLine
 10
-1587.94468643694
 20
-689.3138847466732
 30
0.0
 11
-1427.944932698477
 21
-689.3138847466732
 31
0.0
  0
LINE
  5
93
330
1F
100
AcDbEntity
  8
C-3
  6
Continuous
 62
     6
370
    13
100
AcDbLine
 10
-1587.94468643694
 20
-749.3141640001877
 30
0.0
 11
-1427.944932698477
 21
-749.3141640001877
 31
0.0
  0
LINE
  5
94
330
1F
100
AcDbEntity
  8
C-3
  6
Continuous
 62
     6
370
    13
100
AcDbLine
 10
-1544.922636131718
 20
-689.3138847466732
 30
0.0
 11
-1579.563831892908
 21
-749.3141640001877
 31
0.0
  0
LINE
  5
95
330
1F
100
AcDbEntity
  8
C-3
  6
Continuous
 62
     6
370
    13
100
AcDbLine
 10
-1573.648925505285
 20
-739.0698513455961
 30
0.0
 11
-1567.734019117661
 21
-749.3141640001877
 31
0.0
  0
LINE
  5
96
330
1F
100
AcDbEntity
  8
C-3
  6
Continuous
 62
     6
370
    13
100
AcDbLine
 10
-1440.999544316933
 20
-689.3138847466732
 30
0.0
 11
-1475.640740078123
 21
-749.3141640001877
 31
0.0
  0
LINE
  5
97
330
1F
100
AcDbEntity
  8
C-3
  6
Continuous
 62
     6
370
    13
100
AcDbLine
 10
-1469.7258336905
 20
-739.068860408021
 30
0.0
 11
-1463.810927302876
 21
-749.3141640001877
 31
0.0
  0
LINE
  5
98
330
1F
100
AcDbEntity
  8
C-3
  6
Continuous
 62
     6
370
    13
100
AcDbLine
 10
-1455.864598885661
 20
-689.3138847466732
 30
0.0
 11
-1448.432567070084
 21
-702.1871547888272
 31
0.0
  0
LINE
  5
99
330
1F
100
AcDbEntity
  8
C-3
  6
Continuous
 62
     6
370
    13
100
AcDbLine
 10
-1587.94468643694
 20
-689.3138847466732
 30
0.0
 11
-1587.94468643694
 21
-749.3141640001877
 31
0.0
  0
LINE
  5
9A
330
1F
100
AcDbEntity
  8
C-3
  6
Continuous
 62
     6
370
    13
100
AcDbLine
 10
-1427.944932698477
 20
-689.3138847466732
 30
0.0
 11
-1427.944932698477
 21
-749.3141640001877
 31
0.0
  0
LINE
  5
9B
330
1F
100
AcDbEntity
  8
C-3
  6
Continuous
 62
     6
370
    13
100
AcDbLine
 10
-167.9455094689217
 20
-689.3148756842484
 30
0.0
 11
-167.9455094689217
 21
-749.3141640001877
 31
0.0
  0
LINE
  5
9C
330
1F
100
AcDbEntity
  8
C-3
  6
Continuous
 62
     6
370
    13
100
AcDbLine
 10
-290.0032543825012
 20
-689.3148756842484
 30
0.0
 11
-240.0025262024519
 21
-639.3141475041991
 31
0.0
  0
LINE
  5
9D
330
1F
100
AcDbEntity
  8
C-3
  6
Continuous
 62
     6
370
    13
100
AcDbLine
 10
-282.9319238443736
 20
-689.3148756842484
 30
0.0
 11
-232.9321866018995
 21
-639.3141475041991
 31
0.0
  0
LINE
  5
9E
330
1F
100
AcDbEntity
  8
C-3
  6
Continuous
 62
     6
370
    13
100
AcDbLine
 10
-275.8605933062472
 20
-689.3148756842484
 30
0.0
 11
-225.8608560637731
 21
-639.3141475041991
 31
0.0
  0
LINE
  5
9F
330
1F
100
AcDbEntity
  8
C-3
  6
Continuous
 62
     6
370
    13
100
AcDbLine
 10
-327.9452632073844
 20
-689.3148756842484
 30
0.0
 11
-327.9452632073844
 21
-749.3141640001877
 31
0.0
  0
LINE
  5
A0
330
1F
100
AcDbEntity
  8
C-3
  6
Continuous
 62
     6
370
    13
100
AcDbLine
 10
-215.6413168485665
 20
-689.3148756842484
 30
0.0
 11
-250.2825126097582
 21
-749.3141640001877
 31
0.0
  0
LINE
  5
A1
330
1F
100
AcDbEntity
  8
C-3
  6
Continuous
 62
     6
370
    13
100
AcDbLine
 10
-250.2825126097582
 20
-689.3148756842484
 30
0.0
 11
-284.9227174333737
 21
-749.3141640001877
 31
0.0
  0
LINE
  5
A2
330
1F
100
AcDbEntity
  8
C-3
  6
Continuous
 62
     6
370
    13
100
AcDbLine
 10
-244.3676062221346
 20
-739.0698513455961
 30
0.0
 11
-238.4526998345109
 21
-749.3141640001877
 31
0.0
  0
LINE
  5
A3
330
1F
100
AcDbEntity
  8
C-3
  6
Continuous
 62
     6
370
    13
100
AcDbLine
 10
-279.00781104575
 20
-739.0698513455961
 30
0.0
 11
-273.0929046581264
 21
-749.3141640001877
 31
0.0
  0
LINE
  5
A4
330
1F
100
AcDbEntity
  8
C-3
  6
Continuous
 62
     6
370
    13
100
AcDbLine
 10
-230.5063714172957
 20
-689.3148756842484
 30
0.0
 11
-223.0733486641441
 21
-702.1871547888272
 31
0.0
  0
LINE
  5
A5
330
1F
100
AcDbEntity
  8
C-3
  6
Continuous
 62
     6
370
    13
100
AcDbLine
 10
-265.1475671784863
 20
-689.3148756842484
 30
0.0
 11
-257.7145444253347
 21
-702.1871547888272
 31
0.0
  0
LINE
  5
A6
330
1F
100
AcDbEntity
  8
C-3
  6
Continuous
 62
     6
370
    13
100
AcDbLine
 10
-299.788762939678
 20
-689.3148756842484
 30
0.0
 11
-292.3557401865253
 21
-702.1871547888272
 31
0.0
  0
LINE
  5
A7
330
1F
100
AcDbEntity
  8
C-3
  6
Continuous
 62
     6
370
    13
100
AcDbLine
 10
-177.9450605423858
 20
-639.3141475041991
 30
0.0
 11
-317.9457121339192
 21
-639.3141475041991
 31
0.0
  0
LINE
  5
A8
330
1F
100
AcDbEntity
  8
C-3
  6
Continuous
 62
     6
370
    13
100
AcDbLine
 10
-167.9455094689217
 20
-689.3148756842484
 30
0.0
 11
-327.9452632073844
 21
-689.3148756842484
 31
0.0
  0
LINE
  5
A9
330
1F
100
AcDbEntity
  8
C-3
  6
Continuous
 62
     6
370
    13
100
AcDbLine
 10
-167.9455094689217
 20
-749.3141640001877
 30
0.0
 11
-327.9452632073844
 21
-749.3141640001877
 31
0.0
  0
LINE
  5
AA
330
1F
100
AcDbEntity
  8
C-3
  6
Continuous
 62
     6
370
    13
100
AcDbLine
 10
-284.9227174333737
 20
-689.3148756842484
 30
0.0
 11
-319.5639131945643
 21
-749.3141640001877
 31
0.0
  0
LINE
  5
AB
330
1F
100
AcDbEntity
  8
C-3
  6
Continuous
 62
     6
370
    13
100
AcDbLine
 10
-313.6490068069406
 20
-739.0698513455961
 30
0.0
 11
-307.734100419317
 21
-749.3141640001877
 31
0.0
  0
LINE
  5
AC
330
1F
100
AcDbEntity
  8
C-3
  6
Continuous
 62
     6
370
    13
100
AcDbLine
 10
-181.0001210873759
 20
-689.3148756842484
 30
0.0
 11
-215.6413168485665
 21
-749.3141640001877
 31
0.0
  0
LINE
  5
AD
330
1F
100
AcDbEntity
  8
C-3
  6
Continuous
 62
     6
370
    13
100
AcDbLine
 10
-209.7264104609428
 20
-739.0698513455961
 30
0.0
 11
-203.8115040733192
 21
-749.3141640001877
 31
0.0
  0
LINE
  5
AE
330
1F
100
AcDbEntity
  8
C-3
  6
Continuous
 62
     6
370
    13
100
AcDbLine
 10
-195.8651756561051
 20
-689.3148756842484
 30
0.0
 11
-188.4331438405286
 21
-702.1871547888272
 31
0.0
  0
LINE
  5
AF
330
1F
100
AcDbEntity
  8
C-3
  6
Continuous
 62
     6
370
    13
100
AcDbLine
 10
-177.9450605423858
 20
-629.3136054931588
 30
0.0
 11
-177.9450605423858
 21
-689.3148756842484
 31
0.0
  0
LINE
  5
B0
330
1F
100
AcDbEntity
  8
C-3
  6
Continuous
 62
     6
370
    13
100
AcDbLine
 10
-317.9457121339192
 20
-629.3136054931588
 30
0.0
 11
-317.9457121339192
 21
-689.3148756842484
 31
0.0
  0
ARC
  5
B1
330
1F
100
AcDbEntity
  8
C-1
  6
Continuous
 62
     2
370
    13
100
AcDbCircle
 10
-275.9448230001567
 20
-538.3138260680871
 30
0.0
 40
3.000000124387299
100
AcDbArc
 50
270.0
 51
0.0
  0
ARC
  5
B2
330
1F
100
AcDbEntity
  8
C-1
  6
Continuous
 62
     2
370
    13
100
AcDbCircle
 10
-182.9443406103314
 20
-514.3143089292269
 30
0.0
 40
5.000000046026752
100
AcDbArc
 50
0.0
 51
90.0
  0
ARC
  5
B3
330
1F
100
AcDbEntity
  8
C-1
  6
Continuous
 62
     2
370
    13
100
AcDbCircle
 10
-1572.944368889167
 20
-514.3143089292269
 30
0.0
 40
5.000000046026752
100
AcDbArc
 50
90.0
 51
180.0
  0
ARC
  5
B4
330
1F
100
AcDbEntity
  8
C-1
  6
Continuous
 62
     2
370
    13
100
AcDbCircle
 10
-1479.944877436917
 20
-538.3138260680871
 30
0.0
 40
3.000000124387299
100
AcDbArc
 50
180.0
 51
270.0
  0
ARC
  5
B5
330
1F
100
AcDbEntity
  8
C-1
  6
Continuous
 62
     2
370
    13
100
AcDbCircle
 10
-1442.944259308675
 20
-546.3136651143739
 30
0.0
 40
5.000000046026752
100
AcDbArc
 50
0.0
 51
90.0
  0
ARC
  5
B6
330
1F
100
AcDbEntity
  8
C-1
  6
Continuous
 62
     2
370
    13
100
AcDbCircle
 10
-1487.944716483204
 20
-514.3143089292269
 30
0.0
 40
5.000000046026752
100
AcDbArc
 50
0.0
 51
90.0
  0
ARC
  5
B7
330
1F
100
AcDbEntity
  8
C-1
  6
Continuous
 62
     2
370
    13
100
AcDbCircle
 10
-312.9454411283996
 20
-546.3136651143739
 30
0.0
 40
5.000000046026752
100
AcDbArc
 50
90.0
 51
180.0
  0
ARC
  5
B8
330
1F
100
AcDbEntity
  8
C-1
  6
Continuous
 62
     2
370
    13
100
AcDbCircle
 10
-267.94498395387
 20
-514.3143089292269
 30
0.0
 40
5.000000046026752
100
AcDbArc
 50
90.0
 51
180.0
  0
LINE
  5
B9
330
1F
100
AcDbEntity
  8
C-4
  6
Continuous
 62
     7
370
    13
100
AcDbLine
 10
-1577.944639894688
 20
-257.7377216135325
 30
0.0
 11
-1577.944639894688
 21
-494.3143089292269
 31
0.0
  0
LINE
  5
BA
330
1F
100
AcDbEntity
  8
C-4
  6
Continuous
 62
     7
370
    13
100
AcDbLine
 10
-177.9443405643046
 20
-257.7377216135325
 30
0.0
 11
-177.9443405643046
 21
-494.3143089292269
 31
0.0
  0
LINE
  5
BB
330
1F
100
AcDbEntity
  8
C-4
  6
Continuous
 62
     7
370
    13
100
AcDbLine
 10
-1477.944669940953
 20
-340.7377216135325
 30
0.0
 11
-277.9450304961221
 21
-340.7377216135325
 31
0.0
  0
LWPOLYLINE
  5
BC
330
1F
100
AcDbEntity
  8
C-4
  6
Continuous
 62
     7
370
    13
100
AcDbPolyline
 90
        4
 70
     1
 43
1.0
 10
-1477.444669940953
 20
-340.7377216135325
 42
0.4142135623731
 10
-1477.944669940953
 20
-340.2377216135325
 42
0.4142135623731
 10
-1478.444669940953
 20
-340.7377216135325
 42
0.4142135623731
 10
-1477.944669940953
 20
-341.2377216135325
 42
0.4142135623731
  0
LWPOLYLINE
  5
BD
330
1F
100
AcDbEntity
  8
C-4
  6
Continuous
 62
     7
370
    13
100
AcDbPolyline
 90
        4
 70
     1
 43
1.0
 10
-277.445030496122
 20
-340.7377216135325
 42
0.4142135623731
 10
-277.9450304961221
 20
-340.2377216135325
 42
0.4142135623731
 10
-278.4450304961221
 20
-340.7377216135325
 42
0.4142135623731
 10
-277.9450304961221
 20
-341.2377216135325
 42
0.4142135623731
  0
LINE
  5
BE
330
1F
100
AcDbEntity
  8
C-4
  6
Continuous
 62
     7
370
    13
100
AcDbLine
 10
-1477.944669940953
 20
-337.7377216135325
 30
0.0
 11
-1477.944669940953
 21
-491.3124795863317
 31
0.0
  0
LINE
  5
BF
330
1F
100
AcDbEntity
  8
C-4
  6
Continuous
 62
     7
370
    13
100
AcDbLine
 10
-277.9450304961221
 20
-337.7377216135325
 30
0.0
 11
-277.9450304961221
 21
-491.3124795863317
 31
0.0
  0
TEXT
  5
C0
330
1F
100
AcDbEntity
  8
C-4
  6
Continuous
 62
     2
370
   211
100
AcDbText
 10
-921.6948502185375
 20
-325.0977216135325
 30
0.0
 40
30.48
  1
1200
 41
1.09375
  7
ＭＳ ゴシック
100
AcDbText
  0
LINE
  5
C1
330
1F
100
AcDbEntity
  8
C-4
  6
Continuous
 62
     7
370
    13
100
AcDbLine
 10
-1437.944483771943
 20
-667.2905975120118
 30
0.0
 11
-317.9457121339192
 21
-667.2905975120118
 31
0.0
  0
TEXT
  5
C2
330
1F
100
AcDbEntity
  8
C-4
  6
Continuous
 62
     2
370
   211
100
AcDbText
 10
-921.6950979529311
 20
-651.6505975120118
 30
0.0
 40
30.48
  1
1120
 41
1.09375
  7
ＭＳ ゴシック
100
AcDbText
  0
LWPOLYLINE
  5
C3
330
1F
100
AcDbEntity
  8
C-4
  6
Continuous
 62
     7
370
    13
100
AcDbPolyline
 90
        4
 70
     1
 43
1.0
 10
-317.4457121339192
 20
-667.2905975120118
 42
0.4142135623731
 10
-317.9457121339192
 20
-666.7905975120118
 42
0.4142135623731
 10
-318.4457121339192
 20
-667.2905975120118
 42
0.4142135623731
 10
-317.9457121339192
 20
-667.7905975120118
 42
0.4142135623731
  0
LWPOLYLINE
  5
C4
330
1F
100
AcDbEntity
  8
C-4
  6
Continuous
 62
     7
370
    13
100
AcDbPolyline
 90
        4
 70
     1
 43
1.0
 10
-1437.444483771942
 20
-667.2905975120118
 42
0.4142135623731
 10
-1437.944483771943
 20
-666.7905975120118
 42
0.4142135623731
 10
-1438.444483771943
 20
-667.2905975120118
 42
0.4142135623731
 10
-1437.944483771943
 20
-667.7905975120118
 42
0.4142135623731
  0
LINE
  5
C5
330
1F
100
AcDbEntity
  8
C-4
  6
Continuous
 62
     7
370
    13
100
AcDbLine
 10
-80.24404470398136
 20
814.7490994472957
 30
0.0
 11
-80.24404470398137
 21
664.7488967822983
 31
0.0
  0
LWPOLYLINE
  5
C6
330
1F
100
AcDbEntity
  8
C-4
  6
Continuous
 62
     7
370
    13
100
AcDbPolyline
 90
        4
 70
     1
 43
1.0
 10
-79.74404470398136
 20
814.7490994472957
 42
0.4142135623731
 10
-80.24404470398136
 20
815.2490994472957
 42
0.4142135623731
 10
-80.74404470398136
 20
814.7490994472957
 42
0.4142135623731
 10
-80.24404470398136
 20
814.2490994472957
 42
0.4142135623731
  0
LWPOLYLINE
  5
C7
330
1F
100
AcDbEntity
  8
C-4
  6
Continuous
 62
     7
370
    13
100
AcDbPolyline
 90
        4
 70
     1
 43
1.0
 10
-79.74404470398137
 20
664.7488967822983
 42
0.4142135623731
 10
-80.24404470398137
 20
665.2488967822983
 42
0.4142135623731
 10
-80.74404470398137
 20
664.7488967822983
 42
0.4142135623731
 10
-80.24404470398137
 20
664.2488967822983
 42
0.4142135623731
  0
LINE
  5
C8
330
1F
100
AcDbEntity
  8
C-4
  6
Continuous
 62
     7
370
    13
100
AcDbLine
 10
-77.24404470398136
 20
664.7488967822983
 30
0.0
 11
-257.9450304961222
 21
664.7488967822983
 31
0.0
  0
TEXT
  5
C9
330
1F
100
AcDbEntity
  8
C-4
  6
Continuous
 62
     2
370
   211
100
AcDbText
 10
-95.88404470398139
 20
707.248998114797
 30
0.0
 40
30.48
  1
150
 50
90.0
 41
1.083333333333333
  7
ＭＳ ゴシック
100
AcDbText
  0
LINE
  5
CA
330
1F
100
AcDbEntity
  8
C-4
  6
Continuous
 62
     7
370
    13
100
AcDbLine
 10
-0.244044703981352
 20
814.7490994472957
 30
0.0
 11
-0.2440447039813876
 21
64.74808612230731
 31
0.0
  0
LWPOLYLINE
  5
CB
330
1F
100
AcDbEntity
  8
C-4
  6
Continuous
 62
     7
370
    13
100
AcDbPolyline
 90
        4
 70
     1
 43
1.0
 10
0.255955296018648
 20
814.7490994472957
 42
0.4142135623731
 10
-0.244044703981352
 20
815.2490994472957
 42
0.4142135623731
 10
-0.744044703981352
 20
814.7490994472957
 42
0.4142135623731
 10
-0.244044703981352
 20
814.2490994472957
 42
0.4142135623731
  0
LWPOLYLINE
  5
CC
330
1F
100
AcDbEntity
  8
C-4
  6
Continuous
 62
     7
370
    13
100
AcDbPolyline
 90
        4
 70
     1
 43
1.0
 10
0.2559552960186124
 20
64.74808612230731
 42
0.4142135623731
 10
-0.2440447039813876
 20
65.24808612230731
 42
0.4142135623731
 10
-0.7440447039813876
 20
64.74808612230731
 42
0.4142135623731
 10
-0.2440447039813876
 20
64.24808612230731
 42
0.4142135623731
  0
LINE
  5
CD
330
1F
100
AcDbEntity
  8
C-4
  6
Continuous
 62
     7
370
    13
100
AcDbLine
 10
2.755955296018655
 20
814.7490994472957
 30
0.0
 11
-407.9442422235445
 21
814.7490994472957
 31
0.0
  0
TEXT
  5
CE
330
1F
100
AcDbEntity
  8
C-4
  6
Continuous
 62
     2
370
   211
100
AcDbText
 10
-15.88404470398135
 20
407.2485927848015
 30
0.0
 40
30.48
  1
750
 50
90.0
 41
1.083333333333333
  7
ＭＳ ゴシック
100
AcDbText
  0
LINE
  5
CF
330
1F
100
AcDbEntity
  8
C-4
  6
Continuous
 62
     7
370
    13
100
AcDbLine
 10
-427.9442422235445
 20
1023.708039189992
 30
0.0
 11
-277.9450304961222
 21
1023.708039189992
 31
0.0
  0
LWPOLYLINE
  5
D0
330
1F
100
AcDbEntity
  8
C-4
  6
Continuous
 62
     7
370
    13
100
AcDbPolyline
 90
        4
 70
     1
 43
1.0
 10
-427.4442422235445
 20
1023.708039189992
 42
0.4142135623731
 10
-427.9442422235445
 20
1024.208039189992
 42
0.4142135623731
 10
-428.4442422235445
 20
1023.708039189992
 42
0.4142135623731
 10
-427.9442422235445
 20
1023.208039189992
 42
0.4142135623731
  0
LWPOLYLINE
  5
D1
330
1F
100
AcDbEntity
  8
C-4
  6
Continuous
 62
     7
370
    13
100
AcDbPolyline
 90
        4
 70
     1
 43
1.0
 10
-277.4450304961222
 20
1023.708039189992
 42
0.4142135623731
 10
-277.9450304961222
 20
1024.208039189992
 42
0.4142135623731
 10
-278.4450304961222
 20
1023.708039189992
 42
0.4142135623731
 10
-277.9450304961222
 20
1023.208039189992
 42
0.4142135623731
  0
LINE
  5
D2
330
1F
100
AcDbEntity
  8
C-4
  6
Continuous
 62
     7
370
    13
100
AcDbLine
 10
-427.9442422235445
 20
1026.708039189992
 30
0.0
 11
-427.9442422235445
 21
834.7490994472957
 31
0.0
  0
LINE
  5
D3
330
1F
100
AcDbEntity
  8
C-4
  6
Continuous
 62
     7
370
    13
100
AcDbLine
 10
-277.9450304961222
 20
1026.708039189992
 30
0.0
 11
-277.9450304961222
 21
684.7488967822983
 31
0.0
  0
TEXT
  5
D4
330
1F
100
AcDbEntity
  8
C-4
  6
Continuous
 62
     2
370
   211
100
AcDbText
 10
-385.4446363598333
 20
1039.348039189992
 30
0.0
 40
30.48
  1
150
 41
1.083333333333333
  7
ＭＳ ゴシック
100
AcDbText
  0
LINE
  5
D5
330
1F
100
AcDbEntity
  8
C-4
  6
Continuous
 62
     7
370
    13
100
AcDbLine
 10
-1477.944669940953
 20
1023.708039189992
 30
0.0
 11
-1327.94545821353
 21
1023.708039189992
 31
0.0
  0
LWPOLYLINE
  5
D6
330
1F
100
AcDbEntity
  8
C-4
  6
Continuous
 62
     7
370
    13
100
AcDbPolyline
 90
        4
 70
     1
 43
1.0
 10
-1477.444669940953
 20
1023.708039189992
 42
0.4142135623731
 10
-1477.944669940953
 20
1024.208039189992
 42
0.4142135623731
 10
-1478.444669940953
 20
1023.708039189992
 42
0.4142135623731
 10
-1477.944669940953
 20
1023.208039189992
 42
0.4142135623731
  0
LWPOLYLINE
  5
D7
330
1F
100
AcDbEntity
  8
C-4
  6
Continuous
 62
     7
370
    13
100
AcDbPolyline
 90
        4
 70
     1
 43
1.0
 10
-1327.44545821353
 20
1023.708039189992
 42
0.4142135623731
 10
-1327.94545821353
 20
1024.208039189992
 42
0.4142135623731
 10
-1328.44545821353
 20
1023.708039189992
 42
0.4142135623731
 10
-1327.94545821353
 20
1023.208039189992
 42
0.4142135623731
  0
LINE
  5
D8
330
1F
100
AcDbEntity
  8
C-4
  6
Continuous
 62
     7
370
    13
100
AcDbLine
 10
-1327.94545821353
 20
1026.708039189992
 30
0.0
 11
-1327.94545821353
 21
834.7490994472957
 31
0.0
  0
TEXT
  5
D9
330
1F
100
AcDbEntity
  8
C-4
  6
Continuous
 62
     2
370
   211
100
AcDbText
 10
-1435.445064077242
 20
1039.348039189992
 30
0.0
 40
30.48
  1
150
 41
1.083333333333333
  7
ＭＳ ゴシック
100
AcDbText
  0
TEXT
  5
DA
330
1F
100
AcDbEntity
  8
1-5
  6
Continuous
 62
     2
370
    13
100
AcDbText
 10
594.9158368603895
 20
439.2800403446489
 30
0.0
 40
30.48
  1
連結部詳細　Ｓ＝１：４
 41
1.113636363636364
  7
ＭＳ ゴシック
100
AcDbText
  0
LINE
  5
DB
330
1F
100
AcDbEntity
  8
1-5
  6
Continuous
 62
     7
370
    13
100
AcDbLine
 10
579.9158368603895
 20
418.6400403446489
 30
0.0
 11
1099.915836860389
 21
418.6400403446489
 31
0.0
  0
LINE
  5
DC
330
1F
100
AcDbEntity
  8
1-5
  6
Continuous
 62
     7
370
    13
100
AcDbLine
 10
579.9158368603895
 20
488.6400403446489
 30
0.0
 11
579.9158368603895
 21
418.6400403446489
 31
0.0
  0
LINE
  5
DD
330
1F
100
AcDbEntity
  8
1-5
  6
Continuous
 62
     7
370
    13
100
AcDbLine
 10
1099.915836860389
 20
488.6400403446489
 30
0.0
 11
1099.915836860389
 21
418.6400403446489
 31
0.0
  0
LINE
  5
DE
330
1F
100
AcDbEntity
  8
1-5
  6
Continuous
 62
     7
370
    13
100
AcDbLine
 10
579.9158368603895
 20
488.6400403446489
 30
0.0
 11
1099.915836860389
 21
488.6400403446489
 31
0.0
  0
LINE
  5
DF
330
1F
100
AcDbEntity
  8
C-4
  6
Continuous
 62
     7
370
    13
100
AcDbLine
 10
2.755955296018584
 20
64.74808612230731
 30
0.0
 11
-159.0914393410492
 21
64.74808612230733
 31
0.0
  0
LINE
  5
E0
330
1F
100
AcDbEntity
  8
C-0
  6
Continuous
 62
     3
370
    13
100
AcDbLine
 10
-1327.945253135658
 20
814.7508103169253
 30
0.0
 11
-1477.945455800655
 21
664.7506076519278
 31
0.0
  0
LINE
  5
E1
330
1F
100
AcDbEntity
  8
C-0
  6
Continuous
 62
     3
370
    13
100
AcDbLine
 10
-1454.945299206595
 20
687.7502687771994
 30
0.0
 11
-1454.945299206595
 21
64.74979699193796
 31
0.0
  0
LINE
  5
E2
330
1F
100
AcDbEntity
  8
C-0
  6
Continuous
 62
     3
370
    13
100
AcDbLine
 10
-1447.445388167103
 20
695.2506752854788
 30
0.0
 11
-1447.445388167103
 21
64.74979699193796
 31
0.0
  0
LINE
  5
E3
330
1F
100
AcDbEntity
  8
C-0
  6
Continuous
 62
     3
370
    13
100
AcDbLine
 10
-1425.445087586633
 20
717.2504803971617
 30
0.0
 11
-1425.445087586633
 21
64.74979699193796
 31
0.0
  0
LINE
  5
E4
330
1F
100
AcDbEntity
  8
C-0
  6
Continuous
 62
     3
370
    13
100
AcDbLine
 10
-1417.945176547141
 20
724.749895967866
 30
0.0
 11
-1417.945176547141
 21
64.74979699193796
 31
0.0
  0
LINE
  5
E5
330
1F
100
AcDbEntity
  8
C-0
  6
Continuous
 62
     3
370
    13
100
AcDbLine
 10
-1395.945371435458
 20
746.750692017124
 30
0.0
 11
-1395.945371435458
 21
64.74979699193796
 31
0.0
  0
LINE
  5
E6
330
1F
100
AcDbEntity
  8
C-0
  6
Continuous
 62
     3
370
    13
100
AcDbLine
 10
-1388.444964927178
 20
754.2501075878295
 30
0.0
 11
-1388.444964927178
 21
64.74979699193796
 31
0.0
  0
LINE
  5
E7
330
1F
100
AcDbEntity
  8
C-0
  6
Continuous
 62
     3
370
    13
100
AcDbLine
 10
-1367.445015829085
 20
775.2500566859226
 30
0.0
 11
-1367.445015829085
 21
64.74979699193796
 31
0.0
  0
LINE
  5
E8
330
1F
100
AcDbEntity
  8
C-0
  6
Continuous
 62
     3
370
    13
100
AcDbLine
 10
-1359.945104789593
 20
782.7504631942031
 30
0.0
 11
-1359.945104789593
 21
64.74979699193796
 31
0.0
  0
LINE
  5
E9
330
1F
100
AcDbEntity
  8
C-0
  6
Continuous
 62
     3
370
    13
100
AcDbLine
 10
-1340.945363187464
 20
801.7497093275426
 30
0.0
 11
-1340.945363187464
 21
64.74979699193796
 31
0.0
  0
LINE
  5
EA
330
1F
100
AcDbEntity
  8
C-0
  6
Continuous
 62
     3
370
    13
100
AcDbLine
 10
-1333.444956679185
 20
809.2511067733983
 30
0.0
 11
-1333.444956679185
 21
64.74979699193796
 31
0.0
  0
LINE
  5
EB
330
1F
100
AcDbEntity
  8
C-0
  6
Continuous
 62
     3
370
    13
100
AcDbLine
 10
-1315.445071090644
 20
814.7508103169253
 30
0.0
 11
-1315.445071090644
 21
64.74979699193796
 31
0.0
  0
LINE
  5
EC
330
1F
100
AcDbEntity
  8
C-0
  6
Continuous
 62
     3
370
    13
100
AcDbLine
 10
-1307.945160051152
 20
814.7508103169253
 30
0.0
 11
-1307.945160051152
 21
64.74979699193796
 31
0.0
  0
LINE
  5
ED
330
1F
100
AcDbEntity
  8
C-0
  6
Continuous
 62
     3
370
    13
100
AcDbLine
 10
-1290.945130476203
 20
814.7508103169253
 30
0.0
 11
-1290.945130476203
 21
64.74979699193796
 31
0.0
  0
LINE
  5
EE
330
1F
100
AcDbEntity
  8
C-0
  6
Continuous
 62
     3
370
    13
100
AcDbLine
 10
-1283.44521943671
 20
814.7508103169253
 30
0.0
 11
-1283.44521943671
 21
64.74979699193796
 31
0.0
  0
LINE
  5
EF
330
1F
100
AcDbEntity
  8
C-0
  6
Continuous
 62
     3
370
    13
100
AcDbLine
 10
-1259.945134835857
 20
789.1439924307497
 30
0.0
 11
-1267.445045875349
 21
796.6443989390291
 31
0.0
  0
LINE
  5
F0
330
1F
100
AcDbEntity
  8
C-0
  6
Continuous
 62
     3
370
    13
100
AcDbLine
 10
-1226.838901378977
 20
777.2507596506762
 30
0.0
 11
-1234.338316949681
 21
784.7511661589556
 31
0.0
  0
LINE
  5
F1
330
1F
100
AcDbEntity
  8
C-0
  6
Continuous
 62
     3
370
    13
100
AcDbLine
 10
-1237.444906248591
 20
766.6437638434843
 30
0.0
 11
-1244.945312756872
 21
774.1441703517648
 31
0.0
  0
LINE
  5
F2
330
1F
100
AcDbEntity
  8
C-0
  6
Continuous
 62
     3
370
    13
100
AcDbLine
 10
-1205.338528805301
 20
755.7503870770006
 30
0.0
 11
-1212.83893531358
 21
763.2498026477049
 31
0.0
  0
LINE
  5
F3
330
1F
100
AcDbEntity
  8
C-0
  6
Continuous
 62
     3
370
    13
100
AcDbLine
 10
-1215.945029143704
 20
745.1433912698087
 30
0.0
 11
-1223.444940183196
 21
752.6437977780893
 31
0.0
  0
LINE
  5
F4
330
1F
100
AcDbEntity
  8
C-0
  6
Continuous
 62
     3
370
    13
100
AcDbLine
 10
-1184.839003182788
 20
735.2508614544888
 30
0.0
 11
-1192.33891422228
 21
742.7512679627682
 31
0.0
  0
LINE
  5
F5
330
1F
100
AcDbEntity
  8
C-0
  6
Continuous
 62
     3
370
    13
100
AcDbLine
 10
-1195.445008052405
 20
724.6428747097218
 30
0.0
 11
-1202.944919091897
 21
732.1442721555775
 31
0.0
  0
LINE
  5
F6
330
1F
100
AcDbEntity
  8
C-0
  6
Continuous
 62
     3
370
    13
100
AcDbLine
 10
-1175.945338443482
 20
705.1432051007998
 30
0.0
 11
-1183.444754014186
 21
712.6436116090792
 31
0.0
  0
LINE
  5
F7
330
1F
100
AcDbEntity
  8
C-0
  6
Continuous
 62
     3
370
    13
100
AcDbLine
 10
-1157.44502937936
 20
686.6443824430416
 30
0.0
 11
-1164.944940418853
 21
694.1437980137459
 31
0.0
  0
LINE
  5
F8
330
1F
100
AcDbEntity
  8
C-0
  6
Continuous
 62
     3
370
    13
100
AcDbLine
 10
-1146.838529040956
 20
697.2503873126573
 30
0.0
 11
-1154.338935549237
 21
704.7507938209367
 31
0.0
  0
LINE
  5
F9
330
1F
100
AcDbEntity
  8
C-0
  6
Continuous
 62
     3
370
    13
100
AcDbLine
 10
-1165.338342636291
 20
715.7502009079906
 30
0.0
 11
-1172.838749144571
 21
723.2506074162711
 31
0.0
  0
LINE
  5
FA
330
1F
100
AcDbEntity
  8
C-0
  6
Continuous
 62
     3
370
    13
100
AcDbLine
 10
-1129.338571459212
 20
679.7504297309126
 30
0.0
 11
-1136.838977967493
 21
687.250836239192
 31
0.0
  0
LINE
  5
FB
330
1F
100
AcDbEntity
  8
C-0
  6
Continuous
 62
     3
370
    13
100
AcDbLine
 10
-1139.944576328829
 20
669.1434339237219
 30
0.0
 11
-1147.444982837108
 21
676.6438404320013
 31
0.0
  0
LINE
  5
FC
330
1F
100
AcDbEntity
  8
C-0
  6
Continuous
 62
     3
370
    13
100
AcDbLine
 10
-1139.945071797616
 20
654.7500656408874
 30
0.0
 11
-1147.444982837108
 21
654.7500656408874
 31
0.0
  0
LINE
  5
FD
330
1F
100
AcDbEntity
  8
C-0
  6
Continuous
 62
     3
370
    13
100
AcDbLine
 10
-1139.945071797616
 20
639.7502435619027
 30
0.0
 11
-1147.444982837108
 21
639.7502435619027
 31
0.0
  0
LINE
  5
FE
330
1F
100
AcDbEntity
  8
C-0
  6
Continuous
 62
     3
370
    13
100
AcDbLine
 10
-1157.44502937936
 20
654.7500656408874
 30
0.0
 11
-1164.944940418853
 21
654.7500656408874
 31
0.0
  0
LINE
  5
FF
330
1F
100
AcDbEntity
  8
C-0
  6
Continuous
 62
     3
370
    13
100
AcDbLine
 10
-1157.44502937936
 20
639.7502435619027
 30
0.0
 11
-1164.944940418853
 21
639.7502435619027
 31
0.0
  0
LINE
  5
100
330
1F
100
AcDbEntity
  8
C-0
  6
Continuous
 62
     3
370
    13
100
AcDbLine
 10
-1175.945338443482
 20
654.7500656408874
 30
0.0
 11
-1183.444754014186
 21
654.7500656408874
 31
0.0
  0
LINE
  5
101
330
1F
100
AcDbEntity
  8
C-0
  6
Continuous
 62
     3
370
    13
100
AcDbLine
 10
-1175.945338443482
 20
639.7502435619027
 30
0.0
 11
-1183.444754014186
 21
639.7502435619027
 31
0.0
  0
LINE
  5
102
330
1F
100
AcDbEntity
  8
C-0
  6
Continuous
 62
     3
370
    13
100
AcDbLine
 10
-1195.445008052405
 20
654.7500656408874
 30
0.0
 11
-1202.944919091897
 21
654.7500656408874
 31
0.0
  0
LINE
  5
103
330
1F
100
AcDbEntity
  8
C-0
  6
Continuous
 62
     3
370
    13
100
AcDbLine
 10
-1195.445008052405
 20
639.7502435619027
 30
0.0
 11
-1202.944919091897
 21
639.7502435619027
 31
0.0
  0
LINE
  5
104
330
1F
100
AcDbEntity
  8
C-0
  6
Continuous
 62
     3
370
    13
100
AcDbLine
 10
-1215.945029143704
 20
654.7500656408874
 30
0.0
 11
-1223.444940183196
 21
654.7500656408874
 31
0.0
  0
LINE
  5
105
330
1F
100
AcDbEntity
  8
C-0
  6
Continuous
 62
     3
370
    13
100
AcDbLine
 10
-1215.945029143704
 20
639.7502435619027
 30
0.0
 11
-1223.444940183196
 21
639.7502435619027
 31
0.0
  0
LINE
  5
106
330
1F
100
AcDbEntity
  8
C-0
  6
Continuous
 62
     3
370
    13
100
AcDbLine
 10
-1237.444906248591
 20
654.7500656408874
 30
0.0
 11
-1244.945312756872
 21
654.7500656408874
 31
0.0
  0
LINE
  5
107
330
1F
100
AcDbEntity
  8
C-0
  6
Continuous
 62
     3
370
    13
100
AcDbLine
 10
-1237.444906248591
 20
639.7502435619027
 30
0.0
 11
-1244.945312756872
 21
639.7502435619027
 31
0.0
  0
LINE
  5
108
330
1F
100
AcDbEntity
  8
C-0
  6
Continuous
 62
     3
370
    13
100
AcDbLine
 10
-1259.945134835857
 20
654.7500656408874
 30
0.0
 11
-1267.445045875349
 21
654.7500656408874
 31
0.0
  0
LINE
  5
109
330
1F
100
AcDbEntity
  8
C-0
  6
Continuous
 62
     3
370
    13
100
AcDbLine
 10
-1259.945134835857
 20
639.7502435619027
 30
0.0
 11
-1267.445045875349
 21
639.7502435619027
 31
0.0
  0
LINE
  5
10A
330
1F
100
AcDbEntity
  8
C-0
  6
Continuous
 62
     3
370
    13
100
AcDbLine
 10
-1283.44521943671
 20
654.7500656408874
 30
0.0
 11
-1290.945130476203
 21
654.7500656408874
 31
0.0
  0
LINE
  5
10B
330
1F
100
AcDbEntity
  8
C-0
  6
Continuous
 62
     3
370
    13
100
AcDbLine
 10
-1283.44521943671
 20
639.7502435619027
 30
0.0
 11
-1290.945130476203
 21
639.7502435619027
 31
0.0
  0
LINE
  5
10C
330
1F
100
AcDbEntity
  8
C-0
  6
Continuous
 62
     3
370
    13
100
AcDbLine
 10
-1307.945160051152
 20
654.7500656408874
 30
0.0
 11
-1315.445071090644
 21
654.7500656408874
 31
0.0
  0
LINE
  5
10D
330
1F
100
AcDbEntity
  8
C-0
  6
Continuous
 62
     3
370
    13
100
AcDbLine
 10
-1307.945160051152
 20
639.7502435619027
 30
0.0
 11
-1315.445071090644
 21
639.7502435619027
 31
0.0
  0
LINE
  5
10E
330
1F
100
AcDbEntity
  8
C-0
  6
Continuous
 62
     3
370
    13
100
AcDbLine
 10
-1333.444956679185
 20
654.7500656408874
 30
0.0
 11
-1340.945363187464
 21
654.7500656408874
 31
0.0
  0
LINE
  5
10F
330
1F
100
AcDbEntity
  8
C-0
  6
Continuous
 62
     3
370
    13
100
AcDbLine
 10
-1333.444956679185
 20
639.7502435619027
 30
0.0
 11
-1340.945363187464
 21
639.7502435619027
 31
0.0
  0
LINE
  5
110
330
1F
100
AcDbEntity
  8
C-0
  6
Continuous
 62
     3
370
    13
100
AcDbLine
 10
-1359.945104789593
 20
654.7500656408874
 30
0.0
 11
-1367.445015829085
 21
654.7500656408874
 31
0.0
  0
LINE
  5
111
330
1F
100
AcDbEntity
  8
C-0
  6
Continuous
 62
     3
370
    13
100
AcDbLine
 10
-1359.945104789593
 20
639.7502435619027
 30
0.0
 11
-1367.445015829085
 21
639.7502435619027
 31
0.0
  0
LINE
  5
112
330
1F
100
AcDbEntity
  8
C-0
  6
Continuous
 62
     3
370
    13
100
AcDbLine
 10
-1388.444964927178
 20
654.7500656408874
 30
0.0
 11
-1395.945371435458
 21
654.7500656408874
 31
0.0
  0
LINE
  5
113
330
1F
100
AcDbEntity
  8
C-0
  6
Continuous
 62
     3
370
    13
100
AcDbLine
 10
-1417.945176547141
 20
654.7500656408874
 30
0.0
 11
-1425.445087586633
 21
654.7500656408874
 31
0.0
  0
LINE
  5
114
330
1F
100
AcDbEntity
  8
C-0
  6
Continuous
 62
     3
370
    13
100
AcDbLine
 10
-1447.445388167103
 20
654.7500656408874
 30
0.0
 11
-1454.945299206595
 21
654.7500656408874
 31
0.0
  0
LINE
  5
115
330
1F
100
AcDbEntity
  8
C-0
  6
Continuous
 62
     3
370
    13
100
AcDbLine
 10
-1447.445388167103
 20
639.7502435619027
 30
0.0
 11
-1454.945299206595
 21
639.7502435619027
 31
0.0
  0
LINE
  5
116
330
1F
100
AcDbEntity
  8
C-0
  6
Continuous
 62
     3
370
    13
100
AcDbLine
 10
-1388.444964927178
 20
639.7502435619027
 30
0.0
 11
-1395.945371435458
 21
639.7502435619027
 31
0.0
  0
LINE
  5
117
330
1F
100
AcDbEntity
  8
C-0
  6
Continuous
 62
     3
370
    13
100
AcDbLine
 10
-1417.945176547141
 20
639.7502435619027
 30
0.0
 11
-1425.445087586633
 21
639.7502435619027
 31
0.0
  0
LINE
  5
118
330
1F
100
AcDbEntity
  8
C-0
  6
Continuous
 62
     3
370
    13
100
AcDbLine
 10
-1139.945071797616
 20
210.3571733851413
 30
0.0
 11
-1147.444982837108
 21
202.8567668768619
 31
0.0
  0
LINE
  5
119
330
1F
100
AcDbEntity
  8
C-0
  6
Continuous
 62
     3
370
    13
100
AcDbLine
 10
-1129.338571459212
 20
199.7501775779506
 30
0.0
 11
-1136.838977967493
 21
192.24977106967
 31
0.0
  0
LINE
  5
11A
330
1F
100
AcDbEntity
  8
C-0
  6
Continuous
 62
     3
370
    13
100
AcDbLine
 10
-1157.44502937936
 20
192.8572158033967
 30
0.0
 11
-1164.944940418853
 21
185.3568092951173
 31
0.0
  0
LINE
  5
11B
330
1F
100
AcDbEntity
  8
C-0
  6
Continuous
 62
     3
370
    13
100
AcDbLine
 10
-1146.838529040956
 20
182.2502199962059
 30
0.0
 11
-1154.338935549237
 21
174.7498134879254
 31
0.0
  0
LINE
  5
11C
330
1F
100
AcDbEntity
  8
C-0
  6
Continuous
 62
     3
370
    13
100
AcDbLine
 10
-1165.338342636291
 20
163.7504064008715
 30
0.0
 11
-1172.838749144571
 21
156.2499998925921
 31
0.0
  0
LINE
  5
11D
330
1F
100
AcDbEntity
  8
C-0
  6
Continuous
 62
     3
370
    13
100
AcDbLine
 10
-1175.945338443482
 20
174.3574022080634
 30
0.0
 11
-1183.444754014186
 21
166.8569956997828
 31
0.0
  0
LINE
  5
11E
330
1F
100
AcDbEntity
  8
C-0
  6
Continuous
 62
     3
370
    13
100
AcDbLine
 10
-1184.839003182788
 20
144.2507367919495
 30
0.0
 11
-1192.33891422228
 21
136.7493393460938
 31
0.0
  0
LINE
  5
11F
330
1F
100
AcDbEntity
  8
C-0
  6
Continuous
 62
     3
370
    13
100
AcDbLine
 10
-1195.445008052405
 20
154.8577325991403
 30
0.0
 11
-1202.944919091897
 21
147.3563351532857
 31
0.0
  0
LINE
  5
120
330
1F
100
AcDbEntity
  8
C-0
  6
Continuous
 62
     3
370
    13
100
AcDbLine
 10
-1215.945029143704
 20
134.3572160390534
 30
0.0
 11
-1223.444940183196
 21
126.8568095307739
 31
0.0
  0
LINE
  5
121
330
1F
100
AcDbEntity
  8
C-0
  6
Continuous
 62
     3
370
    13
100
AcDbLine
 10
-1205.338528805301
 20
123.7502202318626
 30
0.0
 11
-1212.83893531358
 21
116.2508046611583
 31
0.0
  0
LINE
  5
122
330
1F
100
AcDbEntity
  8
C-0
  6
Continuous
 62
     3
370
    13
100
AcDbLine
 10
-1226.838901378977
 20
102.2508385957622
 30
0.0
 11
-1234.338812418469
 21
94.75043208748275
 31
0.0
  0
LINE
  5
123
330
1F
100
AcDbEntity
  8
C-0
  6
Continuous
 62
     3
370
    13
100
AcDbLine
 10
-1237.444906248591
 20
112.8568434653778
 30
0.0
 11
-1244.945312756872
 21
105.3564369570984
 31
0.0
  0
LINE
  5
124
330
1F
100
AcDbEntity
  8
C-0
  6
Continuous
 62
     3
370
    13
100
AcDbLine
 10
-1259.945134835857
 20
90.35760581568866
 30
0.0
 11
-1267.445045875349
 21
82.85620836983298
 31
0.0
  0
LINE
  5
125
330
1F
100
AcDbEntity
  8
C-0
  6
Continuous
 62
     3
370
    13
100
AcDbLine
 10
-1139.945071797616
 20
447.2497192251365
 30
0.0
 11
-1147.444982837108
 21
447.2497192251365
 31
0.0
  0
LINE
  5
126
330
1F
100
AcDbEntity
  8
C-0
  6
Continuous
 62
     3
370
    13
100
AcDbLine
 10
-1139.945071797616
 20
432.2508880837267
 30
0.0
 11
-1147.444982837108
 21
432.2508880837267
 31
0.0
  0
LINE
  5
127
330
1F
100
AcDbEntity
  8
C-0
  6
Continuous
 62
     3
370
    13
100
AcDbLine
 10
-1157.44502937936
 20
447.2497192251365
 30
0.0
 11
-1164.944940418853
 21
447.2497192251365
 31
0.0
  0
LINE
  5
128
330
1F
100
AcDbEntity
  8
C-0
  6
Continuous
 62
     3
370
    13
100
AcDbLine
 10
-1157.44502937936
 20
432.2508880837267
 30
0.0
 11
-1164.944940418853
 21
432.2508880837267
 31
0.0
  0
LINE
  5
129
330
1F
100
AcDbEntity
  8
C-0
  6
Continuous
 62
     3
370
    13
100
AcDbLine
 10
-1175.945338443482
 20
447.2497192251365
 30
0.0
 11
-1183.444754014186
 21
447.2497192251365
 31
0.0
  0
LINE
  5
12A
330
1F
100
AcDbEntity
  8
C-0
  6
Continuous
 62
     3
370
    13
100
AcDbLine
 10
-1175.945338443482
 20
432.2508880837267
 30
0.0
 11
-1183.444754014186
 21
432.2508880837267
 31
0.0
  0
LINE
  5
12B
330
1F
100
AcDbEntity
  8
C-0
  6
Continuous
 62
     3
370
    13
100
AcDbLine
 10
-1195.445008052405
 20
447.2497192251365
 30
0.0
 11
-1202.944919091897
 21
447.2497192251365
 31
0.0
  0
LINE
  5
12C
330
1F
100
AcDbEntity
  8
C-0
  6
Continuous
 62
     3
370
    13
100
AcDbLine
 10
-1195.445008052405
 20
432.2508880837267
 30
0.0
 11
-1202.944919091897
 21
432.2508880837267
 31
0.0
  0
LINE
  5
12D
330
1F
100
AcDbEntity
  8
C-0
  6
Continuous
 62
     3
370
    13
100
AcDbLine
 10
-1215.945029143704
 20
447.2497192251365
 30
0.0
 11
-1223.444940183196
 21
447.2497192251365
 31
0.0
  0
LINE
  5
12E
330
1F
100
AcDbEntity
  8
C-0
  6
Continuous
 62
     3
370
    13
100
AcDbLine
 10
-1215.945029143704
 20
432.2508880837267
 30
0.0
 11
-1223.444940183196
 21
432.2508880837267
 31
0.0
  0
LINE
  5
12F
330
1F
100
AcDbEntity
  8
C-0
  6
Continuous
 62
     3
370
    13
100
AcDbLine
 10
-1237.444906248591
 20
447.2497192251365
 30
0.0
 11
-1244.945312756872
 21
447.2497192251365
 31
0.0
  0
LINE
  5
130
330
1F
100
AcDbEntity
  8
C-0
  6
Continuous
 62
     3
370
    13
100
AcDbLine
 10
-1237.444906248591
 20
432.2508880837267
 30
0.0
 11
-1244.945312756872
 21
432.2508880837267
 31
0.0
  0
LINE
  5
131
330
1F
100
AcDbEntity
  8
C-0
  6
Continuous
 62
     3
370
    13
100
AcDbLine
 10
-1259.945134835857
 20
447.2497192251365
 30
0.0
 11
-1267.445045875349
 21
447.2497192251365
 31
0.0
  0
LINE
  5
132
330
1F
100
AcDbEntity
  8
C-0
  6
Continuous
 62
     3
370
    13
100
AcDbLine
 10
-1259.945134835857
 20
432.2508880837267
 30
0.0
 11
-1267.445045875349
 21
432.2508880837267
 31
0.0
  0
LINE
  5
133
330
1F
100
AcDbEntity
  8
C-0
  6
Continuous
 62
     3
370
    13
100
AcDbLine
 10
-1283.44521943671
 20
447.2497192251365
 30
0.0
 11
-1290.945130476203
 21
447.2497192251365
 31
0.0
  0
LINE
  5
134
330
1F
100
AcDbEntity
  8
C-0
  6
Continuous
 62
     3
370
    13
100
AcDbLine
 10
-1283.44521943671
 20
432.2508880837267
 30
0.0
 11
-1290.945130476203
 21
432.2508880837267
 31
0.0
  0
LINE
  5
135
330
1F
100
AcDbEntity
  8
C-0
  6
Continuous
 62
     3
370
    13
100
AcDbLine
 10
-1307.945160051152
 20
447.2497192251365
 30
0.0
 11
-1315.445071090644
 21
447.2497192251365
 31
0.0
  0
LINE
  5
136
330
1F
100
AcDbEntity
  8
C-0
  6
Continuous
 62
     3
370
    13
100
AcDbLine
 10
-1307.945160051152
 20
432.2508880837267
 30
0.0
 11
-1315.445071090644
 21
432.2508880837267
 31
0.0
  0
LINE
  5
137
330
1F
100
AcDbEntity
  8
C-0
  6
Continuous
 62
     3
370
    13
100
AcDbLine
 10
-1333.444956679185
 20
447.2497192251365
 30
0.0
 11
-1340.945363187464
 21
447.2497192251365
 31
0.0
  0
LINE
  5
138
330
1F
100
AcDbEntity
  8
C-0
  6
Continuous
 62
     3
370
    13
100
AcDbLine
 10
-1333.444956679185
 20
432.2508880837267
 30
0.0
 11
-1340.945363187464
 21
432.2508880837267
 31
0.0
  0
LINE
  5
139
330
1F
100
AcDbEntity
  8
C-0
  6
Continuous
 62
     3
370
    13
100
AcDbLine
 10
-1359.945104789593
 20
447.2497192251365
 30
0.0
 11
-1367.445015829085
 21
447.2497192251365
 31
0.0
  0
LINE
  5
13A
330
1F
100
AcDbEntity
  8
C-0
  6
Continuous
 62
     3
370
    13
100
AcDbLine
 10
-1359.945104789593
 20
432.2508880837267
 30
0.0
 11
-1367.445015829085
 21
432.2508880837267
 31
0.0
  0
LINE
  5
13B
330
1F
100
AcDbEntity
  8
C-0
  6
Continuous
 62
     3
370
    13
100
AcDbLine
 10
-1388.444964927178
 20
447.2497192251365
 30
0.0
 11
-1395.945371435458
 21
447.2497192251365
 31
0.0
  0
LINE
  5
13C
330
1F
100
AcDbEntity
  8
C-0
  6
Continuous
 62
     3
370
    13
100
AcDbLine
 10
-1417.945176547141
 20
447.2497192251365
 30
0.0
 11
-1425.445087586633
 21
447.2497192251365
 31
0.0
  0
LINE
  5
13D
330
1F
100
AcDbEntity
  8
C-0
  6
Continuous
 62
     3
370
    13
100
AcDbLine
 10
-1447.445388167103
 20
447.2497192251365
 30
0.0
 11
-1454.945299206595
 21
447.2497192251365
 31
0.0
  0
LINE
  5
13E
330
1F
100
AcDbEntity
  8
C-0
  6
Continuous
 62
     3
370
    13
100
AcDbLine
 10
-1447.445388167103
 20
432.2508880837267
 30
0.0
 11
-1454.945299206595
 21
432.2508880837267
 31
0.0
  0
LINE
  5
13F
330
1F
100
AcDbEntity
  8
C-0
  6
Continuous
 62
     3
370
    13
100
AcDbLine
 10
-1388.444964927178
 20
432.2508880837267
 30
0.0
 11
-1395.945371435458
 21
432.2508880837267
 31
0.0
  0
LINE
  5
140
330
1F
100
AcDbEntity
  8
C-0
  6
Continuous
 62
     3
370
    13
100
AcDbLine
 10
-1417.945176547141
 20
432.2508880837267
 30
0.0
 11
-1425.445087586633
 21
432.2508880837267
 31
0.0
  0
LINE
  5
141
330
1F
100
AcDbEntity
  8
C-0
  6
Continuous
 62
     3
370
    13
100
AcDbLine
 10
-1139.945071797616
 20
224.7505416679746
 30
0.0
 11
-1147.444982837108
 21
224.7505416679746
 31
0.0
  0
LINE
  5
142
330
1F
100
AcDbEntity
  8
C-0
  6
Continuous
 62
     3
370
    13
100
AcDbLine
 10
-1139.945071797616
 20
239.7503637469595
 30
0.0
 11
-1147.444982837108
 21
239.7503637469595
 31
0.0
  0
LINE
  5
143
330
1F
100
AcDbEntity
  8
C-0
  6
Continuous
 62
     3
370
    13
100
AcDbLine
 10
-1157.44502937936
 20
224.7505416679746
 30
0.0
 11
-1164.944940418853
 21
224.7505416679746
 31
0.0
  0
LINE
  5
144
330
1F
100
AcDbEntity
  8
C-0
  6
Continuous
 62
     3
370
    13
100
AcDbLine
 10
-1157.44502937936
 20
239.7503637469595
 30
0.0
 11
-1164.944940418853
 21
239.7503637469595
 31
0.0
  0
LINE
  5
145
330
1F
100
AcDbEntity
  8
C-0
  6
Continuous
 62
     3
370
    13
100
AcDbLine
 10
-1175.945338443482
 20
224.7505416679746
 30
0.0
 11
-1183.444754014186
 21
224.7505416679746
 31
0.0
  0
LINE
  5
146
330
1F
100
AcDbEntity
  8
C-0
  6
Continuous
 62
     3
370
    13
100
AcDbLine
 10
-1175.945338443482
 20
239.7503637469595
 30
0.0
 11
-1183.444754014186
 21
239.7503637469595
 31
0.0
  0
LINE
  5
147
330
1F
100
AcDbEntity
  8
C-0
  6
Continuous
 62
     3
370
    13
100
AcDbLine
 10
-1195.445008052405
 20
224.7505416679746
 30
0.0
 11
-1202.944919091897
 21
224.7505416679746
 31
0.0
  0
LINE
  5
148
330
1F
100
AcDbEntity
  8
C-0
  6
Continuous
 62
     3
370
    13
100
AcDbLine
 10
-1195.445008052405
 20
239.7503637469595
 30
0.0
 11
-1202.944919091897
 21
239.7503637469595
 31
0.0
  0
LINE
  5
149
330
1F
100
AcDbEntity
  8
C-0
  6
Continuous
 62
     3
370
    13
100
AcDbLine
 10
-1215.945029143704
 20
224.7505416679746
 30
0.0
 11
-1223.444940183196
 21
224.7505416679746
 31
0.0
  0
LINE
  5
14A
330
1F
100
AcDbEntity
  8
C-0
  6
Continuous
 62
     3
370
    13
100
AcDbLine
 10
-1215.945029143704
 20
239.7503637469595
 30
0.0
 11
-1223.444940183196
 21
239.7503637469595
 31
0.0
  0
LINE
  5
14B
330
1F
100
AcDbEntity
  8
C-0
  6
Continuous
 62
     3
370
    13
100
AcDbLine
 10
-1237.444906248591
 20
224.7505416679746
 30
0.0
 11
-1244.945312756872
 21
224.7505416679746
 31
0.0
  0
LINE
  5
14C
330
1F
100
AcDbEntity
  8
C-0
  6
Continuous
 62
     3
370
    13
100
AcDbLine
 10
-1237.444906248591
 20
239.7503637469595
 30
0.0
 11
-1244.945312756872
 21
239.7503637469595
 31
0.0
  0
LINE
  5
14D
330
1F
100
AcDbEntity
  8
C-0
  6
Continuous
 62
     3
370
    13
100
AcDbLine
 10
-1259.945134835857
 20
224.7505416679746
 30
0.0
 11
-1267.445045875349
 21
224.7505416679746
 31
0.0
  0
LINE
  5
14E
330
1F
100
AcDbEntity
  8
C-0
  6
Continuous
 62
     3
370
    13
100
AcDbLine
 10
-1259.945134835857
 20
239.7503637469595
 30
0.0
 11
-1267.445045875349
 21
239.7503637469595
 31
0.0
  0
LINE
  5
14F
330
1F
100
AcDbEntity
  8
C-0
  6
Continuous
 62
     3
370
    13
100
AcDbLine
 10
-1283.44521943671
 20
224.7505416679746
 30
0.0
 11
-1290.945130476203
 21
224.7505416679746
 31
0.0
  0
LINE
  5
150
330
1F
100
AcDbEntity
  8
C-0
  6
Continuous
 62
     3
370
    13
100
AcDbLine
 10
-1283.44521943671
 20
239.7503637469595
 30
0.0
 11
-1290.945130476203
 21
239.7503637469595
 31
0.0
  0
LINE
  5
151
330
1F
100
AcDbEntity
  8
C-0
  6
Continuous
 62
     3
370
    13
100
AcDbLine
 10
-1307.945160051152
 20
224.7505416679746
 30
0.0
 11
-1315.445071090644
 21
224.7505416679746
 31
0.0
  0
LINE
  5
152
330
1F
100
AcDbEntity
  8
C-0
  6
Continuous
 62
     3
370
    13
100
AcDbLine
 10
-1307.945160051152
 20
239.7503637469595
 30
0.0
 11
-1315.445071090644
 21
239.7503637469595
 31
0.0
  0
LINE
  5
153
330
1F
100
AcDbEntity
  8
C-0
  6
Continuous
 62
     3
370
    13
100
AcDbLine
 10
-1333.444956679185
 20
224.7505416679746
 30
0.0
 11
-1340.945363187464
 21
224.7505416679746
 31
0.0
  0
LINE
  5
154
330
1F
100
AcDbEntity
  8
C-0
  6
Continuous
 62
     3
370
    13
100
AcDbLine
 10
-1333.444956679185
 20
239.7503637469595
 30
0.0
 11
-1340.945363187464
 21
239.7503637469595
 31
0.0
  0
LINE
  5
155
330
1F
100
AcDbEntity
  8
C-0
  6
Continuous
 62
     3
370
    13
100
AcDbLine
 10
-1359.945104789593
 20
224.7505416679746
 30
0.0
 11
-1367.445015829085
 21
224.7505416679746
 31
0.0
  0
LINE
  5
156
330
1F
100
AcDbEntity
  8
C-0
  6
Continuous
 62
     3
370
    13
100
AcDbLine
 10
-1359.945104789593
 20
239.7503637469595
 30
0.0
 11
-1367.445015829085
 21
239.7503637469595
 31
0.0
  0
LINE
  5
157
330
1F
100
AcDbEntity
  8
C-0
  6
Continuous
 62
     3
370
    13
100
AcDbLine
 10
-1388.444964927178
 20
224.7505416679746
 30
0.0
 11
-1395.945371435458
 21
224.7505416679746
 31
0.0
  0
LINE
  5
158
330
1F
100
AcDbEntity
  8
C-0
  6
Continuous
 62
     3
370
    13
100
AcDbLine
 10
-1417.945176547141
 20
224.7505416679746
 30
0.0
 11
-1425.445087586633
 21
224.7505416679746
 31
0.0
  0
LINE
  5
159
330
1F
100
AcDbEntity
  8
C-0
  6
Continuous
 62
     3
370
    13
100
AcDbLine
 10
-1447.445388167103
 20
224.7505416679746
 30
0.0
 11
-1454.945299206595
 21
224.7505416679746
 31
0.0
  0
LINE
  5
15A
330
1F
100
AcDbEntity
  8
C-0
  6
Continuous
 62
     3
370
    13
100
AcDbLine
 10
-1447.445388167103
 20
239.7503637469595
 30
0.0
 11
-1454.945299206595
 21
239.7503637469595
 31
0.0
  0
LINE
  5
15B
330
1F
100
AcDbEntity
  8
C-0
  6
Continuous
 62
     3
370
    13
100
AcDbLine
 10
-1388.444964927178
 20
239.7503637469595
 30
0.0
 11
-1395.945371435458
 21
239.7503637469595
 31
0.0
  0
LINE
  5
15C
330
1F
100
AcDbEntity
  8
C-0
  6
Continuous
 62
     3
370
    13
100
AcDbLine
 10
-1417.945176547141
 20
239.7503637469595
 30
0.0
 11
-1425.445087586633
 21
239.7503637469595
 31
0.0
  0
LINE
  5
15D
330
1F
100
AcDbEntity
  8
C-0
  6
Continuous
 62
     3
370
    13
100
AcDbLine
 10
-1037.444966341121
 20
679.7504297309126
 30
0.0
 11
-1037.444966341121
 21
687.250836239192
 31
0.0
  0
LINE
  5
15E
330
1F
100
AcDbEntity
  8
C-0
  6
Continuous
 62
     3
370
    13
100
AcDbLine
 10
-1022.445144262136
 20
679.7504297309126
 30
0.0
 11
-1022.445144262136
 21
687.250836239192
 31
0.0
  0
LINE
  5
15F
330
1F
100
AcDbEntity
  8
C-0
  6
Continuous
 62
     3
370
    13
100
AcDbLine
 10
-1022.445144262136
 20
697.2503873126573
 30
0.0
 11
-1022.445144262136
 21
704.7507938209367
 31
0.0
  0
LINE
  5
160
330
1F
100
AcDbEntity
  8
C-0
  6
Continuous
 62
     3
370
    13
100
AcDbLine
 10
-1037.444966341121
 20
697.2503873126573
 30
0.0
 11
-1037.444966341121
 21
704.7507938209367
 31
0.0
  0
LINE
  5
161
330
1F
100
AcDbEntity
  8
C-0
  6
Continuous
 62
     3
370
    13
100
AcDbLine
 10
-1037.444966341121
 20
715.7502009079906
 30
0.0
 11
-1037.444966341121
 21
723.2506074162711
 31
0.0
  0
LINE
  5
162
330
1F
100
AcDbEntity
  8
C-0
  6
Continuous
 62
     3
370
    13
100
AcDbLine
 10
-1022.445144262136
 20
715.7502009079906
 30
0.0
 11
-1022.445144262136
 21
723.2506074162711
 31
0.0
  0
LINE
  5
163
330
1F
100
AcDbEntity
  8
C-0
  6
Continuous
 62
     3
370
    13
100
AcDbLine
 10
-1022.445144262136
 20
735.2508614544888
 30
0.0
 11
-1022.445144262136
 21
742.7512679627682
 31
0.0
  0
LINE
  5
164
330
1F
100
AcDbEntity
  8
C-0
  6
Continuous
 62
     3
370
    13
100
AcDbLine
 10
-1037.444966341121
 20
735.2508614544888
 30
0.0
 11
-1037.444966341121
 21
742.7512679627682
 31
0.0
  0
LINE
  5
165
330
1F
100
AcDbEntity
  8
C-0
  6
Continuous
 62
     3
370
    13
100
AcDbLine
 10
-1037.444966341121
 20
755.7503870770006
 30
0.0
 11
-1037.444966341121
 21
763.2498026477049
 31
0.0
  0
LINE
  5
166
330
1F
100
AcDbEntity
  8
C-0
  6
Continuous
 62
     3
370
    13
100
AcDbLine
 10
-1022.445144262136
 20
755.7503870770006
 30
0.0
 11
-1022.445144262136
 21
763.2498026477049
 31
0.0
  0
LINE
  5
167
330
1F
100
AcDbEntity
  8
C-0
  6
Continuous
 62
     3
370
    13
100
AcDbLine
 10
-1022.445144262136
 20
777.2507596506762
 30
0.0
 11
-1022.445144262136
 21
784.7511661589556
 31
0.0
  0
LINE
  5
168
330
1F
100
AcDbEntity
  8
C-0
  6
Continuous
 62
     3
370
    13
100
AcDbLine
 10
-1037.444966341121
 20
777.2507596506762
 30
0.0
 11
-1037.444966341121
 21
784.7511661589556
 31
0.0
  0
LINE
  5
169
330
1F
100
AcDbEntity
  8
C-0
  6
Continuous
 62
     3
370
    13
100
AcDbLine
 10
-1037.444966341121
 20
199.7501775779506
 30
0.0
 11
-1037.444966341121
 21
192.24977106967
 31
0.0
  0
LINE
  5
16A
330
1F
100
AcDbEntity
  8
C-0
  6
Continuous
 62
     3
370
    13
100
AcDbLine
 10
-1022.445144262136
 20
199.7501775779506
 30
0.0
 11
-1022.445144262136
 21
192.24977106967
 31
0.0
  0
LINE
  5
16B
330
1F
100
AcDbEntity
  8
C-0
  6
Continuous
 62
     3
370
    13
100
AcDbLine
 10
-1022.445144262136
 20
182.2502199962059
 30
0.0
 11
-1022.445144262136
 21
174.7498134879254
 31
0.0
  0
LINE
  5
16C
330
1F
100
AcDbEntity
  8
C-0
  6
Continuous
 62
     3
370
    13
100
AcDbLine
 10
-1037.444966341121
 20
182.2502199962059
 30
0.0
 11
-1037.444966341121
 21
174.7498134879254
 31
0.0
  0
LINE
  5
16D
330
1F
100
AcDbEntity
  8
C-0
  6
Continuous
 62
     3
370
    13
100
AcDbLine
 10
-1037.444966341121
 20
163.7504064008715
 30
0.0
 11
-1037.444966341121
 21
156.2499998925921
 31
0.0
  0
LINE
  5
16E
330
1F
100
AcDbEntity
  8
C-0
  6
Continuous
 62
     3
370
    13
100
AcDbLine
 10
-1022.445144262136
 20
144.2507367919495
 30
0.0
 11
-1022.445144262136
 21
136.7493393460938
 31
0.0
  0
LINE
  5
16F
330
1F
100
AcDbEntity
  8
C-0
  6
Continuous
 62
     3
370
    13
100
AcDbLine
 10
-1037.444966341121
 20
144.2507367919495
 30
0.0
 11
-1037.444966341121
 21
136.7493393460938
 31
0.0
  0
LINE
  5
170
330
1F
100
AcDbEntity
  8
C-0
  6
Continuous
 62
     3
370
    13
100
AcDbLine
 10
-1037.444966341121
 20
123.7502202318626
 30
0.0
 11
-1037.444966341121
 21
116.2508046611583
 31
0.0
  0
LINE
  5
171
330
1F
100
AcDbEntity
  8
C-0
  6
Continuous
 62
     3
370
    13
100
AcDbLine
 10
-1022.445144262136
 20
123.7502202318626
 30
0.0
 11
-1022.445144262136
 21
116.2508046611583
 31
0.0
  0
LINE
  5
172
330
1F
100
AcDbEntity
  8
C-0
  6
Continuous
 62
     3
370
    13
100
AcDbLine
 10
-1022.445144262136
 20
102.2508385957622
 30
0.0
 11
-1022.445144262136
 21
94.75043208748275
 31
0.0
  0
LINE
  5
173
330
1F
100
AcDbEntity
  8
C-0
  6
Continuous
 62
     3
370
    13
100
AcDbLine
 10
-1037.444966341121
 20
102.2508385957622
 30
0.0
 11
-1037.444966341121
 21
94.75043208748275
 31
0.0
  0
LINE
  5
174
330
1F
100
AcDbEntity
  8
C-0
  6
Continuous
 62
     3
370
    13
100
AcDbLine
 10
-935.9452123670013
 20
663.2503281627567
 30
0.0
 11
-935.9452123670013
 21
670.749743733461
 31
0.0
  0
LINE
  5
175
330
1F
100
AcDbEntity
  8
C-0
  6
Continuous
 62
     3
370
    13
100
AcDbLine
 10
-935.9452123670013
 20
647.7500826081894
 30
0.0
 11
-935.9452123670013
 21
655.2504891164699
 31
0.0
  0
LINE
  5
176
330
1F
100
AcDbEntity
  8
C-0
  6
Continuous
 62
     3
370
    13
100
AcDbLine
 10
-935.9452123670013
 20
231.7505247006727
 30
0.0
 11
-935.9452123670013
 21
224.2501181923933
 31
0.0
  0
LINE
  5
177
330
1F
100
AcDbEntity
  8
C-0
  6
Continuous
 62
     3
370
    13
100
AcDbLine
 10
-935.9452123670013
 20
216.2502791461065
 30
0.0
 11
-935.9452123670013
 21
208.7508635754011
 31
0.0
  0
LINE
  5
178
330
1F
100
AcDbEntity
  8
C-0
  6
Continuous
 62
     3
370
    13
100
AcDbLine
 10
-1104.944661165339
 20
647.7500826081894
 30
0.0
 11
-935.9452123670013
 21
647.7500826081894
 31
0.0
  0
LINE
  5
179
330
1F
100
AcDbEntity
  8
C-0
  6
Continuous
 62
     3
370
    13
100
AcDbLine
 10
-1112.445067673619
 20
655.2504891164699
 30
0.0
 11
-935.9452123670013
 21
655.2504891164699
 31
0.0
  0
LINE
  5
17A
330
1F
100
AcDbEntity
  8
C-0
  6
Continuous
 62
     3
370
    13
100
AcDbLine
 10
-1120.444906719906
 20
663.2503281627567
 30
0.0
 11
-935.9452123670013
 21
663.2503281627567
 31
0.0
  0
LINE
  5
17B
330
1F
100
AcDbEntity
  8
C-0
  6
Continuous
 62
     3
370
    13
100
AcDbLine
 10
-1127.945313228186
 20
670.749743733461
 30
0.0
 11
-935.9452123670013
 21
670.749743733461
 31
0.0
  0
LINE
  5
17C
330
1F
100
AcDbEntity
  8
C-0
  6
Continuous
 62
     3
370
    13
100
AcDbLine
 10
-1136.945008288062
 20
679.7504297309126
 30
0.0
 11
-879.9453481054178
 21
679.7504297309126
 31
0.0
  0
LINE
  5
17D
330
1F
100
AcDbEntity
  8
C-0
  6
Continuous
 62
     3
370
    13
100
AcDbLine
 10
-1144.445414796342
 20
687.250836239192
 30
0.0
 11
-879.9453481054178
 21
687.250836239192
 31
0.0
  0
LINE
  5
17E
330
1F
100
AcDbEntity
  8
C-0
  6
Continuous
 62
     3
370
    13
100
AcDbLine
 10
-1154.444965869806
 20
697.2503873126573
 30
0.0
 11
-879.9453481054178
 21
697.2503873126573
 31
0.0
  0
LINE
  5
17F
330
1F
100
AcDbEntity
  8
C-0
  6
Continuous
 62
     3
370
    13
100
AcDbLine
 10
-1161.945372378087
 20
704.7507938209367
 30
0.0
 11
-879.9453481054178
 21
704.7507938209367
 31
0.0
  0
LINE
  5
180
330
1F
100
AcDbEntity
  8
C-0
  6
Continuous
 62
     3
370
    13
100
AcDbLine
 10
-1172.945274933928
 20
715.7502009079906
 30
0.0
 11
-879.9453481054178
 21
715.7502009079906
 31
0.0
  0
LINE
  5
181
330
1F
100
AcDbEntity
  8
C-0
  6
Continuous
 62
     3
370
    13
100
AcDbLine
 10
-1180.44518597342
 20
723.2506074162711
 30
0.0
 11
-879.9453481054178
 21
723.2506074162711
 31
0.0
  0
LINE
  5
182
330
1F
100
AcDbEntity
  8
C-0
  6
Continuous
 62
     3
370
    13
100
AcDbLine
 10
-1192.445440011638
 20
735.2508614544888
 30
0.0
 11
-879.9453481054178
 21
735.2508614544888
 31
0.0
  0
LINE
  5
183
330
1F
100
AcDbEntity
  8
C-0
  6
Continuous
 62
     3
370
    13
100
AcDbLine
 10
-1199.944855582342
 20
742.7512679627682
 30
0.0
 11
-879.9453481054178
 21
742.7512679627682
 31
0.0
  0
LINE
  5
184
330
1F
100
AcDbEntity
  8
C-0
  6
Continuous
 62
     3
370
    13
100
AcDbLine
 10
-1212.944965634149
 20
755.7503870770006
 30
0.0
 11
-879.9453481054178
 21
755.7503870770006
 31
0.0
  0
LINE
  5
185
330
1F
100
AcDbEntity
  8
C-0
  6
Continuous
 62
     3
370
    13
100
AcDbLine
 10
-1220.445372142429
 20
763.2498026477049
 30
0.0
 11
-879.9453481054178
 21
763.2498026477049
 31
0.0
  0
LINE
  5
186
330
1F
100
AcDbEntity
  8
C-0
  6
Continuous
 62
     3
370
    13
100
AcDbLine
 10
-1234.445338207825
 20
777.2507596506762
 30
0.0
 11
-879.9453481054178
 21
777.2507596506762
 31
0.0
  0
LINE
  5
187
330
1F
100
AcDbEntity
  8
C-0
  6
Continuous
 62
     3
370
    13
100
AcDbLine
 10
-1241.94475377853
 20
784.7511661589556
 30
0.0
 11
-879.9453481054178
 21
784.7511661589556
 31
0.0
  0
LINE
  5
188
330
1F
100
AcDbEntity
  8
C-0
  6
Continuous
 62
     3
370
    13
100
AcDbLine
 10
-1256.945071326302
 20
799.7499973003653
 30
0.0
 11
-879.9453481054178
 21
799.7499973003653
 31
0.0
  0
LINE
  5
189
330
1F
100
AcDbEntity
  8
C-0
  6
Continuous
 62
     3
370
    13
100
AcDbLine
 10
-1264.444982365795
 20
807.2504038086458
 30
0.0
 11
-879.9453481054178
 21
807.2504038086458
 31
0.0
  0
LINE
  5
18A
330
1F
100
AcDbEntity
  8
C-0
  6
Continuous
 62
     3
370
    13
100
AcDbLine
 10
-1099.945381097394
 20
242.7499317877266
 30
0.0
 11
-1099.945381097394
 21
636.7506755211367
 31
0.0
  0
LINE
  5
18B
330
1F
100
AcDbEntity
  8
C-0
  6
Continuous
 62
     3
370
    13
100
AcDbLine
 10
-1104.944661165339
 20
231.7505247006727
 30
0.0
 11
-935.9452123670013
 21
231.7505247006727
 31
0.0
  0
LINE
  5
18C
330
1F
100
AcDbEntity
  8
C-0
  6
Continuous
 62
     3
370
    13
100
AcDbLine
 10
-1107.945220143682
 20
234.7500927414399
 30
0.0
 11
-1107.945220143682
 21
644.7505145674234
 31
0.0
  0
LINE
  5
18D
330
1F
100
AcDbEntity
  8
C-0
  6
Continuous
 62
     3
370
    13
100
AcDbLine
 10
-1115.445131183174
 20
227.2496862331593
 30
0.0
 11
-1115.445131183174
 21
652.2509210757028
 31
0.0
  0
LINE
  5
18E
330
1F
100
AcDbEntity
  8
C-0
  6
Continuous
 62
     3
370
    13
100
AcDbLine
 10
-1112.445067673619
 20
224.2501181923933
 30
0.0
 11
-935.9452123670013
 21
224.2501181923933
 31
0.0
  0
LINE
  5
18F
330
1F
100
AcDbEntity
  8
C-0
  6
Continuous
 62
     3
370
    13
100
AcDbLine
 10
-1120.444906719906
 20
216.2502791461065
 30
0.0
 11
-935.9452123670013
 21
216.2502791461065
 31
0.0
  0
LINE
  5
190
330
1F
100
AcDbEntity
  8
C-0
  6
Continuous
 62
     3
370
    13
100
AcDbLine
 10
-1123.44497022946
 20
219.2508381244488
 30
0.0
 11
-1123.44497022946
 21
660.2497691844144
 31
0.0
  0
LINE
  5
191
330
1F
100
AcDbEntity
  8
C-0
  6
Continuous
 62
     3
370
    13
100
AcDbLine
 10
-1130.944881268952
 20
211.7504316161683
 30
0.0
 11
-1130.944881268952
 21
667.7511666302701
 31
0.0
  0
LINE
  5
192
330
1F
100
AcDbEntity
  8
C-0
  6
Continuous
 62
     3
370
    13
100
AcDbLine
 10
-1127.945313228186
 20
208.7508635754011
 30
0.0
 11
-935.9452123670013
 21
208.7508635754011
 31
0.0
  0
LINE
  5
193
330
1F
100
AcDbEntity
  8
C-0
  6
Continuous
 62
     3
370
    13
100
AcDbLine
 10
-1136.945008288062
 20
199.7501775779506
 30
0.0
 11
-879.9453481054178
 21
199.7501775779506
 31
0.0
  0
LINE
  5
194
330
1F
100
AcDbEntity
  8
C-0
  6
Continuous
 62
     3
370
    13
100
AcDbLine
 10
-1139.945071797616
 20
202.7497456187166
 30
0.0
 11
-1139.945071797616
 21
676.7508616901455
 31
0.0
  0
LINE
  5
195
330
1F
100
AcDbEntity
  8
C-0
  6
Continuous
 62
     3
370
    13
100
AcDbLine
 10
-1144.445414796342
 20
192.24977106967
 30
0.0
 11
-879.9453481054178
 21
192.24977106967
 31
0.0
  0
LINE
  5
196
330
1F
100
AcDbEntity
  8
C-0
  6
Continuous
 62
     3
370
    13
100
AcDbLine
 10
-1147.444982837108
 20
195.2503300480123
 30
0.0
 11
-1147.444982837108
 21
684.2502772608498
 31
0.0
  0
LINE
  5
197
330
1F
100
AcDbEntity
  8
C-0
  6
Continuous
 62
     3
370
    13
100
AcDbLine
 10
-1154.444965869806
 20
182.2502199962059
 30
0.0
 11
-879.9453481054178
 21
182.2502199962059
 31
0.0
  0
LINE
  5
198
330
1F
100
AcDbEntity
  8
C-0
  6
Continuous
 62
     3
370
    13
100
AcDbLine
 10
-1157.44502937936
 20
185.2497880369719
 30
0.0
 11
-1157.44502937936
 21
694.2508192718901
 31
0.0
  0
LINE
  5
199
330
1F
100
AcDbEntity
  8
C-0
  6
Continuous
 62
     3
370
    13
100
AcDbLine
 10
-1164.944940418853
 20
177.7503724662677
 30
0.0
 11
-1164.944940418853
 21
701.7502348425955
 31
0.0
  0
LINE
  5
19A
330
1F
100
AcDbEntity
  8
C-0
  6
Continuous
 62
     3
370
    13
100
AcDbLine
 10
-1175.945338443482
 20
166.7499744416386
 30
0.0
 11
-1175.945338443482
 21
712.7506328672234
 31
0.0
  0
LINE
  5
19B
330
1F
100
AcDbEntity
  8
C-0
  6
Continuous
 62
     3
370
    13
100
AcDbLine
 10
-1183.444754014186
 20
159.2495679333592
 30
0.0
 11
-1183.444754014186
 21
720.251039375504
 31
0.0
  0
LINE
  5
19C
330
1F
100
AcDbEntity
  8
C-0
  6
Continuous
 62
     3
370
    13
100
AcDbLine
 10
-1195.445008052405
 20
147.2493138951404
 30
0.0
 11
-1195.445008052405
 21
732.2512934137217
 31
0.0
  0
LINE
  5
19D
330
1F
100
AcDbEntity
  8
C-0
  6
Continuous
 62
     3
370
    13
100
AcDbLine
 10
-1192.445440011638
 20
144.2507367919495
 30
0.0
 11
-879.9453481054178
 21
144.2507367919495
 31
0.0
  0
LINE
  5
19E
330
1F
100
AcDbEntity
  8
C-0
  6
Continuous
 62
     3
370
    13
100
AcDbLine
 10
-1202.944919091897
 20
139.7498983244361
 30
0.0
 11
-1202.944919091897
 21
739.7507089844271
 31
0.0
  0
LINE
  5
19F
330
1F
100
AcDbEntity
  8
C-0
  6
Continuous
 62
     3
370
    13
100
AcDbLine
 10
-1199.944855582342
 20
136.7493393460938
 30
0.0
 11
-879.9453481054178
 21
136.7493393460938
 31
0.0
  0
LINE
  5
1A0
330
1F
100
AcDbEntity
  8
C-0
  6
Continuous
 62
     3
370
    13
100
AcDbLine
 10
-1215.945029143704
 20
126.7507792102049
 30
0.0
 11
-1215.945029143704
 21
752.7498280986583
 31
0.0
  0
LINE
  5
1A1
330
1F
100
AcDbEntity
  8
C-0
  6
Continuous
 62
     3
370
    13
100
AcDbLine
 10
-1212.944965634149
 20
123.7502202318626
 30
0.0
 11
-879.9453481054178
 21
123.7502202318626
 31
0.0
  0
LINE
  5
1A2
330
1F
100
AcDbEntity
  8
C-0
  6
Continuous
 62
     3
370
    13
100
AcDbLine
 10
-1220.445372142429
 20
116.2508046611583
 30
0.0
 11
-879.9453481054178
 21
116.2508046611583
 31
0.0
  0
LINE
  5
1A3
330
1F
100
AcDbEntity
  8
C-0
  6
Continuous
 62
     3
370
    13
100
AcDbLine
 10
-1223.444940183196
 20
119.2493817643492
 30
0.0
 11
-1223.444940183196
 21
760.251225544514
 31
0.0
  0
LINE
  5
1A4
330
1F
100
AcDbEntity
  8
C-0
  6
Continuous
 62
     3
370
    13
100
AcDbLine
 10
-1237.444906248591
 20
105.2504066365293
 30
0.0
 11
-1237.444906248591
 21
774.251191609909
 31
0.0
  0
LINE
  5
1A5
330
1F
100
AcDbEntity
  8
C-0
  6
Continuous
 62
     3
370
    13
100
AcDbLine
 10
-1234.445338207825
 20
102.2508385957622
 30
0.0
 11
-879.9453481054178
 21
102.2508385957622
 31
0.0
  0
LINE
  5
1A6
330
1F
100
AcDbEntity
  8
C-0
  6
Continuous
 62
     3
370
    13
100
AcDbLine
 10
-1241.94475377853
 20
94.75043208748275
 30
0.0
 11
-879.9453481054178
 21
94.75043208748275
 31
0.0
  0
LINE
  5
1A7
330
1F
100
AcDbEntity
  8
C-0
  6
Continuous
 62
     3
370
    13
100
AcDbLine
 10
-1244.945312756872
 20
97.75000012824876
 30
0.0
 11
-1244.945312756872
 21
781.7506071806133
 31
0.0
  0
LINE
  5
1A8
330
1F
100
AcDbEntity
  8
C-0
  6
Continuous
 62
     3
370
    13
100
AcDbLine
 10
-1259.945134835857
 20
82.75017804926392
 30
0.0
 11
-1259.945134835857
 21
796.7504292595981
 31
0.0
  0
LINE
  5
1A9
330
1F
100
AcDbEntity
  8
C-0
  6
Continuous
 62
     3
370
    13
100
AcDbLine
 10
-1256.945071326302
 20
79.75061000849792
 30
0.0
 11
-879.9453481054178
 21
79.75061000849792
 31
0.0
  0
LINE
  5
1AA
330
1F
100
AcDbEntity
  8
C-0
  6
Continuous
 62
     3
370
    13
100
AcDbLine
 10
-1264.444982365795
 20
72.25020350021737
 30
0.0
 11
-879.9453481054178
 21
72.25020350021737
 31
0.0
  0
LINE
  5
1AB
330
1F
100
AcDbEntity
  8
C-0
  6
Continuous
 62
     3
370
    13
100
AcDbLine
 10
-1267.445045875349
 20
75.24977154098451
 30
0.0
 11
-1267.445045875349
 21
804.2508357678787
 31
0.0
  0
LINE
  5
1AC
330
1F
100
AcDbEntity
  8
C-0
  6
Continuous
 62
     3
370
    13
100
AcDbLine
 10
-1477.945455800655
 20
67.75035597027909
 30
0.0
 11
-1477.945455800655
 21
664.7506076519278
 31
0.0
  0
LINE
  5
1AD
330
1F
100
AcDbEntity
  8
C-0
  6
Continuous
 62
     3
370
    13
100
AcDbLine
 10
-882.9449161461849
 20
64.74979699193796
 30
0.0
 11
-1474.944896822313
 21
64.74979699193796
 31
0.0
  0
LINE
  5
1AE
330
1F
100
AcDbEntity
  8
C-0
  6
Continuous
 62
     3
370
    13
100
AcDbLine
 10
-1096.944822119051
 20
239.7503637469595
 30
0.0
 11
-882.9449161461849
 21
239.7503637469595
 31
0.0
  0
LINE
  5
1AF
330
1F
100
AcDbEntity
  8
C-0
  6
Continuous
 62
     3
370
    13
100
AcDbLine
 10
-879.9453481054178
 20
236.7507957061935
 30
0.0
 11
-879.9453481054178
 21
67.75035597027909
 31
0.0
  0
LINE
  5
1B0
330
1F
100
AcDbEntity
  8
C-0
  6
Continuous
 62
     3
370
    13
100
AcDbLine
 10
-882.9449161461849
 20
639.7502435619027
 30
0.0
 11
-1096.944822119051
 21
639.7502435619027
 31
0.0
  0
LINE
  5
1B1
330
1F
100
AcDbEntity
  8
C-0
  6
Continuous
 62
     3
370
    13
100
AcDbLine
 10
-882.9449161461849
 20
814.7508103169253
 30
0.0
 11
-1327.945253135658
 21
814.7508103169253
 31
0.0
  0
LINE
  5
1B2
330
1F
100
AcDbEntity
  8
C-0
  6
Continuous
 62
     3
370
    13
100
AcDbLine
 10
-879.9453481054178
 20
811.750251338583
 30
0.0
 11
-879.9453481054178
 21
642.7498116026698
 31
0.0
  0
LINE
  5
1B3
330
1F
100
AcDbEntity
  8
C-0
  6
Continuous
 62
     3
370
    13
100
AcDbLine
 10
-1447.445388167103
 20
674.0376746086724
 30
0.0
 11
-1454.945299206595
 21
666.5372681003919
 31
0.0
  0
LINE
  5
1B4
330
1F
100
AcDbEntity
  8
C-0
  6
Continuous
 62
     3
370
    13
100
AcDbLine
 10
-1417.945176547141
 20
703.5378862286348
 30
0.0
 11
-1425.445087586633
 21
696.0364887827791
 31
0.0
  0
LINE
  5
1B5
330
1F
100
AcDbEntity
  8
C-0
  6
Continuous
 62
     3
370
    13
100
AcDbLine
 10
-1388.444964927178
 20
733.037106911022
 30
0.0
 11
-1395.945371435458
 21
725.5367004027426
 31
0.0
  0
LINE
  5
1B6
330
1F
100
AcDbEntity
  8
C-0
  6
Continuous
 62
     3
370
    13
100
AcDbLine
 10
-1333.444956679185
 20
788.0371151590168
 30
0.0
 11
-1340.945363187464
 21
780.5376995883114
 31
0.0
  0
LINE
  5
1B7
330
1F
100
AcDbEntity
  8
C-0
  6
Continuous
 62
     3
370
    13
100
AcDbLine
 10
-1359.945104789593
 20
761.5374625173956
 30
0.0
 11
-1367.445015829085
 21
754.0370560091162
 31
0.0
  0
LINE
  5
1B8
330
1F
100
AcDbEntity
  8
C-0
  6
Continuous
 62
     3
370
    13
100
AcDbLine
 10
-1283.44521943671
 20
799.7499973003653
 30
0.0
 11
-1290.945130476203
 21
799.7499973003653
 31
0.0
  0
LINE
  5
1B9
330
1F
100
AcDbEntity
  8
C-0
  6
Continuous
 62
     3
370
    13
100
AcDbLine
 10
-1307.945160051152
 20
799.7499973003653
 30
0.0
 11
-1315.445071090644
 21
799.7499973003653
 31
0.0
  0
LINE
  5
1BA
330
1F
100
AcDbEntity
  8
C-0
  6
Continuous
 62
     3
370
    13
100
AcDbLine
 10
-1447.445388167103
 20
79.75061000849792
 30
0.0
 11
-1454.945299206595
 21
79.75061000849792
 31
0.0
  0
LINE
  5
1BB
330
1F
100
AcDbEntity
  8
C-0
  6
Continuous
 62
     3
370
    13
100
AcDbLine
 10
-1417.945176547141
 20
79.75061000849792
 30
0.0
 11
-1425.445087586633
 21
79.75061000849792
 31
0.0
  0
LINE
  5
1BC
330
1F
100
AcDbEntity
  8
C-0
  6
Continuous
 62
     3
370
    13
100
AcDbLine
 10
-1388.444964927178
 20
79.75061000849792
 30
0.0
 11
-1395.945371435458
 21
79.75061000849792
 31
0.0
  0
LINE
  5
1BD
330
1F
100
AcDbEntity
  8
C-0
  6
Continuous
 62
     3
370
    13
100
AcDbLine
 10
-1359.945104789593
 20
79.75061000849792
 30
0.0
 11
-1367.445015829085
 21
79.75061000849792
 31
0.0
  0
LINE
  5
1BE
330
1F
100
AcDbEntity
  8
C-0
  6
Continuous
 62
     3
370
    13
100
AcDbLine
 10
-1333.444956679185
 20
79.75061000849792
 30
0.0
 11
-1340.945363187464
 21
79.75061000849792
 31
0.0
  0
LINE
  5
1BF
330
1F
100
AcDbEntity
  8
C-0
  6
Continuous
 62
     3
370
    13
100
AcDbLine
 10
-1283.44521943671
 20
79.75061000849792
 30
0.0
 11
-1290.945130476203
 21
79.75061000849792
 31
0.0
  0
LINE
  5
1C0
330
1F
100
AcDbEntity
  8
C-0
  6
Continuous
 62
     3
370
    13
100
AcDbLine
 10
-1307.945160051152
 20
79.75061000849792
 30
0.0
 11
-1315.445071090644
 21
79.75061000849792
 31
0.0
  0
LINE
  5
1C1
330
1F
100
AcDbEntity
  8
C-0
  6
Continuous
 62
     3
370
    13
100
AcDbLine
 10
-1161.945372378087
 20
174.7498134879254
 30
0.0
 11
-879.9453481054178
 21
174.7498134879254
 31
0.0
  0
LINE
  5
1C2
330
1F
100
AcDbEntity
  8
C-0
  6
Continuous
 62
     3
370
    13
100
AcDbLine
 10
-1180.44518597342
 20
156.2499998925921
 30
0.0
 11
-879.9453481054178
 21
156.2499998925921
 31
0.0
  0
LINE
  5
1C3
330
1F
100
AcDbEntity
  8
C-0
  6
Continuous
 62
     3
370
    13
100
AcDbLine
 10
-1172.945274933928
 20
163.7504064008715
 30
0.0
 11
-879.9453481054178
 21
163.7504064008715
 31
0.0
  0
LINE
  5
1C4
330
1F
100
AcDbEntity
  8
C-0
  6
Continuous
 62
     3
370
    13
100
AcDbLine
 10
-1022.445144262136
 20
163.7504064008715
 30
0.0
 11
-1022.445144262136
 21
156.2499998925921
 31
0.0
  0
LINE
  5
1C5
330
1F
100
AcDbEntity
  8
C-0
  6
JWW_CENTER1
 62
     3
370
    13
100
AcDbLine
 10
-877.9451406094523
 20
864.7505475593994
 30
0.0
 11
-877.9451406094523
 21
14.75105068703897
 31
0.0
  0
LINE
  5
1C6
330
1F
100
AcDbEntity
  8
C-0
  6
JWW_CENTER1
 62
     3
370
    13
100
AcDbLine
 10
-241.885597986647
 20
442.7508626327733
 30
0.0
 11
-1545.920305192283
 21
442.7508626327733
 31
0.0
  0
ARC
  5
1C7
330
1F
100
AcDbEntity
  8
C-0
  6
Continuous
 62
     3
370
    13
100
AcDbCircle
 10
-1096.944822119051
 20
636.7506755211367
 30
0.0
 40
3.000000124387299
100
AcDbArc
 50
90.0
 51
180.0
  0
ARC
  5
1C8
330
1F
100
AcDbEntity
  8
C-0
  6
Continuous
 62
     3
370
    13
100
AcDbCircle
 10
-1104.944661165339
 20
644.7505145674234
 30
0.0
 40
3.000000124387299
100
AcDbArc
 50
90.0
 51
180.0
  0
ARC
  5
1C9
330
1F
100
AcDbEntity
  8
C-0
  6
Continuous
 62
     3
370
    13
100
AcDbCircle
 10
-1112.445067673619
 20
652.2509210757028
 30
0.0
 40
3.000000124387299
100
AcDbArc
 50
90.0
 51
180.0
  0
ARC
  5
1CA
330
1F
100
AcDbEntity
  8
C-0
  6
Continuous
 62
     3
370
    13
100
AcDbCircle
 10
-1120.444906719906
 20
660.2497691844144
 30
0.0
 40
3.000000124387299
100
AcDbArc
 50
90.0
 51
180.0
  0
ARC
  5
1CB
330
1F
100
AcDbEntity
  8
C-0
  6
Continuous
 62
     3
370
    13
100
AcDbCircle
 10
-1127.945313228186
 20
667.7511666302701
 30
0.0
 40
3.000000124387299
100
AcDbArc
 50
90.0
 51
180.0
  0
ARC
  5
1CC
330
1F
100
AcDbEntity
  8
C-0
  6
Continuous
 62
     3
370
    13
100
AcDbCircle
 10
-1136.945008288062
 20
676.7508616901455
 30
0.0
 40
3.000000124387299
100
AcDbArc
 50
90.0
 51
180.0
  0
ARC
  5
1CD
330
1F
100
AcDbEntity
  8
C-0
  6
Continuous
 62
     3
370
    13
100
AcDbCircle
 10
-1144.445414796342
 20
684.2502772608498
 30
0.0
 40
3.000000124387299
100
AcDbArc
 50
90.0
 51
180.0
  0
ARC
  5
1CE
330
1F
100
AcDbEntity
  8
C-0
  6
Continuous
 62
     3
370
    13
100
AcDbCircle
 10
-1154.444965869806
 20
694.2508192718901
 30
0.0
 40
3.000000124387299
100
AcDbArc
 50
90.0
 51
180.0
  0
ARC
  5
1CF
330
1F
100
AcDbEntity
  8
C-0
  6
Continuous
 62
     3
370
    13
100
AcDbCircle
 10
-1161.945372378087
 20
701.7502348425955
 30
0.0
 40
3.000000124387299
100
AcDbArc
 50
90.0
 51
180.0
  0
ARC
  5
1D0
330
1F
100
AcDbEntity
  8
C-0
  6
Continuous
 62
     3
370
    13
100
AcDbCircle
 10
-1172.945274933928
 20
712.7506328672234
 30
0.0
 40
3.000000124387299
100
AcDbArc
 50
90.0
 51
180.0
  0
ARC
  5
1D1
330
1F
100
AcDbEntity
  8
C-0
  6
Continuous
 62
     3
370
    13
100
AcDbCircle
 10
-1180.44518597342
 20
720.251039375504
 30
0.0
 40
3.000000124387299
100
AcDbArc
 50
90.0
 51
180.0
  0
ARC
  5
1D2
330
1F
100
AcDbEntity
  8
C-0
  6
Continuous
 62
     3
370
    13
100
AcDbCircle
 10
-1192.445440011638
 20
732.2512934137217
 30
0.0
 40
3.000000124387299
100
AcDbArc
 50
90.0
 51
180.0
  0
ARC
  5
1D3
330
1F
100
AcDbEntity
  8
C-0
  6
Continuous
 62
     3
370
    13
100
AcDbCircle
 10
-1199.944855582342
 20
739.7507089844271
 30
0.0
 40
3.000000124387299
100
AcDbArc
 50
90.0
 51
180.0
  0
ARC
  5
1D4
330
1F
100
AcDbEntity
  8
C-0
  6
Continuous
 62
     3
370
    13
100
AcDbCircle
 10
-1212.944965634149
 20
752.7498280986583
 30
0.0
 40
3.000000124387299
100
AcDbArc
 50
90.0
 51
180.0
  0
ARC
  5
1D5
330
1F
100
AcDbEntity
  8
C-0
  6
Continuous
 62
     3
370
    13
100
AcDbCircle
 10
-1220.445372142429
 20
760.251225544514
 30
0.0
 40
3.000000124387299
100
AcDbArc
 50
90.0
 51
180.0
  0
ARC
  5
1D6
330
1F
100
AcDbEntity
  8
C-0
  6
Continuous
 62
     3
370
    13
100
AcDbCircle
 10
-1234.445338207825
 20
774.251191609909
 30
0.0
 40
3.000000124387299
100
AcDbArc
 50
90.0
 51
180.0
  0
ARC
  5
1D7
330
1F
100
AcDbEntity
  8
C-0
  6
Continuous
 62
     3
370
    13
100
AcDbCircle
 10
-1241.94475377853
 20
781.7506071806133
 30
0.0
 40
3.000000124387299
100
AcDbArc
 50
90.0
 51
180.0
  0
ARC
  5
1D8
330
1F
100
AcDbEntity
  8
C-0
  6
Continuous
 62
     3
370
    13
100
AcDbCircle
 10
-1256.945071326302
 20
796.7504292595981
 30
0.0
 40
3.000000124387299
100
AcDbArc
 50
90.0
 51
180.0
  0
ARC
  5
1D9
330
1F
100
AcDbEntity
  8
C-0
  6
Continuous
 62
     3
370
    13
100
AcDbCircle
 10
-1264.444982365795
 20
804.2508357678787
 30
0.0
 40
3.000000124387299
100
AcDbArc
 50
90.0
 51
180.0
  0
ARC
  5
1DA
330
1F
100
AcDbEntity
  8
C-0
  6
Continuous
 62
     3
370
    13
100
AcDbCircle
 10
-1096.944822119051
 20
242.7499317877266
 30
0.0
 40
3.000000124387299
100
AcDbArc
 50
180.0
 51
270.0
  0
ARC
  5
1DB
330
1F
100
AcDbEntity
  8
C-0
  6
Continuous
 62
     3
370
    13
100
AcDbCircle
 10
-1104.944661165339
 20
234.7500927414399
 30
0.0
 40
3.000000124387299
100
AcDbArc
 50
180.0
 51
270.0
  0
ARC
  5
1DC
330
1F
100
AcDbEntity
  8
C-0
  6
Continuous
 62
     3
370
    13
100
AcDbCircle
 10
-1112.445067673619
 20
227.2496862331593
 30
0.0
 40
3.000000124387299
100
AcDbArc
 50
180.0
 51
270.0
  0
ARC
  5
1DD
330
1F
100
AcDbEntity
  8
C-0
  6
Continuous
 62
     3
370
    13
100
AcDbCircle
 10
-1120.444906719906
 20
219.2508381244488
 30
0.0
 40
3.000000124387299
100
AcDbArc
 50
180.0
 51
270.0
  0
ARC
  5
1DE
330
1F
100
AcDbEntity
  8
C-0
  6
Continuous
 62
     3
370
    13
100
AcDbCircle
 10
-1127.945313228186
 20
211.7504316161683
 30
0.0
 40
3.000000124387299
100
AcDbArc
 50
180.0
 51
270.0
  0
ARC
  5
1DF
330
1F
100
AcDbEntity
  8
C-0
  6
Continuous
 62
     3
370
    13
100
AcDbCircle
 10
-1136.945008288062
 20
202.7497456187166
 30
0.0
 40
3.000000124387299
100
AcDbArc
 50
180.0
 51
270.0
  0
ARC
  5
1E0
330
1F
100
AcDbEntity
  8
C-0
  6
Continuous
 62
     3
370
    13
100
AcDbCircle
 10
-1144.445414796342
 20
195.2503300480123
 30
0.0
 40
3.000000124387299
100
AcDbArc
 50
180.0
 51
270.0
  0
ARC
  5
1E1
330
1F
100
AcDbEntity
  8
C-0
  6
Continuous
 62
     3
370
    13
100
AcDbCircle
 10
-1154.444965869806
 20
185.2497880369719
 30
0.0
 40
3.000000124387299
100
AcDbArc
 50
180.0
 51
270.0
  0
ARC
  5
1E2
330
1F
100
AcDbEntity
  8
C-0
  6
Continuous
 62
     3
370
    13
100
AcDbCircle
 10
-1161.945372378087
 20
177.7503724662677
 30
0.0
 40
3.000000124387299
100
AcDbArc
 50
180.0
 51
270.0
  0
ARC
  5
1E3
330
1F
100
AcDbEntity
  8
C-0
  6
Continuous
 62
     3
370
    13
100
AcDbCircle
 10
-1172.945274933928
 20
166.7499744416386
 30
0.0
 40
3.000000124387299
100
AcDbArc
 50
180.0
 51
270.0
  0
ARC
  5
1E4
330
1F
100
AcDbEntity
  8
C-0
  6
Continuous
 62
     3
370
    13
100
AcDbCircle
 10
-1180.44518597342
 20
159.2495679333592
 30
0.0
 40
3.000000124387299
100
AcDbArc
 50
180.0
 51
270.0
  0
ARC
  5
1E5
330
1F
100
AcDbEntity
  8
C-0
  6
Continuous
 62
     3
370
    13
100
AcDbCircle
 10
-1192.445440011638
 20
147.2493138951404
 30
0.0
 40
3.000000124387299
100
AcDbArc
 50
180.0
 51
270.0
  0
ARC
  5
1E6
330
1F
100
AcDbEntity
  8
C-0
  6
Continuous
 62
     3
370
    13
100
AcDbCircle
 10
-1199.944855582342
 20
139.7498983244361
 30
0.0
 40
3.000000124387299
100
AcDbArc
 50
180.0
 51
270.0
  0
ARC
  5
1E7
330
1F
100
AcDbEntity
  8
C-0
  6
Continuous
 62
     3
370
    13
100
AcDbCircle
 10
-1212.944965634149
 20
126.7507792102049
 30
0.0
 40
3.000000124387299
100
AcDbArc
 50
180.0
 51
270.0
  0
ARC
  5
1E8
330
1F
100
AcDbEntity
  8
C-0
  6
Continuous
 62
     3
370
    13
100
AcDbCircle
 10
-1220.445372142429
 20
119.2493817643492
 30
0.0
 40
3.000000124387299
100
AcDbArc
 50
180.0
 51
270.0
  0
ARC
  5
1E9
330
1F
100
AcDbEntity
  8
C-0
  6
Continuous
 62
     3
370
    13
100
AcDbCircle
 10
-1234.445338207825
 20
105.2504066365293
 30
0.0
 40
3.000000124387299
100
AcDbArc
 50
180.0
 51
270.0
  0
ARC
  5
1EA
330
1F
100
AcDbEntity
  8
C-0
  6
Continuous
 62
     3
370
    13
100
AcDbCircle
 10
-1241.94475377853
 20
97.75000012824876
 30
0.0
 40
3.000000124387299
100
AcDbArc
 50
180.0
 51
270.0
  0
ARC
  5
1EB
330
1F
100
AcDbEntity
  8
C-0
  6
Continuous
 62
     3
370
    13
100
AcDbCircle
 10
-1256.945071326302
 20
82.75017804926392
 30
0.0
 40
3.000000124387299
100
AcDbArc
 50
180.0
 51
270.0
  0
ARC
  5
1EC
330
1F
100
AcDbEntity
  8
C-0
  6
Continuous
 62
     3
370
    13
100
AcDbCircle
 10
-1264.444982365795
 20
75.24977154098451
 30
0.0
 40
3.000000124387299
100
AcDbArc
 50
180.0
 51
270.0
  0
ARC
  5
1ED
330
1F
100
AcDbEntity
  8
C-0
  6
Continuous
 62
     3
370
    13
100
AcDbCircle
 10
-1474.944896822313
 20
67.75035597027909
 30
0.0
 40
3.000000124387299
100
AcDbArc
 50
180.0
 51
270.0
  0
ARC
  5
1EE
330
1F
100
AcDbEntity
  8
C-0
  6
Continuous
 62
     3
370
    13
100
AcDbCircle
 10
-882.9449161461849
 20
67.75035597027909
 30
0.0
 40
3.000000124387299
100
AcDbArc
 50
270.0
 51
0.0
  0
ARC
  5
1EF
330
1F
100
AcDbEntity
  8
C-0
  6
Continuous
 62
     3
370
    13
100
AcDbCircle
 10
-882.9449161461849
 20
236.7507957061935
 30
0.0
 40
3.000000124387299
100
AcDbArc
 50
0.0
 51
90.0
  0
ARC
  5
1F0
330
1F
100
AcDbEntity
  8
C-0
  6
Continuous
 62
     3
370
    13
100
AcDbCircle
 10
-882.9449161461849
 20
642.7498116026698
 30
0.0
 40
3.000000124387299
100
AcDbArc
 50
270.0
 51
0.0
  0
ARC
  5
1F1
330
1F
100
AcDbEntity
  8
C-0
  6
Continuous
 62
     3
370
    13
100
AcDbCircle
 10
-882.9449161461849
 20
811.750251338583
 30
0.0
 40
3.000000124387299
100
AcDbArc
 50
0.0
 51
90.0
  0
ARC
  5
1F2
330
1F
100
AcDbEntity
  8
C-0
  6
Continuous
 62
     3
370
    13
100
AcDbCircle
 10
-872.9453650727203
 20
67.75035597027909
 30
0.0
 40
3.000000124387299
100
AcDbArc
 50
180.0
 51
270.0
  0
LINE
  5
1F3
330
1F
100
AcDbEntity
  8
C-3
  6
Continuous
 62
     4
370
    13
100
AcDbLine
 10
-910.9453437457637
 20
229.7508126734954
 30
0.0
 11
-900.9452972035115
 21
229.7508126734954
 31
0.0
  0
LINE
  5
1F4
330
1F
100
AcDbEntity
  8
C-3
  6
Continuous
 62
     4
370
    13
100
AcDbLine
 10
-910.9453437457637
 20
209.7497286514147
 30
0.0
 11
-900.9452972035115
 21
209.7497286514147
 31
0.0
  0
LINE
  5
1F5
330
1F
100
AcDbEntity
  8
C-3
  6
Continuous
 62
     4
370
    13
100
AcDbLine
 10
-902.3063499633378
 20
221.8510583223247
 30
0.0
 11
-902.3063499633378
 21
217.6494830025854
 31
0.0
  0
LINE
  5
1F6
330
1F
100
AcDbEntity
  8
C-3
  6
Continuous
 62
     4
370
    13
100
AcDbLine
 10
-902.3063499633378
 20
217.6494830025854
 30
0.0
 11
-905.9450727402441
 21
215.5486953427157
 31
0.0
  0
LINE
  5
1F7
330
1F
100
AcDbEntity
  8
C-3
  6
Continuous
 62
     4
370
    13
100
AcDbLine
 10
-905.9450727402441
 20
215.5486953427157
 30
0.0
 11
-909.584290985938
 21
217.6494830025854
 31
0.0
  0
LINE
  5
1F8
330
1F
100
AcDbEntity
  8
C-3
  6
Continuous
 62
     4
370
    13
100
AcDbLine
 10
-909.584290985938
 20
217.6494830025854
 30
0.0
 11
-909.584290985938
 21
221.8510583223247
 31
0.0
  0
LINE
  5
1F9
330
1F
100
AcDbEntity
  8
C-3
  6
Continuous
 62
     4
370
    13
100
AcDbLine
 10
-909.584290985938
 20
221.8510583223247
 30
0.0
 11
-905.9450727402441
 21
223.9518459821943
 31
0.0
  0
LINE
  5
1FA
330
1F
100
AcDbEntity
  8
C-3
  6
Continuous
 62
     4
370
    13
100
AcDbLine
 10
-905.9450727402441
 20
223.9518459821943
 30
0.0
 11
-902.3063499633378
 21
221.8510583223247
 31
0.0
  0
ARC
  5
1FB
330
1F
100
AcDbEntity
  8
C-3
  6
Continuous
 62
     4
370
    13
100
AcDbCircle
 10
-910.9453437457637
 20
219.750270662455
 30
0.0
 40
9.999947835579801
100
AcDbArc
 50
89.99957275390625
 51
270.0004272460938
  0
ARC
  5
1FC
330
1F
100
AcDbEntity
  8
C-3
  6
Continuous
 62
     4
370
    13
100
AcDbCircle
 10
-900.9452972035115
 20
219.750270662455
 30
0.0
 40
9.999947835579801
100
AcDbArc
 50
269.9995727539062
 51
90.00042724609378
  0
CIRCLE
  5
1FD
330
1F
100
AcDbEntity
  8
C-3
  6
Continuous
 62
     4
370
    13
100
AcDbCircle
 10
-905.9450727402441
 20
219.750270662455
 30
0.0
 40
7.962500828113335
  0
ARC
  5
1FE
330
1F
100
AcDbEntity
  8
C-3
  6
Continuous
 62
     4
370
    13
100
AcDbCircle
 10
-910.9453437457637
 20
219.750270662455
 30
0.0
 40
5.999947024588419
100
AcDbArc
 50
92.293701171875
 51
267.706298828125
  0
ARC
  5
1FF
330
1F
100
AcDbEntity
  8
C-3
  6
Continuous
 62
     4
370
    13
100
AcDbCircle
 10
-900.9452972035115
 20
219.750270662455
 30
0.0
 40
5.999947024588419
100
AcDbArc
 50
272.293701171875
 51
87.70629882812503
  0
LINE
  5
200
330
1F
100
AcDbEntity
  8
C-3
  6
Continuous
 62
     4
370
    13
100
AcDbLine
 10
-910.9453437457637
 20
649.7497946353667
 30
0.0
 11
-900.9452972035115
 21
649.7497946353667
 31
0.0
  0
LINE
  5
201
330
1F
100
AcDbEntity
  8
C-3
  6
Continuous
 62
     4
370
    13
100
AcDbLine
 10
-910.9453437457637
 20
669.7508786574474
 30
0.0
 11
-900.9452972035115
 21
669.7508786574474
 31
0.0
  0
LINE
  5
202
330
1F
100
AcDbEntity
  8
C-3
  6
Continuous
 62
     4
370
    13
100
AcDbLine
 10
-902.3063499633378
 20
657.6495489865374
 30
0.0
 11
-902.3063499633378
 21
661.8511243062767
 31
0.0
  0
LINE
  5
203
330
1F
100
AcDbEntity
  8
C-3
  6
Continuous
 62
     4
370
    13
100
AcDbLine
 10
-902.3063499633378
 20
661.8511243062767
 30
0.0
 11
-905.9450727402441
 21
663.9519119661463
 31
0.0
  0
LINE
  5
204
330
1F
100
AcDbEntity
  8
C-3
  6
Continuous
 62
     4
370
    13
100
AcDbLine
 10
-905.9450727402441
 20
663.9519119661463
 30
0.0
 11
-909.584290985938
 21
661.8511243062767
 31
0.0
  0
LINE
  5
205
330
1F
100
AcDbEntity
  8
C-3
  6
Continuous
 62
     4
370
    13
100
AcDbLine
 10
-909.584290985938
 20
661.8511243062767
 30
0.0
 11
-909.584290985938
 21
657.6495489865374
 31
0.0
  0
LINE
  5
206
330
1F
100
AcDbEntity
  8
C-3
  6
Continuous
 62
     4
370
    13
100
AcDbLine
 10
-909.584290985938
 20
657.6495489865374
 30
0.0
 11
-905.9450727402441
 21
655.5487613266678
 31
0.0
  0
LINE
  5
207
330
1F
100
AcDbEntity
  8
C-3
  6
Continuous
 62
     4
370
    13
100
AcDbLine
 10
-905.9450727402441
 20
655.5487613266678
 30
0.0
 11
-902.3063499633378
 21
657.6495489865374
 31
0.0
  0
ARC
  5
208
330
1F
100
AcDbEntity
  8
C-3
  6
Continuous
 62
     4
370
    13
100
AcDbCircle
 10
-900.9452972035115
 20
659.750336646407
 30
0.0
 40
9.999947835579801
100
AcDbArc
 50
269.9995727539062
 51
90.00042724609375
  0
CIRCLE
  5
209
330
1F
100
AcDbEntity
  8
C-3
  6
Continuous
 62
     4
370
    13
100
AcDbCircle
 10
-905.9450727402441
 20
659.750336646407
 30
0.0
 40
7.962500828113335
  0
ARC
  5
20A
330
1F
100
AcDbEntity
  8
C-3
  6
Continuous
 62
     4
370
    13
100
AcDbCircle
 10
-910.9453437457637
 20
659.750336646407
 30
0.0
 40
5.999947024588419
100
AcDbArc
 50
92.293701171875
 51
267.706298828125
  0
ARC
  5
20B
330
1F
100
AcDbEntity
  8
C-3
  6
Continuous
 62
     4
370
    13
100
AcDbCircle
 10
-900.9452972035115
 20
659.750336646407
 30
0.0
 40
5.999947024588419
100
AcDbArc
 50
272.293701171875
 51
87.706298828125
  0
ARC
  5
20C
330
1F
100
AcDbEntity
  8
C-3
  6
Continuous
 62
     4
370
    13
100
AcDbCircle
 10
-910.9453437457637
 20
659.750336646407
 30
0.0
 40
9.999947835579801
100
AcDbArc
 50
89.99957275390621
 51
270.0004272460937
  0
LINE
  5
20D
330
1F
100
AcDbEntity
  8
C-0
  6
Continuous
 62
     3
370
    13
100
AcDbLine
 10
-427.9450280832469
 20
814.7508103169253
 30
0.0
 11
-277.9448254182495
 21
664.7506076519278
 31
0.0
  0
LINE
  5
20E
330
1F
100
AcDbEntity
  8
C-0
  6
Continuous
 62
     3
370
    13
100
AcDbLine
 10
-300.9449820123092
 20
687.7502687771994
 30
0.0
 11
-300.9449820123092
 21
64.74979699193796
 31
0.0
  0
LINE
  5
20F
330
1F
100
AcDbEntity
  8
C-0
  6
Continuous
 62
     3
370
    13
100
AcDbLine
 10
-308.4448930518016
 20
695.2506752854788
 30
0.0
 11
-308.4448930518016
 21
64.74979699193796
 31
0.0
  0
LINE
  5
210
330
1F
100
AcDbEntity
  8
C-0
  6
Continuous
 62
     3
370
    13
100
AcDbLine
 10
-330.4451936322715
 20
717.2504803971617
 30
0.0
 11
-330.4451936322715
 21
64.74979699193796
 31
0.0
  0
LINE
  5
211
330
1F
100
AcDbEntity
  8
C-0
  6
Continuous
 62
     3
370
    13
100
AcDbLine
 10
-337.9451046717639
 20
724.749895967866
 30
0.0
 11
-337.9451046717639
 21
64.74979699193796
 31
0.0
  0
LINE
  5
212
330
1F
100
AcDbEntity
  8
C-0
  6
Continuous
 62
     3
370
    13
100
AcDbLine
 10
-359.9449097834469
 20
746.750692017124
 30
0.0
 11
-359.9449097834469
 21
64.74979699193796
 31
0.0
  0
LINE
  5
213
330
1F
100
AcDbEntity
  8
C-0
  6
Continuous
 62
     3
370
    13
100
AcDbLine
 10
-367.4453162917263
 20
754.2501075878295
 30
0.0
 11
-367.4453162917263
 21
64.74979699193796
 31
0.0
  0
LINE
  5
214
330
1F
100
AcDbEntity
  8
C-0
  6
Continuous
 62
     3
370
    13
100
AcDbLine
 10
-388.4452653898194
 20
775.2500566859226
 30
0.0
 11
-388.4452653898194
 21
64.74979699193796
 31
0.0
  0
LINE
  5
215
330
1F
100
AcDbEntity
  8
C-0
  6
Continuous
 62
     3
370
    13
100
AcDbLine
 10
-395.9451764293118
 20
782.7504631942031
 30
0.0
 11
-395.9451764293118
 21
64.74979699193796
 31
0.0
  0
LINE
  5
216
330
1F
100
AcDbEntity
  8
C-0
  6
Continuous
 62
     3
370
    13
100
AcDbLine
 10
-414.9449180314406
 20
801.7497093275426
 30
0.0
 11
-414.9449180314406
 21
64.74979699193796
 31
0.0
  0
LINE
  5
217
330
1F
100
AcDbEntity
  8
C-0
  6
Continuous
 62
     3
370
    13
100
AcDbLine
 10
-422.44532453972
 20
809.2511067733983
 30
0.0
 11
-422.44532453972
 21
64.74979699193796
 31
0.0
  0
LINE
  5
218
330
1F
100
AcDbEntity
  8
C-0
  6
Continuous
 62
     3
370
    13
100
AcDbLine
 10
-440.4452101282601
 20
814.7508103169253
 30
0.0
 11
-440.4452101282601
 21
64.74979699193796
 31
0.0
  0
LINE
  5
219
330
1F
100
AcDbEntity
  8
C-0
  6
Continuous
 62
     3
370
    13
100
AcDbLine
 10
-447.9451211677525
 20
814.7508103169253
 30
0.0
 11
-447.9451211677525
 21
64.74979699193796
 31
0.0
  0
LINE
  5
21A
330
1F
100
AcDbEntity
  8
C-0
  6
Continuous
 62
     3
370
    13
100
AcDbLine
 10
-464.9451507427017
 20
814.7508103169253
 30
0.0
 11
-464.9451507427017
 21
64.74979699193796
 31
0.0
  0
LINE
  5
21B
330
1F
100
AcDbEntity
  8
C-0
  6
Continuous
 62
     3
370
    13
100
AcDbLine
 10
-472.4450617821941
 20
814.7508103169253
 30
0.0
 11
-472.4450617821941
 21
64.74979699193796
 31
0.0
  0
LINE
  5
21C
330
1F
100
AcDbEntity
  8
C-0
  6
Continuous
 62
     3
370
    13
100
AcDbLine
 10
-495.9451463830482
 20
789.1439924307497
 30
0.0
 11
-488.4452353435557
 21
796.6443989390291
 31
0.0
  0
LINE
  5
21D
330
1F
100
AcDbEntity
  8
C-0
  6
Continuous
 62
     3
370
    13
100
AcDbLine
 10
-529.051379839928
 20
777.2507596506762
 30
0.0
 11
-521.5519642692237
 21
784.7511661589556
 31
0.0
  0
LINE
  5
21E
330
1F
100
AcDbEntity
  8
C-0
  6
Continuous
 62
     3
370
    13
100
AcDbLine
 10
-518.4453749703135
 20
766.6437638434843
 30
0.0
 11
-510.944968462033
 21
774.1441703517648
 31
0.0
  0
LINE
  5
21F
330
1F
100
AcDbEntity
  8
C-0
  6
Continuous
 62
     3
370
    13
100
AcDbLine
 10
-550.5517524136036
 20
755.7503870770006
 30
0.0
 11
-543.0513459053242
 21
763.2498026477049
 31
0.0
  0
LINE
  5
220
330
1F
100
AcDbEntity
  8
C-0
  6
Continuous
 62
     3
370
    13
100
AcDbLine
 10
-539.945252075201
 20
745.1433912698087
 30
0.0
 11
-532.4453410357086
 21
752.6437977780893
 31
0.0
  0
LINE
  5
221
330
1F
100
AcDbEntity
  8
C-0
  6
Continuous
 62
     3
370
    13
100
AcDbLine
 10
-571.0512780361165
 20
735.2508614544888
 30
0.0
 11
-563.5513669966241
 21
742.7512679627682
 31
0.0
  0
LINE
  5
222
330
1F
100
AcDbEntity
  8
C-0
  6
Continuous
 62
     3
370
    13
100
AcDbLine
 10
-560.4452731664998
 20
724.6428747097218
 30
0.0
 11
-552.9453621270073
 21
732.1442721555775
 31
0.0
  0
LINE
  5
223
330
1F
100
AcDbEntity
  8
C-0
  6
Continuous
 62
     3
370
    13
100
AcDbLine
 10
-579.9449427754229
 20
705.1432051007998
 30
0.0
 11
-572.4455272047186
 21
712.6436116090792
 31
0.0
  0
LINE
  5
224
330
1F
100
AcDbEntity
  8
C-0
  6
Continuous
 62
     3
370
    13
100
AcDbLine
 10
-598.4452518395443
 20
686.6443824430416
 30
0.0
 11
-590.9453408000519
 21
694.1437980137459
 31
0.0
  0
LINE
  5
225
330
1F
100
AcDbEntity
  8
C-0
  6
Continuous
 62
     3
370
    13
100
AcDbLine
 10
-609.0517521779481
 20
697.2503873126573
 30
0.0
 11
-601.5513456696675
 21
704.7507938209367
 31
0.0
  0
LINE
  5
226
330
1F
100
AcDbEntity
  8
C-0
  6
Continuous
 62
     3
370
    13
100
AcDbLine
 10
-590.5519385826136
 20
715.7502009079906
 30
0.0
 11
-583.0515320743331
 21
723.2506074162711
 31
0.0
  0
LINE
  5
227
330
1F
100
AcDbEntity
  8
C-0
  6
Continuous
 62
     3
370
    13
100
AcDbLine
 10
-626.5517097596927
 20
679.7504297309126
 30
0.0
 11
-619.0513032514122
 21
687.250836239192
 31
0.0
  0
LINE
  5
228
330
1F
100
AcDbEntity
  8
C-0
  6
Continuous
 62
     3
370
    13
100
AcDbLine
 10
-615.945704890076
 20
669.1434339237219
 30
0.0
 11
-608.4452983817965
 21
676.6438404320013
 31
0.0
  0
LINE
  5
229
330
1F
100
AcDbEntity
  8
C-0
  6
Continuous
 62
     3
370
    13
100
AcDbLine
 10
-615.945209421289
 20
654.7500656408874
 30
0.0
 11
-608.4452983817965
 21
654.7500656408874
 31
0.0
  0
LINE
  5
22A
330
1F
100
AcDbEntity
  8
C-0
  6
Continuous
 62
     3
370
    13
100
AcDbLine
 10
-615.945209421289
 20
639.7502435619027
 30
0.0
 11
-608.4452983817965
 21
639.7502435619027
 31
0.0
  0
LINE
  5
22B
330
1F
100
AcDbEntity
  8
C-0
  6
Continuous
 62
     3
370
    13
100
AcDbLine
 10
-598.4452518395443
 20
654.7500656408874
 30
0.0
 11
-590.9453408000519
 21
654.7500656408874
 31
0.0
  0
LINE
  5
22C
330
1F
100
AcDbEntity
  8
C-0
  6
Continuous
 62
     3
370
    13
100
AcDbLine
 10
-598.4452518395443
 20
639.7502435619027
 30
0.0
 11
-590.9453408000519
 21
639.7502435619027
 31
0.0
  0
LINE
  5
22D
330
1F
100
AcDbEntity
  8
C-0
  6
Continuous
 62
     3
370
    13
100
AcDbLine
 10
-579.9449427754229
 20
654.7500656408874
 30
0.0
 11
-572.4455272047186
 21
654.7500656408874
 31
0.0
  0
LINE
  5
22E
330
1F
100
AcDbEntity
  8
C-0
  6
Continuous
 62
     3
370
    13
100
AcDbLine
 10
-579.9449427754229
 20
639.7502435619027
 30
0.0
 11
-572.4455272047186
 21
639.7502435619027
 31
0.0
  0
LINE
  5
22F
330
1F
100
AcDbEntity
  8
C-0
  6
Continuous
 62
     3
370
    13
100
AcDbLine
 10
-560.4452731664998
 20
654.7500656408874
 30
0.0
 11
-552.9453621270073
 21
654.7500656408874
 31
0.0
  0
LINE
  5
230
330
1F
100
AcDbEntity
  8
C-0
  6
Continuous
 62
     3
370
    13
100
AcDbLine
 10
-560.4452731664998
 20
639.7502435619027
 30
0.0
 11
-552.9453621270073
 21
639.7502435619027
 31
0.0
  0
LINE
  5
231
330
1F
100
AcDbEntity
  8
C-0
  6
Continuous
 62
     3
370
    13
100
AcDbLine
 10
-539.945252075201
 20
654.7500656408874
 30
0.0
 11
-532.4453410357086
 21
654.7500656408874
 31
0.0
  0
LINE
  5
232
330
1F
100
AcDbEntity
  8
C-0
  6
Continuous
 62
     3
370
    13
100
AcDbLine
 10
-539.945252075201
 20
639.7502435619027
 30
0.0
 11
-532.4453410357086
 21
639.7502435619027
 31
0.0
  0
LINE
  5
233
330
1F
100
AcDbEntity
  8
C-0
  6
Continuous
 62
     3
370
    13
100
AcDbLine
 10
-518.4453749703135
 20
654.7500656408874
 30
0.0
 11
-510.944968462033
 21
654.7500656408874
 31
0.0
  0
LINE
  5
234
330
1F
100
AcDbEntity
  8
C-0
  6
Continuous
 62
     3
370
    13
100
AcDbLine
 10
-518.4453749703135
 20
639.7502435619027
 30
0.0
 11
-510.944968462033
 21
639.7502435619027
 31
0.0
  0
LINE
  5
235
330
1F
100
AcDbEntity
  8
C-0
  6
Continuous
 62
     3
370
    13
100
AcDbLine
 10
-495.9451463830482
 20
654.7500656408874
 30
0.0
 11
-488.4452353435557
 21
654.7500656408874
 31
0.0
  0
LINE
  5
236
330
1F
100
AcDbEntity
  8
C-0
  6
Continuous
 62
     3
370
    13
100
AcDbLine
 10
-495.9451463830482
 20
639.7502435619027
 30
0.0
 11
-488.4452353435557
 21
639.7502435619027
 31
0.0
  0
LINE
  5
237
330
1F
100
AcDbEntity
  8
C-0
  6
Continuous
 62
     3
370
    13
100
AcDbLine
 10
-472.4450617821941
 20
654.7500656408874
 30
0.0
 11
-464.9451507427017
 21
654.7500656408874
 31
0.0
  0
LINE
  5
238
330
1F
100
AcDbEntity
  8
C-0
  6
Continuous
 62
     3
370
    13
100
AcDbLine
 10
-472.4450617821941
 20
639.7502435619027
 30
0.0
 11
-464.9451507427017
 21
639.7502435619027
 31
0.0
  0
LINE
  5
239
330
1F
100
AcDbEntity
  8
C-0
  6
Continuous
 62
     3
370
    13
100
AcDbLine
 10
-447.9451211677525
 20
654.7500656408874
 30
0.0
 11
-440.4452101282601
 21
654.7500656408874
 31
0.0
  0
LINE
  5
23A
330
1F
100
AcDbEntity
  8
C-0
  6
Continuous
 62
     3
370
    13
100
AcDbLine
 10
-447.9451211677525
 20
639.7502435619027
 30
0.0
 11
-440.4452101282601
 21
639.7502435619027
 31
0.0
  0
LINE
  5
23B
330
1F
100
AcDbEntity
  8
C-0
  6
Continuous
 62
     3
370
    13
100
AcDbLine
 10
-422.44532453972
 20
654.7500656408874
 30
0.0
 11
-414.9449180314406
 21
654.7500656408874
 31
0.0
  0
LINE
  5
23C
330
1F
100
AcDbEntity
  8
C-0
  6
Continuous
 62
     3
370
    13
100
AcDbLine
 10
-422.44532453972
 20
639.7502435619027
 30
0.0
 11
-414.9449180314406
 21
639.7502435619027
 31
0.0
  0
LINE
  5
23D
330
1F
100
AcDbEntity
  8
C-0
  6
Continuous
 62
     3
370
    13
100
AcDbLine
 10
-395.9451764293118
 20
654.7500656408874
 30
0.0
 11
-388.4452653898194
 21
654.7500656408874
 31
0.0
  0
LINE
  5
23E
330
1F
100
AcDbEntity
  8
C-0
  6
Continuous
 62
     3
370
    13
100
AcDbLine
 10
-395.9451764293118
 20
639.7502435619027
 30
0.0
 11
-388.4452653898194
 21
639.7502435619027
 31
0.0
  0
LINE
  5
23F
330
1F
100
AcDbEntity
  8
C-0
  6
Continuous
 62
     3
370
    13
100
AcDbLine
 10
-367.4453162917263
 20
654.7500656408874
 30
0.0
 11
-359.9449097834469
 21
654.7500656408874
 31
0.0
  0
LINE
  5
240
330
1F
100
AcDbEntity
  8
C-0
  6
Continuous
 62
     3
370
    13
100
AcDbLine
 10
-337.9451046717639
 20
654.7500656408874
 30
0.0
 11
-330.4451936322715
 21
654.7500656408874
 31
0.0
  0
LINE
  5
241
330
1F
100
AcDbEntity
  8
C-0
  6
Continuous
 62
     3
370
    13
100
AcDbLine
 10
-308.4448930518016
 20
654.7500656408874
 30
0.0
 11
-300.9449820123092
 21
654.7500656408874
 31
0.0
  0
LINE
  5
242
330
1F
100
AcDbEntity
  8
C-0
  6
Continuous
 62
     3
370
    13
100
AcDbLine
 10
-308.4448930518016
 20
639.7502435619027
 30
0.0
 11
-300.9449820123092
 21
639.7502435619027
 31
0.0
  0
LINE
  5
243
330
1F
100
AcDbEntity
  8
C-0
  6
Continuous
 62
     3
370
    13
100
AcDbLine
 10
-367.4453162917263
 20
639.7502435619027
 30
0.0
 11
-359.9449097834469
 21
639.7502435619027
 31
0.0
  0
LINE
  5
244
330
1F
100
AcDbEntity
  8
C-0
  6
Continuous
 62
     3
370
    13
100
AcDbLine
 10
-337.9451046717639
 20
639.7502435619027
 30
0.0
 11
-330.4451936322715
 21
639.7502435619027
 31
0.0
  0
LINE
  5
245
330
1F
100
AcDbEntity
  8
C-0
  6
Continuous
 62
     3
370
    13
100
AcDbLine
 10
-615.945209421289
 20
210.3571733851413
 30
0.0
 11
-608.4452983817965
 21
202.8567668768619
 31
0.0
  0
LINE
  5
246
330
1F
100
AcDbEntity
  8
C-0
  6
Continuous
 62
     3
370
    13
100
AcDbLine
 10
-626.5517097596927
 20
199.7501775779506
 30
0.0
 11
-619.0513032514122
 21
192.24977106967
 31
0.0
  0
LINE
  5
247
330
1F
100
AcDbEntity
  8
C-0
  6
Continuous
 62
     3
370
    13
100
AcDbLine
 10
-598.4452518395443
 20
192.8572158033967
 30
0.0
 11
-590.9453408000519
 21
185.3568092951173
 31
0.0
  0
LINE
  5
248
330
1F
100
AcDbEntity
  8
C-0
  6
Continuous
 62
     3
370
    13
100
AcDbLine
 10
-609.0517521779481
 20
182.2502199962059
 30
0.0
 11
-601.5513456696675
 21
174.7498134879254
 31
0.0
  0
LINE
  5
249
330
1F
100
AcDbEntity
  8
C-0
  6
Continuous
 62
     3
370
    13
100
AcDbLine
 10
-590.5519385826136
 20
163.7504064008715
 30
0.0
 11
-583.0515320743331
 21
156.2499998925921
 31
0.0
  0
LINE
  5
24A
330
1F
100
AcDbEntity
  8
C-0
  6
Continuous
 62
     3
370
    13
100
AcDbLine
 10
-579.9449427754229
 20
174.3574022080634
 30
0.0
 11
-572.4455272047186
 21
166.8569956997828
 31
0.0
  0
LINE
  5
24B
330
1F
100
AcDbEntity
  8
C-0
  6
Continuous
 62
     3
370
    13
100
AcDbLine
 10
-571.0512780361165
 20
144.2507367919495
 30
0.0
 11
-563.5513669966241
 21
136.7493393460938
 31
0.0
  0
LINE
  5
24C
330
1F
100
AcDbEntity
  8
C-0
  6
Continuous
 62
     3
370
    13
100
AcDbLine
 10
-560.4452731664998
 20
154.8577325991403
 30
0.0
 11
-552.9453621270073
 21
147.3563351532857
 31
0.0
  0
LINE
  5
24D
330
1F
100
AcDbEntity
  8
C-0
  6
Continuous
 62
     3
370
    13
100
AcDbLine
 10
-539.945252075201
 20
134.3572160390534
 30
0.0
 11
-532.4453410357086
 21
126.8568095307739
 31
0.0
  0
LINE
  5
24E
330
1F
100
AcDbEntity
  8
C-0
  6
Continuous
 62
     3
370
    13
100
AcDbLine
 10
-550.5517524136036
 20
123.7502202318626
 30
0.0
 11
-543.0513459053242
 21
116.2508046611583
 31
0.0
  0
LINE
  5
24F
330
1F
100
AcDbEntity
  8
C-0
  6
Continuous
 62
     3
370
    13
100
AcDbLine
 10
-529.051379839928
 20
102.2508385957622
 30
0.0
 11
-521.5514688004356
 21
94.75043208748275
 31
0.0
  0
LINE
  5
250
330
1F
100
AcDbEntity
  8
C-0
  6
Continuous
 62
     3
370
    13
100
AcDbLine
 10
-518.4453749703135
 20
112.8568434653778
 30
0.0
 11
-510.944968462033
 21
105.3564369570984
 31
0.0
  0
LINE
  5
251
330
1F
100
AcDbEntity
  8
C-0
  6
Continuous
 62
     3
370
    13
100
AcDbLine
 10
-495.9451463830482
 20
90.35760581568866
 30
0.0
 11
-488.4452353435557
 21
82.85620836983298
 31
0.0
  0
LINE
  5
252
330
1F
100
AcDbEntity
  8
C-0
  6
Continuous
 62
     3
370
    13
100
AcDbLine
 10
-615.945209421289
 20
447.2497192251365
 30
0.0
 11
-608.4452983817965
 21
447.2497192251365
 31
0.0
  0
LINE
  5
253
330
1F
100
AcDbEntity
  8
C-0
  6
Continuous
 62
     3
370
    13
100
AcDbLine
 10
-615.945209421289
 20
432.2508880837267
 30
0.0
 11
-608.4452983817965
 21
432.2508880837267
 31
0.0
  0
LINE
  5
254
330
1F
100
AcDbEntity
  8
C-0
  6
Continuous
 62
     3
370
    13
100
AcDbLine
 10
-598.4452518395443
 20
447.2497192251365
 30
0.0
 11
-590.9453408000519
 21
447.2497192251365
 31
0.0
  0
LINE
  5
255
330
1F
100
AcDbEntity
  8
C-0
  6
Continuous
 62
     3
370
    13
100
AcDbLine
 10
-598.4452518395443
 20
432.2508880837267
 30
0.0
 11
-590.9453408000519
 21
432.2508880837267
 31
0.0
  0
LINE
  5
256
330
1F
100
AcDbEntity
  8
C-0
  6
Continuous
 62
     3
370
    13
100
AcDbLine
 10
-579.9449427754229
 20
447.2497192251365
 30
0.0
 11
-572.4455272047186
 21
447.2497192251365
 31
0.0
  0
LINE
  5
257
330
1F
100
AcDbEntity
  8
C-0
  6
Continuous
 62
     3
370
    13
100
AcDbLine
 10
-579.9449427754229
 20
432.2508880837267
 30
0.0
 11
-572.4455272047186
 21
432.2508880837267
 31
0.0
  0
LINE
  5
258
330
1F
100
AcDbEntity
  8
C-0
  6
Continuous
 62
     3
370
    13
100
AcDbLine
 10
-560.4452731664998
 20
447.2497192251365
 30
0.0
 11
-552.9453621270073
 21
447.2497192251365
 31
0.0
  0
LINE
  5
259
330
1F
100
AcDbEntity
  8
C-0
  6
Continuous
 62
     3
370
    13
100
AcDbLine
 10
-560.4452731664998
 20
432.2508880837267
 30
0.0
 11
-552.9453621270073
 21
432.2508880837267
 31
0.0
  0
LINE
  5
25A
330
1F
100
AcDbEntity
  8
C-0
  6
Continuous
 62
     3
370
    13
100
AcDbLine
 10
-539.945252075201
 20
447.2497192251365
 30
0.0
 11
-532.4453410357086
 21
447.2497192251365
 31
0.0
  0
LINE
  5
25B
330
1F
100
AcDbEntity
  8
C-0
  6
Continuous
 62
     3
370
    13
100
AcDbLine
 10
-539.945252075201
 20
432.2508880837267
 30
0.0
 11
-532.4453410357086
 21
432.2508880837267
 31
0.0
  0
LINE
  5
25C
330
1F
100
AcDbEntity
  8
C-0
  6
Continuous
 62
     3
370
    13
100
AcDbLine
 10
-518.4453749703135
 20
447.2497192251365
 30
0.0
 11
-510.944968462033
 21
447.2497192251365
 31
0.0
  0
LINE
  5
25D
330
1F
100
AcDbEntity
  8
C-0
  6
Continuous
 62
     3
370
    13
100
AcDbLine
 10
-518.4453749703135
 20
432.2508880837267
 30
0.0
 11
-510.944968462033
 21
432.2508880837267
 31
0.0
  0
LINE
  5
25E
330
1F
100
AcDbEntity
  8
C-0
  6
Continuous
 62
     3
370
    13
100
AcDbLine
 10
-495.9451463830482
 20
447.2497192251365
 30
0.0
 11
-488.4452353435557
 21
447.2497192251365
 31
0.0
  0
LINE
  5
25F
330
1F
100
AcDbEntity
  8
C-0
  6
Continuous
 62
     3
370
    13
100
AcDbLine
 10
-495.9451463830482
 20
432.2508880837267
 30
0.0
 11
-488.4452353435557
 21
432.2508880837267
 31
0.0
  0
LINE
  5
260
330
1F
100
AcDbEntity
  8
C-0
  6
Continuous
 62
     3
370
    13
100
AcDbLine
 10
-472.4450617821941
 20
447.2497192251365
 30
0.0
 11
-464.9451507427017
 21
447.2497192251365
 31
0.0
  0
LINE
  5
261
330
1F
100
AcDbEntity
  8
C-0
  6
Continuous
 62
     3
370
    13
100
AcDbLine
 10
-472.4450617821941
 20
432.2508880837267
 30
0.0
 11
-464.9451507427017
 21
432.2508880837267
 31
0.0
  0
LINE
  5
262
330
1F
100
AcDbEntity
  8
C-0
  6
Continuous
 62
     3
370
    13
100
AcDbLine
 10
-447.9451211677525
 20
447.2497192251365
 30
0.0
 11
-440.4452101282601
 21
447.2497192251365
 31
0.0
  0
LINE
  5
263
330
1F
100
AcDbEntity
  8
C-0
  6
Continuous
 62
     3
370
    13
100
AcDbLine
 10
-447.9451211677525
 20
432.2508880837267
 30
0.0
 11
-440.4452101282601
 21
432.2508880837267
 31
0.0
  0
LINE
  5
264
330
1F
100
AcDbEntity
  8
C-0
  6
Continuous
 62
     3
370
    13
100
AcDbLine
 10
-422.44532453972
 20
447.2497192251365
 30
0.0
 11
-414.9449180314406
 21
447.2497192251365
 31
0.0
  0
LINE
  5
265
330
1F
100
AcDbEntity
  8
C-0
  6
Continuous
 62
     3
370
    13
100
AcDbLine
 10
-422.44532453972
 20
432.2508880837267
 30
0.0
 11
-414.9449180314406
 21
432.2508880837267
 31
0.0
  0
LINE
  5
266
330
1F
100
AcDbEntity
  8
C-0
  6
Continuous
 62
     3
370
    13
100
AcDbLine
 10
-395.9451764293118
 20
447.2497192251365
 30
0.0
 11
-388.4452653898194
 21
447.2497192251365
 31
0.0
  0
LINE
  5
267
330
1F
100
AcDbEntity
  8
C-0
  6
Continuous
 62
     3
370
    13
100
AcDbLine
 10
-395.9451764293118
 20
432.2508880837267
 30
0.0
 11
-388.4452653898194
 21
432.2508880837267
 31
0.0
  0
LINE
  5
268
330
1F
100
AcDbEntity
  8
C-0
  6
Continuous
 62
     3
370
    13
100
AcDbLine
 10
-367.4453162917263
 20
447.2497192251365
 30
0.0
 11
-359.9449097834469
 21
447.2497192251365
 31
0.0
  0
LINE
  5
269
330
1F
100
AcDbEntity
  8
C-0
  6
Continuous
 62
     3
370
    13
100
AcDbLine
 10
-337.9451046717639
 20
447.2497192251365
 30
0.0
 11
-330.4451936322715
 21
447.2497192251365
 31
0.0
  0
LINE
  5
26A
330
1F
100
AcDbEntity
  8
C-0
  6
Continuous
 62
     3
370
    13
100
AcDbLine
 10
-308.4448930518016
 20
447.2497192251365
 30
0.0
 11
-300.9449820123092
 21
447.2497192251365
 31
0.0
  0
LINE
  5
26B
330
1F
100
AcDbEntity
  8
C-0
  6
Continuous
 62
     3
370
    13
100
AcDbLine
 10
-308.4448930518016
 20
432.2508880837267
 30
0.0
 11
-300.9449820123092
 21
432.2508880837267
 31
0.0
  0
LINE
  5
26C
330
1F
100
AcDbEntity
  8
C-0
  6
Continuous
 62
     3
370
    13
100
AcDbLine
 10
-367.4453162917263
 20
432.2508880837267
 30
0.0
 11
-359.9449097834469
 21
432.2508880837267
 31
0.0
  0
LINE
  5
26D
330
1F
100
AcDbEntity
  8
C-0
  6
Continuous
 62
     3
370
    13
100
AcDbLine
 10
-337.9451046717639
 20
432.2508880837267
 30
0.0
 11
-330.4451936322715
 21
432.2508880837267
 31
0.0
  0
LINE
  5
26E
330
1F
100
AcDbEntity
  8
C-0
  6
Continuous
 62
     3
370
    13
100
AcDbLine
 10
-615.945209421289
 20
224.7505416679746
 30
0.0
 11
-608.4452983817965
 21
224.7505416679746
 31
0.0
  0
LINE
  5
26F
330
1F
100
AcDbEntity
  8
C-0
  6
Continuous
 62
     3
370
    13
100
AcDbLine
 10
-615.945209421289
 20
239.7503637469595
 30
0.0
 11
-608.4452983817965
 21
239.7503637469595
 31
0.0
  0
LINE
  5
270
330
1F
100
AcDbEntity
  8
C-0
  6
Continuous
 62
     3
370
    13
100
AcDbLine
 10
-598.4452518395443
 20
224.7505416679746
 30
0.0
 11
-590.9453408000519
 21
224.7505416679746
 31
0.0
  0
LINE
  5
271
330
1F
100
AcDbEntity
  8
C-0
  6
Continuous
 62
     3
370
    13
100
AcDbLine
 10
-598.4452518395443
 20
239.7503637469595
 30
0.0
 11
-590.9453408000519
 21
239.7503637469595
 31
0.0
  0
LINE
  5
272
330
1F
100
AcDbEntity
  8
C-0
  6
Continuous
 62
     3
370
    13
100
AcDbLine
 10
-579.9449427754229
 20
224.7505416679746
 30
0.0
 11
-572.4455272047186
 21
224.7505416679746
 31
0.0
  0
LINE
  5
273
330
1F
100
AcDbEntity
  8
C-0
  6
Continuous
 62
     3
370
    13
100
AcDbLine
 10
-579.9449427754229
 20
239.7503637469595
 30
0.0
 11
-572.4455272047186
 21
239.7503637469595
 31
0.0
  0
LINE
  5
274
330
1F
100
AcDbEntity
  8
C-0
  6
Continuous
 62
     3
370
    13
100
AcDbLine
 10
-560.4452731664998
 20
224.7505416679746
 30
0.0
 11
-552.9453621270073
 21
224.7505416679746
 31
0.0
  0
LINE
  5
275
330
1F
100
AcDbEntity
  8
C-0
  6
Continuous
 62
     3
370
    13
100
AcDbLine
 10
-560.4452731664998
 20
239.7503637469595
 30
0.0
 11
-552.9453621270073
 21
239.7503637469595
 31
0.0
  0
LINE
  5
276
330
1F
100
AcDbEntity
  8
C-0
  6
Continuous
 62
     3
370
    13
100
AcDbLine
 10
-539.945252075201
 20
224.7505416679746
 30
0.0
 11
-532.4453410357086
 21
224.7505416679746
 31
0.0
  0
LINE
  5
277
330
1F
100
AcDbEntity
  8
C-0
  6
Continuous
 62
     3
370
    13
100
AcDbLine
 10
-539.945252075201
 20
239.7503637469595
 30
0.0
 11
-532.4453410357086
 21
239.7503637469595
 31
0.0
  0
LINE
  5
278
330
1F
100
AcDbEntity
  8
C-0
  6
Continuous
 62
     3
370
    13
100
AcDbLine
 10
-518.4453749703135
 20
224.7505416679746
 30
0.0
 11
-510.944968462033
 21
224.7505416679746
 31
0.0
  0
LINE
  5
279
330
1F
100
AcDbEntity
  8
C-0
  6
Continuous
 62
     3
370
    13
100
AcDbLine
 10
-518.4453749703135
 20
239.7503637469595
 30
0.0
 11
-510.944968462033
 21
239.7503637469595
 31
0.0
  0
LINE
  5
27A
330
1F
100
AcDbEntity
  8
C-0
  6
Continuous
 62
     3
370
    13
100
AcDbLine
 10
-495.9451463830482
 20
224.7505416679746
 30
0.0
 11
-488.4452353435557
 21
224.7505416679746
 31
0.0
  0
LINE
  5
27B
330
1F
100
AcDbEntity
  8
C-0
  6
Continuous
 62
     3
370
    13
100
AcDbLine
 10
-495.9451463830482
 20
239.7503637469595
 30
0.0
 11
-488.4452353435557
 21
239.7503637469595
 31
0.0
  0
LINE
  5
27C
330
1F
100
AcDbEntity
  8
C-0
  6
Continuous
 62
     3
370
    13
100
AcDbLine
 10
-472.4450617821941
 20
224.7505416679746
 30
0.0
 11
-464.9451507427017
 21
224.7505416679746
 31
0.0
  0
LINE
  5
27D
330
1F
100
AcDbEntity
  8
C-0
  6
Continuous
 62
     3
370
    13
100
AcDbLine
 10
-472.4450617821941
 20
239.7503637469595
 30
0.0
 11
-464.9451507427017
 21
239.7503637469595
 31
0.0
  0
LINE
  5
27E
330
1F
100
AcDbEntity
  8
C-0
  6
Continuous
 62
     3
370
    13
100
AcDbLine
 10
-447.9451211677525
 20
224.7505416679746
 30
0.0
 11
-440.4452101282601
 21
224.7505416679746
 31
0.0
  0
LINE
  5
27F
330
1F
100
AcDbEntity
  8
C-0
  6
Continuous
 62
     3
370
    13
100
AcDbLine
 10
-447.9451211677525
 20
239.7503637469595
 30
0.0
 11
-440.4452101282601
 21
239.7503637469595
 31
0.0
  0
LINE
  5
280
330
1F
100
AcDbEntity
  8
C-0
  6
Continuous
 62
     3
370
    13
100
AcDbLine
 10
-422.44532453972
 20
224.7505416679746
 30
0.0
 11
-414.9449180314406
 21
224.7505416679746
 31
0.0
  0
LINE
  5
281
330
1F
100
AcDbEntity
  8
C-0
  6
Continuous
 62
     3
370
    13
100
AcDbLine
 10
-422.44532453972
 20
239.7503637469595
 30
0.0
 11
-414.9449180314406
 21
239.7503637469595
 31
0.0
  0
LINE
  5
282
330
1F
100
AcDbEntity
  8
C-0
  6
Continuous
 62
     3
370
    13
100
AcDbLine
 10
-395.9451764293118
 20
224.7505416679746
 30
0.0
 11
-388.4452653898194
 21
224.7505416679746
 31
0.0
  0
LINE
  5
283
330
1F
100
AcDbEntity
  8
C-0
  6
Continuous
 62
     3
370
    13
100
AcDbLine
 10
-395.9451764293118
 20
239.7503637469595
 30
0.0
 11
-388.4452653898194
 21
239.7503637469595
 31
0.0
  0
LINE
  5
284
330
1F
100
AcDbEntity
  8
C-0
  6
Continuous
 62
     3
370
    13
100
AcDbLine
 10
-367.4453162917263
 20
224.7505416679746
 30
0.0
 11
-359.9449097834469
 21
224.7505416679746
 31
0.0
  0
LINE
  5
285
330
1F
100
AcDbEntity
  8
C-0
  6
Continuous
 62
     3
370
    13
100
AcDbLine
 10
-337.9451046717639
 20
224.7505416679746
 30
0.0
 11
-330.4451936322715
 21
224.7505416679746
 31
0.0
  0
LINE
  5
286
330
1F
100
AcDbEntity
  8
C-0
  6
Continuous
 62
     3
370
    13
100
AcDbLine
 10
-308.4448930518016
 20
224.7505416679746
 30
0.0
 11
-300.9449820123092
 21
224.7505416679746
 31
0.0
  0
LINE
  5
287
330
1F
100
AcDbEntity
  8
C-0
  6
Continuous
 62
     3
370
    13
100
AcDbLine
 10
-308.4448930518016
 20
239.7503637469595
 30
0.0
 11
-300.9449820123092
 21
239.7503637469595
 31
0.0
  0
LINE
  5
288
330
1F
100
AcDbEntity
  8
C-0
  6
Continuous
 62
     3
370
    13
100
AcDbLine
 10
-367.4453162917263
 20
239.7503637469595
 30
0.0
 11
-359.9449097834469
 21
239.7503637469595
 31
0.0
  0
LINE
  5
289
330
1F
100
AcDbEntity
  8
C-0
  6
Continuous
 62
     3
370
    13
100
AcDbLine
 10
-337.9451046717639
 20
239.7503637469595
 30
0.0
 11
-330.4451936322715
 21
239.7503637469595
 31
0.0
  0
LINE
  5
28A
330
1F
100
AcDbEntity
  8
C-0
  6
Continuous
 62
     3
370
    13
100
AcDbLine
 10
-718.445314877784
 20
679.7504297309126
 30
0.0
 11
-718.445314877784
 21
687.250836239192
 31
0.0
  0
LINE
  5
28B
330
1F
100
AcDbEntity
  8
C-0
  6
Continuous
 62
     3
370
    13
100
AcDbLine
 10
-733.4451369567688
 20
679.7504297309126
 30
0.0
 11
-733.4451369567688
 21
687.250836239192
 31
0.0
  0
LINE
  5
28C
330
1F
100
AcDbEntity
  8
C-0
  6
Continuous
 62
     3
370
    13
100
AcDbLine
 10
-733.4451369567688
 20
697.2503873126573
 30
0.0
 11
-733.4451369567688
 21
704.7507938209367
 31
0.0
  0
LINE
  5
28D
330
1F
100
AcDbEntity
  8
C-0
  6
Continuous
 62
     3
370
    13
100
AcDbLine
 10
-718.445314877784
 20
697.2503873126573
 30
0.0
 11
-718.445314877784
 21
704.7507938209367
 31
0.0
  0
LINE
  5
28E
330
1F
100
AcDbEntity
  8
C-0
  6
Continuous
 62
     3
370
    13
100
AcDbLine
 10
-718.445314877784
 20
715.7502009079906
 30
0.0
 11
-718.445314877784
 21
723.2506074162711
 31
0.0
  0
LINE
  5
28F
330
1F
100
AcDbEntity
  8
C-0
  6
Continuous
 62
     3
370
    13
100
AcDbLine
 10
-733.4451369567688
 20
715.7502009079906
 30
0.0
 11
-733.4451369567688
 21
723.2506074162711
 31
0.0
  0
LINE
  5
290
330
1F
100
AcDbEntity
  8
C-0
  6
Continuous
 62
     3
370
    13
100
AcDbLine
 10
-733.4451369567688
 20
735.2508614544888
 30
0.0
 11
-733.4451369567688
 21
742.7512679627682
 31
0.0
  0
LINE
  5
291
330
1F
100
AcDbEntity
  8
C-0
  6
Continuous
 62
     3
370
    13
100
AcDbLine
 10
-718.445314877784
 20
735.2508614544888
 30
0.0
 11
-718.445314877784
 21
742.7512679627682
 31
0.0
  0
LINE
  5
292
330
1F
100
AcDbEntity
  8
C-0
  6
Continuous
 62
     3
370
    13
100
AcDbLine
 10
-718.445314877784
 20
755.7503870770006
 30
0.0
 11
-718.445314877784
 21
763.2498026477049
 31
0.0
  0
LINE
  5
293
330
1F
100
AcDbEntity
  8
C-0
  6
Continuous
 62
     3
370
    13
100
AcDbLine
 10
-733.4451369567688
 20
755.7503870770006
 30
0.0
 11
-733.4451369567688
 21
763.2498026477049
 31
0.0
  0
LINE
  5
294
330
1F
100
AcDbEntity
  8
C-0
  6
Continuous
 62
     3
370
    13
100
AcDbLine
 10
-733.4451369567688
 20
777.2507596506762
 30
0.0
 11
-733.4451369567688
 21
784.7511661589556
 31
0.0
  0
LINE
  5
295
330
1F
100
AcDbEntity
  8
C-0
  6
Continuous
 62
     3
370
    13
100
AcDbLine
 10
-718.445314877784
 20
777.2507596506762
 30
0.0
 11
-718.445314877784
 21
784.7511661589556
 31
0.0
  0
LINE
  5
296
330
1F
100
AcDbEntity
  8
C-0
  6
Continuous
 62
     3
370
    13
100
AcDbLine
 10
-718.445314877784
 20
199.7501775779506
 30
0.0
 11
-718.445314877784
 21
192.24977106967
 31
0.0
  0
LINE
  5
297
330
1F
100
AcDbEntity
  8
C-0
  6
Continuous
 62
     3
370
    13
100
AcDbLine
 10
-733.4451369567688
 20
199.7501775779506
 30
0.0
 11
-733.4451369567688
 21
192.24977106967
 31
0.0
  0
LINE
  5
298
330
1F
100
AcDbEntity
  8
C-0
  6
Continuous
 62
     3
370
    13
100
AcDbLine
 10
-733.4451369567688
 20
182.2502199962059
 30
0.0
 11
-733.4451369567688
 21
174.7498134879254
 31
0.0
  0
LINE
  5
299
330
1F
100
AcDbEntity
  8
C-0
  6
Continuous
 62
     3
370
    13
100
AcDbLine
 10
-718.445314877784
 20
182.2502199962059
 30
0.0
 11
-718.445314877784
 21
174.7498134879254
 31
0.0
  0
LINE
  5
29A
330
1F
100
AcDbEntity
  8
C-0
  6
Continuous
 62
     3
370
    13
100
AcDbLine
 10
-718.445314877784
 20
163.7504064008715
 30
0.0
 11
-718.445314877784
 21
156.2499998925921
 31
0.0
  0
LINE
  5
29B
330
1F
100
AcDbEntity
  8
C-0
  6
Continuous
 62
     3
370
    13
100
AcDbLine
 10
-733.4451369567688
 20
144.2507367919495
 30
0.0
 11
-733.4451369567688
 21
136.7493393460938
 31
0.0
  0
LINE
  5
29C
330
1F
100
AcDbEntity
  8
C-0
  6
Continuous
 62
     3
370
    13
100
AcDbLine
 10
-718.445314877784
 20
144.2507367919495
 30
0.0
 11
-718.445314877784
 21
136.7493393460938
 31
0.0
  0
LINE
  5
29D
330
1F
100
AcDbEntity
  8
C-0
  6
Continuous
 62
     3
370
    13
100
AcDbLine
 10
-718.445314877784
 20
123.7502202318626
 30
0.0
 11
-718.445314877784
 21
116.2508046611583
 31
0.0
  0
LINE
  5
29E
330
1F
100
AcDbEntity
  8
C-0
  6
Continuous
 62
     3
370
    13
100
AcDbLine
 10
-733.4451369567688
 20
123.7502202318626
 30
0.0
 11
-733.4451369567688
 21
116.2508046611583
 31
0.0
  0
LINE
  5
29F
330
1F
100
AcDbEntity
  8
C-0
  6
Continuous
 62
     3
370
    13
100
AcDbLine
 10
-733.4451369567688
 20
102.2508385957622
 30
0.0
 11
-733.4451369567688
 21
94.75043208748275
 31
0.0
  0
LINE
  5
2A0
330
1F
100
AcDbEntity
  8
C-0
  6
Continuous
 62
     3
370
    13
100
AcDbLine
 10
-718.445314877784
 20
102.2508385957622
 30
0.0
 11
-718.445314877784
 21
94.75043208748275
 31
0.0
  0
LINE
  5
2A1
330
1F
100
AcDbEntity
  8
C-0
  6
Continuous
 62
     3
370
    13
100
AcDbLine
 10
-819.9450688519033
 20
663.2503281627567
 30
0.0
 11
-819.9450688519033
 21
670.749743733461
 31
0.0
  0
LINE
  5
2A2
330
1F
100
AcDbEntity
  8
C-0
  6
Continuous
 62
     3
370
    13
100
AcDbLine
 10
-819.9450688519033
 20
647.7500826081894
 30
0.0
 11
-819.9450688519033
 21
655.2504891164699
 31
0.0
  0
LINE
  5
2A3
330
1F
100
AcDbEntity
  8
C-0
  6
Continuous
 62
     3
370
    13
100
AcDbLine
 10
-819.9450688519033
 20
231.7505247006727
 30
0.0
 11
-819.9450688519033
 21
224.2501181923933
 31
0.0
  0
LINE
  5
2A4
330
1F
100
AcDbEntity
  8
C-0
  6
Continuous
 62
     3
370
    13
100
AcDbLine
 10
-819.9450688519033
 20
216.2502791461065
 30
0.0
 11
-819.9450688519033
 21
208.7508635754011
 31
0.0
  0
LINE
  5
2A5
330
1F
100
AcDbEntity
  8
C-0
  6
Continuous
 62
     3
370
    13
100
AcDbLine
 10
-650.9456200535652
 20
647.7500826081894
 30
0.0
 11
-819.9450688519033
 21
647.7500826081894
 31
0.0
  0
LINE
  5
2A6
330
1F
100
AcDbEntity
  8
C-0
  6
Continuous
 62
     3
370
    13
100
AcDbLine
 10
-643.4452135452858
 20
655.2504891164699
 30
0.0
 11
-819.9450688519033
 21
655.2504891164699
 31
0.0
  0
LINE
  5
2A7
330
1F
100
AcDbEntity
  8
C-0
  6
Continuous
 62
     3
370
    13
100
AcDbLine
 10
-635.4453744989991
 20
663.2503281627567
 30
0.0
 11
-819.9450688519033
 21
663.2503281627567
 31
0.0
  0
LINE
  5
2A8
330
1F
100
AcDbEntity
  8
C-0
  6
Continuous
 62
     3
370
    13
100
AcDbLine
 10
-627.9449679907185
 20
670.749743733461
 30
0.0
 11
-819.9450688519033
 21
670.749743733461
 31
0.0
  0
LINE
  5
2A9
330
1F
100
AcDbEntity
  8
C-0
  6
Continuous
 62
     3
370
    13
100
AcDbLine
 10
-618.9452729308431
 20
679.7504297309126
 30
0.0
 11
-875.9449331134869
 21
679.7504297309126
 31
0.0
  0
LINE
  5
2AA
330
1F
100
AcDbEntity
  8
C-0
  6
Continuous
 62
     3
370
    13
100
AcDbLine
 10
-611.4448664225625
 20
687.250836239192
 30
0.0
 11
-875.9449331134869
 21
687.250836239192
 31
0.0
  0
LINE
  5
2AB
330
1F
100
AcDbEntity
  8
C-0
  6
Continuous
 62
     3
370
    13
100
AcDbLine
 10
-601.4453153490985
 20
697.2503873126573
 30
0.0
 11
-875.9449331134869
 21
697.2503873126573
 31
0.0
  0
LINE
  5
2AC
330
1F
100
AcDbEntity
  8
C-0
  6
Continuous
 62
     3
370
    13
100
AcDbLine
 10
-593.9449088408179
 20
704.7507938209367
 30
0.0
 11
-875.9449331134869
 21
704.7507938209367
 31
0.0
  0
LINE
  5
2AD
330
1F
100
AcDbEntity
  8
C-0
  6
Continuous
 62
     3
370
    13
100
AcDbLine
 10
-582.945006284977
 20
715.7502009079906
 30
0.0
 11
-875.9449331134869
 21
715.7502009079906
 31
0.0
  0
LINE
  5
2AE
330
1F
100
AcDbEntity
  8
C-0
  6
Continuous
 62
     3
370
    13
100
AcDbLine
 10
-575.4450952454846
 20
723.2506074162711
 30
0.0
 11
-875.9449331134869
 21
723.2506074162711
 31
0.0
  0
LINE
  5
2AF
330
1F
100
AcDbEntity
  8
C-0
  6
Continuous
 62
     3
370
    13
100
AcDbLine
 10
-563.4448412072669
 20
735.2508614544888
 30
0.0
 11
-875.9449331134869
 21
735.2508614544888
 31
0.0
  0
LINE
  5
2B0
330
1F
100
AcDbEntity
  8
C-0
  6
Continuous
 62
     3
370
    13
100
AcDbLine
 10
-555.9454256365626
 20
742.7512679627682
 30
0.0
 11
-875.9449331134869
 21
742.7512679627682
 31
0.0
  0
LINE
  5
2B1
330
1F
100
AcDbEntity
  8
C-0
  6
Continuous
 62
     3
370
    13
100
AcDbLine
 10
-542.9453155847551
 20
755.7503870770006
 30
0.0
 11
-875.9449331134869
 21
755.7503870770006
 31
0.0
  0
LINE
  5
2B2
330
1F
100
AcDbEntity
  8
C-0
  6
Continuous
 62
     3
370
    13
100
AcDbLine
 10
-535.4449090764757
 20
763.2498026477049
 30
0.0
 11
-875.9449331134869
 21
763.2498026477049
 31
0.0
  0
LINE
  5
2B3
330
1F
100
AcDbEntity
  8
C-0
  6
Continuous
 62
     3
370
    13
100
AcDbLine
 10
-521.4449430110795
 20
777.2507596506762
 30
0.0
 11
-875.9449331134869
 21
777.2507596506762
 31
0.0
  0
LINE
  5
2B4
330
1F
100
AcDbEntity
  8
C-0
  6
Continuous
 62
     3
370
    13
100
AcDbLine
 10
-513.9455274403753
 20
784.7511661589556
 30
0.0
 11
-875.9449331134869
 21
784.7511661589556
 31
0.0
  0
LINE
  5
2B5
330
1F
100
AcDbEntity
  8
C-0
  6
Continuous
 62
     3
370
    13
100
AcDbLine
 10
-498.9452098926023
 20
799.7499973003653
 30
0.0
 11
-875.9449331134869
 21
799.7499973003653
 31
0.0
  0
LINE
  5
2B6
330
1F
100
AcDbEntity
  8
C-0
  6
Continuous
 62
     3
370
    13
100
AcDbLine
 10
-491.4452988531099
 20
807.2504038086458
 30
0.0
 11
-875.9449331134869
 21
807.2504038086458
 31
0.0
  0
LINE
  5
2B7
330
1F
100
AcDbEntity
  8
C-0
  6
Continuous
 62
     3
370
    13
100
AcDbLine
 10
-655.9449001215108
 20
242.7499317877266
 30
0.0
 11
-655.9449001215108
 21
636.7506755211367
 31
0.0
  0
LINE
  5
2B8
330
1F
100
AcDbEntity
  8
C-0
  6
Continuous
 62
     3
370
    13
100
AcDbLine
 10
-650.9456200535652
 20
231.7505247006727
 30
0.0
 11
-819.9450688519033
 21
231.7505247006727
 31
0.0
  0
LINE
  5
2B9
330
1F
100
AcDbEntity
  8
C-0
  6
Continuous
 62
     3
370
    13
100
AcDbLine
 10
-647.945061075223
 20
234.7500927414399
 30
0.0
 11
-647.945061075223
 21
644.7505145674234
 31
0.0
  0
LINE
  5
2BA
330
1F
100
AcDbEntity
  8
C-0
  6
Continuous
 62
     3
370
    13
100
AcDbLine
 10
-640.4451500357305
 20
227.2496862331593
 30
0.0
 11
-640.4451500357305
 21
652.2509210757028
 31
0.0
  0
LINE
  5
2BB
330
1F
100
AcDbEntity
  8
C-0
  6
Continuous
 62
     3
370
    13
100
AcDbLine
 10
-643.4452135452858
 20
224.2501181923933
 30
0.0
 11
-819.9450688519033
 21
224.2501181923933
 31
0.0
  0
LINE
  5
2BC
330
1F
100
AcDbEntity
  8
C-0
  6
Continuous
 62
     3
370
    13
100
AcDbLine
 10
-635.4453744989991
 20
216.2502791461065
 30
0.0
 11
-819.9450688519033
 21
216.2502791461065
 31
0.0
  0
LINE
  5
2BD
330
1F
100
AcDbEntity
  8
C-0
  6
Continuous
 62
     3
370
    13
100
AcDbLine
 10
-632.4453109894449
 20
219.2508381244488
 30
0.0
 11
-632.4453109894449
 21
660.2497691844144
 31
0.0
  0
LINE
  5
2BE
330
1F
100
AcDbEntity
  8
C-0
  6
Continuous
 62
     3
370
    13
100
AcDbLine
 10
-624.9453999499525
 20
211.7504316161683
 30
0.0
 11
-624.9453999499525
 21
667.7511666302701
 31
0.0
  0
LINE
  5
2BF
330
1F
100
AcDbEntity
  8
C-0
  6
Continuous
 62
     3
370
    13
100
AcDbLine
 10
-627.9449679907185
 20
208.7508635754011
 30
0.0
 11
-819.9450688519033
 21
208.7508635754011
 31
0.0
  0
LINE
  5
2C0
330
1F
100
AcDbEntity
  8
C-0
  6
Continuous
 62
     3
370
    13
100
AcDbLine
 10
-618.9452729308431
 20
199.7501775779506
 30
0.0
 11
-875.9449331134869
 21
199.7501775779506
 31
0.0
  0
LINE
  5
2C1
330
1F
100
AcDbEntity
  8
C-0
  6
Continuous
 62
     3
370
    13
100
AcDbLine
 10
-615.945209421289
 20
202.7497456187166
 30
0.0
 11
-615.945209421289
 21
676.7508616901455
 31
0.0
  0
LINE
  5
2C2
330
1F
100
AcDbEntity
  8
C-0
  6
Continuous
 62
     3
370
    13
100
AcDbLine
 10
-611.4448664225625
 20
192.24977106967
 30
0.0
 11
-875.9449331134869
 21
192.24977106967
 31
0.0
  0
LINE
  5
2C3
330
1F
100
AcDbEntity
  8
C-0
  6
Continuous
 62
     3
370
    13
100
AcDbLine
 10
-608.4452983817965
 20
195.2503300480123
 30
0.0
 11
-608.4452983817965
 21
684.2502772608498
 31
0.0
  0
LINE
  5
2C4
330
1F
100
AcDbEntity
  8
C-0
  6
Continuous
 62
     3
370
    13
100
AcDbLine
 10
-601.4453153490985
 20
182.2502199962059
 30
0.0
 11
-875.9449331134869
 21
182.2502199962059
 31
0.0
  0
LINE
  5
2C5
330
1F
100
AcDbEntity
  8
C-0
  6
Continuous
 62
     3
370
    13
100
AcDbLine
 10
-598.4452518395443
 20
185.2497880369719
 30
0.0
 11
-598.4452518395443
 21
694.2508192718901
 31
0.0
  0
LINE
  5
2C6
330
1F
100
AcDbEntity
  8
C-0
  6
Continuous
 62
     3
370
    13
100
AcDbLine
 10
-590.9453408000519
 20
177.7503724662677
 30
0.0
 11
-590.9453408000519
 21
701.7502348425955
 31
0.0
  0
LINE
  5
2C7
330
1F
100
AcDbEntity
  8
C-0
  6
Continuous
 62
     3
370
    13
100
AcDbLine
 10
-579.9449427754229
 20
166.7499744416386
 30
0.0
 11
-579.9449427754229
 21
712.7506328672234
 31
0.0
  0
LINE
  5
2C8
330
1F
100
AcDbEntity
  8
C-0
  6
Continuous
 62
     3
370
    13
100
AcDbLine
 10
-572.4455272047186
 20
159.2495679333592
 30
0.0
 11
-572.4455272047186
 21
720.251039375504
 31
0.0
  0
LINE
  5
2C9
330
1F
100
AcDbEntity
  8
C-0
  6
Continuous
 62
     3
370
    13
100
AcDbLine
 10
-560.4452731664998
 20
147.2493138951404
 30
0.0
 11
-560.4452731664998
 21
732.2512934137217
 31
0.0
  0
LINE
  5
2CA
330
1F
100
AcDbEntity
  8
C-0
  6
Continuous
 62
     3
370
    13
100
AcDbLine
 10
-563.4448412072669
 20
144.2507367919495
 30
0.0
 11
-875.9449331134869
 21
144.2507367919495
 31
0.0
  0
LINE
  5
2CB
330
1F
100
AcDbEntity
  8
C-0
  6
Continuous
 62
     3
370
    13
100
AcDbLine
 10
-552.9453621270073
 20
139.7498983244361
 30
0.0
 11
-552.9453621270073
 21
739.7507089844271
 31
0.0
  0
LINE
  5
2CC
330
1F
100
AcDbEntity
  8
C-0
  6
Continuous
 62
     3
370
    13
100
AcDbLine
 10
-555.9454256365626
 20
136.7493393460938
 30
0.0
 11
-875.9449331134869
 21
136.7493393460938
 31
0.0
  0
LINE
  5
2CD
330
1F
100
AcDbEntity
  8
C-0
  6
Continuous
 62
     3
370
    13
100
AcDbLine
 10
-539.945252075201
 20
126.7507792102049
 30
0.0
 11
-539.945252075201
 21
752.7498280986583
 31
0.0
  0
LINE
  5
2CE
330
1F
100
AcDbEntity
  8
C-0
  6
Continuous
 62
     3
370
    13
100
AcDbLine
 10
-542.9453155847551
 20
123.7502202318626
 30
0.0
 11
-875.9449331134869
 21
123.7502202318626
 31
0.0
  0
LINE
  5
2CF
330
1F
100
AcDbEntity
  8
C-0
  6
Continuous
 62
     3
370
    13
100
AcDbLine
 10
-535.4449090764757
 20
116.2508046611583
 30
0.0
 11
-875.9449331134869
 21
116.2508046611583
 31
0.0
  0
LINE
  5
2D0
330
1F
100
AcDbEntity
  8
C-0
  6
Continuous
 62
     3
370
    13
100
AcDbLine
 10
-532.4453410357086
 20
119.2493817643492
 30
0.0
 11
-532.4453410357086
 21
760.251225544514
 31
0.0
  0
LINE
  5
2D1
330
1F
100
AcDbEntity
  8
C-0
  6
Continuous
 62
     3
370
    13
100
AcDbLine
 10
-518.4453749703135
 20
105.2504066365293
 30
0.0
 11
-518.4453749703135
 21
774.251191609909
 31
0.0
  0
LINE
  5
2D2
330
1F
100
AcDbEntity
  8
C-0
  6
Continuous
 62
     3
370
    13
100
AcDbLine
 10
-521.4449430110795
 20
102.2508385957622
 30
0.0
 11
-875.9449331134869
 21
102.2508385957622
 31
0.0
  0
LINE
  5
2D3
330
1F
100
AcDbEntity
  8
C-0
  6
Continuous
 62
     3
370
    13
100
AcDbLine
 10
-513.9455274403753
 20
94.75043208748275
 30
0.0
 11
-875.9449331134869
 21
94.75043208748275
 31
0.0
  0
LINE
  5
2D4
330
1F
100
AcDbEntity
  8
C-0
  6
Continuous
 62
     3
370
    13
100
AcDbLine
 10
-510.944968462033
 20
97.75000012824876
 30
0.0
 11
-510.944968462033
 21
781.7506071806133
 31
0.0
  0
LINE
  5
2D5
330
1F
100
AcDbEntity
  8
C-0
  6
Continuous
 62
     3
370
    13
100
AcDbLine
 10
-495.9451463830482
 20
82.75017804926392
 30
0.0
 11
-495.9451463830482
 21
796.7504292595981
 31
0.0
  0
LINE
  5
2D6
330
1F
100
AcDbEntity
  8
C-0
  6
Continuous
 62
     3
370
    13
100
AcDbLine
 10
-498.9452098926023
 20
79.75061000849792
 30
0.0
 11
-875.9449331134869
 21
79.75061000849792
 31
0.0
  0
LINE
  5
2D7
330
1F
100
AcDbEntity
  8
C-0
  6
Continuous
 62
     3
370
    13
100
AcDbLine
 10
-491.4452988531099
 20
72.25020350021737
 30
0.0
 11
-875.9449331134869
 21
72.25020350021737
 31
0.0
  0
LINE
  5
2D8
330
1F
100
AcDbEntity
  8
C-0
  6
Continuous
 62
     3
370
    13
100
AcDbLine
 10
-488.4452353435557
 20
75.24977154098451
 30
0.0
 11
-488.4452353435557
 21
804.2508357678787
 31
0.0
  0
LINE
  5
2D9
330
1F
100
AcDbEntity
  8
C-0
  6
Continuous
 62
     3
370
    13
100
AcDbLine
 10
-658.9454590998531
 20
239.7503637469595
 30
0.0
 11
-872.9453650727197
 21
239.7503637469595
 31
0.0
  0
LINE
  5
2DA
330
1F
100
AcDbEntity
  8
C-0
  6
Continuous
 62
     3
370
    13
100
AcDbLine
 10
-875.9449331134869
 20
236.7507957061935
 30
0.0
 11
-875.9449331134869
 21
67.75035597027909
 31
0.0
  0
LINE
  5
2DB
330
1F
100
AcDbEntity
  8
C-0
  6
Continuous
 62
     3
370
    13
100
AcDbLine
 10
-872.9453650727197
 20
639.7502435619027
 30
0.0
 11
-658.9454590998531
 21
639.7502435619027
 31
0.0
  0
LINE
  5
2DC
330
1F
100
AcDbEntity
  8
C-0
  6
Continuous
 62
     3
370
    13
100
AcDbLine
 10
-872.9453650727197
 20
814.7508103169253
 30
0.0
 11
-427.9450280832469
 21
814.7508103169253
 31
0.0
  0
LINE
  5
2DD
330
1F
100
AcDbEntity
  8
C-0
  6
Continuous
 62
     3
370
    13
100
AcDbLine
 10
-875.9449331134869
 20
811.750251338583
 30
0.0
 11
-875.9449331134869
 21
642.7498116026698
 31
0.0
  0
LINE
  5
2DE
330
1F
100
AcDbEntity
  8
C-0
  6
Continuous
 62
     3
370
    13
100
AcDbLine
 10
-308.4448930518016
 20
674.0376746086724
 30
0.0
 11
-300.9449820123092
 21
666.5372681003919
 31
0.0
  0
LINE
  5
2DF
330
1F
100
AcDbEntity
  8
C-0
  6
Continuous
 62
     3
370
    13
100
AcDbLine
 10
-337.9451046717639
 20
703.5378862286348
 30
0.0
 11
-330.4451936322715
 21
696.0364887827791
 31
0.0
  0
LINE
  5
2E0
330
1F
100
AcDbEntity
  8
C-0
  6
Continuous
 62
     3
370
    13
100
AcDbLine
 10
-367.4453162917263
 20
733.037106911022
 30
0.0
 11
-359.9449097834469
 21
725.5367004027426
 31
0.0
  0
LINE
  5
2E1
330
1F
100
AcDbEntity
  8
C-0
  6
Continuous
 62
     3
370
    13
100
AcDbLine
 10
-422.44532453972
 20
788.0371151590168
 30
0.0
 11
-414.9449180314406
 21
780.5376995883114
 31
0.0
  0
LINE
  5
2E2
330
1F
100
AcDbEntity
  8
C-0
  6
Continuous
 62
     3
370
    13
100
AcDbLine
 10
-395.9451764293118
 20
761.5374625173956
 30
0.0
 11
-388.4452653898194
 21
754.0370560091162
 31
0.0
  0
LINE
  5
2E3
330
1F
100
AcDbEntity
  8
C-0
  6
Continuous
 62
     3
370
    13
100
AcDbLine
 10
-472.4450617821941
 20
799.7499973003653
 30
0.0
 11
-464.9451507427017
 21
799.7499973003653
 31
0.0
  0
LINE
  5
2E4
330
1F
100
AcDbEntity
  8
C-0
  6
Continuous
 62
     3
370
    13
100
AcDbLine
 10
-447.9451211677525
 20
799.7499973003653
 30
0.0
 11
-440.4452101282601
 21
799.7499973003653
 31
0.0
  0
LINE
  5
2E5
330
1F
100
AcDbEntity
  8
C-0
  6
Continuous
 62
     3
370
    13
100
AcDbLine
 10
-308.4448930518016
 20
79.75061000849792
 30
0.0
 11
-300.9449820123092
 21
79.75061000849792
 31
0.0
  0
LINE
  5
2E6
330
1F
100
AcDbEntity
  8
C-0
  6
Continuous
 62
     3
370
    13
100
AcDbLine
 10
-337.9451046717639
 20
79.75061000849792
 30
0.0
 11
-330.4451936322715
 21
79.75061000849792
 31
0.0
  0
LINE
  5
2E7
330
1F
100
AcDbEntity
  8
C-0
  6
Continuous
 62
     3
370
    13
100
AcDbLine
 10
-367.4453162917263
 20
79.75061000849792
 30
0.0
 11
-359.9449097834469
 21
79.75061000849792
 31
0.0
  0
LINE
  5
2E8
330
1F
100
AcDbEntity
  8
C-0
  6
Continuous
 62
     3
370
    13
100
AcDbLine
 10
-395.9451764293118
 20
79.75061000849792
 30
0.0
 11
-388.4452653898194
 21
79.75061000849792
 31
0.0
  0
LINE
  5
2E9
330
1F
100
AcDbEntity
  8
C-0
  6
Continuous
 62
     3
370
    13
100
AcDbLine
 10
-422.44532453972
 20
79.75061000849792
 30
0.0
 11
-414.9449180314406
 21
79.75061000849792
 31
0.0
  0
LINE
  5
2EA
330
1F
100
AcDbEntity
  8
C-0
  6
Continuous
 62
     3
370
    13
100
AcDbLine
 10
-472.4450617821941
 20
79.75061000849792
 30
0.0
 11
-464.9451507427017
 21
79.75061000849792
 31
0.0
  0
LINE
  5
2EB
330
1F
100
AcDbEntity
  8
C-0
  6
Continuous
 62
     3
370
    13
100
AcDbLine
 10
-447.9451211677525
 20
79.75061000849792
 30
0.0
 11
-440.4452101282601
 21
79.75061000849792
 31
0.0
  0
LINE
  5
2EC
330
1F
100
AcDbEntity
  8
C-0
  6
Continuous
 62
     3
370
    13
100
AcDbLine
 10
-593.9449088408179
 20
174.7498134879254
 30
0.0
 11
-875.9449331134869
 21
174.7498134879254
 31
0.0
  0
LINE
  5
2ED
330
1F
100
AcDbEntity
  8
C-0
  6
Continuous
 62
     3
370
    13
100
AcDbLine
 10
-575.4450952454846
 20
156.2499998925921
 30
0.0
 11
-875.9449331134869
 21
156.2499998925921
 31
0.0
  0
LINE
  5
2EE
330
1F
100
AcDbEntity
  8
C-0
  6
Continuous
 62
     3
370
    13
100
AcDbLine
 10
-582.945006284977
 20
163.7504064008715
 30
0.0
 11
-875.9449331134869
 21
163.7504064008715
 31
0.0
  0
LINE
  5
2EF
330
1F
100
AcDbEntity
  8
C-0
  6
Continuous
 62
     3
370
    13
100
AcDbLine
 10
-733.4451369567688
 20
163.7504064008715
 30
0.0
 11
-733.4451369567688
 21
156.2499998925921
 31
0.0
  0
ARC
  5
2F0
330
1F
100
AcDbEntity
  8
C-0
  6
Continuous
 62
     3
370
    13
100
AcDbCircle
 10
-658.9454590998531
 20
636.7506755211367
 30
0.0
 40
3.000000124387299
100
AcDbArc
 50
0.0
 51
90.0
  0
ARC
  5
2F1
330
1F
100
AcDbEntity
  8
C-0
  6
Continuous
 62
     3
370
    13
100
AcDbCircle
 10
-650.9456200535652
 20
644.7505145674234
 30
0.0
 40
3.000000124387299
100
AcDbArc
 50
0.0
 51
90.0
  0
ARC
  5
2F2
330
1F
100
AcDbEntity
  8
C-0
  6
Continuous
 62
     3
370
    13
100
AcDbCircle
 10
-643.4452135452858
 20
652.2509210757028
 30
0.0
 40
3.000000124387299
100
AcDbArc
 50
0.0
 51
90.0
  0
ARC
  5
2F3
330
1F
100
AcDbEntity
  8
C-0
  6
Continuous
 62
     3
370
    13
100
AcDbCircle
 10
-635.4453744989991
 20
660.2497691844144
 30
0.0
 40
3.000000124387299
100
AcDbArc
 50
0.0
 51
90.0
  0
ARC
  5
2F4
330
1F
100
AcDbEntity
  8
C-0
  6
Continuous
 62
     3
370
    13
100
AcDbCircle
 10
-627.9449679907185
 20
667.7511666302701
 30
0.0
 40
3.000000124387299
100
AcDbArc
 50
0.0
 51
90.0
  0
ARC
  5
2F5
330
1F
100
AcDbEntity
  8
C-0
  6
Continuous
 62
     3
370
    13
100
AcDbCircle
 10
-618.9452729308431
 20
676.7508616901455
 30
0.0
 40
3.000000124387299
100
AcDbArc
 50
0.0
 51
90.0
  0
ARC
  5
2F6
330
1F
100
AcDbEntity
  8
C-0
  6
Continuous
 62
     3
370
    13
100
AcDbCircle
 10
-611.4448664225625
 20
684.2502772608498
 30
0.0
 40
3.000000124387299
100
AcDbArc
 50
0.0
 51
90.0
  0
ARC
  5
2F7
330
1F
100
AcDbEntity
  8
C-0
  6
Continuous
 62
     3
370
    13
100
AcDbCircle
 10
-601.4453153490985
 20
694.2508192718901
 30
0.0
 40
3.000000124387299
100
AcDbArc
 50
0.0
 51
90.0
  0
ARC
  5
2F8
330
1F
100
AcDbEntity
  8
C-0
  6
Continuous
 62
     3
370
    13
100
AcDbCircle
 10
-593.9449088408179
 20
701.7502348425955
 30
0.0
 40
3.000000124387299
100
AcDbArc
 50
0.0
 51
90.0
  0
ARC
  5
2F9
330
1F
100
AcDbEntity
  8
C-0
  6
Continuous
 62
     3
370
    13
100
AcDbCircle
 10
-582.945006284977
 20
712.7506328672234
 30
0.0
 40
3.000000124387299
100
AcDbArc
 50
0.0
 51
90.0
  0
ARC
  5
2FA
330
1F
100
AcDbEntity
  8
C-0
  6
Continuous
 62
     3
370
    13
100
AcDbCircle
 10
-575.4450952454846
 20
720.251039375504
 30
0.0
 40
3.000000124387299
100
AcDbArc
 50
0.0
 51
90.0
  0
ARC
  5
2FB
330
1F
100
AcDbEntity
  8
C-0
  6
Continuous
 62
     3
370
    13
100
AcDbCircle
 10
-563.4448412072669
 20
732.2512934137217
 30
0.0
 40
3.000000124387299
100
AcDbArc
 50
0.0
 51
90.0
  0
ARC
  5
2FC
330
1F
100
AcDbEntity
  8
C-0
  6
Continuous
 62
     3
370
    13
100
AcDbCircle
 10
-555.9454256365626
 20
739.7507089844271
 30
0.0
 40
3.000000124387299
100
AcDbArc
 50
0.0
 51
90.0
  0
ARC
  5
2FD
330
1F
100
AcDbEntity
  8
C-0
  6
Continuous
 62
     3
370
    13
100
AcDbCircle
 10
-542.9453155847551
 20
752.7498280986583
 30
0.0
 40
3.000000124387299
100
AcDbArc
 50
0.0
 51
90.0
  0
ARC
  5
2FE
330
1F
100
AcDbEntity
  8
C-0
  6
Continuous
 62
     3
370
    13
100
AcDbCircle
 10
-535.4449090764757
 20
760.251225544514
 30
0.0
 40
3.000000124387299
100
AcDbArc
 50
0.0
 51
90.0
  0
ARC
  5
2FF
330
1F
100
AcDbEntity
  8
C-0
  6
Continuous
 62
     3
370
    13
100
AcDbCircle
 10
-521.4449430110795
 20
774.251191609909
 30
0.0
 40
3.000000124387299
100
AcDbArc
 50
0.0
 51
90.0
  0
ARC
  5
300
330
1F
100
AcDbEntity
  8
C-0
  6
Continuous
 62
     3
370
    13
100
AcDbCircle
 10
-513.9455274403753
 20
781.7506071806133
 30
0.0
 40
3.000000124387299
100
AcDbArc
 50
0.0
 51
90.0
  0
ARC
  5
301
330
1F
100
AcDbEntity
  8
C-0
  6
Continuous
 62
     3
370
    13
100
AcDbCircle
 10
-498.9452098926023
 20
796.7504292595981
 30
0.0
 40
3.000000124387299
100
AcDbArc
 50
0.0
 51
90.0
  0
ARC
  5
302
330
1F
100
AcDbEntity
  8
C-0
  6
Continuous
 62
     3
370
    13
100
AcDbCircle
 10
-491.4452988531099
 20
804.2508357678787
 30
0.0
 40
3.000000124387299
100
AcDbArc
 50
0.0
 51
90.0
  0
ARC
  5
303
330
1F
100
AcDbEntity
  8
C-0
  6
Continuous
 62
     3
370
    13
100
AcDbCircle
 10
-658.9454590998531
 20
242.7499317877266
 30
0.0
 40
3.000000124387299
100
AcDbArc
 50
270.0
 51
0.0
  0
ARC
  5
304
330
1F
100
AcDbEntity
  8
C-0
  6
Continuous
 62
     3
370
    13
100
AcDbCircle
 10
-650.9456200535652
 20
234.7500927414399
 30
0.0
 40
3.000000124387299
100
AcDbArc
 50
270.0
 51
0.0
  0
ARC
  5
305
330
1F
100
AcDbEntity
  8
C-0
  6
Continuous
 62
     3
370
    13
100
AcDbCircle
 10
-643.4452135452858
 20
227.2496862331593
 30
0.0
 40
3.000000124387299
100
AcDbArc
 50
270.0
 51
0.0
  0
ARC
  5
306
330
1F
100
AcDbEntity
  8
C-0
  6
Continuous
 62
     3
370
    13
100
AcDbCircle
 10
-635.4453744989991
 20
219.2508381244488
 30
0.0
 40
3.000000124387299
100
AcDbArc
 50
270.0
 51
0.0
  0
ARC
  5
307
330
1F
100
AcDbEntity
  8
C-0
  6
Continuous
 62
     3
370
    13
100
AcDbCircle
 10
-627.9449679907185
 20
211.7504316161683
 30
0.0
 40
3.000000124387299
100
AcDbArc
 50
270.0
 51
0.0
  0
ARC
  5
308
330
1F
100
AcDbEntity
  8
C-0
  6
Continuous
 62
     3
370
    13
100
AcDbCircle
 10
-618.9452729308431
 20
202.7497456187166
 30
0.0
 40
3.000000124387299
100
AcDbArc
 50
270.0
 51
0.0
  0
ARC
  5
309
330
1F
100
AcDbEntity
  8
C-0
  6
Continuous
 62
     3
370
    13
100
AcDbCircle
 10
-611.4448664225625
 20
195.2503300480123
 30
0.0
 40
3.000000124387299
100
AcDbArc
 50
270.0
 51
0.0
  0
ARC
  5
30A
330
1F
100
AcDbEntity
  8
C-0
  6
Continuous
 62
     3
370
    13
100
AcDbCircle
 10
-601.4453153490985
 20
185.2497880369719
 30
0.0
 40
3.000000124387299
100
AcDbArc
 50
270.0
 51
0.0
  0
ARC
  5
30B
330
1F
100
AcDbEntity
  8
C-0
  6
Continuous
 62
     3
370
    13
100
AcDbCircle
 10
-593.9449088408179
 20
177.7503724662677
 30
0.0
 40
3.000000124387299
100
AcDbArc
 50
270.0
 51
0.0
  0
ARC
  5
30C
330
1F
100
AcDbEntity
  8
C-0
  6
Continuous
 62
     3
370
    13
100
AcDbCircle
 10
-582.945006284977
 20
166.7499744416386
 30
0.0
 40
3.000000124387299
100
AcDbArc
 50
270.0
 51
0.0
  0
ARC
  5
30D
330
1F
100
AcDbEntity
  8
C-0
  6
Continuous
 62
     3
370
    13
100
AcDbCircle
 10
-575.4450952454846
 20
159.2495679333592
 30
0.0
 40
3.000000124387299
100
AcDbArc
 50
270.0
 51
0.0
  0
ARC
  5
30E
330
1F
100
AcDbEntity
  8
C-0
  6
Continuous
 62
     3
370
    13
100
AcDbCircle
 10
-563.4448412072669
 20
147.2493138951404
 30
0.0
 40
3.000000124387299
100
AcDbArc
 50
270.0
 51
0.0
  0
ARC
  5
30F
330
1F
100
AcDbEntity
  8
C-0
  6
Continuous
 62
     3
370
    13
100
AcDbCircle
 10
-555.9454256365626
 20
139.7498983244361
 30
0.0
 40
3.000000124387299
100
AcDbArc
 50
270.0
 51
0.0
  0
ARC
  5
310
330
1F
100
AcDbEntity
  8
C-0
  6
Continuous
 62
     3
370
    13
100
AcDbCircle
 10
-542.9453155847551
 20
126.7507792102049
 30
0.0
 40
3.000000124387299
100
AcDbArc
 50
270.0
 51
0.0
  0
ARC
  5
311
330
1F
100
AcDbEntity
  8
C-0
  6
Continuous
 62
     3
370
    13
100
AcDbCircle
 10
-535.4449090764757
 20
119.2493817643492
 30
0.0
 40
3.000000124387299
100
AcDbArc
 50
270.0
 51
0.0
  0
ARC
  5
312
330
1F
100
AcDbEntity
  8
C-0
  6
Continuous
 62
     3
370
    13
100
AcDbCircle
 10
-521.4449430110795
 20
105.2504066365293
 30
0.0
 40
3.000000124387299
100
AcDbArc
 50
270.0
 51
0.0
  0
ARC
  5
313
330
1F
100
AcDbEntity
  8
C-0
  6
Continuous
 62
     3
370
    13
100
AcDbCircle
 10
-513.9455274403753
 20
97.75000012824876
 30
0.0
 40
3.000000124387299
100
AcDbArc
 50
270.0
 51
0.0
  0
ARC
  5
314
330
1F
100
AcDbEntity
  8
C-0
  6
Continuous
 62
     3
370
    13
100
AcDbCircle
 10
-498.9452098926023
 20
82.75017804926392
 30
0.0
 40
3.000000124387299
100
AcDbArc
 50
270.0
 51
0.0
  0
ARC
  5
315
330
1F
100
AcDbEntity
  8
C-0
  6
Continuous
 62
     3
370
    13
100
AcDbCircle
 10
-491.4452988531099
 20
75.24977154098451
 30
0.0
 40
3.000000124387299
100
AcDbArc
 50
270.0
 51
0.0
  0
ARC
  5
316
330
1F
100
AcDbEntity
  8
C-0
  6
Continuous
 62
     3
370
    13
100
AcDbCircle
 10
-280.9453843965917
 20
67.75035597027909
 30
0.0
 40
3.000000124387299
100
AcDbArc
 50
270.0
 51
0.0
  0
ARC
  5
317
330
1F
100
AcDbEntity
  8
C-0
  6
Continuous
 62
     3
370
    13
100
AcDbCircle
 10
-872.9453650727197
 20
67.75035597027909
 30
0.0
 40
3.000000124387299
100
AcDbArc
 50
180.0
 51
270.0
  0
ARC
  5
318
330
1F
100
AcDbEntity
  8
C-0
  6
Continuous
 62
     3
370
    13
100
AcDbCircle
 10
-872.9453650727197
 20
236.7507957061935
 30
0.0
 40
3.000000124387299
100
AcDbArc
 50
90.0
 51
180.0
  0
ARC
  5
319
330
1F
100
AcDbEntity
  8
C-0
  6
Continuous
 62
     3
370
    13
100
AcDbCircle
 10
-872.9453650727197
 20
642.7498116026698
 30
0.0
 40
3.000000124387299
100
AcDbArc
 50
180.0
 51
270.0
  0
ARC
  5
31A
330
1F
100
AcDbEntity
  8
C-0
  6
Continuous
 62
     3
370
    13
100
AcDbCircle
 10
-872.9453650727197
 20
811.750251338583
 30
0.0
 40
3.000000124387299
100
AcDbArc
 50
90.0
 51
180.0
  0
ARC
  5
31B
330
1F
100
AcDbEntity
  8
C-0
  6
Continuous
 62
     3
370
    13
100
AcDbCircle
 10
-882.9449161461844
 20
67.75035597027909
 30
0.0
 40
3.000000124387299
100
AcDbArc
 50
270.0
 51
0.0
  0
LINE
  5
31C
330
1F
100
AcDbEntity
  8
C-3
  6
Continuous
 62
     4
370
    13
100
AcDbLine
 10
-844.944937473141
 20
229.7508126734954
 30
0.0
 11
-854.9449840153932
 21
229.7508126734954
 31
0.0
  0
LINE
  5
31D
330
1F
100
AcDbEntity
  8
C-3
  6
Continuous
 62
     4
370
    13
100
AcDbLine
 10
-844.944937473141
 20
209.7497286514147
 30
0.0
 11
-854.9449840153932
 21
209.7497286514147
 31
0.0
  0
LINE
  5
31E
330
1F
100
AcDbEntity
  8
C-3
  6
Continuous
 62
     4
370
    13
100
AcDbLine
 10
-853.5839312555669
 20
221.8510583223247
 30
0.0
 11
-853.5839312555669
 21
217.6494830025854
 31
0.0
  0
LINE
  5
31F
330
1F
100
AcDbEntity
  8
C-3
  6
Continuous
 62
     4
370
    13
100
AcDbLine
 10
-853.5839312555669
 20
217.6494830025854
 30
0.0
 11
-849.9452084786606
 21
215.5486953427157
 31
0.0
  0
LINE
  5
320
330
1F
100
AcDbEntity
  8
C-3
  6
Continuous
 62
     4
370
    13
100
AcDbLine
 10
-849.9452084786606
 20
215.5486953427157
 30
0.0
 11
-846.3059902329667
 21
217.6494830025854
 31
0.0
  0
LINE
  5
321
330
1F
100
AcDbEntity
  8
C-3
  6
Continuous
 62
     4
370
    13
100
AcDbLine
 10
-846.3059902329667
 20
217.6494830025854
 30
0.0
 11
-846.3059902329667
 21
221.8510583223247
 31
0.0
  0
LINE
  5
322
330
1F
100
AcDbEntity
  8
C-3
  6
Continuous
 62
     4
370
    13
100
AcDbLine
 10
-846.3059902329667
 20
221.8510583223247
 30
0.0
 11
-849.9452084786606
 21
223.9518459821943
 31
0.0
  0
LINE
  5
323
330
1F
100
AcDbEntity
  8
C-3
  6
Continuous
 62
     4
370
    13
100
AcDbLine
 10
-849.9452084786606
 20
223.9518459821943
 30
0.0
 11
-853.5839312555669
 21
221.8510583223247
 31
0.0
  0
ARC
  5
324
330
1F
100
AcDbEntity
  8
C-3
  6
Continuous
 62
     4
370
    13
100
AcDbCircle
 10
-844.944937473141
 20
219.750270662455
 30
0.0
 40
9.999947835579801
100
AcDbArc
 50
269.9995727539062
 51
90.0004272460937
  0
ARC
  5
325
330
1F
100
AcDbEntity
  8
C-3
  6
Continuous
 62
     4
370
    13
100
AcDbCircle
 10
-854.9449840153932
 20
219.750270662455
 30
0.0
 40
9.999947835579801
100
AcDbArc
 50
89.99957275390622
 51
270.0004272460938
  0
CIRCLE
  5
326
330
1F
100
AcDbEntity
  8
C-3
  6
Continuous
 62
     4
370
    13
100
AcDbCircle
 10
-849.9452084786606
 20
219.750270662455
 30
0.0
 40
7.962500828113335
  0
ARC
  5
327
330
1F
100
AcDbEntity
  8
C-3
  6
Continuous
 62
     4
370
    13
100
AcDbCircle
 10
-844.944937473141
 20
219.750270662455
 30
0.0
 40
5.999947024588419
100
AcDbArc
 50
272.293701171875
 51
87.706298828125
  0
ARC
  5
328
330
1F
100
AcDbEntity
  8
C-3
  6
Continuous
 62
     4
370
    13
100
AcDbCircle
 10
-854.9449840153932
 20
219.750270662455
 30
0.0
 40
5.999947024588419
100
AcDbArc
 50
92.29370117187497
 51
267.706298828125
  0
LINE
  5
329
330
1F
100
AcDbEntity
  8
C-3
  6
Continuous
 62
     4
370
    13
100
AcDbLine
 10
-844.944937473141
 20
649.7497946353667
 30
0.0
 11
-854.9449840153932
 21
649.7497946353667
 31
0.0
  0
LINE
  5
32A
330
1F
100
AcDbEntity
  8
C-3
  6
Continuous
 62
     4
370
    13
100
AcDbLine
 10
-844.944937473141
 20
669.7508786574474
 30
0.0
 11
-854.9449840153932
 21
669.7508786574474
 31
0.0
  0
LINE
  5
32B
330
1F
100
AcDbEntity
  8
C-3
  6
Continuous
 62
     4
370
    13
100
AcDbLine
 10
-853.5839312555669
 20
657.6495489865374
 30
0.0
 11
-853.5839312555669
 21
661.8511243062767
 31
0.0
  0
LINE
  5
32C
330
1F
100
AcDbEntity
  8
C-3
  6
Continuous
 62
     4
370
    13
100
AcDbLine
 10
-853.5839312555669
 20
661.8511243062767
 30
0.0
 11
-849.9452084786606
 21
663.9519119661463
 31
0.0
  0
LINE
  5
32D
330
1F
100
AcDbEntity
  8
C-3
  6
Continuous
 62
     4
370
    13
100
AcDbLine
 10
-849.9452084786606
 20
663.9519119661463
 30
0.0
 11
-846.3059902329667
 21
661.8511243062767
 31
0.0
  0
LINE
  5
32E
330
1F
100
AcDbEntity
  8
C-3
  6
Continuous
 62
     4
370
    13
100
AcDbLine
 10
-846.3059902329667
 20
661.8511243062767
 30
0.0
 11
-846.3059902329667
 21
657.6495489865374
 31
0.0
  0
LINE
  5
32F
330
1F
100
AcDbEntity
  8
C-3
  6
Continuous
 62
     4
370
    13
100
AcDbLine
 10
-846.3059902329667
 20
657.6495489865374
 30
0.0
 11
-849.9452084786606
 21
655.5487613266678
 31
0.0
  0
LINE
  5
330
330
1F
100
AcDbEntity
  8
C-3
  6
Continuous
 62
     4
370
    13
100
AcDbLine
 10
-849.9452084786606
 20
655.5487613266678
 30
0.0
 11
-853.5839312555669
 21
657.6495489865374
 31
0.0
  0
ARC
  5
331
330
1F
100
AcDbEntity
  8
C-3
  6
Continuous
 62
     4
370
    13
100
AcDbCircle
 10
-854.9449840153932
 20
659.750336646407
 30
0.0
 40
9.999947835579801
100
AcDbArc
 50
89.99957275390625
 51
270.0004272460938
  0
CIRCLE
  5
332
330
1F
100
AcDbEntity
  8
C-3
  6
Continuous
 62
     4
370
    13
100
AcDbCircle
 10
-849.9452084786606
 20
659.750336646407
 30
0.0
 40
7.962500828113335
  0
ARC
  5
333
330
1F
100
AcDbEntity
  8
C-3
  6
Continuous
 62
     4
370
    13
100
AcDbCircle
 10
-844.944937473141
 20
659.750336646407
 30
0.0
 40
5.999947024588419
100
AcDbArc
 50
272.293701171875
 51
87.706298828125
  0
ARC
  5
334
330
1F
100
AcDbEntity
  8
C-3
  6
Continuous
 62
     4
370
    13
100
AcDbCircle
 10
-854.9449840153932
 20
659.750336646407
 30
0.0
 40
5.999947024588419
100
AcDbArc
 50
92.293701171875
 51
267.706298828125
  0
ARC
  5
335
330
1F
100
AcDbEntity
  8
C-3
  6
Continuous
 62
     4
370
    13
100
AcDbCircle
 10
-844.944937473141
 20
659.750336646407
 30
0.0
 40
9.999947835579801
100
AcDbArc
 50
269.9995727539063
 51
90.0004272460938
  0
LINE
  5
336
330
1F
100
AcDbEntity
  8
C-0
  6
Continuous
 62
     3
370
    13
100
AcDbLine
 10
-277.9448254182495
 20
67.75035597027909
 30
0.0
 11
-277.9448254182495
 21
664.7506076519278
 31
0.0
  0
LINE
  5
337
330
1F
100
AcDbEntity
  8
C-0
  6
Continuous
 62
     3
370
    13
100
AcDbLine
 10
-872.9453650727197
 20
64.74979699193796
 30
0.0
 11
-280.9453843965917
 21
64.74979699193796
 31
0.0
  0
LINE
  5
338
330
1F
100
AcDbEntity
  8
C-0
  6
Continuous
 62
     3
370
    13
100
AcDbLine
 10
-280.946084943252
 20
-541.3143850464294
 30
0.0
 11
-290.4452125411342
 21
-541.3143850464294
 31
0.0
  0
LINE
  5
339
330
1F
100
AcDbEntity
  8
C-0
  6
Continuous
 62
     3
370
    13
100
AcDbLine
 10
-279.4458054540809
 20
-509.3140379237073
 30
0.0
 11
-277.9455259649097
 21
-512.3136059644733
 31
0.0
  0
LINE
  5
33A
330
1F
100
AcDbEntity
  8
C-0
  6
Continuous
 62
     3
370
    13
100
AcDbLine
 10
-277.9455259649097
 20
-512.3136059644733
 30
0.0
 11
-280.946084943252
 21
-541.3143850464294
 31
0.0
  0
LINE
  5
33B
330
1F
100
AcDbEntity
  8
C-0
  6
Continuous
 62
     3
370
    13
100
AcDbLine
 10
-654.4443302414237
 20
-509.3140379237073
 30
0.0
 11
-655.9446097305948
 21
-512.3136059644733
 31
0.0
  0
LINE
  5
33C
330
1F
100
AcDbEntity
  8
C-0
  6
Continuous
 62
     3
370
    13
100
AcDbLine
 10
-649.4450501734792
 20
-509.3140379237073
 30
0.0
 11
-647.9447706843081
 21
-512.3136059644733
 31
0.0
  0
LINE
  5
33D
330
1F
100
AcDbEntity
  8
C-0
  6
Continuous
 62
     3
370
    13
100
AcDbLine
 10
-638.944084686857
 20
-509.3140379237073
 30
0.0
 11
-640.4443641760281
 21
-512.3136059644733
 31
0.0
  0
LINE
  5
33E
330
1F
100
AcDbEntity
  8
C-0
  6
Continuous
 62
     3
370
    13
100
AcDbLine
 10
-633.9448046189125
 20
-509.3140379237073
 30
0.0
 11
-632.4445251297414
 21
-512.3136059644733
 31
0.0
  0
LINE
  5
33F
330
1F
100
AcDbEntity
  8
C-0
  6
Continuous
 62
     3
370
    13
100
AcDbLine
 10
-617.4447030507565
 20
-509.3140379237073
 30
0.0
 11
-615.9444235615854
 21
-512.3136059644733
 31
0.0
  0
LINE
  5
340
330
1F
100
AcDbEntity
  8
C-0
  6
Continuous
 62
     3
370
    13
100
AcDbLine
 10
-623.4448300698659
 20
-509.3140379237073
 30
0.0
 11
-624.9441186214614
 21
-512.3136059644733
 31
0.0
  0
LINE
  5
341
330
1F
100
AcDbEntity
  8
C-0
  6
Continuous
 62
     3
370
    13
100
AcDbLine
 10
-655.9446097305948
 20
-512.3136059644733
 30
0.0
 11
-652.9450416898283
 21
-539.314673019252
 31
0.0
  0
LINE
  5
342
330
1F
100
AcDbEntity
  8
C-0
  6
Continuous
 62
     3
370
    13
100
AcDbLine
 10
-599.9447454690119
 20
-509.3140379237073
 30
0.0
 11
-598.4444659798407
 21
-512.3136059644733
 31
0.0
  0
LINE
  5
343
330
1F
100
AcDbEntity
  8
C-0
  6
Continuous
 62
     3
370
    13
100
AcDbLine
 10
-581.4449318736786
 20
-509.3140379237073
 30
0.0
 11
-579.9446523845074
 21
-512.3136059644733
 31
0.0
  0
LINE
  5
344
330
1F
100
AcDbEntity
  8
C-0
  6
Continuous
 62
     3
370
    13
100
AcDbLine
 10
-589.4447709199653
 20
-509.3140379237073
 30
0.0
 11
-590.9450504091365
 21
-512.3136059644733
 31
0.0
  0
LINE
  5
345
330
1F
100
AcDbEntity
  8
C-0
  6
Continuous
 62
     3
370
    13
100
AcDbLine
 10
-580.4450758600893
 20
-512.3136059644733
 30
0.0
 11
-583.4446439008565
 21
-519.3135889971713
 31
0.0
  0
LINE
  5
346
330
1F
100
AcDbEntity
  8
C-0
  6
Continuous
 62
     3
370
    13
100
AcDbLine
 10
-587.4450588927874
 20
-519.3135889971713
 30
0.0
 11
-590.444626933554
 21
-512.3136059644733
 31
0.0
  0
LINE
  5
347
330
1F
100
AcDbEntity
  8
C-0
  6
Continuous
 62
     3
370
    13
100
AcDbLine
 10
-590.444626933554
 20
-512.3136059644733
 30
0.0
 11
-598.9448894554232
 21
-512.3136059644733
 31
0.0
  0
LINE
  5
348
330
1F
100
AcDbEntity
  8
C-0
  6
Continuous
 62
     3
370
    13
100
AcDbLine
 10
-561.9442713271803
 20
-509.3140379237073
 30
0.0
 11
-560.4439918380092
 21
-512.3136059644733
 31
0.0
  0
LINE
  5
349
330
1F
100
AcDbEntity
  8
C-0
  6
Continuous
 62
     3
370
    13
100
AcDbLine
 10
-570.9439663870563
 20
-509.3140379237073
 30
0.0
 11
-572.4442458762275
 21
-512.3136059644733
 31
0.0
  0
LINE
  5
34A
330
1F
100
AcDbEntity
  8
C-0
  6
Continuous
 62
     3
370
    13
100
AcDbLine
 10
-560.9444153135917
 20
-512.3136059644733
 30
0.0
 11
-563.9439833543582
 21
-519.3135889971713
 31
0.0
  0
LINE
  5
34B
330
1F
100
AcDbEntity
  8
C-0
  6
Continuous
 62
     3
370
    13
100
AcDbLine
 10
-568.9442543598784
 20
-519.3135889971713
 30
0.0
 11
-571.9448133382207
 21
-512.3136059644733
 31
0.0
  0
LINE
  5
34C
330
1F
100
AcDbEntity
  8
C-0
  6
Continuous
 62
     3
370
    13
100
AcDbLine
 10
-571.9448133382207
 20
-512.3136059644733
 30
0.0
 11
-580.4450758600893
 21
-512.3136059644733
 31
0.0
  0
LINE
  5
34D
330
1F
100
AcDbEntity
  8
C-0
  6
Continuous
 62
     3
370
    13
100
AcDbLine
 10
-541.4447457046691
 20
-509.3140379237073
 30
0.0
 11
-539.944466215498
 21
-512.3136059644733
 31
0.0
  0
LINE
  5
34E
330
1F
100
AcDbEntity
  8
C-0
  6
Continuous
 62
     3
370
    13
100
AcDbLine
 10
-551.4442967781338
 20
-509.3140379237073
 30
0.0
 11
-552.9445762673049
 21
-512.3136059644733
 31
0.0
  0
LINE
  5
34F
330
1F
100
AcDbEntity
  8
C-0
  6
Continuous
 62
     3
370
    13
100
AcDbLine
 10
-540.4448896910799
 20
-512.3136059644733
 30
0.0
 11
-543.444457731847
 21
-519.3135889971713
 31
0.0
  0
LINE
  5
350
330
1F
100
AcDbEntity
  8
C-0
  6
Continuous
 62
     3
370
    13
100
AcDbLine
 10
-549.4445847509559
 20
-519.3135889971713
 30
0.0
 11
-552.4441527917224
 21
-512.3136059644733
 31
0.0
  0
LINE
  5
351
330
1F
100
AcDbEntity
  8
C-0
  6
Continuous
 62
     3
370
    13
100
AcDbLine
 10
-552.4441527917224
 20
-512.3136059644733
 30
0.0
 11
-560.9444153135917
 21
-512.3136059644733
 31
0.0
  0
LINE
  5
352
330
1F
100
AcDbEntity
  8
C-0
  6
Continuous
 62
     3
370
    13
100
AcDbLine
 10
-519.944373130993
 20
-509.3140379237073
 30
0.0
 11
-518.4440936418224
 21
-512.3136059644733
 31
0.0
  0
LINE
  5
353
330
1F
100
AcDbEntity
  8
C-0
  6
Continuous
 62
     3
370
    13
100
AcDbLine
 10
-530.944771155622
 20
-509.3140379237073
 30
0.0
 11
-532.444059707218
 21
-512.3136059644733
 31
0.0
  0
LINE
  5
354
330
1F
100
AcDbEntity
  8
C-0
  6
Continuous
 62
     3
370
    13
100
AcDbLine
 10
-518.9445171174043
 20
-512.3136059644733
 30
0.0
 11
-521.9440851581709
 21
-519.3135889971713
 31
0.0
  0
LINE
  5
355
330
1F
100
AcDbEntity
  8
C-0
  6
Continuous
 62
     3
370
    13
100
AcDbLine
 10
-528.944068190869
 20
-519.3135889971713
 30
0.0
 11
-531.9446271692112
 21
-512.3136059644733
 31
0.0
  0
LINE
  5
356
330
1F
100
AcDbEntity
  8
C-0
  6
Continuous
 62
     3
370
    13
100
AcDbLine
 10
-531.9446271692112
 20
-512.3136059644733
 30
0.0
 11
-540.4448896910799
 21
-512.3136059644733
 31
0.0
  0
LINE
  5
357
330
1F
100
AcDbEntity
  8
C-0
  6
Continuous
 62
     3
370
    13
100
AcDbLine
 10
-496.4442885301395
 20
-512.3136059644733
 30
0.0
 11
-499.4448475084818
 21
-519.3135889971713
 31
0.0
  0
LINE
  5
358
330
1F
100
AcDbEntity
  8
C-0
  6
Continuous
 62
     3
370
    13
100
AcDbLine
 10
-507.4446865547685
 20
-519.3135889971713
 30
0.0
 11
-510.4442545955351
 21
-512.3136059644733
 31
0.0
  0
LINE
  5
359
330
1F
100
AcDbEntity
  8
C-0
  6
Continuous
 62
     3
370
    13
100
AcDbLine
 10
-510.9446780711176
 20
-512.3136059644733
 30
0.0
 11
-509.4443985819464
 21
-509.3140379237073
 31
0.0
  0
LINE
  5
35A
330
1F
100
AcDbEntity
  8
C-0
  6
Continuous
 62
     3
370
    13
100
AcDbLine
 10
-497.4441445437287
 20
-509.3140379237073
 30
0.0
 11
-495.9448559921327
 21
-512.3136059644733
 31
0.0
  0
LINE
  5
35B
330
1F
100
AcDbEntity
  8
C-0
  6
Continuous
 62
     3
370
    13
100
AcDbLine
 10
-510.4442545955351
 20
-512.3136059644733
 30
0.0
 11
-518.9445171174043
 21
-512.3136059644733
 31
0.0
  0
LINE
  5
35C
330
1F
100
AcDbEntity
  8
C-0
  6
Continuous
 62
     3
370
    13
100
AcDbLine
 10
-473.9450508804504
 20
-509.3140379237073
 30
0.0
 11
-472.4447713912792
 21
-512.3136059644733
 31
0.0
  0
LINE
  5
35D
330
1F
100
AcDbEntity
  8
C-0
  6
Continuous
 62
     3
370
    13
100
AcDbLine
 10
-486.9441699946816
 20
-509.3140379237073
 30
0.0
 11
-488.4444494838527
 21
-512.3136059644733
 31
0.0
  0
LINE
  5
35E
330
1F
100
AcDbEntity
  8
C-0
  6
Continuous
 62
     3
370
    13
100
AcDbLine
 10
-487.945016945846
 20
-512.3136059644733
 30
0.0
 11
-484.9444579675037
 21
-519.3135889971713
 31
0.0
  0
LINE
  5
35F
330
1F
100
AcDbEntity
  8
C-0
  6
Continuous
 62
     3
370
    13
100
AcDbLine
 10
-475.9447629076283
 20
-519.3135889971713
 30
0.0
 11
-472.944203929286
 21
-512.3136059644733
 31
0.0
  0
LINE
  5
360
330
1F
100
AcDbEntity
  8
C-0
  6
Continuous
 62
     3
370
    13
100
AcDbLine
 10
-487.945016945846
 20
-512.3136059644733
 30
0.0
 11
-496.4442885301395
 21
-512.3136059644733
 31
0.0
  0
LINE
  5
361
330
1F
100
AcDbEntity
  8
C-0
  6
Continuous
 62
     3
370
    13
100
AcDbLine
 10
-448.4442633148433
 20
-512.3136059644733
 30
0.0
 11
-451.4448222931856
 21
-519.3135889971713
 31
0.0
  0
LINE
  5
362
330
1F
100
AcDbEntity
  8
C-0
  6
Continuous
 62
     3
370
    13
100
AcDbLine
 10
-461.4443733666502
 20
-519.3135889971713
 30
0.0
 11
-464.4439414074168
 21
-512.3136059644733
 31
0.0
  0
LINE
  5
363
330
1F
100
AcDbEntity
  8
C-0
  6
Continuous
 62
     3
370
    13
100
AcDbLine
 10
-449.4451102660076
 20
-509.3140379237073
 30
0.0
 11
-447.9448307768365
 21
-512.3136059644733
 31
0.0
  0
LINE
  5
364
330
1F
100
AcDbEntity
  8
C-0
  6
Continuous
 62
     3
370
    13
100
AcDbLine
 10
-464.9443648829993
 20
-512.3136059644733
 30
0.0
 11
-463.4440853938281
 21
-509.3140379237073
 31
0.0
  0
LINE
  5
365
330
1F
100
AcDbEntity
  8
C-0
  6
Continuous
 62
     3
370
    13
100
AcDbLine
 10
-464.4439414074168
 20
-512.3136059644733
 30
0.0
 11
-472.944203929286
 21
-512.3136059644733
 31
0.0
  0
LINE
  5
366
330
1F
100
AcDbEntity
  8
C-0
  6
Continuous
 62
     3
370
    13
100
AcDbLine
 10
-423.9443227004006
 20
-509.3140379237073
 30
0.0
 11
-422.4440432112294
 21
-512.3136059644733
 31
0.0
  0
LINE
  5
367
330
1F
100
AcDbEntity
  8
C-0
  6
Continuous
 62
     3
370
    13
100
AcDbLine
 10
-438.9441447793854
 20
-509.3140379237073
 30
0.0
 11
-440.4444242685565
 21
-512.3136059644733
 31
0.0
  0
LINE
  5
368
330
1F
100
AcDbEntity
  8
C-0
  6
Continuous
 62
     3
370
    13
100
AcDbLine
 10
-422.9444666868119
 20
-512.3136059644733
 30
0.0
 11
-425.9440347275785
 21
-519.3135889971713
 31
0.0
  0
LINE
  5
369
330
1F
100
AcDbEntity
  8
C-0
  6
Continuous
 62
     3
370
    13
100
AcDbLine
 10
-436.9444327522075
 20
-519.3135889971713
 30
0.0
 11
-439.9440007929746
 21
-512.3136059644733
 31
0.0
  0
LINE
  5
36A
330
1F
100
AcDbEntity
  8
C-0
  6
Continuous
 62
     3
370
    13
100
AcDbLine
 10
-439.9440007929746
 20
-512.3136059644733
 30
0.0
 11
-448.4442633148433
 21
-512.3136059644733
 31
0.0
  0
LINE
  5
36B
330
1F
100
AcDbEntity
  8
C-0
  6
Continuous
 62
     3
370
    13
100
AcDbLine
 10
-397.4446700587805
 20
-509.3140379237073
 30
0.0
 11
-395.9443905696094
 21
-512.3136059644733
 31
0.0
  0
LINE
  5
36C
330
1F
100
AcDbEntity
  8
C-0
  6
Continuous
 62
     3
370
    13
100
AcDbLine
 10
-413.444348151354
 20
-509.3140379237073
 30
0.0
 11
-414.9446276405251
 21
-512.3136059644733
 31
0.0
  0
LINE
  5
36D
330
1F
100
AcDbEntity
  8
C-0
  6
Continuous
 62
     3
370
    13
100
AcDbLine
 10
-396.4448140451913
 20
-512.3136059644733
 30
0.0
 11
-399.4443820859584
 21
-519.3135889971713
 31
0.0
  0
LINE
  5
36E
330
1F
100
AcDbEntity
  8
C-0
  6
Continuous
 62
     3
370
    13
100
AcDbLine
 10
-411.4446361241761
 20
-519.3135889971713
 30
0.0
 11
-414.4442041649427
 21
-512.3136059644733
 31
0.0
  0
LINE
  5
36F
330
1F
100
AcDbEntity
  8
C-0
  6
Continuous
 62
     3
370
    13
100
AcDbLine
 10
-414.4442041649427
 20
-512.3136059644733
 30
0.0
 11
-422.9444666868119
 21
-512.3136059644733
 31
0.0
  0
LINE
  5
370
330
1F
100
AcDbEntity
  8
C-0
  6
Continuous
 62
     3
370
    13
100
AcDbLine
 10
-367.9444584388176
 20
-512.3136059644733
 30
0.0
 11
-370.9450174171599
 21
-519.3135889971713
 31
0.0
  0
LINE
  5
371
330
1F
100
AcDbEntity
  8
C-0
  6
Continuous
 62
     3
370
    13
100
AcDbLine
 10
-367.4450259008108
 20
-512.3136059644733
 30
0.0
 11
-368.9443144524068
 21
-509.3140379237073
 31
0.0
  0
LINE
  5
372
330
1F
100
AcDbEntity
  8
C-0
  6
Continuous
 62
     3
370
    13
100
AcDbLine
 10
-386.9446955097334
 20
-509.3140379237073
 30
0.0
 11
-388.4449749989045
 21
-512.3136059644733
 31
0.0
  0
LINE
  5
373
330
1F
100
AcDbEntity
  8
C-0
  6
Continuous
 62
     3
370
    13
100
AcDbLine
 10
-387.9445515233226
 20
-512.3136059644733
 30
0.0
 11
-384.9449834825555
 21
-519.3135889971713
 31
0.0
  0
LINE
  5
374
330
1F
100
AcDbEntity
  8
C-0
  6
Continuous
 62
     3
370
    13
100
AcDbLine
 10
-387.9445515233226
 20
-512.3136059644733
 30
0.0
 11
-396.4448140451913
 21
-512.3136059644733
 31
0.0
  0
LINE
  5
375
330
1F
100
AcDbEntity
  8
C-0
  6
Continuous
 62
     3
370
    13
100
AcDbLine
 10
-338.4442468188553
 20
-512.3136059644733
 30
0.0
 11
-341.4448057971975
 21
-519.3135889971713
 31
0.0
  0
LINE
  5
376
330
1F
100
AcDbEntity
  8
C-0
  6
Continuous
 62
     3
370
    13
100
AcDbLine
 10
-337.9448142808485
 20
-512.3136059644733
 30
0.0
 11
-339.4450937700196
 21
-509.3140379237073
 31
0.0
  0
LINE
  5
377
330
1F
100
AcDbEntity
  8
C-0
  6
Continuous
 62
     3
370
    13
100
AcDbLine
 10
-308.9460170740432
 20
-512.3136059644733
 30
0.0
 11
-311.9455851148103
 21
-519.3135889971713
 31
0.0
  0
LINE
  5
378
330
1F
100
AcDbEntity
  8
C-0
  6
Continuous
 62
     3
370
    13
100
AcDbLine
 10
-308.4455935984613
 20
-512.3136059644733
 30
0.0
 11
-309.9458730876324
 21
-509.3140379237073
 31
0.0
  0
LINE
  5
379
330
1F
100
AcDbEntity
  8
C-0
  6
Continuous
 62
     3
370
    13
100
AcDbLine
 10
-358.4443399033597
 20
-509.3140379237073
 30
0.0
 11
-359.9446193925309
 21
-512.3136059644733
 31
0.0
  0
LINE
  5
37A
330
1F
100
AcDbEntity
  8
C-0
  6
Continuous
 62
     3
370
    13
100
AcDbLine
 10
-359.444195916949
 20
-512.3136059644733
 30
0.0
 11
-356.4446278761818
 21
-519.3135889971713
 31
0.0
  0
LINE
  5
37B
330
1F
100
AcDbEntity
  8
C-0
  6
Continuous
 62
     3
370
    13
100
AcDbLine
 10
-328.9272823446152
 20
-509.3140379237073
 30
0.0
 11
-330.4275618337863
 21
-512.3136059644733
 31
0.0
  0
LINE
  5
37C
330
1F
100
AcDbEntity
  8
C-0
  6
Continuous
 62
     3
370
    13
100
AcDbLine
 10
-329.9281292957795
 20
-512.3136059644733
 30
0.0
 11
-326.9275703174372
 21
-519.3135889971713
 31
0.0
  0
LINE
  5
37D
330
1F
100
AcDbEntity
  8
C-0
  6
Continuous
 62
     3
370
    13
100
AcDbLine
 10
-329.9281292957795
 20
-512.3136059644733
 30
0.0
 11
-338.4442468188553
 21
-512.3136059644733
 31
0.0
  0
LINE
  5
37E
330
1F
100
AcDbEntity
  8
C-0
  6
Continuous
 62
     3
370
    13
100
AcDbLine
 10
-359.444195916949
 20
-512.3136059644733
 30
0.0
 11
-367.9444584388176
 21
-512.3136059644733
 31
0.0
  0
LINE
  5
37F
330
1F
100
AcDbEntity
  8
C-0
  6
Continuous
 62
     3
370
    13
100
AcDbLine
 10
-309.9458730876324
 20
-509.3140379237073
 30
0.0
 11
-328.9272823446152
 21
-509.3140379237073
 31
0.0
  0
LINE
  5
380
330
1F
100
AcDbEntity
  8
C-0
  6
Continuous
 62
     3
370
    13
100
AcDbLine
 10
-297.4451955738323
 20
-519.3135889971713
 30
0.0
 11
-295.9369885840579
 21
-519.3135889971713
 31
0.0
  0
LINE
  5
381
330
1F
100
AcDbEntity
  8
C-0
  6
Continuous
 62
     3
370
    13
100
AcDbLine
 10
-339.4450937700196
 20
-509.3140379237073
 30
0.0
 11
-358.4443399033597
 21
-509.3140379237073
 31
0.0
  0
LINE
  5
382
330
1F
100
AcDbEntity
  8
C-0
  6
Continuous
 62
     3
370
    13
100
AcDbLine
 10
-384.9449834825555
 20
-519.3135889971713
 30
0.0
 11
-370.9450174171599
 21
-519.3135889971713
 31
0.0
  0
LINE
  5
383
330
1F
100
AcDbEntity
  8
C-0
  6
Continuous
 62
     3
370
    13
100
AcDbLine
 10
-368.9443144524068
 20
-509.3140379237073
 30
0.0
 11
-386.9446955097334
 21
-509.3140379237073
 31
0.0
  0
LINE
  5
384
330
1F
100
AcDbEntity
  8
C-0
  6
Continuous
 62
     3
370
    13
100
AcDbLine
 10
-411.4446361241761
 20
-519.3135889971713
 30
0.0
 11
-399.4443820859584
 21
-519.3135889971713
 31
0.0
  0
LINE
  5
385
330
1F
100
AcDbEntity
  8
C-0
  6
Continuous
 62
     3
370
    13
100
AcDbLine
 10
-436.9444327522075
 20
-519.3135889971713
 30
0.0
 11
-425.9440347275785
 21
-519.3135889971713
 31
0.0
  0
LINE
  5
386
330
1F
100
AcDbEntity
  8
C-0
  6
Continuous
 62
     3
370
    13
100
AcDbLine
 10
-461.4443733666502
 20
-519.3135889971713
 30
0.0
 11
-451.4448222931856
 21
-519.3135889971713
 31
0.0
  0
LINE
  5
387
330
1F
100
AcDbEntity
  8
C-0
  6
Continuous
 62
     3
370
    13
100
AcDbLine
 10
-484.9444579675037
 20
-519.3135889971713
 30
0.0
 11
-475.9447629076283
 21
-519.3135889971713
 31
0.0
  0
LINE
  5
388
330
1F
100
AcDbEntity
  8
C-0
  6
Continuous
 62
     3
370
    13
100
AcDbLine
 10
-507.4446865547685
 20
-519.3135889971713
 30
0.0
 11
-499.4448475084818
 21
-519.3135889971713
 31
0.0
  0
LINE
  5
389
330
1F
100
AcDbEntity
  8
C-0
  6
Continuous
 62
     3
370
    13
100
AcDbLine
 10
-528.944068190869
 20
-519.3135889971713
 30
0.0
 11
-521.9440851581709
 21
-519.3135889971713
 31
0.0
  0
LINE
  5
38A
330
1F
100
AcDbEntity
  8
C-0
  6
Continuous
 62
     3
370
    13
100
AcDbLine
 10
-519.944373130993
 20
-509.3140379237073
 30
0.0
 11
-530.944771155622
 21
-509.3140379237073
 31
0.0
  0
LINE
  5
38B
330
1F
100
AcDbEntity
  8
C-0
  6
Continuous
 62
     3
370
    13
100
AcDbLine
 10
-497.4441445437287
 20
-509.3140379237073
 30
0.0
 11
-509.4443985819464
 21
-509.3140379237073
 31
0.0
  0
LINE
  5
38C
330
1F
100
AcDbEntity
  8
C-0
  6
Continuous
 62
     3
370
    13
100
AcDbLine
 10
-473.9450508804504
 20
-509.3140379237073
 30
0.0
 11
-486.9441699946816
 21
-509.3140379237073
 31
0.0
  0
LINE
  5
38D
330
1F
100
AcDbEntity
  8
C-0
  6
Continuous
 62
     3
370
    13
100
AcDbLine
 10
-449.4451102660076
 20
-509.3140379237073
 30
0.0
 11
-463.4440853938281
 21
-509.3140379237073
 31
0.0
  0
LINE
  5
38E
330
1F
100
AcDbEntity
  8
C-0
  6
Continuous
 62
     3
370
    13
100
AcDbLine
 10
-397.4446700587805
 20
-509.3140379237073
 30
0.0
 11
-413.444348151354
 21
-509.3140379237073
 31
0.0
  0
LINE
  5
38F
330
1F
100
AcDbEntity
  8
C-0
  6
Continuous
 62
     3
370
    13
100
AcDbLine
 10
-423.9443227004006
 20
-509.3140379237073
 30
0.0
 11
-438.9441447793854
 21
-509.3140379237073
 31
0.0
  0
LINE
  5
390
330
1F
100
AcDbEntity
  8
C-0
  6
Continuous
 62
     3
370
    13
100
AcDbLine
 10
-356.4446278761818
 20
-519.3135889971713
 30
0.0
 11
-341.4448057971975
 21
-519.3135889971713
 31
0.0
  0
LINE
  5
391
330
1F
100
AcDbEntity
  8
C-0
  6
Continuous
 62
     3
370
    13
100
AcDbLine
 10
-326.9275703174372
 20
-519.3135889971713
 30
0.0
 11
-311.9455851148103
 21
-519.3135889971713
 31
0.0
  0
LINE
  5
392
330
1F
100
AcDbEntity
  8
C-0
  6
Continuous
 62
     3
370
    13
100
AcDbLine
 10
-549.4445847509559
 20
-519.3135889971713
 30
0.0
 11
-543.444457731847
 21
-519.3135889971713
 31
0.0
  0
LINE
  5
393
330
1F
100
AcDbEntity
  8
C-0
  6
Continuous
 62
     3
370
    13
100
AcDbLine
 10
-541.4447457046691
 20
-509.3140379237073
 30
0.0
 11
-551.4442967781338
 21
-509.3140379237073
 31
0.0
  0
LINE
  5
394
330
1F
100
AcDbEntity
  8
C-0
  6
Continuous
 62
     3
370
    13
100
AcDbLine
 10
-561.9442713271803
 20
-509.3140379237073
 30
0.0
 11
-570.9439663870563
 21
-509.3140379237073
 31
0.0
  0
LINE
  5
395
330
1F
100
AcDbEntity
  8
C-0
  6
Continuous
 62
     3
370
    13
100
AcDbLine
 10
-581.4449318736786
 20
-509.3140379237073
 30
0.0
 11
-589.4447709199653
 21
-509.3140379237073
 31
0.0
  0
LINE
  5
396
330
1F
100
AcDbEntity
  8
C-0
  6
Continuous
 62
     3
370
    13
100
AcDbLine
 10
-587.4450588927874
 20
-519.3135889971713
 30
0.0
 11
-583.4446439008565
 21
-519.3135889971713
 31
0.0
  0
LINE
  5
397
330
1F
100
AcDbEntity
  8
C-0
  6
Continuous
 62
     3
370
    13
100
AcDbLine
 10
-568.9442543598784
 20
-519.3135889971713
 30
0.0
 11
-563.9439833543582
 21
-519.3135889971713
 31
0.0
  0
LINE
  5
398
330
1F
100
AcDbEntity
  8
C-0
  6
Continuous
 62
     3
370
    13
100
AcDbLine
 10
-624.9441186214614
 20
-512.3136059644733
 30
0.0
 11
-632.4445251297414
 21
-512.3136059644733
 31
0.0
  0
LINE
  5
399
330
1F
100
AcDbEntity
  8
C-0
  6
Continuous
 62
     3
370
    13
100
AcDbLine
 10
-640.4443641760281
 20
-512.3136059644733
 30
0.0
 11
-647.9447706843081
 21
-512.3136059644733
 31
0.0
  0
LINE
  5
39A
330
1F
100
AcDbEntity
  8
C-0
  6
Continuous
 62
     3
370
    13
100
AcDbLine
 10
-649.4450501734792
 20
-509.3140379237073
 30
0.0
 11
-874.4448587021878
 21
-509.3140379237073
 31
0.0
  0
LINE
  5
39B
330
1F
100
AcDbEntity
  8
C-0
  6
Continuous
 62
     3
370
    13
100
AcDbLine
 10
-633.9448046189125
 20
-509.3140379237073
 30
0.0
 11
-638.944084686857
 21
-509.3140379237073
 31
0.0
  0
LINE
  5
39C
330
1F
100
AcDbEntity
  8
C-0
  6
Continuous
 62
     3
370
    13
100
AcDbLine
 10
-599.9447454690119
 20
-509.3140379237073
 30
0.0
 11
-606.94472850171
 21
-509.3140379237073
 31
0.0
  0
LINE
  5
39D
330
1F
100
AcDbEntity
  8
C-0
  6
Continuous
 62
     3
370
    13
100
AcDbLine
 10
-617.4447030507565
 20
-509.3140379237073
 30
0.0
 11
-623.4448300698659
 21
-509.3140379237073
 31
0.0
  0
LINE
  5
39E
330
1F
100
AcDbEntity
  8
C-0
  6
Continuous
 62
     3
370
    13
100
AcDbLine
 10
-606.94472850171
 20
-509.3140379237073
 30
0.0
 11
-608.4450079908811
 21
-512.3136059644733
 31
0.0
  0
LINE
  5
39F
330
1F
100
AcDbEntity
  8
C-0
  6
Continuous
 62
     3
370
    13
100
AcDbLine
 10
-608.4450079908811
 20
-512.3136059644733
 30
0.0
 11
-615.9444235615854
 21
-512.3136059644733
 31
0.0
  0
LINE
  5
3A0
330
1F
100
AcDbEntity
  8
C-0
  6
Continuous
 62
     3
370
    13
100
AcDbLine
 10
-598.9448894554232
 20
-512.3136059644733
 30
0.0
 11
-601.9444574961898
 21
-539.314673019252
 31
0.0
  0
LINE
  5
3A1
330
1F
100
AcDbEntity
  8
C-0
  6
Continuous
 62
     3
370
    13
100
AcDbLine
 10
-874.4448587021878
 20
-509.3140379237073
 30
0.0
 11
-875.9446427225714
 21
-512.3136059644733
 31
0.0
  0
LINE
  5
3A2
330
1F
100
AcDbEntity
  8
C-0
  6
Continuous
 62
     3
370
    13
100
AcDbLine
 10
-875.9446427225714
 20
-512.3136059644733
 30
0.0
 11
-872.9450746818048
 21
-539.314673019252
 31
0.0
  0
LINE
  5
3A3
330
1F
100
AcDbEntity
  8
C-0
  6
Continuous
 62
     3
370
    13
100
AcDbLine
 10
-655.9446097305948
 20
-512.3136059644733
 30
0.0
 11
-875.9446427225714
 21
-512.3136059644733
 31
0.0
  0
LINE
  5
3A4
330
1F
100
AcDbEntity
  8
C-0
  6
Continuous
 62
     3
370
    13
100
AcDbLine
 10
-290.4828681689997
 20
-541.043859088343
 30
0.0
 11
-290.4452125411342
 21
-541.3143850464294
 31
0.0
  0
LINE
  5
3A5
330
1F
100
AcDbEntity
  8
C-0
  6
Continuous
 62
     3
370
    13
100
AcDbLine
 10
-292.4637523822452
 20
-539.314673019252
 30
0.0
 11
-872.9450746818048
 21
-539.314673019252
 31
0.0
  0
LINE
  5
3A6
330
1F
100
AcDbEntity
  8
C-0
  6
Continuous
 62
     3
370
    13
100
AcDbLine
 10
-640.9556879649398
 20
-522.7204323814319
 30
0.0
 11
-643.4449231543704
 21
-539.314673019252
 31
0.0
  0
LINE
  5
3A7
330
1F
100
AcDbEntity
  8
C-0
  6
Continuous
 62
     3
370
    13
100
AcDbLine
 10
-636.999865163902
 20
-519.3135889971713
 30
0.0
 11
-599.7227754521202
 21
-519.3135889971713
 31
0.0
  0
LINE
  5
3A8
330
1F
100
AcDbEntity
  8
C-0
  6
Continuous
 62
     3
370
    13
100
AcDbLine
 10
-881.4448417348859
 20
-509.3140379237073
 30
0.0
 11
-879.9450577145024
 21
-512.3136059644733
 31
0.0
  0
LINE
  5
3A9
330
1F
100
AcDbEntity
  8
C-0
  6
Continuous
 62
     3
370
    13
100
AcDbLine
 10
-879.9450577145024
 20
-512.3136059644733
 30
0.0
 11
-882.9446257552695
 21
-539.314673019252
 31
0.0
  0
LINE
  5
3AA
330
1F
100
AcDbEntity
  8
C-0
  6
Continuous
 62
     3
370
    13
100
AcDbLine
 10
-1463.426938992404
 20
-539.314673019252
 30
0.0
 11
-882.9446257552695
 21
-539.314673019252
 31
0.0
  0
LINE
  5
3AB
330
1F
100
AcDbEntity
  8
C-0
  6
Continuous
 62
     3
370
    13
100
AcDbLine
 10
-300.4457545521745
 20
-512.3136059644733
 30
0.0
 11
-297.4451955738323
 21
-519.3135889971713
 31
0.0
  0
LINE
  5
3AC
330
1F
100
AcDbEntity
  8
C-0
  6
Continuous
 62
     3
370
    13
100
AcDbLine
 10
-291.9732382824168
 20
-522.7739430105034
 30
0.0
 11
-290.4828681689997
 21
-541.043859088343
 31
0.0
  0
LINE
  5
3AD
330
1F
100
AcDbEntity
  8
C-0
  6
Continuous
 62
     3
370
    13
100
AcDbLine
 10
-279.4458054540809
 20
-509.3140379237073
 30
0.0
 11
-299.4458985385853
 21
-509.3140379237073
 31
0.0
  0
LINE
  5
3AE
330
1F
100
AcDbEntity
  8
C-0
  6
Continuous
 62
     3
370
    13
100
AcDbLine
 10
-299.4458985385853
 20
-509.3140379237073
 30
0.0
 11
-300.9451870901813
 21
-512.3136059644733
 31
0.0
  0
LINE
  5
3AF
330
1F
100
AcDbEntity
  8
C-0
  6
Continuous
 62
     3
370
    13
100
AcDbLine
 10
-300.4457545521745
 20
-512.3136059644733
 30
0.0
 11
-308.9460170740432
 21
-512.3136059644733
 31
0.0
  0
LINE
  5
3B0
330
1F
100
AcDbEntity
  8
C-0
  6
Continuous
 62
     3
370
    13
100
AcDbLine
 10
-1474.94411096261
 20
-541.3143850464294
 30
0.0
 11
-1465.44448789594
 21
-541.3143850464294
 31
0.0
  0
LINE
  5
3B1
330
1F
100
AcDbEntity
  8
C-0
  6
Continuous
 62
     3
370
    13
100
AcDbLine
 10
-1476.443894982992
 20
-509.3140379237073
 30
0.0
 11
-1477.944174472163
 21
-512.3136059644733
 31
0.0
  0
LINE
  5
3B2
330
1F
100
AcDbEntity
  8
C-0
  6
Continuous
 62
     3
370
    13
100
AcDbLine
 10
-1477.944174472163
 20
-512.3136059644733
 30
0.0
 11
-1474.94411096261
 21
-541.3143850464294
 31
0.0
  0
LINE
  5
3B3
330
1F
100
AcDbEntity
  8
C-0
  6
Continuous
 62
     3
370
    13
100
AcDbLine
 10
-1101.44537019565
 20
-509.3140379237073
 30
0.0
 11
-1099.945090706478
 21
-512.3136059644733
 31
0.0
  0
LINE
  5
3B4
330
1F
100
AcDbEntity
  8
C-0
  6
Continuous
 62
     3
370
    13
100
AcDbLine
 10
-1106.445145732382
 20
-509.3140379237073
 30
0.0
 11
-1107.944929752766
 21
-512.3136059644733
 31
0.0
  0
LINE
  5
3B5
330
1F
100
AcDbEntity
  8
C-0
  6
Continuous
 62
     3
370
    13
100
AcDbLine
 10
-1116.945615750217
 20
-509.3140379237073
 30
0.0
 11
-1115.445336261046
 21
-512.3136059644733
 31
0.0
  0
LINE
  5
3B6
330
1F
100
AcDbEntity
  8
C-0
  6
Continuous
 62
     3
370
    13
100
AcDbLine
 10
-1121.944895818161
 20
-509.3140379237073
 30
0.0
 11
-1123.445175307332
 21
-512.3136059644733
 31
0.0
  0
LINE
  5
3B7
330
1F
100
AcDbEntity
  8
C-0
  6
Continuous
 62
     3
370
    13
100
AcDbLine
 10
-1138.444997386317
 20
-509.3140379237073
 30
0.0
 11
-1139.945276875488
 21
-512.3136059644733
 31
0.0
  0
LINE
  5
3B8
330
1F
100
AcDbEntity
  8
C-0
  6
Continuous
 62
     3
370
    13
100
AcDbLine
 10
-1132.445365835996
 20
-509.3140379237073
 30
0.0
 11
-1130.945086346825
 21
-512.3136059644733
 31
0.0
  0
LINE
  5
3B9
330
1F
100
AcDbEntity
  8
C-0
  6
Continuous
 62
     3
370
    13
100
AcDbLine
 10
-1099.945090706478
 20
-512.3136059644733
 30
0.0
 11
-1102.945154216034
 21
-539.314673019252
 31
0.0
  0
LINE
  5
3BA
330
1F
100
AcDbEntity
  8
C-0
  6
Continuous
 62
     3
370
    13
100
AcDbLine
 10
-1155.944954968062
 20
-509.3140379237073
 30
0.0
 11
-1157.445234457233
 21
-512.3136059644733
 31
0.0
  0
LINE
  5
3BB
330
1F
100
AcDbEntity
  8
C-0
  6
Continuous
 62
     3
370
    13
100
AcDbLine
 10
-1174.445264032183
 20
-509.3140379237073
 30
0.0
 11
-1175.945048052566
 21
-512.3136059644733
 31
0.0
  0
LINE
  5
3BC
330
1F
100
AcDbEntity
  8
C-0
  6
Continuous
 62
     3
370
    13
100
AcDbLine
 10
-1166.445424985897
 20
-509.3140379237073
 30
0.0
 11
-1164.945640965514
 21
-512.3136059644733
 31
0.0
  0
LINE
  5
3BD
330
1F
100
AcDbEntity
  8
C-0
  6
Continuous
 62
     3
370
    13
100
AcDbLine
 10
-1175.445615514559
 20
-512.3136059644733
 30
0.0
 11
-1172.445056536218
 21
-519.3135889971713
 31
0.0
  0
LINE
  5
3BE
330
1F
100
AcDbEntity
  8
C-0
  6
Continuous
 62
     3
370
    13
100
AcDbLine
 10
-1168.445137013075
 20
-519.3135889971713
 30
0.0
 11
-1165.44507350352
 21
-512.3136059644733
 31
0.0
  0
LINE
  5
3BF
330
1F
100
AcDbEntity
  8
C-0
  6
Continuous
 62
     3
370
    13
100
AcDbLine
 10
-1165.44507350352
 20
-512.3136059644733
 30
0.0
 11
-1156.945306450439
 21
-512.3136059644733
 31
0.0
  0
LINE
  5
3C0
330
1F
100
AcDbEntity
  8
C-0
  6
Continuous
 62
     3
370
    13
100
AcDbLine
 10
-1193.945429109893
 20
-509.3140379237073
 30
0.0
 11
-1195.445213130276
 21
-512.3136059644733
 31
0.0
  0
LINE
  5
3C1
330
1F
100
AcDbEntity
  8
C-0
  6
Continuous
 62
     3
370
    13
100
AcDbLine
 10
-1184.94523858123
 20
-509.3140379237073
 30
0.0
 11
-1183.445454560847
 21
-512.3136059644733
 31
0.0
  0
LINE
  5
3C2
330
1F
100
AcDbEntity
  8
C-0
  6
Continuous
 62
     3
370
    13
100
AcDbLine
 10
-1194.945285123482
 20
-512.3136059644733
 30
0.0
 11
-1191.945221613928
 21
-519.3135889971713
 31
0.0
  0
LINE
  5
3C3
330
1F
100
AcDbEntity
  8
C-0
  6
Continuous
 62
     3
370
    13
100
AcDbLine
 10
-1186.945446077195
 20
-519.3135889971713
 30
0.0
 11
-1183.945382567641
 21
-512.3136059644733
 31
0.0
  0
LINE
  5
3C4
330
1F
100
AcDbEntity
  8
C-0
  6
Continuous
 62
     3
370
    13
100
AcDbLine
 10
-1183.945382567641
 20
-512.3136059644733
 30
0.0
 11
-1175.445615514559
 21
-512.3136059644733
 31
0.0
  0
LINE
  5
3C5
330
1F
100
AcDbEntity
  8
C-0
  6
Continuous
 62
     3
370
    13
100
AcDbLine
 10
-1214.444954732405
 20
-509.3140379237073
 30
0.0
 11
-1215.945234221576
 21
-512.3136059644733
 31
0.0
  0
LINE
  5
3C6
330
1F
100
AcDbEntity
  8
C-0
  6
Continuous
 62
     3
370
    13
100
AcDbLine
 10
-1204.44540365894
 20
-509.3140379237073
 30
0.0
 11
-1202.945124169769
 21
-512.3136059644733
 31
0.0
  0
LINE
  5
3C7
330
1F
100
AcDbEntity
  8
C-0
  6
Continuous
 62
     3
370
    13
100
AcDbLine
 10
-1215.444810745994
 20
-512.3136059644733
 30
0.0
 11
-1212.445242705228
 21
-519.3135889971713
 31
0.0
  0
LINE
  5
3C8
330
1F
100
AcDbEntity
  8
C-0
  6
Continuous
 62
     3
370
    13
100
AcDbLine
 10
-1206.445115686117
 20
-519.3135889971713
 30
0.0
 11
-1203.445547645351
 21
-512.3136059644733
 31
0.0
  0
LINE
  5
3C9
330
1F
100
AcDbEntity
  8
C-0
  6
Continuous
 62
     3
370
    13
100
AcDbLine
 10
-1203.445547645351
 20
-512.3136059644733
 30
0.0
 11
-1194.945285123482
 21
-512.3136059644733
 31
0.0
  0
LINE
  5
3CA
330
1F
100
AcDbEntity
  8
C-0
  6
Continuous
 62
     3
370
    13
100
AcDbLine
 10
-1235.945327306081
 20
-509.3140379237073
 30
0.0
 11
-1237.445606795252
 21
-512.3136059644733
 31
0.0
  0
LINE
  5
3CB
330
1F
100
AcDbEntity
  8
C-0
  6
Continuous
 62
     3
370
    13
100
AcDbLine
 10
-1224.944929281452
 20
-509.3140379237073
 30
0.0
 11
-1223.445640729856
 21
-512.3136059644733
 31
0.0
  0
LINE
  5
3CC
330
1F
100
AcDbEntity
  8
C-0
  6
Continuous
 62
     3
370
    13
100
AcDbLine
 10
-1236.945183319669
 20
-512.3136059644733
 30
0.0
 11
-1233.945119810115
 21
-519.3135889971713
 31
0.0
  0
LINE
  5
3CD
330
1F
100
AcDbEntity
  8
C-0
  6
Continuous
 62
     3
370
    13
100
AcDbLine
 10
-1226.945632246204
 20
-519.3135889971713
 30
0.0
 11
-1223.945073267862
 21
-512.3136059644733
 31
0.0
  0
LINE
  5
3CE
330
1F
100
AcDbEntity
  8
C-0
  6
Continuous
 62
     3
370
    13
100
AcDbLine
 10
-1223.945073267862
 20
-512.3136059644733
 30
0.0
 11
-1215.444810745994
 21
-512.3136059644733
 31
0.0
  0
LINE
  5
3CF
330
1F
100
AcDbEntity
  8
C-0
  6
Continuous
 62
     3
370
    13
100
AcDbLine
 10
-1259.445411906934
 20
-512.3136059644733
 30
0.0
 11
-1256.44534839738
 21
-519.3135889971713
 31
0.0
  0
LINE
  5
3D0
330
1F
100
AcDbEntity
  8
C-0
  6
Continuous
 62
     3
370
    13
100
AcDbLine
 10
-1248.445013882306
 20
-519.3135889971713
 30
0.0
 11
-1245.445445841539
 21
-512.3136059644733
 31
0.0
  0
LINE
  5
3D1
330
1F
100
AcDbEntity
  8
C-0
  6
Continuous
 62
     3
370
    13
100
AcDbLine
 10
-1244.945022365956
 20
-512.3136059644733
 30
0.0
 11
-1246.445301855127
 21
-509.3140379237073
 31
0.0
  0
LINE
  5
3D2
330
1F
100
AcDbEntity
  8
C-0
  6
Continuous
 62
     3
370
    13
100
AcDbLine
 10
-1258.445555893345
 20
-509.3140379237073
 30
0.0
 11
-1259.945339913729
 21
-512.3136059644733
 31
0.0
  0
LINE
  5
3D3
330
1F
100
AcDbEntity
  8
C-0
  6
Continuous
 62
     3
370
    13
100
AcDbLine
 10
-1245.445445841539
 20
-512.3136059644733
 30
0.0
 11
-1236.945183319669
 21
-512.3136059644733
 31
0.0
  0
LINE
  5
3D4
330
1F
100
AcDbEntity
  8
C-0
  6
Continuous
 62
     3
370
    13
100
AcDbLine
 10
-1281.945145025411
 20
-509.3140379237073
 30
0.0
 11
-1283.445424514582
 21
-512.3136059644733
 31
0.0
  0
LINE
  5
3D5
330
1F
100
AcDbEntity
  8
C-0
  6
Continuous
 62
     3
370
    13
100
AcDbLine
 10
-1268.945530442393
 20
-509.3140379237073
 30
0.0
 11
-1267.445250953222
 21
-512.3136059644733
 31
0.0
  0
LINE
  5
3D6
330
1F
100
AcDbEntity
  8
C-0
  6
Continuous
 62
     3
370
    13
100
AcDbLine
 10
-1267.945178960015
 20
-512.3136059644733
 30
0.0
 11
-1270.94524246957
 21
-519.3135889971713
 31
0.0
  0
LINE
  5
3D7
330
1F
100
AcDbEntity
  8
C-0
  6
Continuous
 62
     3
370
    13
100
AcDbLine
 10
-1279.945432998234
 20
-519.3135889971713
 30
0.0
 11
-1282.945496507788
 21
-512.3136059644733
 31
0.0
  0
LINE
  5
3D8
330
1F
100
AcDbEntity
  8
C-0
  6
Continuous
 62
     3
370
    13
100
AcDbLine
 10
-1267.945178960015
 20
-512.3136059644733
 30
0.0
 11
-1259.445411906934
 21
-512.3136059644733
 31
0.0
  0
LINE
  5
3D9
330
1F
100
AcDbEntity
  8
C-0
  6
Continuous
 62
     3
370
    13
100
AcDbLine
 10
-1307.444941653443
 20
-512.3136059644733
 30
0.0
 11
-1304.445373612675
 21
-519.3135889971713
 31
0.0
  0
LINE
  5
3DA
330
1F
100
AcDbEntity
  8
C-0
  6
Continuous
 62
     3
370
    13
100
AcDbLine
 10
-1294.445327070423
 20
-519.3135889971713
 30
0.0
 11
-1291.445759029657
 21
-512.3136059644733
 31
0.0
  0
LINE
  5
3DB
330
1F
100
AcDbEntity
  8
C-0
  6
Continuous
 62
     3
370
    13
100
AcDbLine
 10
-1306.445085639854
 20
-509.3140379237073
 30
0.0
 11
-1307.945365129025
 21
-512.3136059644733
 31
0.0
  0
LINE
  5
3DC
330
1F
100
AcDbEntity
  8
C-0
  6
Continuous
 62
     3
370
    13
100
AcDbLine
 10
-1290.945335554075
 20
-512.3136059644733
 30
0.0
 11
-1292.445615043246
 21
-509.3140379237073
 31
0.0
  0
LINE
  5
3DD
330
1F
100
AcDbEntity
  8
C-0
  6
Continuous
 62
     3
370
    13
100
AcDbLine
 10
-1291.445759029657
 20
-512.3136059644733
 30
0.0
 11
-1282.945496507788
 21
-512.3136059644733
 31
0.0
  0
LINE
  5
3DE
330
1F
100
AcDbEntity
  8
C-0
  6
Continuous
 62
     3
370
    13
100
AcDbLine
 10
-1331.945377736673
 20
-509.3140379237073
 30
0.0
 11
-1333.445657225844
 21
-512.3136059644733
 31
0.0
  0
LINE
  5
3DF
330
1F
100
AcDbEntity
  8
C-0
  6
Continuous
 62
     3
370
    13
100
AcDbLine
 10
-1316.945555657688
 20
-509.3140379237073
 30
0.0
 11
-1315.445276168517
 21
-512.3136059644733
 31
0.0
  0
LINE
  5
3E0
330
1F
100
AcDbEntity
  8
C-0
  6
Continuous
 62
     3
370
    13
100
AcDbLine
 10
-1332.945233750262
 20
-512.3136059644733
 30
0.0
 11
-1329.945665709495
 21
-519.3135889971713
 31
0.0
  0
LINE
  5
3E1
330
1F
100
AcDbEntity
  8
C-0
  6
Continuous
 62
     3
370
    13
100
AcDbLine
 10
-1318.945267684867
 20
-519.3135889971713
 30
0.0
 11
-1315.9456996441
 21
-512.3136059644733
 31
0.0
  0
LINE
  5
3E2
330
1F
100
AcDbEntity
  8
C-0
  6
Continuous
 62
     3
370
    13
100
AcDbLine
 10
-1315.9456996441
 20
-512.3136059644733
 30
0.0
 11
-1307.444941653443
 21
-512.3136059644733
 31
0.0
  0
LINE
  5
3E3
330
1F
100
AcDbEntity
  8
C-0
  6
Continuous
 62
     3
370
    13
100
AcDbLine
 10
-1358.445030378293
 20
-509.3140379237073
 30
0.0
 11
-1359.945309867464
 21
-512.3136059644733
 31
0.0
  0
LINE
  5
3E4
330
1F
100
AcDbEntity
  8
C-0
  6
Continuous
 62
     3
370
    13
100
AcDbLine
 10
-1342.44535228572
 20
-509.3140379237073
 30
0.0
 11
-1340.945072796549
 21
-512.3136059644733
 31
0.0
  0
LINE
  5
3E5
330
1F
100
AcDbEntity
  8
C-0
  6
Continuous
 62
     3
370
    13
100
AcDbLine
 10
-1359.44538186067
 20
-512.3136059644733
 30
0.0
 11
-1356.445318351116
 21
-519.3135889971713
 31
0.0
  0
LINE
  5
3E6
330
1F
100
AcDbEntity
  8
C-0
  6
Continuous
 62
     3
370
    13
100
AcDbLine
 10
-1344.445064312897
 20
-519.3135889971713
 30
0.0
 11
-1341.445496272131
 21
-512.3136059644733
 31
0.0
  0
LINE
  5
3E7
330
1F
100
AcDbEntity
  8
C-0
  6
Continuous
 62
     3
370
    13
100
AcDbLine
 10
-1341.445496272131
 20
-512.3136059644733
 30
0.0
 11
-1332.945233750262
 21
-512.3136059644733
 31
0.0
  0
LINE
  5
3E8
330
1F
100
AcDbEntity
  8
C-0
  6
Continuous
 62
     3
370
    13
100
AcDbLine
 10
-1387.945241998257
 20
-512.3136059644733
 30
0.0
 11
-1384.945178488701
 21
-519.3135889971713
 31
0.0
  0
LINE
  5
3E9
330
1F
100
AcDbEntity
  8
C-0
  6
Continuous
 62
     3
370
    13
100
AcDbLine
 10
-1388.44517000505
 20
-512.3136059644733
 30
0.0
 11
-1386.945385984667
 21
-509.3140379237073
 31
0.0
  0
LINE
  5
3EA
330
1F
100
AcDbEntity
  8
C-0
  6
Continuous
 62
     3
370
    13
100
AcDbLine
 10
-1368.945500396128
 20
-509.3140379237073
 30
0.0
 11
-1367.445220906957
 21
-512.3136059644733
 31
0.0
  0
LINE
  5
3EB
330
1F
100
AcDbEntity
  8
C-0
  6
Continuous
 62
     3
370
    13
100
AcDbLine
 10
-1367.945644382539
 20
-512.3136059644733
 30
0.0
 11
-1370.945212423305
 21
-519.3135889971713
 31
0.0
  0
LINE
  5
3EC
330
1F
100
AcDbEntity
  8
C-0
  6
Continuous
 62
     3
370
    13
100
AcDbLine
 10
-1367.945644382539
 20
-512.3136059644733
 30
0.0
 11
-1359.44538186067
 21
-512.3136059644733
 31
0.0
  0
LINE
  5
3ED
330
1F
100
AcDbEntity
  8
C-0
  6
Continuous
 62
     3
370
    13
100
AcDbLine
 10
-1417.445453618218
 20
-512.3136059644733
 30
0.0
 11
-1414.445390108665
 21
-519.3135889971713
 31
0.0
  0
LINE
  5
3EE
330
1F
100
AcDbEntity
  8
C-0
  6
Continuous
 62
     3
370
    13
100
AcDbLine
 10
-1417.945381625013
 20
-512.3136059644733
 30
0.0
 11
-1416.445102135842
 21
-509.3140379237073
 31
0.0
  0
LINE
  5
3EF
330
1F
100
AcDbEntity
  8
C-0
  6
Continuous
 62
     3
370
    13
100
AcDbLine
 10
-1446.944178831818
 20
-512.3136059644733
 30
0.0
 11
-1443.944115322263
 21
-519.3135889971713
 31
0.0
  0
LINE
  5
3F0
330
1F
100
AcDbEntity
  8
C-0
  6
Continuous
 62
     3
370
    13
100
AcDbLine
 10
-1447.444106838612
 20
-512.3136059644733
 30
0.0
 11
-1445.944322818229
 21
-509.3140379237073
 31
0.0
  0
LINE
  5
3F1
330
1F
100
AcDbEntity
  8
C-0
  6
Continuous
 62
     3
370
    13
100
AcDbLine
 10
-1397.445360533713
 20
-509.3140379237073
 30
0.0
 11
-1395.945081044542
 21
-512.3136059644733
 31
0.0
  0
LINE
  5
3F2
330
1F
100
AcDbEntity
  8
C-0
  6
Continuous
 62
     3
370
    13
100
AcDbLine
 10
-1396.445504520125
 20
-512.3136059644733
 30
0.0
 11
-1399.445072560892
 21
-519.3135889971713
 31
0.0
  0
LINE
  5
3F3
330
1F
100
AcDbEntity
  8
C-0
  6
Continuous
 62
     3
370
    13
100
AcDbLine
 10
-1426.962418092459
 20
-509.3140379237073
 30
0.0
 11
-1425.462138603287
 21
-512.3136059644733
 31
0.0
  0
LINE
  5
3F4
330
1F
100
AcDbEntity
  8
C-0
  6
Continuous
 62
     3
370
    13
100
AcDbLine
 10
-1425.962562078869
 20
-512.3136059644733
 30
0.0
 11
-1428.962130119637
 21
-519.3135889971713
 31
0.0
  0
LINE
  5
3F5
330
1F
100
AcDbEntity
  8
C-0
  6
Continuous
 62
     3
370
    13
100
AcDbLine
 10
-1425.962562078869
 20
-512.3136059644733
 30
0.0
 11
-1417.445453618218
 21
-512.3136059644733
 31
0.0
  0
LINE
  5
3F6
330
1F
100
AcDbEntity
  8
C-0
  6
Continuous
 62
     3
370
    13
100
AcDbLine
 10
-1396.445504520125
 20
-512.3136059644733
 30
0.0
 11
-1387.945241998257
 21
-512.3136059644733
 31
0.0
  0
LINE
  5
3F7
330
1F
100
AcDbEntity
  8
C-0
  6
Continuous
 62
     3
370
    13
100
AcDbLine
 10
-1445.944322818229
 20
-509.3140379237073
 30
0.0
 11
-1426.962418092459
 21
-509.3140379237073
 31
0.0
  0
LINE
  5
3F8
330
1F
100
AcDbEntity
  8
C-0
  6
Continuous
 62
     3
370
    13
100
AcDbLine
 10
-1458.444009394454
 20
-519.3135889971713
 30
0.0
 11
-1459.952711853016
 21
-519.3135889971713
 31
0.0
  0
LINE
  5
3F9
330
1F
100
AcDbEntity
  8
C-0
  6
Continuous
 62
     3
370
    13
100
AcDbLine
 10
-1416.445102135842
 20
-509.3140379237073
 30
0.0
 11
-1397.445360533713
 21
-509.3140379237073
 31
0.0
  0
LINE
  5
3FA
330
1F
100
AcDbEntity
  8
C-0
  6
Continuous
 62
     3
370
    13
100
AcDbLine
 10
-1370.945212423305
 20
-519.3135889971713
 30
0.0
 11
-1384.945178488701
 21
-519.3135889971713
 31
0.0
  0
LINE
  5
3FB
330
1F
100
AcDbEntity
  8
C-0
  6
Continuous
 62
     3
370
    13
100
AcDbLine
 10
-1386.945385984667
 20
-509.3140379237073
 30
0.0
 11
-1368.945500396128
 21
-509.3140379237073
 31
0.0
  0
LINE
  5
3FC
330
1F
100
AcDbEntity
  8
C-0
  6
Continuous
 62
     3
370
    13
100
AcDbLine
 10
-1344.445064312897
 20
-519.3135889971713
 30
0.0
 11
-1356.445318351116
 21
-519.3135889971713
 31
0.0
  0
LINE
  5
3FD
330
1F
100
AcDbEntity
  8
C-0
  6
Continuous
 62
     3
370
    13
100
AcDbLine
 10
-1318.945267684867
 20
-519.3135889971713
 30
0.0
 11
-1329.945665709495
 21
-519.3135889971713
 31
0.0
  0
LINE
  5
3FE
330
1F
100
AcDbEntity
  8
C-0
  6
Continuous
 62
     3
370
    13
100
AcDbLine
 10
-1294.445327070423
 20
-519.3135889971713
 30
0.0
 11
-1304.445373612675
 21
-519.3135889971713
 31
0.0
  0
LINE
  5
3FF
330
1F
100
AcDbEntity
  8
C-0
  6
Continuous
 62
     3
370
    13
100
AcDbLine
 10
-1270.94524246957
 20
-519.3135889971713
 30
0.0
 11
-1279.945432998234
 21
-519.3135889971713
 31
0.0
  0
LINE
  5
400
330
1F
100
AcDbEntity
  8
C-0
  6
Continuous
 62
     3
370
    13
100
AcDbLine
 10
-1248.445013882306
 20
-519.3135889971713
 30
0.0
 11
-1256.44534839738
 21
-519.3135889971713
 31
0.0
  0
LINE
  5
401
330
1F
100
AcDbEntity
  8
C-0
  6
Continuous
 62
     3
370
    13
100
AcDbLine
 10
-1226.945632246204
 20
-519.3135889971713
 30
0.0
 11
-1233.945119810115
 21
-519.3135889971713
 31
0.0
  0
LINE
  5
402
330
1F
100
AcDbEntity
  8
C-0
  6
Continuous
 62
     3
370
    13
100
AcDbLine
 10
-1235.945327306081
 20
-509.3140379237073
 30
0.0
 11
-1224.944929281452
 21
-509.3140379237073
 31
0.0
  0
LINE
  5
403
330
1F
100
AcDbEntity
  8
C-0
  6
Continuous
 62
     3
370
    13
100
AcDbLine
 10
-1258.445555893345
 20
-509.3140379237073
 30
0.0
 11
-1246.445301855127
 21
-509.3140379237073
 31
0.0
  0
LINE
  5
404
330
1F
100
AcDbEntity
  8
C-0
  6
Continuous
 62
     3
370
    13
100
AcDbLine
 10
-1281.945145025411
 20
-509.3140379237073
 30
0.0
 11
-1268.945530442393
 21
-509.3140379237073
 31
0.0
  0
LINE
  5
405
330
1F
100
AcDbEntity
  8
C-0
  6
Continuous
 62
     3
370
    13
100
AcDbLine
 10
-1306.445085639854
 20
-509.3140379237073
 30
0.0
 11
-1292.445615043246
 21
-509.3140379237073
 31
0.0
  0
LINE
  5
406
330
1F
100
AcDbEntity
  8
C-0
  6
Continuous
 62
     3
370
    13
100
AcDbLine
 10
-1358.445030378293
 20
-509.3140379237073
 30
0.0
 11
-1342.44535228572
 21
-509.3140379237073
 31
0.0
  0
LINE
  5
407
330
1F
100
AcDbEntity
  8
C-0
  6
Continuous
 62
     3
370
    13
100
AcDbLine
 10
-1331.945377736673
 20
-509.3140379237073
 30
0.0
 11
-1316.945555657688
 21
-509.3140379237073
 31
0.0
  0
LINE
  5
408
330
1F
100
AcDbEntity
  8
C-0
  6
Continuous
 62
     3
370
    13
100
AcDbLine
 10
-1399.445072560892
 20
-519.3135889971713
 30
0.0
 11
-1414.445390108665
 21
-519.3135889971713
 31
0.0
  0
LINE
  5
409
330
1F
100
AcDbEntity
  8
C-0
  6
Continuous
 62
     3
370
    13
100
AcDbLine
 10
-1428.962130119637
 20
-519.3135889971713
 30
0.0
 11
-1443.944115322263
 21
-519.3135889971713
 31
0.0
  0
LINE
  5
40A
330
1F
100
AcDbEntity
  8
C-0
  6
Continuous
 62
     3
370
    13
100
AcDbLine
 10
-1206.445115686117
 20
-519.3135889971713
 30
0.0
 11
-1212.445242705228
 21
-519.3135889971713
 31
0.0
  0
LINE
  5
40B
330
1F
100
AcDbEntity
  8
C-0
  6
Continuous
 62
     3
370
    13
100
AcDbLine
 10
-1214.444954732405
 20
-509.3140379237073
 30
0.0
 11
-1204.44540365894
 21
-509.3140379237073
 31
0.0
  0
LINE
  5
40C
330
1F
100
AcDbEntity
  8
C-0
  6
Continuous
 62
     3
370
    13
100
AcDbLine
 10
-1193.945429109893
 20
-509.3140379237073
 30
0.0
 11
-1184.94523858123
 21
-509.3140379237073
 31
0.0
  0
LINE
  5
40D
330
1F
100
AcDbEntity
  8
C-0
  6
Continuous
 62
     3
370
    13
100
AcDbLine
 10
-1174.445264032183
 20
-509.3140379237073
 30
0.0
 11
-1166.445424985897
 21
-509.3140379237073
 31
0.0
  0
LINE
  5
40E
330
1F
100
AcDbEntity
  8
C-0
  6
Continuous
 62
     3
370
    13
100
AcDbLine
 10
-1168.445137013075
 20
-519.3135889971713
 30
0.0
 11
-1172.445056536218
 21
-519.3135889971713
 31
0.0
  0
LINE
  5
40F
330
1F
100
AcDbEntity
  8
C-0
  6
Continuous
 62
     3
370
    13
100
AcDbLine
 10
-1186.945446077195
 20
-519.3135889971713
 30
0.0
 11
-1191.945221613928
 21
-519.3135889971713
 31
0.0
  0
LINE
  5
410
330
1F
100
AcDbEntity
  8
C-0
  6
Continuous
 62
     3
370
    13
100
AcDbLine
 10
-1130.945086346825
 20
-512.3136059644733
 30
0.0
 11
-1123.445175307332
 21
-512.3136059644733
 31
0.0
  0
LINE
  5
411
330
1F
100
AcDbEntity
  8
C-0
  6
Continuous
 62
     3
370
    13
100
AcDbLine
 10
-1115.445336261046
 20
-512.3136059644733
 30
0.0
 11
-1107.944929752766
 21
-512.3136059644733
 31
0.0
  0
LINE
  5
412
330
1F
100
AcDbEntity
  8
C-0
  6
Continuous
 62
     3
370
    13
100
AcDbLine
 10
-1121.944895818161
 20
-509.3140379237073
 30
0.0
 11
-1116.945615750217
 21
-509.3140379237073
 31
0.0
  0
LINE
  5
413
330
1F
100
AcDbEntity
  8
C-0
  6
Continuous
 62
     3
370
    13
100
AcDbLine
 10
-1155.944954968062
 20
-509.3140379237073
 30
0.0
 11
-1148.945467404152
 21
-509.3140379237073
 31
0.0
  0
LINE
  5
414
330
1F
100
AcDbEntity
  8
C-0
  6
Continuous
 62
     3
370
    13
100
AcDbLine
 10
-1138.444997386317
 20
-509.3140379237073
 30
0.0
 11
-1132.445365835996
 21
-509.3140379237073
 31
0.0
  0
LINE
  5
415
330
1F
100
AcDbEntity
  8
C-0
  6
Continuous
 62
     3
370
    13
100
AcDbLine
 10
-1148.945467404152
 20
-509.3140379237073
 30
0.0
 11
-1147.445683383769
 21
-512.3136059644733
 31
0.0
  0
LINE
  5
416
330
1F
100
AcDbEntity
  8
C-0
  6
Continuous
 62
     3
370
    13
100
AcDbLine
 10
-1147.445683383769
 20
-512.3136059644733
 30
0.0
 11
-1139.945276875488
 21
-512.3136059644733
 31
0.0
  0
LINE
  5
417
330
1F
100
AcDbEntity
  8
C-0
  6
Continuous
 62
     3
370
    13
100
AcDbLine
 10
-1156.945306450439
 20
-512.3136059644733
 30
0.0
 11
-1153.945242940883
 21
-539.314673019252
 31
0.0
  0
LINE
  5
418
330
1F
100
AcDbEntity
  8
C-0
  6
Continuous
 62
     3
370
    13
100
AcDbLine
 10
-1465.407327736862
 20
-541.043859088343
 30
0.0
 11
-1465.44448789594
 21
-541.3143850464294
 31
0.0
  0
LINE
  5
419
330
1F
100
AcDbEntity
  8
C-0
  6
Continuous
 62
     3
370
    13
100
AcDbLine
 10
-1114.934012472133
 20
-522.7204323814319
 30
0.0
 11
-1112.444777282703
 21
-539.314673019252
 31
0.0
  0
LINE
  5
41A
330
1F
100
AcDbEntity
  8
C-0
  6
Continuous
 62
     3
370
    13
100
AcDbLine
 10
-1118.889835273171
 20
-519.3135889971713
 30
0.0
 11
-1156.167420453742
 21
-519.3135889971713
 31
0.0
  0
LINE
  5
41B
330
1F
100
AcDbEntity
  8
C-0
  6
Continuous
 62
     3
370
    13
100
AcDbLine
 10
-1455.443945884899
 20
-512.3136059644733
 30
0.0
 11
-1458.444009394454
 21
-519.3135889971713
 31
0.0
  0
LINE
  5
41C
330
1F
100
AcDbEntity
  8
C-0
  6
Continuous
 62
     3
370
    13
100
AcDbLine
 10
-1463.91596668587
 20
-522.7739430105034
 30
0.0
 11
-1465.407327736862
 21
-541.043859088343
 31
0.0
  0
LINE
  5
41D
330
1F
100
AcDbEntity
  8
C-0
  6
Continuous
 62
     3
370
    13
100
AcDbLine
 10
-1476.443894982992
 20
-509.3140379237073
 30
0.0
 11
-1456.443801898488
 21
-509.3140379237073
 31
0.0
  0
LINE
  5
41E
330
1F
100
AcDbEntity
  8
C-0
  6
Continuous
 62
     3
370
    13
100
AcDbLine
 10
-1456.443801898488
 20
-509.3140379237073
 30
0.0
 11
-1454.944017878105
 21
-512.3136059644733
 31
0.0
  0
LINE
  5
41F
330
1F
100
AcDbEntity
  8
C-0
  6
Continuous
 62
     3
370
    13
100
AcDbLine
 10
-1455.443945884899
 20
-512.3136059644733
 30
0.0
 11
-1446.944178831818
 21
-512.3136059644733
 31
0.0
  0
ARC
  5
420
330
1F
100
AcDbEntity
  8
C-0
  6
Continuous
 62
     3
370
    13
100
AcDbCircle
 10
-295.9369885840579
 20
-523.3140039891023
 30
0.0
 40
4.000000085207026
100
AcDbArc
 50
7.765548706054688
 51
90.0
  0
ARC
  5
421
330
1F
100
AcDbEntity
  8
C-0
  6
Continuous
 62
     3
370
    13
100
AcDbCircle
 10
-292.4637523822452
 20
-541.3143850464294
 30
0.0
 40
2.000000042603513
100
AcDbArc
 50
7.76312255859375
 51
90.0
  0
ARC
  5
422
330
1F
100
AcDbEntity
  8
C-0
  6
Continuous
 62
     3
370
    13
100
AcDbCircle
 10
-636.999865163902
 20
-523.3140039891023
 30
0.0
 40
4.000000085207026
100
AcDbArc
 50
90.0
 51
171.4688110351562
  0
ARC
  5
423
330
1F
100
AcDbEntity
  8
C-0
  6
Continuous
 62
     3
370
    13
100
AcDbCircle
 10
-1459.952711853016
 20
-523.3140039891023
 30
0.0
 40
4.000000085207026
100
AcDbArc
 50
90.0
 51
172.2344512939453
  0
ARC
  5
424
330
1F
100
AcDbEntity
  8
C-0
  6
Continuous
 62
     3
370
    13
100
AcDbCircle
 10
-1463.425948054828
 20
-541.3143850464294
 30
0.0
 40
2.000000042603513
100
AcDbArc
 50
90.0
 51
172.2368774414062
  0
ARC
  5
425
330
1F
100
AcDbEntity
  8
C-0
  6
Continuous
 62
     3
370
    13
100
AcDbCircle
 10
-1118.889835273171
 20
-523.3140039891023
 30
0.0
 40
4.000000085207026
100
AcDbArc
 50
8.53118896484375
 51
90.0
  0
LINE
  5
426
330
1F
100
AcDbEntity
  8
C-1
  6
Continuous
 62
     2
370
    13
100
AcDbLine
 10
-312.9454411283996
 20
-541.3143850464294
 30
0.0
 11
-275.9448230001567
 21
-541.3143850464294
 31
0.0
  0
LINE
  5
427
330
1F
100
AcDbEntity
  8
C-1
  6
Continuous
 62
     2
370
    13
100
AcDbLine
 10
-272.9452549593896
 20
-514.3143089292269
 30
0.0
 11
-272.9452549593896
 21
-538.3647408511287
 31
0.0
  0
LINE
  5
428
330
1F
100
AcDbEntity
  8
C-1
  6
Continuous
 62
     2
370
    13
100
AcDbLine
 10
-1482.944940946472
 20
-538.3138260680871
 30
0.0
 11
-1482.944940946472
 21
-514.3143089292269
 31
0.0
  0
LINE
  5
429
330
1F
100
AcDbEntity
  8
C-1
  6
Continuous
 62
     2
370
    13
100
AcDbLine
 10
-1479.944877436917
 20
-541.3143850464294
 30
0.0
 11
-1442.944259308675
 21
-541.3143850464294
 31
0.0
  0
LINE
  5
42A
330
1F
100
AcDbEntity
  8
C-0
  6
Continuous
 62
     3
370
    13
100
AcDbLine
 10
-1106.445145732382
 20
-509.3140379237073
 30
0.0
 11
-881.4448417348859
 21
-509.3140379237073
 31
0.0
  0
LINE
  5
42B
330
1F
100
AcDbEntity
  8
C-0
  6
Continuous
 62
     3
370
    13
100
AcDbLine
 10
-1099.945090706478
 20
-512.3136059644733
 30
0.0
 11
-879.9450577145024
 21
-512.3136059644733
 31
0.0
  0
LINE
  5
42C
330
1F
100
AcDbEntity
  8
C-4
  6
Continuous
 62
     7
370
    13
100
AcDbLine
 10
-1099.945090706478
 20
-420.7377216135325
 30
0.0
 11
-655.9446097305948
 21
-420.7377216135325
 31
0.0
  0
LWPOLYLINE
  5
42D
330
1F
100
AcDbEntity
  8
C-4
  6
Continuous
 62
     7
370
    13
100
AcDbPolyline
 90
        4
 70
     1
 43
1.0
 10
-1099.445090706478
 20
-420.7377216135325
 42
0.4142135623731
 10
-1099.945090706478
 20
-420.2377216135325
 42
0.4142135623731
 10
-1100.445090706478
 20
-420.7377216135325
 42
0.4142135623731
 10
-1099.945090706478
 20
-421.2377216135325
 42
0.4142135623731
  0
LWPOLYLINE
  5
42E
330
1F
100
AcDbEntity
  8
C-4
  6
Continuous
 62
     7
370
    13
100
AcDbPolyline
 90
        4
 70
     1
 43
1.0
 10
-655.4446097305948
 20
-420.7377216135325
 42
0.4142135623731
 10
-655.9446097305948
 20
-420.2377216135325
 42
0.4142135623731
 10
-656.4446097305948
 20
-420.7377216135325
 42
0.4142135623731
 10
-655.9446097305948
 20
-421.2377216135325
 42
0.4142135623731
  0
LINE
  5
42F
330
1F
100
AcDbEntity
  8
C-4
  6
Continuous
 62
     7
370
    13
100
AcDbLine
 10
-1099.945090706478
 20
-417.7377216135325
 30
0.0
 11
-1099.945090706478
 21
-492.3136059644733
 31
0.0
  0
LINE
  5
430
330
1F
100
AcDbEntity
  8
C-4
  6
Continuous
 62
     7
370
    13
100
AcDbLine
 10
-655.9446097305948
 20
-417.7377216135325
 30
0.0
 11
-655.9446097305948
 21
-492.3136059644733
 31
0.0
  0
TEXT
  5
431
330
1F
100
AcDbEntity
  8
C-4
  6
Continuous
 62
     2
370
   211
100
AcDbText
 10
-910.4448502185367
 20
-405.0977216135325
 30
0.0
 40
30.48
  1
444
 41
1.083333333333333
  7
ＭＳ ゴシック
100
AcDbText
  0
LINE
  5
432
330
1F
100
AcDbEntity
  8
C-4
  6
Continuous
 62
     7
370
    13
100
AcDbLine
 10
-1099.945381097394
 20
315.9994462497584
 30
0.0
 11
-655.9449001215108
 21
315.9994462497584
 31
0.0
  0
LWPOLYLINE
  5
433
330
1F
100
AcDbEntity
  8
C-4
  6
Continuous
 62
     7
370
    13
100
AcDbPolyline
 90
        4
 70
     1
 43
1.0
 10
-1099.445381097394
 20
315.9994462497584
 42
0.4142135623731
 10
-1099.945381097394
 20
316.4994462497584
 42
0.4142135623731
 10
-1100.445381097394
 20
315.9994462497584
 42
0.4142135623731
 10
-1099.945381097394
 20
315.4994462497584
 42
0.4142135623731
  0
LWPOLYLINE
  5
434
330
1F
100
AcDbEntity
  8
C-4
  6
Continuous
 62
     7
370
    13
100
AcDbPolyline
 90
        4
 70
     1
 43
1.0
 10
-655.4449001215108
 20
315.9994462497584
 42
0.4142135623731
 10
-655.9449001215108
 20
316.4994462497584
 42
0.4142135623731
 10
-656.4449001215108
 20
315.9994462497584
 42
0.4142135623731
 10
-655.9449001215108
 20
315.4994462497584
 42
0.4142135623731
  0
LINE
  5
435
330
1F
100
AcDbEntity
  8
C-4
  6
Continuous
 62
     7
370
    13
100
AcDbLine
 10
-712.8408321390718
 20
239.7503637469595
 30
0.0
 11
-712.8408321390718
 21
639.7502435619027
 31
0.0
  0
LWPOLYLINE
  5
436
330
1F
100
AcDbEntity
  8
C-4
  6
Continuous
 62
     7
370
    13
100
AcDbPolyline
 90
        4
 70
     1
 43
1.0
 10
-712.3408321390718
 20
239.7503637469595
 42
0.4142135623731
 10
-712.8408321390718
 20
240.2503637469595
 42
0.4142135623731
 10
-713.3408321390718
 20
239.7503637469595
 42
0.4142135623731
 10
-712.8408321390718
 20
239.2503637469595
 42
0.4142135623731
  0
LWPOLYLINE
  5
437
330
1F
100
AcDbEntity
  8
C-4
  6
Continuous
 62
     7
370
    13
100
AcDbPolyline
 90
        4
 70
     1
 43
1.0
 10
-712.3408321390718
 20
639.7502435619027
 42
0.4142135623731
 10
-712.8408321390718
 20
640.2502435619027
 42
0.4142135623731
 10
-713.3408321390718
 20
639.7502435619027
 42
0.4142135623731
 10
-712.8408321390718
 20
639.2502435619027
 42
0.4142135623731
  0
TEXT
  5
438
330
1F
100
AcDbEntity
  8
C-4
  6
Continuous
 62
     2
370
   211
100
AcDbText
 10
-729.4058032336076
 20
373.5109611713042
 30
0.0
 40
30.48
  1
400
 50
90.0
 41
1.083333333333333
  7
ＭＳ ゴシック
100
AcDbText
  0
TEXT
  5
439
330
1F
100
AcDbEntity
  8
C-4
  6
Continuous
 62
     2
370
   211
100
AcDbText
 10
-950.2883934620293
 20
331.6394462497583
 30
0.0
 40
30.48
  1
444
 41
1.083333333333333
  7
ＭＳ ゴシック
100
AcDbText
  0
TEXT
  5
43A
330
1F
100
AcDbEntity
  8
F-5
  6
Continuous
 62
     7
370
    13
100
AcDbText
 10
-283.0494949111052
 20
-1364.374971712517
 30
0.0
 40
22.86
  1
並木桝用　コンクリートブロック　ＢＨー１２００
 41
0.965217391304348
  7
ＭＳ ゴシック
100
AcDbText
  0
TEXT
  5
43B
330
1F
100
AcDbEntity
  8
F-5
  6
Continuous
 62
     7
370
    13
100
AcDbText
 10
-834.0494949111052
 20
-1321.986780579137
 30
0.0
 40
22.86
  1
並木桝用　細目タイプ（すきま７．５ｍｍ）　ガーデングレート　ＲＶＡ－１２００×７５０
 41
0.9658730158730159
  7
ＭＳ ゴシック
100
AcDbText
  0
LINE
  5
43C
330
1F
100
AcDbEntity
  8
1-2
  6
Continuous
 62
     3
370
    13
100
AcDbLine
 10
383.5549748984306
 20
24.41902112379939
 30
0.0
 11
383.5549748984306
 21
-128.136563651446
 31
0.0
  0
LINE
  5
43D
330
1F
100
AcDbEntity
  8
1-0
  6
Continuous
 62
     7
370
    13
100
AcDbLine
 10
1151.736620245729
 20
95.18840429148064
 30
0.0
 11
1877.80868941626
 21
95.18840429148064
 31
0.0
  0
LINE
  5
43E
330
1F
100
AcDbEntity
  8
1-4
  6
Continuous
 62
     7
370
    13
100
AcDbLine
 10
1221.978284003828
 20
-9.523020347807929
 30
0.0
 11
1221.978284003828
 21
-89.52141081067751
 31
0.0
  0
LWPOLYLINE
  5
43F
330
1F
100
AcDbEntity
  8
1-4
  6
Continuous
 62
     7
370
    13
100
AcDbPolyline
 90
        4
 70
     1
 43
1.0
 10
1222.478284003828
 20
-9.523020347807929
 42
0.4142135623731
 10
1221.978284003828
 20
-9.023020347807929
 42
0.4142135623731
 10
1221.478284003828
 20
-9.523020347807929
 42
0.4142135623731
 10
1221.978284003828
 20
-10.02302034780793
 42
0.4142135623731
  0
LWPOLYLINE
  5
440
330
1F
100
AcDbEntity
  8
1-4
  6
Continuous
 62
     7
370
    13
100
AcDbPolyline
 90
        4
 70
     1
 43
1.0
 10
1222.478284003828
 20
-89.52141081067751
 42
0.4142135623731
 10
1221.978284003828
 20
-89.02141081067751
 42
0.4142135623731
 10
1221.478284003828
 20
-89.52141081067751
 42
0.4142135623731
 10
1221.978284003828
 20
-90.02141081067751
 42
0.4142135623731
  0
LINE
  5
441
330
1F
100
AcDbEntity
  8
1-4
  6
Continuous
 62
     7
370
    13
100
AcDbLine
 10
1224.978284003828
 20
-9.523020347807929
 30
0.0
 11
1119.082922603709
 21
-9.523020347807929
 31
0.0
  0
LINE
  5
442
330
1F
100
AcDbEntity
  8
1-4
  6
Continuous
 62
     7
370
    13
100
AcDbLine
 10
1221.978284003828
 20
-89.52141081067751
 30
0.0
 11
1221.978284003828
 21
-309.5219392714417
 31
0.0
  0
LWPOLYLINE
  5
443
330
1F
100
AcDbEntity
  8
1-4
  6
Continuous
 62
     7
370
    13
100
AcDbPolyline
 90
        4
 70
     1
 43
1.0
 10
1222.478284003828
 20
-309.5219392714417
 42
0.4142135623731
 10
1221.978284003828
 20
-309.0219392714417
 42
0.4142135623731
 10
1221.478284003828
 20
-309.5219392714417
 42
0.4142135623731
 10
1221.978284003828
 20
-310.0219392714417
 42
0.4142135623731
  0
LINE
  5
444
330
1F
100
AcDbEntity
  8
1-4
  6
Continuous
 62
     7
370
    13
100
AcDbLine
 10
1224.978284003828
 20
-309.5219392714417
 30
0.0
 11
1136.582880185453
 21
-309.5219392714417
 31
0.0
  0
LINE
  5
445
330
1F
100
AcDbEntity
  8
1-4
  6
Continuous
 62
     7
370
    13
100
AcDbLine
 10
1224.978284003828
 20
-89.52141081067751
 30
0.0
 11
1119.082922603709
 21
-89.52141081067751
 31
0.0
  0
LINE
  5
446
330
1F
100
AcDbEntity
  8
1-4
  6
Continuous
 62
     7
370
    13
100
AcDbLine
 10
1292.936414549712
 20
-309.5219392714417
 30
0.0
 11
1292.936414549712
 21
-9.523020347807929
 31
0.0
  0
LWPOLYLINE
  5
447
330
1F
100
AcDbEntity
  8
1-4
  6
Continuous
 62
     7
370
    13
100
AcDbPolyline
 90
        4
 70
     1
 43
1.0
 10
1293.436414549712
 20
-309.5219392714417
 42
0.4142135623731
 10
1292.936414549712
 20
-309.0219392714417
 42
0.4142135623731
 10
1292.436414549712
 20
-309.5219392714417
 42
0.4142135623731
 10
1292.936414549712
 20
-310.0219392714417
 42
0.4142135623731
  0
LWPOLYLINE
  5
448
330
1F
100
AcDbEntity
  8
1-4
  6
Continuous
 62
     7
370
    13
100
AcDbPolyline
 90
        4
 70
     1
 43
1.0
 10
1293.436414549712
 20
-9.523020347807929
 42
0.4142135623731
 10
1292.936414549712
 20
-9.023020347807929
 42
0.4142135623731
 10
1292.436414549712
 20
-9.523020347807929
 42
0.4142135623731
 10
1292.936414549712
 20
-10.02302034780793
 42
0.4142135623731
  0
LINE
  5
449
330
1F
100
AcDbEntity
  8
1-4
  6
Continuous
 62
     7
370
    13
100
AcDbLine
 10
1295.936414549712
 20
-309.5219392714417
 30
0.0
 11
1136.582880185453
 21
-309.5219392714417
 31
0.0
  0
LINE
  5
44A
330
1F
100
AcDbEntity
  8
1-4
  6
Continuous
 62
     7
370
    13
100
AcDbLine
 10
1295.936414549712
 20
-9.523020347807929
 30
0.0
 11
1119.082922603709
 21
-9.523020347807929
 31
0.0
  0
LINE
  5
44B
330
1F
100
AcDbEntity
  8
1-4
  6
Continuous
 62
     7
370
    13
100
AcDbLine
 10
1292.936414549712
 20
-309.5219392714417
 30
0.0
 11
1292.936414549712
 21
-334.5208169551026
 31
0.0
  0
LWPOLYLINE
  5
44C
330
1F
100
AcDbEntity
  8
1-4
  6
Continuous
 62
     7
370
    13
100
AcDbPolyline
 90
        4
 70
     1
 43
1.0
 10
1293.436414549712
 20
-309.5219392714417
 42
0.4142135623731
 10
1292.936414549712
 20
-309.0219392714417
 42
0.4142135623731
 10
1292.436414549712
 20
-309.5219392714417
 42
0.4142135623731
 10
1292.936414549712
 20
-310.0219392714417
 42
0.4142135623731
  0
LWPOLYLINE
  5
44D
330
1F
100
AcDbEntity
  8
1-4
  6
Continuous
 62
     7
370
    13
100
AcDbPolyline
 90
        4
 70
     1
 43
1.0
 10
1293.436414549712
 20
-334.5208169551026
 42
0.4142135623731
 10
1292.936414549712
 20
-334.0208169551027
 42
0.4142135623731
 10
1292.436414549712
 20
-334.5208169551026
 42
0.4142135623731
 10
1292.936414549712
 20
-335.0208169551026
 42
0.4142135623731
  0
LINE
  5
44E
330
1F
100
AcDbEntity
  8
1-4
  6
Continuous
 62
     7
370
    13
100
AcDbLine
 10
1295.936414549712
 20
-334.5208169551026
 30
0.0
 11
1136.582880185453
 21
-334.5208169551026
 31
0.0
  0
LINE
  5
44F
330
1F
100
AcDbEntity
  8
1-4
  6
Continuous
 62
     7
370
    13
100
AcDbLine
 10
1292.936414549712
 20
-334.5208169551026
 30
0.0
 11
1292.936414549712
 21
-459.5226374052259
 31
0.0
  0
LWPOLYLINE
  5
450
330
1F
100
AcDbEntity
  8
1-4
  6
Continuous
 62
     7
370
    13
100
AcDbPolyline
 90
        4
 70
     1
 43
1.0
 10
1293.436414549712
 20
-459.5226374052259
 42
0.4142135623731
 10
1292.936414549712
 20
-459.0226374052259
 42
0.4142135623731
 10
1292.436414549712
 20
-459.5226374052259
 42
0.4142135623731
 10
1292.936414549712
 20
-460.0226374052259
 42
0.4142135623731
  0
LINE
  5
451
330
1F
100
AcDbEntity
  8
1-4
  6
Continuous
 62
     7
370
    13
100
AcDbLine
 10
1295.936414549712
 20
-459.5226374052259
 30
0.0
 11
1161.584235213054
 21
-459.5226374052259
 31
0.0
  0
LINE
  5
452
330
1F
100
AcDbEntity
  8
1-4
  6
Continuous
 62
     7
370
    13
100
AcDbLine
 10
1292.936414549712
 20
-459.5226374052259
 30
0.0
 11
1292.936414549712
 21
-609.5220968670413
 31
0.0
  0
LWPOLYLINE
  5
453
330
1F
100
AcDbEntity
  8
1-4
  6
Continuous
 62
     7
370
    13
100
AcDbPolyline
 90
        4
 70
     1
 43
1.0
 10
1293.436414549712
 20
-609.5220968670413
 42
0.4142135623731
 10
1292.936414549712
 20
-609.0220968670413
 42
0.4142135623731
 10
1292.436414549712
 20
-609.5220968670413
 42
0.4142135623731
 10
1292.936414549712
 20
-610.0220968670412
 42
0.4142135623731
  0
LINE
  5
454
330
1F
100
AcDbEntity
  8
1-4
  6
Continuous
 62
     7
370
    13
100
AcDbLine
 10
1295.936414549712
 20
-609.5220968670413
 30
0.0
 11
1161.584235213054
 21
-609.5220968670413
 31
0.0
  0
LINE
  5
455
330
1F
100
AcDbEntity
  8
1-4
  6
Continuous
 62
     7
370
    13
100
AcDbLine
 10
1116.582880185453
 20
-195.2227310358239
 30
0.0
 11
879.084871486883
 21
-195.2227310358239
 31
0.0
  0
LWPOLYLINE
  5
456
330
1F
100
AcDbEntity
  8
1-4
  6
Continuous
 62
     7
370
    13
100
AcDbPolyline
 90
        4
 70
     1
 43
1.0
 10
1117.082880185453
 20
-195.2227310358239
 42
0.4142135623731
 10
1116.582880185453
 20
-194.7227310358238
 42
0.4142135623731
 10
1116.082880185453
 20
-195.2227310358239
 42
0.4142135623731
 10
1116.582880185453
 20
-195.7227310358239
 42
0.4142135623731
  0
LWPOLYLINE
  5
457
330
1F
100
AcDbEntity
  8
1-4
  6
Continuous
 62
     7
370
    13
100
AcDbPolyline
 90
        4
 70
     1
 43
1.0
 10
879.5848714868829
 20
-195.2227310358239
 42
0.4142135623731
 10
879.084871486883
 20
-194.7227310358238
 42
0.4142135623731
 10
878.584871486883
 20
-195.2227310358239
 42
0.4142135623731
 10
879.084871486883
 20
-195.7227310358239
 42
0.4142135623731
  0
LINE
  5
458
330
1F
100
AcDbEntity
  8
1-4
  6
Continuous
 62
     7
370
    13
100
AcDbLine
 10
879.084871486883
 20
-198.2227310358238
 30
0.0
 11
879.084871486883
 21
-109.5214108106776
 31
0.0
  0
LINE
  5
459
330
1F
100
AcDbEntity
  8
1-4
  6
Continuous
 62
     7
370
    13
100
AcDbLine
 10
879.084871486883
 20
-195.2227310358239
 30
0.0
 11
766.5837285505588
 21
-195.2227310358239
 31
0.0
  0
LWPOLYLINE
  5
45A
330
1F
100
AcDbEntity
  8
1-4
  6
Continuous
 62
     7
370
    13
100
AcDbPolyline
 90
        4
 70
     1
 43
1.0
 10
767.0837285505588
 20
-195.2227310358239
 42
0.4142135623731
 10
766.5837285505588
 20
-194.7227310358238
 42
0.4142135623731
 10
766.0837285505589
 20
-195.2227310358239
 42
0.4142135623731
 10
766.5837285505588
 20
-195.7227310358239
 42
0.4142135623731
  0
TEXT
  5
45B
330
1F
100
AcDbEntity
  8
1-4
  6
Continuous
 62
     2
370
   211
100
AcDbText
 10
1210.338284003828
 20
-70.77221557924268
 30
0.0
 40
30.48
  1
32
 50
90.0
 41
1.0625
  7
ＭＳ ゴシック
100
AcDbText
  0
TEXT
  5
45C
330
1F
100
AcDbEntity
  8
1-4
  6
Continuous
 62
     7
370
    13
100
AcDbText
 10
208.514451106121
 20
-184.3866903159438
 30
0.0
 40
22.86
  1
本体：ＦＣ２００
 41
1.145833333333333
  7
ＭＳ ゴシック
100
AcDbText
  0
TEXT
  5
45D
330
1F
100
AcDbEntity
  8
1-4
  6
Continuous
 62
     2
370
   211
100
AcDbText
 10
801.5843000187206
 20
-183.5827310358238
 30
0.0
 40
30.48
  1
45
 41
1.0625
  7
ＭＳ ゴシック
100
AcDbText
  0
TEXT
  5
45E
330
1F
100
AcDbEntity
  8
1-4
  6
Continuous
 62
     2
370
   211
100
AcDbText
 10
976.5838758361676
 20
-183.5827310358238
 30
0.0
 40
30.48
  1
95
 41
1.0625
  7
ＭＳ ゴシック
100
AcDbText
  0
TEXT
  5
45F
330
1F
100
AcDbEntity
  8
1-4
  6
Continuous
 62
     2
370
   211
100
AcDbText
 10
1281.296414549713
 20
-192.0224798096248
 30
0.0
 40
30.48
  1
120
 50
90.0
 41
1.083333333333333
  7
ＭＳ ゴシック
100
AcDbText
  0
TEXT
  5
460
330
1F
100
AcDbEntity
  8
1-4
  6
Continuous
 62
     2
370
   211
100
AcDbText
 10
1210.338284003828
 20
-220.7716750410597
 30
0.0
 40
30.48
  1
88
 50
90.0
 41
1.0625
  7
ＭＳ ゴシック
100
AcDbText
  0
TEXT
  5
461
330
1F
100
AcDbEntity
  8
1-4
  6
Continuous
 62
     2
370
   211
100
AcDbText
 10
1345.801833379562
 20
-343.271378113272
 30
0.0
 40
30.48
  1
10
 50
90.0
 41
1.062499999999996
  7
ＭＳ ゴシック
100
AcDbText
  0
TEXT
  5
462
330
1F
100
AcDbEntity
  8
1-4
  6
Continuous
 62
     7
370
    13
100
AcDbText
 10
407.0917138085443
 20
-394.5136580415309
 30
0.0
 40
22.86
  1
ならしモルタル
 41
1.142857142857143
  7
ＭＳ ゴシック
100
AcDbText
  0
TEXT
  5
463
330
1F
100
AcDbEntity
  8
1-4
  6
Continuous
 62
     2
370
   211
100
AcDbText
 10
1281.296414549713
 20
-418.2717271801644
 30
0.0
 40
30.48
  1
50
 50
90.0
 41
1.0625
  7
ＭＳ ゴシック
100
AcDbText
  0
LINE
  5
464
330
1F
100
AcDbEntity
  8
1-4
  6
Continuous
 62
     7
370
    13
100
AcDbLine
 10
835.1190469675323
 20
-324.1637661331125
 30
0.0
 11
834.3689058237335
 21
-324.1637661331125
 31
0.0
  0
LINE
  5
465
330
1F
100
AcDbEntity
  8
1-4
  6
Continuous
 62
     7
370
    13
100
AcDbLine
 10
835.1190469675323
 20
-323.4136249893137
 30
0.0
 11
835.1190469675323
 21
-324.1637661331125
 31
0.0
  0
LINE
  5
466
330
1F
100
AcDbEntity
  8
1-4
  6
Continuous
 62
     7
370
    13
100
AcDbLine
 10
834.3689058237335
 20
-323.4136249893137
 30
0.0
 11
835.1190469675323
 21
-323.4136249893137
 31
0.0
  0
LINE
  5
467
330
1F
100
AcDbEntity
  8
1-4
  6
Continuous
 62
     7
370
    13
100
AcDbLine
 10
862.0418284349701
 20
-310.7172443740793
 30
0.0
 11
861.2919376306793
 21
-310.7172443740793
 31
0.0
  0
LINE
  5
468
330
1F
100
AcDbEntity
  8
1-4
  6
Continuous
 62
     7
370
    13
100
AcDbLine
 10
862.0418284349701
 20
-309.9671032302805
 30
0.0
 11
862.0418284349701
 21
-310.7172443740793
 31
0.0
  0
LINE
  5
469
330
1F
100
AcDbEntity
  8
1-4
  6
Continuous
 62
     7
370
    13
100
AcDbLine
 10
861.2919376306793
 20
-309.9671032302805
 30
0.0
 11
862.0418284349701
 21
-309.9671032302805
 31
0.0
  0
LINE
  5
46A
330
1F
100
AcDbEntity
  8
1-4
  6
Continuous
 62
     7
370
    13
100
AcDbLine
 10
861.2919376306793
 20
-310.7172443740793
 30
0.0
 11
861.2919376306793
 21
-309.9671032302805
 31
0.0
  0
LINE
  5
46B
330
1F
100
AcDbEntity
  8
1-4
  6
Continuous
 62
     7
370
    13
100
AcDbLine
 10
848.2197378092071
 20
-314.6663715713449
 30
0.0
 11
847.4698446207306
 21
-314.6663715713449
 31
0.0
  0
LINE
  5
46C
330
1F
100
AcDbEntity
  8
1-4
  6
Continuous
 62
     7
370
    13
100
AcDbLine
 10
848.2197378092071
 20
-313.9162399642893
 30
0.0
 11
848.2197378092071
 21
-314.6663715713449
 31
0.0
  0
LINE
  5
46D
330
1F
100
AcDbEntity
  8
1-4
  6
Continuous
 62
     7
370
    13
100
AcDbLine
 10
847.4698446207306
 20
-313.9162399642893
 30
0.0
 11
848.2197378092071
 21
-313.9162399642893
 31
0.0
  0
LINE
  5
46E
330
1F
100
AcDbEntity
  8
1-4
  6
Continuous
 62
     7
370
    13
100
AcDbLine
 10
847.4698446207306
 20
-314.6663715713449
 30
0.0
 11
847.4698446207306
 21
-313.9162399642893
 31
0.0
  0
LINE
  5
46F
330
1F
100
AcDbEntity
  8
1-4
  6
Continuous
 62
     7
370
    13
100
AcDbLine
 10
888.6987922601959
 20
-333.0145790450998
 30
0.0
 11
887.9489002638122
 21
-333.0145790450998
 31
0.0
  0
LINE
  5
470
330
1F
100
AcDbEntity
  8
1-4
  6
Continuous
 62
     7
370
    13
100
AcDbLine
 10
888.6987922601959
 20
-332.264437901301
 30
0.0
 11
888.6987922601959
 21
-333.0145790450998
 31
0.0
  0
LINE
  5
471
330
1F
100
AcDbEntity
  8
1-4
  6
Continuous
 62
     7
370
    13
100
AcDbLine
 10
887.9489002638122
 20
-332.264437901301
 30
0.0
 11
888.6987922601959
 21
-332.264437901301
 31
0.0
  0
LINE
  5
472
330
1F
100
AcDbEntity
  8
1-4
  6
Continuous
 62
     7
370
    13
100
AcDbLine
 10
887.9489002638122
 20
-333.0145790450998
 30
0.0
 11
887.9489002638122
 21
-332.264437901301
 31
0.0
  0
LINE
  5
473
330
1F
100
AcDbEntity
  8
1-4
  6
Continuous
 62
     7
370
    13
100
AcDbLine
 10
881.7877457552215
 20
-316.2305691116281
 30
0.0
 11
881.0378537588379
 21
-316.2305691116281
 31
0.0
  0
LINE
  5
474
330
1F
100
AcDbEntity
  8
1-4
  6
Continuous
 62
     7
370
    13
100
AcDbLine
 10
881.7877457552215
 20
-315.4804279678293
 30
0.0
 11
881.7877457552215
 21
-316.2305691116281
 31
0.0
  0
LINE
  5
475
330
1F
100
AcDbEntity
  8
1-4
  6
Continuous
 62
     7
370
    13
100
AcDbLine
 10
881.0378537588379
 20
-315.4804279678293
 30
0.0
 11
881.7877457552215
 21
-315.4804279678293
 31
0.0
  0
LINE
  5
476
330
1F
100
AcDbEntity
  8
1-4
  6
Continuous
 62
     7
370
    13
100
AcDbLine
 10
881.0378537588379
 20
-316.2305691116281
 30
0.0
 11
881.0378537588379
 21
-315.4804279678293
 31
0.0
  0
LINE
  5
477
330
1F
100
AcDbEntity
  8
1-4
  6
Continuous
 62
     7
370
    13
100
AcDbLine
 10
848.7134693079254
 20
-333.9185669296213
 30
0.0
 11
847.9633329324981
 21
-333.9185669296213
 31
0.0
  0
LINE
  5
478
330
1F
100
AcDbEntity
  8
1-4
  6
Continuous
 62
     7
370
    13
100
AcDbLine
 10
848.7134693079254
 20
-333.1684257858225
 30
0.0
 11
848.7134693079254
 21
-333.9185669296213
 31
0.0
  0
LINE
  5
479
330
1F
100
AcDbEntity
  8
1-4
  6
Continuous
 62
     7
370
    13
100
AcDbLine
 10
847.9633329324981
 20
-333.1684257858225
 30
0.0
 11
848.7134693079254
 21
-333.1684257858225
 31
0.0
  0
LINE
  5
47A
330
1F
100
AcDbEntity
  8
1-4
  6
Continuous
 62
     7
370
    13
100
AcDbLine
 10
847.9633329324981
 20
-333.9185669296213
 30
0.0
 11
847.9633329324981
 21
-333.1684257858225
 31
0.0
  0
LINE
  5
47B
330
1F
100
AcDbEntity
  8
1-4
  6
Continuous
 62
     7
370
    13
100
AcDbLine
 10
864.0165207796356
 20
-328.4884693496653
 30
0.0
 11
863.2663796358368
 21
-328.4884693496653
 31
0.0
  0
LINE
  5
47C
330
1F
100
AcDbEntity
  8
1-4
  6
Continuous
 62
     7
370
    13
100
AcDbLine
 10
864.0165207796356
 20
-327.7383282058664
 30
0.0
 11
864.0165207796356
 21
-328.4884693496653
 31
0.0
  0
LINE
  5
47D
330
1F
100
AcDbEntity
  8
1-4
  6
Continuous
 62
     7
370
    13
100
AcDbLine
 10
863.2663796358368
 20
-327.7383282058664
 30
0.0
 11
864.0165207796356
 21
-327.7383282058664
 31
0.0
  0
LINE
  5
47E
330
1F
100
AcDbEntity
  8
1-4
  6
Continuous
 62
     7
370
    13
100
AcDbLine
 10
863.2663796358368
 20
-328.4884693496653
 30
0.0
 11
863.2663796358368
 21
-327.7383282058664
 31
0.0
  0
LINE
  5
47F
330
1F
100
AcDbEntity
  8
1-4
  6
Continuous
 62
     7
370
    13
100
AcDbLine
 10
773.587825521954
 20
-324.4842412448082
 30
0.0
 11
772.8376843781551
 21
-324.4842412448082
 31
0.0
  0
LINE
  5
480
330
1F
100
AcDbEntity
  8
1-4
  6
Continuous
 62
     7
370
    13
100
AcDbLine
 10
773.587825521954
 20
-323.7341001010093
 30
0.0
 11
773.587825521954
 21
-324.4842412448082
 31
0.0
  0
LINE
  5
481
330
1F
100
AcDbEntity
  8
1-4
  6
Continuous
 62
     7
370
    13
100
AcDbLine
 10
772.8376843781551
 20
-323.7341001010093
 30
0.0
 11
773.587825521954
 21
-323.7341001010093
 31
0.0
  0
LINE
  5
482
330
1F
100
AcDbEntity
  8
1-4
  6
Continuous
 62
     7
370
    13
100
AcDbLine
 10
800.5106069893917
 20
-311.037719485775
 30
0.0
 11
799.7607161851009
 21
-311.037719485775
 31
0.0
  0
LINE
  5
483
330
1F
100
AcDbEntity
  8
1-4
  6
Continuous
 62
     7
370
    13
100
AcDbLine
 10
800.5106069893917
 20
-310.2875783419761
 30
0.0
 11
800.5106069893917
 21
-311.037719485775
 31
0.0
  0
LINE
  5
484
330
1F
100
AcDbEntity
  8
1-4
  6
Continuous
 62
     7
370
    13
100
AcDbLine
 10
799.7607161851009
 20
-310.2875783419761
 30
0.0
 11
800.5106069893917
 21
-310.2875783419761
 31
0.0
  0
LINE
  5
485
330
1F
100
AcDbEntity
  8
1-4
  6
Continuous
 62
     7
370
    13
100
AcDbLine
 10
799.7607161851009
 20
-311.037719485775
 30
0.0
 11
799.7607161851009
 21
-310.2875783419761
 31
0.0
  0
LINE
  5
486
330
1F
100
AcDbEntity
  8
1-4
  6
Continuous
 62
     7
370
    13
100
AcDbLine
 10
786.6885163636288
 20
-314.9868466830406
 30
0.0
 11
785.9386231751522
 21
-314.9868466830406
 31
0.0
  0
LINE
  5
487
330
1F
100
AcDbEntity
  8
1-4
  6
Continuous
 62
     7
370
    13
100
AcDbLine
 10
786.6885163636288
 20
-314.2367150759849
 30
0.0
 11
786.6885163636288
 21
-314.9868466830406
 31
0.0
  0
LINE
  5
488
330
1F
100
AcDbEntity
  8
1-4
  6
Continuous
 62
     7
370
    13
100
AcDbLine
 10
785.9386231751522
 20
-314.2367150759849
 30
0.0
 11
786.6885163636288
 21
-314.2367150759849
 31
0.0
  0
LINE
  5
489
330
1F
100
AcDbEntity
  8
1-4
  6
Continuous
 62
     7
370
    13
100
AcDbLine
 10
785.9386231751522
 20
-314.9868466830406
 30
0.0
 11
785.9386231751522
 21
-314.2367150759849
 31
0.0
  0
LINE
  5
48A
330
1F
100
AcDbEntity
  8
1-4
  6
Continuous
 62
     7
370
    13
100
AcDbLine
 10
827.1675708146175
 20
-333.3350541567955
 30
0.0
 11
826.4176788182339
 21
-333.3350541567955
 31
0.0
  0
LINE
  5
48B
330
1F
100
AcDbEntity
  8
1-4
  6
Continuous
 62
     7
370
    13
100
AcDbLine
 10
827.1675708146175
 20
-332.5849130129967
 30
0.0
 11
827.1675708146175
 21
-333.3350541567955
 31
0.0
  0
LINE
  5
48C
330
1F
100
AcDbEntity
  8
1-4
  6
Continuous
 62
     7
370
    13
100
AcDbLine
 10
826.4176788182339
 20
-332.5849130129967
 30
0.0
 11
827.1675708146175
 21
-332.5849130129967
 31
0.0
  0
LINE
  5
48D
330
1F
100
AcDbEntity
  8
1-4
  6
Continuous
 62
     7
370
    13
100
AcDbLine
 10
826.4176788182339
 20
-333.3350541567955
 30
0.0
 11
826.4176788182339
 21
-332.5849130129967
 31
0.0
  0
LINE
  5
48E
330
1F
100
AcDbEntity
  8
1-4
  6
Continuous
 62
     7
370
    13
100
AcDbLine
 10
820.2565243096432
 20
-316.5510442233238
 30
0.0
 11
819.5066323132595
 21
-316.5510442233238
 31
0.0
  0
LINE
  5
48F
330
1F
100
AcDbEntity
  8
1-4
  6
Continuous
 62
     7
370
    13
100
AcDbLine
 10
820.2565243096432
 20
-315.800903079525
 30
0.0
 11
820.2565243096432
 21
-316.5510442233238
 31
0.0
  0
LINE
  5
490
330
1F
100
AcDbEntity
  8
1-4
  6
Continuous
 62
     7
370
    13
100
AcDbLine
 10
819.5066323132595
 20
-315.800903079525
 30
0.0
 11
820.2565243096432
 21
-315.800903079525
 31
0.0
  0
LINE
  5
491
330
1F
100
AcDbEntity
  8
1-4
  6
Continuous
 62
     7
370
    13
100
AcDbLine
 10
819.5066323132595
 20
-316.5510442233238
 30
0.0
 11
819.5066323132595
 21
-315.800903079525
 31
0.0
  0
LINE
  5
492
330
1F
100
AcDbEntity
  8
1-4
  6
Continuous
 62
     7
370
    13
100
AcDbLine
 10
787.182247862347
 20
-334.239042041317
 30
0.0
 11
786.4321114869198
 21
-334.239042041317
 31
0.0
  0
LINE
  5
493
330
1F
100
AcDbEntity
  8
1-4
  6
Continuous
 62
     7
370
    13
100
AcDbLine
 10
787.182247862347
 20
-333.4889008975181
 30
0.0
 11
787.182247862347
 21
-334.239042041317
 31
0.0
  0
LINE
  5
494
330
1F
100
AcDbEntity
  8
1-4
  6
Continuous
 62
     7
370
    13
100
AcDbLine
 10
786.4321114869198
 20
-333.4889008975181
 30
0.0
 11
787.182247862347
 21
-333.4889008975181
 31
0.0
  0
LINE
  5
495
330
1F
100
AcDbEntity
  8
1-4
  6
Continuous
 62
     7
370
    13
100
AcDbLine
 10
786.4321114869198
 20
-334.239042041317
 30
0.0
 11
786.4321114869198
 21
-333.4889008975181
 31
0.0
  0
LINE
  5
496
330
1F
100
AcDbEntity
  8
1-4
  6
Continuous
 62
     7
370
    13
100
AcDbLine
 10
802.4852993340572
 20
-328.8089444613609
 30
0.0
 11
801.7351581902584
 21
-328.8089444613609
 31
0.0
  0
LINE
  5
497
330
1F
100
AcDbEntity
  8
1-4
  6
Continuous
 62
     7
370
    13
100
AcDbLine
 10
802.4852993340572
 20
-328.0588033175621
 30
0.0
 11
802.4852993340572
 21
-328.8089444613609
 31
0.0
  0
LINE
  5
498
330
1F
100
AcDbEntity
  8
1-4
  6
Continuous
 62
     7
370
    13
100
AcDbLine
 10
801.7351581902584
 20
-328.0588033175621
 30
0.0
 11
802.4852993340572
 21
-328.0588033175621
 31
0.0
  0
LINE
  5
499
330
1F
100
AcDbEntity
  8
1-4
  6
Continuous
 62
     7
370
    13
100
AcDbLine
 10
801.7351581902584
 20
-328.8089444613609
 30
0.0
 11
801.7351581902584
 21
-328.0588033175621
 31
0.0
  0
LINE
  5
49A
330
1F
100
AcDbEntity
  8
1-4
  6
Continuous
 62
     7
370
    13
100
AcDbLine
 10
897.2912186365022
 20
-324.1637661331125
 30
0.0
 11
896.5410774927034
 21
-324.1637661331125
 31
0.0
  0
LINE
  5
49B
330
1F
100
AcDbEntity
  8
1-4
  6
Continuous
 62
     7
370
    13
100
AcDbLine
 10
897.2912186365022
 20
-323.4136249893137
 30
0.0
 11
897.2912186365022
 21
-324.1637661331125
 31
0.0
  0
LINE
  5
49C
330
1F
100
AcDbEntity
  8
1-4
  6
Continuous
 62
     7
370
    13
100
AcDbLine
 10
896.5410774927034
 20
-323.4136249893137
 30
0.0
 11
897.2912186365022
 21
-323.4136249893137
 31
0.0
  0
LINE
  5
49D
330
1F
100
AcDbEntity
  8
1-4
  6
Continuous
 62
     7
370
    13
100
AcDbLine
 10
924.21400010394
 20
-310.7172443740793
 30
0.0
 11
923.4641092996492
 21
-310.7172443740793
 31
0.0
  0
LINE
  5
49E
330
1F
100
AcDbEntity
  8
1-4
  6
Continuous
 62
     7
370
    13
100
AcDbLine
 10
924.21400010394
 20
-309.9671032302805
 30
0.0
 11
924.21400010394
 21
-310.7172443740793
 31
0.0
  0
LINE
  5
49F
330
1F
100
AcDbEntity
  8
1-4
  6
Continuous
 62
     7
370
    13
100
AcDbLine
 10
923.4641092996492
 20
-309.9671032302805
 30
0.0
 11
924.21400010394
 21
-309.9671032302805
 31
0.0
  0
LINE
  5
4A0
330
1F
100
AcDbEntity
  8
1-4
  6
Continuous
 62
     7
370
    13
100
AcDbLine
 10
923.4641092996492
 20
-310.7172443740793
 30
0.0
 11
923.4641092996492
 21
-309.9671032302805
 31
0.0
  0
LINE
  5
4A1
330
1F
100
AcDbEntity
  8
1-4
  6
Continuous
 62
     7
370
    13
100
AcDbLine
 10
910.391909478177
 20
-314.6663715713449
 30
0.0
 11
909.6420162897005
 21
-314.6663715713449
 31
0.0
  0
LINE
  5
4A2
330
1F
100
AcDbEntity
  8
1-4
  6
Continuous
 62
     7
370
    13
100
AcDbLine
 10
910.391909478177
 20
-313.9162399642893
 30
0.0
 11
910.391909478177
 21
-314.6663715713449
 31
0.0
  0
LINE
  5
4A3
330
1F
100
AcDbEntity
  8
1-4
  6
Continuous
 62
     7
370
    13
100
AcDbLine
 10
909.6420162897005
 20
-313.9162399642893
 30
0.0
 11
910.391909478177
 21
-313.9162399642893
 31
0.0
  0
LINE
  5
4A4
330
1F
100
AcDbEntity
  8
1-4
  6
Continuous
 62
     7
370
    13
100
AcDbLine
 10
909.6420162897005
 20
-314.6663715713449
 30
0.0
 11
909.6420162897005
 21
-313.9162399642893
 31
0.0
  0
LINE
  5
4A5
330
1F
100
AcDbEntity
  8
1-4
  6
Continuous
 62
     7
370
    13
100
AcDbLine
 10
950.8709639291658
 20
-333.0145790450998
 30
0.0
 11
950.1210719327821
 21
-333.0145790450998
 31
0.0
  0
LINE
  5
4A6
330
1F
100
AcDbEntity
  8
1-4
  6
Continuous
 62
     7
370
    13
100
AcDbLine
 10
950.8709639291658
 20
-332.264437901301
 30
0.0
 11
950.8709639291658
 21
-333.0145790450998
 31
0.0
  0
LINE
  5
4A7
330
1F
100
AcDbEntity
  8
1-4
  6
Continuous
 62
     7
370
    13
100
AcDbLine
 10
950.1210719327821
 20
-332.264437901301
 30
0.0
 11
950.8709639291658
 21
-332.264437901301
 31
0.0
  0
LINE
  5
4A8
330
1F
100
AcDbEntity
  8
1-4
  6
Continuous
 62
     7
370
    13
100
AcDbLine
 10
950.1210719327821
 20
-333.0145790450998
 30
0.0
 11
950.1210719327821
 21
-332.264437901301
 31
0.0
  0
LINE
  5
4A9
330
1F
100
AcDbEntity
  8
1-4
  6
Continuous
 62
     7
370
    13
100
AcDbLine
 10
943.9599174241914
 20
-316.2305691116281
 30
0.0
 11
943.2100254278078
 21
-316.2305691116281
 31
0.0
  0
LINE
  5
4AA
330
1F
100
AcDbEntity
  8
1-4
  6
Continuous
 62
     7
370
    13
100
AcDbLine
 10
943.9599174241914
 20
-315.4804279678293
 30
0.0
 11
943.9599174241914
 21
-316.2305691116281
 31
0.0
  0
LINE
  5
4AB
330
1F
100
AcDbEntity
  8
1-4
  6
Continuous
 62
     7
370
    13
100
AcDbLine
 10
943.2100254278078
 20
-315.4804279678293
 30
0.0
 11
943.9599174241914
 21
-315.4804279678293
 31
0.0
  0
LINE
  5
4AC
330
1F
100
AcDbEntity
  8
1-4
  6
Continuous
 62
     7
370
    13
100
AcDbLine
 10
943.2100254278078
 20
-316.2305691116281
 30
0.0
 11
943.2100254278078
 21
-315.4804279678293
 31
0.0
  0
LINE
  5
4AD
330
1F
100
AcDbEntity
  8
1-4
  6
Continuous
 62
     7
370
    13
100
AcDbLine
 10
910.8856409768953
 20
-333.9185669296213
 30
0.0
 11
910.135504601468
 21
-333.9185669296213
 31
0.0
  0
LINE
  5
4AE
330
1F
100
AcDbEntity
  8
1-4
  6
Continuous
 62
     7
370
    13
100
AcDbLine
 10
910.8856409768953
 20
-333.1684257858225
 30
0.0
 11
910.8856409768953
 21
-333.9185669296213
 31
0.0
  0
LINE
  5
4AF
330
1F
100
AcDbEntity
  8
1-4
  6
Continuous
 62
     7
370
    13
100
AcDbLine
 10
910.135504601468
 20
-333.1684257858225
 30
0.0
 11
910.8856409768953
 21
-333.1684257858225
 31
0.0
  0
LINE
  5
4B0
330
1F
100
AcDbEntity
  8
1-4
  6
Continuous
 62
     7
370
    13
100
AcDbLine
 10
910.135504601468
 20
-333.9185669296213
 30
0.0
 11
910.135504601468
 21
-333.1684257858225
 31
0.0
  0
LINE
  5
4B1
330
1F
100
AcDbEntity
  8
1-4
  6
Continuous
 62
     7
370
    13
100
AcDbLine
 10
926.1886924486055
 20
-328.4884693496653
 30
0.0
 11
925.4385513048067
 21
-328.4884693496653
 31
0.0
  0
LINE
  5
4B2
330
1F
100
AcDbEntity
  8
1-4
  6
Continuous
 62
     7
370
    13
100
AcDbLine
 10
926.1886924486055
 20
-327.7383282058664
 30
0.0
 11
926.1886924486055
 21
-328.4884693496653
 31
0.0
  0
LINE
  5
4B3
330
1F
100
AcDbEntity
  8
1-4
  6
Continuous
 62
     7
370
    13
100
AcDbLine
 10
925.4385513048067
 20
-327.7383282058664
 30
0.0
 11
926.1886924486055
 21
-327.7383282058664
 31
0.0
  0
LINE
  5
4B4
330
1F
100
AcDbEntity
  8
1-4
  6
Continuous
 62
     7
370
    13
100
AcDbLine
 10
925.4385513048067
 20
-328.4884693496653
 30
0.0
 11
925.4385513048067
 21
-327.7383282058664
 31
0.0
  0
LINE
  5
4B5
330
1F
100
AcDbEntity
  8
1-4
  6
Continuous
 62
     7
370
    13
100
AcDbLine
 10
959.4633903054721
 20
-324.1637661331125
 30
0.0
 11
958.7132491616733
 21
-324.1637661331125
 31
0.0
  0
LINE
  5
4B6
330
1F
100
AcDbEntity
  8
1-4
  6
Continuous
 62
     7
370
    13
100
AcDbLine
 10
959.4633903054721
 20
-323.4136249893137
 30
0.0
 11
959.4633903054721
 21
-324.1637661331125
 31
0.0
  0
LINE
  5
4B7
330
1F
100
AcDbEntity
  8
1-4
  6
Continuous
 62
     7
370
    13
100
AcDbLine
 10
958.7132491616733
 20
-323.4136249893137
 30
0.0
 11
959.4633903054721
 21
-323.4136249893137
 31
0.0
  0
LINE
  5
4B8
330
1F
100
AcDbEntity
  8
1-4
  6
Continuous
 62
     7
370
    13
100
AcDbLine
 10
986.3861717729098
 20
-310.7172443740793
 30
0.0
 11
985.6362809686191
 21
-310.7172443740793
 31
0.0
  0
LINE
  5
4B9
330
1F
100
AcDbEntity
  8
1-4
  6
Continuous
 62
     7
370
    13
100
AcDbLine
 10
986.3861717729098
 20
-309.9671032302805
 30
0.0
 11
986.3861717729098
 21
-310.7172443740793
 31
0.0
  0
LINE
  5
4BA
330
1F
100
AcDbEntity
  8
1-4
  6
Continuous
 62
     7
370
    13
100
AcDbLine
 10
985.6362809686191
 20
-309.9671032302805
 30
0.0
 11
986.3861717729098
 21
-309.9671032302805
 31
0.0
  0
LINE
  5
4BB
330
1F
100
AcDbEntity
  8
1-4
  6
Continuous
 62
     7
370
    13
100
AcDbLine
 10
985.6362809686191
 20
-310.7172443740793
 30
0.0
 11
985.6362809686191
 21
-309.9671032302805
 31
0.0
  0
LINE
  5
4BC
330
1F
100
AcDbEntity
  8
1-4
  6
Continuous
 62
     7
370
    13
100
AcDbLine
 10
972.5640811471469
 20
-314.6663715713449
 30
0.0
 11
971.8141879586703
 21
-314.6663715713449
 31
0.0
  0
LINE
  5
4BD
330
1F
100
AcDbEntity
  8
1-4
  6
Continuous
 62
     7
370
    13
100
AcDbLine
 10
972.5640811471469
 20
-313.9162399642893
 30
0.0
 11
972.5640811471469
 21
-314.6663715713449
 31
0.0
  0
LINE
  5
4BE
330
1F
100
AcDbEntity
  8
1-4
  6
Continuous
 62
     7
370
    13
100
AcDbLine
 10
971.8141879586703
 20
-313.9162399642893
 30
0.0
 11
972.5640811471469
 21
-313.9162399642893
 31
0.0
  0
LINE
  5
4BF
330
1F
100
AcDbEntity
  8
1-4
  6
Continuous
 62
     7
370
    13
100
AcDbLine
 10
971.8141879586703
 20
-314.6663715713449
 30
0.0
 11
971.8141879586703
 21
-313.9162399642893
 31
0.0
  0
LINE
  5
4C0
330
1F
100
AcDbEntity
  8
1-4
  6
Continuous
 62
     7
370
    13
100
AcDbLine
 10
1013.043135598136
 20
-333.0145790450998
 30
0.0
 11
1012.293243601752
 21
-333.0145790450998
 31
0.0
  0
LINE
  5
4C1
330
1F
100
AcDbEntity
  8
1-4
  6
Continuous
 62
     7
370
    13
100
AcDbLine
 10
1013.043135598136
 20
-332.264437901301
 30
0.0
 11
1013.043135598136
 21
-333.0145790450998
 31
0.0
  0
LINE
  5
4C2
330
1F
100
AcDbEntity
  8
1-4
  6
Continuous
 62
     7
370
    13
100
AcDbLine
 10
1012.293243601752
 20
-332.264437901301
 30
0.0
 11
1013.043135598136
 21
-332.264437901301
 31
0.0
  0
LINE
  5
4C3
330
1F
100
AcDbEntity
  8
1-4
  6
Continuous
 62
     7
370
    13
100
AcDbLine
 10
1012.293243601752
 20
-333.0145790450998
 30
0.0
 11
1012.293243601752
 21
-332.264437901301
 31
0.0
  0
LINE
  5
4C4
330
1F
100
AcDbEntity
  8
1-4
  6
Continuous
 62
     7
370
    13
100
AcDbLine
 10
1006.132089093161
 20
-316.2305691116281
 30
0.0
 11
1005.382197096778
 21
-316.2305691116281
 31
0.0
  0
LINE
  5
4C5
330
1F
100
AcDbEntity
  8
1-4
  6
Continuous
 62
     7
370
    13
100
AcDbLine
 10
1006.132089093161
 20
-315.4804279678293
 30
0.0
 11
1006.132089093161
 21
-316.2305691116281
 31
0.0
  0
LINE
  5
4C6
330
1F
100
AcDbEntity
  8
1-4
  6
Continuous
 62
     7
370
    13
100
AcDbLine
 10
1005.382197096778
 20
-315.4804279678293
 30
0.0
 11
1006.132089093161
 21
-315.4804279678293
 31
0.0
  0
LINE
  5
4C7
330
1F
100
AcDbEntity
  8
1-4
  6
Continuous
 62
     7
370
    13
100
AcDbLine
 10
1005.382197096778
 20
-316.2305691116281
 30
0.0
 11
1005.382197096778
 21
-315.4804279678293
 31
0.0
  0
LINE
  5
4C8
330
1F
100
AcDbEntity
  8
1-4
  6
Continuous
 62
     7
370
    13
100
AcDbLine
 10
973.0578126458652
 20
-333.9185669296213
 30
0.0
 11
972.3076762704379
 21
-333.9185669296213
 31
0.0
  0
LINE
  5
4C9
330
1F
100
AcDbEntity
  8
1-4
  6
Continuous
 62
     7
370
    13
100
AcDbLine
 10
973.0578126458652
 20
-333.1684257858225
 30
0.0
 11
973.0578126458652
 21
-333.9185669296213
 31
0.0
  0
LINE
  5
4CA
330
1F
100
AcDbEntity
  8
1-4
  6
Continuous
 62
     7
370
    13
100
AcDbLine
 10
972.3076762704379
 20
-333.1684257858225
 30
0.0
 11
973.0578126458652
 21
-333.1684257858225
 31
0.0
  0
LINE
  5
4CB
330
1F
100
AcDbEntity
  8
1-4
  6
Continuous
 62
     7
370
    13
100
AcDbLine
 10
972.3076762704379
 20
-333.9185669296213
 30
0.0
 11
972.3076762704379
 21
-333.1684257858225
 31
0.0
  0
LINE
  5
4CC
330
1F
100
AcDbEntity
  8
1-4
  6
Continuous
 62
     7
370
    13
100
AcDbLine
 10
988.3608641175754
 20
-328.4884693496653
 30
0.0
 11
987.6107229737765
 21
-328.4884693496653
 31
0.0
  0
LINE
  5
4CD
330
1F
100
AcDbEntity
  8
1-4
  6
Continuous
 62
     7
370
    13
100
AcDbLine
 10
988.3608641175754
 20
-327.7383282058664
 30
0.0
 11
988.3608641175754
 21
-328.4884693496653
 31
0.0
  0
LINE
  5
4CE
330
1F
100
AcDbEntity
  8
1-4
  6
Continuous
 62
     7
370
    13
100
AcDbLine
 10
987.6107229737765
 20
-327.7383282058664
 30
0.0
 11
988.3608641175754
 21
-327.7383282058664
 31
0.0
  0
LINE
  5
4CF
330
1F
100
AcDbEntity
  8
1-4
  6
Continuous
 62
     7
370
    13
100
AcDbLine
 10
987.6107229737765
 20
-328.4884693496653
 30
0.0
 11
987.6107229737765
 21
-327.7383282058664
 31
0.0
  0
LINE
  5
4D0
330
1F
100
AcDbEntity
  8
1-4
  6
Continuous
 62
     7
370
    13
100
AcDbLine
 10
1021.635561974442
 20
-324.1637661331125
 30
0.0
 11
1020.885420830643
 21
-324.1637661331125
 31
0.0
  0
LINE
  5
4D1
330
1F
100
AcDbEntity
  8
1-4
  6
Continuous
 62
     7
370
    13
100
AcDbLine
 10
1021.635561974442
 20
-323.4136249893137
 30
0.0
 11
1021.635561974442
 21
-324.1637661331125
 31
0.0
  0
LINE
  5
4D2
330
1F
100
AcDbEntity
  8
1-4
  6
Continuous
 62
     7
370
    13
100
AcDbLine
 10
1020.885420830643
 20
-323.4136249893137
 30
0.0
 11
1021.635561974442
 21
-323.4136249893137
 31
0.0
  0
LINE
  5
4D3
330
1F
100
AcDbEntity
  8
1-4
  6
Continuous
 62
     7
370
    13
100
AcDbLine
 10
1048.55834344188
 20
-310.7172443740793
 30
0.0
 11
1047.808452637589
 21
-310.7172443740793
 31
0.0
  0
LINE
  5
4D4
330
1F
100
AcDbEntity
  8
1-4
  6
Continuous
 62
     7
370
    13
100
AcDbLine
 10
1048.55834344188
 20
-309.9671032302805
 30
0.0
 11
1048.55834344188
 21
-310.7172443740793
 31
0.0
  0
LINE
  5
4D5
330
1F
100
AcDbEntity
  8
1-4
  6
Continuous
 62
     7
370
    13
100
AcDbLine
 10
1047.808452637589
 20
-309.9671032302805
 30
0.0
 11
1048.55834344188
 21
-309.9671032302805
 31
0.0
  0
LINE
  5
4D6
330
1F
100
AcDbEntity
  8
1-4
  6
Continuous
 62
     7
370
    13
100
AcDbLine
 10
1047.808452637589
 20
-310.7172443740793
 30
0.0
 11
1047.808452637589
 21
-309.9671032302805
 31
0.0
  0
LINE
  5
4D7
330
1F
100
AcDbEntity
  8
1-4
  6
Continuous
 62
     7
370
    13
100
AcDbLine
 10
1034.736252816117
 20
-314.6663715713449
 30
0.0
 11
1033.98635962764
 21
-314.6663715713449
 31
0.0
  0
LINE
  5
4D8
330
1F
100
AcDbEntity
  8
1-4
  6
Continuous
 62
     7
370
    13
100
AcDbLine
 10
1034.736252816117
 20
-313.9162399642893
 30
0.0
 11
1034.736252816117
 21
-314.6663715713449
 31
0.0
  0
LINE
  5
4D9
330
1F
100
AcDbEntity
  8
1-4
  6
Continuous
 62
     7
370
    13
100
AcDbLine
 10
1033.98635962764
 20
-313.9162399642893
 30
0.0
 11
1034.736252816117
 21
-313.9162399642893
 31
0.0
  0
LINE
  5
4DA
330
1F
100
AcDbEntity
  8
1-4
  6
Continuous
 62
     7
370
    13
100
AcDbLine
 10
1033.98635962764
 20
-314.6663715713449
 30
0.0
 11
1033.98635962764
 21
-313.9162399642893
 31
0.0
  0
LINE
  5
4DB
330
1F
100
AcDbEntity
  8
1-4
  6
Continuous
 62
     7
370
    13
100
AcDbLine
 10
1075.215307267106
 20
-333.0145790450998
 30
0.0
 11
1074.465415270722
 21
-333.0145790450998
 31
0.0
  0
LINE
  5
4DC
330
1F
100
AcDbEntity
  8
1-4
  6
Continuous
 62
     7
370
    13
100
AcDbLine
 10
1075.215307267106
 20
-332.264437901301
 30
0.0
 11
1075.215307267106
 21
-333.0145790450998
 31
0.0
  0
LINE
  5
4DD
330
1F
100
AcDbEntity
  8
1-4
  6
Continuous
 62
     7
370
    13
100
AcDbLine
 10
1074.465415270722
 20
-332.264437901301
 30
0.0
 11
1075.215307267106
 21
-332.264437901301
 31
0.0
  0
LINE
  5
4DE
330
1F
100
AcDbEntity
  8
1-4
  6
Continuous
 62
     7
370
    13
100
AcDbLine
 10
1074.465415270722
 20
-333.0145790450998
 30
0.0
 11
1074.465415270722
 21
-332.264437901301
 31
0.0
  0
LINE
  5
4DF
330
1F
100
AcDbEntity
  8
1-4
  6
Continuous
 62
     7
370
    13
100
AcDbLine
 10
1068.304260762131
 20
-316.2305691116281
 30
0.0
 11
1067.554368765748
 21
-316.2305691116281
 31
0.0
  0
LINE
  5
4E0
330
1F
100
AcDbEntity
  8
1-4
  6
Continuous
 62
     7
370
    13
100
AcDbLine
 10
1068.304260762131
 20
-315.4804279678293
 30
0.0
 11
1068.304260762131
 21
-316.2305691116281
 31
0.0
  0
LINE
  5
4E1
330
1F
100
AcDbEntity
  8
1-4
  6
Continuous
 62
     7
370
    13
100
AcDbLine
 10
1067.554368765748
 20
-315.4804279678293
 30
0.0
 11
1068.304260762131
 21
-315.4804279678293
 31
0.0
  0
LINE
  5
4E2
330
1F
100
AcDbEntity
  8
1-4
  6
Continuous
 62
     7
370
    13
100
AcDbLine
 10
1067.554368765748
 20
-316.2305691116281
 30
0.0
 11
1067.554368765748
 21
-315.4804279678293
 31
0.0
  0
LINE
  5
4E3
330
1F
100
AcDbEntity
  8
1-4
  6
Continuous
 62
     7
370
    13
100
AcDbLine
 10
1035.229984314835
 20
-333.9185669296213
 30
0.0
 11
1034.479847939408
 21
-333.9185669296213
 31
0.0
  0
LINE
  5
4E4
330
1F
100
AcDbEntity
  8
1-4
  6
Continuous
 62
     7
370
    13
100
AcDbLine
 10
1035.229984314835
 20
-333.1684257858225
 30
0.0
 11
1035.229984314835
 21
-333.9185669296213
 31
0.0
  0
LINE
  5
4E5
330
1F
100
AcDbEntity
  8
1-4
  6
Continuous
 62
     7
370
    13
100
AcDbLine
 10
1034.479847939408
 20
-333.1684257858225
 30
0.0
 11
1035.229984314835
 21
-333.1684257858225
 31
0.0
  0
LINE
  5
4E6
330
1F
100
AcDbEntity
  8
1-4
  6
Continuous
 62
     7
370
    13
100
AcDbLine
 10
1034.479847939408
 20
-333.9185669296213
 30
0.0
 11
1034.479847939408
 21
-333.1684257858225
 31
0.0
  0
LINE
  5
4E7
330
1F
100
AcDbEntity
  8
1-4
  6
Continuous
 62
     7
370
    13
100
AcDbLine
 10
1050.533035786545
 20
-328.4884693496653
 30
0.0
 11
1049.782894642746
 21
-328.4884693496653
 31
0.0
  0
LINE
  5
4E8
330
1F
100
AcDbEntity
  8
1-4
  6
Continuous
 62
     7
370
    13
100
AcDbLine
 10
1050.533035786545
 20
-327.7383282058664
 30
0.0
 11
1050.533035786545
 21
-328.4884693496653
 31
0.0
  0
LINE
  5
4E9
330
1F
100
AcDbEntity
  8
1-4
  6
Continuous
 62
     7
370
    13
100
AcDbLine
 10
1049.782894642746
 20
-327.7383282058664
 30
0.0
 11
1050.533035786545
 21
-327.7383282058664
 31
0.0
  0
LINE
  5
4EA
330
1F
100
AcDbEntity
  8
1-4
  6
Continuous
 62
     7
370
    13
100
AcDbLine
 10
1049.782894642746
 20
-328.4884693496653
 30
0.0
 11
1049.782894642746
 21
-327.7383282058664
 31
0.0
  0
LINE
  5
4EB
330
1F
100
AcDbEntity
  8
1-4
  6
Continuous
 62
     7
370
    13
100
AcDbLine
 10
1083.807733643412
 20
-324.1637661331125
 30
0.0
 11
1083.057592499613
 21
-324.1637661331125
 31
0.0
  0
LINE
  5
4EC
330
1F
100
AcDbEntity
  8
1-4
  6
Continuous
 62
     7
370
    13
100
AcDbLine
 10
1083.807733643412
 20
-323.4136249893137
 30
0.0
 11
1083.807733643412
 21
-324.1637661331125
 31
0.0
  0
LINE
  5
4ED
330
1F
100
AcDbEntity
  8
1-4
  6
Continuous
 62
     7
370
    13
100
AcDbLine
 10
1083.057592499613
 20
-323.4136249893137
 30
0.0
 11
1083.807733643412
 21
-323.4136249893137
 31
0.0
  0
LINE
  5
4EE
330
1F
100
AcDbEntity
  8
1-4
  6
Continuous
 62
     7
370
    13
100
AcDbLine
 10
1110.73051511085
 20
-310.7172443740793
 30
0.0
 11
1109.980624306559
 21
-310.7172443740793
 31
0.0
  0
LINE
  5
4EF
330
1F
100
AcDbEntity
  8
1-4
  6
Continuous
 62
     7
370
    13
100
AcDbLine
 10
1110.73051511085
 20
-309.9671032302805
 30
0.0
 11
1110.73051511085
 21
-310.7172443740793
 31
0.0
  0
LINE
  5
4F0
330
1F
100
AcDbEntity
  8
1-4
  6
Continuous
 62
     7
370
    13
100
AcDbLine
 10
1109.980624306559
 20
-309.9671032302805
 30
0.0
 11
1110.73051511085
 21
-309.9671032302805
 31
0.0
  0
LINE
  5
4F1
330
1F
100
AcDbEntity
  8
1-4
  6
Continuous
 62
     7
370
    13
100
AcDbLine
 10
1109.980624306559
 20
-310.7172443740793
 30
0.0
 11
1109.980624306559
 21
-309.9671032302805
 31
0.0
  0
LINE
  5
4F2
330
1F
100
AcDbEntity
  8
1-4
  6
Continuous
 62
     7
370
    13
100
AcDbLine
 10
1096.908424485087
 20
-314.6663715713449
 30
0.0
 11
1096.15853129661
 21
-314.6663715713449
 31
0.0
  0
LINE
  5
4F3
330
1F
100
AcDbEntity
  8
1-4
  6
Continuous
 62
     7
370
    13
100
AcDbLine
 10
1096.908424485087
 20
-313.9162399642893
 30
0.0
 11
1096.908424485087
 21
-314.6663715713449
 31
0.0
  0
LINE
  5
4F4
330
1F
100
AcDbEntity
  8
1-4
  6
Continuous
 62
     7
370
    13
100
AcDbLine
 10
1096.15853129661
 20
-313.9162399642893
 30
0.0
 11
1096.908424485087
 21
-313.9162399642893
 31
0.0
  0
LINE
  5
4F5
330
1F
100
AcDbEntity
  8
1-4
  6
Continuous
 62
     7
370
    13
100
AcDbLine
 10
1096.15853129661
 20
-314.6663715713449
 30
0.0
 11
1096.15853129661
 21
-313.9162399642893
 31
0.0
  0
LINE
  5
4F6
330
1F
100
AcDbEntity
  8
1-4
  6
Continuous
 62
     7
370
    13
100
AcDbLine
 10
1097.402155983805
 20
-333.9185669296213
 30
0.0
 11
1096.652019608378
 21
-333.9185669296213
 31
0.0
  0
LINE
  5
4F7
330
1F
100
AcDbEntity
  8
1-4
  6
Continuous
 62
     7
370
    13
100
AcDbLine
 10
1097.402155983805
 20
-333.1684257858225
 30
0.0
 11
1097.402155983805
 21
-333.9185669296213
 31
0.0
  0
LINE
  5
4F8
330
1F
100
AcDbEntity
  8
1-4
  6
Continuous
 62
     7
370
    13
100
AcDbLine
 10
1096.652019608378
 20
-333.1684257858225
 30
0.0
 11
1097.402155983805
 21
-333.1684257858225
 31
0.0
  0
LINE
  5
4F9
330
1F
100
AcDbEntity
  8
1-4
  6
Continuous
 62
     7
370
    13
100
AcDbLine
 10
1096.652019608378
 20
-333.9185669296213
 30
0.0
 11
1096.652019608378
 21
-333.1684257858225
 31
0.0
  0
LINE
  5
4FA
330
1F
100
AcDbEntity
  8
1-4
  6
Continuous
 62
     7
370
    13
100
AcDbLine
 10
1112.705207455515
 20
-328.4884693496653
 30
0.0
 11
1111.955066311716
 21
-328.4884693496653
 31
0.0
  0
LINE
  5
4FB
330
1F
100
AcDbEntity
  8
1-4
  6
Continuous
 62
     7
370
    13
100
AcDbLine
 10
1112.705207455515
 20
-327.7383282058664
 30
0.0
 11
1112.705207455515
 21
-328.4884693496653
 31
0.0
  0
LINE
  5
4FC
330
1F
100
AcDbEntity
  8
1-4
  6
Continuous
 62
     7
370
    13
100
AcDbLine
 10
1111.955066311716
 20
-327.7383282058664
 30
0.0
 11
1112.705207455515
 21
-327.7383282058664
 31
0.0
  0
LINE
  5
4FD
330
1F
100
AcDbEntity
  8
1-4
  6
Continuous
 62
     7
370
    13
100
AcDbLine
 10
1111.955066311716
 20
-328.4884693496653
 30
0.0
 11
1111.955066311716
 21
-327.7383282058664
 31
0.0
  0
LINE
  5
4FE
330
1F
100
AcDbEntity
  8
1-4
  6
Continuous
 62
     7
370
    13
100
AcDbLine
 10
770.2298633018398
 20
-314.4931037178762
 30
0.0
 11
769.4799701133633
 21
-314.4931037178762
 31
0.0
  0
LINE
  5
4FF
330
1F
100
AcDbEntity
  8
1-4
  6
Continuous
 62
     7
370
    13
100
AcDbLine
 10
770.2298633018398
 20
-313.7429721108206
 30
0.0
 11
770.2298633018398
 21
-314.4931037178762
 31
0.0
  0
LINE
  5
500
330
1F
100
AcDbEntity
  8
1-4
  6
Continuous
 62
     7
370
    13
100
AcDbLine
 10
769.4799701133633
 20
-313.7429721108206
 30
0.0
 11
770.2298633018398
 21
-313.7429721108206
 31
0.0
  0
LINE
  5
501
330
1F
100
AcDbEntity
  8
1-4
  6
Continuous
 62
     7
370
    13
100
AcDbLine
 10
769.4799701133633
 20
-314.4931037178762
 30
0.0
 11
769.4799701133633
 21
-313.7429721108206
 31
0.0
  0
LINE
  5
502
330
1F
100
AcDbEntity
  8
1-4
  6
Continuous
 62
     7
370
    13
100
AcDbLine
 10
772.8376843781551
 20
-323.7341001010093
 30
0.0
 11
772.8376843781551
 21
-324.4842412448082
 31
0.0
  0
TEXT
  5
503
330
1F
100
AcDbEntity
  8
1-4
  6
Continuous
 62
     7
370
    13
100
AcDbText
 10
424.5917138085443
 20
-491.0062358466092
 30
0.0
 40
22.86
  1
コンクリート
 41
1.138888888888889
  7
ＭＳ ゴシック
100
AcDbText
  0
LINE
  5
504
330
1F
100
AcDbEntity
  8
1-4
  6
Continuous
 62
     7
370
    13
100
AcDbLine
 10
655.2602232270535
 20
-403.9367374846105
 30
0.0
 11
766.5837285505588
 21
-322.641282939156
 31
0.0
  0
LINE
  5
505
330
1F
100
AcDbEntity
  8
1-4
  6
Continuous
 62
     7
370
    13
100
AcDbLine
 10
655.2602232270535
 20
-500.4293152896886
 30
0.0
 11
766.5837285505588
 21
-419.1338607442338
 31
0.0
  0
TEXT
  5
506
330
1F
100
AcDbEntity
  8
1-4
  6
Continuous
 62
     2
370
   211
100
AcDbText
 10
1281.296414549713
 20
-555.7723671361335
 30
0.0
 40
30.48
  1
60
 50
90.0
 41
1.0625
  7
ＭＳ ゴシック
100
AcDbText
  0
TEXT
  5
507
330
1F
100
AcDbEntity
  8
1-4
  6
Continuous
 62
     7
370
    13
100
AcDbText
 10
307.3524631942936
 20
-600.0977787519938
 30
0.0
 40
22.86
  1
クラッシャーラン基礎
 41
1.15
  7
ＭＳ ゴシック
100
AcDbText
  0
LINE
  5
508
330
1F
100
AcDbEntity
  8
1-4
  6
Continuous
 62
     7
370
    13
100
AcDbLine
 10
422.4522566184007
 20
-500.4293152896886
 30
0.0
 11
655.2602232270535
 21
-500.4293152896886
 31
0.0
  0
LINE
  5
509
330
1F
100
AcDbEntity
  8
1-4
  6
Continuous
 62
     7
370
    13
100
AcDbLine
 10
402.8445169191906
 20
-403.9367374846105
 30
0.0
 11
655.2602232270535
 21
-403.9367374846105
 31
0.0
  0
LINE
  5
50A
330
1F
100
AcDbEntity
  8
1-4
  6
Continuous
 62
     7
370
    13
100
AcDbLine
 10
203.1944942641101
 20
-194.7765720932874
 30
0.0
 11
487.2055557915095
 21
-194.7765720932874
 31
0.0
  0
LINE
  5
50B
330
1F
100
AcDbEntity
  8
1-4
  6
Continuous
 62
     7
370
    13
100
AcDbLine
 10
487.2055557915095
 20
-194.7765720932874
 30
0.0
 11
631.3387496199483
 21
-89.52141081067758
 31
0.0
  0
LINE
  5
50C
330
1F
100
AcDbEntity
  8
1-4
  6
Continuous
 62
     7
370
    13
100
AcDbLine
 10
766.5837285505588
 20
-322.641282939156
 30
0.0
 11
744.642363489776
 21
-334.6236240822489
 31
0.0
  0
LINE
  5
50D
330
1F
100
AcDbEntity
  8
1-4
  6
Continuous
 62
     7
370
    13
100
AcDbLine
 10
766.5837285505588
 20
-322.641282939156
 30
0.0
 11
748.49125546706
 21
-339.894178861953
 31
0.0
  0
LINE
  5
50E
330
1F
100
AcDbEntity
  8
1-4
  6
Continuous
 62
     7
370
    13
100
AcDbLine
 10
766.5837285505588
 20
-419.1338607442338
 30
0.0
 11
744.642363489776
 21
-431.1162018873267
 31
0.0
  0
LINE
  5
50F
330
1F
100
AcDbEntity
  8
1-4
  6
Continuous
 62
     7
370
    13
100
AcDbLine
 10
766.5837285505588
 20
-419.1338607442338
 30
0.0
 11
748.49125546706
 21
-436.386756667031
 31
0.0
  0
LINE
  5
510
330
1F
100
AcDbEntity
  8
1-4
  6
Continuous
 62
     7
370
    13
100
AcDbLine
 10
631.3387496199483
 20
-89.52141081067758
 30
0.0
 11
609.3973845591653
 21
-101.5037519537704
 31
0.0
  0
LINE
  5
511
330
1F
100
AcDbEntity
  8
1-4
  6
Continuous
 62
     7
370
    13
100
AcDbLine
 10
631.3387496199483
 20
-89.52141081067758
 30
0.0
 11
613.2462765364494
 21
-106.7743067334748
 31
0.0
  0
LINE
  5
512
330
1F
100
AcDbEntity
  8
1-4
  6
Continuous
 62
     7
370
    13
100
AcDbLine
 10
304.4447031615334
 20
-609.5208581950733
 30
0.0
 11
655.2602232270535
 21
-609.5208581950733
 31
0.0
  0
LINE
  5
513
330
1F
100
AcDbEntity
  8
1-4
  6
Continuous
 62
     7
370
    13
100
AcDbLine
 10
655.2602232270535
 20
-609.5208581950733
 30
0.0
 11
741.5848508668969
 21
-546.481163010714
 31
0.0
  0
LINE
  5
514
330
1F
100
AcDbEntity
  8
1-4
  6
Continuous
 62
     7
370
    13
100
AcDbLine
 10
741.5848508668969
 20
-546.481163010714
 30
0.0
 11
719.6434858061139
 21
-558.4635041538069
 31
0.0
  0
LINE
  5
515
330
1F
100
AcDbEntity
  8
1-4
  6
Continuous
 62
     7
370
    13
100
AcDbLine
 10
741.5848508668969
 20
-546.481163010714
 30
0.0
 11
723.492377783398
 21
-563.7340589335113
 31
0.0
  0
LINE
  5
516
330
1F
100
AcDbEntity
  8
1-1
  6
Continuous
 62
     2
370
    13
100
AcDbLine
 10
1099.082922603709
 20
-9.523020347807929
 30
0.0
 11
1116.582880185453
 21
-27.02297792955314
 31
0.0
  0
LINE
  5
517
330
1F
100
AcDbEntity
  8
1-1
  6
Continuous
 62
     2
370
    13
100
AcDbLine
 10
879.084871486883
 20
-89.52141081067751
 30
0.0
 11
766.5837285505588
 21
-89.52141081067751
 31
0.0
  0
LINE
  5
518
330
1F
100
AcDbEntity
  8
1-1
  6
Continuous
 62
     2
370
    13
100
AcDbLine
 10
879.084871486883
 20
-9.523020347807929
 30
0.0
 11
879.084871486883
 21
-89.52141081067751
 31
0.0
  0
LINE
  5
519
330
1F
100
AcDbEntity
  8
1-1
  6
Continuous
 62
     2
370
    13
100
AcDbLine
 10
1099.082922603709
 20
-9.523020347807929
 30
0.0
 11
879.084871486883
 21
-9.523020347807929
 31
0.0
  0
LINE
  5
51A
330
1F
100
AcDbEntity
  8
1-1
  6
Continuous
 62
     2
370
    13
100
AcDbLine
 10
1019.918744679283
 20
-137.3348011930614
 30
0.0
 11
1116.582880185453
 21
-40.67066568689171
 31
0.0
  0
LINE
  5
51B
330
1F
100
AcDbEntity
  8
1-1
  6
Continuous
 62
     2
370
    13
100
AcDbLine
 10
1037.59537274236
 20
-137.3348011930614
 30
0.0
 11
1116.582880185453
 21
-58.34651468826991
 31
0.0
  0
LINE
  5
51C
330
1F
100
AcDbEntity
  8
1-1
  6
Continuous
 62
     2
370
    13
100
AcDbLine
 10
1055.273570508832
 20
-137.3348011930614
 30
0.0
 11
1116.582880185453
 21
-76.02484103358876
 31
0.0
  0
LINE
  5
51D
330
1F
100
AcDbEntity
  8
1-1
  6
Continuous
 62
     2
370
    13
100
AcDbLine
 10
1116.582880185453
 20
-27.02297792955314
 30
0.0
 11
1116.582880185453
 21
-309.5219392714417
 31
0.0
  0
LINE
  5
51E
330
1F
100
AcDbEntity
  8
1-1
  6
Continuous
 62
     2
370
    13
100
AcDbLine
 10
847.7316066009039
 20
-309.5219392714417
 30
0.0
 11
941.2292092792839
 21
-216.0243365930614
 31
0.0
  0
LINE
  5
51F
330
1F
100
AcDbEntity
  8
1-1
  6
Continuous
 62
     2
370
    13
100
AcDbLine
 10
865.409932946221
 20
-309.5219392714417
 30
0.0
 11
958.9066134574753
 21
-216.0243365930615
 31
0.0
  0
LINE
  5
520
330
1F
100
AcDbEntity
  8
1-1
  6
Continuous
 62
     2
370
    13
100
AcDbLine
 10
883.0882592915398
 20
-309.5219392714417
 30
0.0
 11
976.5848699844903
 21
-216.0243365930614
 31
0.0
  0
LINE
  5
521
330
1F
100
AcDbEntity
  8
1-1
  6
Continuous
 62
     2
370
    13
100
AcDbLine
 10
766.5837285505588
 20
-89.52141081067751
 30
0.0
 11
766.5837285505588
 21
-309.5219392714417
 31
0.0
  0
LINE
  5
522
330
1F
100
AcDbEntity
  8
1-6
  6
Continuous
 62
     6
370
    13
100
AcDbLine
 10
1141.584235213054
 20
-459.5226374052259
 30
0.0
 11
1141.584235213054
 21
-609.5220968670413
 31
0.0
  0
LINE
  5
523
330
1F
100
AcDbEntity
  8
1-6
  6
Continuous
 62
     6
370
    13
100
AcDbLine
 10
836.439872929104
 20
-459.5226374052259
 30
0.0
 11
961.4392160352893
 21
-334.5208169551026
 31
0.0
  0
LINE
  5
524
330
1F
100
AcDbEntity
  8
1-6
  6
Continuous
 62
     6
370
    13
100
AcDbLine
 10
854.1181992744228
 20
-459.5226374052259
 30
0.0
 11
979.117542380608
 21
-334.5208169551026
 31
0.0
  0
LINE
  5
525
330
1F
100
AcDbEntity
  8
1-6
  6
Continuous
 62
     6
370
    13
100
AcDbLine
 10
871.7965256197399
 20
-459.5226374052259
 30
0.0
 11
996.7958687259252
 21
-334.5208169551026
 31
0.0
  0
LINE
  5
526
330
1F
100
AcDbEntity
  8
1-6
  6
Continuous
 62
     6
370
    13
100
AcDbLine
 10
741.5848508668969
 20
-459.5226374052259
 30
0.0
 11
741.5848508668969
 21
-609.5208581950733
 31
0.0
  0
LINE
  5
527
330
1F
100
AcDbEntity
  8
1-6
  6
Continuous
 62
     6
370
    13
100
AcDbLine
 10
1022.344716763941
 20
-459.5226374052259
 30
0.0
 11
935.7417273609624
 21
-609.5208581950733
 31
0.0
  0
LINE
  5
528
330
1F
100
AcDbEntity
  8
1-6
  6
Continuous
 62
     6
370
    13
100
AcDbLine
 10
935.7417273609624
 20
-459.5226374052259
 30
0.0
 11
849.138737957986
 21
-609.5208581950733
 31
0.0
  0
LINE
  5
529
330
1F
100
AcDbEntity
  8
1-6
  6
Continuous
 62
     6
370
    13
100
AcDbLine
 10
950.5289933300216
 20
-583.9100765585949
 30
0.0
 11
965.3162592990807
 21
-609.5208581950733
 31
0.0
  0
LINE
  5
52A
330
1F
100
AcDbEntity
  8
1-6
  6
Continuous
 62
     6
370
    13
100
AcDbLine
 10
863.926003927045
 20
-583.9100765585949
 30
0.0
 11
878.7132698961043
 21
-609.5208581950733
 31
0.0
  0
LINE
  5
52B
330
1F
100
AcDbEntity
  8
1-6
  6
Continuous
 62
     6
370
    13
100
AcDbLine
 10
985.1820803421176
 20
-459.5226374052259
 30
0.0
 11
1003.76215988106
 21
-491.7058125106132
 31
0.0
  0
LINE
  5
52C
330
1F
100
AcDbEntity
  8
1-6
  6
Continuous
 62
     6
370
    13
100
AcDbLine
 10
898.5790909391412
 20
-459.5226374052259
 30
0.0
 11
917.1591704780824
 21
-491.7058125106132
 31
0.0
  0
LINE
  5
52D
330
1F
100
AcDbEntity
  8
1-6
  6
Continuous
 62
     6
370
    13
100
AcDbLine
 10
811.976101536163
 20
-459.5226374052259
 30
0.0
 11
830.5586584190437
 21
-491.7058125106132
 31
0.0
  0
LINE
  5
52E
330
1F
100
AcDbEntity
  8
1-6
  6
Continuous
 62
     6
370
    13
100
AcDbLine
 10
1116.582880185453
 20
-334.5208169551026
 30
0.0
 11
766.5837285505588
 21
-334.5208169551026
 31
0.0
  0
LINE
  5
52F
330
1F
100
AcDbEntity
  8
1-6
  6
Continuous
 62
     6
370
    13
100
AcDbLine
 10
1141.584235213054
 20
-459.5226374052259
 30
0.0
 11
741.5848508668969
 21
-459.5226374052259
 31
0.0
  0
LINE
  5
530
330
1F
100
AcDbEntity
  8
1-6
  6
Continuous
 62
     6
370
    13
100
AcDbLine
 10
1141.584235213054
 20
-609.5220968670413
 30
0.0
 11
741.5848508668969
 21
-609.5220968670413
 31
0.0
  0
LINE
  5
531
330
1F
100
AcDbEntity
  8
1-6
  6
Continuous
 62
     6
370
    13
100
AcDbLine
 10
849.138737957986
 20
-459.5226374052259
 30
0.0
 11
762.5357485550082
 21
-609.5220968670413
 31
0.0
  0
LINE
  5
532
330
1F
100
AcDbEntity
  8
1-6
  6
Continuous
 62
     6
370
    13
100
AcDbLine
 10
777.3230145240675
 20
-583.9100765585949
 30
0.0
 11
792.1102804931265
 21
-609.5208581950733
 31
0.0
  0
LINE
  5
533
330
1F
100
AcDbEntity
  8
1-6
  6
Continuous
 62
     6
370
    13
100
AcDbLine
 10
1108.945228822979
 20
-459.5226374052259
 30
0.0
 11
1022.342239420001
 21
-609.5208581950733
 31
0.0
  0
LINE
  5
534
330
1F
100
AcDbEntity
  8
1-6
  6
Continuous
 62
     6
370
    13
100
AcDbLine
 10
1037.12950538906
 20
-583.9100765585949
 30
0.0
 11
1051.916771358119
 21
-609.5208581950733
 31
0.0
  0
LINE
  5
535
330
1F
100
AcDbEntity
  8
1-6
  6
Continuous
 62
     6
370
    13
100
AcDbLine
 10
1071.782592401156
 20
-459.5226374052259
 30
0.0
 11
1090.365149284037
 21
-491.7058125106132
 31
0.0
  0
LINE
  5
536
330
1F
100
AcDbEntity
  8
1-6
  6
Continuous
 62
     6
370
    13
100
AcDbLine
 10
1116.582880185453
 20
-309.5219392714417
 30
0.0
 11
1116.582880185453
 21
-459.5226374052259
 31
0.0
  0
LINE
  5
537
330
1F
100
AcDbEntity
  8
1-6
  6
Continuous
 62
     6
370
    13
100
AcDbLine
 10
766.5837285505588
 20
-309.5219392714417
 30
0.0
 11
766.5837285505588
 21
-459.5226374052259
 31
0.0
  0
LINE
  5
538
330
1F
100
AcDbEntity
  8
1-6
  6
Continuous
 62
     6
370
    13
100
AcDbLine
 10
1116.582880185453
 20
-309.5219392714417
 30
0.0
 11
766.5837285505588
 21
-309.5219392714417
 31
0.0
  0
LINE
  5
539
330
1F
100
AcDbEntity
  8
1-4
  6
Continuous
 62
     7
370
    13
100
AcDbLine
 10
896.5410774927034
 20
-323.4136249893137
 30
0.0
 11
896.5410774927034
 21
-324.1637661331125
 31
0.0
  0
LINE
  5
53A
330
1F
100
AcDbEntity
  8
1-4
  6
Continuous
 62
     7
370
    13
100
AcDbLine
 10
834.3689058237335
 20
-323.4136249893137
 30
0.0
 11
834.3689058237335
 21
-324.1637661331125
 31
0.0
  0
LINE
  5
53B
330
1F
100
AcDbEntity
  8
1-4
  6
Continuous
 62
     7
370
    13
100
AcDbLine
 10
1020.885420830643
 20
-323.4136249893137
 30
0.0
 11
1020.885420830643
 21
-324.1637661331125
 31
0.0
  0
LINE
  5
53C
330
1F
100
AcDbEntity
  8
1-4
  6
Continuous
 62
     7
370
    13
100
AcDbLine
 10
1083.057592499613
 20
-323.4136249893137
 30
0.0
 11
1083.057592499613
 21
-324.1637661331125
 31
0.0
  0
TEXT
  5
53D
330
1F
100
AcDbEntity
  8
1-4
  6
Continuous
 62
     7
370
    13
100
AcDbText
 10
260.2000250278098
 20
-225.6821838335219
 30
0.0
 40
22.86
  1
樹脂系塗装
 41
1.133333333333333
  7
ＭＳ ゴシック
100
AcDbText
  0
LINE
  5
53E
330
1F
100
AcDbEntity
  8
1-0
  6
Continuous
 62
     7
370
    13
100
AcDbLine
 10
1151.736620245729
 20
95.18840429148064
 30
0.0
 11
1083.184536489072
 21
-9.523020347807929
 31
0.0
  0
LINE
  5
53F
330
1F
100
AcDbEntity
  8
1-0
  6
Continuous
 62
     7
370
    13
100
AcDbLine
 10
1083.184536489072
 20
-9.523020347807929
 30
0.0
 11
1094.030659333877
 21
13.0016687562712
 31
0.0
  0
LINE
  5
540
330
1F
100
AcDbEntity
  8
1-0
  6
Continuous
 62
     7
370
    13
100
AcDbLine
 10
1083.184536489072
 20
-9.523020347807929
 30
0.0
 11
1099.490905185122
 21
9.426975429197135
 31
0.0
  0
LINE
  5
541
330
1F
100
AcDbEntity
  8
1-4
  6
Continuous
 62
     7
370
    13
100
AcDbLine
 10
958.7132491616733
 20
-323.4136249893137
 30
0.0
 11
958.7132491616733
 21
-324.1637661331125
 31
0.0
  0
LINE
  5
542
330
1F
100
AcDbEntity
  8
1-4
  6
Continuous
 62
     7
370
    13
100
AcDbLine
 10
766.5837285505588
 20
-713.1831983521914
 30
0.0
 11
1116.582880185453
 21
-713.1831983521914
 31
0.0
  0
LWPOLYLINE
  5
543
330
1F
100
AcDbEntity
  8
1-4
  6
Continuous
 62
     7
370
    13
100
AcDbPolyline
 90
        4
 70
     1
 43
1.0
 10
767.0837285505588
 20
-713.1831983521914
 42
0.4142135623731
 10
766.5837285505588
 20
-712.6831983521914
 42
0.4142135623731
 10
766.0837285505589
 20
-713.1831983521914
 42
0.4142135623731
 10
766.5837285505588
 20
-713.6831983521914
 42
0.4142135623731
  0
LWPOLYLINE
  5
544
330
1F
100
AcDbEntity
  8
1-4
  6
Continuous
 62
     7
370
    13
100
AcDbPolyline
 90
        4
 70
     1
 43
1.0
 10
1117.082880185453
 20
-713.1831983521914
 42
0.4142135623731
 10
1116.582880185453
 20
-712.6831983521914
 42
0.4142135623731
 10
1116.082880185453
 20
-713.1831983521914
 42
0.4142135623731
 10
1116.582880185453
 20
-713.6831983521914
 42
0.4142135623731
  0
TEXT
  5
545
330
1F
100
AcDbEntity
  8
1-4
  6
Continuous
 62
     2
370
   211
100
AcDbText
 10
909.0833043680059
 20
-697.5431983521914
 30
0.0
 40
30.48
  1
140
 41
1.083333333333333
  7
ＭＳ ゴシック
100
AcDbText
  0
LINE
  5
546
330
1F
100
AcDbEntity
  8
1-4
  6
Continuous
 62
     7
370
    13
100
AcDbLine
 10
766.5837285505588
 20
-716.1831983521913
 30
0.0
 11
766.5837285505588
 21
-628.9183619009203
 31
0.0
  0
LINE
  5
547
330
1F
100
AcDbEntity
  8
1-4
  6
Continuous
 62
     7
370
    13
100
AcDbLine
 10
1116.582880185453
 20
-716.1831983521913
 30
0.0
 11
1116.582880185453
 21
-628.9183619009203
 31
0.0
  0
TEXT
  5
548
330
1F
100
AcDbEntity
  8
1-5
  6
Continuous
 62
     2
370
    13
100
AcDbText
 10
572.4158368603895
 20
-814.6808579985951
 30
0.0
 40
30.48
  1
納まり詳細図　Ｓ＝１：４
 41
1.114583333333333
  7
ＭＳ ゴシック
100
AcDbText
  0
LINE
  5
549
330
1F
100
AcDbEntity
  8
1-5
  6
Continuous
 62
     7
370
    13
100
AcDbLine
 10
557.4158368603895
 20
-765.3208579985951
 30
0.0
 11
1122.415836860389
 21
-765.3208579985951
 31
0.0
  0
LINE
  5
54A
330
1F
100
AcDbEntity
  8
1-5
  6
Continuous
 62
     7
370
    13
100
AcDbLine
 10
557.4158368603895
 20
-835.3208579985951
 30
0.0
 11
1122.415836860389
 21
-835.3208579985951
 31
0.0
  0
LINE
  5
54B
330
1F
100
AcDbEntity
  8
1-5
  6
Continuous
 62
     7
370
    13
100
AcDbLine
 10
557.4158368603895
 20
-765.3208579985951
 30
0.0
 11
557.4158368603895
 21
-835.3208579985951
 31
0.0
  0
LINE
  5
54C
330
1F
100
AcDbEntity
  8
1-5
  6
Continuous
 62
     7
370
    13
100
AcDbLine
 10
1122.415836860389
 20
-765.3208579985951
 30
0.0
 11
1122.415836860389
 21
-835.3208579985951
 31
0.0
  0
LINE
  5
54D
330
1F
100
AcDbEntity
  8
1-0
  6
Continuous
 62
     3
370
    13
100
AcDbLine
 10
859.0818675232495
 20
-89.52141081067751
 30
0.0
 11
835.334048528544
 21
-89.52141081067751
 31
0.0
  0
LINE
  5
54E
330
1F
100
AcDbEntity
  8
1-0
  6
Continuous
 62
     3
370
    13
100
AcDbLine
 10
862.8325662461773
 20
-9.520543003872177
 30
0.0
 11
866.5832649691051
 21
-17.0194631057872
 31
0.0
  0
LINE
  5
54F
330
1F
100
AcDbEntity
  8
1-0
  6
Continuous
 62
     3
370
    13
100
AcDbLine
 10
866.5832649691051
 20
-17.0194631057872
 30
0.0
 11
859.0818675232495
 21
-89.52141081067751
 31
0.0
  0
LINE
  5
550
330
1F
100
AcDbEntity
  8
1-0
  6
Continuous
 62
     3
370
    13
100
AcDbLine
 10
440.3364215942713
 20
-17.0194631057872
 30
0.0
 11
432.8350241484156
 21
-34.5194206875324
 31
0.0
  0
LINE
  5
551
330
1F
100
AcDbEntity
  8
1-0
  6
Continuous
 62
     3
370
    13
100
AcDbLine
 10
407.836146464754
 20
-34.5194206875324
 30
0.0
 11
400.3372263628376
 21
-17.0194631057872
 31
0.0
  0
LINE
  5
552
330
1F
100
AcDbEntity
  8
1-0
  6
Continuous
 62
     3
370
    13
100
AcDbLine
 10
437.8343042163604
 20
-9.520543003872177
 30
0.0
 11
441.5850029392882
 21
-17.0194631057872
 31
0.0
  0
LINE
  5
553
330
1F
100
AcDbEntity
  8
1-0
  6
Continuous
 62
     3
370
    13
100
AcDbLine
 10
399.0861676738814
 20
-17.0194631057872
 30
0.0
 11
402.8368663968092
 21
-9.520543003872177
 31
0.0
  0
LINE
  5
554
330
1F
100
AcDbEntity
  8
1-0
  6
Continuous
 62
     3
370
    13
100
AcDbLine
 10
400.3372263628376
 20
-17.0194631057872
 30
0.0
 11
383.5549748984306
 21
-17.0194631057872
 31
0.0
  0
LINE
  5
555
330
1F
100
AcDbEntity
  8
1-0
  6
Continuous
 62
     3
370
    13
100
AcDbLine
 10
501.5862731303781
 20
-9.520543003872177
 30
0.0
 11
505.336971853306
 21
-17.0194631057872
 31
0.0
  0
LINE
  5
556
330
1F
100
AcDbEntity
  8
1-0
  6
Continuous
 62
     3
370
    13
100
AcDbLine
 10
464.086717932916
 20
-9.520543003872177
 30
0.0
 11
460.3360192099882
 21
-17.0194631057872
 31
0.0
  0
LINE
  5
557
330
1F
100
AcDbEntity
  8
1-0
  6
Continuous
 62
     3
370
    13
100
AcDbLine
 10
504.0859131643498
 20
-17.0194631057872
 30
0.0
 11
496.5869930624334
 21
-34.5194206875324
 31
0.0
  0
LINE
  5
558
330
1F
100
AcDbEntity
  8
1-0
  6
Continuous
 62
     3
370
    13
100
AcDbLine
 10
469.0859980008608
 20
-34.5194206875324
 30
0.0
 11
461.5870778989429
 21
-17.0194631057872
 31
0.0
  0
LINE
  5
559
330
1F
100
AcDbEntity
  8
1-0
  6
Continuous
 62
     3
370
    13
100
AcDbLine
 10
461.5870778989429
 20
-17.0194631057872
 30
0.0
 11
440.3364215942713
 21
-17.0194631057872
 31
0.0
  0
LINE
  5
55A
330
1F
100
AcDbEntity
  8
1-0
  6
Continuous
 62
     3
370
    13
100
AcDbLine
 10
567.8354047344283
 20
-9.520543003872177
 30
0.0
 11
571.5861034573561
 21
-17.0194631057872
 31
0.0
  0
LINE
  5
55B
330
1F
100
AcDbEntity
  8
1-0
  6
Continuous
 62
     3
370
    13
100
AcDbLine
 10
527.8362095029945
 20
-9.520543003872177
 30
0.0
 11
524.0855107800667
 21
-17.0194631057872
 31
0.0
  0
LINE
  5
55C
330
1F
100
AcDbEntity
  8
1-0
  6
Continuous
 62
     3
370
    13
100
AcDbLine
 10
570.3350447684013
 20
-17.0194631057872
 30
0.0
 11
562.8361246664836
 21
-34.5194206875324
 31
0.0
  0
LINE
  5
55D
330
1F
100
AcDbEntity
  8
1-0
  6
Continuous
 62
     3
370
    13
100
AcDbLine
 10
532.8354895709392
 20
-34.5194206875324
 30
0.0
 11
525.3365694690228
 21
-17.0194631057872
 31
0.0
  0
LINE
  5
55E
330
1F
100
AcDbEntity
  8
1-0
  6
Continuous
 62
     3
370
    13
100
AcDbLine
 10
525.3365694690228
 20
-17.0194631057872
 30
0.0
 11
504.0859131643498
 21
-17.0194631057872
 31
0.0
  0
LINE
  5
55F
330
1F
100
AcDbEntity
  8
1-0
  6
Continuous
 62
     3
370
    13
100
AcDbLine
 10
641.5859337843356
 20
-17.0194631057872
 30
0.0
 11
634.0845363384799
 21
-34.5194206875324
 31
0.0
  0
LINE
  5
560
330
1F
100
AcDbEntity
  8
1-0
  6
Continuous
 62
     3
370
    13
100
AcDbLine
 10
642.8345151293524
 20
-17.0194631057872
 30
0.0
 11
639.0862937503624
 21
-9.520543003872177
 31
0.0
  0
LINE
  5
561
330
1F
100
AcDbEntity
  8
1-0
  6
Continuous
 62
     3
370
    13
100
AcDbLine
 10
594.0853411070461
 20
-9.520543003872177
 30
0.0
 11
590.3346423841183
 21
-17.0194631057872
 31
0.0
  0
LINE
  5
562
330
1F
100
AcDbEntity
  8
1-0
  6
Continuous
 62
     3
370
    13
100
AcDbLine
 10
591.585701073073
 20
-17.0194631057872
 30
0.0
 11
599.0846211749908
 21
-34.5194206875324
 31
0.0
  0
LINE
  5
563
330
1F
100
AcDbEntity
  8
1-0
  6
Continuous
 62
     3
370
    13
100
AcDbLine
 10
591.585701073073
 20
-17.0194631057872
 30
0.0
 11
570.3350447684013
 21
-17.0194631057872
 31
0.0
  0
LINE
  5
564
330
1F
100
AcDbEntity
  8
1-0
  6
Continuous
 62
     3
370
    13
100
AcDbLine
 10
715.3364628342413
 20
-17.0194631057872
 30
0.0
 11
707.8350653883856
 21
-34.5194206875324
 31
0.0
  0
LINE
  5
565
330
1F
100
AcDbEntity
  8
1-0
  6
Continuous
 62
     3
370
    13
100
AcDbLine
 10
716.5850441792583
 20
-17.0194631057872
 30
0.0
 11
712.8343454563304
 21
-9.520543003872177
 31
0.0
  0
LINE
  5
566
330
1F
100
AcDbEntity
  8
1-0
  6
Continuous
 62
     3
370
    13
100
AcDbLine
 10
789.0820371962716
 20
-17.0194631057872
 30
0.0
 11
781.5831170943536
 21
-34.5194206875324
 31
0.0
  0
LINE
  5
567
330
1F
100
AcDbEntity
  8
1-0
  6
Continuous
 62
     3
370
    13
100
AcDbLine
 10
790.3330958852263
 20
-17.0194631057872
 30
0.0
 11
786.5823971622984
 21
-9.520543003872177
 31
0.0
  0
LINE
  5
568
330
1F
100
AcDbEntity
  8
1-0
  6
Continuous
 62
     3
370
    13
100
AcDbLine
 10
665.3362301229802
 20
-9.520543003872177
 30
0.0
 11
661.5855314000523
 21
-17.0194631057872
 31
0.0
  0
LINE
  5
569
330
1F
100
AcDbEntity
  8
1-0
  6
Continuous
 62
     3
370
    13
100
AcDbLine
 10
662.8365900890071
 20
-17.0194631057872
 30
0.0
 11
670.335510190925
 21
-34.5194206875324
 31
0.0
  0
LINE
  5
56A
330
1F
100
AcDbEntity
  8
1-0
  6
Continuous
 62
     3
370
    13
100
AcDbLine
 10
739.1288740198416
 20
-9.520543003872177
 30
0.0
 11
735.3781752969138
 21
-17.0194631057872
 31
0.0
  0
LINE
  5
56B
330
1F
100
AcDbEntity
  8
1-0
  6
Continuous
 62
     3
370
    13
100
AcDbLine
 10
736.6267566419308
 20
-17.0194631057872
 30
0.0
 11
744.1281540877865
 21
-34.5194206875324
 31
0.0
  0
LINE
  5
56C
330
1F
100
AcDbEntity
  8
1-0
  6
Continuous
 62
     3
370
    13
100
AcDbLine
 10
736.6267566419308
 20
-17.0194631057872
 30
0.0
 11
715.3364628342413
 21
-17.0194631057872
 31
0.0
  0
LINE
  5
56D
330
1F
100
AcDbEntity
  8
1-0
  6
Continuous
 62
     3
370
    13
100
AcDbLine
 10
662.8365900890071
 20
-17.0194631057872
 30
0.0
 11
641.5859337843356
 21
-17.0194631057872
 31
0.0
  0
LINE
  5
56E
330
1F
100
AcDbEntity
  8
1-0
  6
Continuous
 62
     3
370
    13
100
AcDbLine
 10
786.5823971622984
 20
-9.520543003872177
 30
0.0
 11
739.1288740198416
 21
-9.520543003872177
 31
0.0
  0
LINE
  5
56F
330
1F
100
AcDbEntity
  8
1-0
  6
Continuous
 62
     3
370
    13
100
AcDbLine
 10
817.8340909467988
 20
-34.5194206875324
 30
0.0
 11
821.6046084212348
 21
-34.5194206875324
 31
0.0
  0
LINE
  5
570
330
1F
100
AcDbEntity
  8
1-0
  6
Continuous
 62
     3
370
    13
100
AcDbLine
 10
712.8343454563304
 20
-9.520543003872177
 30
0.0
 11
665.3362301229802
 21
-9.520543003872177
 31
0.0
  0
LINE
  5
571
330
1F
100
AcDbEntity
  8
1-0
  6
Continuous
 62
     3
370
    13
100
AcDbLine
 10
599.0846211749908
 20
-34.5194206875324
 30
0.0
 11
634.0845363384799
 21
-34.5194206875324
 31
0.0
  0
LINE
  5
572
330
1F
100
AcDbEntity
  8
1-0
  6
Continuous
 62
     3
370
    13
100
AcDbLine
 10
639.0862937503624
 20
-9.520543003872177
 30
0.0
 11
594.0853411070461
 21
-9.520543003872177
 31
0.0
  0
LINE
  5
573
330
1F
100
AcDbEntity
  8
1-0
  6
Continuous
 62
     3
370
    13
100
AcDbLine
 10
532.8354895709392
 20
-34.5194206875324
 30
0.0
 11
562.8361246664836
 21
-34.5194206875324
 31
0.0
  0
LINE
  5
574
330
1F
100
AcDbEntity
  8
1-0
  6
Continuous
 62
     3
370
    13
100
AcDbLine
 10
469.0859980008608
 20
-34.5194206875324
 30
0.0
 11
496.5869930624334
 21
-34.5194206875324
 31
0.0
  0
LINE
  5
575
330
1F
100
AcDbEntity
  8
1-0
  6
Continuous
 62
     3
370
    13
100
AcDbLine
 10
407.836146464754
 20
-34.5194206875324
 30
0.0
 11
432.8350241484156
 21
-34.5194206875324
 31
0.0
  0
LINE
  5
576
330
1F
100
AcDbEntity
  8
1-0
  6
Continuous
 62
     3
370
    13
100
AcDbLine
 10
437.8343042163604
 20
-9.520543003872177
 30
0.0
 11
402.8368663968092
 21
-9.520543003872177
 31
0.0
  0
LINE
  5
577
330
1F
100
AcDbEntity
  8
1-0
  6
Continuous
 62
     3
370
    13
100
AcDbLine
 10
567.8354047344283
 20
-9.520543003872177
 30
0.0
 11
527.8362095029945
 21
-9.520543003872177
 31
0.0
  0
LINE
  5
578
330
1F
100
AcDbEntity
  8
1-0
  6
Continuous
 62
     3
370
    13
100
AcDbLine
 10
501.5862731303781
 20
-9.520543003872177
 30
0.0
 11
464.086717932916
 21
-9.520543003872177
 31
0.0
  0
LINE
  5
579
330
1F
100
AcDbEntity
  8
1-0
  6
Continuous
 62
     3
370
    13
100
AcDbLine
 10
670.335510190925
 20
-34.5194206875324
 30
0.0
 11
707.8350653883856
 21
-34.5194206875324
 31
0.0
  0
LINE
  5
57A
330
1F
100
AcDbEntity
  8
1-0
  6
Continuous
 62
     3
370
    13
100
AcDbLine
 10
744.1281540877865
 20
-34.5194206875324
 30
0.0
 11
781.5831170943536
 21
-34.5194206875324
 31
0.0
  0
LINE
  5
57B
330
1F
100
AcDbEntity
  8
1-0
  6
Continuous
 62
     3
370
    13
100
AcDbLine
 10
835.2399094588802
 20
-88.84509591546148
 30
0.0
 11
835.334048528544
 21
-89.52141081067751
 31
0.0
  0
LINE
  5
57C
330
1F
100
AcDbEntity
  8
1-0
  6
Continuous
 62
     3
370
    13
100
AcDbLine
 10
830.2876989257666
 20
-84.52213074273416
 30
0.0
 11
383.5549748984306
 21
-84.52213074273416
 31
0.0
  0
LINE
  5
57D
330
1F
100
AcDbEntity
  8
1-0
  6
Continuous
 62
     3
370
    13
100
AcDbLine
 10
810.3326935009432
 20
-17.0194631057872
 30
0.0
 11
817.8340909467988
 21
-34.5194206875324
 31
0.0
  0
LINE
  5
57E
330
1F
100
AcDbEntity
  8
1-0
  6
Continuous
 62
     3
370
    13
100
AcDbLine
 10
831.5139841753376
 20
-43.17030572086267
 30
0.0
 11
835.2399094588802
 21
-88.84509591546148
 31
0.0
  0
LINE
  5
57F
330
1F
100
AcDbEntity
  8
1-0
  6
Continuous
 62
     3
370
    13
100
AcDbLine
 10
862.8325662461773
 20
-9.520543003872177
 30
0.0
 11
812.8323335349162
 21
-9.520543003872177
 31
0.0
  0
LINE
  5
580
330
1F
100
AcDbEntity
  8
1-0
  6
Continuous
 62
     3
370
    13
100
AcDbLine
 10
812.8323335349162
 20
-9.520543003872177
 30
0.0
 11
809.0841121559263
 21
-17.0194631057872
 31
0.0
  0
LINE
  5
581
330
1F
100
AcDbEntity
  8
1-0
  6
Continuous
 62
     3
370
    13
100
AcDbLine
 10
810.3326935009432
 20
-17.0194631057872
 30
0.0
 11
789.0820371962716
 21
-17.0194631057872
 31
0.0
  0
ARC
  5
582
330
1F
100
AcDbEntity
  8
1-0
  6
Continuous
 62
     3
370
    13
100
AcDbCircle
 10
821.6046084212348
 20
-44.52045816735975
 30
0.0
 40
10.00000021301757
100
AcDbArc
 50
7.765548706054688
 51
90.0
  0
ARC
  5
583
330
1F
100
AcDbEntity
  8
1-0
  6
Continuous
 62
     3
370
    13
100
AcDbCircle
 10
830.2876989257666
 20
-89.52141081067751
 30
0.0
 40
5.000000106508783
100
AcDbArc
 50
7.76312255859375
 51
90.0
  0
TEXT
  5
584
330
1F
100
AcDbEntity
  8
1-0
  6
Continuous
 62
     7
370
    13
100
AcDbText
 10
1149.41037055375
 20
105.2383438677113
 30
0.0
 40
22.86
  1
受枠：コンクリートブロック　ＢＨ－１２００
 41
1.158730158730159
  7
ＭＳ ゴシック
100
AcDbText
  0
LINE
  5
585
330
1F
100
AcDbEntity
  8
1-1
  6
Continuous
 62
     4
370
    13
100
AcDbLine
 10
740.492233369863
 20
830.4979067089273
 30
0.0
 11
740.492233369863
 21
832.9980386768328
 31
0.0
  0
LINE
  5
586
330
1F
100
AcDbEntity
  8
1-1
  6
Continuous
 62
     4
370
    13
100
AcDbLine
 10
630.4923653377682
 20
720.4979149569216
 30
0.0
 11
630.4923653377682
 21
805.4980716688094
 31
0.0
  0
LINE
  5
587
330
1F
100
AcDbEntity
  8
1-1
  6
Continuous
 62
     4
370
    13
100
AcDbLine
 10
617.9926952575318
 20
707.9982448766851
 30
0.0
 11
615.4925632896266
 21
707.9982448766851
 31
0.0
  0
LINE
  5
588
330
1F
100
AcDbEntity
  8
1-1
  6
Continuous
 62
     4
370
    13
100
AcDbLine
 10
615.4925632896266
 20
832.9980386768328
 30
0.0
 11
615.4925632896266
 21
707.9982448766851
 31
0.0
  0
LINE
  5
589
330
1F
100
AcDbEntity
  8
1-0
  6
Continuous
 62
     3
370
    13
100
AcDbLine
 10
1005.583918072143
 20
907.9981623967443
 30
0.0
 11
619.242266361839
 21
907.9981623967443
 31
0.0
  0
LINE
  5
58A
330
1F
100
AcDbEntity
  8
1-0
  6
Continuous
 62
     3
370
    13
100
AcDbLine
 10
772.4401786295755
 20
882.9983273566261
 30
0.0
 11
1005.583918072143
 21
882.9983273566261
 31
0.0
  0
LINE
  5
58B
330
1F
100
AcDbEntity
  8
1-0
  6
Continuous
 62
     3
370
    13
100
AcDbLine
 10
762.6341384585453
 20
874.9593786789443
 30
0.0
 11
754.2419694340515
 21
832.9980386768328
 31
0.0
  0
LINE
  5
58C
330
1F
100
AcDbEntity
  8
1-0
  6
Continuous
 62
     3
370
    13
100
AcDbLine
 10
652.9920684099807
 20
907.9981623967443
 30
0.0
 11
652.9920684099807
 21
870.4980386768328
 31
0.0
  0
LINE
  5
58D
330
1F
100
AcDbEntity
  8
1-0
  6
Continuous
 62
     3
370
    13
100
AcDbLine
 10
702.992233369863
 20
870.4980386768328
 30
0.0
 11
652.9920684099807
 21
870.4980386768328
 31
0.0
  0
LINE
  5
58E
330
1F
100
AcDbEntity
  8
1-0
  6
Continuous
 62
     3
370
    13
100
AcDbLine
 10
702.992233369863
 20
907.9981623967443
 30
0.0
 11
702.992233369863
 21
870.4980386768328
 31
0.0
  0
LINE
  5
58F
330
1F
100
AcDbEntity
  8
1-2
  6
Continuous
 62
     2
370
    13
100
AcDbLine
 10
697.9919694340515
 20
893.9980172320481
 30
0.0
 11
657.9923323457922
 21
893.9980172320481
 31
0.0
  0
LINE
  5
590
330
1F
100
AcDbEntity
  8
1-2
  6
Continuous
 62
     2
370
    13
100
AcDbLine
 10
657.9923323457922
 20
893.9980172320481
 30
0.0
 11
660.589955603815
 21
895.4979974368625
 31
0.0
  0
LINE
  5
591
330
1F
100
AcDbEntity
  8
1-2
  6
Continuous
 62
     2
370
    13
100
AcDbLine
 10
695.3943461760286
 20
895.4979974368625
 30
0.0
 11
660.589955603815
 21
895.4979974368625
 31
0.0
  0
LINE
  5
592
330
1F
100
AcDbEntity
  8
1-2
  6
Continuous
 62
     2
370
    13
100
AcDbLine
 10
697.9919694340515
 20
893.9980172320481
 30
0.0
 11
695.3943461760286
 21
895.4979974368625
 31
0.0
  0
LINE
  5
593
330
1F
100
AcDbEntity
  8
1-2
  6
Continuous
 62
     2
370
    13
100
AcDbLine
 10
657.9923323457922
 20
893.9980172320481
 30
0.0
 11
657.9923323457922
 21
870.4980386768328
 31
0.0
  0
LINE
  5
594
330
1F
100
AcDbEntity
  8
1-2
  6
Continuous
 62
     2
370
    13
100
AcDbLine
 10
697.9919694340515
 20
870.4980386768328
 30
0.0
 11
697.9919694340515
 21
893.9980172320481
 31
0.0
  0
LINE
  5
595
330
1F
100
AcDbEntity
  8
1-2
  6
Continuous
 62
     2
370
    13
100
AcDbLine
 10
660.4924643136974
 20
893.9980172320481
 30
0.0
 11
660.4924643136974
 21
870.4980386768328
 31
0.0
  0
LINE
  5
596
330
1F
100
AcDbEntity
  8
1-2
  6
Continuous
 62
     2
370
    13
100
AcDbLine
 10
665.4927282495078
 20
893.9980172320481
 30
0.0
 11
665.4927282495078
 21
870.4980386768328
 31
0.0
  0
LINE
  5
597
330
1F
100
AcDbEntity
  8
1-2
  6
Continuous
 62
     2
370
    13
100
AcDbLine
 10
670.4924973056734
 20
893.9980172320481
 30
0.0
 11
670.4924973056734
 21
870.4980386768328
 31
0.0
  0
LINE
  5
598
330
1F
100
AcDbEntity
  8
1-2
  6
Continuous
 62
     2
370
    13
100
AcDbLine
 10
675.4927612414838
 20
893.9980172320481
 30
0.0
 11
675.4927612414838
 21
870.4980386768328
 31
0.0
  0
LINE
  5
599
330
1F
100
AcDbEntity
  8
1-2
  6
Continuous
 62
     2
370
    13
100
AcDbLine
 10
680.4930251772953
 20
893.9980172320481
 30
0.0
 11
680.4930251772953
 21
870.4980386768328
 31
0.0
  0
LINE
  5
59A
330
1F
100
AcDbEntity
  8
1-2
  6
Continuous
 62
     2
370
    13
100
AcDbLine
 10
685.4932891131057
 20
893.9980172320481
 30
0.0
 11
685.4932891131057
 21
870.4980386768328
 31
0.0
  0
LINE
  5
59B
330
1F
100
AcDbEntity
  8
1-2
  6
Continuous
 62
     2
370
    13
100
AcDbLine
 10
690.4930581692713
 20
893.9980172320481
 30
0.0
 11
690.4930581692713
 21
870.4980386768328
 31
0.0
  0
LINE
  5
59C
330
1F
100
AcDbEntity
  8
1-2
  6
Continuous
 62
     2
370
    13
100
AcDbLine
 10
695.4933221050817
 20
893.9980172320481
 30
0.0
 11
695.4933221050817
 21
870.4980386768328
 31
0.0
  0
LINE
  5
59D
330
1F
100
AcDbEntity
  8
1-2
  6
JWW_CENTER1
 62
     2
370
    13
100
AcDbLine
 10
677.9923983297442
 20
801.4259545077028
 30
0.0
 11
677.9923983297442
 21
900.0278782698438
 31
0.0
  0
LINE
  5
59E
330
1F
100
AcDbEntity
  8
1-2
  6
Continuous
 62
     2
370
    13
100
AcDbLine
 10
667.9923653377682
 20
870.4980386768328
 30
0.0
 11
667.9923653377682
 21
807.9980799168034
 31
0.0
  0
LINE
  5
59F
330
1F
100
AcDbEntity
  8
1-2
  6
Continuous
 62
     2
370
    13
100
AcDbLine
 10
687.9924313217202
 20
807.9980799168034
 30
0.0
 11
687.9924313217202
 21
870.4980386768328
 31
0.0
  0
LINE
  5
5A0
330
1F
100
AcDbEntity
  8
1-2
  6
Continuous
 62
     2
370
    13
100
AcDbLine
 10
665.492233369863
 20
870.4980386768328
 30
0.0
 11
665.492233369863
 21
810.4980881647974
 31
0.0
  0
LINE
  5
5A1
330
1F
100
AcDbEntity
  8
1-2
  6
Continuous
 62
     2
370
    13
100
AcDbLine
 10
690.4920684099807
 20
810.4980881647974
 30
0.0
 11
690.4920684099807
 21
870.4980386768328
 31
0.0
  0
LINE
  5
5A2
330
1F
100
AcDbEntity
  8
1-2
  6
Continuous
 62
     2
370
    13
100
AcDbLine
 10
665.492233369863
 20
810.4980881647974
 30
0.0
 11
690.4920684099807
 21
810.4980881647974
 31
0.0
  0
LINE
  5
5A3
330
1F
100
AcDbEntity
  8
1-2
  6
Continuous
 62
     2
370
    13
100
AcDbLine
 10
665.492233369863
 20
810.4980881647974
 30
0.0
 11
667.9923653377682
 21
807.9980799168034
 31
0.0
  0
LINE
  5
5A4
330
1F
100
AcDbEntity
  8
1-2
  6
Continuous
 62
     2
370
    13
100
AcDbLine
 10
687.9924313217202
 20
807.9980799168034
 30
0.0
 11
667.9923653377682
 21
807.9980799168034
 31
0.0
  0
LINE
  5
5A5
330
1F
100
AcDbEntity
  8
1-2
  6
Continuous
 62
     2
370
    13
100
AcDbLine
 10
690.4920684099807
 20
810.4980881647974
 30
0.0
 11
687.9924313217202
 21
807.9980799168034
 31
0.0
  0
LINE
  5
5A6
330
1F
100
AcDbEntity
  8
1-0
  6
Continuous
 62
     3
370
    13
100
AcDbLine
 10
662.9921014019567
 20
870.4980386768328
 30
0.0
 11
662.9921014019567
 21
832.9980386768328
 31
0.0
  0
LINE
  5
5A7
330
1F
100
AcDbEntity
  8
1-0
  6
Continuous
 62
     3
370
    13
100
AcDbLine
 10
692.9922003778859
 20
870.4980386768328
 30
0.0
 11
692.9922003778859
 21
832.9980386768328
 31
0.0
  0
LINE
  5
5A8
330
1F
100
AcDbEntity
  8
1-0
  6
Continuous
 62
     3
370
    13
100
AcDbLine
 10
1005.583918072143
 20
832.9980386768328
 30
0.0
 11
690.4920684099807
 21
832.9980386768328
 31
0.0
  0
LINE
  5
5A9
330
1F
100
AcDbEntity
  8
1-0
  6
Continuous
 62
     3
370
    13
100
AcDbLine
 10
665.492233369863
 20
832.9980386768328
 30
0.0
 11
615.4925632896266
 21
832.9980386768328
 31
0.0
  0
LINE
  5
5AA
330
1F
100
AcDbEntity
  8
1-1
  6
Continuous
 62
     4
370
    13
100
AcDbLine
 10
727.9925632896266
 20
817.9982366286908
 30
0.0
 11
690.4920684099807
 21
817.9982366286908
 31
0.0
  0
LINE
  5
5AB
330
1F
100
AcDbEntity
  8
1-1
  6
Continuous
 62
     4
370
    13
100
AcDbLine
 10
665.492233369863
 20
817.9982366286908
 30
0.0
 11
642.9925302976494
 21
817.9982366286908
 31
0.0
  0
LINE
  5
5AC
330
1F
100
AcDbEntity
  8
1-0
  6
Continuous
 62
     3
370
    13
100
AcDbLine
 10
619.242266361839
 20
907.9981623967443
 30
0.0
 11
615.4925632896266
 21
900.498137652762
 31
0.0
  0
LINE
  5
5AD
330
1F
100
AcDbEntity
  8
1-0
  6
Continuous
 62
     3
370
    13
100
AcDbLine
 10
615.4925632896266
 20
900.498137652762
 30
0.0
 11
622.9924643136974
 21
832.9980386768328
 31
0.0
  0
ARC
  5
5AE
330
1F
100
AcDbEntity
  8
1-1
  6
Continuous
 62
     4
370
    13
100
AcDbCircle
 10
642.9925302976494
 20
805.4980716688094
 30
0.0
 40
12.50000161093635
100
AcDbArc
 50
90.0
 51
180.0
  0
ARC
  5
5AF
330
1F
100
AcDbEntity
  8
1-1
  6
Continuous
 62
     4
370
    13
100
AcDbCircle
 10
727.9925632896266
 20
830.4979067089273
 30
0.0
 40
12.50000161093635
100
AcDbArc
 50
270.0
 51
0.0
  0
ARC
  5
5B0
330
1F
100
AcDbEntity
  8
1-1
  6
Continuous
 62
     4
370
    13
100
AcDbCircle
 10
617.9926952575318
 20
720.4979149569216
 30
0.0
 40
12.50000161093635
100
AcDbArc
 50
270.0
 51
0.0
  0
ARC
  5
5B1
330
1F
100
AcDbEntity
  8
1-0
  6
Continuous
 62
     3
370
    13
100
AcDbCircle
 10
772.4401786295755
 20
872.9981706447383
 30
0.0
 40
10.00000012887491
100
AcDbArc
 50
90.0
 51
168.6899261474609
  0
LINE
  5
5B2
330
1F
100
AcDbEntity
  8
1-E
  6
Continuous
 62
     7
370
    13
100
AcDbLine
 10
677.9926457695672
 20
807.9983273566261
 30
0.0
 11
696.2555180604545
 21
784.1976616963716
 31
0.0
  0
LINE
  5
5B3
330
1F
100
AcDbEntity
  8
1-E
  6
Continuous
 62
     7
370
    13
100
AcDbLine
 10
677.9926457695672
 20
807.9983273566261
 30
0.0
 11
689.4731253597882
 21
780.2818893871973
 31
0.0
  0
LINE
  5
5B4
330
1F
100
AcDbEntity
  8
1-E
  6
Continuous
 62
     7
370
    13
100
AcDbLine
 10
677.9926457695672
 20
807.9983273566261
 30
0.0
 11
742.817913699451
 21
695.7176139936108
 31
0.0
  0
LINE
  5
5B5
330
1F
100
AcDbEntity
  8
1-E
  6
Continuous
 62
     7
370
    13
100
AcDbLine
 10
615.4925632896266
 20
707.9982448766851
 30
0.0
 11
688.5679424312355
 21
581.4279126388407
 31
0.0
  0
LINE
  5
5B6
330
1F
100
AcDbEntity
  8
1-E
  6
Continuous
 62
     7
370
    13
100
AcDbLine
 10
615.4925632896266
 20
707.9982448766851
 30
0.0
 11
633.7554355805139
 21
684.1975792164307
 31
0.0
  0
LINE
  5
5B7
330
1F
100
AcDbEntity
  8
1-E
  6
Continuous
 62
     7
370
    13
100
AcDbLine
 10
615.4925632896266
 20
707.9982448766851
 30
0.0
 11
626.9730428798476
 21
680.2818069072565
 31
0.0
  0
LINE
  5
5B8
330
1F
100
AcDbEntity
  8
1-0
  6
Continuous
 62
     7
370
    13
100
AcDbLine
 10
505.1256587930465
 20
907.9984098365669
 30
0.0
 11
505.1256587930465
 21
832.9984098365669
 31
0.0
  0
LWPOLYLINE
  5
5B9
330
1F
100
AcDbEntity
  8
1-0
  6
Continuous
 62
     7
370
    13
100
AcDbPolyline
 90
        4
 70
     1
 43
1.0
 10
505.6256587930465
 20
907.9984098365669
 42
0.4142135623731
 10
505.1256587930465
 20
908.4984098365669
 42
0.4142135623731
 10
504.6256587930465
 20
907.9984098365669
 42
0.4142135623731
 10
505.1256587930465
 20
907.4984098365669
 42
0.4142135623731
  0
LWPOLYLINE
  5
5BA
330
1F
100
AcDbEntity
  8
1-0
  6
Continuous
 62
     7
370
    13
100
AcDbPolyline
 90
        4
 70
     1
 43
1.0
 10
505.6256587930465
 20
832.9984098365669
 42
0.4142135623731
 10
505.1256587930465
 20
833.4984098365669
 42
0.4142135623731
 10
504.6256587930465
 20
832.9984098365669
 42
0.4142135623731
 10
505.1256587930465
 20
832.4984098365669
 42
0.4142135623731
  0
LINE
  5
5BB
330
1F
100
AcDbEntity
  8
1-0
  6
Continuous
 62
     7
370
    13
100
AcDbLine
 10
502.1256587930463
 20
907.9984098365669
 30
0.0
 11
595.4925632896266
 21
907.9984098365669
 31
0.0
  0
LINE
  5
5BC
330
1F
100
AcDbEntity
  8
1-0
  6
Continuous
 62
     7
370
    13
100
AcDbLine
 10
502.1256587930463
 20
832.9984098365669
 30
0.0
 11
595.4925632896266
 21
832.9984098365669
 31
0.0
  0
TEXT
  5
5BD
330
1F
100
AcDbEntity
  8
1-0
  6
Continuous
 62
     2
370
   211
100
AcDbText
 10
489.4856587930465
 20
849.2484098365669
 30
0.0
 40
30.48
  1
30
 50
90.0
 41
1.0625
  7
ＭＳ ゴシック
100
AcDbText
  0
LINE
  5
5BE
330
1F
100
AcDbEntity
  8
1-0
  6
Continuous
 62
     7
370
    13
100
AcDbLine
 10
505.1256587930465
 20
832.9984098365669
 30
0.0
 11
505.1256587930465
 21
707.9982448766851
 31
0.0
  0
LWPOLYLINE
  5
5BF
330
1F
100
AcDbEntity
  8
1-0
  6
Continuous
 62
     7
370
    13
100
AcDbPolyline
 90
        4
 70
     1
 43
1.0
 10
505.6256587930465
 20
707.9982448766851
 42
0.4142135623731
 10
505.1256587930465
 20
708.4982448766851
 42
0.4142135623731
 10
504.6256587930465
 20
707.9982448766851
 42
0.4142135623731
 10
505.1256587930465
 20
707.4982448766852
 42
0.4142135623731
  0
LINE
  5
5C0
330
1F
100
AcDbEntity
  8
1-0
  6
Continuous
 62
     7
370
    13
100
AcDbLine
 10
502.1256587930463
 20
707.9982448766851
 30
0.0
 11
595.4925632896266
 21
707.9982448766851
 31
0.0
  0
TEXT
  5
5C1
330
1F
100
AcDbEntity
  8
1-0
  6
Continuous
 62
     2
370
   211
100
AcDbText
 10
489.4856587930465
 20
749.2483273566261
 30
0.0
 40
30.48
  1
50
 50
90.0
 41
1.0625
  7
ＭＳ ゴシック
100
AcDbText
  0
LINE
  5
5C2
330
1F
100
AcDbEntity
  8
1-E
  6
Continuous
 62
     7
370
    13
100
AcDbLine
 10
742.817913699451
 20
695.7176139936108
 30
0.0
 11
1232.884606979645
 21
695.7176139936108
 31
0.0
  0
TEXT
  5
5C3
330
1F
100
AcDbEntity
  8
1-E
  6
Continuous
 62
     7
370
    13
100
AcDbText
 10
750.526216790139
 20
715.2215793652324
 30
0.0
 40
22.86
  1
六角穴付ボルト：ＳＵＳ３０４
 41
1.154761904761905
  7
ＭＳ ゴシック
100
AcDbText
  0
TEXT
  5
5C4
330
1F
100
AcDbEntity
  8
1-E
  6
Continuous
 62
     7
370
    13
100
AcDbText
 10
869.3566264845015
 20
658.3324423033661
 30
0.0
 40
22.86
  1
Ｍ１０×２５
 41
1.138888888888889
  7
ＭＳ ゴシック
100
AcDbText
  0
LINE
  5
5C5
330
1F
100
AcDbEntity
  8
1-E
  6
Continuous
 62
     7
370
    13
100
AcDbLine
 10
688.567942431236
 20
581.4279126388407
 30
0.0
 11
1193.604497541033
 21
581.4279126388407
 31
0.0
  0
TEXT
  5
5C6
330
1F
100
AcDbEntity
  8
1-E
  6
Continuous
 62
     7
370
    13
100
AcDbText
 10
705.5139164203621
 20
546.0616024614758
 30
0.0
 40
22.86
  1
樹脂系塗装，Ｌ５０×５０×６
 41
1.154761904761905
  7
ＭＳ ゴシック
100
AcDbText
  0
TEXT
  5
5C7
330
1F
100
AcDbEntity
  8
1-E
  6
Continuous
 62
     7
370
    13
100
AcDbText
 10
749.9963135513798
 20
599.0170649430003
 30
0.0
 40
22.86
  1
連結金具：ＳＳ４００
 41
1.15
  7
ＭＳ ゴシック
100
AcDbText
  0
LINE
  5
5C8
330
1F
100
AcDbEntity
  8
1-E
  6
Continuous
 62
     7
370
    13
100
AcDbLine
 10
723.4818014723487
 20
907.9981623967443
 30
0.0
 11
781.2170024500421
 21
1007.998122924201
 31
0.0
  0
LINE
  5
5C9
330
1F
100
AcDbEntity
  8
1-E
  6
Continuous
 62
     7
370
    13
100
AcDbLine
 10
723.4818014723487
 20
907.9981623967443
 30
0.0
 11
734.9626310131754
 21
935.7146003661733
 31
0.0
  0
LINE
  5
5CA
330
1F
100
AcDbEntity
  8
1-E
  6
Continuous
 62
     7
370
    13
100
AcDbLine
 10
723.4818014723487
 20
907.9981623967443
 30
0.0
 11
741.744673763236
 21
931.7986530816954
 31
0.0
  0
LINE
  5
5CB
330
1F
100
AcDbEntity
  8
1-E
  6
Continuous
 62
     7
370
    13
100
AcDbLine
 10
781.2170024500426
 20
1007.998122924201
 30
0.0
 11
1309.860661059721
 21
1007.998122924201
 31
0.0
  0
TEXT
  5
5CC
330
1F
100
AcDbEntity
  8
1-E
  6
Continuous
 62
     7
370
    13
100
AcDbText
 10
855.5388317548818
 20
973.4787992597164
 30
0.0
 40
22.86
  1
ＦＣ２００，樹脂系塗装
 41
1.151515151515152
  7
ＭＳ ゴシック
100
AcDbText
  0
TEXT
  5
5CD
330
1F
100
AcDbEntity
  8
1-E
  6
Continuous
 62
     7
370
    13
100
AcDbText
 10
788.5961454709485
 20
1022.184518181738
 30
0.0
 40
22.86
  1
本体：ＲＶＡ－１２００Ｘ７５０
 41
1.155555555555555
  7
ＭＳ ゴシック
100
AcDbText
  0
LWPOLYLINE
  5
5CE
330
1F
100
AcDbEntity
  8
1-4
  6
Continuous
 62
     7
370
    13
100
AcDbPolyline
 90
        4
 70
     1
 43
1.0
 10
314.853106562535
 20
-9.520543003872147
 42
0.4142135623731
 10
314.353106562535
 20
-9.020543003872147
 42
0.4142135623731
 10
313.853106562535
 20
-9.520543003872147
 42
0.4142135623731
 10
314.353106562535
 20
-10.02054300387215
 42
0.4142135623731
  0
LWPOLYLINE
  5
5CF
330
1F
100
AcDbEntity
  8
1-4
  6
Continuous
 62
     7
370
    13
100
AcDbPolyline
 90
        4
 70
     1
 43
1.0
 10
314.853106562535
 20
-34.5194206875324
 42
0.4142135623731
 10
314.353106562535
 20
-34.0194206875324
 42
0.4142135623731
 10
313.853106562535
 20
-34.5194206875324
 42
0.4142135623731
 10
314.353106562535
 20
-35.0194206875324
 42
0.4142135623731
  0
LINE
  5
5D0
330
1F
100
AcDbEntity
  8
1-4
  6
Continuous
 62
     7
370
    13
100
AcDbLine
 10
311.353106562535
 20
-34.5194206875324
 30
0.0
 11
387.836146464754
 21
-34.5194206875324
 31
0.0
  0
LINE
  5
5D1
330
1F
100
AcDbEntity
  8
1-4
  6
Continuous
 62
     7
370
    13
100
AcDbLine
 10
314.353106562535
 20
-34.5194206875324
 30
0.0
 11
314.353106562535
 21
-84.52213074273416
 31
0.0
  0
LWPOLYLINE
  5
5D2
330
1F
100
AcDbEntity
  8
1-4
  6
Continuous
 62
     7
370
    13
100
AcDbPolyline
 90
        4
 70
     1
 43
1.0
 10
314.853106562535
 20
-34.5194206875324
 42
0.4142135623731
 10
314.353106562535
 20
-34.0194206875324
 42
0.4142135623731
 10
313.853106562535
 20
-34.5194206875324
 42
0.4142135623731
 10
314.353106562535
 20
-35.0194206875324
 42
0.4142135623731
  0
LWPOLYLINE
  5
5D3
330
1F
100
AcDbEntity
  8
1-4
  6
Continuous
 62
     7
370
    13
100
AcDbPolyline
 90
        4
 70
     1
 43
1.0
 10
314.853106562535
 20
-84.52213074273416
 42
0.4142135623731
 10
314.353106562535
 20
-84.02213074273416
 42
0.4142135623731
 10
313.853106562535
 20
-84.52213074273416
 42
0.4142135623731
 10
314.353106562535
 20
-85.02213074273416
 42
0.4142135623731
  0
LINE
  5
5D4
330
1F
100
AcDbEntity
  8
1-4
  6
Continuous
 62
     7
370
    13
100
AcDbLine
 10
311.353106562535
 20
-84.52213074273416
 30
0.0
 11
363.5549748984306
 21
-84.52213074273416
 31
0.0
  0
TEXT
  5
5D5
330
1F
100
AcDbEntity
  8
1-4
  6
Continuous
 62
     2
370
   211
100
AcDbText
 10
298.713106562535
 20
-80.77077571513328
 30
0.0
 40
30.48
  1
20
 50
90.0
 41
1.0625
  7
ＭＳ ゴシック
100
AcDbText
  0
LWPOLYLINE
  5
5D6
330
1F
100
AcDbEntity
  8
1-4
  6
Continuous
 62
     7
370
    13
100
AcDbPolyline
 90
        4
 70
     1
 43
1.0
 10
314.853106562535
 20
-89.52141081067748
 42
0.4142135623731
 10
314.353106562535
 20
-89.02141081067747
 42
0.4142135623731
 10
313.853106562535
 20
-89.52141081067748
 42
0.4142135623731
 10
314.353106562535
 20
-90.02141081067748
 42
0.4142135623731
  0
LINE
  5
5D7
330
1F
100
AcDbEntity
  8
1-4
  6
Continuous
 62
     7
370
    13
100
AcDbLine
 10
241.3437578501861
 20
-9.520543003872143
 30
0.0
 11
241.3437578501861
 21
-89.52141081067748
 31
0.0
  0
LWPOLYLINE
  5
5D8
330
1F
100
AcDbEntity
  8
1-4
  6
Continuous
 62
     7
370
    13
100
AcDbPolyline
 90
        4
 70
     1
 43
1.0
 10
241.8437578501861
 20
-9.520543003872143
 42
0.4142135623731
 10
241.3437578501861
 20
-9.020543003872143
 42
0.4142135623731
 10
240.8437578501861
 20
-9.520543003872143
 42
0.4142135623731
 10
241.3437578501861
 20
-10.02054300387215
 42
0.4142135623731
  0
LWPOLYLINE
  5
5D9
330
1F
100
AcDbEntity
  8
1-4
  6
Continuous
 62
     7
370
    13
100
AcDbPolyline
 90
        4
 70
     1
 43
1.0
 10
241.8437578501861
 20
-89.52141081067748
 42
0.4142135623731
 10
241.3437578501861
 20
-89.02141081067747
 42
0.4142135623731
 10
240.8437578501861
 20
-89.52141081067748
 42
0.4142135623731
 10
241.3437578501861
 20
-90.02141081067748
 42
0.4142135623731
  0
TEXT
  5
5DA
330
1F
100
AcDbEntity
  8
1-4
  6
Continuous
 62
     2
370
   211
100
AcDbText
 10
225.7037578501862
 20
-70.77097690727481
 30
0.0
 40
30.48
  1
32
 50
90.0
 41
1.0625
  7
ＭＳ ゴシック
100
AcDbText
  0
LINE
  5
5DB
330
1F
100
AcDbEntity
  8
1-4
  6
Continuous
 62
     7
370
    13
100
AcDbLine
 10
238.3437578501861
 20
-9.520543003872143
 30
0.0
 11
370.099530467278
 21
-9.52054300387215
 31
0.0
  0
LINE
  5
5DC
330
1F
100
AcDbEntity
  8
1-4
  6
Continuous
 62
     7
370
    13
100
AcDbLine
 10
238.3437578501861
 20
-89.52141081067748
 30
0.0
 11
370.099530467278
 21
-89.52141081067748
 31
0.0
  0
TEXT
  5
5DD
330
1F
100
AcDbEntity
  8
1-4
  6
Continuous
 62
     2
370
   211
100
AcDbText
 10
298.713106562535
 20
-3.751051916109817
 30
0.0
 40
30.48
  1
10
 50
90.0
 41
1.0625
  7
ＭＳ ゴシック
100
AcDbText
  0
TEXT
  5
5DE
330
1F
100
AcDbEntity
  8
1-4
  6
Continuous
 62
     2
370
   211
100
AcDbText
 10
298.713106562535
 20
-120.453212122542
 30
0.0
 40
30.48
  1
2
 50
90.0
 41
0.9999999999999998
  7
ＭＳ ゴシック
100
AcDbText
  0
LINE
  5
5DF
330
1F
100
AcDbEntity
  8
1-4
  6
Continuous
 62
     7
370
    13
100
AcDbLine
 10
314.353106562535
 20
-84.52213074273416
 30
0.0
 11
314.353106562535
 21
-127.393430520118
 31
0.0
  0
LINE
  5
5E0
330
1F
100
AcDbEntity
  8
1-4
  6
Continuous
 62
     7
370
    13
100
AcDbLine
 10
314.353106562535
 20
41.45308999661988
 30
0.0
 11
314.353106562535
 21
-34.5194206875324
 31
0.0
  0
LINE
  5
5E1
330
1F
100
AcDbEntity
  8
1-0
  6
Continuous
 62
     3
370
    13
100
AcDbLine
 10
1005.583918072143
 20
941.8931075869045
 30
0.0
 11
1005.583918072143
 21
802.281856470252
 31
0.0
  0
LINE
  5
5E2
330
1F
100
AcDbEntity
  8
1-4
  6
Continuous
 62
     7
370
    13
100
AcDbLine
 10
716.5850441792583
 20
37.87750058697049
 30
0.0
 11
735.3781752969138
 21
37.87750058697049
 31
0.0
  0
LWPOLYLINE
  5
5E3
330
1F
100
AcDbEntity
  8
1-4
  6
Continuous
 62
     7
370
    13
100
AcDbPolyline
 90
        4
 70
     1
 43
1.0
 10
717.0850441792583
 20
37.87750058697049
 42
0.4142135623731
 10
716.5850441792583
 20
38.37750058697048
 42
0.4142135623731
 10
716.0850441792583
 20
37.87750058697049
 42
0.4142135623731
 10
716.5850441792583
 20
37.37750058697049
 42
0.4142135623731
  0
LWPOLYLINE
  5
5E4
330
1F
100
AcDbEntity
  8
1-4
  6
Continuous
 62
     7
370
    13
100
AcDbPolyline
 90
        4
 70
     1
 43
1.0
 10
735.8781752969138
 20
37.87750058697049
 42
0.4142135623731
 10
735.3781752969138
 20
38.37750058697048
 42
0.4142135623731
 10
734.8781752969138
 20
37.87750058697049
 42
0.4142135623731
 10
735.3781752969138
 20
37.37750058697049
 42
0.4142135623731
  0
LINE
  5
5E5
330
1F
100
AcDbEntity
  8
1-4
  6
Continuous
 62
     7
370
    13
100
AcDbLine
 10
716.5850441792583
 20
40.87750058697048
 30
0.0
 11
716.5850441792583
 21
2.980536894212804
 31
0.0
  0
LINE
  5
5E6
330
1F
100
AcDbEntity
  8
1-4
  6
Continuous
 62
     7
370
    13
100
AcDbLine
 10
735.3781752969138
 20
40.87750058697048
 30
0.0
 11
735.3781752969138
 21
2.980536894212804
 31
0.0
  0
TEXT
  5
5E7
330
1F
100
AcDbEntity
  8
1-4
  6
Continuous
 62
     2
370
   211
100
AcDbText
 10
693.481609738086
 20
53.51750058697049
 30
0.0
 40
30.48
  1
7.5
 41
1.083333333333333
  7
ＭＳ ゴシック
100
AcDbText
  0
LINE
  5
5E8
330
1F
100
AcDbEntity
  8
1-0
  6
Continuous
 62
     7
370
    13
100
AcDbLine
 10
879.084871486883
 20
211.0204421805301
 30
0.0
 11
1116.582880185453
 21
211.0204421805301
 31
0.0
  0
LWPOLYLINE
  5
5E9
330
1F
100
AcDbEntity
  8
1-0
  6
Continuous
 62
     7
370
    13
100
AcDbPolyline
 90
        4
 70
     1
 43
1.0
 10
1117.082880185453
 20
211.0204421805301
 42
0.4142135623731
 10
1116.582880185453
 20
211.5204421805301
 42
0.4142135623731
 10
1116.082880185453
 20
211.0204421805301
 42
0.4142135623731
 10
1116.582880185453
 20
210.5204421805301
 42
0.4142135623731
  0
LINE
  5
5EA
330
1F
100
AcDbEntity
  8
1-0
  6
Continuous
 62
     7
370
    13
100
AcDbLine
 10
1116.582880185453
 20
214.0204421805301
 30
0.0
 11
1116.582880185453
 21
-7.022977929553136
 31
0.0
  0
LWPOLYLINE
  5
5EB
330
1F
100
AcDbEntity
  8
1-0
  6
Continuous
 62
     7
370
    13
100
AcDbPolyline
 90
        4
 70
     1
 43
1.0
 10
879.5848714868829
 20
120.6746307729262
 42
0.4142135623731
 10
879.084871486883
 20
121.1746307729262
 42
0.4142135623731
 10
878.584871486883
 20
120.6746307729262
 42
0.4142135623731
 10
879.084871486883
 20
120.1746307729262
 42
0.4142135623731
  0
LWPOLYLINE
  5
5EC
330
1F
100
AcDbEntity
  8
1-0
  6
Continuous
 62
     7
370
    13
100
AcDbPolyline
 90
        4
 70
     1
 43
1.0
 10
867.0832649691051
 20
120.6746307729262
 42
0.4142135623731
 10
866.5832649691051
 20
121.1746307729262
 42
0.4142135623731
 10
866.0832649691052
 20
120.6746307729262
 42
0.4142135623731
 10
866.5832649691051
 20
120.1746307729262
 42
0.4142135623731
  0
LINE
  5
5ED
330
1F
100
AcDbEntity
  8
1-0
  6
Continuous
 62
     7
370
    13
100
AcDbLine
 10
879.084871486883
 20
123.6746307729261
 30
0.0
 11
879.084871486883
 21
10.47697965219207
 31
0.0
  0
LINE
  5
5EE
330
1F
100
AcDbEntity
  8
1-0
  6
Continuous
 62
     7
370
    13
100
AcDbLine
 10
866.5832649691051
 20
123.6746307729261
 30
0.0
 11
866.5832649691051
 21
5.480176928184406
 31
0.0
  0
LINE
  5
5EF
330
1F
100
AcDbEntity
  8
1-0
  6
Continuous
 62
     7
370
    13
100
AcDbLine
 10
920.3040800631502
 20
120.6746307729262
 30
0.0
 11
866.5832649691051
 21
120.6746307729262
 31
0.0
  0
LINE
  5
5F0
330
1F
100
AcDbEntity
  8
1-0
  6
Continuous
 62
     7
370
    13
100
AcDbLine
 10
879.084871486883
 20
211.0204421805301
 30
0.0
 11
370.3365912672919
 21
211.0204421805301
 31
0.0
  0
LINE
  5
5F1
330
1F
100
AcDbEntity
  8
1-0
  6
Continuous
 62
     7
370
    13
100
AcDbLine
 10
866.5832649691051
 20
120.6746307729262
 30
0.0
 11
370.3365912672919
 21
120.6746307729262
 31
0.0
  0
TEXT
  5
5F2
330
1F
100
AcDbEntity
  8
1-0
  6
Continuous
 62
     2
370
   211
100
AcDbText
 10
895.8284700948216
 20
132.3146307729262
 30
0.0
 40
30.48
  1
5
 41
0.9999999999999998
  7
ＭＳ ゴシック
100
AcDbText
  0
TEXT
  5
5F3
330
1F
100
AcDbEntity
  8
1-0
  6
Continuous
 62
     2
370
   211
100
AcDbText
 10
375.5198965455966
 20
132.3146307729262
 30
0.0
 40
30.48
  1
1200
 41
1.09375
  7
ＭＳ ゴシック
100
AcDbText
  0
TEXT
  5
5F4
330
1F
100
AcDbEntity
  8
1-0
  6
Continuous
 62
     2
370
   211
100
AcDbText
 10
375.5198965455966
 20
222.6604421805301
 30
0.0
 40
30.48
  1
1400
 41
1.09375
  7
ＭＳ ゴシック
100
AcDbText
  0
LINE
  5
5F5
330
1F
100
AcDbEntity
  8
C-4
  6
Continuous
 62
     7
370
    13
100
AcDbLine
 10
-1698.981120848487
 20
64.74979699193796
 30
0.0
 11
-1698.981120848487
 21
914.7492938642995
 31
0.0
  0
LWPOLYLINE
  5
5F6
330
1F
100
AcDbEntity
  8
C-4
  6
Continuous
 62
     7
370
    13
100
AcDbPolyline
 90
        4
 70
     1
 43
1.0
 10
-1698.481120848487
 20
64.74979699193796
 42
0.4142135623731
 10
-1698.981120848487
 20
65.24979699193796
 42
0.4142135623731
 10
-1699.481120848487
 20
64.74979699193796
 42
0.4142135623731
 10
-1698.981120848487
 20
64.24979699193796
 42
0.4142135623731
  0
LWPOLYLINE
  5
5F7
330
1F
100
AcDbEntity
  8
C-4
  6
Continuous
 62
     7
370
    13
100
AcDbPolyline
 90
        4
 70
     1
 43
1.0
 10
-1698.481120848487
 20
914.7492938642995
 42
0.4142135623731
 10
-1698.981120848487
 20
915.2492938642995
 42
0.4142135623731
 10
-1699.481120848487
 20
914.7492938642995
 42
0.4142135623731
 10
-1698.981120848487
 20
914.2492938642995
 42
0.4142135623731
  0
LINE
  5
5F8
330
1F
100
AcDbEntity
  8
C-4
  6
Continuous
 62
     7
370
    13
100
AcDbLine
 10
-1701.981120848487
 20
64.74979699193796
 30
0.0
 11
-1597.944930285604
 21
64.74979699193794
 31
0.0
  0
LINE
  5
5F9
330
1F
100
AcDbEntity
  8
C-4
  6
Continuous
 62
     7
370
    13
100
AcDbLine
 10
-1701.981120848487
 20
914.7492938642995
 30
0.0
 11
-1392.293673385568
 21
914.7492938642995
 31
0.0
  0
TEXT
  5
5FA
330
1F
100
AcDbEntity
  8
C-4
  6
Continuous
 62
     2
370
   211
100
AcDbText
 10
-1714.621120848487
 20
457.2495454281187
 30
0.0
 40
30.48
  1
850
 50
90.0
 41
1.083333333333333
  7
ＭＳ ゴシック
100
AcDbText
  0
ENDSEC
  0
SECTION
  2
OBJECTS
  0
DICTIONARY
  5
C
330
0
100
AcDbDictionary
281
     1
  3
ACAD_GROUP
350
D
  3
ACAD_LAYOUT
350
1A
  3
ACAD_MLEADERSTYLE
350
5FC
  3
ACAD_MLINESTYLE
350
17
  3
ACAD_PLOTSETTINGS
350
19
  3
ACAD_PLOTSTYLENAME
350
E
  3
ACAD_TABLESTYLE
350
5FB
  3
ACAD_VISUALSTYLE
350
2A
  0
DICTIONARY
  5
D
102
{ACAD_REACTORS
330
C
102
}
330
C
100
AcDbDictionary
281
     1
  0
DICTIONARY
  5
1A
102
{ACAD_REACTORS
330
C
102
}
330
C
100
AcDbDictionary
281
     1
  3
Layout1
350
1E
  3
Layout2
350
26
  3
Model
350
22
  0
DICTIONARY
  5
5FC
102
{ACAD_REACTORS
330
C
102
}
330
C
100
AcDbDictionary
281
     1
  0
DICTIONARY
  5
17
102
{ACAD_REACTORS
330
C
102
}
330
C
100
AcDbDictionary
281
     1
  3
Standard
350
18
  0
DICTIONARY
  5
19
102
{ACAD_REACTORS
330
C
102
}
330
C
100
AcDbDictionary
281
     1
  0
ACDBDICTIONARYWDFLT
  5
E
102
{ACAD_REACTORS
330
C
102
}
330
C
100
AcDbDictionary
281
     1
  3
Normal
350
F
100
AcDbDictionaryWithDefault
340
F
  0
DICTIONARY
  5
5FB
102
{ACAD_REACTORS
330
C
102
}
330
C
100
AcDbDictionary
281
     1
  0
DICTIONARY
  5
2A
102
{ACAD_REACTORS
330
C
102
}
330
C
100
AcDbDictionary
281
     1
  3
2dWireframe
350
2F
  3
3D Hidden
350
31
  3
3dWireframe
350
30
  3
Basic
350
32
  3
Brighten
350
36
  3
ColorChange
350
3A
  3
Conceptual
350
34
  3
Dim
350
35
  3
Facepattern
350
39
  3
Flat
350
2B
  3
FlatWithEdges
350
2C
  3
Gouraud
350
2D
  3
GouraudWithEdges
350
2E
  3
Linepattern
350
38
  3
Realistic
350
33
  3
Thicken
350
37
  0
LAYOUT
  5
1E
102
{ACAD_REACTORS
330
1A
102
}
330
1A
100
AcDbPlotSettings
  1

  2
none_device
  4

  6

 40
0.0
 41
0.0
 42
0.0
 43
0.0
 44
0.0
 45
0.0
 46
0.0
 47
0.0
 48
0.0
 49
0.0
140
0.0
141
0.0
142
1.0
143
1.0
 70
   688
 72
     0
 73
     0
 74
     5
  7

 75
    16
 76
     0
 77
     5
 78
   300
147
1.0
148
0.0
149
0.0
100
AcDbLayout
  1
Layout1
 70
     1
 71
     1
 10
0.0
 20
0.0
 11
420.0
 21
297.0
 12
0.0
 22
0.0
 32
0.0
 14
1.000000000000000E+20
 24
1.000000000000000E+20
 34
1.000000000000000E+20
 15
-1.000000000000000E+20
 25
-1.000000000000000E+20
 35
-1.000000000000000E+20
146
0.0
 13
0.0
 23
0.0
 33
0.0
 16
1.0
 26
0.0
 36
0.0
 17
0.0
 27
1.0
 37
0.0
 76
     0
330
1B
  0
LAYOUT
  5
26
102
{ACAD_REACTORS
330
1A
102
}
330
1A
100
AcDbPlotSettings
  1

  2
none_device
  4

  6

 40
0.0
 41
0.0
 42
0.0
 43
0.0
 44
0.0
 45
0.0
 46
0.0
 47
0.0
 48
0.0
 49
0.0
140
0.0
141
0.0
142
1.0
143
1.0
 70
   688
 72
     0
 73
     0
 74
     5
  7

 75
    16
 76
     0
 77
     5
 78
   300
147
1.0
148
0.0
149
0.0
100
AcDbLayout
  1
Layout2
 70
     1
 71
     2
 10
0.0
 20
0.0
 11
0.0
 21
0.0
 12
0.0
 22
0.0
 32
0.0
 14
0.0
 24
0.0
 34
0.0
 15
0.0
 25
0.0
 35
0.0
146
0.0
 13
0.0
 23
0.0
 33
0.0
 16
1.0
 26
0.0
 36
0.0
 17
0.0
 27
1.0
 37
0.0
 76
     0
330
23
  0
LAYOUT
  5
22
102
{ACAD_REACTORS
330
1A
102
}
330
1A
100
AcDbPlotSettings
  1

  2
none_device
  4

  6

 40
0.0
 41
0.0
 42
0.0
 43
0.0
 44
0.0
 45
0.0
 46
0.0
 47
0.0
 48
0.0
 49
0.0
140
0.0
141
0.0
142
1.0
143
1.0
 70
  1712
 72
     0
 73
     0
 74
     0
  7

 75
     0
 76
     0
 77
     5
 78
   300
147
1.0
148
0.0
149
0.0
100
AcDbLayout
  1
Model
 70
     1
 71
     0
 10
-2100.0
 20
-1485.0
 11
2100.0
 21
1485.0
 12
0.0
 22
0.0
 32
0.0
 14
-2100.0
 24
-1485.0
 34
0.0
 15
2100.0
 25
1485.0
 35
0.0
146
0.0
 13
0.0
 23
0.0
 33
0.0
 16
1.0
 26
0.0
 36
0.0
 17
0.0
 27
1.0
 37
0.0
 76
     0
330
1F
331
29
  0
MLINESTYLE
  5
18
102
{ACAD_REACTORS
330
17
102
}
330
17
100
AcDbMlineStyle
  2
Standard
 70
     0
  3

 62
   256
 51
90.0
 52
90.0
 71
     2
 49
0.5
 62
   256
  6
BYLAYER
 49
-0.5
 62
   256
  6
BYLAYER
  0
ACDBPLACEHOLDER
  5
F
102
{ACAD_REACTORS
330
E
102
}
330
E
  0
VISUALSTYLE
  5
2F
102
{ACAD_REACTORS
330
2A
102
}
330
2A
100
AcDbVisualStyle
  2
2dWireframe
 70
     4
 71
     0
 72
     2
 73
     0
 90
        0
 40
-0.6
 41
-30.0
 62
     5
 63
     7
421
 16777215
 74
     1
 91
        4
 64
     7
 65
   257
 75
     1
175
     1
 42
1.0
 92
        0
 66
   257
 43
1.0
 76
     1
 77
     6
 78
     2
 67
     7
 79
     5
170
     0
171
     0
290
     0
174
     0
 93
        1
 44
0.0
173
     0
291
     0
 45
0.0
1001
ACAD
1000
AcDbSavedByObjectVersion
1070
     0
  0
VISUALSTYLE
  5
31
102
{ACAD_REACTORS
330
2A
102
}
330
2A
100
AcDbVisualStyle
  2
3D Hidden
 70
     6
 71
     1
 72
     2
 73
     2
 90
        0
 40
-0.6
 41
-30.0
 62
     5
 63
     7
421
 16777215
 74
     2
 91
        2
 64
     7
 65
   257
 75
     2
175
     1
 42
40.0
 92
        0
 66
   257
 43
1.0
 76
     1
 77
     6
 78
     2
 67
     7
 79
     3
170
     0
171
     0
290
     0
174
     0
 93
        1
 44
0.0
173
     0
291
     0
 45
0.0
1001
ACAD
1000
AcDbSavedByObjectVersion
1070
     0
  0
VISUALSTYLE
  5
30
102
{ACAD_REACTORS
330
2A
102
}
330
2A
100
AcDbVisualStyle
  2
3dWireframe
 70
     5
 71
     0
 72
     2
 73
     0
 90
        0
 40
-0.6
 41
-30.0
 62
     5
 63
     7
421
 16777215
 74
     1
 91
        4
 64
     7
 65
   257
 75
     1
175
     1
 42
1.0
 92
        0
 66
   257
 43
1.0
 76
     1
 77
     6
 78
     2
 67
     7
 79
     5
170
     0
171
     0
290
     0
174
     0
 93
        1
 44
0.0
173
     0
291
     0
 45
0.0
1001
ACAD
1000
AcDbSavedByObjectVersion
1070
     0
  0
VISUALSTYLE
  5
32
102
{ACAD_REACTORS
330
2A
102
}
330
2A
100
AcDbVisualStyle
  2
Basic
 70
     7
 71
     1
 72
     0
 73
     1
 90
        0
 40
-0.6
 41
-30.0
 62
     5
 63
     7
421
 16777215
 74
     0
 91
        4
 64
     7
 65
   257
 75
     1
175
     1
 42
1.0
 92
        8
 66
     7
 43
1.0
 76
     1
 77
     6
 78
     2
 67
     7
 79
     5
170
     0
171
     0
290
     0
174
     0
 93
        1
 44
0.0
173
     0
291
     1
 45
0.0
1001
ACAD
1000
AcDbSavedByObjectVersion
1070
     0
  0
VISUALSTYLE
  5
36
102
{ACAD_REACTORS
330
2A
102
}
330
2A
100
AcDbVisualStyle
  2
Brighten
 70
    12
 71
     2
 72
     2
 73
     0
 90
        0
 40
-0.6
 41
-30.0
 62
     5
 63
     7
421
 16777215
 74
     1
 91
        4
 64
     7
 65
   257
 75
     1
175
     1
 42
1.0
 92
        8
 66
     7
 43
1.0
 76
     1
 77
     6
 78
     2
 67
     7
 79
     5
170
     0
171
     0
290
     0
174
     0
 93
        1
 44
50.0
173
     0
291
     1
 45
0.0
1001
ACAD
1000
AcDbSavedByObjectVersion
1070
     0
  0
VISUALSTYLE
  5
3A
102
{ACAD_REACTORS
330
2A
102
}
330
2A
100
AcDbVisualStyle
  2
ColorChange
 70
    16
 71
     2
 72
     2
 73
     3
 90
        0
 40
-0.6
 41
-30.0
 62
     5
 63
     8
421
  8421504
 74
     1
 91
        4
 64
     7
 65
   257
 75
     1
175
     1
 42
1.0
 92
        8
 66
     8
424
  8421504
 43
1.0
 76
     1
 77
     6
 78
     2
 67
     7
 79
     5
170
     0
171
     0
290
     0
174
     0
 93
        1
 44
0.0
173
     0
291
     1
 45
0.0
1001
ACAD
1000
AcDbSavedByObjectVersion
1070
     0
  0
VISUALSTYLE
  5
34
102
{ACAD_REACTORS
330
2A
102
}
330
2A
100
AcDbVisualStyle
  2
Conceptual
 70
     9
 71
     3
 72
     2
 73
     0
 90
        0
 40
-0.6
 41
-30.0
 62
     5
 63
     7
421
 16777215
 74
     2
 91
        2
 64
     7
 65
   257
 75
     1
175
     1
 42
40.0
 92
        8
 66
     7
 43
1.0
 76
     1
 77
     6
 78
     2
 67
     7
 79
     3
170
     0
171
     0
290
     0
174
     0
 93
        1
 44
0.0
173
     0
291
     0
 45
0.0
1001
ACAD
1000
AcDbSavedByObjectVersion
1070
     0
  0
VISUALSTYLE
  5
35
102
{ACAD_REACTORS
330
2A
102
}
330
2A
100
AcDbVisualStyle
  2
Dim
 70
    11
 71
     2
 72
     2
 73
     0
 90
        0
 40
-0.6
 41
-30.0
 62
     5
 63
     7
421
 16777215
 74
     1
 91
        4
 64
     7
 65
   257
 75
     1
175
     1
 42
1.0
 92
        8
 66
     7
 43
1.0
 76
     1
 77
     6
 78
     2
 67
     7
 79
     5
170
     0
171
     0
290
     0
174
     0
 93
        1
 44
-50.0
173
     0
291
     1
 45
0.0
1001
ACAD
1000
AcDbSavedByObjectVersion
1070
     0
  0
VISUALSTYLE
  5
39
102
{ACAD_REACTORS
330
2A
102
}
330
2A
100
AcDbVisualStyle
  2
Facepattern
 70
    15
 71
     2
 72
     2
 73
     0
 90
        0
 40
-0.6
 41
-30.0
 62
     5
 63
     7
421
 16777215
 74
     1
 91
        4
 64
     7
 65
   257
 75
     1
175
     1
 42
1.0
 92
        8
 66
     7
 43
1.0
 76
     1
 77
     6
 78
     2
 67
     7
 79
     5
170
     0
171
     0
290
     0
174
     0
 93
        1
 44
0.0
173
     0
291
     1
 45
0.0
1001
ACAD
1000
AcDbSavedByObjectVersion
1070
     0
  0
VISUALSTYLE
  5
2B
102
{ACAD_REACTORS
330
2A
102
}
330
2A
100
AcDbVisualStyle
  2
Flat
 70
     0
 71
     2
 72
     1
 73
     1
 90
        2
 40
-0.6
 41
30.0
 62
     5
 63
     7
421
 16777215
 74
     0
 91
        4
 64
     7
 65
   257
 75
     1
175
     1
 42
1.0
 92
        8
 66
     7
 43
1.0
 76
     1
 77
     6
 78
     2
 67
     7
 79
     5
170
     0
171
     0
290
     0
174
     0
 93
       13
 44
0.0
173
     0
291
     1
 45
0.0
1001
ACAD
1000
AcDbSavedByObjectVersion
1070
     0
  0
VISUALSTYLE
  5
2C
102
{ACAD_REACTORS
330
2A
102
}
330
2A
100
AcDbVisualStyle
  2
FlatWithEdges
 70
     1
 71
     2
 72
     1
 73
     1
 90
        2
 40
-0.6
 41
30.0
 62
     5
 63
     7
421
 16777215
 74
     1
 91
        4
 64
     7
 65
   257
 75
     1
175
     1
 42
1.0
 92
        0
 66
   257
 43
1.0
 76
     1
 77
     6
 78
     2
 67
     7
 79
     5
170
     0
171
     0
290
     0
174
     0
 93
       13
 44
0.0
173
     0
291
     1
 45
0.0
1001
ACAD
1000
AcDbSavedByObjectVersion
1070
     0
  0
VISUALSTYLE
  5
2D
102
{ACAD_REACTORS
330
2A
102
}
330
2A
100
AcDbVisualStyle
  2
Gouraud
 70
     2
 71
     2
 72
     2
 73
     1
 90
        2
 40
-0.6
 41
30.0
 62
     5
 63
     7
421
 16777215
 74
     0
 91
        4
 64
     7
 65
   257
 75
     1
175
     1
 42
1.0
 92
        0
 66
     7
 43
1.0
 76
     1
 77
     6
 78
     2
 67
     7
 79
     5
170
     0
171
     0
290
     0
174
     0
 93
       13
 44
0.0
173
     0
291
     1
 45
0.0
1001
ACAD
1000
AcDbSavedByObjectVersion
1070
     0
  0
VISUALSTYLE
  5
2E
102
{ACAD_REACTORS
330
2A
102
}
330
2A
100
AcDbVisualStyle
  2
GouraudWithEdges
 70
     3
 71
     2
 72
     2
 73
     1
 90
        2
 40
-0.6
 41
30.0
 62
     5
 63
     7
421
 16777215
 74
     1
 91
        4
 64
     7
 65
   257
 75
     1
175
     1
 42
1.0
 92
        0
 66
   257
 43
1.0
 76
     1
 77
     6
 78
     2
 67
     7
 79
     5
170
     0
171
     0
290
     0
174
     0
 93
       13
 44
0.0
173
     0
291
     1
 45
0.0
1001
ACAD
1000
AcDbSavedByObjectVersion
1070
     0
  0
VISUALSTYLE
  5
38
102
{ACAD_REACTORS
330
2A
102
}
330
2A
100
AcDbVisualStyle
  2
Linepattern
 70
    14
 71
     2
 72
     2
 73
     0
 90
        0
 40
-0.6
 41
-30.0
 62
     5
 63
     7
421
 16777215
 74
     1
 91
        4
 64
     7
 65
   257
 75
     7
175
     7
 42
1.0
 92
        8
 66
     7
 43
1.0
 76
     1
 77
     6
 78
     2
 67
     7
 79
     5
170
     0
171
     0
290
     0
174
     0
 93
        1
 44
0.0
173
     0
291
     1
 45
0.0
1001
ACAD
1000
AcDbSavedByObjectVersion
1070
     0
  0
VISUALSTYLE
  5
33
102
{ACAD_REACTORS
330
2A
102
}
330
2A
100
AcDbVisualStyle
  2
Realistic
 70
     8
 71
     2
 72
     2
 73
     0
 90
        0
 40
-0.6
 41
-30.0
 62
     5
 63
     7
421
 16777215
 74
     1
 91
        0
 64
     7
 65
   257
 75
     1
175
     1
 42
1.0
 92
        8
 66
     8
424
  7895160
 43
1.0
 76
     1
 77
     6
 78
     2
 67
     7
 79
     5
170
     0
171
     0
290
     0
174
     0
 93
       13
 44
0.0
173
     0
291
     0
 45
0.0
1001
ACAD
1000
AcDbSavedByObjectVersion
1070
     0
  0
VISUALSTYLE
  5
37
102
{ACAD_REACTORS
330
2A
102
}
330
2A
100
AcDbVisualStyle
  2
Thicken
 70
    13
 71
     2
 72
     2
 73
     0
 90
        0
 40
-0.6
 41
-30.0
 62
     5
 63
     7
421
 16777215
 74
     1
 91
        4
 64
     7
 65
   257
 75
     1
175
     1
 42
1.0
 92
       12
 66
     7
 43
1.0
 76
     1
 77
     6
 78
     2
 67
     7
 79
     5
170
     0
171
     0
290
     0
174
     0
 93
        1
 44
0.0
173
     0
291
     1
 45
0.0
1001
ACAD
1000
AcDbSavedByObjectVersion
1070
     0
  0
ENDSEC
  0
EOF
