  0
SECTION
  2
HEADER
  9
$ACADVER
  1
AC1018
  9
$ACADMAINTVER
 70
     0
  9
$DWGCODEPAGE
  3
ANSI_932
  9
$INSBASE
 10
0.0
 20
0.0
 30
0.0
  9
$EXTMIN
 10
-2970.0
 20
-2100.0
 30
0.0
  9
$EXTMAX
 10
2970.0
 20
2100.0
 30
0.0
  9
$LIMMIN
 10
-2970.0
 20
-2100.0
  9
$LIMMAX
 10
2970.0
 20
2100.0
  9
$ORTHOMODE
 70
     0
  9
$REGENMODE
 70
     1
  9
$FILLMODE
 70
     1
  9
$QTEXTMODE
 70
     0
  9
$MIRRTEXT
 70
     1
  9
$LTSCALE
 40
10.0
  9
$ATTMODE
 70
     1
  9
$TEXTSIZE
 40
2.5
  9
$TRACEWID
 40
1.0
  9
$TEXTSTYLE
  7
Standard
  9
$CLAYER
  8
0
  9
$CELTYPE
  6
ByLayer
  9
$CECOLOR
 62
   256
  9
$CELTSCALE
 40
1.0
  9
$DISPSILH
 70
     0
  9
$DIMSCALE
 40
1.0
  9
$DIMASZ
 40
2.5
  9
$DIMEXO
 40
0.625
  9
$DIMDLI
 40
3.75
  9
$DIMRND
 40
0.0
  9
$DIMDLE
 40
0.0
  9
$DIMEXE
 40
1.25
  9
$DIMTP
 40
0.0
  9
$DIMTM
 40
0.0
  9
$DIMTXT
 40
2.5
  9
$DIMCEN
 40
2.5
  9
$DIMTSZ
 40
0.0
  9
$DIMTOL
 70
     0
  9
$DIMLIM
 70
     0
  9
$DIMTIH
 70
     0
  9
$DIMTOH
 70
     0
  9
$DIMSE1
 70
     0
  9
$DIMSE2
 70
     0
  9
$DIMTAD
 70
     1
  9
$DIMZIN
 70
     8
  9
$DIMBLK
  1

  9
$DIMASO
 70
     1
  9
$DIMSHO
 70
     1
  9
$DIMPOST
  1

  9
$DIMAPOST
  1

  9
$DIMALT
 70
     0
  9
$DIMALTD
 70
     3
  9
$DIMALTF
 40
0.03937007874016
  9
$DIMLFAC
 40
1.0
  9
$DIMTOFL
 70
     1
  9
$DIMTVP
 40
0.0
  9
$DIMTIX
 70
     0
  9
$DIMSOXD
 70
     0
  9
$DIMSAH
 70
     0
  9
$DIMBLK1
  1

  9
$DIMBLK2
  1

  9
$DIMSTYLE
  2
ISO-25
  9
$DIMCLRD
 70
     0
  9
$DIMCLRE
 70
     0
  9
$DIMCLRT
 70
     0
  9
$DIMTFAC
 40
1.0
  9
$DIMGAP
 40
0.625
  9
$DIMJUST
 70
     0
  9
$DIMSD1
 70
     0
  9
$DIMSD2
 70
     0
  9
$DIMTOLJ
 70
     0
  9
$DIMTZIN
 70
     8
  9
$DIMALTZ
 70
     0
  9
$DIMALTTZ
 70
     0
  9
$DIMUPT
 70
     0
  9
$DIMDEC
 70
     2
  9
$DIMTDEC
 70
     2
  9
$DIMALTU
 70
     2
  9
$DIMALTTD
 70
     3
  9
$DIMTXSTY
  7
Standard
  9
$DIMAUNIT
 70
     0
  9
$DIMADEC
 70
     0
  9
$DIMALTRND
 40
0.0
  9
$DIMAZIN
 70
     0
  9
$DIMDSEP
 70
    44
  9
$DIMATFIT
 70
     3
  9
$DIMFRAC
 70
     0
  9
$DIMLDRBLK
  1

  9
$DIMLUNIT
 70
     2
  9
$DIMLWD
 70
    -2
  9
$DIMLWE
 70
    -2
  9
$DIMTMOVE
 70
     0
  9
$LUNITS
 70
     2
  9
$LUPREC
 70
     4
  9
$SKETCHINC
 40
1.0
  9
$FILLETRAD
 40
10.0
  9
$AUNITS
 70
     0
  9
$AUPREC
 70
     0
  9
$MENU
  1
.
  9
$ELEVATION
 40
0.0
  9
$PELEVATION
 40
0.0
  9
$THICKNESS
 40
0.0
  9
$LIMCHECK
 70
     0
  9
$CHAMFERA
 40
0.0
  9
$CHAMFERB
 40
0.0
  9
$CHAMFERC
 40
0.0
  9
$CHAMFERD
 40
0.0
  9
$SKPOLY
 70
     0
  9
$TDCREATE
 40
2459629.423807893
  9
$TDUCREATE
 40
2459629.048807893
  9
$TDUPDATE
 40
2459629.42380809
  9
$TDUUPDATE
 40
2459629.04880809
  9
$TDINDWG
 40
0.0000000116
  9
$TDUSRTIMER
 40
0.0000000116
  9
$USRTIMER
 70
     1
  9
$ANGBASE
 50
0.0
  9
$ANGDIR
 70
     0
  9
$PDMODE
 70
     0
  9
$PDSIZE
 40
0.0
  9
$PLINEWID
 40
0.0
  9
$SPLFRAME
 70
     0
  9
$SPLINETYPE
 70
     6
  9
$SPLINESEGS
 70
     8
  9
$HANDSEED
  5
3A5
  9
$SURFTAB1
 70
     6
  9
$SURFTAB2
 70
     6
  9
$SURFTYPE
 70
     6
  9
$SURFU
 70
     6
  9
$SURFV
 70
     6
  9
$UCSBASE
  2

  9
$UCSNAME
  2

  9
$UCSORG
 10
0.0
 20
0.0
 30
0.0
  9
$UCSXDIR
 10
1.0
 20
0.0
 30
0.0
  9
$UCSYDIR
 10
0.0
 20
1.0
 30
0.0
  9
$UCSORTHOREF
  2

  9
$UCSORTHOVIEW
 70
     0
  9
$UCSORGTOP
 10
0.0
 20
0.0
 30
0.0
  9
$UCSORGBOTTOM
 10
0.0
 20
0.0
 30
0.0
  9
$UCSORGLEFT
 10
0.0
 20
0.0
 30
0.0
  9
$UCSORGRIGHT
 10
0.0
 20
0.0
 30
0.0
  9
$UCSORGFRONT
 10
0.0
 20
0.0
 30
0.0
  9
$UCSORGBACK
 10
0.0
 20
0.0
 30
0.0
  9
$PUCSBASE
  2

  9
$PUCSNAME
  2

  9
$PUCSORG
 10
0.0
 20
0.0
 30
0.0
  9
$PUCSXDIR
 10
1.0
 20
0.0
 30
0.0
  9
$PUCSYDIR
 10
0.0
 20
1.0
 30
0.0
  9
$PUCSORTHOREF
  2

  9
$PUCSORTHOVIEW
 70
     0
  9
$PUCSORGTOP
 10
0.0
 20
0.0
 30
0.0
  9
$PUCSORGBOTTOM
 10
0.0
 20
0.0
 30
0.0
  9
$PUCSORGLEFT
 10
0.0
 20
0.0
 30
0.0
  9
$PUCSORGRIGHT
 10
0.0
 20
0.0
 30
0.0
  9
$PUCSORGFRONT
 10
0.0
 20
0.0
 30
0.0
  9
$PUCSORGBACK
 10
0.0
 20
0.0
 30
0.0
  9
$USERI1
 70
     0
  9
$USERI2
 70
     0
  9
$USERI3
 70
     0
  9
$USERI4
 70
     0
  9
$USERI5
 70
     0
  9
$USERR1
 40
0.0
  9
$USERR2
 40
0.0
  9
$USERR3
 40
0.0
  9
$USERR4
 40
0.0
  9
$USERR5
 40
0.0
  9
$WORLDVIEW
 70
     1
  9
$SHADEDGE
 70
     3
  9
$SHADEDIF
 70
    70
  9
$TILEMODE
 70
     1
  9
$MAXACTVP
 70
    64
  9
$PINSBASE
 10
0.0
 20
0.0
 30
0.0
  9
$PLIMCHECK
 70
     0
  9
$PEXTMIN
 10
1.000000000000000E+20
 20
1.000000000000000E+20
 30
1.000000000000000E+20
  9
$PEXTMAX
 10
-1.000000000000000E+20
 20
-1.000000000000000E+20
 30
-1.000000000000000E+20
  9
$PLIMMIN
 10
0.0
 20
0.0
  9
$PLIMMAX
 10
420.0
 20
297.0
  9
$UNITMODE
 70
     0
  9
$VISRETAIN
 70
     1
  9
$PLINEGEN
 70
     0
  9
$PSLTSCALE
 70
     1
  9
$TREEDEPTH
 70
  3020
  9
$CMLSTYLE
  2
Standard
  9
$CMLJUST
 70
     0
  9
$CMLSCALE
 40
20.0
  9
$PROXYGRAPHICS
 70
     1
  9
$MEASUREMENT
 70
     1
  9
$CELWEIGHT
370
    -1
  9
$ENDCAPS
280
     0
  9
$JOINSTYLE
280
     0
  9
$LWDISPLAY
290
     0
  9
$INSUNITS
 70
     4
  9
$HYPERLINKBASE
  1

  9
$STYLESHEET
  1

  9
$XEDIT
290
     1
  9
$CEPSNTYPE
380
     0
  9
$PSTYLEMODE
290
     1
  9
$FINGERPRINTGUID
  2
{8EEA42C9-2722-41D7-8801-8AB8D3546398}
  9
$VERSIONGUID
  2
{FAEB1C32-E019-11D5-929B-00C0DF256EC4}
  9
$EXTNAMES
290
     1
  9
$PSVPSCALE
 40
0.0
  9
$OLESTARTUP
290
     0
  9
$SORTENTS
280
   127
  9
$INDEXCTL
280
     0
  9
$HIDETEXT
280
     1
  9
$XCLIPFRAME
290
     0
  9
$HALOGAP
280
     0
  9
$OBSCOLOR
 70
   257
  9
$OBSLTYPE
280
     0
  9
$INTERSECTIONDISPLAY
280
     0
  9
$INTERSECTIONCOLOR
 70
   257
  9
$DIMASSOC
280
     2
  9
$PROJECTNAME
  1

  0
ENDSEC
  0
SECTION
  2
CLASSES
  0
CLASS
  1
ACDBDICTIONARYWDFLT
  2
AcDbDictionaryWithDefault
  3
ObjectDBX Classes
 90
        0
 91
        4
280
     0
281
     0
  0
CLASS
  1
VISUALSTYLE
  2
AcDbVisualStyle
  3
ObjectDBX Classes
 90
     4095
 91
        4
280
     0
281
     0
  0
CLASS
  1
MATERIAL
  2
AcDbMaterial
  3
ObjectDBX Classes
 90
     1153
 91
        4
280
     0
281
     0
  0
CLASS
  1
SCALE
  2
AcDbScale
  3
ObjectDBX Classes
 90
     1153
 91
        4
280
     0
281
     0
  0
CLASS
  1
TABLESTYLE
  2
AcDbTableStyle
  3
ObjectDBX Classes
 90
     4095
 91
        4
280
     0
281
     0
  0
CLASS
  1
MLEADERSTYLE
  2
AcDbMLeaderStyle
  3
ACDB_MLEADERSTYLE_CLASS
 90
     4095
 91
        4
280
     0
281
     0
  0
CLASS
  1
SUN
  2
AcDbSun
  3
SCENEOE
 90
     1153
 91
        4
280
     0
281
     0
  0
CLASS
  1
DICTIONARYVAR
  2
AcDbDictionaryVar
  3
ObjectDBX Classes
 90
        0
 91
        4
280
     0
281
     0
  0
CLASS
  1
CELLSTYLEMAP
  2
AcDbCellStyleMap
  3
ObjectDBX Classes
 90
     1152
 91
        4
280
     0
281
     0
  0
ENDSEC
  0
SECTION
  2
TABLES
  0
TABLE
  2
VPORT
  5
8
102
{ACAD_XDICTIONARY
360
35C
102
}
330
0
100
AcDbSymbolTable
 70
     1
  0
VPORT
  5
29
330
8
100
AcDbSymbolTableRecord
100
AcDbViewportTableRecord
  2
*Active
 70
     0
 10
0.0
 20
0.0
 11
1.0
 21
1.0
 12
0.0
 22
0.0
 13
0.0
 23
0.0
 14
10.0
 24
10.0
 15
10.0
 25
10.0
 16
0.0
 26
0.0
 36
1.0
 17
0.0
 27
0.0
 37
0.0
 40
4620.0
 41
1.414285714285715
 42
50.0
 43
0.0
 44
0.0
 50
0.0
 51
0.0
 71
     0
 72
 10000
 73
     1
 74
     3
 75
     0
 76
     0
 77
     0
 78
     0
281
     0
 65
     1
110
0.0
120
0.0
130
0.0
111
1.0
121
0.0
131
0.0
112
0.0
122
1.0
132
0.0
 79
     0
146
0.0
  0
ENDTAB
  0
TABLE
  2
LTYPE
  5
5
330
0
100
AcDbSymbolTable
 70
     5
  0
LTYPE
  5
14
330
5
100
AcDbSymbolTableRecord
100
AcDbLinetypeTableRecord
  2
ByBlock
 70
     0
  3

 72
    65
 73
     0
 40
0.0
  0
LTYPE
  5
15
330
5
100
AcDbSymbolTableRecord
100
AcDbLinetypeTableRecord
  2
ByLayer
 70
     0
  3

 72
    65
 73
     0
 40
0.0
  0
LTYPE
  5
16
330
5
100
AcDbSymbolTableRecord
100
AcDbLinetypeTableRecord
  2
Continuous
 70
     0
  3
Solid line
 72
    65
 73
     0
 40
0.0
  0
LTYPE
  5
6F
330
5
100
AcDbSymbolTableRecord
100
AcDbLinetypeTableRecord
  2
JWW_CENTER1
 70
     0
  3
-----  --  ----------  --  -----
 72
    65
 73
     4
 40
6.773333333333333
 49
4.233333333333333
 74
     0
 49
-0.8466666666666667
 74
     0
 49
0.8466666666666667
 74
     0
 49
-0.8466666666666667
 74
     0
  0
LTYPE
  5
70
330
5
100
AcDbSymbolTableRecord
100
AcDbLinetypeTableRecord
  2
JWW_DASHED1
 70
     0
  3
-  --  --  --  --  --  --  --  -
 72
    65
 73
     2
 40
1.693333333333333
 49
0.8466666666666667
 74
     0
 49
-0.8466666666666667
 74
     0
  0
LTYPE
  5
71
330
5
100
AcDbSymbolTableRecord
100
AcDbLinetypeTableRecord
  2
JWW_HOJO
 70
     0
  3
  -   -   -   -   -   -   -   - 
 72
    65
 73
     2
 40
1.693333333333333
 49
-1.27
 74
     0
 49
0.4233333333333333
 74
     0
  0
LTYPE
  5
72
330
5
100
AcDbSymbolTableRecord
100
AcDbLinetypeTableRecord
  2
JWW_DASHED2
 70
     0
  3
--    ----    ----    ----    --
 72
    65
 73
     2
 40
3.386666666666667
 49
1.693333333333333
 74
     0
 49
-1.693333333333333
 74
     0
  0
ENDTAB
  0
TABLE
  2
LAYER
  5
2
330
0
100
AcDbSymbolTable
 70
    22
  0
LAYER
  5
10
330
2
100
AcDbSymbolTableRecord
100
AcDbLayerTableRecord
  2
0
 70
     0
 62
     7
  6
Continuous
370
    -3
390
F
  0
LAYER
  5
73
330
2
100
AcDbSymbolTableRecord
100
AcDbLayerTableRecord
  2
寸法
 70
     0
 62
     7
  6
Continuous
370
    -3
390
F
  0
LAYER
  5
74
330
2
100
AcDbSymbolTableRecord
100
AcDbLayerTableRecord
  2
F-5ﾚｲﾔ
 70
     0
 62
     7
  6
Continuous
370
    -3
390
F
  0
LAYER
  5
75
330
2
100
AcDbSymbolTableRecord
100
AcDbLayerTableRecord
  2
F-Fﾚｲﾔ
 70
     0
 62
     7
  6
Continuous
370
    -3
390
F
  0
LAYER
  5
76
330
2
100
AcDbSymbolTableRecord
100
AcDbLayerTableRecord
  2
0-E
 70
     0
 62
     7
  6
Continuous
370
    -3
390
F
  0
LAYER
  5
77
330
2
100
AcDbSymbolTableRecord
100
AcDbLayerTableRecord
  2
0-F
 70
     0
 62
     7
  6
Continuous
370
    -3
390
F
  0
LAYER
  5
78
330
2
100
AcDbSymbolTableRecord
100
AcDbLayerTableRecord
  2
D-E
 70
     0
 62
     7
  6
Continuous
370
    -3
390
F
  0
LAYER
  5
79
330
2
100
AcDbSymbolTableRecord
100
AcDbLayerTableRecord
  2
D-7
 70
     0
 62
     7
  6
Continuous
370
    -3
390
F
  0
LAYER
  5
7A
330
2
100
AcDbSymbolTableRecord
100
AcDbLayerTableRecord
  2
D-5
 70
     0
 62
     7
  6
Continuous
370
    -3
390
F
  0
LAYER
  5
7B
330
2
100
AcDbSymbolTableRecord
100
AcDbLayerTableRecord
  2
D-6
 70
     0
 62
     7
  6
Continuous
370
    -3
390
F
  0
LAYER
  5
7C
330
2
100
AcDbSymbolTableRecord
100
AcDbLayerTableRecord
  2
D-8
 70
     0
 62
     7
  6
Continuous
370
    -3
390
F
  0
LAYER
  5
7D
330
2
100
AcDbSymbolTableRecord
100
AcDbLayerTableRecord
  2
D-4
 70
     0
 62
     7
  6
Continuous
370
    -3
390
F
  0
LAYER
  5
7E
330
2
100
AcDbSymbolTableRecord
100
AcDbLayerTableRecord
  2
D-9
 70
     0
 62
     7
  6
Continuous
370
    -3
390
F
  0
LAYER
  5
7F
330
2
100
AcDbSymbolTableRecord
100
AcDbLayerTableRecord
  2
D-F
 70
     0
 62
     7
  6
Continuous
370
    -3
390
F
  0
LAYER
  5
80
330
2
100
AcDbSymbolTableRecord
100
AcDbLayerTableRecord
  2
D-1
 70
     0
 62
     7
  6
Continuous
370
    -3
390
F
  0
LAYER
  5
81
330
2
100
AcDbSymbolTableRecord
100
AcDbLayerTableRecord
  2
D-2
 70
     0
 62
     7
  6
Continuous
370
    -3
390
F
  0
LAYER
  5
82
330
2
100
AcDbSymbolTableRecord
100
AcDbLayerTableRecord
  2
D-3
 70
     0
 62
     7
  6
Continuous
370
    -3
390
F
  0
LAYER
  5
83
330
2
100
AcDbSymbolTableRecord
100
AcDbLayerTableRecord
  2
D-C
 70
     0
 62
     7
  6
Continuous
370
    -3
390
F
  0
LAYER
  5
84
330
2
100
AcDbSymbolTableRecord
100
AcDbLayerTableRecord
  2
躯体
 70
     0
 62
     7
  6
Continuous
370
    -3
390
F
  0
LAYER
  5
85
330
2
100
AcDbSymbolTableRecord
100
AcDbLayerTableRecord
  2
建具
 70
     0
 62
     7
  6
Continuous
370
    -3
390
F
  0
LAYER
  5
86
330
2
100
AcDbSymbolTableRecord
100
AcDbLayerTableRecord
  2
仕上
 70
     0
 62
     7
  6
Continuous
370
    -3
390
F
  0
LAYER
  5
87
330
2
100
AcDbSymbolTableRecord
100
AcDbLayerTableRecord
  2
0-C
 70
     0
 62
     7
  6
Continuous
370
    -3
390
F
  0
ENDTAB
  0
TABLE
  2
STYLE
  5
3
330
0
100
AcDbSymbolTable
 70
     2
  0
STYLE
  5
11
330
3
100
AcDbSymbolTableRecord
100
AcDbTextStyleTableRecord
  2
Standard
 70
     0
 40
0.0
 41
1.0
 50
0.0
 71
     0
 42
2.5
  3
txt
  4

  0
STYLE
  5
6E
330
3
100
AcDbSymbolTableRecord
100
AcDbTextStyleTableRecord
  2
ＭＳ ゴシック
 70
     0
 40
1.0
 41
1.0
 50
0.0
 71
     0
 42
2.5
  3

  4

1001
ACAD
1000
MS Gothic
1071
    32817
  0
ENDTAB
  0
TABLE
  2
VIEW
  5
6
330
0
100
AcDbSymbolTable
 70
     0
  0
ENDTAB
  0
TABLE
  2
UCS
  5
7
330
0
100
AcDbSymbolTable
 70
     0
  0
ENDTAB
  0
TABLE
  2
APPID
  5
9
330
0
100
AcDbSymbolTable
 70
     2
  0
APPID
  5
12
330
9
100
AcDbSymbolTableRecord
100
AcDbRegAppTableRecord
  2
ACAD
 70
     0
  0
APPID
  5
39B
330
9
100
AcDbSymbolTableRecord
100
AcDbRegAppTableRecord
  2
ACAD_MLEADERVER
 70
     0
  0
ENDTAB
  0
TABLE
  2
DIMSTYLE
  5
A
330
0
100
AcDbSymbolTable
 70
     1
100
AcDbDimStyleTable
  0
DIMSTYLE
105
27
330
A
100
AcDbSymbolTableRecord
100
AcDbDimStyleTableRecord
  2
ISO-25
 70
     0
 41
2.5
 42
0.625
 43
3.75
 44
1.25
 73
     0
 74
     0
 77
     1
 78
     8
140
2.5
141
2.5
143
0.03937007874016
147
0.625
171
     3
172
     1
178
     0
271
     2
272
     2
274
     3
278
    44
283
     0
284
     8
340
11
  0
ENDTAB
  0
TABLE
  2
BLOCK_RECORD
  5
1
330
0
100
AcDbSymbolTable
 70
     1
  0
BLOCK_RECORD
  5
1F
330
1
100
AcDbSymbolTableRecord
100
AcDbBlockTableRecord
  2
*Model_Space
340
22
  0
BLOCK_RECORD
  5
1B
330
1
100
AcDbSymbolTableRecord
100
AcDbBlockTableRecord
  2
*Paper_Space
340
1E
  0
BLOCK_RECORD
  5
23
330
1
100
AcDbSymbolTableRecord
100
AcDbBlockTableRecord
  2
*Paper_Space0
340
26
  0
ENDTAB
  0
ENDSEC
  0
SECTION
  2
BLOCKS
  0
BLOCK
  5
20
330
1F
100
AcDbEntity
  8
0
100
AcDbBlockBegin
  2
*Model_Space
 70
     0
 10
0.0
 20
0.0
 30
0.0
  3
*Model_Space
  1

  0
ENDBLK
  5
21
330
1F
100
AcDbEntity
  8
0
100
AcDbBlockEnd
  0
BLOCK
  5
1C
330
1B
100
AcDbEntity
 67
     1
  8
0
100
AcDbBlockBegin
  2
*Paper_Space
 70
     0
 10
0.0
 20
0.0
 30
0.0
  3
*Paper_Space
  1

  0
ENDBLK
  5
1D
330
1B
100
AcDbEntity
 67
     1
  8
0
100
AcDbBlockEnd
  0
BLOCK
  5
24
330
23
100
AcDbEntity
  8
0
100
AcDbBlockBegin
  2
*Paper_Space0
 70
     0
 10
0.0
 20
0.0
 30
0.0
  3
*Paper_Space0
  1

  0
ENDBLK
  5
25
330
23
100
AcDbEntity
  8
0
100
AcDbBlockEnd
  0
ENDSEC
  0
SECTION
  2
ENTITIES
  0
SOLID
  5
88
330
1F
100
AcDbEntity
  8
寸法
  6
Continuous
 62
     4
370
     9
100
AcDbTrace
 10
-618.8203602801445
 20
548.2490745649068
 30
0.0
 11
-618.8203602801445
 21
588.2490745649068
 31
0.0
 12
-622.8203602801455
 22
548.2490745649068
 32
0.0
 13
-622.8203602801455
 23
588.2490745649068
 33
0.0
  0
SOLID
  5
89
330
1F
100
AcDbEntity
  8
寸法
  6
Continuous
 62
     4
370
     9
100
AcDbTrace
 10
-618.8203602801423
 20
923.3730870287252
 30
0.0
 11
-618.8203602801423
 21
883.3730870287252
 31
0.0
 12
-622.8203602801432
 22
923.3730870287252
 32
0.0
 13
-622.8203602801432
 23
883.3730870287252
 33
0.0
  0
TEXT
  5
8A
330
1F
100
AcDbEntity
  8
F-5ﾚｲﾔ
  6
Continuous
 62
     2
370
     0
100
AcDbText
 10
-500.106003123002
 20
-1912.862728200519
 30
0.0
 40
30.48
  1
充填用（充填深さ：３０ｍｍ）　屋内用　一般形　スチール製　ステンレス目地
 41
1.121527777777778
  7
ＭＳ ゴシック
100
AcDbText
  0
LINE
  5
8B
330
1F
100
AcDbEntity
  8
F-5ﾚｲﾔ
  6
Continuous
 62
     7
370
     9
100
AcDbLine
 10
-2570.105761574603
 20
-896.6758576860201
 30
0.0
 11
-1050.105761574603
 21
-896.6758576860201
 31
0.0
  0
LINE
  5
8C
330
1F
100
AcDbEntity
  8
F-Fﾚｲﾔ
  6
Continuous
 62
     7
370
     9
100
AcDbLine
 10
-2570.105761574603
 20
-696.6754642953634
 30
0.0
 11
-1050.105761574603
 21
-696.6754642953634
 31
0.0
  0
TEXT
  5
8D
330
1F
100
AcDbEntity
  8
F-Fﾚｲﾔ
  6
Continuous
 62
     2
370
     9
100
AcDbText
 10
-2540.105761574603
 20
-863.5357349004507
 30
0.0
 40
30.48
  1
強度
 41
1.0625
  7
ＭＳ ゴシック
100
AcDbText
  0
TEXT
  5
8E
330
1F
100
AcDbEntity
  8
F-Fﾚｲﾔ
  6
Continuous
 62
     2
370
     9
100
AcDbText
 10
-2540.105761574603
 20
-763.6033922554761
 30
0.0
 40
30.48
  1
強度性能・質量
 41
1.107142857142857
  7
ＭＳ ゴシック
100
AcDbText
  0
TEXT
  5
8F
330
1F
100
AcDbEntity
  8
F-Fﾚｲﾔ
  6
Continuous
 62
     2
370
     9
100
AcDbText
 10
-2540.105761574603
 20
-953.5357349004513
 30
0.0
 40
30.48
  1
主な設置場所
 41
1.104166666666667
  7
ＭＳ ゴシック
100
AcDbText
  0
TEXT
  5
90
330
1F
100
AcDbEntity
  8
F-Fﾚｲﾔ
  6
Continuous
 62
     2
370
     9
100
AcDbText
 10
-2540.105761574603
 20
-1136.035743245103
 30
0.0
 40
30.48
  1
後輪一輪荷重
 41
1.104166666666667
  7
ＭＳ ゴシック
100
AcDbText
  0
TEXT
  5
91
330
1F
100
AcDbEntity
  8
F-Fﾚｲﾔ
  6
Continuous
 62
     2
370
     9
100
AcDbText
 10
-2540.105761574603
 20
-1316.036057957627
 30
0.0
 40
30.48
  1
荷重条件
 41
1.09375
  7
ＭＳ ゴシック
100
AcDbText
  0
TEXT
  5
92
330
1F
100
AcDbEntity
  8
F-Fﾚｲﾔ
  6
Continuous
 62
     2
370
     9
100
AcDbText
 10
-2540.105761574603
 20
-1406.036344059922
 30
0.0
 40
30.48
  1
許容応力
 41
1.09375
  7
ＭＳ ゴシック
100
AcDbText
  0
TEXT
  5
93
330
1F
100
AcDbEntity
  8
F-Fﾚｲﾔ
  6
Continuous
 62
     2
370
     9
100
AcDbText
 10
-2540.105761574603
 20
-1226.035514363267
 30
0.0
 40
30.48
  1
衝撃係数
 41
1.09375
  7
ＭＳ ゴシック
100
AcDbText
  0
TEXT
  5
94
330
1F
100
AcDbEntity
  8
F-Fﾚｲﾔ
  6
Continuous
 62
     2
370
     9
100
AcDbText
 10
-2540.105761574603
 20
-1496.036630162217
 30
0.0
 40
30.48
  1
質量
 41
1.0625
  7
ＭＳ ゴシック
100
AcDbText
  0
TEXT
  5
95
330
1F
100
AcDbEntity
  8
F-Fﾚｲﾔ
  6
Continuous
 62
     2
370
     9
100
AcDbText
 10
-2540.105761574603
 20
-1586.036916264512
 30
0.0
 40
30.48
  1
充填時の蓋質量
 41
1.107142857142857
  7
ＭＳ ゴシック
100
AcDbText
  0
TEXT
  5
96
330
1F
100
AcDbEntity
  8
F-Fﾚｲﾔ
  6
Continuous
 62
     2
370
     9
100
AcDbText
 10
-2158.770859680577
 20
-1226.035514363267
 30
0.0
 40
30.48
  1
0
 41
0.9999999999999998
  7
ＭＳ ゴシック
100
AcDbText
  0
LINE
  5
97
330
1F
100
AcDbEntity
  8
F-Fﾚｲﾔ
  6
Continuous
 62
     7
370
     9
100
AcDbLine
 10
-2570.105761574603
 20
-696.6754642953634
 30
0.0
 11
-2570.105761574603
 21
-1616.677059315659
 31
0.0
  0
LINE
  5
98
330
1F
100
AcDbEntity
  8
F-Fﾚｲﾔ
  6
Continuous
 62
     7
370
     9
100
AcDbLine
 10
-1050.105761574603
 20
-1616.677059315659
 30
0.0
 11
-2570.105761574603
 21
-1616.677059315659
 31
0.0
  0
LINE
  5
99
330
1F
100
AcDbEntity
  8
F-Fﾚｲﾔ
  6
Continuous
 62
     7
370
     9
100
AcDbLine
 10
-2570.105761574603
 20
-796.675571583724
 30
0.0
 11
-1050.105761574603
 21
-796.675571583724
 31
0.0
  0
LINE
  5
9A
330
1F
100
AcDbEntity
  8
F-Fﾚｲﾔ
  6
Continuous
 62
     7
370
     9
100
AcDbLine
 10
-2570.105761574603
 20
-806.675571583724
 30
0.0
 11
-1050.105761574603
 21
-806.675571583724
 31
0.0
  0
LINE
  5
9B
330
1F
100
AcDbEntity
  8
F-Fﾚｲﾔ
  6
Continuous
 62
     7
370
     9
100
AcDbLine
 10
-2570.105761574603
 20
-896.6758576860201
 30
0.0
 11
-1050.105761574603
 21
-896.6758576860201
 31
0.0
  0
LINE
  5
9C
330
1F
100
AcDbEntity
  8
F-5ﾚｲﾔ
  6
Continuous
 62
     7
370
     9
100
AcDbLine
 10
-2570.105761574603
 20
-1076.675857686021
 30
0.0
 11
-1050.105761574603
 21
-1076.675857686021
 31
0.0
  0
LINE
  5
9D
330
1F
100
AcDbEntity
  8
F-Fﾚｲﾔ
  6
Continuous
 62
     7
370
     9
100
AcDbLine
 10
-2570.105761574603
 20
-1166.675628804185
 30
0.0
 11
-1050.105761574603
 21
-1166.675628804185
 31
0.0
  0
LINE
  5
9E
330
1F
100
AcDbEntity
  8
F-Fﾚｲﾔ
  6
Continuous
 62
     7
370
     9
100
AcDbLine
 10
-1050.105761574603
 20
-1346.676201008775
 30
0.0
 11
-2570.105761574603
 21
-1346.676201008775
 31
0.0
  0
LINE
  5
9F
330
1F
100
AcDbEntity
  8
F-Fﾚｲﾔ
  6
Continuous
 62
     7
370
     9
100
AcDbLine
 10
-1050.105761574603
 20
-1436.676487111069
 30
0.0
 11
-2570.105761574603
 21
-1436.676487111069
 31
0.0
  0
LINE
  5
A0
330
1F
100
AcDbEntity
  8
F-Fﾚｲﾔ
  6
Continuous
 62
     7
370
     9
100
AcDbLine
 10
-2570.105761574603
 20
-1256.675399922349
 30
0.0
 11
-1050.105761574603
 21
-1256.675399922349
 31
0.0
  0
LINE
  5
A1
330
1F
100
AcDbEntity
  8
F-Fﾚｲﾔ
  6
Continuous
 62
     7
370
     9
100
AcDbLine
 10
-1050.105761574603
 20
-1526.676773213364
 30
0.0
 11
-2570.105761574603
 21
-1526.676773213364
 31
0.0
  0
LINE
  5
A2
330
1F
100
AcDbEntity
  8
F-Fﾚｲﾔ
  6
Continuous
 62
     7
370
     9
100
AcDbLine
 10
-2570.105761574603
 20
-1076.675857686021
 30
0.0
 11
-1050.105761574603
 21
-1076.675857686021
 31
0.0
  0
TEXT
  5
A3
330
1F
100
AcDbEntity
  8
F-Fﾚｲﾔ
  6
Continuous
 62
     2
370
     9
100
AcDbText
 10
-2158.770859680577
 20
-947.1056071661152
 30
0.0
 40
30.48
  1
車道以外で、車両が走行することはまれで、走行する
 41
1.119791666666667
  7
ＭＳ ゴシック
100
AcDbText
  0
TEXT
  5
A4
330
1F
100
AcDbEntity
  8
F-Fﾚｲﾔ
  6
Continuous
 62
     2
370
     9
100
AcDbText
 10
-2158.770859680577
 20
-1001.589081513182
 30
0.0
 40
30.48
  1
ことがあっても一時的な通過などで低速で走行するよ
 41
1.119791666666667
  7
ＭＳ ゴシック
100
AcDbText
  0
TEXT
  5
A5
330
1F
100
AcDbEntity
  8
F-Fﾚｲﾔ
  6
Continuous
 62
     2
370
     9
100
AcDbText
 10
-2158.770859680577
 20
-1056.072555860248
 30
0.0
 40
30.48
  1
うな、車両が乗り入れる可能性のある建物内
 41
1.11875
  7
ＭＳ ゴシック
100
AcDbText
  0
LINE
  5
A6
330
1F
100
AcDbEntity
  8
F-5ﾚｲﾔ
  6
Continuous
 62
     7
370
     9
100
AcDbLine
 10
-1050.105761574603
 20
-696.6754642953634
 30
0.0
 11
-1050.105761574603
 21
-1616.677059315659
 31
0.0
  0
LINE
  5
A7
330
1F
100
AcDbEntity
  8
F-Fﾚｲﾔ
  6
Continuous
 62
     7
370
     9
100
AcDbLine
 10
-2200.105761574603
 20
-796.675571583724
 30
0.0
 11
-2200.105761574603
 21
-1616.677059315659
 31
0.0
  0
TEXT
  5
A8
330
1F
100
AcDbEntity
  8
F-Fﾚｲﾔ
  6
Continuous
 62
     2
370
     9
100
AcDbText
 10
-2158.770859680577
 20
-863.5357349004507
 30
0.0
 40
30.48
  1
T-14：総重量14,000kgfまでの車両の乗り入れが可能
 41
1.11968085106383
  7
ＭＳ ゴシック
100
AcDbText
  0
TEXT
  5
A9
330
1F
100
AcDbEntity
  8
F-Fﾚｲﾔ
  6
Continuous
 62
     2
370
     9
100
AcDbText
 10
-2158.770859680577
 20
-1316.036315449692
 30
0.0
 40
30.48
  1
載荷板寸法：200×500 mm
 41
1.119565217391304
  7
ＭＳ ゴシック
100
AcDbText
  0
TEXT
  5
AA
330
1F
100
AcDbEntity
  8
F-Fﾚｲﾔ
  6
Continuous
 62
     2
370
     9
100
AcDbText
 10
-2158.770859680577
 20
-1406.036601551987
 30
0.0
 40
30.48
  1
約235N/mm
 41
1.111111111111111
  7
ＭＳ ゴシック
100
AcDbText
  0
TEXT
  5
AB
330
1F
100
AcDbEntity
  8
F-Fﾚｲﾔ
  6
Continuous
 62
     2
370
     9
100
AcDbText
 10
-2158.770859680577
 20
-1136.035743245103
 30
0.0
 40
30.48
  1
54.9kN（5,600kgf）
 41
1.111111111111111
  7
ＭＳ ゴシック
100
AcDbText
  0
TEXT
  5
AC
330
1F
100
AcDbEntity
  8
F-5ﾚｲﾔ
  6
Continuous
 62
     6
370
     9
100
AcDbText
 10
-1956.047549725834
 20
-1379.634547147684
 30
0.0
 40
15.24
  1
2
 41
0.9999999999999998
  7
ＭＳ ゴシック
100
AcDbText
  0
TEXT
  5
AD
330
1F
100
AcDbEntity
  8
F-5ﾚｲﾔ
  6
Continuous
 62
     2
370
     0
100
AcDbText
 10
-500.106003123002
 20
-1962.068919403209
 30
0.0
 40
30.48
  1
大口径マシンハッチ　Ｓ－１４Ｅ－６００×１３００
 41
1.119791666666667
  7
ＭＳ ゴシック
100
AcDbText
  0
LINE
  5
AE
330
1F
100
AcDbEntity
  8
0-E
  6
Continuous
 62
     3
370
     9
100
AcDbLine
 10
-996.8204246145024
 20
866.7564025223088
 30
0.0
 11
-956.8204246145024
 21
866.7564025223088
 31
0.0
  0
LINE
  5
AF
330
1F
100
AcDbEntity
  8
0-E
  6
Continuous
 62
     3
370
     9
100
AcDbLine
 10
-996.8204246145024
 20
866.7564025223088
 30
0.0
 11
-996.8204246145024
 21
832.5564474738745
 31
0.0
  0
LINE
  5
B0
330
1F
100
AcDbEntity
  8
0-E
  6
Continuous
 62
     3
370
     9
100
AcDbLine
 10
-956.8204246145024
 20
866.7564025223088
 30
0.0
 11
-956.8204246145024
 21
832.5564474738745
 31
0.0
  0
CIRCLE
  5
B1
330
1F
100
AcDbEntity
  8
0-E
  6
Continuous
 62
     3
370
     9
100
AcDbCircle
 10
-976.8204246145024
 20
851.7564025223088
 30
0.0
 40
6.999999999998181
  0
LINE
  5
B2
330
1F
100
AcDbEntity
  8
0-E
  6
JWW_CENTER1
 62
     3
370
     9
100
AcDbLine
 10
-976.8204246145024
 20
873.7294015485792
 30
0.0
 11
-976.8204246145024
 21
832.5564474738745
 31
0.0
  0
LINE
  5
B3
330
1F
100
AcDbEntity
  8
0-E
  6
JWW_CENTER1
 62
     3
370
     9
100
AcDbLine
 10
-952.4431831512948
 20
851.7564025223088
 30
0.0
 11
-1001.19766607771
 21
851.7564025223088
 31
0.0
  0
LINE
  5
B4
330
1F
100
AcDbEntity
  8
0-E
  6
Continuous
 62
     3
370
     9
100
AcDbLine
 10
-956.8204246144978
 20
106.3565105710252
 30
0.0
 11
-996.8204246144978
 21
106.3565105710252
 31
0.0
  0
LINE
  5
B5
330
1F
100
AcDbEntity
  8
0-E
  6
Continuous
 62
     3
370
     9
100
AcDbLine
 10
-956.8204246144978
 20
106.3565105710252
 30
0.0
 11
-956.8204246144978
 21
140.5564656194595
 31
0.0
  0
LINE
  5
B6
330
1F
100
AcDbEntity
  8
0-E
  6
Continuous
 62
     3
370
     9
100
AcDbLine
 10
-996.8204246144978
 20
106.3565105710252
 30
0.0
 11
-996.8204246144978
 21
140.5564656194595
 31
0.0
  0
CIRCLE
  5
B7
330
1F
100
AcDbEntity
  8
0-E
  6
Continuous
 62
     3
370
     9
100
AcDbCircle
 10
-976.8204246144978
 20
121.3565105710252
 30
0.0
 40
6.999999999998181
  0
LINE
  5
B8
330
1F
100
AcDbEntity
  8
0-E
  6
JWW_CENTER1
 62
     3
370
     9
100
AcDbLine
 10
-976.8204246144978
 20
99.38351154475484
 30
0.0
 11
-976.8204246144978
 21
140.5564656194595
 31
0.0
  0
LINE
  5
B9
330
1F
100
AcDbEntity
  8
0-E
  6
JWW_CENTER1
 62
     3
370
     9
100
AcDbLine
 10
-1001.197666077705
 20
121.3565105710252
 30
0.0
 11
-952.4431831512902
 21
121.3565105710252
 31
0.0
  0
LWPOLYLINE
  5
BA
330
1F
100
AcDbEntity
  8
0-F
  6
Continuous
 62
     7
370
     9
100
AcDbPolyline
 90
        4
 70
     1
 43
2.0
 10
-975.8204246144978
 20
-20.81036179157124
 42
0.4142135623731
 10
-976.8204246144978
 20
-19.81036179157124
 42
0.4142135623731
 10
-977.8204246144978
 20
-20.81036179157124
 42
0.4142135623731
 10
-976.8204246144978
 20
-21.81036179157124
 42
0.4142135623731
  0
LINE
  5
BB
330
1F
100
AcDbEntity
  8
0-F
  6
Continuous
 62
     7
370
     9
100
AcDbLine
 10
-976.8204246144978
 20
-23.81036179157078
 30
0.0
 11
-976.8204246144978
 21
79.38351154475484
 31
0.0
  0
LINE
  5
BC
330
1F
100
AcDbEntity
  8
D-E
  6
Continuous
 62
     3
370
     9
100
AcDbLine
 10
1808.704425901476
 20
290.2700613554324
 30
0.0
 11
1798.704516500554
 21
290.2700613554324
 31
0.0
  0
LINE
  5
BD
330
1F
100
AcDbEntity
  8
D-E
  6
Continuous
 62
     3
370
     9
100
AcDbLine
 10
1823.704475969396
 20
137.7700470503268
 30
0.0
 11
1823.704475969396
 21
275.2700041349734
 31
0.0
  0
ARC
  5
BE
330
1F
100
AcDbEntity
  8
D-E
  6
Continuous
 62
     3
370
     9
100
AcDbCircle
 10
1808.704425901476
 20
275.2700041349734
 30
0.0
 40
15.00000000000001
100
AcDbArc
 50
0.0
 51
90.0
  0
LINE
  5
BF
330
1F
100
AcDbEntity
  8
D-E
  6
Continuous
 62
     3
370
     9
100
AcDbLine
 10
1798.704516500554
 20
90.2701376493777
 30
0.0
 11
1798.704516500554
 21
290.2700613554324
 31
0.0
  0
ARC
  5
C0
330
1F
100
AcDbEntity
  8
D-E
  6
Continuous
 62
     3
370
     9
100
AcDbCircle
 10
1846.204425901476
 20
137.7700470503268
 30
0.0
 40
22.5
100
AcDbArc
 50
180.0
 51
270.0
  0
LINE
  5
C1
330
1F
100
AcDbEntity
  8
D-E
  6
Continuous
 62
     3
370
     9
100
AcDbLine
 10
1998.704440206609
 20
90.2701376493777
 30
0.0
 11
1798.704516500554
 21
90.2701376493777
 31
0.0
  0
LINE
  5
C2
330
1F
100
AcDbEntity
  8
D-E
  6
Continuous
 62
     3
370
     9
100
AcDbLine
 10
1846.204425901476
 20
115.2700971182193
 30
0.0
 11
1983.70438298615
 21
115.2700971182193
 31
0.0
  0
ARC
  5
C3
330
1F
100
AcDbEntity
  8
D-E
  6
Continuous
 62
     3
370
     9
100
AcDbCircle
 10
1983.70438298615
 20
100.2700470503267
 30
0.0
 40
15.00000000000001
100
AcDbArc
 50
0.0
 51
90.0
  0
LINE
  5
C4
330
1F
100
AcDbEntity
  8
D-E
  6
Continuous
 62
     3
370
     9
100
AcDbLine
 10
1998.704440206609
 20
100.2700470503267
 30
0.0
 11
1998.704440206609
 21
90.2701376493777
 31
0.0
  0
LINE
  5
C5
330
1F
100
AcDbEntity
  8
D-E
  6
JWW_DASHED1
 62
     3
370
     9
100
AcDbLine
 10
1958.704440206609
 20
115.2700971182193
 30
0.0
 11
1958.704440206609
 21
90.2701376493777
 31
0.0
  0
LINE
  5
C6
330
1F
100
AcDbEntity
  8
D-E
  6
JWW_DASHED1
 62
     3
370
     9
100
AcDbLine
 10
1888.704440206627
 20
115.2700971182193
 30
0.0
 11
1888.704440206627
 21
90.2701376493777
 31
0.0
  0
LINE
  5
C7
330
1F
100
AcDbEntity
  8
D-7
  6
JWW_CENTER1
 62
     4
370
     9
100
AcDbLine
 10
1923.704440206609
 20
131.3168772771396
 30
0.0
 11
1923.704440206609
 21
72.84937335249275
 31
0.0
  0
TEXT
  5
C8
330
1F
100
AcDbEntity
  8
D-5
  6
Continuous
 62
     7
370
     9
100
AcDbText
 10
1981.230729586327
 20
25.51209557417186
 30
0.0
 40
22.86
  1
Φ１４
 41
1.111111111111111
  7
ＭＳ ゴシック
100
AcDbText
  0
LINE
  5
C9
330
1F
100
AcDbEntity
  8
D-5
  6
Continuous
 62
     7
370
     9
100
AcDbLine
 10
1923.704440206609
 20
90.2701376493777
 30
0.0
 11
1934.921382246305
 21
62.44602447370163
 31
0.0
  0
LINE
  5
CA
330
1F
100
AcDbEntity
  8
D-5
  6
Continuous
 62
     7
370
     9
100
AcDbLine
 10
1923.704440206609
 20
90.2701376493777
 30
0.0
 11
1941.740576318307
 21
66.29717787319485
 31
0.0
  0
LINE
  5
CB
330
1F
100
AcDbEntity
  8
D-5
  6
Continuous
 62
     7
370
     9
100
AcDbLine
 10
1966.033136021661
 20
15.32073195802205
 30
0.0
 11
1923.704440206609
 21
90.2701376493777
 31
0.0
  0
LINE
  5
CC
330
1F
100
AcDbEntity
  8
D-5
  6
Continuous
 62
     7
370
     9
100
AcDbLine
 10
1966.033136021661
 20
15.32073195802205
 30
0.0
 11
2082.177621667061
 21
15.32073195802205
 31
0.0
  0
LINE
  5
CD
330
1F
100
AcDbEntity
  8
D-6
  6
Continuous
 62
     6
370
     9
100
AcDbLine
 10
1711.592043553983
 20
106.2703389004334
 30
0.0
 11
1722.704318548706
 21
117.3823664553324
 31
0.0
  0
LINE
  5
CE
330
1F
100
AcDbEntity
  8
D-6
  6
Continuous
 62
     6
370
     9
100
AcDbLine
 10
1697.450362810741
 20
106.2703389004334
 30
0.0
 11
1712.450215841252
 21
121.2703389004334
 31
0.0
  0
LINE
  5
CF
330
1F
100
AcDbEntity
  8
D-6
  6
Continuous
 62
     6
370
     9
100
AcDbLine
 10
1683.307939748029
 20
106.2703389004334
 30
0.0
 11
1698.308187189077
 21
121.2703389004334
 31
0.0
  0
LINE
  5
D0
330
1F
100
AcDbEntity
  8
D-6
  6
Continuous
 62
     6
370
     9
100
AcDbLine
 10
1669.165764125141
 20
106.2703389004334
 30
0.0
 11
1684.165640404617
 21
121.2703389004334
 31
0.0
  0
LINE
  5
D1
330
1F
100
AcDbEntity
  8
D-6
  6
Continuous
 62
     6
370
     9
100
AcDbLine
 10
1655.023341062431
 20
106.2703389004334
 30
0.0
 11
1670.023712224001
 21
121.2703389004334
 31
0.0
  0
LINE
  5
D2
330
1F
100
AcDbEntity
  8
D-6
  6
Continuous
 62
     6
370
     9
100
AcDbLine
 10
1640.881412879364
 20
106.2703389004334
 30
0.0
 11
1655.881412879364
 21
121.2703389004334
 31
0.0
  0
LINE
  5
D3
330
1F
100
AcDbEntity
  8
D-6
  6
Continuous
 62
     6
370
     9
100
AcDbLine
 10
1626.739237256475
 20
106.2703389004334
 30
0.0
 11
1641.739608418047
 21
121.2703389004334
 31
0.0
  0
LINE
  5
D4
330
1F
100
AcDbEntity
  8
D-6
  6
Continuous
 62
     6
370
     9
100
AcDbLine
 10
1612.597061633587
 20
106.2703389004334
 30
0.0
 11
1627.597185354111
 21
121.2703389004334
 31
0.0
  0
LINE
  5
D5
330
1F
100
AcDbEntity
  8
D-6
  6
Continuous
 62
     6
370
     9
100
AcDbLine
 10
1598.455628330166
 20
106.2703389004334
 30
0.0
 11
1613.455752050691
 21
121.2703389004334
 31
0.0
  0
LINE
  5
D6
330
1F
100
AcDbEntity
  8
D-6
  6
Continuous
 62
     6
370
     9
100
AcDbLine
 10
1597.704895908291
 20
119.6611635018902
 30
0.0
 11
1599.314035346806
 21
121.2703389004334
 31
0.0
  0
LINE
  5
D7
330
1F
100
AcDbEntity
  8
D-6
  6
Continuous
 62
     6
370
     9
100
AcDbLine
 10
1722.704071108883
 20
121.2703389004334
 30
0.0
 11
1722.704071108883
 21
106.2703389004334
 31
0.0
  0
LINE
  5
D8
330
1F
100
AcDbEntity
  8
D-6
  6
Continuous
 62
     6
370
     9
100
AcDbLine
 10
1597.704648468468
 20
121.2703389004334
 30
0.0
 11
1722.704071108883
 21
121.2703389004334
 31
0.0
  0
LINE
  5
D9
330
1F
100
AcDbEntity
  8
D-6
  6
Continuous
 62
     6
370
     9
100
AcDbLine
 10
1597.704648468468
 20
121.2703389004334
 30
0.0
 11
1597.704648468468
 21
106.2703389004334
 31
0.0
  0
LINE
  5
DA
330
1F
100
AcDbEntity
  8
D-5
  6
Continuous
 62
     7
370
     9
100
AcDbLine
 10
1578.240456461517
 20
-75.15920867689523
 30
0.0
 11
1688.210951788517
 21
105.7578599059811
 31
0.0
  0
LINE
  5
DB
330
1F
100
AcDbEntity
  8
D-5
  6
Continuous
 62
     7
370
     9
100
AcDbLine
 10
1688.210951788517
 20
105.7578599059811
 30
0.0
 11
1678.124978743317
 21
82.88269547528238
 31
0.0
  0
LINE
  5
DC
330
1F
100
AcDbEntity
  8
D-5
  6
Continuous
 62
     7
370
     9
100
AcDbLine
 10
1688.210951788517
 20
105.7578599059811
 30
0.0
 11
1672.548121726386
 21
86.27258971424872
 31
0.0
  0
TEXT
  5
DD
330
1F
100
AcDbEntity
  8
D-5
  6
Continuous
 62
     7
370
     9
100
AcDbText
 10
1227.074805602463
 20
-59.21343990251594
 30
0.0
 40
22.86
  1
クッション：３×２５
 41
1.15
  7
ＭＳ ゴシック
100
AcDbText
  0
TEXT
  5
DE
330
1F
100
AcDbEntity
  8
D-5
  6
Continuous
 62
     7
370
     9
100
AcDbText
 10
1214.117577216302
 20
-107.4904219898176
 30
0.0
 40
22.86
  1
（クロロプレンゴム）
 41
1.15
  7
ＭＳ ゴシック
100
AcDbText
  0
LINE
  5
DF
330
1F
100
AcDbEntity
  8
D-5
  6
Continuous
 62
     7
370
     9
100
AcDbLine
 10
1578.240456461517
 20
-75.15920867689523
 30
0.0
 11
1220.101913887393
 21
-75.15920867689523
 31
0.0
  0
LINE
  5
E0
330
1F
100
AcDbEntity
  8
D-8
  6
Continuous
 62
    30
370
     5
100
AcDbLine
 10
1675.204912404304
 20
121.2703389004334
 30
0.0
 11
1705.204912404295
 21
121.2703389004334
 31
0.0
  0
TEXT
  5
E1
330
1F
100
AcDbEntity
  8
D-4
  6
Continuous
 62
     2
370
     9
100
AcDbText
 10
934.8746802053188
 20
-512.3124866159765
 30
0.0
 40
30.48
  1
A-A断面詳細図　Ｓ＝１：２
 41
1.115
  7
ＭＳ ゴシック
100
AcDbText
  0
LINE
  5
E2
330
1F
100
AcDbEntity
  8
D-4
  6
Continuous
 62
     7
370
     9
100
AcDbLine
 10
1492.374680205319
 20
-528.5806455977119
 30
0.0
 11
934.8746802053188
 21
-528.5806455977119
 31
0.0
  0
LINE
  5
E3
330
1F
100
AcDbEntity
  8
D-5
  6
Continuous
 62
     7
370
     9
100
AcDbLine
 10
1825.985593273156
 20
90.2701376493777
 30
0.0
 11
1844.021729384854
 21
66.29717787319485
 31
0.0
  0
LINE
  5
E4
330
1F
100
AcDbEntity
  8
D-5
  6
Continuous
 62
     7
370
     9
100
AcDbLine
 10
1825.985593273156
 20
90.2701376493777
 30
0.0
 11
1837.202535312852
 21
62.44602447370163
 31
0.0
  0
LINE
  5
E5
330
1F
100
AcDbEntity
  8
D-5
  6
Continuous
 62
     7
370
     9
100
AcDbLine
 10
1917.297228609586
 20
-71.41102614253931
 30
0.0
 11
1825.985593273156
 21
90.2701376493777
 31
0.0
  0
TEXT
  5
E6
330
1F
100
AcDbEntity
  8
D-5
  6
Continuous
 62
     7
370
     9
100
AcDbText
 10
1921.078109219541
 20
-101.4577512929831
 30
0.0
 40
22.86
  1
（ＳＳ４００）
 41
1.142857142857143
  7
ＭＳ ゴシック
100
AcDbText
  0
LINE
  5
E7
330
1F
100
AcDbEntity
  8
D-9
  6
Continuous
 62
   211
370
     5
100
AcDbLine
 10
1675.204912404304
 20
151.2702870444289
 30
0.0
 11
662.7047144524181
 21
151.2702870444289
 31
0.0
  0
LINE
  5
E8
330
1F
100
AcDbEntity
  8
D-9
  6
Continuous
 62
   211
370
     5
100
AcDbLine
 10
1675.204912404304
 20
121.2703389004334
 30
0.0
 11
662.7047144524181
 21
121.2703389004334
 31
0.0
  0
TEXT
  5
E9
330
1F
100
AcDbEntity
  8
D-4
  6
Continuous
 62
     7
370
     9
100
AcDbText
 10
645.6662203147289
 20
-580.4812558832899
 30
0.0
 40
22.86
  1
表面処理：下塗り＋焼付塗装（但し目地、把手、クッション材を除く）
 41
1.161458333333333
  7
ＭＳ ゴシック
100
AcDbText
  0
TEXT
  5
EA
330
1F
100
AcDbEntity
  8
D-F
  6
Continuous
 62
     2
370
   211
100
AcDbText
 10
1939.954440206609
 20
218.3998913813929
 30
0.0
 40
30.48
  1
15
 41
1.0625
  7
ＭＳ ゴシック
100
AcDbText
  0
LWPOLYLINE
  5
EB
330
1F
100
AcDbEntity
  8
D-F
  6
Continuous
 62
     7
370
     9
100
AcDbPolyline
 90
        4
 70
     1
 43
2.0
 10
2097.394999014137
 20
90.26967563283357
 42
0.4142135623731
 10
2096.394999014137
 20
91.26967563283357
 42
0.4142135623731
 10
2095.394999014137
 20
90.26967563283357
 42
0.4142135623731
 10
2096.394999014137
 20
89.26967563283357
 42
0.4142135623731
  0
LINE
  5
EC
330
1F
100
AcDbEntity
  8
D-F
  6
Continuous
 62
     7
370
     9
100
AcDbLine
 10
1923.704440206609
 20
206.7598913813927
 30
0.0
 11
1998.704440206609
 21
206.7598913813927
 31
0.0
  0
LWPOLYLINE
  5
ED
330
1F
100
AcDbEntity
  8
D-F
  6
Continuous
 62
     7
370
     9
100
AcDbPolyline
 90
        4
 70
     1
 43
2.0
 10
1924.704440206609
 20
206.7598913813927
 42
0.4142135623731
 10
1923.704440206609
 20
207.7598913813927
 42
0.4142135623731
 10
1922.704440206609
 20
206.7598913813927
 42
0.4142135623731
 10
1923.704440206609
 20
205.7598913813926
 42
0.4142135623731
  0
LWPOLYLINE
  5
EE
330
1F
100
AcDbEntity
  8
D-F
  6
Continuous
 62
     7
370
     9
100
AcDbPolyline
 90
        4
 70
     1
 43
2.0
 10
1999.704440206609
 20
206.7598913813927
 42
0.4142135623731
 10
1998.704440206609
 20
207.7598913813927
 42
0.4142135623731
 10
1997.704440206609
 20
206.7598913813927
 42
0.4142135623731
 10
1998.704440206609
 20
205.7598913813926
 42
0.4142135623731
  0
LINE
  5
EF
330
1F
100
AcDbEntity
  8
D-F
  6
Continuous
 62
     7
370
     9
100
AcDbLine
 10
1923.704440206609
 20
209.7598913813928
 30
0.0
 11
1923.704440206609
 21
151.3168772771351
 31
0.0
  0
LINE
  5
F0
330
1F
100
AcDbEntity
  8
D-F
  6
Continuous
 62
     7
370
     9
100
AcDbLine
 10
1998.704440206609
 20
209.7598913813928
 30
0.0
 11
1998.704440206609
 21
110.2701376493777
 31
0.0
  0
LINE
  5
F1
330
1F
100
AcDbEntity
  8
D-F
  6
Continuous
 62
     7
370
     9
100
AcDbLine
 10
1597.704648468468
 20
75.27021188132458
 30
0.0
 11
1597.704648468468
 21
-396.2076018036593
 31
0.0
  0
LWPOLYLINE
  5
F2
330
1F
100
AcDbEntity
  8
D-F
  6
Continuous
 62
     7
370
     9
100
AcDbPolyline
 90
        4
 70
     1
 43
2.0
 10
1598.704648468468
 20
-391.2075853076713
 42
0.4142135623731
 10
1597.704648468468
 20
-390.2075853076713
 42
0.4142135623731
 10
1596.704648468468
 20
-391.2075853076713
 42
0.4142135623731
 10
1597.704648468468
 20
-392.2075853076713
 42
0.4142135623731
  0
LWPOLYLINE
  5
F3
330
1F
100
AcDbEntity
  8
D-F
  6
Continuous
 62
     7
370
     9
100
AcDbPolyline
 90
        4
 70
     1
 43
2.0
 10
1799.704222871975
 20
-391.2075853076713
 42
0.4142135623731
 10
1798.704222871975
 20
-390.2075853076713
 42
0.4142135623731
 10
1797.704222871975
 20
-391.2075853076713
 42
0.4142135623731
 10
1798.704222871975
 20
-392.2075853076713
 42
0.4142135623731
  0
LINE
  5
F4
330
1F
100
AcDbEntity
  8
D-F
  6
Continuous
 62
     7
370
     9
100
AcDbLine
 10
1798.704222871975
 20
68.88806235155322
 30
0.0
 11
1798.704222871975
 21
-396.2076018036593
 31
0.0
  0
LINE
  5
F5
330
1F
100
AcDbEntity
  8
D-F
  6
Continuous
 62
     7
370
     9
100
AcDbLine
 10
1798.704222871975
 20
-391.2075853076713
 30
0.0
 11
1597.704648468468
 21
-391.2075853076713
 31
0.0
  0
TEXT
  5
F6
330
1F
100
AcDbEntity
  8
D-F
  6
Continuous
 62
     2
370
   211
100
AcDbText
 10
1654.454435670223
 20
-379.567540768503
 30
0.0
 40
30.48
  1
40.2
 41
1.09375
  7
ＭＳ ゴシック
100
AcDbText
  0
LWPOLYLINE
  5
F7
330
1F
100
AcDbEntity
  8
D-F
  6
Continuous
 62
     7
370
     9
100
AcDbPolyline
 90
        4
 70
     1
 43
2.0
 10
515.3156088927208
 20
121.2703389004334
 42
0.4142135623731
 10
514.3156088927208
 20
122.2703389004334
 42
0.4142135623731
 10
513.3156088927208
 20
121.2703389004334
 42
0.4142135623731
 10
514.3156088927208
 20
120.2703389004334
 42
0.4142135623731
  0
LINE
  5
F8
330
1F
100
AcDbEntity
  8
D-F
  6
Continuous
 62
     7
370
     9
100
AcDbLine
 10
1597.704648468468
 20
-391.2075853076713
 30
0.0
 11
662.7047144524181
 21
-391.2075853076713
 31
0.0
  0
TEXT
  5
F9
330
1F
100
AcDbEntity
  8
D-F
  6
Continuous
 62
     2
370
     9
100
AcDbText
 10
662.7046979564307
 20
-379.5675407685036
 30
0.0
 40
30.48
  1
600
 41
1.083333333333333
  7
ＭＳ ゴシック
100
AcDbText
  0
LINE
  5
FA
330
1F
100
AcDbEntity
  8
D-F
  6
Continuous
 62
     7
370
     9
100
AcDbLine
 10
2101.395015510125
 20
90.26967563283357
 30
0.0
 11
2004.720933665837
 21
90.26967563283357
 31
0.0
  0
ARC
  5
FB
330
1F
100
AcDbEntity
  8
D-1
  6
Continuous
 62
     2
370
     9
100
AcDbCircle
 10
1760.204516500551
 20
128.7701376493723
 30
0.0
 40
22.5
100
AcDbArc
 50
270.0
 51
0.0
  0
LINE
  5
FC
330
1F
100
AcDbEntity
  8
D-1
  6
Continuous
 62
     2
370
     9
100
AcDbLine
 10
1597.704648468468
 20
106.2701376493813
 30
0.0
 11
1760.204516500551
 21
106.2701376493813
 31
0.0
  0
ARC
  5
FD
330
1F
100
AcDbEntity
  8
D-1
  6
Continuous
 62
     2
370
     9
100
AcDbCircle
 10
1760.204516500551
 20
128.7701376493723
 30
0.0
 40
38.5
100
AcDbArc
 50
270.0
 51
0.0
  0
LINE
  5
FE
330
1F
100
AcDbEntity
  8
D-1
  6
Continuous
 62
     2
370
     9
100
AcDbLine
 10
1597.704648468468
 20
106.2701376493813
 30
0.0
 11
1597.704648468468
 21
90.2701376493777
 31
0.0
  0
LINE
  5
FF
330
1F
100
AcDbEntity
  8
D-1
  6
Continuous
 62
     2
370
     9
100
AcDbLine
 10
1597.704648468468
 20
90.2701376493777
 30
0.0
 11
1760.204516500551
 21
90.2701376493777
 31
0.0
  0
LWPOLYLINE
  5
100
330
1F
100
AcDbEntity
  8
D-F
  6
Continuous
 62
     7
370
     9
100
AcDbPolyline
 90
        4
 70
     1
 43
2.0
 10
413.6284839067193
 20
121.2703389004334
 42
0.4142135623731
 10
412.6284839067193
 20
122.2703389004334
 42
0.4142135623731
 10
411.6284839067193
 20
121.2703389004334
 42
0.4142135623731
 10
412.6284839067193
 20
120.2703389004334
 42
0.4142135623731
  0
LINE
  5
101
330
1F
100
AcDbEntity
  8
D-F
  6
Continuous
 62
     7
370
     9
100
AcDbLine
 10
409.6284839067175
 20
121.2703389004334
 30
0.0
 11
642.7047144524181
 21
121.2703389004334
 31
0.0
  0
LINE
  5
102
330
1F
100
AcDbEntity
  8
D-5
  6
Continuous
 62
     7
370
     9
100
AcDbLine
 10
1917.297228609586
 20
-71.41102614253931
 30
0.0
 11
2371.078109219541
 21
-71.41102614253931
 31
0.0
  0
TEXT
  5
103
330
1F
100
AcDbEntity
  8
D-5
  6
Continuous
 62
     7
370
     9
100
AcDbText
 10
1921.078109219541
 20
-61.2196625263895
 30
0.0
 40
22.86
  1
アンカー：Ｌ４０×４０×５
 41
1.153846153846154
  7
ＭＳ ゴシック
100
AcDbText
  0
LINE
  5
104
330
1F
100
AcDbEntity
  8
D-5
  6
Continuous
 62
     7
370
     9
100
AcDbLine
 10
1743.915589442847
 20
676.2701376493633
 30
0.0
 11
1764.922240625281
 21
689.8243962536706
 31
0.0
  0
LINE
  5
105
330
1F
100
AcDbEntity
  8
D-5
  6
Continuous
 62
     7
370
     9
100
AcDbLine
 10
1743.915589442847
 20
676.2701376493633
 30
0.0
 11
1760.698442852899
 21
694.7994213275726
 31
0.0
  0
LINE
  5
106
330
1F
100
AcDbEntity
  8
D-5
  6
Continuous
 62
     7
370
     9
100
AcDbLine
 10
1784.830994043864
 20
676.2701376493633
 30
0.0
 11
1804.529430884024
 21
691.6641113349626
 31
0.0
  0
LINE
  5
107
330
1F
100
AcDbEntity
  8
D-5
  6
Continuous
 62
     7
370
     9
100
AcDbLine
 10
1784.830994043864
 20
676.2701376493633
 30
0.0
 11
1799.873850621145
 21
696.2377890165508
 31
0.0
  0
LINE
  5
108
330
1F
100
AcDbEntity
  8
D-5
  6
Continuous
 62
     7
370
     9
100
AcDbLine
 10
1990.568813903426
 20
885.6819237029949
 30
0.0
 11
1784.830994043864
 21
676.2701376493633
 31
0.0
  0
LINE
  5
109
330
1F
100
AcDbEntity
  8
D-5
  6
Continuous
 62
     7
370
     9
100
AcDbLine
 10
1990.568813903426
 20
885.6819237029949
 30
0.0
 11
1743.915589442847
 21
676.2701376493633
 31
0.0
  0
LINE
  5
10A
330
1F
100
AcDbEntity
  8
D-F
  6
Continuous
 62
     7
370
     9
100
AcDbLine
 10
409.6284839067175
 20
676.2703389004516
 30
0.0
 11
642.7047144524181
 21
676.2703389004516
 31
0.0
  0
LWPOLYLINE
  5
10B
330
1F
100
AcDbEntity
  8
D-F
  6
Continuous
 62
     7
370
     9
100
AcDbPolyline
 90
        4
 70
     1
 43
2.0
 10
413.6284839067193
 20
676.2703389004516
 42
0.4142135623731
 10
412.6284839067193
 20
677.2703389004516
 42
0.4142135623731
 10
411.6284839067193
 20
676.2703389004516
 42
0.4142135623731
 10
412.6284839067193
 20
675.2703389004517
 42
0.4142135623731
  0
LINE
  5
10C
330
1F
100
AcDbEntity
  8
D-2
  6
Continuous
 62
     3
370
     9
100
AcDbLine
 10
1287.705324803981
 20
476.2703389004516
 30
0.0
 11
662.7047144524181
 21
476.2703389004516
 31
0.0
  0
LINE
  5
10D
330
1F
100
AcDbEntity
  8
D-2
  6
Continuous
 62
     3
370
     9
100
AcDbLine
 10
1687.704912404304
 20
476.2703389004516
 30
0.0
 11
1367.705093860147
 21
476.2703389004516
 31
0.0
  0
LINE
  5
10E
330
1F
100
AcDbEntity
  8
D-2
  6
Continuous
 62
     3
370
     9
100
AcDbLine
 10
1747.704912404295
 20
506.2703389004698
 30
0.0
 11
1747.704912404295
 21
661.2705368522827
 31
0.0
  0
LINE
  5
10F
330
1F
100
AcDbEntity
  8
D-2
  6
Continuous
 62
     3
370
     9
100
AcDbLine
 10
1747.704912404295
 20
661.2705368522827
 30
0.0
 11
1717.704912404304
 21
661.2705368522827
 31
0.0
  0
LINE
  5
110
330
1F
100
AcDbEntity
  8
D-2
  6
Continuous
 62
     3
370
     9
100
AcDbLine
 10
1717.704912404304
 20
506.2703389004698
 30
0.0
 11
1717.704912404304
 21
661.2705368522827
 31
0.0
  0
ARC
  5
111
330
1F
100
AcDbEntity
  8
D-2
  6
Continuous
 62
     3
370
     9
100
AcDbCircle
 10
1687.704912404304
 20
506.2703389004698
 30
0.0
 40
60.00000000000001
100
AcDbArc
 50
270.0
 51
0.0
  0
ARC
  5
112
330
1F
100
AcDbEntity
  8
D-2
  6
Continuous
 62
     3
370
     9
100
AcDbCircle
 10
1687.704912404304
 20
506.2703389004698
 30
0.0
 40
30.0
100
AcDbArc
 50
270.0
 51
0.0
  0
LINE
  5
113
330
1F
100
AcDbEntity
  8
D-1
  6
Continuous
 62
     2
370
     9
100
AcDbLine
 10
1798.704516500554
 20
128.7701376493723
 30
0.0
 11
1798.704516500554
 21
661.2703356012171
 31
0.0
  0
LINE
  5
114
330
1F
100
AcDbEntity
  8
D-1
  6
Continuous
 62
     2
370
     9
100
AcDbLine
 10
1782.704516500551
 20
128.7701376493723
 30
0.0
 11
1782.704516500551
 21
661.2703356012171
 31
0.0
  0
LINE
  5
115
330
1F
100
AcDbEntity
  8
D-5
  6
Continuous
 62
     7
370
     9
100
AcDbLine
 10
768.7147643145636
 20
774.0659346321277
 30
0.0
 11
887.9682673363959
 21
526.270140948566
 31
0.0
  0
LINE
  5
116
330
1F
100
AcDbEntity
  8
D-5
  6
Continuous
 62
     7
370
     9
100
AcDbLine
 10
349.781052697399
 20
774.0659346321277
 30
0.0
 11
768.7147643145636
 21
774.0659346321277
 31
0.0
  0
TEXT
  5
117
330
1F
100
AcDbEntity
  8
D-F
  6
Continuous
 62
     2
370
     9
100
AcDbText
 10
662.7046979564307
 20
1047.934588438315
 30
0.0
 40
30.48
  1
692
 41
1.083333333333333
  7
ＭＳ ゴシック
100
AcDbText
  0
LINE
  5
118
330
1F
100
AcDbEntity
  8
D-F
  6
Continuous
 62
     7
370
     9
100
AcDbLine
 10
1327.704252564743
 20
868.5578470535042
 30
0.0
 11
1327.704252564743
 21
933.4737364375897
 31
0.0
  0
TEXT
  5
119
330
1F
100
AcDbEntity
  8
D-F
  6
Continuous
 62
     2
370
     9
100
AcDbText
 10
1545.204582484507
 20
940.113640760858
 30
0.0
 40
30.48
  1
100
 41
1.083333333333333
  7
ＭＳ ゴシック
100
AcDbText
  0
LWPOLYLINE
  5
11A
330
1F
100
AcDbEntity
  8
D-F
  6
Continuous
 62
     7
370
     9
100
AcDbPolyline
 90
        4
 70
     1
 43
2.0
 10
1328.704252564743
 20
928.4737199416018
 42
0.4142135623731
 10
1327.704252564743
 20
929.4737199416016
 42
0.4142135623731
 10
1326.704252564743
 20
928.4737199416018
 42
0.4142135623731
 10
1327.704252564743
 20
927.4737199416018
 42
0.4142135623731
  0
LWPOLYLINE
  5
11B
330
1F
100
AcDbEntity
  8
D-F
  6
Continuous
 62
     7
370
     9
100
AcDbPolyline
 90
        4
 70
     1
 43
2.0
 10
1828.70491240427
 20
928.4737199416018
 42
0.4142135623731
 10
1827.70491240427
 20
929.4737199416016
 42
0.4142135623731
 10
1826.70491240427
 20
928.4737199416018
 42
0.4142135623731
 10
1827.70491240427
 20
927.4737199416018
 42
0.4142135623731
  0
LINE
  5
11C
330
1F
100
AcDbEntity
  8
D-F
  6
Continuous
 62
     7
370
     9
100
AcDbLine
 10
1827.70491240427
 20
928.2945256913765
 30
0.0
 11
1827.70491240427
 21
923.4737034456132
 31
0.0
  0
LINE
  5
11D
330
1F
100
AcDbEntity
  8
D-F
  6
Continuous
 62
     7
370
     9
100
AcDbLine
 10
1827.70491240427
 20
928.4737199416018
 30
0.0
 11
1327.704252564743
 21
928.4737199416018
 31
0.0
  0
LINE
  5
11E
330
1F
100
AcDbEntity
  8
D-F
  6
Continuous
 62
     7
370
     9
100
AcDbLine
 10
1827.704664964447
 20
1036.294667619058
 30
0.0
 11
662.7047144524181
 21
1036.294667619058
 31
0.0
  0
LWPOLYLINE
  5
11F
330
1F
100
AcDbEntity
  8
D-F
  6
Continuous
 62
     7
370
     9
100
AcDbPolyline
 90
        4
 70
     1
 43
2.0
 10
1828.704664964447
 20
1036.294667619058
 42
0.4142135623731
 10
1827.704664964447
 20
1037.294667619058
 42
0.4142135623731
 10
1826.704664964447
 20
1036.294667619058
 42
0.4142135623731
 10
1827.704664964447
 20
1035.294667619058
 42
0.4142135623731
  0
LINE
  5
120
330
1F
100
AcDbEntity
  8
D-F
  6
Continuous
 62
     7
370
     9
100
AcDbLine
 10
1827.704664964447
 20
691.2701871373279
 30
0.0
 11
1827.704664964447
 21
1041.294684115046
 31
0.0
  0
LINE
  5
121
330
1F
100
AcDbEntity
  8
D-F
  6
Continuous
 62
     7
370
     9
100
AcDbLine
 10
607.6741294483008
 20
526.270140948566
 30
0.0
 11
732.7047144524181
 21
526.270140948566
 31
0.0
  0
TEXT
  5
122
330
1F
100
AcDbEntity
  8
D-F
  6
Continuous
 62
     2
370
   211
100
AcDbText
 10
503.6756088927208
 20
555.0203389004516
 30
0.0
 40
30.48
  1
40
 50
90.0
 41
1.0625
  7
ＭＳ ゴシック
100
AcDbText
  0
LWPOLYLINE
  5
123
330
1F
100
AcDbEntity
  8
D-F
  6
Continuous
 62
     7
370
     9
100
AcDbPolyline
 90
        4
 70
     1
 43
2.0
 10
515.3156088927208
 20
676.2703389004516
 42
0.4142135623731
 10
514.3156088927208
 20
677.2703389004516
 42
0.4142135623731
 10
513.3156088927208
 20
676.2703389004516
 42
0.4142135623731
 10
514.3156088927208
 20
675.2703389004517
 42
0.4142135623731
  0
LINE
  5
124
330
1F
100
AcDbEntity
  8
D-F
  6
Continuous
 62
     7
370
     9
100
AcDbLine
 10
514.3156088927208
 20
476.2703389004516
 30
0.0
 11
514.3156088927208
 21
676.2703389004516
 31
0.0
  0
TEXT
  5
125
330
1F
100
AcDbEntity
  8
D-F
  6
Continuous
 62
     2
370
   211
100
AcDbText
 10
503.6756088927208
 20
451.2703389004425
 30
0.0
 40
30.48
  1
6
 50
90.0
 41
0.9999999999999998
  7
ＭＳ ゴシック
100
AcDbText
  0
LINE
  5
126
330
1F
100
AcDbEntity
  8
D-F
  6
Continuous
 62
     7
370
     9
100
AcDbLine
 10
511.315608892719
 20
476.2703389004516
 30
0.0
 11
642.7047144524181
 21
476.2703389004516
 31
0.0
  0
LWPOLYLINE
  5
127
330
1F
100
AcDbEntity
  8
D-F
  6
Continuous
 62
     7
370
     9
100
AcDbPolyline
 90
        4
 70
     1
 43
2.0
 10
515.3156088927208
 20
476.2703389004516
 42
0.4142135623731
 10
514.3156088927208
 20
477.2703389004516
 42
0.4142135623731
 10
513.3156088927208
 20
476.2703389004516
 42
0.4142135623731
 10
514.3156088927208
 20
475.2703389004516
 42
0.4142135623731
  0
LINE
  5
128
330
1F
100
AcDbEntity
  8
D-F
  6
Continuous
 62
     7
370
     9
100
AcDbLine
 10
514.3156088927208
 20
446.2703389004334
 30
0.0
 11
514.3156088927208
 21
476.2703389004516
 31
0.0
  0
LWPOLYLINE
  5
129
330
1F
100
AcDbEntity
  8
D-F
  6
Continuous
 62
     7
370
     9
100
AcDbPolyline
 90
        4
 70
     1
 43
2.0
 10
515.3156088927208
 20
446.2703389004334
 42
0.4142135623731
 10
514.3156088927208
 20
447.2703389004334
 42
0.4142135623731
 10
513.3156088927208
 20
446.2703389004334
 42
0.4142135623731
 10
514.3156088927208
 20
445.2703389004334
 42
0.4142135623731
  0
TEXT
  5
12A
330
1F
100
AcDbEntity
  8
D-F
  6
Continuous
 62
     2
370
   211
100
AcDbText
 10
600.0341294483004
 20
580.0202399245088
 30
0.0
 40
30.48
  1
30
 50
90.0
 41
1.0625
  7
ＭＳ ゴシック
100
AcDbText
  0
LWPOLYLINE
  5
12B
330
1F
100
AcDbEntity
  8
D-F
  6
Continuous
 62
     7
370
     9
100
AcDbPolyline
 90
        4
 70
     1
 43
2.0
 10
611.6741294483004
 20
676.2703389004516
 42
0.4142135623731
 10
610.6741294483004
 20
677.2703389004516
 42
0.4142135623731
 10
609.6741294483004
 20
676.2703389004516
 42
0.4142135623731
 10
610.6741294483004
 20
675.2703389004517
 42
0.4142135623731
  0
LINE
  5
12C
330
1F
100
AcDbEntity
  8
D-F
  6
Continuous
 62
     7
370
     9
100
AcDbLine
 10
610.6741294483004
 20
526.270140948566
 30
0.0
 11
610.6741294483004
 21
676.2703389004516
 31
0.0
  0
LWPOLYLINE
  5
12D
330
1F
100
AcDbEntity
  8
D-F
  6
Continuous
 62
     7
370
     9
100
AcDbPolyline
 90
        4
 70
     1
 43
2.0
 10
611.6741294483004
 20
526.270140948566
 42
0.4142135623731
 10
610.6741294483004
 20
527.270140948566
 42
0.4142135623731
 10
609.6741294483004
 20
526.270140948566
 42
0.4142135623731
 10
610.6741294483004
 20
525.270140948566
 42
0.4142135623731
  0
LWPOLYLINE
  5
12E
330
1F
100
AcDbEntity
  8
D-F
  6
Continuous
 62
     7
370
     9
100
AcDbPolyline
 90
        4
 70
     1
 43
2.0
 10
611.6741294483004
 20
476.2703389004516
 42
0.4142135623731
 10
610.6741294483004
 20
477.2703389004516
 42
0.4142135623731
 10
609.6741294483004
 20
476.2703389004516
 42
0.4142135623731
 10
610.6741294483004
 20
475.2703389004516
 42
0.4142135623731
  0
TEXT
  5
12F
330
1F
100
AcDbEntity
  8
D-F
  6
Continuous
 62
     2
370
   211
100
AcDbText
 10
600.0341294483004
 20
480.0202399245088
 30
0.0
 40
30.48
  1
10
 50
90.0
 41
1.0625
  7
ＭＳ ゴシック
100
AcDbText
  0
LINE
  5
130
330
1F
100
AcDbEntity
  8
D-F
  6
Continuous
 62
     7
370
     9
100
AcDbLine
 10
610.6741294483004
 20
476.2703389004516
 30
0.0
 11
610.6741294483004
 21
526.270140948566
 31
0.0
  0
LWPOLYLINE
  5
131
330
1F
100
AcDbEntity
  8
D-F
  6
Continuous
 62
     7
370
     9
100
AcDbPolyline
 90
        4
 70
     1
 43
2.0
 10
1248.704236068755
 20
801.8429236610561
 42
0.4142135623731
 10
1247.704236068755
 20
802.842923661056
 42
0.4142135623731
 10
1246.704236068755
 20
801.8429236610561
 42
0.4142135623731
 10
1247.704236068755
 20
800.8429236610561
 42
0.4142135623731
  0
LWPOLYLINE
  5
132
330
1F
100
AcDbEntity
  8
D-F
  6
Continuous
 62
     7
370
     9
100
AcDbPolyline
 90
        4
 70
     1
 43
2.0
 10
1408.705258820022
 20
801.8429236610561
 42
0.4142135623731
 10
1407.705258820022
 20
802.842923661056
 42
0.4142135623731
 10
1406.705258820022
 20
801.8429236610561
 42
0.4142135623731
 10
1407.705258820022
 20
800.8429236610561
 42
0.4142135623731
  0
LINE
  5
133
330
1F
100
AcDbEntity
  8
D-F
  6
Continuous
 62
     7
370
     9
100
AcDbLine
 10
1247.704236068755
 20
691.2701871373272
 30
0.0
 11
1247.704236068755
 21
806.842940157044
 31
0.0
  0
LINE
  5
134
330
1F
100
AcDbEntity
  8
D-F
  6
Continuous
 62
     7
370
     9
100
AcDbLine
 10
1407.705258820022
 20
691.2701871373272
 30
0.0
 11
1407.705258820022
 21
806.842940157044
 31
0.0
  0
LINE
  5
135
330
1F
100
AcDbEntity
  8
D-F
  6
Continuous
 62
     7
370
     9
100
AcDbLine
 10
1407.705258820022
 20
801.8429236610561
 30
0.0
 11
1247.704236068755
 21
801.8429236610561
 31
0.0
  0
LWPOLYLINE
  5
136
330
1F
100
AcDbEntity
  8
D-F
  6
Continuous
 62
     7
370
     9
100
AcDbPolyline
 90
        4
 70
     1
 43
2.0
 10
1703.704252564743
 20
801.8429236610561
 42
0.4142135623731
 10
1702.704252564743
 20
802.842923661056
 42
0.4142135623731
 10
1701.704252564743
 20
801.8429236610561
 42
0.4142135623731
 10
1702.704252564743
 20
800.8429236610561
 42
0.4142135623731
  0
LWPOLYLINE
  5
137
330
1F
100
AcDbEntity
  8
D-F
  6
Continuous
 62
     7
370
     9
100
AcDbPolyline
 90
        4
 70
     1
 43
2.0
 10
1763.703955636955
 20
801.8429236610561
 42
0.4142135623731
 10
1762.703955636955
 20
802.842923661056
 42
0.4142135623731
 10
1761.703955636955
 20
801.8429236610561
 42
0.4142135623731
 10
1762.703955636955
 20
800.8429236610561
 42
0.4142135623731
  0
LWPOLYLINE
  5
138
330
1F
100
AcDbEntity
  8
D-F
  6
Continuous
 62
     7
370
     9
100
AcDbPolyline
 90
        4
 70
     1
 43
2.0
 10
1768.704714452411
 20
801.8429236610561
 42
0.4142135623731
 10
1767.704714452411
 20
802.842923661056
 42
0.4142135623731
 10
1766.704714452411
 20
801.8429236610561
 42
0.4142135623731
 10
1767.704714452411
 20
800.8429236610561
 42
0.4142135623731
  0
LWPOLYLINE
  5
139
330
1F
100
AcDbEntity
  8
D-F
  6
Continuous
 62
     7
370
     9
100
AcDbPolyline
 90
        4
 70
     1
 43
2.0
 10
1828.704664964447
 20
801.8429236610561
 42
0.4142135623731
 10
1827.704664964447
 20
802.842923661056
 42
0.4142135623731
 10
1826.704664964447
 20
801.8429236610561
 42
0.4142135623731
 10
1827.704664964447
 20
800.8429236610561
 42
0.4142135623731
  0
LINE
  5
13A
330
1F
100
AcDbEntity
  8
D-F
  6
Continuous
 62
     7
370
     9
100
AcDbLine
 10
1702.704252564743
 20
691.2701871373272
 30
0.0
 11
1702.704252564743
 21
806.842940157044
 31
0.0
  0
LINE
  5
13B
330
1F
100
AcDbEntity
  8
D-F
  6
Continuous
 62
     7
370
     9
100
AcDbLine
 10
1762.703955636955
 20
801.8429236610561
 30
0.0
 11
1648.09453114899
 21
801.8429236610561
 31
0.0
  0
LINE
  5
13C
330
1F
100
AcDbEntity
  8
D-F
  6
Continuous
 62
     7
370
     9
100
AcDbLine
 10
1762.703955636955
 20
691.2701871373272
 30
0.0
 11
1762.703955636955
 21
806.842940157044
 31
0.0
  0
LINE
  5
13D
330
1F
100
AcDbEntity
  8
D-F
  6
Continuous
 62
     7
370
     9
100
AcDbLine
 10
1767.704714452411
 20
801.8429236610561
 30
0.0
 11
1762.703955636955
 21
801.8429236610561
 31
0.0
  0
LINE
  5
13E
330
1F
100
AcDbEntity
  8
D-F
  6
Continuous
 62
     7
370
     9
100
AcDbLine
 10
1767.704714452411
 20
691.2701871373272
 30
0.0
 11
1767.704714452411
 21
806.842940157044
 31
0.0
  0
LINE
  5
13F
330
1F
100
AcDbEntity
  8
D-F
  6
Continuous
 62
     7
370
     9
100
AcDbLine
 10
1876.948158946711
 20
801.8429236610561
 30
0.0
 11
1767.704714452411
 21
801.8429236610561
 31
0.0
  0
TEXT
  5
140
330
1F
100
AcDbEntity
  8
D-F
  6
Continuous
 62
     2
370
     9
100
AcDbText
 10
1834.34991708913
 20
813.4828444803128
 30
0.0
 40
30.48
  1
12
 41
1.0625
  7
ＭＳ ゴシック
100
AcDbText
  0
TEXT
  5
141
330
1F
100
AcDbEntity
  8
D-F
  6
Continuous
 62
     2
370
     9
100
AcDbText
 10
1755.204335044684
 20
813.4828444803128
 30
0.0
 40
30.48
  1
1
 41
0.9999999999999998
  7
ＭＳ ゴシック
100
AcDbText
  0
TEXT
  5
142
330
1F
100
AcDbEntity
  8
D-F
  6
Continuous
 62
     2
370
     9
100
AcDbText
 10
1656.732168725532
 20
813.4828444803128
 30
0.0
 40
30.48
  1
12
 41
1.0625
  7
ＭＳ ゴシック
100
AcDbText
  0
TEXT
  5
143
330
1F
100
AcDbEntity
  8
D-F
  6
Continuous
 62
     2
370
     9
100
AcDbText
 10
1283.954747444388
 20
813.4828444803128
 30
0.0
 40
30.48
  1
φ32
 41
1.09375
  7
ＭＳ ゴシック
100
AcDbText
  0
LWPOLYLINE
  5
144
330
1F
100
AcDbEntity
  8
D-F
  6
Continuous
 62
     7
370
     9
100
AcDbPolyline
 90
        4
 70
     1
 43
2.0
 10
2097.394999014137
 20
676.2701376493633
 42
0.4142135623731
 10
2096.394999014137
 20
677.2701376493632
 42
0.4142135623731
 10
2095.394999014137
 20
676.2701376493633
 42
0.4142135623731
 10
2096.394999014137
 20
675.2701376493633
 42
0.4142135623731
  0
LINE
  5
145
330
1F
100
AcDbEntity
  8
D-F
  6
Continuous
 62
     7
370
     9
100
AcDbLine
 10
1842.705008081002
 20
676.2701376493633
 30
0.0
 11
2101.395015510125
 21
676.2701376493633
 31
0.0
  0
TEXT
  5
146
330
1F
100
AcDbEntity
  8
D-5
  6
Continuous
 62
     7
370
     9
100
AcDbText
 10
2034.172974627236
 20
789.7234212273647
 30
0.0
 40
22.86
  1
受枠：ｔ＝３．２
 41
1.145833333333333
  7
ＭＳ ゴシック
100
AcDbText
  0
TEXT
  5
147
330
1F
100
AcDbEntity
  8
D-5
  6
Continuous
 62
     7
370
     9
100
AcDbText
 10
335.8224931606583
 20
742.3909317288317
 30
0.0
 40
22.86
  1
（ＳＵＳ３０４）
 41
1.145833333333333
  7
ＭＳ ゴシック
100
AcDbText
  0
TEXT
  5
148
330
1F
100
AcDbEntity
  8
D-5
  6
Continuous
 62
     7
370
     9
100
AcDbText
 10
349.3829864492727
 20
787.3001618644585
 30
0.0
 40
22.86
  1
モルタル止め：ｔ＝１．０
 41
1.152777777777778
  7
ＭＳ ゴシック
100
AcDbText
  0
LINE
  5
149
330
1F
100
AcDbEntity
  8
D-5
  6
Continuous
 62
     7
370
     9
100
AcDbLine
 10
887.9682673363959
 20
526.270140948566
 30
0.0
 11
878.5984635726709
 21
554.7695174002129
 31
0.0
  0
LINE
  5
14A
330
1F
100
AcDbEntity
  8
D-5
  6
Continuous
 62
     7
370
     9
100
AcDbLine
 10
887.9682673363959
 20
526.270140948566
 30
0.0
 11
871.5417272709396
 21
551.3731583947233
 31
0.0
  0
LINE
  5
14B
330
1F
100
AcDbEntity
  8
D-5
  6
Continuous
 62
     7
370
     9
100
AcDbLine
 10
1163.656948988043
 20
774.0659346321277
 30
0.0
 11
1247.704203076798
 21
599.4248925988838
 31
0.0
  0
LINE
  5
14C
330
1F
100
AcDbEntity
  8
D-5
  6
Continuous
 62
     7
370
     9
100
AcDbLine
 10
1247.704203076798
 20
599.4248925988838
 30
0.0
 11
1238.334399313076
 21
627.9242690505307
 31
0.0
  0
LINE
  5
14D
330
1F
100
AcDbEntity
  8
D-5
  6
Continuous
 62
     7
370
     9
100
AcDbLine
 10
1247.704203076798
 20
599.4248925988838
 30
0.0
 11
1231.277663011342
 21
624.5279100450412
 31
0.0
  0
LINE
  5
14E
330
1F
100
AcDbEntity
  8
D-5
  6
Continuous
 62
     7
370
     9
100
AcDbLine
 10
1163.656948988043
 20
774.0659346321277
 30
0.0
 11
890.4022245370288
 21
774.0659346321277
 31
0.0
  0
TEXT
  5
14F
330
1F
100
AcDbEntity
  8
D-5
  6
Continuous
 62
     7
370
     9
100
AcDbText
 10
905.9052932167174
 20
788.134636859746
 30
0.0
 40
22.86
  1
把手
 41
1.083333333333333
  7
ＭＳ ゴシック
100
AcDbText
  0
TEXT
  5
150
330
1F
100
AcDbEntity
  8
D-5
  6
Continuous
 62
     7
370
     9
100
AcDbText
 10
885.4615523585016
 20
745.057838137195
 30
0.0
 40
22.86
  1
（ＳＵＳ３０４）
 41
1.145833333333343
  7
ＭＳ ゴシック
100
AcDbText
  0
LINE
  5
151
330
1F
100
AcDbEntity
  8
D-3
  6
JWW_DASHED1
 62
     4
370
     9
100
AcDbLine
 10
902.7047144524181
 20
521.9400139296456
 30
0.0
 11
752.7047144524181
 21
521.9400139296456
 31
0.0
  0
LINE
  5
152
330
1F
100
AcDbEntity
  8
D-3
  6
Continuous
 62
     4
370
     9
100
AcDbLine
 10
902.7047144524181
 20
481.2703389004516
 30
0.0
 11
752.7047144524181
 21
481.2703389004516
 31
0.0
  0
LINE
  5
153
330
1F
100
AcDbEntity
  8
D-3
  6
Continuous
 62
     4
370
     9
100
AcDbLine
 10
902.7047144524181
 20
476.2703389004516
 30
0.0
 11
752.7047144524181
 21
476.2703389004516
 31
0.0
  0
LINE
  5
154
330
1F
100
AcDbEntity
  8
D-3
  6
Continuous
 62
     4
370
     9
100
AcDbLine
 10
902.7047144524181
 20
526.270140948566
 30
0.0
 11
902.7047144524181
 21
476.2703389004516
 31
0.0
  0
LINE
  5
155
330
1F
100
AcDbEntity
  8
D-3
  6
Continuous
 62
     4
370
     9
100
AcDbLine
 10
902.7047144524181
 20
526.270140948566
 30
0.0
 11
752.7047144524181
 21
526.270140948566
 31
0.0
  0
LINE
  5
156
330
1F
100
AcDbEntity
  8
D-3
  6
Continuous
 62
     4
370
     9
100
AcDbLine
 10
752.7047144524181
 20
526.270140948566
 30
0.0
 11
752.7047144524181
 21
476.2703389004516
 31
0.0
  0
LINE
  5
157
330
1F
100
AcDbEntity
  8
D-9
  6
Continuous
 62
   211
370
     5
100
AcDbLine
 10
1675.204912404304
 20
446.2703389004334
 30
0.0
 11
669.5514498132047
 21
446.2703389004334
 31
0.0
  0
LINE
  5
158
330
1F
100
AcDbEntity
  8
D-3
  6
Continuous
 62
     4
370
     9
100
AcDbLine
 10
1702.70501138021
 20
676.2703389004516
 30
0.0
 11
662.7047144524181
 21
676.2703389004516
 31
0.0
  0
LINE
  5
159
330
1F
100
AcDbEntity
  8
D-5
  6
Continuous
 62
     7
370
     9
100
AcDbLine
 10
1798.704516500554
 20
555.8380864363405
 30
0.0
 11
1816.755993881256
 21
579.7992928209478
 31
0.0
  0
LINE
  5
15A
330
1F
100
AcDbEntity
  8
D-5
  6
Continuous
 62
     7
370
     9
100
AcDbLine
 10
1798.704516500554
 20
555.8380864363405
 30
0.0
 11
1822.34244275689
 21
574.3109538349889
 31
0.0
  0
LINE
  5
15B
330
1F
100
AcDbEntity
  8
D-5
  6
Continuous
 62
     7
370
     9
100
AcDbLine
 10
2012.227330557873
 20
773.1738873380064
 30
0.0
 11
1798.704516500554
 21
555.8380864363405
 31
0.0
  0
TEXT
  5
15C
330
1F
100
AcDbEntity
  8
D-5
  6
Continuous
 62
     7
370
     9
100
AcDbText
 10
2020.559641261116
 20
741.5592597514355
 30
0.0
 40
22.86
  1
（ＳＰＨＣ）
 41
1.138888888888889
  7
ＭＳ ゴシック
100
AcDbText
  0
LINE
  5
15D
330
1F
100
AcDbEntity
  8
D-5
  6
Continuous
 62
     7
370
     9
100
AcDbLine
 10
2313.790902797105
 20
773.1738873380064
 30
0.0
 11
2012.227330557873
 21
773.1738873380064
 31
0.0
  0
LINE
  5
15E
330
1F
100
AcDbEntity
  8
D-5
  6
Continuous
 62
     7
370
     9
100
AcDbLine
 10
2272.022536609056
 20
885.6819237029949
 30
0.0
 11
1990.568813903426
 21
885.6819237029949
 31
0.0
  0
TEXT
  5
15F
330
1F
100
AcDbEntity
  8
D-5
  6
Continuous
 62
     7
370
     9
100
AcDbText
 10
1994.901967180504
 20
897.9057146130456
 30
0.0
 40
22.86
  1
Ｌ１２×１５×３
 41
1.145833333333333
  7
ＭＳ ゴシック
100
AcDbText
  0
TEXT
  5
160
330
1F
100
AcDbEntity
  8
D-5
  6
Continuous
 62
     7
370
     9
100
AcDbText
 10
1994.901967180504
 20
939.2318225033525
 30
0.0
 40
22.86
  1
ステンレス目地
 41
1.142857142857143
  7
ＭＳ ゴシック
100
AcDbText
  0
TEXT
  5
161
330
1F
100
AcDbEntity
  8
D-5
  6
Continuous
 62
     7
370
     9
100
AcDbText
 10
1989.153239504824
 20
855.064231161821
 30
0.0
 40
22.86
  1
（ＳＵＳ３０４）
 41
1.145833333333333
  7
ＭＳ ゴシック
100
AcDbText
  0
ARC
  5
162
330
1F
100
AcDbEntity
  8
D-3
  6
Continuous
 62
     4
370
     9
100
AcDbCircle
 10
1777.704714452418
 20
666.2701376493633
 30
0.0
 40
10.0
100
AcDbArc
 50
90.0
 51
180.0
  0
LINE
  5
163
330
1F
100
AcDbEntity
  8
D-3
  6
Continuous
 62
     4
370
     9
100
AcDbLine
 10
1767.704714452418
 20
666.2701376493633
 30
0.0
 11
1767.704714452418
 21
601.2698902095289
 31
0.0
  0
LINE
  5
164
330
1F
100
AcDbEntity
  8
D-3
  6
Continuous
 62
     4
370
     9
100
AcDbLine
 10
1777.704714452418
 20
676.2701376493633
 30
0.0
 11
1827.704664964447
 21
676.2701376493633
 31
0.0
  0
LINE
  5
165
330
1F
100
AcDbEntity
  8
D-3
  6
Continuous
 62
     4
370
     9
100
AcDbLine
 10
1782.704516500551
 20
601.2698902095289
 30
0.0
 11
1767.704714452418
 21
601.2698902095289
 31
0.0
  0
LINE
  5
166
330
1F
100
AcDbEntity
  8
D-3
  6
Continuous
 62
     4
370
     9
100
AcDbLine
 10
1782.704516500551
 20
601.2698902095289
 30
0.0
 11
1782.704516500551
 21
661.2703356012171
 31
0.0
  0
LINE
  5
167
330
1F
100
AcDbEntity
  8
D-3
  6
Continuous
 62
     4
370
     9
100
AcDbLine
 10
1827.704664964447
 20
661.2703356012171
 30
0.0
 11
1782.704516500551
 21
661.2703356012171
 31
0.0
  0
LINE
  5
168
330
1F
100
AcDbEntity
  8
D-3
  6
Continuous
 62
     4
370
     9
100
AcDbLine
 10
1827.704664964447
 20
676.2701376493633
 30
0.0
 11
1827.704664964447
 21
661.2703356012171
 31
0.0
  0
LINE
  5
169
330
1F
100
AcDbEntity
  8
D-9
  6
Continuous
 62
   211
370
     5
100
AcDbLine
 10
1675.204912404304
 20
121.2703389004334
 30
0.0
 11
1675.204912404304
 21
446.2703389004334
 31
0.0
  0
LINE
  5
16A
330
1F
100
AcDbEntity
  8
D-8
  6
Continuous
 62
    30
370
     5
100
AcDbLine
 10
1705.204912404304
 20
446.2703389004334
 30
0.0
 11
1705.204912404295
 21
121.2703389004334
 31
0.0
  0
LINE
  5
16B
330
1F
100
AcDbEntity
  8
D-8
  6
Continuous
 62
    30
370
     5
100
AcDbLine
 10
1675.204912404304
 20
446.2703389004334
 30
0.0
 11
1675.204912404304
 21
121.2703389004334
 31
0.0
  0
LINE
  5
16C
330
1F
100
AcDbEntity
  8
D-C
  6
Continuous
 62
     2
370
     9
100
AcDbLine
 10
1407.705225828065
 20
476.2703389004516
 30
0.0
 11
1362.704335044689
 21
476.2703389004516
 31
0.0
  0
LINE
  5
16D
330
1F
100
AcDbEntity
  8
D-C
  6
Continuous
 62
     2
370
     9
100
AcDbLine
 10
1247.704203076798
 20
476.2703389004516
 30
0.0
 11
1292.705093860147
 21
476.2703389004516
 31
0.0
  0
LINE
  5
16E
330
1F
100
AcDbEntity
  8
D-2
  6
Continuous
 62
     3
370
     9
100
AcDbLine
 10
1372.703972132965
 20
476.2703389004516
 30
0.0
 11
1372.703972132965
 21
446.2703389004562
 31
0.0
  0
LINE
  5
16F
330
1F
100
AcDbEntity
  8
D-2
  6
Continuous
 62
     3
370
     9
100
AcDbLine
 10
1282.703972132956
 20
476.2703389004516
 30
0.0
 11
1282.703972132956
 21
446.2703389004562
 31
0.0
  0
LINE
  5
170
330
1F
100
AcDbEntity
  8
D-C
  6
Continuous
 62
     2
370
     9
100
AcDbLine
 10
1362.704335044689
 20
551.270140948566
 30
0.0
 11
1292.705093860147
 21
551.270140948566
 31
0.0
  0
LINE
  5
171
330
1F
100
AcDbEntity
  8
D-C
  6
Continuous
 62
     2
370
     9
100
AcDbLine
 10
1367.705093860147
 20
546.2698770127533
 30
0.0
 11
1287.705324803981
 21
546.2698770127533
 31
0.0
  0
LINE
  5
172
330
1F
100
AcDbEntity
  8
D-C
  6
Continuous
 62
     2
370
     9
100
AcDbLine
 10
1367.705093860147
 20
546.2698770127533
 30
0.0
 11
1362.704335044689
 21
551.270140948566
 31
0.0
  0
LINE
  5
173
330
1F
100
AcDbEntity
  8
D-C
  6
Continuous
 62
     2
370
     9
100
AcDbLine
 10
1292.705093860147
 20
551.270140948566
 30
0.0
 11
1287.705324803981
 21
546.2698770127533
 31
0.0
  0
LINE
  5
174
330
1F
100
AcDbEntity
  8
D-9
  6
Continuous
 62
   211
370
     5
100
AcDbLine
 10
1267.747323589872
 20
376.3897368628366
 30
0.0
 11
1258.20406451048
 21
381.8982421943454
 31
0.0
  0
LINE
  5
175
330
1F
100
AcDbEntity
  8
D-9
  6
Continuous
 62
   211
370
     5
100
AcDbLine
 10
1258.20406451048
 20
426.270140948566
 30
0.0
 11
1258.20406451048
 21
381.8982421943454
 31
0.0
  0
LINE
  5
176
330
1F
100
AcDbEntity
  8
D-9
  6
Continuous
 62
   211
370
     5
100
AcDbLine
 10
1387.704664964465
 20
376.2689862293907
 30
0.0
 11
1397.204869514705
 21
381.7547270972116
 31
0.0
  0
LINE
  5
177
330
1F
100
AcDbEntity
  8
D-9
  6
Continuous
 62
   211
370
     5
100
AcDbLine
 10
1397.204869514705
 20
426.270140948566
 30
0.0
 11
1397.204869514705
 21
381.7547270972116
 31
0.0
  0
LINE
  5
178
330
1F
100
AcDbEntity
  8
D-9
  6
Continuous
 62
   211
370
     5
100
AcDbLine
 10
1387.704664964465
 20
376.2689862293907
 30
0.0
 11
1267.954183281606
 21
376.2689862293907
 31
0.0
  0
LINE
  5
179
330
1F
100
AcDbEntity
  8
D-9
  6
Continuous
 62
   211
370
     5
100
AcDbLine
 10
1367.705093860147
 20
381.7547270972116
 30
0.0
 11
1367.705093860147
 21
426.270140948566
 31
0.0
  0
LINE
  5
17A
330
1F
100
AcDbEntity
  8
D-9
  6
Continuous
 62
   211
370
     5
100
AcDbLine
 10
1287.705324803981
 20
381.7547270972116
 30
0.0
 11
1287.705324803981
 21
426.270140948566
 31
0.0
  0
ARC
  5
17B
330
1F
100
AcDbEntity
  8
D-9
  6
Continuous
 62
   211
370
     5
100
AcDbCircle
 10
1327.703972132956
 20
524.8674870739867
 30
0.0
 40
148.5985781695392
100
AcDbArc
 50
254.3844604492188
 51
285.6155395507812
  0
ARC
  5
17C
330
1F
100
AcDbEntity
  8
D-9
  6
Continuous
 62
   211
370
     5
100
AcDbCircle
 10
1386.415503488522
 20
410.7764490144452
 30
0.0
 40
34.53062160595044
100
AcDbArc
 50
237.1890563964843
 51
272.1394500732421
  0
ARC
  5
17D
330
1F
100
AcDbEntity
  8
D-9
  6
Continuous
 62
   211
370
     5
100
AcDbCircle
 10
1268.993430536673
 20
410.7764490144452
 30
0.0
 40
34.53062160595044
100
AcDbArc
 50
267.8605499267578
 51
302.8109436035156
  0
LINE
  5
17E
330
1F
100
AcDbEntity
  8
D-C
  6
Continuous
 62
     2
370
     9
100
AcDbLine
 10
1362.704335044689
 20
446.2703389004562
 30
0.0
 11
1362.704335044689
 21
661.2707018121889
 31
0.0
  0
LINE
  5
17F
330
1F
100
AcDbEntity
  8
D-C
  6
Continuous
 62
     2
370
     9
100
AcDbLine
 10
1367.705093860147
 20
446.2703389004562
 30
0.0
 11
1367.705093860147
 21
635.0485140482558
 31
0.0
  0
LINE
  5
180
330
1F
100
AcDbEntity
  8
D-C
  6
Continuous
 62
     2
370
     9
100
AcDbLine
 10
1287.705324803981
 20
446.2703389004562
 30
0.0
 11
1287.705324803981
 21
661.2707018121889
 31
0.0
  0
LINE
  5
181
330
1F
100
AcDbEntity
  8
D-C
  6
Continuous
 62
     2
370
     9
100
AcDbLine
 10
1292.705093860147
 20
446.2703389004562
 30
0.0
 11
1292.705093860147
 21
661.2707018121889
 31
0.0
  0
LINE
  5
182
330
1F
100
AcDbEntity
  8
D-C
  6
Continuous
 62
     2
370
     9
100
AcDbLine
 10
1385.204532996547
 20
661.2707018121889
 30
0.0
 11
1270.204401028648
 21
661.2707018121889
 31
0.0
  0
LINE
  5
183
330
1F
100
AcDbEntity
  8
D-C
  6
Continuous
 62
     2
370
     9
100
AcDbLine
 10
1367.705093860147
 20
635.0485140482558
 30
0.0
 11
1367.705093860147
 21
661.2707018121889
 31
0.0
  0
LINE
  5
184
330
1F
100
AcDbEntity
  8
D-C
  6
Continuous
 62
     2
370
     9
100
AcDbLine
 10
1367.705093860147
 20
616.2708007881226
 30
0.0
 11
1287.705324803981
 21
616.2708007881226
 31
0.0
  0
LINE
  5
185
330
1F
100
AcDbEntity
  8
D-C
  6
Continuous
 62
     2
370
     9
100
AcDbLine
 10
1367.705093860147
 20
616.541994833731
 30
0.0
 11
1362.704335044689
 21
611.2700419726641
 31
0.0
  0
LINE
  5
186
330
1F
100
AcDbEntity
  8
D-C
  6
Continuous
 62
     2
370
     9
100
AcDbLine
 10
1292.705093860147
 20
611.2700419726641
 30
0.0
 11
1287.705324803981
 21
616.2708007881226
 31
0.0
  0
LINE
  5
187
330
1F
100
AcDbEntity
  8
D-C
  6
Continuous
 62
     2
370
     9
100
AcDbLine
 10
1362.704335044689
 20
611.2700419726641
 30
0.0
 11
1292.705093860147
 21
611.2700419726641
 31
0.0
  0
LINE
  5
188
330
1F
100
AcDbEntity
  8
D-C
  6
Continuous
 62
     2
370
     9
100
AcDbLine
 10
1385.204532996547
 20
651.2701739405682
 30
0.0
 11
1367.705093860147
 21
651.2701739405682
 31
0.0
  0
LINE
  5
189
330
1F
100
AcDbEntity
  8
D-C
  6
Continuous
 62
     2
370
     9
100
AcDbLine
 10
1287.705324803981
 20
651.2701739405682
 30
0.0
 11
1270.204401028648
 21
651.2701739405682
 31
0.0
  0
LINE
  5
18A
330
1F
100
AcDbEntity
  8
D-C
  6
Continuous
 62
     2
370
     9
100
AcDbLine
 10
1285.709970074247
 20
651.2701739405682
 30
0.0
 11
1275.709937082272
 21
661.2707018121889
 31
0.0
  0
LINE
  5
18B
330
1F
100
AcDbEntity
  8
D-C
  6
Continuous
 62
     2
370
     9
100
AcDbLine
 10
1370.562528931939
 20
651.2701739405682
 30
0.0
 11
1367.705093860147
 21
654.1281038920058
 31
0.0
  0
LINE
  5
18C
330
1F
100
AcDbEntity
  8
D-C
  6
Continuous
 62
     2
370
     9
100
AcDbLine
 10
1385.204532996547
 20
657.8416807501142
 30
0.0
 11
1381.775511934482
 21
661.2707018121889
 31
0.0
  0
LINE
  5
18D
330
1F
100
AcDbEntity
  8
D-C
  6
Continuous
 62
     2
370
     9
100
AcDbLine
 10
1275.103709516814
 20
651.2701739405682
 30
0.0
 11
1270.204401028648
 21
656.1689875490972
 31
0.0
  0
LINE
  5
18E
330
1F
100
AcDbEntity
  8
D-C
  6
Continuous
 62
     2
370
     9
100
AcDbLine
 10
1287.705324803981
 20
659.8820695275642
 30
0.0
 11
1286.316692519356
 21
661.2707018121889
 31
0.0
  0
LINE
  5
18F
330
1F
100
AcDbEntity
  8
D-C
  6
Continuous
 62
     2
370
     9
100
AcDbLine
 10
1381.169779248673
 20
651.2701739405682
 30
0.0
 11
1371.17024113634
 21
661.2707018121889
 31
0.0
  0
LINE
  5
190
330
1F
100
AcDbEntity
  8
D-C
  6
Continuous
 62
     2
370
     9
100
AcDbLine
 10
1247.704203076798
 20
476.2703389004516
 30
0.0
 11
1247.704203076798
 21
676.270998739981
 31
0.0
  0
LINE
  5
191
330
1F
100
AcDbEntity
  8
D-C
  6
Continuous
 62
     2
370
     9
100
AcDbLine
 10
1270.204401028648
 20
673.7708667720724
 30
0.0
 11
1267.703774083136
 21
676.270998739981
 31
0.0
  0
LINE
  5
192
330
1F
100
AcDbEntity
  8
D-C
  6
Continuous
 62
     2
370
     9
100
AcDbLine
 10
1270.204401028648
 20
651.2701739405682
 30
0.0
 11
1270.204401028648
 21
676.270998739981
 31
0.0
  0
LINE
  5
193
330
1F
100
AcDbEntity
  8
D-C
  6
Continuous
 62
     2
370
     9
100
AcDbLine
 10
1385.204532996547
 20
651.2701739405682
 30
0.0
 11
1385.204532996547
 21
676.270998739981
 31
0.0
  0
LINE
  5
194
330
1F
100
AcDbEntity
  8
D-C
  6
Continuous
 62
     2
370
     9
100
AcDbLine
 10
1387.705159942077
 20
676.270998739981
 30
0.0
 11
1385.204532996547
 21
673.7708667720724
 31
0.0
  0
LINE
  5
195
330
1F
100
AcDbEntity
  8
D-C
  6
Continuous
 62
     2
370
     9
100
AcDbLine
 10
1407.705225828065
 20
476.2703389004516
 30
0.0
 11
1407.705225828065
 21
676.270998739981
 31
0.0
  0
LINE
  5
196
330
1F
100
AcDbEntity
  8
D-C
  6
Continuous
 62
     2
370
     9
100
AcDbLine
 10
1407.705225828065
 20
676.270998739981
 30
0.0
 11
1387.705159942077
 21
676.270998739981
 31
0.0
  0
LINE
  5
197
330
1F
100
AcDbEntity
  8
D-C
  6
Continuous
 62
     2
370
     9
100
AcDbLine
 10
1247.704203076798
 20
676.270998739981
 30
0.0
 11
1267.703774083136
 21
676.270998739981
 31
0.0
  0
LINE
  5
198
330
1F
100
AcDbEntity
  8
D-C
  6
JWW_HOJO
 62
   211
370
     5
100
AcDbLine
 10
1368.203972132985
 20
446.2701409485614
 30
0.0
 11
1368.203972132985
 21
426.270140948566
 31
0.0
  0
LINE
  5
199
330
1F
100
AcDbEntity
  8
D-C
  6
JWW_HOJO
 62
   211
370
     5
100
AcDbLine
 10
1287.203972132982
 20
446.2701409485614
 30
0.0
 11
1287.203972132982
 21
426.270140948566
 31
0.0
  0
LINE
  5
19A
330
1F
100
AcDbEntity
  8
D-C
  6
Continuous
 62
   211
370
     5
100
AcDbLine
 10
1397.703972132992
 20
446.2701409485614
 30
0.0
 11
1397.703972132992
 21
426.270140948566
 31
0.0
  0
LINE
  5
19B
330
1F
100
AcDbEntity
  8
D-C
  6
Continuous
 62
   211
370
     5
100
AcDbLine
 10
1257.703972132974
 20
426.270140948566
 30
0.0
 11
1397.703972132992
 21
426.270140948566
 31
0.0
  0
LINE
  5
19C
330
1F
100
AcDbEntity
  8
D-C
  6
Continuous
 62
   211
370
     5
100
AcDbLine
 10
1257.703972132974
 20
446.2701409485614
 30
0.0
 11
1257.703972132974
 21
426.270140948566
 31
0.0
  0
LINE
  5
19D
330
1F
100
AcDbEntity
  8
D-C
  6
Continuous
 62
   211
370
     5
100
AcDbLine
 10
1257.703972132974
 20
446.2701409485614
 30
0.0
 11
1397.703972132992
 21
446.2701409485614
 31
0.0
  0
LINE
  5
19E
330
1F
100
AcDbEntity
  8
D-C
  6
JWW_CENTER1
 62
     2
370
     9
100
AcDbLine
 10
1327.704714452418
 20
703.9462455650462
 30
0.0
 11
1327.704714452418
 21
350.6391457504176
 31
0.0
  0
LINE
  5
19F
330
1F
100
AcDbEntity
  8
D-8
  6
Continuous
 62
    30
370
     5
100
AcDbLine
 10
1675.204912404304
 20
446.2703389004334
 30
0.0
 11
1705.204912404304
 21
446.2703389004334
 31
0.0
  0
LINE
  5
1A0
330
1F
100
AcDbEntity
  8
D-3
  6
Continuous
 62
     4
370
     9
100
AcDbLine
 10
1702.70501138021
 20
661.2705368522827
 30
0.0
 11
1747.704912404295
 21
661.2705368522827
 31
0.0
  0
LINE
  5
1A1
330
1F
100
AcDbEntity
  8
D-3
  6
Continuous
 62
     4
370
     9
100
AcDbLine
 10
1747.704912404295
 20
601.2700914605946
 30
0.0
 11
1762.704714452418
 21
601.2700914605946
 31
0.0
  0
LINE
  5
1A2
330
1F
100
AcDbEntity
  8
D-3
  6
Continuous
 62
     4
370
     9
100
AcDbLine
 10
1702.70501138021
 20
676.2703389004516
 30
0.0
 11
1702.70501138021
 21
661.2705368522827
 31
0.0
  0
LINE
  5
1A3
330
1F
100
AcDbEntity
  8
D-3
  6
Continuous
 62
     4
370
     9
100
AcDbLine
 10
1752.704714452427
 20
676.2703389004516
 30
0.0
 11
1702.70501138021
 21
676.2703389004516
 31
0.0
  0
LINE
  5
1A4
330
1F
100
AcDbEntity
  8
D-3
  6
Continuous
 62
     4
370
     9
100
AcDbLine
 10
1762.704714452418
 20
666.2703389004153
 30
0.0
 11
1762.704714452418
 21
601.2700914605946
 31
0.0
  0
ARC
  5
1A5
330
1F
100
AcDbEntity
  8
D-3
  6
Continuous
 62
     4
370
     9
100
AcDbCircle
 10
1752.704714452427
 20
666.2703389004153
 30
0.0
 40
10.0
100
AcDbArc
 50
0.0
 51
90.0
  0
LINE
  5
1A6
330
1F
100
AcDbEntity
  8
D-3
  6
Continuous
 62
     4
370
     9
100
AcDbLine
 10
1747.704912404295
 20
661.2705368522827
 30
0.0
 11
1747.704912404295
 21
601.2700914605946
 31
0.0
  0
LINE
  5
1A7
330
1F
100
AcDbEntity
  8
D-C
  6
Continuous
 62
     2
370
     9
100
AcDbLine
 10
1385.204532996547
 20
676.2705038603351
 30
0.0
 11
1270.204401028648
 21
676.2705038603351
 31
0.0
  0
LINE
  5
1A8
330
1F
100
AcDbEntity
  8
D-5
  6
Continuous
 62
     7
370
     9
100
AcDbLine
 10
792.4216866077631
 20
6.448090823212951
 30
0.0
 11
392.7538186262655
 21
6.448090823212951
 31
0.0
  0
TEXT
  5
1A9
330
1F
100
AcDbEntity
  8
D-5
  6
Continuous
 62
     7
370
     9
100
AcDbText
 10
386.2230750705476
 20
-25.43884428816776
 30
0.0
 40
22.86
  1
（ＳＰＨＣ）
 41
1.138888888888889
  7
ＭＳ ゴシック
100
AcDbText
  0
TEXT
  5
1AA
330
1F
100
AcDbEntity
  8
D-5
  6
Continuous
 62
     7
370
     9
100
AcDbText
 10
396.2710336965506
 20
19.91996819863536
 30
0.0
 40
22.86
  1
蓋プレート：ｔ＝６．０
 41
1.151515151515152
  7
ＭＳ ゴシック
100
AcDbText
  0
LINE
  5
1AB
330
1F
100
AcDbEntity
  8
D-5
  6
Continuous
 62
     7
370
     9
100
AcDbLine
 10
880.3414653508798
 20
-117.9342989425218
 30
0.0
 11
991.884419843243
 21
121.2703389004334
 31
0.0
  0
LINE
  5
1AC
330
1F
100
AcDbEntity
  8
D-5
  6
Continuous
 62
     7
370
     9
100
AcDbLine
 10
991.884419843243
 20
121.2703389004334
 30
0.0
 11
978.4519296345729
 21
100.1855527551114
 31
0.0
  0
LINE
  5
1AD
330
1F
100
AcDbEntity
  8
D-5
  6
Continuous
 62
     7
370
     9
100
AcDbLine
 10
991.884419843243
 20
121.2703389004334
 30
0.0
 11
984.3667748556368
 21
97.42741513172767
 31
0.0
  0
TEXT
  5
1AE
330
1F
100
AcDbEntity
  8
D-5
  6
Continuous
 62
     7
370
     9
100
AcDbText
 10
634.1244966211525
 20
-152.7504266742577
 30
0.0
 40
22.86
  1
（ＳＳ４００）
 41
1.142857142857154
  7
ＭＳ ゴシック
100
AcDbText
  0
TEXT
  5
1AF
330
1F
100
AcDbEntity
  8
D-5
  6
Continuous
 62
     7
370
     9
100
AcDbText
 10
644.3248665343935
 20
-102.2275450890593
 30
0.0
 40
22.86
  1
補強材
 41
1.111111111111111
  7
ＭＳ ゴシック
100
AcDbText
  0
LINE
  5
1B0
330
1F
100
AcDbEntity
  8
D-5
  6
Continuous
 62
     7
370
     9
100
AcDbLine
 10
880.3414653508798
 20
-117.9342989425218
 30
0.0
 11
644.3248665343935
 21
-117.9342989425218
 31
0.0
  0
LINE
  5
1B1
330
1F
100
AcDbEntity
  8
D-5
  6
Continuous
 62
     7
370
     9
100
AcDbLine
 10
1020.250895754398
 20
-266.5136814273578
 30
0.0
 11
603.2657553467925
 21
-266.5136814273578
 31
0.0
  0
TEXT
  5
1B2
330
1F
100
AcDbEntity
  8
D-5
  6
Continuous
 62
     7
370
     9
100
AcDbText
 10
609.7939855313689
 20
-216.9305452669833
 30
0.0
 40
22.86
  1
六角ボルト：Ｍ１６×２５
 41
1.152777777777778
  7
ＭＳ ゴシック
100
AcDbText
  0
TEXT
  5
1B3
330
1F
100
AcDbEntity
  8
D-5
  6
Continuous
 62
     7
370
     9
100
AcDbText
 10
608.7468145819184
 20
-253.6521791163168
 30
0.0
 40
22.86
  1
ばね座金
 41
1.125
  7
ＭＳ ゴシック
100
AcDbText
  0
TEXT
  5
1B4
330
1F
100
AcDbEntity
  8
D-5
  6
Continuous
 62
     7
370
     9
100
AcDbText
 10
600.4849411171199
 20
-299.2114348378718
 30
0.0
 40
22.86
  1
（ＳＵＳ３０４）
 41
1.145833333333333
  7
ＭＳ ゴシック
100
AcDbText
  0
LINE
  5
1B5
330
1F
100
AcDbEntity
  8
D-5
  6
Continuous
 62
     7
370
     9
100
AcDbLine
 10
1020.250895754398
 20
-266.5136814273578
 30
0.0
 11
1319.985376212039
 21
376.2689862293907
 31
0.0
  0
LINE
  5
1B6
330
1F
100
AcDbEntity
  8
D-5
  6
Continuous
 62
     7
370
     9
100
AcDbLine
 10
1319.985376212039
 20
376.2689862293913
 30
0.0
 11
1312.467731224431
 21
352.4260624606856
 31
0.0
  0
LINE
  5
1B7
330
1F
100
AcDbEntity
  8
D-5
  6
Continuous
 62
     7
370
     9
100
AcDbLine
 10
1319.985376212039
 20
376.2689862293913
 30
0.0
 11
1306.552886003367
 21
355.1842000840693
 31
0.0
  0
LINE
  5
1B8
330
1F
100
AcDbEntity
  8
D-5
  6
Continuous
 62
     7
370
     9
100
AcDbLine
 10
792.4216866077631
 20
6.448090823212951
 30
0.0
 11
997.5141691131194
 21
446.2703389004334
 31
0.0
  0
LINE
  5
1B9
330
1F
100
AcDbEntity
  8
D-5
  6
Continuous
 62
     7
370
     9
100
AcDbLine
 10
997.5141691131194
 20
446.2703389004334
 30
0.0
 11
984.0816789044493
 21
425.1855527551114
 31
0.0
  0
LINE
  5
1BA
330
1F
100
AcDbEntity
  8
D-5
  6
Continuous
 62
     7
370
     9
100
AcDbLine
 10
997.5141691131194
 20
446.2703389004334
 30
0.0
 11
989.9965241255131
 21
422.4274151317277
 31
0.0
  0
LINE
  5
1BB
330
1F
100
AcDbEntity
  8
D-F
  6
Continuous
 62
     7
370
     9
100
AcDbLine
 10
662.7047144524181
 20
364.3628418037363
 30
0.0
 11
662.7047144524181
 21
85.84679398217894
 31
0.0
  0
LINE
  5
1BC
330
1F
100
AcDbEntity
  8
D-F
  6
Continuous
 62
     7
370
     9
100
AcDbLine
 10
662.7047144524181
 20
701.7115947221155
 30
0.0
 11
662.7047144524181
 21
433.1778359971488
 31
0.0
  0
LINE
  5
1BD
330
1F
100
AcDbEntity
  8
D-F
  6
Continuous
 62
     7
370
     9
100
AcDbLine
 10
697.1127064287703
 20
433.1778359971488
 30
0.0
 11
628.2977122353577
 21
364.3628418037363
 31
0.0
  0
LINE
  5
1BE
330
1F
100
AcDbEntity
  8
D-F
  6
Continuous
 62
     7
370
     9
100
AcDbLine
 10
662.7047144524181
 20
433.1778359971488
 30
0.0
 11
697.1127064287703
 21
433.1778359971488
 31
0.0
  0
LINE
  5
1BF
330
1F
100
AcDbEntity
  8
D-F
  6
Continuous
 62
     7
370
     9
100
AcDbLine
 10
662.7047144524181
 20
364.3628418037363
 30
0.0
 11
628.2977122353577
 21
364.3628418037363
 31
0.0
  0
LINE
  5
1C0
330
1F
100
AcDbEntity
  8
D-2
  6
Continuous
 62
     3
370
     9
100
AcDbLine
 10
662.7047144524181
 20
446.2703389004334
 30
0.0
 11
1687.704912404304
 21
446.2703389004334
 31
0.0
  0
LINE
  5
1C1
330
1F
100
AcDbEntity
  8
D-F
  6
Continuous
 62
     7
370
     9
100
AcDbLine
 10
511.315608892719
 20
446.2703389004334
 30
0.0
 11
642.7047144524181
 21
446.2703389004334
 31
0.0
  0
LINE
  5
1C2
330
1F
100
AcDbEntity
  8
寸法
  6
Continuous
 62
     7
370
     9
100
AcDbLine
 10
-1259.346944384531
 20
-238.0617211470143
 30
0.0
 11
-694.293860294581
 21
-238.0617211470143
 31
0.0
  0
TEXT
  5
1C3
330
1F
100
AcDbEntity
  8
寸法
  6
Continuous
 62
     2
370
     9
100
AcDbText
 10
-1244.320402339556
 20
-222.6171656149194
 30
0.0
 40
30.48
  1
平面詳細図　Ｓ＝１：１０
 41
1.114583333333333
  7
ＭＳ ゴシック
100
AcDbText
  0
LINE
  5
1C4
330
1F
100
AcDbEntity
  8
0-E
  6
Continuous
 62
     3
370
     9
100
AcDbLine
 10
-1707.020308730189
 20
712.5565093338248
 30
0.0
 11
-1707.020308730189
 21
752.5565093338248
 31
0.0
  0
LINE
  5
1C5
330
1F
100
AcDbEntity
  8
0-E
  6
Continuous
 62
     3
370
     9
100
AcDbLine
 10
-1707.020308730189
 20
712.5565093338248
 30
0.0
 11
-1672.820353681755
 21
712.5565093338248
 31
0.0
  0
LINE
  5
1C6
330
1F
100
AcDbEntity
  8
0-E
  6
Continuous
 62
     3
370
     9
100
AcDbLine
 10
-1707.020308730189
 20
752.5565093338248
 30
0.0
 11
-1672.820353681755
 21
752.5565093338248
 31
0.0
  0
CIRCLE
  5
1C7
330
1F
100
AcDbEntity
  8
0-E
  6
Continuous
 62
     3
370
     9
100
AcDbCircle
 10
-1692.020308730189
 20
732.5565093338248
 30
0.0
 40
6.999999999998181
  0
LINE
  5
1C8
330
1F
100
AcDbEntity
  8
0-E
  6
JWW_CENTER1
 62
     3
370
     9
100
AcDbLine
 10
-1713.993307756459
 20
732.5565093338248
 30
0.0
 11
-1672.820353681755
 21
732.5565093338248
 31
0.0
  0
LINE
  5
1C9
330
1F
100
AcDbEntity
  8
0-E
  6
JWW_CENTER1
 62
     3
370
     9
100
AcDbLine
 10
-1692.020308730189
 20
756.9337507970324
 30
0.0
 11
-1692.020308730189
 21
708.1792678706183
 31
0.0
  0
LINE
  5
1CA
330
1F
100
AcDbEntity
  8
0-E
  6
Continuous
 62
     3
370
     9
100
AcDbLine
 10
-1592.82041554171
 20
866.7564025223088
 30
0.0
 11
-1552.82041554171
 21
866.7564025223088
 31
0.0
  0
LINE
  5
1CB
330
1F
100
AcDbEntity
  8
0-E
  6
Continuous
 62
     3
370
     9
100
AcDbLine
 10
-1592.82041554171
 20
866.7564025223088
 30
0.0
 11
-1592.82041554171
 21
832.5564474738745
 31
0.0
  0
LINE
  5
1CC
330
1F
100
AcDbEntity
  8
0-E
  6
Continuous
 62
     3
370
     9
100
AcDbLine
 10
-1552.82041554171
 20
866.7564025223088
 30
0.0
 11
-1552.82041554171
 21
832.5564474738745
 31
0.0
  0
CIRCLE
  5
1CD
330
1F
100
AcDbEntity
  8
0-E
  6
Continuous
 62
     3
370
     9
100
AcDbCircle
 10
-1572.82041554171
 20
851.7564025223088
 30
0.0
 40
6.999999999998181
  0
LINE
  5
1CE
330
1F
100
AcDbEntity
  8
0-E
  6
JWW_CENTER1
 62
     3
370
     9
100
AcDbLine
 10
-1572.82041554171
 20
873.7294015485792
 30
0.0
 11
-1572.82041554171
 21
832.5564474738745
 31
0.0
  0
LINE
  5
1CF
330
1F
100
AcDbEntity
  8
0-E
  6
JWW_CENTER1
 62
     3
370
     9
100
AcDbLine
 10
-1548.443174078502
 20
851.7564025223088
 30
0.0
 11
-1597.197657004917
 21
851.7564025223088
 31
0.0
  0
LINE
  5
1D0
330
1F
100
AcDbEntity
  8
0-E
  6
Continuous
 62
     3
370
     9
100
AcDbLine
 10
-1707.020308730189
 20
220.5564037595043
 30
0.0
 11
-1707.020308730189
 21
260.5564037595043
 31
0.0
  0
LINE
  5
1D1
330
1F
100
AcDbEntity
  8
0-E
  6
Continuous
 62
     3
370
     9
100
AcDbLine
 10
-1707.020308730189
 20
220.5564037595043
 30
0.0
 11
-1672.820353681755
 21
220.5564037595043
 31
0.0
  0
LINE
  5
1D2
330
1F
100
AcDbEntity
  8
0-E
  6
Continuous
 62
     3
370
     9
100
AcDbLine
 10
-1707.020308730189
 20
260.5564037595043
 30
0.0
 11
-1672.820353681755
 21
260.5564037595043
 31
0.0
  0
CIRCLE
  5
1D3
330
1F
100
AcDbEntity
  8
0-E
  6
Continuous
 62
     3
370
     9
100
AcDbCircle
 10
-1692.020308730189
 20
240.5564037595043
 30
0.0
 40
6.999999999998181
  0
LINE
  5
1D4
330
1F
100
AcDbEntity
  8
0-E
  6
JWW_CENTER1
 62
     3
370
     9
100
AcDbLine
 10
-1713.993307756459
 20
240.5564037595043
 30
0.0
 11
-1672.820353681755
 21
240.5564037595043
 31
0.0
  0
LINE
  5
1D5
330
1F
100
AcDbEntity
  8
0-E
  6
JWW_CENTER1
 62
     3
370
     9
100
AcDbLine
 10
-1692.020308730189
 20
264.9336452227119
 30
0.0
 11
-1692.020308730189
 21
216.1791622962978
 31
0.0
  0
LINE
  5
1D6
330
1F
100
AcDbEntity
  8
0-E
  6
Continuous
 62
     3
370
     9
100
AcDbLine
 10
-1552.820415541705
 20
106.3565105710252
 30
0.0
 11
-1592.820415541705
 21
106.3565105710252
 31
0.0
  0
LINE
  5
1D7
330
1F
100
AcDbEntity
  8
0-E
  6
Continuous
 62
     3
370
     9
100
AcDbLine
 10
-1552.820415541705
 20
106.3565105710252
 30
0.0
 11
-1552.820415541705
 21
140.5564656194595
 31
0.0
  0
LINE
  5
1D8
330
1F
100
AcDbEntity
  8
0-E
  6
Continuous
 62
     3
370
     9
100
AcDbLine
 10
-1592.820415541705
 20
106.3565105710252
 30
0.0
 11
-1592.820415541705
 21
140.5564656194595
 31
0.0
  0
CIRCLE
  5
1D9
330
1F
100
AcDbEntity
  8
0-E
  6
Continuous
 62
     3
370
     9
100
AcDbCircle
 10
-1572.820415541705
 20
121.3565105710252
 30
0.0
 40
6.999999999998181
  0
LINE
  5
1DA
330
1F
100
AcDbEntity
  8
0-E
  6
JWW_CENTER1
 62
     3
370
     9
100
AcDbLine
 10
-1572.820415541705
 20
99.38351154475484
 30
0.0
 11
-1572.820415541705
 21
140.5564656194595
 31
0.0
  0
LINE
  5
1DB
330
1F
100
AcDbEntity
  8
0-E
  6
JWW_CENTER1
 62
     3
370
     9
100
AcDbLine
 10
-1597.197657004913
 20
121.3565105710252
 30
0.0
 11
-1548.443174078498
 21
121.3565105710252
 31
0.0
  0
LINE
  5
1DC
330
1F
100
AcDbEntity
  8
躯体
  6
JWW_DASHED2
 62
     2
370
     9
100
AcDbLine
 10
-1626.820424614502
 20
186.5564565466669
 30
0.0
 11
-1626.820424614502
 21
786.5564565466668
 31
0.0
  0
LINE
  5
1DD
330
1F
100
AcDbEntity
  8
0-F
  6
Continuous
 62
     7
370
     9
100
AcDbLine
 10
-1672.820477401665
 20
847.556496961838
 30
0.0
 11
-1672.820477401665
 21
1127.556740277664
 31
0.0
  0
LINE
  5
1DE
330
1F
100
AcDbEntity
  8
0-F
  6
Continuous
 62
     7
370
     9
100
AcDbLine
 10
-1659.820484000061
 20
834.5565035602339
 30
0.0
 11
-1659.820484000061
 21
1037.556443349876
 31
0.0
  0
LINE
  5
1DF
330
1F
100
AcDbEntity
  8
0-F
  6
Continuous
 62
     7
370
     9
100
AcDbLine
 10
-1626.820424614502
 20
801.5564441746762
 30
0.0
 11
-1626.820424614502
 21
947.5556515424443
 31
0.0
  0
LINE
  5
1E0
330
1F
100
AcDbEntity
  8
0-F
  6
Continuous
 62
     7
370
     9
100
AcDbLine
 10
-1572.820001487044
 20
77.04590206505898
 30
0.0
 11
-1572.820001487044
 21
-25.81037828755868
 31
0.0
  0
LINE
  5
1E1
330
1F
100
AcDbEntity
  8
0-F
  6
Continuous
 62
     7
370
     9
100
AcDbLine
 10
-1672.820331406806
 20
114.3454758087246
 30
0.0
 11
-1672.820331406806
 21
-25.81037828755868
 31
0.0
  0
LWPOLYLINE
  5
1E2
330
1F
100
AcDbEntity
  8
0-F
  6
Continuous
 62
     7
370
     9
100
AcDbPolyline
 90
        4
 70
     1
 43
2.0
 10
-1671.820331406806
 20
-20.81036179157124
 42
0.4142135623731
 10
-1672.820331406806
 20
-19.81036179157124
 42
0.4142135623731
 10
-1673.820331406806
 20
-20.81036179157124
 42
0.4142135623731
 10
-1672.820331406806
 20
-21.81036179157124
 42
0.4142135623731
  0
LINE
  5
1E3
330
1F
100
AcDbEntity
  8
0-F
  6
Continuous
 62
     7
370
     9
100
AcDbLine
 10
-1707.020579354394
 20
-25.81036179157124
 30
0.0
 11
-1707.020579354394
 21
189.3456077766298
 31
0.0
  0
LWPOLYLINE
  5
1E4
330
1F
100
AcDbEntity
  8
0-F
  6
Continuous
 62
     7
370
     9
100
AcDbPolyline
 90
        4
 70
     1
 43
2.0
 10
-1625.820424614502
 20
942.5556350464568
 42
0.4142135623731
 10
-1626.820424614502
 20
943.5556350464567
 42
0.4142135623731
 10
-1627.820424614502
 20
942.5556350464568
 42
0.4142135623731
 10
-1626.820424614502
 20
941.5556350464568
 42
0.4142135623731
  0
LWPOLYLINE
  5
1E5
330
1F
100
AcDbEntity
  8
0-F
  6
Continuous
 62
     7
370
     9
100
AcDbPolyline
 90
        4
 70
     1
 43
2.0
 10
-1658.820484000061
 20
1032.556426853889
 42
0.4142135623731
 10
-1659.820484000061
 20
1033.556426853889
 42
0.4142135623731
 10
-1660.820484000061
 20
1032.556426853889
 42
0.4142135623731
 10
-1659.820484000061
 20
1031.556426853889
 42
0.4142135623731
  0
LWPOLYLINE
  5
1E6
330
1F
100
AcDbEntity
  8
0-F
  6
Continuous
 62
     7
370
     9
100
AcDbPolyline
 90
        4
 70
     1
 43
2.0
 10
-1671.820477401665
 20
1122.556723781675
 42
0.4142135623731
 10
-1672.820477401665
 20
1123.556723781675
 42
0.4142135623731
 10
-1673.820477401665
 20
1122.556723781675
 42
0.4142135623731
 10
-1672.820477401665
 20
1121.556723781676
 42
0.4142135623731
  0
LINE
  5
1E7
330
1F
100
AcDbEntity
  8
0-F
  6
Continuous
 62
     7
370
     9
100
AcDbLine
 10
-1707.020579354394
 20
-20.81036179157124
 30
0.0
 11
-1672.820331406806
 21
-20.81036179157124
 31
0.0
  0
LWPOLYLINE
  5
1E8
330
1F
100
AcDbEntity
  8
0-F
  6
Continuous
 62
     7
370
     9
100
AcDbPolyline
 90
        4
 70
     1
 43
2.0
 10
-1706.020579354394
 20
-20.81036179157124
 42
0.4142135623731
 10
-1707.020579354394
 20
-19.81036179157124
 42
0.4142135623731
 10
-1708.020579354394
 20
-20.81036179157124
 42
0.4142135623731
 10
-1707.020579354394
 20
-21.81036179157124
 42
0.4142135623731
  0
LINE
  5
1E9
330
1F
100
AcDbEntity
  8
0-F
  6
Continuous
 62
     7
370
     9
100
AcDbLine
 10
-1672.820331406806
 20
-20.81036179157124
 30
0.0
 11
-1572.820001487044
 21
-20.81036179157124
 31
0.0
  0
LWPOLYLINE
  5
1EA
330
1F
100
AcDbEntity
  8
0-F
  6
Continuous
 62
     7
370
     9
100
AcDbPolyline
 90
        4
 70
     1
 43
2.0
 10
-1571.820001487044
 20
-20.81036179157124
 42
0.4142135623731
 10
-1572.820001487044
 20
-19.81036179157124
 42
0.4142135623731
 10
-1573.820001487044
 20
-20.81036179157124
 42
0.4142135623731
 10
-1572.820001487044
 20
-21.81036179157124
 42
0.4142135623731
  0
TEXT
  5
1EB
330
1F
100
AcDbEntity
  8
0-F
  6
Continuous
 62
     2
370
   211
100
AcDbText
 10
-1655.320166446925
 20
-9.170361791571011
 30
0.0
 40
30.48
  1
100
 41
1.083333333333333
  7
ＭＳ ゴシック
100
AcDbText
  0
TEXT
  5
1EC
330
1F
100
AcDbEntity
  8
0-F
  6
Continuous
 62
     2
370
   211
100
AcDbText
 10
-1711.1704553806
 20
-79.39193725076287
 30
0.0
 40
30.48
  1
34
 41
1.0625
  7
ＭＳ ゴシック
100
AcDbText
  0
LINE
  5
1ED
330
1F
100
AcDbEntity
  8
0-F
  6
Continuous
 62
     7
370
     9
100
AcDbLine
 10
-1743.44429942779
 20
186.5564565466669
 30
0.0
 11
-1743.44429942779
 21
786.5564565466668
 31
0.0
  0
LINE
  5
1EE
330
1F
100
AcDbEntity
  8
0-F
  6
Continuous
 62
     7
370
     9
100
AcDbLine
 10
-1641.820474102467
 20
186.5564565466669
 30
0.0
 11
-1748.44431592378
 21
186.5564565466669
 31
0.0
  0
LINE
  5
1EF
330
1F
100
AcDbEntity
  8
0-F
  6
Continuous
 62
     7
370
     9
100
AcDbLine
 10
-1641.820474102467
 20
786.5564565466668
 30
0.0
 11
-1748.44431592378
 21
786.5564565466668
 31
0.0
  0
TEXT
  5
1F0
330
1F
100
AcDbEntity
  8
0-F
  6
Continuous
 62
     2
370
     9
100
AcDbText
 10
-1755.084220247049
 20
454.0564565466668
 30
0.0
 40
30.48
  1
600
 50
90.0
 41
1.083333333333333
  7
ＭＳ ゴシック
100
AcDbText
  0
LWPOLYLINE
  5
1F1
330
1F
100
AcDbEntity
  8
0-F
  6
Continuous
 62
     7
370
     9
100
AcDbPolyline
 90
        4
 70
     1
 43
2.0
 10
-1742.44429942779
 20
186.5564565466669
 42
0.4142135623731
 10
-1743.44429942779
 20
187.5564565466669
 42
0.4142135623731
 10
-1744.44429942779
 20
186.5564565466669
 42
0.4142135623731
 10
-1743.44429942779
 20
185.5564565466668
 42
0.4142135623731
  0
LWPOLYLINE
  5
1F2
330
1F
100
AcDbEntity
  8
0-F
  6
Continuous
 62
     7
370
     9
100
AcDbPolyline
 90
        4
 70
     1
 43
2.0
 10
-1742.44429942779
 20
786.5564565466668
 42
0.4142135623731
 10
-1743.44429942779
 20
787.5564565466668
 42
0.4142135623731
 10
-1744.44429942779
 20
786.5564565466668
 42
0.4142135623731
 10
-1743.44429942779
 20
785.5564565466669
 42
0.4142135623731
  0
LINE
  5
1F3
330
1F
100
AcDbEntity
  8
0-F
  6
Continuous
 62
     7
370
     9
100
AcDbLine
 10
-1829.613646742218
 20
153.5563971611096
 30
0.0
 11
-1829.613646742218
 21
819.5565159322241
 31
0.0
  0
LINE
  5
1F4
330
1F
100
AcDbEntity
  8
0-F
  6
Continuous
 62
     7
370
     9
100
AcDbLine
 10
-1674.820533488023
 20
153.5563971611096
 30
0.0
 11
-1834.613663238208
 21
153.5563971611096
 31
0.0
  0
LINE
  5
1F5
330
1F
100
AcDbEntity
  8
0-F
  6
Continuous
 62
     7
370
     9
100
AcDbLine
 10
-1674.820533488023
 20
819.5565159322241
 30
0.0
 11
-1834.613663238208
 21
819.5565159322241
 31
0.0
  0
TEXT
  5
1F6
330
1F
100
AcDbEntity
  8
0-F
  6
Continuous
 62
     2
370
     9
100
AcDbText
 10
-1841.253567561477
 20
454.0564565466668
 30
0.0
 40
30.48
  1
666
 50
90.0
 41
1.083333333333333
  7
ＭＳ ゴシック
100
AcDbText
  0
LWPOLYLINE
  5
1F7
330
1F
100
AcDbEntity
  8
0-F
  6
Continuous
 62
     7
370
     9
100
AcDbPolyline
 90
        4
 70
     1
 43
2.0
 10
-1828.613646742218
 20
153.5563971611096
 42
0.4142135623731
 10
-1829.613646742218
 20
154.5563971611096
 42
0.4142135623731
 10
-1830.613646742218
 20
153.5563971611096
 42
0.4142135623731
 10
-1829.613646742218
 20
152.5563971611096
 42
0.4142135623731
  0
LWPOLYLINE
  5
1F8
330
1F
100
AcDbEntity
  8
0-F
  6
Continuous
 62
     7
370
     9
100
AcDbPolyline
 90
        4
 70
     1
 43
2.0
 10
-1828.613646742218
 20
819.5565159322241
 42
0.4142135623731
 10
-1829.613646742218
 20
820.5565159322241
 42
0.4142135623731
 10
-1830.613646742218
 20
819.5565159322241
 42
0.4142135623731
 10
-1829.613646742218
 20
818.5565159322242
 42
0.4142135623731
  0
LINE
  5
1F9
330
1F
100
AcDbEntity
  8
0-F
  6
Continuous
 62
     7
370
     9
100
AcDbLine
 10
-1687.820526889629
 20
140.5564037595043
 30
0.0
 11
-1917.076885787549
 21
140.5564037595043
 31
0.0
  0
LINE
  5
1FA
330
1F
100
AcDbEntity
  8
0-F
  6
Continuous
 62
     7
370
     9
100
AcDbLine
 10
-1687.820526889629
 20
832.5565093338297
 30
0.0
 11
-1917.076885787549
 21
832.5565093338297
 31
0.0
  0
LINE
  5
1FB
330
1F
100
AcDbEntity
  8
建具
  6
Continuous
 62
     2
370
     9
100
AcDbLine
 10
-1672.820353681755
 20
832.5565093338251
 30
0.0
 11
-1660.820388323327
 21
820.5566676953124
 31
0.0
  0
LINE
  5
1FC
330
1F
100
AcDbEntity
  8
建具
  6
Continuous
 62
     2
370
     9
100
AcDbLine
 10
-1660.820388323327
 20
152.5564928378374
 30
0.0
 11
-1672.820353681755
 21
140.5564037595043
 31
0.0
  0
LINE
  5
1FD
330
1F
100
AcDbEntity
  8
建具
  6
Continuous
 62
     2
370
     9
100
AcDbLine
 10
-1660.820388323327
 20
152.5564928378374
 30
0.0
 11
-1660.820388323327
 21
820.5566676953124
 31
0.0
  0
LINE
  5
1FE
330
1F
100
AcDbEntity
  8
建具
  6
Continuous
 62
     2
370
     9
100
AcDbLine
 10
-1672.820353681755
 20
140.5564037595043
 30
0.0
 11
-1672.820353681755
 21
832.5565093338251
 31
0.0
  0
LINE
  5
1FF
330
1F
100
AcDbEntity
  8
0-F
  6
Continuous
 62
     7
370
     9
100
AcDbLine
 10
-1912.076869291561
 20
140.5564037595043
 30
0.0
 11
-1912.076869291561
 21
832.5565093338297
 31
0.0
  0
TEXT
  5
200
330
1F
100
AcDbEntity
  8
0-F
  6
Continuous
 62
     2
370
     9
100
AcDbText
 10
-1923.716790110818
 20
454.0564565466668
 30
0.0
 40
30.48
  1
692
 50
90.0
 41
1.083333333333333
  7
ＭＳ ゴシック
100
AcDbText
  0
LWPOLYLINE
  5
201
330
1F
100
AcDbEntity
  8
0-F
  6
Continuous
 62
     7
370
     9
100
AcDbPolyline
 90
        4
 70
     1
 43
2.0
 10
-1911.076869291561
 20
140.5564037595043
 42
0.4142135623731
 10
-1912.076869291561
 20
141.5564037595043
 42
0.4142135623731
 10
-1913.076869291561
 20
140.5564037595043
 42
0.4142135623731
 10
-1912.076869291561
 20
139.5564037595043
 42
0.4142135623731
  0
LWPOLYLINE
  5
202
330
1F
100
AcDbEntity
  8
0-F
  6
Continuous
 62
     7
370
     9
100
AcDbPolyline
 90
        4
 70
     1
 43
2.0
 10
-1911.076869291561
 20
832.5565093338297
 42
0.4142135623731
 10
-1912.076869291561
 20
833.5565093338296
 42
0.4142135623731
 10
-1913.076869291561
 20
832.5565093338297
 42
0.4142135623731
 10
-1912.076869291561
 20
831.5565093338297
 42
0.4142135623731
  0
LINE
  5
203
330
1F
100
AcDbEntity
  8
0-E
  6
Continuous
 62
     3
370
     9
100
AcDbLine
 10
-246.6204167789056
 20
752.5565093338294
 30
0.0
 11
-246.6204167789056
 21
712.5565093338294
 31
0.0
  0
LINE
  5
204
330
1F
100
AcDbEntity
  8
0-E
  6
Continuous
 62
     3
370
     9
100
AcDbLine
 10
-246.6204167789056
 20
752.5565093338294
 30
0.0
 11
-280.8203718273398
 21
752.5565093338294
 31
0.0
  0
LINE
  5
205
330
1F
100
AcDbEntity
  8
0-E
  6
Continuous
 62
     3
370
     9
100
AcDbLine
 10
-246.6204167789056
 20
712.5565093338294
 30
0.0
 11
-280.8203718273398
 21
712.5565093338294
 31
0.0
  0
CIRCLE
  5
206
330
1F
100
AcDbEntity
  8
0-E
  6
Continuous
 62
     3
370
     9
100
AcDbCircle
 10
-261.6204167789056
 20
732.5565093338294
 30
0.0
 40
6.999999999998181
  0
LINE
  5
207
330
1F
100
AcDbEntity
  8
0-E
  6
JWW_CENTER1
 62
     3
370
     9
100
AcDbLine
 10
-239.6474177526352
 20
732.5565093338294
 30
0.0
 11
-280.8203718273398
 21
732.5565093338294
 31
0.0
  0
LINE
  5
208
330
1F
100
AcDbEntity
  8
0-E
  6
JWW_CENTER1
 62
     3
370
     9
100
AcDbLine
 10
-261.6204167789056
 20
708.1792678706217
 30
0.0
 11
-261.6204167789056
 21
756.9337507970358
 31
0.0
  0
LINE
  5
209
330
1F
100
AcDbEntity
  8
0-E
  6
Continuous
 62
     3
370
     9
100
AcDbLine
 10
-400.8203099673892
 20
866.7564025223088
 30
0.0
 11
-360.8203099673892
 21
866.7564025223088
 31
0.0
  0
LINE
  5
20A
330
1F
100
AcDbEntity
  8
0-E
  6
Continuous
 62
     3
370
     9
100
AcDbLine
 10
-400.8203099673892
 20
866.7564025223088
 30
0.0
 11
-400.8203099673892
 21
832.5564474738745
 31
0.0
  0
LINE
  5
20B
330
1F
100
AcDbEntity
  8
0-E
  6
Continuous
 62
     3
370
     9
100
AcDbLine
 10
-360.8203099673892
 20
866.7564025223088
 30
0.0
 11
-360.8203099673892
 21
832.5564474738745
 31
0.0
  0
CIRCLE
  5
20C
330
1F
100
AcDbEntity
  8
0-E
  6
Continuous
 62
     3
370
     9
100
AcDbCircle
 10
-380.8203099673892
 20
851.7564025223088
 30
0.0
 40
6.999999999998181
  0
LINE
  5
20D
330
1F
100
AcDbEntity
  8
0-E
  6
JWW_CENTER1
 62
     3
370
     9
100
AcDbLine
 10
-380.8203099673892
 20
873.7294015485792
 30
0.0
 11
-380.8203099673892
 21
832.5564474738745
 31
0.0
  0
LINE
  5
20E
330
1F
100
AcDbEntity
  8
0-E
  6
JWW_CENTER1
 62
     3
370
     9
100
AcDbLine
 10
-356.4430685041816
 20
851.7564025223088
 30
0.0
 11
-405.1975514305968
 21
851.7564025223088
 31
0.0
  0
LINE
  5
20F
330
1F
100
AcDbEntity
  8
0-E
  6
Continuous
 62
     3
370
     9
100
AcDbLine
 10
-360.8203099673847
 20
106.3565105710252
 30
0.0
 11
-400.8203099673847
 21
106.3565105710252
 31
0.0
  0
LINE
  5
210
330
1F
100
AcDbEntity
  8
0-E
  6
Continuous
 62
     3
370
     9
100
AcDbLine
 10
-360.8203099673847
 20
106.3565105710252
 30
0.0
 11
-360.8203099673847
 21
140.5564656194595
 31
0.0
  0
LINE
  5
211
330
1F
100
AcDbEntity
  8
0-E
  6
Continuous
 62
     3
370
     9
100
AcDbLine
 10
-400.8203099673847
 20
106.3565105710252
 30
0.0
 11
-400.8203099673847
 21
140.5564656194595
 31
0.0
  0
CIRCLE
  5
212
330
1F
100
AcDbEntity
  8
0-E
  6
Continuous
 62
     3
370
     9
100
AcDbCircle
 10
-380.8203099673847
 20
121.3565105710252
 30
0.0
 40
6.999999999998181
  0
LINE
  5
213
330
1F
100
AcDbEntity
  8
0-E
  6
JWW_CENTER1
 62
     3
370
     9
100
AcDbLine
 10
-380.8203099673847
 20
99.38351154475484
 30
0.0
 11
-380.8203099673847
 21
140.5564656194595
 31
0.0
  0
LINE
  5
214
330
1F
100
AcDbEntity
  8
0-E
  6
JWW_CENTER1
 62
     3
370
     9
100
AcDbLine
 10
-405.1975514305923
 20
121.3565105710252
 30
0.0
 11
-356.4430685041771
 21
121.3565105710252
 31
0.0
  0
LINE
  5
215
330
1F
100
AcDbEntity
  8
0-E
  6
Continuous
 62
     3
370
     9
100
AcDbLine
 10
-246.6204167789056
 20
260.5564037595088
 30
0.0
 11
-246.6204167789056
 21
220.5564037595089
 31
0.0
  0
LINE
  5
216
330
1F
100
AcDbEntity
  8
0-E
  6
Continuous
 62
     3
370
     9
100
AcDbLine
 10
-246.6204167789056
 20
260.5564037595088
 30
0.0
 11
-280.8203718273398
 21
260.5564037595088
 31
0.0
  0
LINE
  5
217
330
1F
100
AcDbEntity
  8
0-E
  6
Continuous
 62
     3
370
     9
100
AcDbLine
 10
-246.6204167789056
 20
220.5564037595089
 30
0.0
 11
-280.8203718273398
 21
220.5564037595089
 31
0.0
  0
CIRCLE
  5
218
330
1F
100
AcDbEntity
  8
0-E
  6
Continuous
 62
     3
370
     9
100
AcDbCircle
 10
-261.6204167789056
 20
240.5564037595089
 30
0.0
 40
6.999999999998181
  0
LINE
  5
219
330
1F
100
AcDbEntity
  8
0-E
  6
JWW_CENTER1
 62
     3
370
     9
100
AcDbLine
 10
-239.6474177526352
 20
240.5564037595089
 30
0.0
 11
-280.8203718273398
 21
240.5564037595089
 31
0.0
  0
LINE
  5
21A
330
1F
100
AcDbEntity
  8
0-E
  6
JWW_CENTER1
 62
     3
370
     9
100
AcDbLine
 10
-261.6204167789056
 20
216.1791622963013
 30
0.0
 11
-261.6204167789056
 21
264.9336452227153
 31
0.0
  0
LINE
  5
21B
330
1F
100
AcDbEntity
  8
躯体
  6
JWW_DASHED2
 62
     2
370
     9
100
AcDbLine
 10
-326.820300894592
 20
786.5564565466668
 30
0.0
 11
-326.820300894592
 21
186.5564565466669
 31
0.0
  0
LINE
  5
21C
330
1F
100
AcDbEntity
  8
0-F
  6
Continuous
 62
     7
370
     9
100
AcDbLine
 10
-280.8203718273398
 20
847.556496961838
 30
0.0
 11
-280.8203718273398
 21
1127.556740277664
 31
0.0
  0
LINE
  5
21D
330
1F
100
AcDbEntity
  8
0-F
  6
Continuous
 62
     7
370
     9
100
AcDbLine
 10
-293.820365228944
 20
834.5565035602339
 30
0.0
 11
-293.820365228944
 21
1037.556443349876
 31
0.0
  0
LINE
  5
21E
330
1F
100
AcDbEntity
  8
0-F
  6
Continuous
 62
     7
370
     9
100
AcDbLine
 10
-326.8204246145024
 20
801.5564441746762
 30
0.0
 11
-326.8204246145024
 21
947.5556515424443
 31
0.0
  0
LINE
  5
21F
330
1F
100
AcDbEntity
  8
0-F
  6
Continuous
 62
     7
370
     9
100
AcDbLine
 10
-380.819813432779
 20
80.41776452810794
 30
0.0
 11
-380.8186999535769
 21
-25.81037828755868
 31
0.0
  0
LWPOLYLINE
  5
220
330
1F
100
AcDbEntity
  8
0-F
  6
Continuous
 62
     7
370
     9
100
AcDbPolyline
 90
        4
 70
     1
 43
2.0
 10
-279.8187411935455
 20
-20.80937203228061
 42
0.4142135623731
 10
-280.8187411935455
 20
-19.80937203228061
 42
0.4142135623731
 10
-281.8187411935455
 20
-20.80937203228061
 42
0.4142135623731
 10
-280.8187411935455
 20
-21.80937203228061
 42
0.4142135623731
  0
LINE
  5
221
330
1F
100
AcDbEntity
  8
0-F
  6
Continuous
 62
     7
370
     9
100
AcDbLine
 10
-246.6202253247206
 20
-25.80937203228061
 30
0.0
 11
-246.6202253247206
 21
189.3456077766298
 31
0.0
  0
LWPOLYLINE
  5
222
330
1F
100
AcDbEntity
  8
0-F
  6
Continuous
 62
     7
370
     9
100
AcDbPolyline
 90
        4
 70
     1
 43
2.0
 10
-325.8204246145024
 20
942.5556350464568
 42
0.4142135623731
 10
-326.8204246145024
 20
943.5556350464567
 42
0.4142135623731
 10
-327.8204246145024
 20
942.5556350464568
 42
0.4142135623731
 10
-326.8204246145024
 20
941.5556350464568
 42
0.4142135623731
  0
LWPOLYLINE
  5
223
330
1F
100
AcDbEntity
  8
0-F
  6
Continuous
 62
     7
370
     9
100
AcDbPolyline
 90
        4
 70
     1
 43
2.0
 10
-292.820365228944
 20
1032.556426853889
 42
0.4142135623731
 10
-293.820365228944
 20
1033.556426853889
 42
0.4142135623731
 10
-294.820365228944
 20
1032.556426853889
 42
0.4142135623731
 10
-293.820365228944
 20
1031.556426853889
 42
0.4142135623731
  0
LWPOLYLINE
  5
224
330
1F
100
AcDbEntity
  8
0-F
  6
Continuous
 62
     7
370
     9
100
AcDbPolyline
 90
        4
 70
     1
 43
2.0
 10
-279.8203718273398
 20
1122.556723781675
 42
0.4142135623731
 10
-280.8203718273398
 20
1123.556723781675
 42
0.4142135623731
 10
-281.8203718273398
 20
1122.556723781675
 42
0.4142135623731
 10
-280.8203718273398
 20
1121.556723781676
 42
0.4142135623731
  0
LWPOLYLINE
  5
225
330
1F
100
AcDbEntity
  8
0-F
  6
Continuous
 62
     7
370
     9
100
AcDbPolyline
 90
        4
 70
     1
 43
2.0
 10
-379.8186999535769
 20
-20.81036179157124
 42
0.4142135623731
 10
-380.8186999535769
 20
-19.81036179157124
 42
0.4142135623731
 10
-381.8186999535769
 20
-20.81036179157124
 42
0.4142135623731
 10
-380.8186999535769
 20
-21.81036179157124
 42
0.4142135623731
  0
LINE
  5
226
330
1F
100
AcDbEntity
  8
0-F
  6
Continuous
 62
     7
370
     9
100
AcDbLine
 10
-380.8186999535769
 20
-20.81036179157124
 30
0.0
 11
-280.8187411935455
 21
-20.81036179157124
 31
0.0
  0
TEXT
  5
227
330
1F
100
AcDbEntity
  8
0-F
  6
Continuous
 62
     2
370
   211
100
AcDbText
 10
-363.3187205735612
 20
-9.170361791571011
 30
0.0
 40
30.48
  1
100
 41
1.083333333333333
  7
ＭＳ ゴシック
100
AcDbText
  0
LINE
  5
228
330
1F
100
AcDbEntity
  8
0-F
  6
Continuous
 62
     7
370
     9
100
AcDbLine
 10
-280.8187411935455
 20
-20.81036179157124
 30
0.0
 11
-246.6202253247184
 21
-20.81036179157124
 31
0.0
  0
LWPOLYLINE
  5
229
330
1F
100
AcDbEntity
  8
0-F
  6
Continuous
 62
     7
370
     9
100
AcDbPolyline
 90
        4
 70
     1
 43
2.0
 10
-245.6202253247184
 20
-20.81036179157124
 42
0.4142135623731
 10
-246.6202253247184
 20
-19.81036179157124
 42
0.4142135623731
 10
-247.6202253247184
 20
-20.81036179157124
 42
0.4142135623731
 10
-246.6202253247184
 20
-21.81036179157124
 42
0.4142135623731
  0
LINE
  5
22A
330
1F
100
AcDbEntity
  8
0-F
  6
Continuous
 62
     7
370
     9
100
AcDbLine
 10
-280.8201021125706
 20
114.3455995286361
 30
0.0
 11
-280.8186174743719
 21
-25.80931900299035
 31
0.0
  0
TEXT
  5
22B
330
1F
100
AcDbEntity
  8
0-F
  6
Continuous
 62
     2
370
   211
100
AcDbText
 10
-284.9694832591331
 20
-79.39193725076287
 30
0.0
 40
30.48
  1
34
 41
1.0625
  7
ＭＳ ゴシック
100
AcDbText
  0
LINE
  5
22C
330
1F
100
AcDbEntity
  8
0-F
  6
Continuous
 62
     7
370
     9
100
AcDbLine
 10
-142.7323365601728
 20
140.5564037595043
 30
0.0
 11
-142.7323365601728
 21
240.5567336792679
 31
0.0
  0
LINE
  5
22D
330
1F
100
AcDbEntity
  8
0-F
  6
Continuous
 62
     7
370
     9
100
AcDbLine
 10
-265.8203841993304
 20
140.5564037595043
 30
0.0
 11
-137.7323200641854
 21
140.5564037595043
 31
0.0
  0
LINE
  5
22E
330
1F
100
AcDbEntity
  8
0-F
  6
Continuous
 62
     7
370
     9
100
AcDbLine
 10
-225.304463921143
 20
240.5567336792679
 30
0.0
 11
-137.7323200641854
 21
240.5567336792679
 31
0.0
  0
LINE
  5
22F
330
1F
100
AcDbEntity
  8
0-F
  6
Continuous
 62
     7
370
     9
100
AcDbLine
 10
-231.8936626780055
 20
732.5564268538888
 30
0.0
 11
-137.7323200641854
 21
732.5564268538888
 31
0.0
  0
LINE
  5
230
330
1F
100
AcDbEntity
  8
0-F
  6
Continuous
 62
     7
370
     9
100
AcDbLine
 10
-142.7323365601728
 20
732.5564268538888
 30
0.0
 11
-142.7323365601728
 21
832.5565093338297
 31
0.0
  0
LINE
  5
231
330
1F
100
AcDbEntity
  8
0-F
  6
Continuous
 62
     7
370
     9
100
AcDbLine
 10
-265.8203841993304
 20
832.5565093338297
 30
0.0
 11
-137.7323200641854
 21
832.5565093338297
 31
0.0
  0
TEXT
  5
232
330
1F
100
AcDbEntity
  8
0-F
  6
Continuous
 62
     2
370
     9
100
AcDbText
 10
-154.3723192393865
 20
158.0565996493642
 30
0.0
 40
30.48
  1
100
 50
90.0
 41
1.083333333333333
  7
ＭＳ ゴシック
100
AcDbText
  0
TEXT
  5
233
330
1F
100
AcDbEntity
  8
0-F
  6
Continuous
 62
     2
370
     9
100
AcDbText
 10
-154.3723192393865
 20
750.0564680938585
 30
0.0
 40
30.48
  1
100
 50
90.0
 41
1.083333333333333
  7
ＭＳ ゴシック
100
AcDbText
  0
LWPOLYLINE
  5
234
330
1F
100
AcDbEntity
  8
0-F
  6
Continuous
 62
     7
370
     9
100
AcDbPolyline
 90
        4
 70
     1
 43
2.0
 10
-141.7323365601728
 20
140.5564037595043
 42
0.4142135623731
 10
-142.7323365601728
 20
141.5564037595043
 42
0.4142135623731
 10
-143.7323365601728
 20
140.5564037595043
 42
0.4142135623731
 10
-142.7323365601728
 20
139.5564037595043
 42
0.4142135623731
  0
LWPOLYLINE
  5
235
330
1F
100
AcDbEntity
  8
0-F
  6
Continuous
 62
     7
370
     9
100
AcDbPolyline
 90
        4
 70
     1
 43
2.0
 10
-141.7323365601728
 20
240.5567336792679
 42
0.4142135623731
 10
-142.7323365601728
 20
241.5567336792679
 42
0.4142135623731
 10
-143.7323365601728
 20
240.5567336792679
 42
0.4142135623731
 10
-142.7323365601728
 20
239.5567336792678
 42
0.4142135623731
  0
LWPOLYLINE
  5
236
330
1F
100
AcDbEntity
  8
0-F
  6
Continuous
 62
     7
370
     9
100
AcDbPolyline
 90
        4
 70
     1
 43
2.0
 10
-141.7323365601728
 20
732.5564268538888
 42
0.4142135623731
 10
-142.7323365601728
 20
733.5564268538888
 42
0.4142135623731
 10
-143.7323365601728
 20
732.5564268538888
 42
0.4142135623731
 10
-142.7323365601728
 20
731.5564268538889
 42
0.4142135623731
  0
LWPOLYLINE
  5
237
330
1F
100
AcDbEntity
  8
0-F
  6
Continuous
 62
     7
370
     9
100
AcDbPolyline
 90
        4
 70
     1
 43
2.0
 10
-141.7323365601728
 20
832.5565093338297
 42
0.4142135623731
 10
-142.7323365601728
 20
833.5565093338296
 42
0.4142135623731
 10
-143.7323365601728
 20
832.5565093338297
 42
0.4142135623731
 10
-142.7323365601728
 20
831.5565093338297
 42
0.4142135623731
  0
LINE
  5
238
330
1F
100
AcDbEntity
  8
0-F
  6
Continuous
 62
     7
370
     9
100
AcDbLine
 10
-142.7323365601728
 20
140.5564037595043
 30
0.0
 11
-142.7323365601728
 21
106.3561558119177
 31
0.0
  0
LWPOLYLINE
  5
239
330
1F
100
AcDbEntity
  8
0-F
  6
Continuous
 62
     7
370
     9
100
AcDbPolyline
 90
        4
 70
     1
 43
2.0
 10
-141.7323365601728
 20
106.3561558119177
 42
0.4142135623731
 10
-142.7323365601728
 20
107.3561558119177
 42
0.4142135623731
 10
-143.7323365601728
 20
106.3561558119177
 42
0.4142135623731
 10
-142.7323365601728
 20
105.3561558119177
 42
0.4142135623731
  0
LINE
  5
23A
330
1F
100
AcDbEntity
  8
0-F
  6
Continuous
 62
     7
370
     9
100
AcDbLine
 10
-137.7323365601728
 20
106.3561558119177
 30
0.0
 11
-340.8203305873712
 21
106.3561558119177
 31
0.0
  0
LINE
  5
23B
330
1F
100
AcDbEntity
  8
0-F
  6
Continuous
 62
     7
370
     9
100
AcDbLine
 10
-142.7323365601728
 20
832.5565093338297
 30
0.0
 11
-142.7323365601728
 21
866.757252161061
 31
0.0
  0
LWPOLYLINE
  5
23C
330
1F
100
AcDbEntity
  8
0-F
  6
Continuous
 62
     7
370
     9
100
AcDbPolyline
 90
        4
 70
     1
 43
2.0
 10
-141.7323365601728
 20
866.757252161061
 42
0.4142135623731
 10
-142.7323365601728
 20
867.7572521610609
 42
0.4142135623731
 10
-143.7323365601728
 20
866.757252161061
 42
0.4142135623731
 10
-142.7323365601728
 20
865.757252161061
 42
0.4142135623731
  0
LINE
  5
23D
330
1F
100
AcDbEntity
  8
0-F
  6
Continuous
 62
     7
370
     9
100
AcDbLine
 10
-137.7323365601728
 20
866.757252161061
 30
0.0
 11
-340.8203305873712
 21
866.757252161061
 31
0.0
  0
LINE
  5
23E
330
1F
100
AcDbEntity
  8
0-F
  6
Continuous
 62
     7
370
     9
100
AcDbLine
 10
-142.7323365601728
 20
240.5567336792679
 30
0.0
 11
-142.7323365601728
 21
732.5564268538888
 31
0.0
  0
TEXT
  5
23F
330
1F
100
AcDbEntity
  8
0-F
  6
Continuous
 62
     2
370
   211
100
AcDbText
 10
-154.3723365601742
 20
454.0565802665783
 30
0.0
 40
30.48
  1
492
 50
90.0
 41
1.083333333333333
  7
ＭＳ ゴシック
100
AcDbText
  0
TEXT
  5
240
330
1F
100
AcDbEntity
  8
0-F
  6
Continuous
 62
     2
370
   211
100
AcDbText
 10
-154.3723192393865
 20
879.4350990202115
 30
0.0
 40
30.48
  1
34
 50
90.0
 41
1.0625
  7
ＭＳ ゴシック
100
AcDbText
  0
TEXT
  5
241
330
1F
100
AcDbEntity
  8
0-F
  6
Continuous
 62
     2
370
   211
100
AcDbText
 10
-154.3723192393865
 20
48.40445146791765
 30
0.0
 40
30.48
  1
34
 50
90.0
 41
1.0625
  7
ＭＳ ゴシック
100
AcDbText
  0
LINE
  5
242
330
1F
100
AcDbEntity
  8
0-F
  6
Continuous
 62
     7
370
     9
100
AcDbLine
 10
-142.7323365601728
 20
866.757252161061
 30
0.0
 11
-142.7323365601728
 21
921.9350990202115
 31
0.0
  0
LINE
  5
243
330
1F
100
AcDbEntity
  8
0-F
  6
Continuous
 62
     7
370
     9
100
AcDbLine
 10
-142.7323365601728
 20
106.3561558119177
 30
0.0
 11
-142.7323365601728
 21
48.40445146791765
 31
0.0
  0
LINE
  5
244
330
1F
100
AcDbEntity
  8
建具
  6
Continuous
 62
     2
370
     9
100
AcDbLine
 10
-292.8202134658522
 20
820.5566676953124
 30
0.0
 11
-280.8203718273398
 21
832.5565093338251
 31
0.0
  0
LINE
  5
245
330
1F
100
AcDbEntity
  8
建具
  6
Continuous
 62
     2
370
     9
100
AcDbLine
 10
-292.8202134658522
 20
152.5564928378374
 30
0.0
 11
-280.8203718273398
 21
140.5564037595043
 31
0.0
  0
LINE
  5
246
330
1F
100
AcDbEntity
  8
建具
  6
Continuous
 62
     2
370
     9
100
AcDbLine
 10
-292.8203371857671
 20
152.5564928378374
 30
0.0
 11
-292.8203371857671
 21
820.5566676953124
 31
0.0
  0
LINE
  5
247
330
1F
100
AcDbEntity
  8
建具
  6
Continuous
 62
     2
370
     9
100
AcDbLine
 10
-280.8203718273398
 20
832.5565093338251
 30
0.0
 11
-280.8203718273398
 21
140.5564037595043
 31
0.0
  0
LINE
  5
248
330
1F
100
AcDbEntity
  8
躯体
  6
JWW_DASHED2
 62
     2
370
     9
100
AcDbLine
 10
-1626.820424614502
 20
786.5564565466668
 30
0.0
 11
-326.820300894592
 21
786.5564565466668
 31
0.0
  0
LINE
  5
249
330
1F
100
AcDbEntity
  8
躯体
  6
JWW_DASHED2
 62
     2
370
     9
100
AcDbLine
 10
-326.820300894592
 20
186.5564565466669
 30
0.0
 11
-1626.820424614502
 21
186.5564565466669
 31
0.0
  0
LINE
  5
24A
330
1F
100
AcDbEntity
  8
建具
  6
Continuous
 62
     2
370
     9
100
AcDbLine
 10
-1660.820388323327
 20
820.5566676953124
 30
0.0
 11
-292.8202134658522
 21
820.5566676953124
 31
0.0
  0
LINE
  5
24B
330
1F
100
AcDbEntity
  8
建具
  6
Continuous
 62
     2
370
     9
100
AcDbLine
 10
-1672.820353681755
 20
832.5565093338251
 30
0.0
 11
-280.8204955472502
 21
832.5565093338251
 31
0.0
  0
LINE
  5
24C
330
1F
100
AcDbEntity
  8
建具
  6
Continuous
 62
     2
370
     9
100
AcDbLine
 10
-292.8202134658522
 20
152.5564928378374
 30
0.0
 11
-1660.820388323327
 21
152.5564928378374
 31
0.0
  0
LINE
  5
24D
330
1F
100
AcDbEntity
  8
建具
  6
Continuous
 62
     2
370
     9
100
AcDbLine
 10
-280.8203718273398
 20
140.5564037595043
 30
0.0
 11
-1672.820353681755
 21
140.5564037595043
 31
0.0
  0
LINE
  5
24E
330
1F
100
AcDbEntity
  8
仕上
  6
Continuous
 62
     4
370
     9
100
AcDbLine
 10
-1647.820484000061
 20
165.5567138840823
 30
0.0
 11
-1659.820484000061
 21
153.5567138840824
 31
0.0
  0
LINE
  5
24F
330
1F
100
AcDbEntity
  8
仕上
  6
Continuous
 62
     4
370
     9
100
AcDbLine
 10
-1659.820484000061
 20
153.5567138840825
 30
0.0
 11
-1205.82048400005
 21
153.5567138840825
 31
0.0
  0
LINE
  5
250
330
1F
100
AcDbEntity
  8
仕上
  6
Continuous
 62
     4
370
     9
100
AcDbLine
 10
-1647.820484000061
 20
165.5567138840825
 30
0.0
 11
-1217.820484000049
 21
165.5567138840825
 31
0.0
  0
LINE
  5
251
330
1F
100
AcDbEntity
  8
仕上
  6
Continuous
 62
     4
370
     9
100
AcDbLine
 10
-1217.820484000049
 20
165.5567138840824
 30
0.0
 11
-1205.82048400005
 21
153.5567138840824
 31
0.0
  0
LINE
  5
252
330
1F
100
AcDbEntity
  8
仕上
  6
Continuous
 62
     4
370
     9
100
AcDbLine
 10
-1659.820484000061
 20
153.5567138840824
 30
0.0
 11
-1659.820484000061
 21
819.5565159322241
 31
0.0
  0
LINE
  5
253
330
1F
100
AcDbEntity
  8
仕上
  6
Continuous
 62
     4
370
     9
100
AcDbLine
 10
-1647.820484000061
 20
165.5567138840824
 30
0.0
 11
-1647.820484000061
 21
807.5565159322241
 31
0.0
  0
LINE
  5
254
330
1F
100
AcDbEntity
  8
仕上
  6
Continuous
 62
     4
370
     9
100
AcDbLine
 10
-1647.82048400006
 20
807.5565159322241
 30
0.0
 11
-1659.820484000061
 21
819.5565159322241
 31
0.0
  0
LINE
  5
255
330
1F
100
AcDbEntity
  8
仕上
  6
Continuous
 62
     4
370
     9
100
AcDbLine
 10
-1205.82048400005
 20
153.5567138840824
 30
0.0
 11
-1205.82048400005
 21
819.5565159322241
 31
0.0
  0
LINE
  5
256
330
1F
100
AcDbEntity
  8
仕上
  6
Continuous
 62
     4
370
     9
100
AcDbLine
 10
-1217.820484000049
 20
165.5567138840824
 30
0.0
 11
-1217.820484000049
 21
807.5565159322241
 31
0.0
  0
LINE
  5
257
330
1F
100
AcDbEntity
  8
仕上
  6
Continuous
 62
     4
370
     9
100
AcDbLine
 10
-1659.820484000061
 20
819.5565159322241
 30
0.0
 11
-1205.82048400005
 21
819.5565159322241
 31
0.0
  0
LINE
  5
258
330
1F
100
AcDbEntity
  8
仕上
  6
Continuous
 62
     4
370
     9
100
AcDbLine
 10
-1647.820484000061
 20
807.5565159322241
 30
0.0
 11
-1217.820484000049
 21
807.5565159322241
 31
0.0
  0
LINE
  5
259
330
1F
100
AcDbEntity
  8
仕上
  6
Continuous
 62
     4
370
     9
100
AcDbLine
 10
-1217.820484000051
 20
807.5565159322241
 30
0.0
 11
-1205.82048400005
 21
819.5565159322241
 31
0.0
  0
LINE
  5
25A
330
1F
100
AcDbEntity
  8
建具
  6
Continuous
 62
     4
370
     9
100
AcDbLine
 10
-1540.320484000055
 20
647.5568524503819
 30
0.0
 11
-1540.320484000055
 21
617.5568524503819
 31
0.0
  0
LINE
  5
25B
330
1F
100
AcDbEntity
  8
建具
  6
Continuous
 62
     4
370
     9
100
AcDbLine
 10
-1525.320484000055
 20
647.5568524503819
 30
0.0
 11
-1525.320484000055
 21
617.5568524503819
 31
0.0
  0
LINE
  5
25C
330
1F
100
AcDbEntity
  8
建具
  6
Continuous
 62
     4
370
     9
100
AcDbLine
 10
-1555.908939200251
 20
647.5568524503819
 30
0.0
 11
-1555.908939200251
 21
617.5568524503819
 31
0.0
  0
LINE
  5
25D
330
1F
100
AcDbEntity
  8
建具
  6
Continuous
 62
     4
370
     9
100
AcDbLine
 10
-1555.908939200251
 20
647.5568524503819
 30
0.0
 11
-1509.73202879986
 21
647.5568524503819
 31
0.0
  0
LINE
  5
25E
330
1F
100
AcDbEntity
  8
建具
  6
Continuous
 62
     4
370
     9
100
AcDbLine
 10
-1555.908939200251
 20
617.5568524503819
 30
0.0
 11
-1509.73202879986
 21
617.5568524503819
 31
0.0
  0
LINE
  5
25F
330
1F
100
AcDbEntity
  8
建具
  6
Continuous
 62
     4
370
     9
100
AcDbLine
 10
-1509.73202879986
 20
647.5568524503819
 30
0.0
 11
-1509.73202879986
 21
617.5568524503819
 31
0.0
  0
LINE
  5
260
330
1F
100
AcDbEntity
  8
建具
  6
JWW_CENTER1
 62
     4
370
     9
100
AcDbLine
 10
-1532.820484000055
 20
654.6742230558516
 30
0.0
 11
-1532.820484000055
 21
611.4351788663976
 31
0.0
  0
LINE
  5
261
330
1F
100
AcDbEntity
  8
0-C
  6
Continuous
 62
     2
370
     9
100
AcDbLine
 10
-1534.320464204863
 20
743.9586320375861
 30
0.0
 11
-1534.320464204863
 21
721.1550728631732
 31
0.0
  0
LINE
  5
262
330
1F
100
AcDbEntity
  8
0-C
  6
Continuous
 62
     2
370
     9
100
AcDbLine
 10
-1531.320256355418
 20
743.9586320375861
 30
0.0
 11
-1531.320256355418
 21
721.1550728631732
 31
0.0
  0
CIRCLE
  5
263
330
1F
100
AcDbEntity
  8
0-C
  6
Continuous
 62
     2
370
     9
100
AcDbCircle
 10
-1532.820484000055
 20
732.5568524503819
 30
0.0
 40
16.00000117276166
  0
CIRCLE
  5
264
330
1F
100
AcDbEntity
  8
0-C
  6
Continuous
 62
     2
370
     9
100
AcDbCircle
 10
-1532.820484000055
 20
732.5568524503819
 30
0.0
 40
11.50000063148705
  0
CIRCLE
  5
265
330
1F
100
AcDbEntity
  8
0-C
  6
Continuous
 62
     2
370
     9
100
AcDbCircle
 10
-1532.820484000055
 20
732.5568524503819
 30
0.0
 40
12.0000011212117
  0
LINE
  5
266
330
1F
100
AcDbEntity
  8
0-C
  6
JWW_CENTER1
 62
     2
370
     9
100
AcDbLine
 10
-1532.820360280145
 20
701.5568491511863
 30
0.0
 11
-1532.820360280145
 21
763.5568557495776
 31
0.0
  0
LINE
  5
267
330
1F
100
AcDbEntity
  8
0-C
  6
JWW_CENTER1
 62
     2
370
     9
100
AcDbLine
 10
-1563.820487299251
 20
732.5569761702968
 30
0.0
 11
-1501.82048070086
 21
732.5569761702968
 31
0.0
  0
LINE
  5
268
330
1F
100
AcDbEntity
  8
建具
  6
JWW_CENTER1
 62
     4
370
     9
100
AcDbLine
 10
-1562.229512432757
 20
632.5568524503819
 30
0.0
 11
-1503.411455567354
 21
632.5568524503819
 31
0.0
  0
LINE
  5
269
330
1F
100
AcDbEntity
  8
建具
  6
Continuous
 62
     4
370
     9
100
AcDbLine
 10
-1340.320484000055
 20
647.5568524503819
 30
0.0
 11
-1340.320484000055
 21
617.5568524503819
 31
0.0
  0
LINE
  5
26A
330
1F
100
AcDbEntity
  8
建具
  6
Continuous
 62
     4
370
     9
100
AcDbLine
 10
-1325.320484000055
 20
647.5568524503819
 30
0.0
 11
-1325.320484000055
 21
617.5568524503819
 31
0.0
  0
LINE
  5
26B
330
1F
100
AcDbEntity
  8
建具
  6
Continuous
 62
     4
370
     9
100
AcDbLine
 10
-1355.908939200251
 20
647.5568524503819
 30
0.0
 11
-1355.908939200251
 21
617.5568524503819
 31
0.0
  0
LINE
  5
26C
330
1F
100
AcDbEntity
  8
建具
  6
Continuous
 62
     4
370
     9
100
AcDbLine
 10
-1355.908939200251
 20
647.5568524503819
 30
0.0
 11
-1309.73202879986
 21
647.5568524503819
 31
0.0
  0
LINE
  5
26D
330
1F
100
AcDbEntity
  8
建具
  6
Continuous
 62
     4
370
     9
100
AcDbLine
 10
-1355.908939200251
 20
617.5568524503819
 30
0.0
 11
-1309.73202879986
 21
617.5568524503819
 31
0.0
  0
LINE
  5
26E
330
1F
100
AcDbEntity
  8
建具
  6
Continuous
 62
     4
370
     9
100
AcDbLine
 10
-1309.73202879986
 20
647.5568524503819
 30
0.0
 11
-1309.73202879986
 21
617.5568524503819
 31
0.0
  0
LINE
  5
26F
330
1F
100
AcDbEntity
  8
建具
  6
JWW_CENTER1
 62
     4
370
     9
100
AcDbLine
 10
-1332.820484000055
 20
654.6742230558516
 30
0.0
 11
-1332.820484000055
 21
611.4351788663976
 31
0.0
  0
LINE
  5
270
330
1F
100
AcDbEntity
  8
0-C
  6
Continuous
 62
     2
370
     9
100
AcDbLine
 10
-1334.320464204863
 20
743.9586320375861
 30
0.0
 11
-1334.320464204863
 21
721.1550728631732
 31
0.0
  0
LINE
  5
271
330
1F
100
AcDbEntity
  8
0-C
  6
Continuous
 62
     2
370
     9
100
AcDbLine
 10
-1331.320256355418
 20
743.9586320375861
 30
0.0
 11
-1331.320256355418
 21
721.1550728631732
 31
0.0
  0
CIRCLE
  5
272
330
1F
100
AcDbEntity
  8
0-C
  6
Continuous
 62
     2
370
     9
100
AcDbCircle
 10
-1332.820484000055
 20
732.5568524503819
 30
0.0
 40
16.00000117276166
  0
CIRCLE
  5
273
330
1F
100
AcDbEntity
  8
0-C
  6
Continuous
 62
     2
370
     9
100
AcDbCircle
 10
-1332.820484000055
 20
732.5568524503819
 30
0.0
 40
11.50000063148705
  0
CIRCLE
  5
274
330
1F
100
AcDbEntity
  8
0-C
  6
Continuous
 62
     2
370
     9
100
AcDbCircle
 10
-1332.820484000055
 20
732.5568524503819
 30
0.0
 40
12.0000011212117
  0
LINE
  5
275
330
1F
100
AcDbEntity
  8
0-C
  6
JWW_CENTER1
 62
     2
370
     9
100
AcDbLine
 10
-1332.820360280145
 20
701.5568491511863
 30
0.0
 11
-1332.820360280145
 21
763.5568557495776
 31
0.0
  0
LINE
  5
276
330
1F
100
AcDbEntity
  8
0-C
  6
JWW_CENTER1
 62
     2
370
     9
100
AcDbLine
 10
-1363.820487299251
 20
732.5569761702968
 30
0.0
 11
-1301.82048070086
 21
732.5569761702968
 31
0.0
  0
LINE
  5
277
330
1F
100
AcDbEntity
  8
建具
  6
JWW_CENTER1
 62
     4
370
     9
100
AcDbLine
 10
-1362.229512432757
 20
632.5568524503819
 30
0.0
 11
-1303.411455567354
 21
632.5568524503819
 31
0.0
  0
LINE
  5
278
330
1F
100
AcDbEntity
  8
建具
  6
Continuous
 62
     4
370
     9
100
AcDbLine
 10
-1540.320484000055
 20
325.5563773659247
 30
0.0
 11
-1540.320484000055
 21
355.5563773659247
 31
0.0
  0
LINE
  5
279
330
1F
100
AcDbEntity
  8
建具
  6
Continuous
 62
     4
370
     9
100
AcDbLine
 10
-1525.320484000055
 20
325.5563773659247
 30
0.0
 11
-1525.320484000055
 21
355.5563773659247
 31
0.0
  0
LINE
  5
27A
330
1F
100
AcDbEntity
  8
建具
  6
Continuous
 62
     4
370
     9
100
AcDbLine
 10
-1555.908939200251
 20
325.5563773659247
 30
0.0
 11
-1555.908939200251
 21
355.5563773659247
 31
0.0
  0
LINE
  5
27B
330
1F
100
AcDbEntity
  8
建具
  6
Continuous
 62
     4
370
     9
100
AcDbLine
 10
-1555.908939200251
 20
325.5563773659247
 30
0.0
 11
-1509.73202879986
 21
325.5563773659247
 31
0.0
  0
LINE
  5
27C
330
1F
100
AcDbEntity
  8
建具
  6
Continuous
 62
     4
370
     9
100
AcDbLine
 10
-1555.908939200251
 20
355.5563773659247
 30
0.0
 11
-1509.73202879986
 21
355.5563773659247
 31
0.0
  0
LINE
  5
27D
330
1F
100
AcDbEntity
  8
建具
  6
Continuous
 62
     4
370
     9
100
AcDbLine
 10
-1509.73202879986
 20
325.5563773659247
 30
0.0
 11
-1509.73202879986
 21
355.5563773659247
 31
0.0
  0
LINE
  5
27E
330
1F
100
AcDbEntity
  8
建具
  6
JWW_CENTER1
 62
     4
370
     9
100
AcDbLine
 10
-1532.820484000055
 20
318.4390067604551
 30
0.0
 11
-1532.820484000055
 21
361.6780509499091
 31
0.0
  0
LINE
  5
27F
330
1F
100
AcDbEntity
  8
0-C
  6
Continuous
 62
     2
370
     9
100
AcDbLine
 10
-1534.320464204863
 20
229.1545977787206
 30
0.0
 11
-1534.320464204863
 21
251.9581569531334
 31
0.0
  0
LINE
  5
280
330
1F
100
AcDbEntity
  8
0-C
  6
Continuous
 62
     2
370
     9
100
AcDbLine
 10
-1531.320256355418
 20
229.1545977787206
 30
0.0
 11
-1531.320256355418
 21
251.9581569531334
 31
0.0
  0
CIRCLE
  5
281
330
1F
100
AcDbEntity
  8
0-C
  6
Continuous
 62
     2
370
     9
100
AcDbCircle
 10
-1532.820484000055
 20
240.5563773659247
 30
0.0
 40
16.00000117276166
  0
CIRCLE
  5
282
330
1F
100
AcDbEntity
  8
0-C
  6
Continuous
 62
     2
370
     9
100
AcDbCircle
 10
-1532.820484000055
 20
240.5563773659247
 30
0.0
 40
11.50000063148704
  0
CIRCLE
  5
283
330
1F
100
AcDbEntity
  8
0-C
  6
Continuous
 62
     2
370
     9
100
AcDbCircle
 10
-1532.820484000055
 20
240.5563773659247
 30
0.0
 40
12.00000112121169
  0
LINE
  5
284
330
1F
100
AcDbEntity
  8
0-C
  6
JWW_CENTER1
 62
     2
370
     9
100
AcDbLine
 10
-1532.820360280145
 20
271.5563806651204
 30
0.0
 11
-1532.820360280145
 21
209.5563740667291
 31
0.0
  0
LINE
  5
285
330
1F
100
AcDbEntity
  8
0-C
  6
JWW_CENTER1
 62
     2
370
     9
100
AcDbLine
 10
-1563.820487299251
 20
240.5562536460098
 30
0.0
 11
-1501.82048070086
 21
240.5562536460098
 31
0.0
  0
LINE
  5
286
330
1F
100
AcDbEntity
  8
建具
  6
JWW_CENTER1
 62
     4
370
     9
100
AcDbLine
 10
-1562.229512432757
 20
340.5563773659247
 30
0.0
 11
-1503.411455567354
 21
340.5563773659247
 31
0.0
  0
LINE
  5
287
330
1F
100
AcDbEntity
  8
建具
  6
Continuous
 62
     4
370
     9
100
AcDbLine
 10
-1340.320484000055
 20
325.5563773659247
 30
0.0
 11
-1340.320484000055
 21
355.5563773659247
 31
0.0
  0
LINE
  5
288
330
1F
100
AcDbEntity
  8
建具
  6
Continuous
 62
     4
370
     9
100
AcDbLine
 10
-1325.320484000055
 20
325.5563773659247
 30
0.0
 11
-1325.320484000055
 21
355.5563773659247
 31
0.0
  0
LINE
  5
289
330
1F
100
AcDbEntity
  8
建具
  6
Continuous
 62
     4
370
     9
100
AcDbLine
 10
-1355.908939200251
 20
325.5563773659247
 30
0.0
 11
-1355.908939200251
 21
355.5563773659247
 31
0.0
  0
LINE
  5
28A
330
1F
100
AcDbEntity
  8
建具
  6
Continuous
 62
     4
370
     9
100
AcDbLine
 10
-1355.908939200251
 20
325.5563773659247
 30
0.0
 11
-1309.73202879986
 21
325.5563773659247
 31
0.0
  0
LINE
  5
28B
330
1F
100
AcDbEntity
  8
建具
  6
Continuous
 62
     4
370
     9
100
AcDbLine
 10
-1355.908939200251
 20
355.5563773659247
 30
0.0
 11
-1309.73202879986
 21
355.5563773659247
 31
0.0
  0
LINE
  5
28C
330
1F
100
AcDbEntity
  8
建具
  6
Continuous
 62
     4
370
     9
100
AcDbLine
 10
-1309.73202879986
 20
325.5563773659247
 30
0.0
 11
-1309.73202879986
 21
355.5563773659247
 31
0.0
  0
LINE
  5
28D
330
1F
100
AcDbEntity
  8
建具
  6
JWW_CENTER1
 62
     4
370
     9
100
AcDbLine
 10
-1332.820484000055
 20
318.4390067604551
 30
0.0
 11
-1332.820484000055
 21
361.6780509499091
 31
0.0
  0
LINE
  5
28E
330
1F
100
AcDbEntity
  8
0-C
  6
Continuous
 62
     2
370
     9
100
AcDbLine
 10
-1334.320464204863
 20
229.1545977787206
 30
0.0
 11
-1334.320464204863
 21
251.9581569531334
 31
0.0
  0
LINE
  5
28F
330
1F
100
AcDbEntity
  8
0-C
  6
Continuous
 62
     2
370
     9
100
AcDbLine
 10
-1331.320256355418
 20
229.1545977787206
 30
0.0
 11
-1331.320256355418
 21
251.9581569531334
 31
0.0
  0
CIRCLE
  5
290
330
1F
100
AcDbEntity
  8
0-C
  6
Continuous
 62
     2
370
     9
100
AcDbCircle
 10
-1332.820484000055
 20
240.5563773659247
 30
0.0
 40
16.00000117276166
  0
CIRCLE
  5
291
330
1F
100
AcDbEntity
  8
0-C
  6
Continuous
 62
     2
370
     9
100
AcDbCircle
 10
-1332.820484000055
 20
240.5563773659247
 30
0.0
 40
11.50000063148704
  0
CIRCLE
  5
292
330
1F
100
AcDbEntity
  8
0-C
  6
Continuous
 62
     2
370
     9
100
AcDbCircle
 10
-1332.820484000055
 20
240.5563773659247
 30
0.0
 40
12.00000112121169
  0
LINE
  5
293
330
1F
100
AcDbEntity
  8
0-C
  6
JWW_CENTER1
 62
     2
370
     9
100
AcDbLine
 10
-1332.820360280145
 20
271.5563806651204
 30
0.0
 11
-1332.820360280145
 21
209.5563740667291
 31
0.0
  0
LINE
  5
294
330
1F
100
AcDbEntity
  8
0-C
  6
JWW_CENTER1
 62
     2
370
     9
100
AcDbLine
 10
-1363.820487299251
 20
240.5562536460098
 30
0.0
 11
-1301.82048070086
 21
240.5562536460098
 31
0.0
  0
LINE
  5
295
330
1F
100
AcDbEntity
  8
建具
  6
JWW_CENTER1
 62
     4
370
     9
100
AcDbLine
 10
-1362.229512432757
 20
340.5563773659247
 30
0.0
 11
-1303.411455567354
 21
340.5563773659247
 31
0.0
  0
LINE
  5
296
330
1F
100
AcDbEntity
  8
仕上
  6
Continuous
 62
     4
370
     9
100
AcDbLine
 10
-1191.820484000061
 20
165.5567138840823
 30
0.0
 11
-1203.820484000061
 21
153.5567138840824
 31
0.0
  0
LINE
  5
297
330
1F
100
AcDbEntity
  8
仕上
  6
Continuous
 62
     4
370
     9
100
AcDbLine
 10
-1203.820484000061
 20
153.5567138840825
 30
0.0
 11
-749.8204840000496
 21
153.5567138840825
 31
0.0
  0
LINE
  5
298
330
1F
100
AcDbEntity
  8
仕上
  6
Continuous
 62
     4
370
     9
100
AcDbLine
 10
-1191.820484000061
 20
165.5567138840825
 30
0.0
 11
-761.8204840000496
 21
165.5567138840825
 31
0.0
  0
LINE
  5
299
330
1F
100
AcDbEntity
  8
仕上
  6
Continuous
 62
     4
370
     9
100
AcDbLine
 10
-761.8204840000496
 20
165.5567138840824
 30
0.0
 11
-749.8204840000496
 21
153.5567138840824
 31
0.0
  0
LINE
  5
29A
330
1F
100
AcDbEntity
  8
仕上
  6
Continuous
 62
     4
370
     9
100
AcDbLine
 10
-1203.820484000061
 20
153.5567138840824
 30
0.0
 11
-1203.820484000061
 21
819.5565159322241
 31
0.0
  0
LINE
  5
29B
330
1F
100
AcDbEntity
  8
仕上
  6
Continuous
 62
     4
370
     9
100
AcDbLine
 10
-1191.820484000061
 20
165.5567138840824
 30
0.0
 11
-1191.820484000061
 21
807.5565159322241
 31
0.0
  0
LINE
  5
29C
330
1F
100
AcDbEntity
  8
仕上
  6
Continuous
 62
     4
370
     9
100
AcDbLine
 10
-1191.82048400006
 20
807.5565159322241
 30
0.0
 11
-1203.820484000061
 21
819.5565159322241
 31
0.0
  0
LINE
  5
29D
330
1F
100
AcDbEntity
  8
仕上
  6
Continuous
 62
     4
370
     9
100
AcDbLine
 10
-749.8204840000496
 20
153.5567138840824
 30
0.0
 11
-749.8204840000496
 21
819.5565159322241
 31
0.0
  0
LINE
  5
29E
330
1F
100
AcDbEntity
  8
仕上
  6
Continuous
 62
     4
370
     9
100
AcDbLine
 10
-761.8204840000496
 20
165.5567138840824
 30
0.0
 11
-761.8204840000496
 21
807.5565159322241
 31
0.0
  0
LINE
  5
29F
330
1F
100
AcDbEntity
  8
仕上
  6
Continuous
 62
     4
370
     9
100
AcDbLine
 10
-1203.820484000061
 20
819.5565159322241
 30
0.0
 11
-749.8204840000496
 21
819.5565159322241
 31
0.0
  0
LINE
  5
2A0
330
1F
100
AcDbEntity
  8
仕上
  6
Continuous
 62
     4
370
     9
100
AcDbLine
 10
-1191.820484000061
 20
807.5565159322241
 30
0.0
 11
-761.8204840000496
 21
807.5565159322241
 31
0.0
  0
LINE
  5
2A1
330
1F
100
AcDbEntity
  8
仕上
  6
Continuous
 62
     4
370
     9
100
AcDbLine
 10
-761.8204840000508
 20
807.5565159322241
 30
0.0
 11
-749.8204840000496
 21
819.5565159322241
 31
0.0
  0
LINE
  5
2A2
330
1F
100
AcDbEntity
  8
建具
  6
Continuous
 62
     4
370
     9
100
AcDbLine
 10
-1084.320484000055
 20
647.5568524503819
 30
0.0
 11
-1084.320484000055
 21
617.5568524503819
 31
0.0
  0
LINE
  5
2A3
330
1F
100
AcDbEntity
  8
建具
  6
Continuous
 62
     4
370
     9
100
AcDbLine
 10
-1069.320484000055
 20
647.5568524503819
 30
0.0
 11
-1069.320484000055
 21
617.5568524503819
 31
0.0
  0
LINE
  5
2A4
330
1F
100
AcDbEntity
  8
建具
  6
Continuous
 62
     4
370
     9
100
AcDbLine
 10
-1099.908939200251
 20
647.5568524503819
 30
0.0
 11
-1099.908939200251
 21
617.5568524503819
 31
0.0
  0
LINE
  5
2A5
330
1F
100
AcDbEntity
  8
建具
  6
Continuous
 62
     4
370
     9
100
AcDbLine
 10
-1099.908939200251
 20
647.5568524503819
 30
0.0
 11
-1053.73202879986
 21
647.5568524503819
 31
0.0
  0
LINE
  5
2A6
330
1F
100
AcDbEntity
  8
建具
  6
Continuous
 62
     4
370
     9
100
AcDbLine
 10
-1099.908939200251
 20
617.5568524503819
 30
0.0
 11
-1053.73202879986
 21
617.5568524503819
 31
0.0
  0
LINE
  5
2A7
330
1F
100
AcDbEntity
  8
建具
  6
Continuous
 62
     4
370
     9
100
AcDbLine
 10
-1053.73202879986
 20
647.5568524503819
 30
0.0
 11
-1053.73202879986
 21
617.5568524503819
 31
0.0
  0
LINE
  5
2A8
330
1F
100
AcDbEntity
  8
建具
  6
JWW_CENTER1
 62
     4
370
     9
100
AcDbLine
 10
-1076.820484000055
 20
654.6742230558516
 30
0.0
 11
-1076.820484000055
 21
611.4351788663976
 31
0.0
  0
LINE
  5
2A9
330
1F
100
AcDbEntity
  8
0-C
  6
Continuous
 62
     2
370
     9
100
AcDbLine
 10
-1078.320464204863
 20
743.9586320375861
 30
0.0
 11
-1078.320464204863
 21
721.1550728631732
 31
0.0
  0
LINE
  5
2AA
330
1F
100
AcDbEntity
  8
0-C
  6
Continuous
 62
     2
370
     9
100
AcDbLine
 10
-1075.320256355418
 20
743.9586320375861
 30
0.0
 11
-1075.320256355418
 21
721.1550728631732
 31
0.0
  0
CIRCLE
  5
2AB
330
1F
100
AcDbEntity
  8
0-C
  6
Continuous
 62
     2
370
     9
100
AcDbCircle
 10
-1076.820484000055
 20
732.5568524503819
 30
0.0
 40
16.00000117276166
  0
CIRCLE
  5
2AC
330
1F
100
AcDbEntity
  8
0-C
  6
Continuous
 62
     2
370
     9
100
AcDbCircle
 10
-1076.820484000055
 20
732.5568524503819
 30
0.0
 40
11.50000063148705
  0
CIRCLE
  5
2AD
330
1F
100
AcDbEntity
  8
0-C
  6
Continuous
 62
     2
370
     9
100
AcDbCircle
 10
-1076.820484000055
 20
732.5568524503819
 30
0.0
 40
12.0000011212117
  0
LINE
  5
2AE
330
1F
100
AcDbEntity
  8
0-C
  6
JWW_CENTER1
 62
     2
370
     9
100
AcDbLine
 10
-1076.820360280145
 20
701.5568491511863
 30
0.0
 11
-1076.820360280145
 21
763.5568557495776
 31
0.0
  0
LINE
  5
2AF
330
1F
100
AcDbEntity
  8
0-C
  6
JWW_CENTER1
 62
     2
370
     9
100
AcDbLine
 10
-1107.820487299251
 20
732.5569761702968
 30
0.0
 11
-1045.82048070086
 21
732.5569761702968
 31
0.0
  0
LINE
  5
2B0
330
1F
100
AcDbEntity
  8
建具
  6
JWW_CENTER1
 62
     4
370
     9
100
AcDbLine
 10
-1106.229512432757
 20
632.5568524503819
 30
0.0
 11
-1047.411455567354
 21
632.5568524503819
 31
0.0
  0
LINE
  5
2B1
330
1F
100
AcDbEntity
  8
建具
  6
Continuous
 62
     4
370
     9
100
AcDbLine
 10
-884.3204840000553
 20
647.5568524503819
 30
0.0
 11
-884.3204840000553
 21
617.5568524503819
 31
0.0
  0
LINE
  5
2B2
330
1F
100
AcDbEntity
  8
建具
  6
Continuous
 62
     4
370
     9
100
AcDbLine
 10
-869.3204840000553
 20
647.5568524503819
 30
0.0
 11
-869.3204840000553
 21
617.5568524503819
 31
0.0
  0
LINE
  5
2B3
330
1F
100
AcDbEntity
  8
建具
  6
Continuous
 62
     4
370
     9
100
AcDbLine
 10
-899.9089392002506
 20
647.5568524503819
 30
0.0
 11
-899.9089392002506
 21
617.5568524503819
 31
0.0
  0
LINE
  5
2B4
330
1F
100
AcDbEntity
  8
建具
  6
Continuous
 62
     4
370
     9
100
AcDbLine
 10
-899.9089392002506
 20
647.5568524503819
 30
0.0
 11
-853.73202879986
 21
647.5568524503819
 31
0.0
  0
LINE
  5
2B5
330
1F
100
AcDbEntity
  8
建具
  6
Continuous
 62
     4
370
     9
100
AcDbLine
 10
-899.9089392002506
 20
617.5568524503819
 30
0.0
 11
-853.73202879986
 21
617.5568524503819
 31
0.0
  0
LINE
  5
2B6
330
1F
100
AcDbEntity
  8
建具
  6
Continuous
 62
     4
370
     9
100
AcDbLine
 10
-853.73202879986
 20
647.5568524503819
 30
0.0
 11
-853.73202879986
 21
617.5568524503819
 31
0.0
  0
LINE
  5
2B7
330
1F
100
AcDbEntity
  8
建具
  6
JWW_CENTER1
 62
     4
370
     9
100
AcDbLine
 10
-876.8204840000553
 20
654.6742230558516
 30
0.0
 11
-876.8204840000553
 21
611.4351788663976
 31
0.0
  0
LINE
  5
2B8
330
1F
100
AcDbEntity
  8
0-C
  6
Continuous
 62
     2
370
     9
100
AcDbLine
 10
-878.3204642048631
 20
743.9586320375861
 30
0.0
 11
-878.3204642048631
 21
721.1550728631732
 31
0.0
  0
LINE
  5
2B9
330
1F
100
AcDbEntity
  8
0-C
  6
Continuous
 62
     2
370
     9
100
AcDbLine
 10
-875.3202563554178
 20
743.9586320375861
 30
0.0
 11
-875.3202563554178
 21
721.1550728631732
 31
0.0
  0
CIRCLE
  5
2BA
330
1F
100
AcDbEntity
  8
0-C
  6
Continuous
 62
     2
370
     9
100
AcDbCircle
 10
-876.8204840000553
 20
732.5568524503819
 30
0.0
 40
16.00000117276166
  0
CIRCLE
  5
2BB
330
1F
100
AcDbEntity
  8
0-C
  6
Continuous
 62
     2
370
     9
100
AcDbCircle
 10
-876.8204840000553
 20
732.5568524503819
 30
0.0
 40
11.50000063148705
  0
CIRCLE
  5
2BC
330
1F
100
AcDbEntity
  8
0-C
  6
Continuous
 62
     2
370
     9
100
AcDbCircle
 10
-876.8204840000553
 20
732.5568524503819
 30
0.0
 40
12.0000011212117
  0
LINE
  5
2BD
330
1F
100
AcDbEntity
  8
0-C
  6
JWW_CENTER1
 62
     2
370
     9
100
AcDbLine
 10
-876.820360280145
 20
701.5568491511863
 30
0.0
 11
-876.820360280145
 21
763.5568557495776
 31
0.0
  0
LINE
  5
2BE
330
1F
100
AcDbEntity
  8
0-C
  6
JWW_CENTER1
 62
     2
370
     9
100
AcDbLine
 10
-907.820487299251
 20
732.5569761702968
 30
0.0
 11
-845.8204807008597
 21
732.5569761702968
 31
0.0
  0
LINE
  5
2BF
330
1F
100
AcDbEntity
  8
建具
  6
JWW_CENTER1
 62
     4
370
     9
100
AcDbLine
 10
-906.2295124327566
 20
632.5568524503819
 30
0.0
 11
-847.4114555673541
 21
632.5568524503819
 31
0.0
  0
LINE
  5
2C0
330
1F
100
AcDbEntity
  8
建具
  6
Continuous
 62
     4
370
     9
100
AcDbLine
 10
-1084.320484000055
 20
325.5563773659247
 30
0.0
 11
-1084.320484000055
 21
355.5563773659247
 31
0.0
  0
LINE
  5
2C1
330
1F
100
AcDbEntity
  8
建具
  6
Continuous
 62
     4
370
     9
100
AcDbLine
 10
-1069.320484000055
 20
325.5563773659247
 30
0.0
 11
-1069.320484000055
 21
355.5563773659247
 31
0.0
  0
LINE
  5
2C2
330
1F
100
AcDbEntity
  8
建具
  6
Continuous
 62
     4
370
     9
100
AcDbLine
 10
-1099.908939200251
 20
325.5563773659247
 30
0.0
 11
-1099.908939200251
 21
355.5563773659247
 31
0.0
  0
LINE
  5
2C3
330
1F
100
AcDbEntity
  8
建具
  6
Continuous
 62
     4
370
     9
100
AcDbLine
 10
-1099.908939200251
 20
325.5563773659247
 30
0.0
 11
-1053.73202879986
 21
325.5563773659247
 31
0.0
  0
LINE
  5
2C4
330
1F
100
AcDbEntity
  8
建具
  6
Continuous
 62
     4
370
     9
100
AcDbLine
 10
-1099.908939200251
 20
355.5563773659247
 30
0.0
 11
-1053.73202879986
 21
355.5563773659247
 31
0.0
  0
LINE
  5
2C5
330
1F
100
AcDbEntity
  8
建具
  6
Continuous
 62
     4
370
     9
100
AcDbLine
 10
-1053.73202879986
 20
325.5563773659247
 30
0.0
 11
-1053.73202879986
 21
355.5563773659247
 31
0.0
  0
LINE
  5
2C6
330
1F
100
AcDbEntity
  8
建具
  6
JWW_CENTER1
 62
     4
370
     9
100
AcDbLine
 10
-1076.820484000055
 20
318.4390067604551
 30
0.0
 11
-1076.820484000055
 21
361.6780509499091
 31
0.0
  0
LINE
  5
2C7
330
1F
100
AcDbEntity
  8
0-C
  6
Continuous
 62
     2
370
     9
100
AcDbLine
 10
-1078.320464204863
 20
229.1545977787206
 30
0.0
 11
-1078.320464204863
 21
251.9581569531334
 31
0.0
  0
LINE
  5
2C8
330
1F
100
AcDbEntity
  8
0-C
  6
Continuous
 62
     2
370
     9
100
AcDbLine
 10
-1075.320256355418
 20
229.1545977787206
 30
0.0
 11
-1075.320256355418
 21
251.9581569531334
 31
0.0
  0
CIRCLE
  5
2C9
330
1F
100
AcDbEntity
  8
0-C
  6
Continuous
 62
     2
370
     9
100
AcDbCircle
 10
-1076.820484000055
 20
240.5563773659247
 30
0.0
 40
16.00000117276166
  0
CIRCLE
  5
2CA
330
1F
100
AcDbEntity
  8
0-C
  6
Continuous
 62
     2
370
     9
100
AcDbCircle
 10
-1076.820484000055
 20
240.5563773659247
 30
0.0
 40
11.50000063148704
  0
CIRCLE
  5
2CB
330
1F
100
AcDbEntity
  8
0-C
  6
Continuous
 62
     2
370
     9
100
AcDbCircle
 10
-1076.820484000055
 20
240.5563773659247
 30
0.0
 40
12.00000112121169
  0
LINE
  5
2CC
330
1F
100
AcDbEntity
  8
0-C
  6
JWW_CENTER1
 62
     2
370
     9
100
AcDbLine
 10
-1076.820360280145
 20
271.5563806651204
 30
0.0
 11
-1076.820360280145
 21
209.5563740667291
 31
0.0
  0
LINE
  5
2CD
330
1F
100
AcDbEntity
  8
0-C
  6
JWW_CENTER1
 62
     2
370
     9
100
AcDbLine
 10
-1107.820487299251
 20
240.5562536460098
 30
0.0
 11
-1045.82048070086
 21
240.5562536460098
 31
0.0
  0
LINE
  5
2CE
330
1F
100
AcDbEntity
  8
建具
  6
JWW_CENTER1
 62
     4
370
     9
100
AcDbLine
 10
-1106.229512432757
 20
340.5563773659247
 30
0.0
 11
-1047.411455567354
 21
340.5563773659247
 31
0.0
  0
LINE
  5
2CF
330
1F
100
AcDbEntity
  8
建具
  6
Continuous
 62
     4
370
     9
100
AcDbLine
 10
-884.3204840000553
 20
325.5563773659247
 30
0.0
 11
-884.3204840000553
 21
355.5563773659247
 31
0.0
  0
LINE
  5
2D0
330
1F
100
AcDbEntity
  8
建具
  6
Continuous
 62
     4
370
     9
100
AcDbLine
 10
-869.3204840000553
 20
325.5563773659247
 30
0.0
 11
-869.3204840000553
 21
355.5563773659247
 31
0.0
  0
LINE
  5
2D1
330
1F
100
AcDbEntity
  8
建具
  6
Continuous
 62
     4
370
     9
100
AcDbLine
 10
-899.9089392002506
 20
325.5563773659247
 30
0.0
 11
-899.9089392002506
 21
355.5563773659247
 31
0.0
  0
LINE
  5
2D2
330
1F
100
AcDbEntity
  8
建具
  6
Continuous
 62
     4
370
     9
100
AcDbLine
 10
-899.9089392002506
 20
325.5563773659247
 30
0.0
 11
-853.73202879986
 21
325.5563773659247
 31
0.0
  0
LINE
  5
2D3
330
1F
100
AcDbEntity
  8
建具
  6
Continuous
 62
     4
370
     9
100
AcDbLine
 10
-899.9089392002506
 20
355.5563773659247
 30
0.0
 11
-853.73202879986
 21
355.5563773659247
 31
0.0
  0
LINE
  5
2D4
330
1F
100
AcDbEntity
  8
建具
  6
Continuous
 62
     4
370
     9
100
AcDbLine
 10
-853.73202879986
 20
325.5563773659247
 30
0.0
 11
-853.73202879986
 21
355.5563773659247
 31
0.0
  0
LINE
  5
2D5
330
1F
100
AcDbEntity
  8
建具
  6
JWW_CENTER1
 62
     4
370
     9
100
AcDbLine
 10
-876.8204840000553
 20
318.4390067604551
 30
0.0
 11
-876.8204840000553
 21
361.6780509499091
 31
0.0
  0
LINE
  5
2D6
330
1F
100
AcDbEntity
  8
0-C
  6
Continuous
 62
     2
370
     9
100
AcDbLine
 10
-878.3204642048631
 20
229.1545977787206
 30
0.0
 11
-878.3204642048631
 21
251.9581569531334
 31
0.0
  0
LINE
  5
2D7
330
1F
100
AcDbEntity
  8
0-C
  6
Continuous
 62
     2
370
     9
100
AcDbLine
 10
-875.3202563554178
 20
229.1545977787206
 30
0.0
 11
-875.3202563554178
 21
251.9581569531334
 31
0.0
  0
CIRCLE
  5
2D8
330
1F
100
AcDbEntity
  8
0-C
  6
Continuous
 62
     2
370
     9
100
AcDbCircle
 10
-876.8204840000553
 20
240.5563773659247
 30
0.0
 40
16.00000117276166
  0
CIRCLE
  5
2D9
330
1F
100
AcDbEntity
  8
0-C
  6
Continuous
 62
     2
370
     9
100
AcDbCircle
 10
-876.8204840000553
 20
240.5563773659247
 30
0.0
 40
11.50000063148704
  0
CIRCLE
  5
2DA
330
1F
100
AcDbEntity
  8
0-C
  6
Continuous
 62
     2
370
     9
100
AcDbCircle
 10
-876.8204840000553
 20
240.5563773659247
 30
0.0
 40
12.00000112121169
  0
LINE
  5
2DB
330
1F
100
AcDbEntity
  8
0-C
  6
JWW_CENTER1
 62
     2
370
     9
100
AcDbLine
 10
-876.820360280145
 20
271.5563806651204
 30
0.0
 11
-876.820360280145
 21
209.5563740667291
 31
0.0
  0
LINE
  5
2DC
330
1F
100
AcDbEntity
  8
0-C
  6
JWW_CENTER1
 62
     2
370
     9
100
AcDbLine
 10
-907.820487299251
 20
240.5562536460098
 30
0.0
 11
-845.8204807008597
 21
240.5562536460098
 31
0.0
  0
LINE
  5
2DD
330
1F
100
AcDbEntity
  8
建具
  6
JWW_CENTER1
 62
     4
370
     9
100
AcDbLine
 10
-906.2295124327566
 20
340.5563773659247
 30
0.0
 11
-847.4114555673541
 21
340.5563773659247
 31
0.0
  0
LINE
  5
2DE
330
1F
100
AcDbEntity
  8
仕上
  6
Continuous
 62
     4
370
     9
100
AcDbLine
 10
-735.820484000061
 20
165.5567138840823
 30
0.0
 11
-747.8204840000609
 21
153.5567138840824
 31
0.0
  0
LINE
  5
2DF
330
1F
100
AcDbEntity
  8
仕上
  6
Continuous
 62
     4
370
     9
100
AcDbLine
 10
-747.8204840000609
 20
153.5567138840825
 30
0.0
 11
-293.8204840000498
 21
153.5567138840825
 31
0.0
  0
LINE
  5
2E0
330
1F
100
AcDbEntity
  8
仕上
  6
Continuous
 62
     4
370
     9
100
AcDbLine
 10
-735.820484000061
 20
165.5567138840825
 30
0.0
 11
-305.8204840000496
 21
165.5567138840825
 31
0.0
  0
LINE
  5
2E1
330
1F
100
AcDbEntity
  8
仕上
  6
Continuous
 62
     4
370
     9
100
AcDbLine
 10
-305.8204840000496
 20
165.5567138840824
 30
0.0
 11
-293.8204840000498
 21
153.5567138840824
 31
0.0
  0
LINE
  5
2E2
330
1F
100
AcDbEntity
  8
仕上
  6
Continuous
 62
     4
370
     9
100
AcDbLine
 10
-747.8204840000609
 20
153.5567138840824
 30
0.0
 11
-747.8204840000609
 21
819.5565159322241
 31
0.0
  0
LINE
  5
2E3
330
1F
100
AcDbEntity
  8
仕上
  6
Continuous
 62
     4
370
     9
100
AcDbLine
 10
-735.820484000061
 20
165.5567138840824
 30
0.0
 11
-735.820484000061
 21
807.5565159322241
 31
0.0
  0
LINE
  5
2E4
330
1F
100
AcDbEntity
  8
仕上
  6
Continuous
 62
     4
370
     9
100
AcDbLine
 10
-735.8204840000599
 20
807.5565159322241
 30
0.0
 11
-747.8204840000609
 21
819.5565159322241
 31
0.0
  0
LINE
  5
2E5
330
1F
100
AcDbEntity
  8
仕上
  6
Continuous
 62
     4
370
     9
100
AcDbLine
 10
-293.8204840000498
 20
153.5567138840824
 30
0.0
 11
-293.8204840000498
 21
819.5565159322241
 31
0.0
  0
LINE
  5
2E6
330
1F
100
AcDbEntity
  8
仕上
  6
Continuous
 62
     4
370
     9
100
AcDbLine
 10
-305.8204840000496
 20
165.5567138840824
 30
0.0
 11
-305.8204840000496
 21
807.5565159322241
 31
0.0
  0
LINE
  5
2E7
330
1F
100
AcDbEntity
  8
仕上
  6
Continuous
 62
     4
370
     9
100
AcDbLine
 10
-747.8204840000609
 20
819.5565159322241
 30
0.0
 11
-293.8204840000498
 21
819.5565159322241
 31
0.0
  0
LINE
  5
2E8
330
1F
100
AcDbEntity
  8
仕上
  6
Continuous
 62
     4
370
     9
100
AcDbLine
 10
-735.820484000061
 20
807.5565159322241
 30
0.0
 11
-305.8204840000496
 21
807.5565159322241
 31
0.0
  0
LINE
  5
2E9
330
1F
100
AcDbEntity
  8
仕上
  6
Continuous
 62
     4
370
     9
100
AcDbLine
 10
-305.8204840000508
 20
807.5565159322241
 30
0.0
 11
-293.8204840000498
 21
819.5565159322241
 31
0.0
  0
LINE
  5
2EA
330
1F
100
AcDbEntity
  8
建具
  6
Continuous
 62
     4
370
     9
100
AcDbLine
 10
-628.3204840000553
 20
647.5568524503819
 30
0.0
 11
-628.3204840000553
 21
617.5568524503819
 31
0.0
  0
LINE
  5
2EB
330
1F
100
AcDbEntity
  8
建具
  6
Continuous
 62
     4
370
     9
100
AcDbLine
 10
-613.3204840000553
 20
647.5568524503819
 30
0.0
 11
-613.3204840000553
 21
617.5568524503819
 31
0.0
  0
LINE
  5
2EC
330
1F
100
AcDbEntity
  8
建具
  6
Continuous
 62
     4
370
     9
100
AcDbLine
 10
-643.9089392002506
 20
647.5568524503819
 30
0.0
 11
-643.9089392002506
 21
617.5568524503819
 31
0.0
  0
LINE
  5
2ED
330
1F
100
AcDbEntity
  8
建具
  6
Continuous
 62
     4
370
     9
100
AcDbLine
 10
-643.9089392002506
 20
647.5568524503819
 30
0.0
 11
-597.73202879986
 21
647.5568524503819
 31
0.0
  0
LINE
  5
2EE
330
1F
100
AcDbEntity
  8
建具
  6
Continuous
 62
     4
370
     9
100
AcDbLine
 10
-643.9089392002506
 20
617.5568524503819
 30
0.0
 11
-597.73202879986
 21
617.5568524503819
 31
0.0
  0
LINE
  5
2EF
330
1F
100
AcDbEntity
  8
建具
  6
Continuous
 62
     4
370
     9
100
AcDbLine
 10
-597.73202879986
 20
647.5568524503819
 30
0.0
 11
-597.73202879986
 21
617.5568524503819
 31
0.0
  0
LINE
  5
2F0
330
1F
100
AcDbEntity
  8
建具
  6
JWW_CENTER1
 62
     4
370
     9
100
AcDbLine
 10
-620.8204840000553
 20
654.6742230558516
 30
0.0
 11
-620.8204840000553
 21
611.4351788663976
 31
0.0
  0
LINE
  5
2F1
330
1F
100
AcDbEntity
  8
0-C
  6
Continuous
 62
     2
370
     9
100
AcDbLine
 10
-622.3204642048631
 20
743.9586320375861
 30
0.0
 11
-622.3204642048631
 21
721.1550728631732
 31
0.0
  0
LINE
  5
2F2
330
1F
100
AcDbEntity
  8
0-C
  6
Continuous
 62
     2
370
     9
100
AcDbLine
 10
-619.3202563554178
 20
743.9586320375861
 30
0.0
 11
-619.3202563554178
 21
721.1550728631732
 31
0.0
  0
CIRCLE
  5
2F3
330
1F
100
AcDbEntity
  8
0-C
  6
Continuous
 62
     2
370
     9
100
AcDbCircle
 10
-620.8204840000553
 20
732.5568524503819
 30
0.0
 40
16.00000117276166
  0
CIRCLE
  5
2F4
330
1F
100
AcDbEntity
  8
0-C
  6
Continuous
 62
     2
370
     9
100
AcDbCircle
 10
-620.8204840000553
 20
732.5568524503819
 30
0.0
 40
11.50000063148705
  0
CIRCLE
  5
2F5
330
1F
100
AcDbEntity
  8
0-C
  6
Continuous
 62
     2
370
     9
100
AcDbCircle
 10
-620.8204840000553
 20
732.5568524503819
 30
0.0
 40
12.0000011212117
  0
LINE
  5
2F6
330
1F
100
AcDbEntity
  8
0-C
  6
JWW_CENTER1
 62
     2
370
     9
100
AcDbLine
 10
-620.820360280145
 20
701.5568491511863
 30
0.0
 11
-620.820360280145
 21
763.5568557495776
 31
0.0
  0
LINE
  5
2F7
330
1F
100
AcDbEntity
  8
0-C
  6
JWW_CENTER1
 62
     2
370
     9
100
AcDbLine
 10
-651.820487299251
 20
732.5569761702968
 30
0.0
 11
-589.8204807008597
 21
732.5569761702968
 31
0.0
  0
LINE
  5
2F8
330
1F
100
AcDbEntity
  8
建具
  6
JWW_CENTER1
 62
     4
370
     9
100
AcDbLine
 10
-650.2295124327566
 20
632.5568524503819
 30
0.0
 11
-591.4114555673541
 21
632.5568524503819
 31
0.0
  0
LINE
  5
2F9
330
1F
100
AcDbEntity
  8
建具
  6
Continuous
 62
     4
370
     9
100
AcDbLine
 10
-428.3204840000553
 20
647.5568524503819
 30
0.0
 11
-428.3204840000553
 21
617.5568524503819
 31
0.0
  0
LINE
  5
2FA
330
1F
100
AcDbEntity
  8
建具
  6
Continuous
 62
     4
370
     9
100
AcDbLine
 10
-413.3204840000553
 20
647.5568524503819
 30
0.0
 11
-413.3204840000553
 21
617.5568524503819
 31
0.0
  0
LINE
  5
2FB
330
1F
100
AcDbEntity
  8
建具
  6
Continuous
 62
     4
370
     9
100
AcDbLine
 10
-443.9089392002506
 20
647.5568524503819
 30
0.0
 11
-443.9089392002506
 21
617.5568524503819
 31
0.0
  0
LINE
  5
2FC
330
1F
100
AcDbEntity
  8
建具
  6
Continuous
 62
     4
370
     9
100
AcDbLine
 10
-443.9089392002506
 20
647.5568524503819
 30
0.0
 11
-397.73202879986
 21
647.5568524503819
 31
0.0
  0
LINE
  5
2FD
330
1F
100
AcDbEntity
  8
建具
  6
Continuous
 62
     4
370
     9
100
AcDbLine
 10
-443.9089392002506
 20
617.5568524503819
 30
0.0
 11
-397.73202879986
 21
617.5568524503819
 31
0.0
  0
LINE
  5
2FE
330
1F
100
AcDbEntity
  8
建具
  6
Continuous
 62
     4
370
     9
100
AcDbLine
 10
-397.73202879986
 20
647.5568524503819
 30
0.0
 11
-397.73202879986
 21
617.5568524503819
 31
0.0
  0
LINE
  5
2FF
330
1F
100
AcDbEntity
  8
建具
  6
JWW_CENTER1
 62
     4
370
     9
100
AcDbLine
 10
-420.8204840000553
 20
654.6742230558516
 30
0.0
 11
-420.8204840000553
 21
611.4351788663976
 31
0.0
  0
LINE
  5
300
330
1F
100
AcDbEntity
  8
0-C
  6
Continuous
 62
     2
370
     9
100
AcDbLine
 10
-422.3204642048631
 20
743.9586320375861
 30
0.0
 11
-422.3204642048631
 21
721.1550728631732
 31
0.0
  0
LINE
  5
301
330
1F
100
AcDbEntity
  8
0-C
  6
Continuous
 62
     2
370
     9
100
AcDbLine
 10
-419.3202563554178
 20
743.9586320375861
 30
0.0
 11
-419.3202563554178
 21
721.1550728631732
 31
0.0
  0
CIRCLE
  5
302
330
1F
100
AcDbEntity
  8
0-C
  6
Continuous
 62
     2
370
     9
100
AcDbCircle
 10
-420.8204840000553
 20
732.5568524503819
 30
0.0
 40
16.00000117276166
  0
CIRCLE
  5
303
330
1F
100
AcDbEntity
  8
0-C
  6
Continuous
 62
     2
370
     9
100
AcDbCircle
 10
-420.8204840000553
 20
732.5568524503819
 30
0.0
 40
11.50000063148705
  0
CIRCLE
  5
304
330
1F
100
AcDbEntity
  8
0-C
  6
Continuous
 62
     2
370
     9
100
AcDbCircle
 10
-420.8204840000553
 20
732.5568524503819
 30
0.0
 40
12.0000011212117
  0
LINE
  5
305
330
1F
100
AcDbEntity
  8
0-C
  6
JWW_CENTER1
 62
     2
370
     9
100
AcDbLine
 10
-420.820360280145
 20
701.5568491511863
 30
0.0
 11
-420.820360280145
 21
763.5568557495776
 31
0.0
  0
LINE
  5
306
330
1F
100
AcDbEntity
  8
0-C
  6
JWW_CENTER1
 62
     2
370
     9
100
AcDbLine
 10
-451.820487299251
 20
732.5569761702968
 30
0.0
 11
-389.8204807008597
 21
732.5569761702968
 31
0.0
  0
LINE
  5
307
330
1F
100
AcDbEntity
  8
建具
  6
JWW_CENTER1
 62
     4
370
     9
100
AcDbLine
 10
-450.2295124327566
 20
632.5568524503819
 30
0.0
 11
-391.4114555673541
 21
632.5568524503819
 31
0.0
  0
LINE
  5
308
330
1F
100
AcDbEntity
  8
建具
  6
Continuous
 62
     4
370
     9
100
AcDbLine
 10
-628.3204840000553
 20
325.5563773659247
 30
0.0
 11
-628.3204840000553
 21
355.5563773659247
 31
0.0
  0
LINE
  5
309
330
1F
100
AcDbEntity
  8
建具
  6
Continuous
 62
     4
370
     9
100
AcDbLine
 10
-613.3204840000553
 20
325.5563773659247
 30
0.0
 11
-613.3204840000553
 21
355.5563773659247
 31
0.0
  0
LINE
  5
30A
330
1F
100
AcDbEntity
  8
建具
  6
Continuous
 62
     4
370
     9
100
AcDbLine
 10
-643.9089392002506
 20
325.5563773659247
 30
0.0
 11
-643.9089392002506
 21
355.5563773659247
 31
0.0
  0
LINE
  5
30B
330
1F
100
AcDbEntity
  8
建具
  6
Continuous
 62
     4
370
     9
100
AcDbLine
 10
-643.9089392002506
 20
325.5563773659247
 30
0.0
 11
-597.73202879986
 21
325.5563773659247
 31
0.0
  0
LINE
  5
30C
330
1F
100
AcDbEntity
  8
建具
  6
Continuous
 62
     4
370
     9
100
AcDbLine
 10
-643.9089392002506
 20
355.5563773659247
 30
0.0
 11
-597.73202879986
 21
355.5563773659247
 31
0.0
  0
LINE
  5
30D
330
1F
100
AcDbEntity
  8
建具
  6
Continuous
 62
     4
370
     9
100
AcDbLine
 10
-597.73202879986
 20
325.5563773659247
 30
0.0
 11
-597.73202879986
 21
355.5563773659247
 31
0.0
  0
LINE
  5
30E
330
1F
100
AcDbEntity
  8
建具
  6
JWW_CENTER1
 62
     4
370
     9
100
AcDbLine
 10
-620.8204840000553
 20
318.4390067604551
 30
0.0
 11
-620.8204840000553
 21
361.6780509499091
 31
0.0
  0
LINE
  5
30F
330
1F
100
AcDbEntity
  8
0-C
  6
Continuous
 62
     2
370
     9
100
AcDbLine
 10
-622.3204642048631
 20
229.1545977787206
 30
0.0
 11
-622.3204642048631
 21
251.9581569531334
 31
0.0
  0
LINE
  5
310
330
1F
100
AcDbEntity
  8
0-C
  6
Continuous
 62
     2
370
     9
100
AcDbLine
 10
-619.3202563554178
 20
229.1545977787206
 30
0.0
 11
-619.3202563554178
 21
251.9581569531334
 31
0.0
  0
CIRCLE
  5
311
330
1F
100
AcDbEntity
  8
0-C
  6
Continuous
 62
     2
370
     9
100
AcDbCircle
 10
-620.8204840000553
 20
240.5563773659247
 30
0.0
 40
16.00000117276166
  0
CIRCLE
  5
312
330
1F
100
AcDbEntity
  8
0-C
  6
Continuous
 62
     2
370
     9
100
AcDbCircle
 10
-620.8204840000553
 20
240.5563773659247
 30
0.0
 40
11.50000063148704
  0
CIRCLE
  5
313
330
1F
100
AcDbEntity
  8
0-C
  6
Continuous
 62
     2
370
     9
100
AcDbCircle
 10
-620.8204840000553
 20
240.5563773659247
 30
0.0
 40
12.00000112121169
  0
LINE
  5
314
330
1F
100
AcDbEntity
  8
0-C
  6
JWW_CENTER1
 62
     2
370
     9
100
AcDbLine
 10
-620.820360280145
 20
271.5563806651204
 30
0.0
 11
-620.820360280145
 21
209.5563740667291
 31
0.0
  0
LINE
  5
315
330
1F
100
AcDbEntity
  8
0-C
  6
JWW_CENTER1
 62
     2
370
     9
100
AcDbLine
 10
-651.820487299251
 20
240.5562536460098
 30
0.0
 11
-589.8204807008597
 21
240.5562536460098
 31
0.0
  0
LINE
  5
316
330
1F
100
AcDbEntity
  8
建具
  6
JWW_CENTER1
 62
     4
370
     9
100
AcDbLine
 10
-650.2295124327566
 20
340.5563773659247
 30
0.0
 11
-591.4114555673541
 21
340.5563773659247
 31
0.0
  0
LINE
  5
317
330
1F
100
AcDbEntity
  8
建具
  6
Continuous
 62
     4
370
     9
100
AcDbLine
 10
-428.3204840000553
 20
325.5563773659247
 30
0.0
 11
-428.3204840000553
 21
355.5563773659247
 31
0.0
  0
LINE
  5
318
330
1F
100
AcDbEntity
  8
建具
  6
Continuous
 62
     4
370
     9
100
AcDbLine
 10
-413.3204840000553
 20
325.5563773659247
 30
0.0
 11
-413.3204840000553
 21
355.5563773659247
 31
0.0
  0
LINE
  5
319
330
1F
100
AcDbEntity
  8
建具
  6
Continuous
 62
     4
370
     9
100
AcDbLine
 10
-443.9089392002506
 20
325.5563773659247
 30
0.0
 11
-443.9089392002506
 21
355.5563773659247
 31
0.0
  0
LINE
  5
31A
330
1F
100
AcDbEntity
  8
建具
  6
Continuous
 62
     4
370
     9
100
AcDbLine
 10
-443.9089392002506
 20
325.5563773659247
 30
0.0
 11
-397.73202879986
 21
325.5563773659247
 31
0.0
  0
LINE
  5
31B
330
1F
100
AcDbEntity
  8
建具
  6
Continuous
 62
     4
370
     9
100
AcDbLine
 10
-443.9089392002506
 20
355.5563773659247
 30
0.0
 11
-397.73202879986
 21
355.5563773659247
 31
0.0
  0
LINE
  5
31C
330
1F
100
AcDbEntity
  8
建具
  6
Continuous
 62
     4
370
     9
100
AcDbLine
 10
-397.73202879986
 20
325.5563773659247
 30
0.0
 11
-397.73202879986
 21
355.5563773659247
 31
0.0
  0
LINE
  5
31D
330
1F
100
AcDbEntity
  8
建具
  6
JWW_CENTER1
 62
     4
370
     9
100
AcDbLine
 10
-420.8204840000553
 20
318.4390067604551
 30
0.0
 11
-420.8204840000553
 21
361.6780509499091
 31
0.0
  0
LINE
  5
31E
330
1F
100
AcDbEntity
  8
0-C
  6
Continuous
 62
     2
370
     9
100
AcDbLine
 10
-422.3204642048631
 20
229.1545977787206
 30
0.0
 11
-422.3204642048631
 21
251.9581569531334
 31
0.0
  0
LINE
  5
31F
330
1F
100
AcDbEntity
  8
0-C
  6
Continuous
 62
     2
370
     9
100
AcDbLine
 10
-419.3202563554178
 20
229.1545977787206
 30
0.0
 11
-419.3202563554178
 21
251.9581569531334
 31
0.0
  0
CIRCLE
  5
320
330
1F
100
AcDbEntity
  8
0-C
  6
Continuous
 62
     2
370
     9
100
AcDbCircle
 10
-420.8204840000553
 20
240.5563773659247
 30
0.0
 40
16.00000117276166
  0
CIRCLE
  5
321
330
1F
100
AcDbEntity
  8
0-C
  6
Continuous
 62
     2
370
     9
100
AcDbCircle
 10
-420.8204840000553
 20
240.5563773659247
 30
0.0
 40
11.50000063148704
  0
CIRCLE
  5
322
330
1F
100
AcDbEntity
  8
0-C
  6
Continuous
 62
     2
370
     9
100
AcDbCircle
 10
-420.8204840000553
 20
240.5563773659247
 30
0.0
 40
12.00000112121169
  0
LINE
  5
323
330
1F
100
AcDbEntity
  8
0-C
  6
JWW_CENTER1
 62
     2
370
     9
100
AcDbLine
 10
-420.820360280145
 20
271.5563806651204
 30
0.0
 11
-420.820360280145
 21
209.5563740667291
 31
0.0
  0
LINE
  5
324
330
1F
100
AcDbEntity
  8
0-C
  6
JWW_CENTER1
 62
     2
370
     9
100
AcDbLine
 10
-451.820487299251
 20
240.5562536460098
 30
0.0
 11
-389.8204807008597
 21
240.5562536460098
 31
0.0
  0
LINE
  5
325
330
1F
100
AcDbEntity
  8
建具
  6
JWW_CENTER1
 62
     4
370
     9
100
AcDbLine
 10
-450.2295124327566
 20
340.5563773659247
 30
0.0
 11
-391.4114555673541
 21
340.5563773659247
 31
0.0
  0
LINE
  5
326
330
1F
100
AcDbEntity
  8
0-F
  6
Continuous
 62
     7
370
     9
100
AcDbLine
 10
-1659.820484000061
 20
1032.556426853889
 30
0.0
 11
-1205.82048400005
 21
1032.556426853889
 31
0.0
  0
LWPOLYLINE
  5
327
330
1F
100
AcDbEntity
  8
0-F
  6
Continuous
 62
     7
370
     9
100
AcDbPolyline
 90
        4
 70
     1
 43
2.0
 10
-1204.82048400005
 20
1032.556426853889
 42
0.4142135623731
 10
-1205.82048400005
 20
1033.556426853889
 42
0.4142135623731
 10
-1206.82048400005
 20
1032.556426853889
 42
0.4142135623731
 10
-1205.82048400005
 20
1031.556426853889
 42
0.4142135623731
  0
TEXT
  5
328
330
1F
100
AcDbEntity
  8
0-F
  6
Continuous
 62
     2
370
   211
100
AcDbText
 10
-1465.320484000055
 20
1043.196426853889
 30
0.0
 40
30.48
  1
454
 41
1.083333333333333
  7
ＭＳ ゴシック
100
AcDbText
  0
LINE
  5
329
330
1F
100
AcDbEntity
  8
0-F
  6
Continuous
 62
     7
370
     9
100
AcDbLine
 10
-1205.82048400005
 20
1032.556426853889
 30
0.0
 11
-1203.820484000061
 21
1032.556426853889
 31
0.0
  0
LWPOLYLINE
  5
32A
330
1F
100
AcDbEntity
  8
0-F
  6
Continuous
 62
     7
370
     9
100
AcDbPolyline
 90
        4
 70
     1
 43
2.0
 10
-1202.820484000061
 20
1032.556426853889
 42
0.4142135623731
 10
-1203.820484000061
 20
1033.556426853889
 42
0.4142135623731
 10
-1204.820484000061
 20
1032.556426853889
 42
0.4142135623731
 10
-1203.820484000061
 20
1031.556426853889
 42
0.4142135623731
  0
TEXT
  5
32B
330
1F
100
AcDbEntity
  8
0-F
  6
Continuous
 62
     2
370
   211
100
AcDbText
 10
-1214.820484000055
 20
1043.196426853889
 30
0.0
 40
30.48
  1
2
 41
0.9999999999999998
  7
ＭＳ ゴシック
100
AcDbText
  0
LINE
  5
32C
330
1F
100
AcDbEntity
  8
0-F
  6
Continuous
 62
     7
370
     9
100
AcDbLine
 10
-1203.820484000061
 20
1032.556426853889
 30
0.0
 11
-749.8204840000496
 21
1032.556426853889
 31
0.0
  0
LWPOLYLINE
  5
32D
330
1F
100
AcDbEntity
  8
0-F
  6
Continuous
 62
     7
370
     9
100
AcDbPolyline
 90
        4
 70
     1
 43
2.0
 10
-748.8204840000498
 20
1032.556426853889
 42
0.4142135623731
 10
-749.8204840000496
 20
1033.556426853889
 42
0.4142135623731
 10
-750.8204840000496
 20
1032.556426853889
 42
0.4142135623731
 10
-749.8204840000496
 20
1031.556426853889
 42
0.4142135623731
  0
TEXT
  5
32E
330
1F
100
AcDbEntity
  8
0-F
  6
Continuous
 62
     2
370
   211
100
AcDbText
 10
-1009.320484000055
 20
1043.196426853889
 30
0.0
 40
30.48
  1
454
 41
1.083333333333333
  7
ＭＳ ゴシック
100
AcDbText
  0
LINE
  5
32F
330
1F
100
AcDbEntity
  8
0-F
  6
Continuous
 62
     7
370
     9
100
AcDbLine
 10
-749.8204840000496
 20
1032.556426853889
 30
0.0
 11
-747.8204840000609
 21
1032.556426853889
 31
0.0
  0
LWPOLYLINE
  5
330
330
1F
100
AcDbEntity
  8
0-F
  6
Continuous
 62
     7
370
     9
100
AcDbPolyline
 90
        4
 70
     1
 43
2.0
 10
-746.820484000061
 20
1032.556426853889
 42
0.4142135623731
 10
-747.8204840000609
 20
1033.556426853889
 42
0.4142135623731
 10
-748.8204840000608
 20
1032.556426853889
 42
0.4142135623731
 10
-747.8204840000609
 20
1031.556426853889
 42
0.4142135623731
  0
TEXT
  5
331
330
1F
100
AcDbEntity
  8
0-F
  6
Continuous
 62
     2
370
   211
100
AcDbText
 10
-758.8204840000553
 20
1043.196426853889
 30
0.0
 40
30.48
  1
2
 41
0.9999999999999998
  7
ＭＳ ゴシック
100
AcDbText
  0
LINE
  5
332
330
1F
100
AcDbEntity
  8
0-F
  6
Continuous
 62
     7
370
     9
100
AcDbLine
 10
-747.8204840000609
 20
1032.556426853889
 30
0.0
 11
-293.820365228944
 21
1032.556426853889
 31
0.0
  0
TEXT
  5
333
330
1F
100
AcDbEntity
  8
0-F
  6
Continuous
 62
     2
370
   211
100
AcDbText
 10
-553.3204246145024
 20
1043.196426853889
 30
0.0
 40
30.48
  1
454
 41
1.083333333333333
  7
ＭＳ ゴシック
100
AcDbText
  0
LINE
  5
334
330
1F
100
AcDbEntity
  8
0-F
  6
Continuous
 62
     7
370
     9
100
AcDbLine
 10
-1205.82048400005
 20
1035.556426853889
 30
0.0
 11
-1205.82048400005
 21
967.8395434316468
 31
0.0
  0
LINE
  5
335
330
1F
100
AcDbEntity
  8
0-F
  6
Continuous
 62
     7
370
     9
100
AcDbLine
 10
-1203.820484000061
 20
1035.556426853889
 30
0.0
 11
-1203.820484000061
 21
967.8395434316468
 31
0.0
  0
LINE
  5
336
330
1F
100
AcDbEntity
  8
0-F
  6
Continuous
 62
     7
370
     9
100
AcDbLine
 10
-749.8204840000496
 20
1035.556426853889
 30
0.0
 11
-749.8204840000496
 21
967.8395434316468
 31
0.0
  0
LINE
  5
337
330
1F
100
AcDbEntity
  8
0-F
  6
Continuous
 62
     7
370
     9
100
AcDbLine
 10
-747.8204840000609
 20
1035.556426853889
 30
0.0
 11
-747.8204840000609
 21
967.8395434316468
 31
0.0
  0
LWPOLYLINE
  5
338
330
1F
100
AcDbEntity
  8
0-F
  6
Continuous
 62
     7
370
     9
100
AcDbPolyline
 90
        4
 70
     1
 43
2.0
 10
-1531.820360280145
 20
559.2550760339873
 42
0.4142135623731
 10
-1532.820360280145
 20
560.2550760339873
 42
0.4142135623731
 10
-1533.820360280145
 20
559.2550760339873
 42
0.4142135623731
 10
-1532.820360280145
 20
558.2550760339873
 42
0.4142135623731
  0
LINE
  5
339
330
1F
100
AcDbEntity
  8
0-F
  6
Continuous
 62
     7
370
     9
100
AcDbLine
 10
-1532.820360280145
 20
556.2550760339877
 30
0.0
 11
-1532.820360280145
 21
681.5568491511863
 31
0.0
  0
LINE
  5
33A
330
1F
100
AcDbEntity
  8
0-F
  6
Continuous
 62
     7
370
     9
100
AcDbLine
 10
-1417.466755132973
 20
832.5563575707372
 30
0.0
 11
-1417.466755132973
 21
732.5567287304671
 31
0.0
  0
LWPOLYLINE
  5
33B
330
1F
100
AcDbEntity
  8
0-F
  6
Continuous
 62
     7
370
     9
100
AcDbPolyline
 90
        4
 70
     1
 43
2.0
 10
-1416.466755132973
 20
832.5563575707372
 42
0.4142135623731
 10
-1417.466755132973
 20
833.5563575707372
 42
0.4142135623731
 10
-1418.466755132972
 20
832.5563575707372
 42
0.4142135623731
 10
-1417.466755132973
 20
831.5563575707372
 42
0.4142135623731
  0
LWPOLYLINE
  5
33C
330
1F
100
AcDbEntity
  8
0-F
  6
Continuous
 62
     7
370
     9
100
AcDbPolyline
 90
        4
 70
     1
 43
2.0
 10
-1416.466755132973
 20
732.5567287304671
 42
0.4142135623731
 10
-1417.466755132973
 20
733.5567287304671
 42
0.4142135623731
 10
-1418.466755132972
 20
732.5567287304671
 42
0.4142135623731
 10
-1417.466755132973
 20
731.5567287304671
 42
0.4142135623731
  0
TEXT
  5
33D
330
1F
100
AcDbEntity
  8
0-F
  6
Continuous
 62
     2
370
   211
100
AcDbText
 10
-1428.106755132973
 20
736.5678218459914
 30
0.0
 40
30.48
  1
100
 50
90.0
 41
1.083333333333333
  7
ＭＳ ゴシック
100
AcDbText
  0
LINE
  5
33E
330
1F
100
AcDbEntity
  8
0-F
  6
Continuous
 62
     7
370
     9
100
AcDbLine
 10
-1414.466755132973
 20
732.5567287304671
 30
0.0
 11
-1486.64297001618
 21
732.5567287304671
 31
0.0
  0
LWPOLYLINE
  5
33F
330
1F
100
AcDbEntity
  8
0-F
  6
Continuous
 62
     7
370
     9
100
AcDbPolyline
 90
        4
 70
     1
 43
2.0
 10
-1331.820360280145
 20
559.2550760339873
 42
0.4142135623731
 10
-1332.820360280145
 20
560.2550760339873
 42
0.4142135623731
 10
-1333.820360280145
 20
559.2550760339873
 42
0.4142135623731
 10
-1332.820360280145
 20
558.2550760339873
 42
0.4142135623731
  0
LINE
  5
340
330
1F
100
AcDbEntity
  8
0-F
  6
Continuous
 62
     7
370
     9
100
AcDbLine
 10
-1332.820360280145
 20
556.2550760339877
 30
0.0
 11
-1332.820360280145
 21
681.5568491511863
 31
0.0
  0
LINE
  5
341
330
1F
100
AcDbEntity
  8
寸法
  6
Continuous
 62
     4
370
     9
100
AcDbLine
 10
-618.8203602801445
 20
568.2490745649068
 30
0.0
 11
-594.0342387457986
 21
571.5122293704087
 31
0.0
  0
LINE
  5
342
330
1F
100
AcDbEntity
  8
寸法
  6
Continuous
 62
     4
370
     9
100
AcDbLine
 10
-618.8203602801445
 20
568.2490745649068
 30
0.0
 11
-594.0342387457986
 21
564.985919759406
 31
0.0
  0
LINE
  5
343
330
1F
100
AcDbEntity
  8
寸法
  6
Continuous
 62
     4
370
     9
100
AcDbLine
 10
-618.8203602801445
 20
568.2490745649068
 30
0.0
 11
-571.3549575882075
 21
568.2490745649068
 31
0.0
  0
LINE
  5
344
330
1F
100
AcDbEntity
  8
寸法
  6
JWW_CENTER1
 62
     4
370
     9
100
AcDbLine
 10
-620.820360280145
 20
568.2490745649068
 30
0.0
 11
-620.820360280145
 21
883.3730870287252
 31
0.0
  0
LINE
  5
345
330
1F
100
AcDbEntity
  8
寸法
  6
Continuous
 62
     4
370
     9
100
AcDbLine
 10
-618.8203602801445
 20
903.3730870287252
 30
0.0
 11
-594.0342387457986
 21
906.636241834226
 31
0.0
  0
LINE
  5
346
330
1F
100
AcDbEntity
  8
寸法
  6
Continuous
 62
     4
370
     9
100
AcDbLine
 10
-618.8203602801445
 20
903.3730870287252
 30
0.0
 11
-594.0342387457986
 21
900.1099322232233
 31
0.0
  0
LINE
  5
347
330
1F
100
AcDbEntity
  8
寸法
  6
Continuous
 62
     4
370
     9
100
AcDbLine
 10
-618.8203602801445
 20
903.3730870287252
 30
0.0
 11
-571.3549575882075
 21
903.3730870287252
 31
0.0
  0
TEXT
  5
348
330
1F
100
AcDbEntity
  8
寸法
  6
Continuous
 62
     2
370
     9
100
AcDbText
 10
-563.7895094038663
 20
888.6175293455589
 30
0.0
 40
30.48
  1
A
 41
0.9999999999999998
  7
ＭＳ ゴシック
100
AcDbText
  0
TEXT
  5
349
330
1F
100
AcDbEntity
  8
寸法
  6
Continuous
 62
     2
370
     9
100
AcDbText
 10
-563.7895094038663
 20
553.4935168817404
 30
0.0
 40
30.48
  1
A
 41
0.9999999999999998
  7
ＭＳ ゴシック
100
AcDbText
  0
TEXT
  5
34A
330
1F
100
AcDbEntity
  8
F-Fﾚｲﾔ
  6
Continuous
 62
     2
370
     9
100
AcDbText
 10
-2158.770859680577
 20
-1586.037173756577
 30
0.0
 40
30.48
  1
約65kg/枚
 41
1.097222222222222
  7
ＭＳ ゴシック
100
AcDbText
  0
TEXT
  5
34B
330
1F
100
AcDbEntity
  8
F-Fﾚｲﾔ
  6
Continuous
 62
     2
370
     9
100
AcDbText
 10
-2158.770859680577
 20
-1496.036887654282
 30
0.0
 40
30.48
  1
129kg/組
 41
1.09375
  7
ＭＳ ゴシック
100
AcDbText
  0
LINE
  5
34C
330
1F
100
AcDbEntity
  8
D-F
  6
Continuous
 62
     7
370
     9
100
AcDbLine
 10
2096.394999014137
 20
90.26967563283357
 30
0.0
 11
2096.394999014137
 21
676.2701376493633
 31
0.0
  0
TEXT
  5
34D
330
1F
100
AcDbEntity
  8
D-F
  6
Continuous
 62
     2
370
   211
100
AcDbText
 10
2084.755078194881
 20
328.2699066410984
 30
0.0
 40
30.48
  1
117.2
 50
90.0
 41
1.1
  7
ＭＳ ゴシック
100
AcDbText
  0
LINE
  5
34E
330
1F
100
AcDbEntity
  8
D-F
  6
Continuous
 62
     7
370
     9
100
AcDbLine
 10
412.6284839067193
 20
676.2703389004516
 30
0.0
 11
412.6284839067193
 21
121.2703389004334
 31
0.0
  0
TEXT
  5
34F
330
1F
100
AcDbEntity
  8
D-F
  6
Continuous
 62
     2
370
   211
100
AcDbText
 10
401.9884839067194
 20
366.2703389004425
 30
0.0
 40
30.48
  1
111
 50
90.0
 41
1.083333333333333
  7
ＭＳ ゴシック
100
AcDbText
  0
LINE
  5
350
330
1F
100
AcDbEntity
  8
D-F
  6
Continuous
 62
     7
370
     9
100
AcDbLine
 10
514.3156088927208
 20
121.2703389004334
 30
0.0
 11
514.3156088927208
 21
446.2703389004334
 31
0.0
  0
TEXT
  5
351
330
1F
100
AcDbEntity
  8
D-F
  6
Continuous
 62
     2
370
   211
100
AcDbText
 10
503.6756088927208
 20
262.5203389004334
 30
0.0
 40
30.48
  1
65
 50
90.0
 41
1.0625
  7
ＭＳ ゴシック
100
AcDbText
  0
LINE
  5
352
330
1F
100
AcDbEntity
  8
0-F
  6
Continuous
 62
     7
370
     9
100
AcDbLine
 10
-1572.820001487044
 20
-20.81036179157124
 30
0.0
 11
-976.8204246144978
 21
-20.81036179157124
 31
0.0
  0
TEXT
  5
353
330
1F
100
AcDbEntity
  8
0-F
  6
Continuous
 62
     2
370
   211
100
AcDbText
 10
-1307.320213050771
 20
-10.17036179157124
 30
0.0
 40
30.48
  1
596
 41
1.083333333333333
  7
ＭＳ ゴシック
100
AcDbText
  0
LINE
  5
354
330
1F
100
AcDbEntity
  8
0-F
  6
Continuous
 62
     7
370
     9
100
AcDbLine
 10
-976.8204246144978
 20
-20.81036179157124
 30
0.0
 11
-380.8186999535769
 21
-20.81036179157124
 31
0.0
  0
TEXT
  5
355
330
1F
100
AcDbEntity
  8
0-F
  6
Continuous
 62
     2
370
   211
100
AcDbText
 10
-711.3195622840374
 20
-10.17036179157124
 30
0.0
 40
30.48
  1
596
 41
1.083333333333333
  7
ＭＳ ゴシック
100
AcDbText
  0
LINE
  5
356
330
1F
100
AcDbEntity
  8
0-F
  6
Continuous
 62
     7
370
     9
100
AcDbLine
 10
-1672.820477401665
 20
1122.556723781675
 30
0.0
 11
-280.8203718273398
 21
1122.556723781675
 31
0.0
  0
TEXT
  5
357
330
1F
100
AcDbEntity
  8
0-F
  6
Continuous
 62
     2
370
   211
100
AcDbText
 10
-1020.570424614502
 20
1134.196723781676
 30
0.0
 40
30.48
  1
1392
 41
1.09375
  7
ＭＳ ゴシック
100
AcDbText
  0
LINE
  5
358
330
1F
100
AcDbEntity
  8
0-F
  6
Continuous
 62
     7
370
     9
100
AcDbLine
 10
-1626.820424614502
 20
942.5556350464568
 30
0.0
 11
-326.8204246145024
 21
942.5556350464568
 31
0.0
  0
TEXT
  5
359
330
1F
100
AcDbEntity
  8
0-F
  6
Continuous
 62
     2
370
   211
100
AcDbText
 10
-1020.570424614502
 20
954.1956350464559
 30
0.0
 40
30.48
  1
1300
 41
1.09375
  7
ＭＳ ゴシック
100
AcDbText
  0
LINE
  5
35A
330
1F
100
AcDbEntity
  8
0-F
  6
Continuous
 62
     7
370
     9
100
AcDbLine
 10
-1532.820360280145
 20
559.2550760339873
 30
0.0
 11
-1332.820360280145
 21
559.2550760339873
 31
0.0
  0
TEXT
  5
35B
330
1F
100
AcDbEntity
  8
0-F
  6
Continuous
 62
     2
370
   211
100
AcDbText
 10
-1465.320360280145
 20
569.8950760339873
 30
0.0
 40
30.48
  1
200
 41
1.083333333333333
  7
ＭＳ ゴシック
100
AcDbText
  0
ENDSEC
  0
SECTION
  2
OBJECTS
  0
DICTIONARY
  5
C
330
0
100
AcDbDictionary
281
     1
  3
ACAD_DETAILVIEWSTYLE
350
3A1
  3
ACAD_GROUP
350
D
  3
ACAD_LAYOUT
350
1A
  3
ACAD_MATERIAL
350
43
  3
ACAD_MLEADERSTYLE
350
6B
  3
ACAD_MLINESTYLE
350
17
  3
ACAD_PLOTSETTINGS
350
19
  3
ACAD_PLOTSTYLENAME
350
E
  3
ACAD_SCALELIST
350
47
  3
ACAD_SECTIONVIEWSTYLE
350
3A2
  3
ACAD_TABLESTYLE
350
69
  3
ACAD_VISUALSTYLE
350
2A
  3
ACDB_RECOMPOSE_DATA
350
39E
  3
AcDbVariableDictionary
350
35E
  0
DICTIONARY
  5
35C
330
8
100
AcDbDictionary
280
     1
281
     1
  3
ACAD_XREC_ROUNDTRIP
360
35D
  0
DICTIONARY
  5
3A1
102
{ACAD_REACTORS
330
C
102
}
330
C
100
AcDbDictionary
281
     1
  0
DICTIONARY
  5
D
102
{ACAD_REACTORS
330
C
102
}
330
C
100
AcDbDictionary
281
     1
  0
DICTIONARY
  5
1A
102
{ACAD_REACTORS
330
C
102
}
330
C
100
AcDbDictionary
281
     1
  3
Layout1
350
1E
  3
Layout2
350
26
  3
Model
350
22
  0
DICTIONARY
  5
43
102
{ACAD_REACTORS
330
C
102
}
330
C
100
AcDbDictionary
281
     1
  3
ByBlock
350
45
  3
ByLayer
350
44
  3
Global
350
46
  0
DICTIONARY
  5
6B
102
{ACAD_REACTORS
330
C
102
}
330
C
100
AcDbDictionary
281
     1
  3
Standard
350
6C
  0
DICTIONARY
  5
17
102
{ACAD_REACTORS
330
C
102
}
330
C
100
AcDbDictionary
281
     1
  3
Standard
350
18
  0
DICTIONARY
  5
19
102
{ACAD_REACTORS
330
C
102
}
330
C
100
AcDbDictionary
281
     1
  0
ACDBDICTIONARYWDFLT
  5
E
102
{ACAD_REACTORS
330
C
102
}
330
C
100
AcDbDictionary
281
     1
  3
Normal
350
F
100
AcDbDictionaryWithDefault
340
F
  0
DICTIONARY
  5
47
102
{ACAD_REACTORS
330
C
102
}
330
C
100
AcDbDictionary
281
     1
  3
A0
350
48
  3
A1
350
49
  3
A2
350
4A
  3
A3
350
4B
  3
A4
350
4C
  3
A5
350
4D
  3
A6
350
4E
  3
A7
350
4F
  3
A8
350
50
  3
A9
350
51
  3
B0
350
52
  3
B1
350
53
  3
B2
350
54
  3
B3
350
55
  3
B4
350
56
  3
B5
350
57
  3
B6
350
58
  3
B7
350
59
  3
B8
350
5A
  3
B9
350
5B
  3
C0
350
5C
  3
C1
350
5D
  3
C2
350
5E
  3
C3
350
5F
  3
C4
350
60
  3
C5
350
61
  3
C6
350
62
  3
C7
350
63
  3
C8
350
64
  3
C9
350
65
  3
D0
350
66
  3
D1
350
67
  3
D2
350
68
  0
DICTIONARY
  5
3A2
102
{ACAD_REACTORS
330
C
102
}
330
C
100
AcDbDictionary
281
     1
  0
DICTIONARY
  5
69
102
{ACAD_REACTORS
330
C
102
}
330
C
100
AcDbDictionary
281
     1
  3
Standard
350
6A
  0
DICTIONARY
  5
2A
102
{ACAD_REACTORS
330
C
102
}
330
C
100
AcDbDictionary
281
     1
  3
2dWireframe
350
2F
  3
Basic
350
32
  3
Brighten
350
36
  3
ColorChange
350
3A
  3
Conceptual
350
34
  3
Dim
350
35
  3
EdgeColorOff
350
3D
  3
Facepattern
350
39
  3
Flat
350
2B
  3
FlatWithEdges
350
2C
  3
Gouraud
350
2D
  3
GouraudWithEdges
350
2E
  3
Hidden
350
31
  3
JitterOff
350
3B
  3
Linepattern
350
38
  3
OverhangOff
350
3C
  3
Realistic
350
33
  3
Shaded
350
42
  3
Shaded with edges
350
41
  3
Shades of Gray
350
3E
  3
Sketchy
350
3F
  3
Thicken
350
37
  3
Wireframe
350
30
  3
X-Ray
350
40
  0
XRECORD
  5
39E
102
{ACAD_REACTORS
330
C
102
}
330
C
100
AcDbXrecord
280
     1
 90
        1
330
6A
  0
DICTIONARY
  5
35E
102
{ACAD_REACTORS
330
C
102
}
330
C
100
AcDbDictionary
281
     1
  3
CANNOSCALE
350
35F
  3
CENTEREXE
350
3A3
  3
CENTERLTYPEFILE
350
3A4
  3
CMLEADERSTYLE
350
3A0
  3
CTABLESTYLE
350
39F
  3
MSLTSCALE
350
360
  3
XCLIPFRAME
350
361
  0
XRECORD
  5
35D
102
{ACAD_REACTORS
330
35C
102
}
330
35C
100
AcDbXrecord
280
     1
102
VTR_0.000_0.000_1.000_1.000_VISUALSTYLE
340
2F
102
VTR_0.000_0.000_1.000_1.000_GRIDDISPLAY
 70
     3
102
VTR_0.000_0.000_1.000_1.000_GRIDMAJOR
 70
     5
102
VTR_0.000_0.000_1.000_1.000_DEFAULTLIGHTING
280
     1
102
VTR_0.000_0.000_1.000_1.000_DEFAULTLIGHTINGTYPE
 70
     1
102
VTR_0.000_0.000_1.000_1.000_BRIGHTNESS
141
0.0
102
VTR_0.000_0.000_1.000_1.000_CONTRAST
142
0.0
  0
LAYOUT
  5
1E
102
{ACAD_REACTORS
330
1A
102
}
330
1A
100
AcDbPlotSettings
  1

  2
none_device
  4

  6

 40
0.0
 41
0.0
 42
0.0
 43
0.0
 44
0.0
 45
0.0
 46
0.0
 47
0.0
 48
0.0
 49
0.0
140
0.0
141
0.0
142
1.0
143
1.0
 70
   688
 72
     1
 73
     0
 74
     5
  7

 75
    16
 76
     0
 77
     5
 78
   300
147
1.0
148
0.0
149
0.0
100
AcDbLayout
  1
Layout1
 70
     1
 71
     1
 10
0.0
 20
0.0
 11
420.0
 21
297.0
 12
0.0
 22
0.0
 32
0.0
 14
1.000000000000000E+20
 24
1.000000000000000E+20
 34
1.000000000000000E+20
 15
-1.000000000000000E+20
 25
-1.000000000000000E+20
 35
-1.000000000000000E+20
146
0.0
 13
0.0
 23
0.0
 33
0.0
 16
1.0
 26
0.0
 36
0.0
 17
0.0
 27
1.0
 37
0.0
 76
     0
330
1B
  0
LAYOUT
  5
26
102
{ACAD_REACTORS
330
1A
102
}
330
1A
100
AcDbPlotSettings
  1

  2
none_device
  4

  6

 40
0.0
 41
0.0
 42
0.0
 43
0.0
 44
0.0
 45
0.0
 46
0.0
 47
0.0
 48
0.0
 49
0.0
140
0.0
141
0.0
142
1.0
143
1.0
 70
   688
 72
     1
 73
     0
 74
     5
  7

 75
    16
 76
     0
 77
     5
 78
   300
147
1.0
148
0.0
149
0.0
100
AcDbLayout
  1
Layout2
 70
     1
 71
     2
 10
0.0
 20
0.0
 11
0.0
 21
0.0
 12
0.0
 22
0.0
 32
0.0
 14
0.0
 24
0.0
 34
0.0
 15
0.0
 25
0.0
 35
0.0
146
0.0
 13
0.0
 23
0.0
 33
0.0
 16
1.0
 26
0.0
 36
0.0
 17
0.0
 27
1.0
 37
0.0
 76
     0
330
23
  0
LAYOUT
  5
22
102
{ACAD_REACTORS
330
1A
102
}
330
1A
100
AcDbPlotSettings
  1

  2
none_device
  4
Letter_(8.50_x_11.00_Inches)
  6

 40
6.35
 41
6.35
 42
6.35000508
 43
6.35000508
 44
215.9
 45
279.4
 46
0.0
 47
0.0
 48
0.0
 49
0.0
140
0.0
141
0.0
142
1.0
143
1.0
 70
  1712
 72
     1
 73
     0
 74
     0
  7

 75
     0
 76
     0
 77
     5
 78
   300
147
1.0
148
0.0
149
0.0
100
AcDbLayout
  1
Model
 70
     1
 71
     0
 10
-2970.0
 20
-2100.0
 11
2970.0
 21
2100.0
 12
0.0
 22
0.0
 32
0.0
 14
-2970.0
 24
-2100.0
 34
0.0
 15
2970.0
 25
2100.0
 35
0.0
146
0.0
 13
0.0
 23
0.0
 33
0.0
 16
1.0
 26
0.0
 36
0.0
 17
0.0
 27
1.0
 37
0.0
 76
     0
330
1F
331
29
  0
MATERIAL
  5
45
102
{ACAD_REACTORS
330
43
102
}
102
{ACAD_XDICTIONARY
360
394
102
}
330
43
100
AcDbMaterial
  1
ByBlock
  0
MATERIAL
  5
44
102
{ACAD_REACTORS
330
43
102
}
102
{ACAD_XDICTIONARY
360
392
102
}
330
43
100
AcDbMaterial
  1
ByLayer
  0
MATERIAL
  5
46
102
{ACAD_REACTORS
330
43
102
}
102
{ACAD_XDICTIONARY
360
396
102
}
330
43
100
AcDbMaterial
  1
Global
  0
MLEADERSTYLE
  5
6C
102
{ACAD_REACTORS
330
6B
102
}
102
{ACAD_XDICTIONARY
360
39C
102
}
330
6B
100
AcDbMLeaderStyle
170
     2
171
     1
172
     0
 90
        2
 40
0.0
 41
0.0
173
     1
 91
-1056964608
340
14
 92
       -2
290
     1
 42
2.0
291
     1
 43
8.0
  3
Standard
341
0
 44
4.0
300

342
11
174
     1
178
     6
175
     1
176
     0
 93
-1056964608
 45
4.0
292
     0
297
     0
 46
4.0
343
0
 94
-1056964608
 47
1.0
 49
1.0
140
1.0
293
     1
141
0.0
294
     1
177
     0
142
1.0
295
     0
296
     0
143
3.75
1001
ACAD_MLEADERVER
1070
     2
  0
MLINESTYLE
  5
18
102
{ACAD_REACTORS
330
17
102
}
330
17
100
AcDbMlineStyle
  2
Standard
 70
     0
  3

 62
   256
 51
90.0
 52
90.0
 71
     2
 49
0.5
 62
   256
  6
BYLAYER
 49
-0.5
 62
   256
  6
BYLAYER
  0
ACDBPLACEHOLDER
  5
F
102
{ACAD_REACTORS
330
E
102
}
330
E
  0
SCALE
  5
48
102
{ACAD_REACTORS
330
47
102
}
330
47
100
AcDbScale
 70
     0
300
1:1
140
1.0
141
1.0
290
     1
  0
SCALE
  5
49
102
{ACAD_REACTORS
330
47
102
}
330
47
100
AcDbScale
 70
     0
300
1:2
140
1.0
141
2.0
290
     0
  0
SCALE
  5
4A
102
{ACAD_REACTORS
330
47
102
}
330
47
100
AcDbScale
 70
     0
300
1:4
140
1.0
141
4.0
290
     0
  0
SCALE
  5
4B
102
{ACAD_REACTORS
330
47
102
}
330
47
100
AcDbScale
 70
     0
300
1:5
140
1.0
141
5.0
290
     0
  0
SCALE
  5
4C
102
{ACAD_REACTORS
330
47
102
}
330
47
100
AcDbScale
 70
     0
300
1:8
140
1.0
141
8.0
290
     0
  0
SCALE
  5
4D
102
{ACAD_REACTORS
330
47
102
}
330
47
100
AcDbScale
 70
     0
300
1:10
140
1.0
141
10.0
290
     0
  0
SCALE
  5
4E
102
{ACAD_REACTORS
330
47
102
}
330
47
100
AcDbScale
 70
     0
300
1:16
140
1.0
141
16.0
290
     0
  0
SCALE
  5
4F
102
{ACAD_REACTORS
330
47
102
}
330
47
100
AcDbScale
 70
     0
300
1:20
140
1.0
141
20.0
290
     0
  0
SCALE
  5
50
102
{ACAD_REACTORS
330
47
102
}
330
47
100
AcDbScale
 70
     0
300
1:30
140
1.0
141
30.0
290
     0
  0
SCALE
  5
51
102
{ACAD_REACTORS
330
47
102
}
330
47
100
AcDbScale
 70
     0
300
1:40
140
1.0
141
40.0
290
     0
  0
SCALE
  5
52
102
{ACAD_REACTORS
330
47
102
}
330
47
100
AcDbScale
 70
     0
300
1:50
140
1.0
141
50.0
290
     0
  0
SCALE
  5
53
102
{ACAD_REACTORS
330
47
102
}
330
47
100
AcDbScale
 70
     0
300
1:100
140
1.0
141
100.0
290
     0
  0
SCALE
  5
54
102
{ACAD_REACTORS
330
47
102
}
330
47
100
AcDbScale
 70
     0
300
2:1
140
2.0
141
1.0
290
     0
  0
SCALE
  5
55
102
{ACAD_REACTORS
330
47
102
}
330
47
100
AcDbScale
 70
     0
300
4:1
140
4.0
141
1.0
290
     0
  0
SCALE
  5
56
102
{ACAD_REACTORS
330
47
102
}
330
47
100
AcDbScale
 70
     0
300
8:1
140
8.0
141
1.0
290
     0
  0
SCALE
  5
57
102
{ACAD_REACTORS
330
47
102
}
330
47
100
AcDbScale
 70
     0
300
10:1
140
10.0
141
1.0
290
     0
  0
SCALE
  5
58
102
{ACAD_REACTORS
330
47
102
}
330
47
100
AcDbScale
 70
     0
300
100:1
140
100.0
141
1.0
290
     0
  0
SCALE
  5
59
102
{ACAD_REACTORS
330
47
102
}
330
47
100
AcDbScale
 70
     0
300
1/128" = 1'-0"
140
0.0078125
141
12.0
290
     0
  0
SCALE
  5
5A
102
{ACAD_REACTORS
330
47
102
}
330
47
100
AcDbScale
 70
     0
300
1/64" = 1'-0"
140
0.015625
141
12.0
290
     0
  0
SCALE
  5
5B
102
{ACAD_REACTORS
330
47
102
}
330
47
100
AcDbScale
 70
     0
300
1/32" = 1'-0"
140
0.03125
141
12.0
290
     0
  0
SCALE
  5
5C
102
{ACAD_REACTORS
330
47
102
}
330
47
100
AcDbScale
 70
     0
300
1/16" = 1'-0"
140
0.0625
141
12.0
290
     0
  0
SCALE
  5
5D
102
{ACAD_REACTORS
330
47
102
}
330
47
100
AcDbScale
 70
     0
300
3/32" = 1'-0"
140
0.09375
141
12.0
290
     0
  0
SCALE
  5
5E
102
{ACAD_REACTORS
330
47
102
}
330
47
100
AcDbScale
 70
     0
300
1/8" = 1'-0"
140
0.125
141
12.0
290
     0
  0
SCALE
  5
5F
102
{ACAD_REACTORS
330
47
102
}
330
47
100
AcDbScale
 70
     0
300
3/16" = 1'-0"
140
0.1875
141
12.0
290
     0
  0
SCALE
  5
60
102
{ACAD_REACTORS
330
47
102
}
330
47
100
AcDbScale
 70
     0
300
1/4" = 1'-0"
140
0.25
141
12.0
290
     0
  0
SCALE
  5
61
102
{ACAD_REACTORS
330
47
102
}
330
47
100
AcDbScale
 70
     0
300
3/8" = 1'-0"
140
0.375
141
12.0
290
     0
  0
SCALE
  5
62
102
{ACAD_REACTORS
330
47
102
}
330
47
100
AcDbScale
 70
     0
300
1/2" = 1'-0"
140
0.5
141
12.0
290
     0
  0
SCALE
  5
63
102
{ACAD_REACTORS
330
47
102
}
330
47
100
AcDbScale
 70
     0
300
3/4" = 1'-0"
140
0.75
141
12.0
290
     0
  0
SCALE
  5
64
102
{ACAD_REACTORS
330
47
102
}
330
47
100
AcDbScale
 70
     0
300
1" = 1'-0"
140
1.0
141
12.0
290
     0
  0
SCALE
  5
65
102
{ACAD_REACTORS
330
47
102
}
330
47
100
AcDbScale
 70
     0
300
1-1/2" = 1'-0"
140
1.5
141
12.0
290
     0
  0
SCALE
  5
66
102
{ACAD_REACTORS
330
47
102
}
330
47
100
AcDbScale
 70
     0
300
3" = 1'-0"
140
3.0
141
12.0
290
     0
  0
SCALE
  5
67
102
{ACAD_REACTORS
330
47
102
}
330
47
100
AcDbScale
 70
     0
300
6" = 1'-0"
140
6.0
141
12.0
290
     0
  0
SCALE
  5
68
102
{ACAD_REACTORS
330
47
102
}
330
47
100
AcDbScale
 70
     0
300
1'-0" = 1'-0"
140
12.0
141
12.0
290
     0
  0
TABLESTYLE
  5
6A
102
{ACAD_REACTORS
330
69
102
}
102
{ACAD_XDICTIONARY
360
398
102
}
330
69
100
AcDbTableStyle
  3
Standard
 70
     0
 71
     0
 40
0.06
 41
0.06
280
     0
281
     0
  7
Standard
140
4.5
170
     2
 62
     0
 63
   257
283
     0
274
    -2
284
     1
 64
     0
275
    -2
285
     1
 65
     0
276
    -2
286
     1
 66
     0
277
    -2
287
     1
 67
     0
278
    -2
288
     1
 68
     0
279
    -2
289
     1
 69
     0
  7
Standard
140
6.0
170
     5
 62
     0
 63
   257
283
     0
274
    -2
284
     1
 64
     0
275
    -2
285
     1
 65
     0
276
    -2
286
     1
 66
     0
277
    -2
287
     1
 67
     0
278
    -2
288
     1
 68
     0
279
    -2
289
     1
 69
     0
  7
Standard
140
4.5
170
     5
 62
     0
 63
   257
283
     0
274
    -2
284
     1
 64
     0
275
    -2
285
     1
 65
     0
276
    -2
286
     1
 66
     0
277
    -2
287
     1
 67
     0
278
    -2
288
     1
 68
     0
279
    -2
289
     1
 69
     0
  0
VISUALSTYLE
  5
2F
102
{ACAD_REACTORS
330
2A
102
}
102
{ACAD_XDICTIONARY
360
36A
102
}
330
2A
100
AcDbVisualStyle
  2
2dWireframe
 70
     4
 71
     0
 72
     2
 73
     0
 90
        0
 40
0.6
 41
30.0
 62
     5
 63
     7
421
 16777215
 74
     1
 91
        4
 64
     7
 65
   257
 75
     1
175
     1
 42
1.0
 92
        0
 66
   257
 43
1.0
 76
     1
 77
     6
 78
     2
 67
     7
 79
     5
170
     0
171
     0
290
     0
174
     0
 93
        1
 44
0.0
173
     0
291
     0
 45
0.0
1001
ACAD
1000
AcDbSavedByObjectVersion
1070
     0
  0
VISUALSTYLE
  5
32
102
{ACAD_REACTORS
330
2A
102
}
102
{ACAD_XDICTIONARY
360
370
102
}
330
2A
100
AcDbVisualStyle
  2
Basic
 70
     7
 71
     1
 72
     0
 73
     1
 90
        0
 40
0.6
 41
30.0
 62
     5
 63
     7
421
 16777215
 74
     0
 91
        4
 64
     7
 65
   257
 75
     1
175
     1
 42
1.0
 92
        8
 66
     7
 43
1.0
 76
     1
 77
     6
 78
     2
 67
     7
 79
     5
170
     0
171
     0
290
     0
174
     0
 93
        1
 44
0.0
173
     0
291
     1
 45
0.0
1001
ACAD
1000
AcDbSavedByObjectVersion
1070
     0
  0
VISUALSTYLE
  5
36
102
{ACAD_REACTORS
330
2A
102
}
102
{ACAD_XDICTIONARY
360
378
102
}
330
2A
100
AcDbVisualStyle
  2
Brighten
 70
    12
 71
     2
 72
     2
 73
     0
 90
        0
 40
0.6
 41
30.0
 62
     5
 63
     7
421
 16777215
 74
     1
 91
        4
 64
     7
 65
   257
 75
     1
175
     1
 42
1.0
 92
        8
 66
     7
 43
1.0
 76
     1
 77
     6
 78
     2
 67
     7
 79
     5
170
     0
171
     0
290
     0
174
     0
 93
        1
 44
50.0
173
     0
291
     1
 45
0.0
1001
ACAD
1000
AcDbSavedByObjectVersion
1070
     0
  0
VISUALSTYLE
  5
3A
102
{ACAD_REACTORS
330
2A
102
}
102
{ACAD_XDICTIONARY
360
380
102
}
330
2A
100
AcDbVisualStyle
  2
ColorChange
 70
    16
 71
     2
 72
     2
 73
     3
 90
        0
 40
0.6
 41
30.0
 62
     5
 63
     8
421
  8421504
 74
     1
 91
        4
 64
     7
 65
   257
 75
     1
175
     1
 42
1.0
 92
        8
 66
     8
424
  8421504
 43
1.0
 76
     1
 77
     6
 78
     2
 67
     7
 79
     5
170
     0
171
     0
290
     0
174
     0
 93
        1
 44
0.0
173
     0
291
     1
 45
0.0
1001
ACAD
1000
AcDbSavedByObjectVersion
1070
     0
  0
VISUALSTYLE
  5
34
102
{ACAD_REACTORS
330
2A
102
}
102
{ACAD_XDICTIONARY
360
374
102
}
330
2A
100
AcDbVisualStyle
  2
Conceptual
 70
     9
 71
     3
 72
     2
 73
     0
 90
        0
 40
0.6
 41
30.0
 62
     5
 63
     7
421
 16777215
 74
     2
 91
        2
 64
     7
 65
   257
 75
     1
175
     1
 42
179.0
 92
        8
 66
     7
 43
1.0
 76
     1
 77
     6
 78
     2
 67
     7
 79
     3
170
     0
171
     0
290
     0
174
     0
 93
        1
 44
0.0
173
     0
291
     0
 45
0.0
1001
ACAD
1000
AcDbSavedByObjectVersion
1070
     0
  0
VISUALSTYLE
  5
35
102
{ACAD_REACTORS
330
2A
102
}
102
{ACAD_XDICTIONARY
360
376
102
}
330
2A
100
AcDbVisualStyle
  2
Dim
 70
    11
 71
     2
 72
     2
 73
     0
 90
        0
 40
0.6
 41
30.0
 62
     5
 63
     7
421
 16777215
 74
     1
 91
        4
 64
     7
 65
   257
 75
     1
175
     1
 42
1.0
 92
        8
 66
     7
 43
1.0
 76
     1
 77
     6
 78
     2
 67
     7
 79
     5
170
     0
171
     0
290
     0
174
     0
 93
        1
 44
-50.0
173
     0
291
     1
 45
0.0
1001
ACAD
1000
AcDbSavedByObjectVersion
1070
     0
  0
VISUALSTYLE
  5
3D
102
{ACAD_REACTORS
330
2A
102
}
102
{ACAD_XDICTIONARY
360
386
102
}
330
2A
100
AcDbVisualStyle
  2
EdgeColorOff
 70
    22
 71
     2
 72
     2
 73
     0
 90
        0
 40
0.6
 41
30.0
 62
     5
 63
     7
421
 16777215
 74
     1
 91
        4
 64
     7
 65
   257
 75
     1
175
     1
 42
1.0
 92
        8
 66
     7
 43
1.0
 76
     1
 77
     6
 78
     2
 67
     7
 79
     5
170
     0
171
     0
290
     0
174
     0
 93
        1
 44
0.0
173
     0
291
     1
 45
0.0
1001
ACAD
1000
AcDbSavedByObjectVersion
1070
     0
  0
VISUALSTYLE
  5
39
102
{ACAD_REACTORS
330
2A
102
}
102
{ACAD_XDICTIONARY
360
37E
102
}
330
2A
100
AcDbVisualStyle
  2
Facepattern
 70
    15
 71
     2
 72
     2
 73
     0
 90
        0
 40
0.6
 41
30.0
 62
     5
 63
     7
421
 16777215
 74
     1
 91
        4
 64
     7
 65
   257
 75
     1
175
     1
 42
1.0
 92
        8
 66
     7
 43
1.0
 76
     1
 77
     6
 78
     2
 67
     7
 79
     5
170
     0
171
     0
290
     0
174
     0
 93
        1
 44
0.0
173
     0
291
     1
 45
0.0
1001
ACAD
1000
AcDbSavedByObjectVersion
1070
     0
  0
VISUALSTYLE
  5
2B
102
{ACAD_REACTORS
330
2A
102
}
102
{ACAD_XDICTIONARY
360
362
102
}
330
2A
100
AcDbVisualStyle
  2
Flat
 70
     0
 71
     2
 72
     1
 73
     1
 90
        2
 40
0.6
 41
30.0
 62
     5
 63
     7
421
 16777215
 74
     0
 91
        0
 64
     7
 65
   257
 75
     1
175
     1
 42
1.0
 92
        8
 66
     7
 43
1.0
 76
     1
 77
     6
 78
     2
 67
     7
 79
     5
170
     0
171
     0
290
     0
174
     0
 93
       13
 44
0.0
173
     0
291
     1
 45
0.0
1001
ACAD
1000
AcDbSavedByObjectVersion
1070
     0
  0
VISUALSTYLE
  5
2C
102
{ACAD_REACTORS
330
2A
102
}
102
{ACAD_XDICTIONARY
360
364
102
}
330
2A
100
AcDbVisualStyle
  2
FlatWithEdges
 70
     1
 71
     2
 72
     1
 73
     1
 90
        2
 40
0.6
 41
30.0
 62
     5
 63
     7
421
 16777215
 74
     1
 91
        0
 64
     7
 65
   257
 75
     1
175
     1
 42
1.0
 92
        0
 66
   257
 43
1.0
 76
     1
 77
     6
 78
     2
 67
     7
 79
     5
170
     0
171
     0
290
     0
174
     0
 93
       13
 44
0.0
173
     0
291
     1
 45
0.0
1001
ACAD
1000
AcDbSavedByObjectVersion
1070
     0
  0
VISUALSTYLE
  5
2D
102
{ACAD_REACTORS
330
2A
102
}
102
{ACAD_XDICTIONARY
360
366
102
}
330
2A
100
AcDbVisualStyle
  2
Gouraud
 70
     2
 71
     2
 72
     2
 73
     1
 90
        2
 40
0.6
 41
30.0
 62
     5
 63
     7
421
 16777215
 74
     0
 91
        0
 64
     7
 65
   257
 75
     1
175
     1
 42
1.0
 92
        0
 66
     7
 43
1.0
 76
     1
 77
     6
 78
     2
 67
     7
 79
     5
170
     0
171
     0
290
     0
174
     0
 93
       13
 44
0.0
173
     0
291
     1
 45
0.0
1001
ACAD
1000
AcDbSavedByObjectVersion
1070
     0
  0
VISUALSTYLE
  5
2E
102
{ACAD_REACTORS
330
2A
102
}
102
{ACAD_XDICTIONARY
360
368
102
}
330
2A
100
AcDbVisualStyle
  2
GouraudWithEdges
 70
     3
 71
     2
 72
     2
 73
     1
 90
        2
 40
0.6
 41
30.0
 62
     5
 63
     7
421
 16777215
 74
     1
 91
        0
 64
     7
 65
   257
 75
     1
175
     1
 42
1.0
 92
        0
 66
   257
 43
1.0
 76
     1
 77
     6
 78
     2
 67
     7
 79
     5
170
     0
171
     0
290
     0
174
     0
 93
       13
 44
0.0
173
     0
291
     1
 45
0.0
1001
ACAD
1000
AcDbSavedByObjectVersion
1070
     0
  0
VISUALSTYLE
  5
31
102
{ACAD_REACTORS
330
2A
102
}
102
{ACAD_XDICTIONARY
360
36E
102
}
330
2A
100
AcDbVisualStyle
  2
Hidden
 70
     6
 71
     1
 72
     2
 73
     2
 90
        0
 40
0.6
 41
30.0
 62
     5
 63
     7
421
 16777215
 74
     2
 91
        2
 64
     7
 65
   257
 75
     2
175
     1
 42
40.0
 92
        0
 66
   257
 43
1.0
 76
     1
 77
     6
 78
     2
 67
     7
 79
     3
170
     0
171
     0
290
     0
174
     0
 93
        1
 44
0.0
173
     0
291
     0
 45
0.0
1001
ACAD
1000
AcDbSavedByObjectVersion
1070
     0
  0
VISUALSTYLE
  5
3B
102
{ACAD_REACTORS
330
2A
102
}
102
{ACAD_XDICTIONARY
360
382
102
}
330
2A
100
AcDbVisualStyle
  2
JitterOff
 70
    20
 71
     2
 72
     2
 73
     0
 90
        0
 40
0.6
 41
30.0
 62
     5
 63
     7
421
 16777215
 74
     1
 91
        4
 64
     7
 65
   257
 75
     1
175
     1
 42
1.0
 92
       10
 66
     7
 43
1.0
 76
     1
 77
     6
 78
     2
 67
     7
 79
     5
170
     0
171
     0
290
     0
174
     0
 93
        1
 44
0.0
173
     0
291
     1
 45
0.0
1001
ACAD
1000
AcDbSavedByObjectVersion
1070
     0
  0
VISUALSTYLE
  5
38
102
{ACAD_REACTORS
330
2A
102
}
102
{ACAD_XDICTIONARY
360
37C
102
}
330
2A
100
AcDbVisualStyle
  2
Linepattern
 70
    14
 71
     2
 72
     2
 73
     0
 90
        0
 40
0.6
 41
30.0
 62
     5
 63
     7
421
 16777215
 74
     1
 91
        4
 64
     7
 65
   257
 75
     7
175
     7
 42
1.0
 92
        8
 66
     7
 43
1.0
 76
     1
 77
     6
 78
     2
 67
     7
 79
     5
170
     0
171
     0
290
     0
174
     0
 93
        1
 44
0.0
173
     0
291
     1
 45
0.0
1001
ACAD
1000
AcDbSavedByObjectVersion
1070
     0
  0
VISUALSTYLE
  5
3C
102
{ACAD_REACTORS
330
2A
102
}
102
{ACAD_XDICTIONARY
360
384
102
}
330
2A
100
AcDbVisualStyle
  2
OverhangOff
 70
    21
 71
     2
 72
     2
 73
     0
 90
        0
 40
0.6
 41
30.0
 62
     5
 63
     7
421
 16777215
 74
     1
 91
        4
 64
     7
 65
   257
 75
     1
175
     1
 42
1.0
 92
        9
 66
     7
 43
1.0
 76
     1
 77
     6
 78
     2
 67
     7
 79
     5
170
     0
171
     0
290
     0
174
     0
 93
        1
 44
0.0
173
     0
291
     1
 45
0.0
1001
ACAD
1000
AcDbSavedByObjectVersion
1070
     0
  0
VISUALSTYLE
  5
33
102
{ACAD_REACTORS
330
2A
102
}
102
{ACAD_XDICTIONARY
360
372
102
}
330
2A
100
AcDbVisualStyle
  2
Realistic
 70
     8
 71
     2
 72
     3
 73
     0
 90
        2
 40
0.6
 41
30.0
 62
     5
 63
     7
421
 16777215
 74
     0
 91
        0
 64
     7
 65
   257
 75
     1
175
     1
 42
1.0
 92
        8
 66
   257
 43
1.0
 76
     1
 77
     6
 78
     2
 67
     7
 79
     3
170
     0
171
     0
290
     0
174
     0
 93
       13
 44
0.0
173
     0
291
     0
 45
0.0
1001
ACAD
1000
AcDbSavedByObjectVersion
1070
     0
  0
VISUALSTYLE
  5
42
102
{ACAD_REACTORS
330
2A
102
}
102
{ACAD_XDICTIONARY
360
390
102
}
330
2A
100
AcDbVisualStyle
  2
Shaded
 70
    27
 71
     2
 72
     2
 73
     1
 90
        2
 40
0.6
 41
30.0
 62
     5
 63
     7
421
 16777215
 74
     0
 91
        4
 64
     7
 65
   257
 75
     1
175
     1
 42
1.0
 92
        8
 66
   257
 43
1.0
 76
     1
 77
     6
 78
     2
 67
     8
425
  7895160
 79
     3
170
     0
171
     0
290
     0
174
     0
 93
        5
 44
0.0
173
     0
291
     0
 45
0.0
1001
ACAD
1000
AcDbSavedByObjectVersion
1070
     0
  0
VISUALSTYLE
  5
41
102
{ACAD_REACTORS
330
2A
102
}
102
{ACAD_XDICTIONARY
360
38E
102
}
330
2A
100
AcDbVisualStyle
  2
Shaded with edges
 70
    26
 71
     2
 72
     2
 73
     1
 90
        2
 40
0.6
 41
30.0
 62
     5
 63
     7
421
 16777215
 74
     1
 91
       10
 64
     7
 65
   257
 75
     2
175
     1
 42
1.0
 92
        8
 66
   257
 43
1.0
 76
     1
 77
     6
 78
     2
 67
     7
 79
     3
170
     0
171
     0
290
     0
174
     0
 93
        5
 44
0.0
173
     0
291
     0
 45
0.0
1001
ACAD
1000
AcDbSavedByObjectVersion
1070
     0
  0
VISUALSTYLE
  5
3E
102
{ACAD_REACTORS
330
2A
102
}
102
{ACAD_XDICTIONARY
360
388
102
}
330
2A
100
AcDbVisualStyle
  2
Shades of Gray
 70
    23
 71
     2
 72
     2
 73
     3
 90
        0
 40
0.6
 41
30.0
 62
     5
 63
     7
421
 16777215
 74
     2
 91
        2
 64
     7
 65
     7
 75
     1
175
     1
 42
40.0
 92
        8
 66
     7
 43
1.0
 76
     1
 77
     6
 78
     2
 67
     7
 79
     3
170
     0
171
     0
290
     0
174
     0
 93
        1
 44
0.0
173
     0
291
     0
 45
0.0
1001
ACAD
1000
AcDbSavedByObjectVersion
1070
     0
  0
VISUALSTYLE
  5
3F
102
{ACAD_REACTORS
330
2A
102
}
102
{ACAD_XDICTIONARY
360
38A
102
}
330
2A
100
AcDbVisualStyle
  2
Sketchy
 70
    24
 71
     1
 72
     2
 73
     2
 90
        0
 40
0.6
 41
30.0
 62
     5
 63
     7
421
 16777215
 74
     2
 91
        2
 64
     7
 65
     7
 75
     1
175
     1
 42
40.0
 92
       11
 66
     7
 43
1.0
 76
     1
 77
     6
 78
     2
 67
     7
 79
     6
170
     0
171
     0
290
     0
174
     0
 93
        1
 44
0.0
173
     0
291
     0
 45
0.0
1001
ACAD
1000
AcDbSavedByObjectVersion
1070
     0
  0
VISUALSTYLE
  5
37
102
{ACAD_REACTORS
330
2A
102
}
102
{ACAD_XDICTIONARY
360
37A
102
}
330
2A
100
AcDbVisualStyle
  2
Thicken
 70
    13
 71
     2
 72
     2
 73
     0
 90
        0
 40
0.6
 41
30.0
 62
     5
 63
     7
421
 16777215
 74
     1
 91
        4
 64
     7
 65
   257
 75
     1
175
     1
 42
1.0
 92
       12
 66
     7
 43
1.0
 76
     1
 77
     6
 78
     2
 67
     7
 79
     5
170
     0
171
     0
290
     0
174
     0
 93
        1
 44
0.0
173
     0
291
     1
 45
0.0
1001
ACAD
1000
AcDbSavedByObjectVersion
1070
     0
  0
VISUALSTYLE
  5
30
102
{ACAD_REACTORS
330
2A
102
}
102
{ACAD_XDICTIONARY
360
36C
102
}
330
2A
100
AcDbVisualStyle
  2
Wireframe
 70
     5
 71
     0
 72
     2
 73
     0
 90
        0
 40
0.6
 41
30.0
 62
     5
 63
     7
421
 16777215
 74
     1
 91
        4
 64
     7
 65
   257
 75
     1
175
     1
 42
1.0
 92
        0
 66
   257
 43
1.0
 76
     1
 77
     6
 78
     2
 67
     7
 79
     3
170
     0
171
     0
290
     0
174
     0
 93
        1
 44
0.0
173
     0
291
     0
 45
0.0
1001
ACAD
1000
AcDbSavedByObjectVersion
1070
     0
  0
VISUALSTYLE
  5
40
102
{ACAD_REACTORS
330
2A
102
}
102
{ACAD_XDICTIONARY
360
38C
102
}
330
2A
100
AcDbVisualStyle
  2
X-Ray
 70
    25
 71
     2
 72
     2
 73
     1
 90
        1
 40
0.5
 41
30.0
 62
     5
 63
     7
421
 16777215
 74
     1
 91
        0
 64
     7
 65
   257
 75
     1
175
     1
 42
1.0
 92
        8
 66
     7
 43
1.0
 76
     1
 77
     6
 78
     2
 67
     7
 79
     3
170
     0
171
     0
290
     0
174
     0
 93
       13
 44
0.0
173
     0
291
     0
 45
0.0
1001
ACAD
1000
AcDbSavedByObjectVersion
1070
     0
  0
DICTIONARYVAR
  5
35F
102
{ACAD_REACTORS
330
35E
102
}
330
35E
100
DictionaryVariables
280
     0
  1
1:1
  0
DICTIONARYVAR
  5
3A3
102
{ACAD_REACTORS
330
35E
102
}
330
35E
100
DictionaryVariables
280
     0
  1
3.500000
  0
DICTIONARYVAR
  5
3A4
102
{ACAD_REACTORS
330
35E
102
}
330
35E
100
DictionaryVariables
280
     0
  1
acadiso.lin
  0
DICTIONARYVAR
  5
3A0
102
{ACAD_REACTORS
330
35E
102
}
330
35E
100
DictionaryVariables
280
     0
  1
Standard
  0
DICTIONARYVAR
  5
39F
102
{ACAD_REACTORS
330
35E
102
}
330
35E
100
DictionaryVariables
280
     0
  1
Standard
  0
DICTIONARYVAR
  5
360
102
{ACAD_REACTORS
330
35E
102
}
330
35E
100
DictionaryVariables
280
     0
  1
1
  0
DICTIONARYVAR
  5
361
102
{ACAD_REACTORS
330
35E
102
}
330
35E
100
DictionaryVariables
280
     0
  1
2
  0
DICTIONARY
  5
394
330
45
100
AcDbDictionary
280
     1
281
     1
  3
ACAD_XREC_ROUNDTRIP
360
395
  0
DICTIONARY
  5
392
330
44
100
AcDbDictionary
280
     1
281
     1
  3
ACAD_XREC_ROUNDTRIP
360
393
  0
DICTIONARY
  5
396
330
46
100
AcDbDictionary
280
     1
281
     1
  3
ACAD_XREC_ROUNDTRIP
360
397
  0
DICTIONARY
  5
39C
330
6C
100
AcDbDictionary
280
     1
281
     1
  3
ACAD_XREC_ROUNDTRIP
360
39D
  0
DICTIONARY
  5
398
330
6A
100
AcDbDictionary
280
     1
281
     1
  3
ACAD_ROUNDTRIP_2008_TABLESTYLE_CELLSTYLEMAP
360
39A
  3
ACAD_XREC_ROUNDTRIP
360
399
  0
DICTIONARY
  5
36A
330
2F
100
AcDbDictionary
280
     1
281
     1
  3
ACAD_XREC_ROUNDTRIP
360
36B
  0
DICTIONARY
  5
370
330
32
100
AcDbDictionary
280
     1
281
     1
  3
ACAD_XREC_ROUNDTRIP
360
371
  0
DICTIONARY
  5
378
330
36
100
AcDbDictionary
280
     1
281
     1
  3
ACAD_XREC_ROUNDTRIP
360
379
  0
DICTIONARY
  5
380
330
3A
100
AcDbDictionary
280
     1
281
     1
  3
ACAD_XREC_ROUNDTRIP
360
381
  0
DICTIONARY
  5
374
330
34
100
AcDbDictionary
280
     1
281
     1
  3
ACAD_XREC_ROUNDTRIP
360
375
  0
DICTIONARY
  5
376
330
35
100
AcDbDictionary
280
     1
281
     1
  3
ACAD_XREC_ROUNDTRIP
360
377
  0
DICTIONARY
  5
386
330
3D
100
AcDbDictionary
280
     1
281
     1
  3
ACAD_XREC_ROUNDTRIP
360
387
  0
DICTIONARY
  5
37E
330
39
100
AcDbDictionary
280
     1
281
     1
  3
ACAD_XREC_ROUNDTRIP
360
37F
  0
DICTIONARY
  5
362
330
2B
100
AcDbDictionary
280
     1
281
     1
  3
ACAD_XREC_ROUNDTRIP
360
363
  0
DICTIONARY
  5
364
330
2C
100
AcDbDictionary
280
     1
281
     1
  3
ACAD_XREC_ROUNDTRIP
360
365
  0
DICTIONARY
  5
366
330
2D
100
AcDbDictionary
280
     1
281
     1
  3
ACAD_XREC_ROUNDTRIP
360
367
  0
DICTIONARY
  5
368
330
2E
100
AcDbDictionary
280
     1
281
     1
  3
ACAD_XREC_ROUNDTRIP
360
369
  0
DICTIONARY
  5
36E
330
31
100
AcDbDictionary
280
     1
281
     1
  3
ACAD_XREC_ROUNDTRIP
360
36F
  0
DICTIONARY
  5
382
330
3B
100
AcDbDictionary
280
     1
281
     1
  3
ACAD_XREC_ROUNDTRIP
360
383
  0
DICTIONARY
  5
37C
330
38
100
AcDbDictionary
280
     1
281
     1
  3
ACAD_XREC_ROUNDTRIP
360
37D
  0
DICTIONARY
  5
384
330
3C
100
AcDbDictionary
280
     1
281
     1
  3
ACAD_XREC_ROUNDTRIP
360
385
  0
DICTIONARY
  5
372
330
33
100
AcDbDictionary
280
     1
281
     1
  3
ACAD_XREC_ROUNDTRIP
360
373
  0
DICTIONARY
  5
390
330
42
100
AcDbDictionary
280
     1
281
     1
  3
ACAD_XREC_ROUNDTRIP
360
391
  0
DICTIONARY
  5
38E
330
41
100
AcDbDictionary
280
     1
281
     1
  3
ACAD_XREC_ROUNDTRIP
360
38F
  0
DICTIONARY
  5
388
330
3E
100
AcDbDictionary
280
     1
281
     1
  3
ACAD_XREC_ROUNDTRIP
360
389
  0
DICTIONARY
  5
38A
330
3F
100
AcDbDictionary
280
     1
281
     1
  3
ACAD_XREC_ROUNDTRIP
360
38B
  0
DICTIONARY
  5
37A
330
37
100
AcDbDictionary
280
     1
281
     1
  3
ACAD_XREC_ROUNDTRIP
360
37B
  0
DICTIONARY
  5
36C
330
30
100
AcDbDictionary
280
     1
281
     1
  3
ACAD_XREC_ROUNDTRIP
360
36D
  0
DICTIONARY
  5
38C
330
40
100
AcDbDictionary
280
     1
281
     1
  3
ACAD_XREC_ROUNDTRIP
360
38D
  0
XRECORD
  5
395
102
{ACAD_REACTORS
330
394
102
}
330
394
100
AcDbXrecord
280
     1
102
MATERIAL
148
0.0
149
0.0
149
0.0
 93
        0
 94
      127
282
     0
 72
     1
 77
     1
171
     1
175
     1
179
     1
273
     0
  0
XRECORD
  5
393
102
{ACAD_REACTORS
330
392
102
}
330
392
100
AcDbXrecord
280
     1
102
MATERIAL
148
0.0
149
0.0
149
0.0
 93
        0
 94
      127
282
     0
 72
     1
 77
     1
171
     1
175
     1
179
     1
273
     0
  0
XRECORD
  5
397
102
{ACAD_REACTORS
330
396
102
}
330
396
100
AcDbXrecord
280
     1
102
MATERIAL
148
0.0
149
0.0
149
0.0
 93
        0
 94
      127
282
     0
 72
     1
 77
     1
171
     1
175
     1
179
     1
273
     0
  0
XRECORD
  5
39D
102
{ACAD_REACTORS
330
39C
102
}
330
39C
100
AcDbXrecord
280
     1
102
ACAD_ROUNDTRIP_2010_MLEADER_STYLE
  0
CELLSTYLEMAP
  5
39A
102
{ACAD_REACTORS
330
398
102
}
330
398
100
AcDbCellStyleMap
 90
        3
300
CELLSTYLE
  1
TABLEFORMAT_BEGIN
 90
        5
170
     1
 91
        0
 92
    32768
 62
   257
 93
        1
300
CONTENTFORMAT
  1
CONTENTFORMAT_BEGIN
 90
        0
 91
        0
 92
        4
 93
        0
300

 40
0.0
140
1.0
 94
        5
 62
     0
340
11
144
6.0
309
CONTENTFORMAT_END
171
     1
301
MARGIN
  1
CELLMARGIN_BEGIN
 40
1.5
 40
1.5
 40
1.5
 40
1.5
 40
1.5
 40
1.5
309
CELLMARGIN_END
 94
        6
 95
        1
302
GRIDFORMAT
  1
GRIDFORMAT_BEGIN
 90
        0
 91
        1
 62
     0
 92
       -2
340
14
 93
        0
 40
0.045
309
GRIDFORMAT_END
 95
        2
302
GRIDFORMAT
  1
GRIDFORMAT_BEGIN
 90
        0
 91
        1
 62
     0
 92
       -2
340
14
 93
        0
 40
0.045
309
GRIDFORMAT_END
 95
        4
302
GRIDFORMAT
  1
GRIDFORMAT_BEGIN
 90
        0
 91
        1
 62
     0
 92
       -2
340
14
 93
        0
 40
0.045
309
GRIDFORMAT_END
 95
        8
302
GRIDFORMAT
  1
GRIDFORMAT_BEGIN
 90
        0
 91
        1
 62
     0
 92
       -2
340
14
 93
        0
 40
0.045
309
GRIDFORMAT_END
 95
       16
302
GRIDFORMAT
  1
GRIDFORMAT_BEGIN
 90
        0
 91
        1
 62
     0
 92
       -2
340
14
 93
        0
 40
0.045
309
GRIDFORMAT_END
 95
       32
302
GRIDFORMAT
  1
GRIDFORMAT_BEGIN
 90
        0
 91
        1
 62
     0
 92
       -2
340
14
 93
        0
 40
0.045
309
GRIDFORMAT_END
309
TABLEFORMAT_END
  1
CELLSTYLE_BEGIN
 90
        1
 91
        1
300
_TITLE
309
CELLSTYLE_END
300
CELLSTYLE
  1
TABLEFORMAT_BEGIN
 90
        5
170
     1
 91
        0
 92
        0
 62
   257
 93
        1
300
CONTENTFORMAT
  1
CONTENTFORMAT_BEGIN
 90
        0
 91
        0
 92
        4
 93
        0
300

 40
0.0
140
1.0
 94
        5
 62
     0
340
11
144
4.5
309
CONTENTFORMAT_END
171
     1
301
MARGIN
  1
CELLMARGIN_BEGIN
 40
1.5
 40
1.5
 40
1.5
 40
1.5
 40
1.5
 40
1.5
309
CELLMARGIN_END
 94
        6
 95
        1
302
GRIDFORMAT
  1
GRIDFORMAT_BEGIN
 90
        0
 91
        1
 62
     0
 92
       -2
340
14
 93
        0
 40
0.045
309
GRIDFORMAT_END
 95
        2
302
GRIDFORMAT
  1
GRIDFORMAT_BEGIN
 90
        0
 91
        1
 62
     0
 92
       -2
340
14
 93
        0
 40
0.045
309
GRIDFORMAT_END
 95
        4
302
GRIDFORMAT
  1
GRIDFORMAT_BEGIN
 90
        0
 91
        1
 62
     0
 92
       -2
340
14
 93
        0
 40
0.045
309
GRIDFORMAT_END
 95
        8
302
GRIDFORMAT
  1
GRIDFORMAT_BEGIN
 90
        0
 91
        1
 62
     0
 92
       -2
340
14
 93
        0
 40
0.045
309
GRIDFORMAT_END
 95
       16
302
GRIDFORMAT
  1
GRIDFORMAT_BEGIN
 90
        0
 91
        1
 62
     0
 92
       -2
340
14
 93
        0
 40
0.045
309
GRIDFORMAT_END
 95
       32
302
GRIDFORMAT
  1
GRIDFORMAT_BEGIN
 90
        0
 91
        1
 62
     0
 92
       -2
340
14
 93
        0
 40
0.045
309
GRIDFORMAT_END
309
TABLEFORMAT_END
  1
CELLSTYLE_BEGIN
 90
        2
 91
        1
300
_HEADER
309
CELLSTYLE_END
300
CELLSTYLE
  1
TABLEFORMAT_BEGIN
 90
        5
170
     1
 91
        0
 92
        0
 62
   257
 93
        1
300
CONTENTFORMAT
  1
CONTENTFORMAT_BEGIN
 90
        0
 91
        0
 92
        4
 93
        0
300

 40
0.0
140
1.0
 94
        2
 62
     0
340
11
144
4.5
309
CONTENTFORMAT_END
171
     1
301
MARGIN
  1
CELLMARGIN_BEGIN
 40
1.5
 40
1.5
 40
1.5
 40
1.5
 40
1.5
 40
1.5
309
CELLMARGIN_END
 94
        6
 95
        1
302
GRIDFORMAT
  1
GRIDFORMAT_BEGIN
 90
        0
 91
        1
 62
     0
 92
       -2
340
14
 93
        0
 40
0.045
309
GRIDFORMAT_END
 95
        2
302
GRIDFORMAT
  1
GRIDFORMAT_BEGIN
 90
        0
 91
        1
 62
     0
 92
       -2
340
14
 93
        0
 40
0.045
309
GRIDFORMAT_END
 95
        4
302
GRIDFORMAT
  1
GRIDFORMAT_BEGIN
 90
        0
 91
        1
 62
     0
 92
       -2
340
14
 93
        0
 40
0.045
309
GRIDFORMAT_END
 95
        8
302
GRIDFORMAT
  1
GRIDFORMAT_BEGIN
 90
        0
 91
        1
 62
     0
 92
       -2
340
14
 93
        0
 40
0.045
309
GRIDFORMAT_END
 95
       16
302
GRIDFORMAT
  1
GRIDFORMAT_BEGIN
 90
        0
 91
        1
 62
     0
 92
       -2
340
14
 93
        0
 40
0.045
309
GRIDFORMAT_END
 95
       32
302
GRIDFORMAT
  1
GRIDFORMAT_BEGIN
 90
        0
 91
        1
 62
     0
 92
       -2
340
14
 93
        0
 40
0.045
309
GRIDFORMAT_END
309
TABLEFORMAT_END
  1
CELLSTYLE_BEGIN
 90
        3
 91
        2
300
_DATA
309
CELLSTYLE_END
  0
XRECORD
  5
399
102
{ACAD_REACTORS
330
398
102
}
330
398
100
AcDbXrecord
280
     1
102
ACAD_ROUNDTRIP_PRE2007_TABLESTYLE
 90
        4
 91
        0
  1

 92
        4
 93
        0
  2

 94
        4
 95
        0
  3

  0
XRECORD
  5
36B
102
{ACAD_REACTORS
330
36A
102
}
330
36A
100
AcDbXrecord
280
     1
102
RTVSPropertyOp0
 70
     1
102
RTVSPropertyOp1
 70
     1
102
RTVSPropertyOp2
 70
     1
102
RTVSPropertyOp3
 70
     1
102
RTVSPropertyOp4
 70
     1
102
RTVSPropertyOp5
 70
     1
102
RTVSPropertyOp6
 70
     1
102
RTVSPropertyOp7
 70
     1
102
RTVSPropertyOp8
 70
     1
102
RTVSPropertyOp9
 70
     1
102
RTVSPropertyOp10
 70
     1
102
RTVSPropertyOp11
 70
     1
102
RTVSPropertyOp12
 70
     1
102
RTVSPropertyOp13
 70
     1
102
RTVSPropertyOp14
 70
     1
102
RTVSPropertyOp15
 70
     1
102
RTVSPropertyOp16
 70
     1
102
RTVSPropertyOp17
 70
     1
102
RTVSPropertyOp18
 70
     1
102
RTVSPropertyOp19
 70
     1
102
RTVSPropertyOp20
 70
     1
102
RTVSPropertyOp21
 70
     1
102
RTVSPropertyOp22
 70
     1
102
RTVSPropertyOp23
 70
     1
102
RTVSPropertyOp24
 70
     1
102
RTVSPropertyOp25
 70
     1
102
RTVSPropertyOp26
 70
     1
102
RTVSPropertyOp27
 70
     1
102
RTVSPropertyOp28
 70
     1
102
RTVSPropertyOp29
 70
     1
102
RTVSPropertyOp30
 70
     1
102
RTVSPropertyOp31
 70
     1
102
RTVSPropertyOp32
 70
     1
102
RTVSPropertyOp33
 70
     1
102
RTVSPropertyOp34
 70
     1
102
RTVSPropertyOp35
 70
     1
102
RTVSPropertyOp36
 70
     1
102
RTVSPropertyOp37
 70
     1
102
RTVSPropertyOp38
 70
     1
102
RTVSPropertyOp39
 70
     1
102
RTVSPropertyOp40
 70
     1
102
RTVSPropertyOp41
 70
     1
102
RTVSPropertyOp42
 70
     1
102
RTVSPropertyOp43
 70
     1
102
RTVSPropertyOp44
 70
     1
102
RTVSPropertyOp45
 70
     1
102
RTVSPropertyOp46
 70
     1
102
RTVSPropertyOp47
 70
     1
102
RTVSPropertyOp48
 70
     1
102
RTVSPropertyOp49
 70
     1
102
RTVSPropertyOp50
 70
     1
102
RTVSPropertyOp51
 70
     0
102
RTVSPropertyOp52
 70
     0
102
RTVSPropertyOp53
 70
     1
102
RTVSPropertyOp54
 70
     1
102
RTVSPropertyOp55
 70
     1
102
RTVSPropertyOp56
 70
     1
102
RTVSPropertyOp57
 70
     1
102
RTVSPost2010Prop28
280
     1
102
RTVSPost2010PropOp28
 70
     1
102
RTVSPost2010Prop29
280
     1
102
RTVSPost2010PropOp29
 70
     1
102
RTVSPost2010Prop30
280
     0
102
RTVSPost2010PropOp30
 70
     1
102
RTVSPost2010Prop31
280
     0
102
RTVSPost2010PropOp31
 70
     1
102
RTVSPost2010Prop32
280
     0
102
RTVSPost2010PropOp32
 70
     1
102
RTVSPost2010Prop33
280
     0
102
RTVSPost2010PropOp33
 70
     1
102
RTVSPost2010Prop34
280
     0
102
RTVSPost2010PropOp34
 70
     1
102
RTVSPost2010Prop35
280
     0
102
RTVSPost2010PropOp35
 70
     1
102
RTVSPost2010Prop36
280
     0
102
RTVSPost2010PropOp36
 70
     1
102
RTVSPost2010Prop37
 90
       50
102
RTVSPost2010PropOp37
 70
     1
102
RTVSPost2010Prop38
140
0.0
102
RTVSPost2010PropOp38
 70
     1
102
RTVSPost2010Prop39
140
1.0
102
RTVSPost2010PropOp39
 70
     1
102
RTVSPost2010Prop40
 90
        0
102
RTVSPost2010PropOp40
 70
     1
102
RTVSPost2010Prop41ColorIndex
 90
       18
102
RTVSPost2010Prop41ColorRGB
 90
        0
102
RTVSPost2010PropOp41
 70
     1
102
RTVSPost2010Prop42
 90
       50
102
RTVSPost2010PropOp42
 70
     1
102
RTVSPost2010Prop43
 90
        3
102
RTVSPost2010PropOp43
 70
     1
102
RTVSPost2010Prop44ColorIndex
 90
        5
102
RTVSPost2010Prop44ColorRGB
 90
      255
102
RTVSPost2010PropOp44
 70
     1
102
RTVSPost2010Prop45
280
     0
102
RTVSPost2010PropOp45
 70
     1
102
RTVSPost2010Prop46
 90
       50
102
RTVSPost2010PropOp46
 70
     1
102
RTVSPost2010Prop47
 90
       50
102
RTVSPost2010PropOp47
 70
     1
102
RTVSPost2010Prop48
 90
       50
102
RTVSPost2010PropOp48
 70
     1
102
RTVSPost2010Prop49
280
     0
102
RTVSPost2010PropOp49
 70
     1
102
RTVSPost2010Prop50
 90
       50
102
RTVSPost2010PropOp50
 70
     1
102
RTVSPost2010Prop51ColorIndex
 90
      256
102
RTVSPost2010Prop51ColorRGB
 90
-16777216
102
RTVSPost2010PropOp51
 70
     0
102
RTVSPost2010Prop52
140
1.0
102
RTVSPost2010PropOp52
 70
     0
102
RTVSPost2010Prop53
 90
        2
102
RTVSPost2010PropOp53
 70
     1
102
RTVSPost2010Prop54
  1
strokes_ogs.tif
102
RTVSPost2010PropOp54
 70
     1
102
RTVSPost2010Prop55
280
     0
102
RTVSPost2010PropOp55
 70
     1
102
RTVSPost2010Prop56
140
1.0
102
RTVSPost2010PropOp56
 70
     1
102
RTVSPost2010Prop57
140
1.0
102
RTVSPost2010PropOp57
 70
     1
  0
XRECORD
  5
371
102
{ACAD_REACTORS
330
370
102
}
330
370
100
AcDbXrecord
280
     1
102
RTVSPropertyOp0
 70
     1
102
RTVSPropertyOp1
 70
     1
102
RTVSPropertyOp2
 70
     1
102
RTVSPropertyOp3
 70
     1
102
RTVSPropertyOp4
 70
     1
102
RTVSPropertyOp5
 70
     1
102
RTVSPropertyOp6
 70
     1
102
RTVSPropertyOp7
 70
     1
102
RTVSPropertyOp8
 70
     1
102
RTVSPropertyOp9
 70
     1
102
RTVSPropertyOp10
 70
     1
102
RTVSPropertyOp11
 70
     1
102
RTVSPropertyOp12
 70
     1
102
RTVSPropertyOp13
 70
     1
102
RTVSPropertyOp14
 70
     1
102
RTVSPropertyOp15
 70
     1
102
RTVSPropertyOp16
 70
     1
102
RTVSPropertyOp17
 70
     1
102
RTVSPropertyOp18
 70
     1
102
RTVSPropertyOp19
 70
     1
102
RTVSPropertyOp20
 70
     1
102
RTVSPropertyOp21
 70
     1
102
RTVSPropertyOp22
 70
     1
102
RTVSPropertyOp23
 70
     1
102
RTVSPropertyOp24
 70
     1
102
RTVSPropertyOp25
 70
     1
102
RTVSPropertyOp26
 70
     1
102
RTVSPropertyOp27
 70
     1
102
RTVSPropertyOp28
 70
     1
102
RTVSPropertyOp29
 70
     1
102
RTVSPropertyOp30
 70
     1
102
RTVSPropertyOp31
 70
     1
102
RTVSPropertyOp32
 70
     1
102
RTVSPropertyOp33
 70
     1
102
RTVSPropertyOp34
 70
     1
102
RTVSPropertyOp35
 70
     1
102
RTVSPropertyOp36
 70
     1
102
RTVSPropertyOp37
 70
     1
102
RTVSPropertyOp38
 70
     1
102
RTVSPropertyOp39
 70
     1
102
RTVSPropertyOp40
 70
     1
102
RTVSPropertyOp41
 70
     1
102
RTVSPropertyOp42
 70
     1
102
RTVSPropertyOp43
 70
     1
102
RTVSPropertyOp44
 70
     1
102
RTVSPropertyOp45
 70
     1
102
RTVSPropertyOp46
 70
     1
102
RTVSPropertyOp47
 70
     1
102
RTVSPropertyOp48
 70
     1
102
RTVSPropertyOp49
 70
     1
102
RTVSPropertyOp50
 70
     1
102
RTVSPropertyOp51
 70
     0
102
RTVSPropertyOp52
 70
     0
102
RTVSPropertyOp53
 70
     1
102
RTVSPropertyOp54
 70
     1
102
RTVSPropertyOp55
 70
     1
102
RTVSPropertyOp56
 70
     1
102
RTVSPropertyOp57
 70
     1
102
RTVSPost2010Prop28
280
     0
102
RTVSPost2010PropOp28
 70
     1
102
RTVSPost2010Prop29
280
     1
102
RTVSPost2010PropOp29
 70
     1
102
RTVSPost2010Prop30
280
     1
102
RTVSPost2010PropOp30
 70
     1
102
RTVSPost2010Prop31
280
     0
102
RTVSPost2010PropOp31
 70
     1
102
RTVSPost2010Prop32
280
     0
102
RTVSPost2010PropOp32
 70
     1
102
RTVSPost2010Prop33
280
     0
102
RTVSPost2010PropOp33
 70
     1
102
RTVSPost2010Prop34
280
     0
102
RTVSPost2010PropOp34
 70
     1
102
RTVSPost2010Prop35
280
     0
102
RTVSPost2010PropOp35
 70
     1
102
RTVSPost2010Prop36
280
     0
102
RTVSPost2010PropOp36
 70
     1
102
RTVSPost2010Prop37
 90
       50
102
RTVSPost2010PropOp37
 70
     1
102
RTVSPost2010Prop38
140
0.0
102
RTVSPost2010PropOp38
 70
     1
102
RTVSPost2010Prop39
140
1.0
102
RTVSPost2010PropOp39
 70
     1
102
RTVSPost2010Prop40
 90
        0
102
RTVSPost2010PropOp40
 70
     1
102
RTVSPost2010Prop41ColorIndex
 90
       18
102
RTVSPost2010Prop41ColorRGB
 90
        0
102
RTVSPost2010PropOp41
 70
     1
102
RTVSPost2010Prop42
 90
       50
102
RTVSPost2010PropOp42
 70
     1
102
RTVSPost2010Prop43
 90
        3
102
RTVSPost2010PropOp43
 70
     1
102
RTVSPost2010Prop44ColorIndex
 90
        5
102
RTVSPost2010Prop44ColorRGB
 90
      255
102
RTVSPost2010PropOp44
 70
     1
102
RTVSPost2010Prop45
280
     0
102
RTVSPost2010PropOp45
 70
     1
102
RTVSPost2010Prop46
 90
       50
102
RTVSPost2010PropOp46
 70
     1
102
RTVSPost2010Prop47
 90
       50
102
RTVSPost2010PropOp47
 70
     1
102
RTVSPost2010Prop48
 90
       50
102
RTVSPost2010PropOp48
 70
     1
102
RTVSPost2010Prop49
280
     0
102
RTVSPost2010PropOp49
 70
     1
102
RTVSPost2010Prop50
 90
       50
102
RTVSPost2010PropOp50
 70
     1
102
RTVSPost2010Prop51ColorIndex
 90
      256
102
RTVSPost2010Prop51ColorRGB
 90
-16777216
102
RTVSPost2010PropOp51
 70
     0
102
RTVSPost2010Prop52
140
1.0
102
RTVSPost2010PropOp52
 70
     0
102
RTVSPost2010Prop53
 90
        2
102
RTVSPost2010PropOp53
 70
     1
102
RTVSPost2010Prop54
  1
strokes_ogs.tif
102
RTVSPost2010PropOp54
 70
     1
102
RTVSPost2010Prop55
280
     0
102
RTVSPost2010PropOp55
 70
     1
102
RTVSPost2010Prop56
140
1.0
102
RTVSPost2010PropOp56
 70
     1
102
RTVSPost2010Prop57
140
1.0
102
RTVSPost2010PropOp57
 70
     1
  0
XRECORD
  5
379
102
{ACAD_REACTORS
330
378
102
}
330
378
100
AcDbXrecord
280
     1
102
RTVSPropertyOp0
 70
     1
102
RTVSPropertyOp1
 70
     1
102
RTVSPropertyOp2
 70
     1
102
RTVSPropertyOp3
 70
     1
102
RTVSPropertyOp4
 70
     1
102
RTVSPropertyOp5
 70
     1
102
RTVSPropertyOp6
 70
     1
102
RTVSPropertyOp7
 70
     1
102
RTVSPropertyOp8
 70
     1
102
RTVSPropertyOp9
 70
     1
102
RTVSPropertyOp10
 70
     1
102
RTVSPropertyOp11
 70
     1
102
RTVSPropertyOp12
 70
     1
102
RTVSPropertyOp13
 70
     1
102
RTVSPropertyOp14
 70
     1
102
RTVSPropertyOp15
 70
     1
102
RTVSPropertyOp16
 70
     1
102
RTVSPropertyOp17
 70
     1
102
RTVSPropertyOp18
 70
     1
102
RTVSPropertyOp19
 70
     1
102
RTVSPropertyOp20
 70
     1
102
RTVSPropertyOp21
 70
     1
102
RTVSPropertyOp22
 70
     1
102
RTVSPropertyOp23
 70
     1
102
RTVSPropertyOp24
 70
     1
102
RTVSPropertyOp25
 70
     1
102
RTVSPropertyOp26
 70
     1
102
RTVSPropertyOp27
 70
     1
102
RTVSPropertyOp28
 70
     1
102
RTVSPropertyOp29
 70
     1
102
RTVSPropertyOp30
 70
     1
102
RTVSPropertyOp31
 70
     1
102
RTVSPropertyOp32
 70
     1
102
RTVSPropertyOp33
 70
     1
102
RTVSPropertyOp34
 70
     1
102
RTVSPropertyOp35
 70
     1
102
RTVSPropertyOp36
 70
     1
102
RTVSPropertyOp37
 70
     1
102
RTVSPropertyOp38
 70
     1
102
RTVSPropertyOp39
 70
     1
102
RTVSPropertyOp40
 70
     1
102
RTVSPropertyOp41
 70
     1
102
RTVSPropertyOp42
 70
     1
102
RTVSPropertyOp43
 70
     1
102
RTVSPropertyOp44
 70
     1
102
RTVSPropertyOp45
 70
     1
102
RTVSPropertyOp46
 70
     1
102
RTVSPropertyOp47
 70
     1
102
RTVSPropertyOp48
 70
     1
102
RTVSPropertyOp49
 70
     1
102
RTVSPropertyOp50
 70
     1
102
RTVSPropertyOp51
 70
     0
102
RTVSPropertyOp52
 70
     0
102
RTVSPropertyOp53
 70
     1
102
RTVSPropertyOp54
 70
     1
102
RTVSPropertyOp55
 70
     1
102
RTVSPropertyOp56
 70
     1
102
RTVSPropertyOp57
 70
     1
102
RTVSPost2010Prop28
280
     0
102
RTVSPost2010PropOp28
 70
     1
102
RTVSPost2010Prop29
280
     1
102
RTVSPost2010PropOp29
 70
     1
102
RTVSPost2010Prop30
280
     1
102
RTVSPost2010PropOp30
 70
     1
102
RTVSPost2010Prop31
280
     0
102
RTVSPost2010PropOp31
 70
     1
102
RTVSPost2010Prop32
280
     0
102
RTVSPost2010PropOp32
 70
     1
102
RTVSPost2010Prop33
280
     0
102
RTVSPost2010PropOp33
 70
     1
102
RTVSPost2010Prop34
280
     0
102
RTVSPost2010PropOp34
 70
     1
102
RTVSPost2010Prop35
280
     0
102
RTVSPost2010PropOp35
 70
     1
102
RTVSPost2010Prop36
280
     0
102
RTVSPost2010PropOp36
 70
     1
102
RTVSPost2010Prop37
 90
       50
102
RTVSPost2010PropOp37
 70
     1
102
RTVSPost2010Prop38
140
0.0
102
RTVSPost2010PropOp38
 70
     1
102
RTVSPost2010Prop39
140
1.0
102
RTVSPost2010PropOp39
 70
     1
102
RTVSPost2010Prop40
 90
        0
102
RTVSPost2010PropOp40
 70
     1
102
RTVSPost2010Prop41ColorIndex
 90
       18
102
RTVSPost2010Prop41ColorRGB
 90
        0
102
RTVSPost2010PropOp41
 70
     1
102
RTVSPost2010Prop42
 90
       50
102
RTVSPost2010PropOp42
 70
     1
102
RTVSPost2010Prop43
 90
        3
102
RTVSPost2010PropOp43
 70
     1
102
RTVSPost2010Prop44ColorIndex
 90
        5
102
RTVSPost2010Prop44ColorRGB
 90
      255
102
RTVSPost2010PropOp44
 70
     1
102
RTVSPost2010Prop45
280
     0
102
RTVSPost2010PropOp45
 70
     1
102
RTVSPost2010Prop46
 90
       50
102
RTVSPost2010PropOp46
 70
     1
102
RTVSPost2010Prop47
 90
       50
102
RTVSPost2010PropOp47
 70
     1
102
RTVSPost2010Prop48
 90
       50
102
RTVSPost2010PropOp48
 70
     1
102
RTVSPost2010Prop49
280
     0
102
RTVSPost2010PropOp49
 70
     1
102
RTVSPost2010Prop50
 90
       50
102
RTVSPost2010PropOp50
 70
     1
102
RTVSPost2010Prop51ColorIndex
 90
      256
102
RTVSPost2010Prop51ColorRGB
 90
-16777216
102
RTVSPost2010PropOp51
 70
     0
102
RTVSPost2010Prop52
140
1.0
102
RTVSPost2010PropOp52
 70
     0
102
RTVSPost2010Prop53
 90
        2
102
RTVSPost2010PropOp53
 70
     1
102
RTVSPost2010Prop54
  1
strokes_ogs.tif
102
RTVSPost2010PropOp54
 70
     1
102
RTVSPost2010Prop55
280
     0
102
RTVSPost2010PropOp55
 70
     1
102
RTVSPost2010Prop56
140
1.0
102
RTVSPost2010PropOp56
 70
     1
102
RTVSPost2010Prop57
140
1.0
102
RTVSPost2010PropOp57
 70
     1
  0
XRECORD
  5
381
102
{ACAD_REACTORS
330
380
102
}
330
380
100
AcDbXrecord
280
     1
102
RTVSPropertyOp0
 70
     1
102
RTVSPropertyOp1
 70
     1
102
RTVSPropertyOp2
 70
     1
102
RTVSPropertyOp3
 70
     1
102
RTVSPropertyOp4
 70
     1
102
RTVSPropertyOp5
 70
     1
102
RTVSPropertyOp6
 70
     1
102
RTVSPropertyOp7
 70
     1
102
RTVSPropertyOp8
 70
     1
102
RTVSPropertyOp9
 70
     1
102
RTVSPropertyOp10
 70
     1
102
RTVSPropertyOp11
 70
     1
102
RTVSPropertyOp12
 70
     1
102
RTVSPropertyOp13
 70
     1
102
RTVSPropertyOp14
 70
     1
102
RTVSPropertyOp15
 70
     1
102
RTVSPropertyOp16
 70
     1
102
RTVSPropertyOp17
 70
     1
102
RTVSPropertyOp18
 70
     1
102
RTVSPropertyOp19
 70
     1
102
RTVSPropertyOp20
 70
     1
102
RTVSPropertyOp21
 70
     1
102
RTVSPropertyOp22
 70
     1
102
RTVSPropertyOp23
 70
     1
102
RTVSPropertyOp24
 70
     1
102
RTVSPropertyOp25
 70
     1
102
RTVSPropertyOp26
 70
     1
102
RTVSPropertyOp27
 70
     1
102
RTVSPropertyOp28
 70
     1
102
RTVSPropertyOp29
 70
     1
102
RTVSPropertyOp30
 70
     1
102
RTVSPropertyOp31
 70
     1
102
RTVSPropertyOp32
 70
     1
102
RTVSPropertyOp33
 70
     1
102
RTVSPropertyOp34
 70
     1
102
RTVSPropertyOp35
 70
     1
102
RTVSPropertyOp36
 70
     1
102
RTVSPropertyOp37
 70
     1
102
RTVSPropertyOp38
 70
     1
102
RTVSPropertyOp39
 70
     1
102
RTVSPropertyOp40
 70
     1
102
RTVSPropertyOp41
 70
     1
102
RTVSPropertyOp42
 70
     1
102
RTVSPropertyOp43
 70
     1
102
RTVSPropertyOp44
 70
     1
102
RTVSPropertyOp45
 70
     1
102
RTVSPropertyOp46
 70
     1
102
RTVSPropertyOp47
 70
     1
102
RTVSPropertyOp48
 70
     1
102
RTVSPropertyOp49
 70
     1
102
RTVSPropertyOp50
 70
     1
102
RTVSPropertyOp51
 70
     0
102
RTVSPropertyOp52
 70
     0
102
RTVSPropertyOp53
 70
     1
102
RTVSPropertyOp54
 70
     1
102
RTVSPropertyOp55
 70
     1
102
RTVSPropertyOp56
 70
     1
102
RTVSPropertyOp57
 70
     1
102
RTVSPost2010Prop28
280
     0
102
RTVSPost2010PropOp28
 70
     1
102
RTVSPost2010Prop29
280
     1
102
RTVSPost2010PropOp29
 70
     1
102
RTVSPost2010Prop30
280
     1
102
RTVSPost2010PropOp30
 70
     1
102
RTVSPost2010Prop31
280
     0
102
RTVSPost2010PropOp31
 70
     1
102
RTVSPost2010Prop32
280
     0
102
RTVSPost2010PropOp32
 70
     1
102
RTVSPost2010Prop33
280
     0
102
RTVSPost2010PropOp33
 70
     1
102
RTVSPost2010Prop34
280
     0
102
RTVSPost2010PropOp34
 70
     1
102
RTVSPost2010Prop35
280
     0
102
RTVSPost2010PropOp35
 70
     1
102
RTVSPost2010Prop36
280
     0
102
RTVSPost2010PropOp36
 70
     1
102
RTVSPost2010Prop37
 90
       50
102
RTVSPost2010PropOp37
 70
     1
102
RTVSPost2010Prop38
140
0.0
102
RTVSPost2010PropOp38
 70
     1
102
RTVSPost2010Prop39
140
1.0
102
RTVSPost2010PropOp39
 70
     1
102
RTVSPost2010Prop40
 90
        0
102
RTVSPost2010PropOp40
 70
     1
102
RTVSPost2010Prop41ColorIndex
 90
       18
102
RTVSPost2010Prop41ColorRGB
 90
        0
102
RTVSPost2010PropOp41
 70
     1
102
RTVSPost2010Prop42
 90
       50
102
RTVSPost2010PropOp42
 70
     1
102
RTVSPost2010Prop43
 90
        3
102
RTVSPost2010PropOp43
 70
     1
102
RTVSPost2010Prop44ColorIndex
 90
        5
102
RTVSPost2010Prop44ColorRGB
 90
      255
102
RTVSPost2010PropOp44
 70
     1
102
RTVSPost2010Prop45
280
     0
102
RTVSPost2010PropOp45
 70
     1
102
RTVSPost2010Prop46
 90
       50
102
RTVSPost2010PropOp46
 70
     1
102
RTVSPost2010Prop47
 90
       50
102
RTVSPost2010PropOp47
 70
     1
102
RTVSPost2010Prop48
 90
       50
102
RTVSPost2010PropOp48
 70
     1
102
RTVSPost2010Prop49
280
     0
102
RTVSPost2010PropOp49
 70
     1
102
RTVSPost2010Prop50
 90
       50
102
RTVSPost2010PropOp50
 70
     1
102
RTVSPost2010Prop51ColorIndex
 90
      256
102
RTVSPost2010Prop51ColorRGB
 90
-16777216
102
RTVSPost2010PropOp51
 70
     0
102
RTVSPost2010Prop52
140
1.0
102
RTVSPost2010PropOp52
 70
     0
102
RTVSPost2010Prop53
 90
        2
102
RTVSPost2010PropOp53
 70
     1
102
RTVSPost2010Prop54
  1
strokes_ogs.tif
102
RTVSPost2010PropOp54
 70
     1
102
RTVSPost2010Prop55
280
     0
102
RTVSPost2010PropOp55
 70
     1
102
RTVSPost2010Prop56
140
1.0
102
RTVSPost2010PropOp56
 70
     1
102
RTVSPost2010Prop57
140
1.0
102
RTVSPost2010PropOp57
 70
     1
  0
XRECORD
  5
375
102
{ACAD_REACTORS
330
374
102
}
330
374
100
AcDbXrecord
280
     1
102
RTVSPropertyOp0
 70
     1
102
RTVSPropertyOp1
 70
     1
102
RTVSPropertyOp2
 70
     1
102
RTVSPropertyOp3
 70
     1
102
RTVSPropertyOp4
 70
     1
102
RTVSPropertyOp5
 70
     1
102
RTVSPropertyOp6
 70
     1
102
RTVSPropertyOp7
 70
     1
102
RTVSPropertyOp8
 70
     1
102
RTVSPropertyOp9
 70
     1
102
RTVSPropertyOp10
 70
     1
102
RTVSPropertyOp11
 70
     1
102
RTVSPropertyOp12
 70
     1
102
RTVSPropertyOp13
 70
     1
102
RTVSPropertyOp14
 70
     1
102
RTVSPropertyOp15
 70
     1
102
RTVSPropertyOp16
 70
     1
102
RTVSPropertyOp17
 70
     1
102
RTVSPropertyOp18
 70
     1
102
RTVSPropertyOp19
 70
     1
102
RTVSPropertyOp20
 70
     1
102
RTVSPropertyOp21
 70
     1
102
RTVSPropertyOp22
 70
     1
102
RTVSPropertyOp23
 70
     1
102
RTVSPropertyOp24
 70
     1
102
RTVSPropertyOp25
 70
     1
102
RTVSPropertyOp26
 70
     1
102
RTVSPropertyOp27
 70
     1
102
RTVSPropertyOp28
 70
     1
102
RTVSPropertyOp29
 70
     1
102
RTVSPropertyOp30
 70
     1
102
RTVSPropertyOp31
 70
     1
102
RTVSPropertyOp32
 70
     1
102
RTVSPropertyOp33
 70
     1
102
RTVSPropertyOp34
 70
     1
102
RTVSPropertyOp35
 70
     1
102
RTVSPropertyOp36
 70
     1
102
RTVSPropertyOp37
 70
     1
102
RTVSPropertyOp38
 70
     1
102
RTVSPropertyOp39
 70
     1
102
RTVSPropertyOp40
 70
     1
102
RTVSPropertyOp41
 70
     1
102
RTVSPropertyOp42
 70
     1
102
RTVSPropertyOp43
 70
     1
102
RTVSPropertyOp44
 70
     1
102
RTVSPropertyOp45
 70
     1
102
RTVSPropertyOp46
 70
     1
102
RTVSPropertyOp47
 70
     1
102
RTVSPropertyOp48
 70
     1
102
RTVSPropertyOp49
 70
     1
102
RTVSPropertyOp50
 70
     1
102
RTVSPropertyOp51
 70
     0
102
RTVSPropertyOp52
 70
     0
102
RTVSPropertyOp53
 70
     1
102
RTVSPropertyOp54
 70
     1
102
RTVSPropertyOp55
 70
     1
102
RTVSPropertyOp56
 70
     1
102
RTVSPropertyOp57
 70
     1
102
RTVSPost2010Prop28
280
     0
102
RTVSPost2010PropOp28
 70
     1
102
RTVSPost2010Prop29
280
     1
102
RTVSPost2010PropOp29
 70
     1
102
RTVSPost2010Prop30
280
     1
102
RTVSPost2010PropOp30
 70
     1
102
RTVSPost2010Prop31
280
     0
102
RTVSPost2010PropOp31
 70
     1
102
RTVSPost2010Prop32
280
     0
102
RTVSPost2010PropOp32
 70
     1
102
RTVSPost2010Prop33
280
     0
102
RTVSPost2010PropOp33
 70
     1
102
RTVSPost2010Prop34
280
     0
102
RTVSPost2010PropOp34
 70
     1
102
RTVSPost2010Prop35
280
     0
102
RTVSPost2010PropOp35
 70
     1
102
RTVSPost2010Prop36
280
     0
102
RTVSPost2010PropOp36
 70
     1
102
RTVSPost2010Prop37
 90
       50
102
RTVSPost2010PropOp37
 70
     1
102
RTVSPost2010Prop38
140
0.0
102
RTVSPost2010PropOp38
 70
     1
102
RTVSPost2010Prop39
140
1.0
102
RTVSPost2010PropOp39
 70
     1
102
RTVSPost2010Prop40
 90
        0
102
RTVSPost2010PropOp40
 70
     1
102
RTVSPost2010Prop41ColorIndex
 90
       18
102
RTVSPost2010Prop41ColorRGB
 90
        0
102
RTVSPost2010PropOp41
 70
     1
102
RTVSPost2010Prop42
 90
       50
102
RTVSPost2010PropOp42
 70
     1
102
RTVSPost2010Prop43
 90
        3
102
RTVSPost2010PropOp43
 70
     1
102
RTVSPost2010Prop44ColorIndex
 90
        5
102
RTVSPost2010Prop44ColorRGB
 90
      255
102
RTVSPost2010PropOp44
 70
     1
102
RTVSPost2010Prop45
280
     0
102
RTVSPost2010PropOp45
 70
     1
102
RTVSPost2010Prop46
 90
       50
102
RTVSPost2010PropOp46
 70
     1
102
RTVSPost2010Prop47
 90
       50
102
RTVSPost2010PropOp47
 70
     1
102
RTVSPost2010Prop48
 90
       50
102
RTVSPost2010PropOp48
 70
     1
102
RTVSPost2010Prop49
280
     0
102
RTVSPost2010PropOp49
 70
     1
102
RTVSPost2010Prop50
 90
       50
102
RTVSPost2010PropOp50
 70
     1
102
RTVSPost2010Prop51ColorIndex
 90
      256
102
RTVSPost2010Prop51ColorRGB
 90
-16777216
102
RTVSPost2010PropOp51
 70
     0
102
RTVSPost2010Prop52
140
1.0
102
RTVSPost2010PropOp52
 70
     0
102
RTVSPost2010Prop53
 90
        2
102
RTVSPost2010PropOp53
 70
     1
102
RTVSPost2010Prop54
  1
strokes_ogs.tif
102
RTVSPost2010PropOp54
 70
     1
102
RTVSPost2010Prop55
280
     0
102
RTVSPost2010PropOp55
 70
     1
102
RTVSPost2010Prop56
140
1.0
102
RTVSPost2010PropOp56
 70
     1
102
RTVSPost2010Prop57
140
1.0
102
RTVSPost2010PropOp57
 70
     1
  0
XRECORD
  5
377
102
{ACAD_REACTORS
330
376
102
}
330
376
100
AcDbXrecord
280
     1
102
RTVSPropertyOp0
 70
     1
102
RTVSPropertyOp1
 70
     1
102
RTVSPropertyOp2
 70
     1
102
RTVSPropertyOp3
 70
     1
102
RTVSPropertyOp4
 70
     1
102
RTVSPropertyOp5
 70
     1
102
RTVSPropertyOp6
 70
     1
102
RTVSPropertyOp7
 70
     1
102
RTVSPropertyOp8
 70
     1
102
RTVSPropertyOp9
 70
     1
102
RTVSPropertyOp10
 70
     1
102
RTVSPropertyOp11
 70
     1
102
RTVSPropertyOp12
 70
     1
102
RTVSPropertyOp13
 70
     1
102
RTVSPropertyOp14
 70
     1
102
RTVSPropertyOp15
 70
     1
102
RTVSPropertyOp16
 70
     1
102
RTVSPropertyOp17
 70
     1
102
RTVSPropertyOp18
 70
     1
102
RTVSPropertyOp19
 70
     1
102
RTVSPropertyOp20
 70
     1
102
RTVSPropertyOp21
 70
     1
102
RTVSPropertyOp22
 70
     1
102
RTVSPropertyOp23
 70
     1
102
RTVSPropertyOp24
 70
     1
102
RTVSPropertyOp25
 70
     1
102
RTVSPropertyOp26
 70
     1
102
RTVSPropertyOp27
 70
     1
102
RTVSPropertyOp28
 70
     1
102
RTVSPropertyOp29
 70
     1
102
RTVSPropertyOp30
 70
     1
102
RTVSPropertyOp31
 70
     1
102
RTVSPropertyOp32
 70
     1
102
RTVSPropertyOp33
 70
     1
102
RTVSPropertyOp34
 70
     1
102
RTVSPropertyOp35
 70
     1
102
RTVSPropertyOp36
 70
     1
102
RTVSPropertyOp37
 70
     1
102
RTVSPropertyOp38
 70
     1
102
RTVSPropertyOp39
 70
     1
102
RTVSPropertyOp40
 70
     1
102
RTVSPropertyOp41
 70
     1
102
RTVSPropertyOp42
 70
     1
102
RTVSPropertyOp43
 70
     1
102
RTVSPropertyOp44
 70
     1
102
RTVSPropertyOp45
 70
     1
102
RTVSPropertyOp46
 70
     1
102
RTVSPropertyOp47
 70
     1
102
RTVSPropertyOp48
 70
     1
102
RTVSPropertyOp49
 70
     1
102
RTVSPropertyOp50
 70
     1
102
RTVSPropertyOp51
 70
     0
102
RTVSPropertyOp52
 70
     0
102
RTVSPropertyOp53
 70
     1
102
RTVSPropertyOp54
 70
     1
102
RTVSPropertyOp55
 70
     1
102
RTVSPropertyOp56
 70
     1
102
RTVSPropertyOp57
 70
     1
102
RTVSPost2010Prop28
280
     0
102
RTVSPost2010PropOp28
 70
     1
102
RTVSPost2010Prop29
280
     1
102
RTVSPost2010PropOp29
 70
     1
102
RTVSPost2010Prop30
280
     1
102
RTVSPost2010PropOp30
 70
     1
102
RTVSPost2010Prop31
280
     0
102
RTVSPost2010PropOp31
 70
     1
102
RTVSPost2010Prop32
280
     0
102
RTVSPost2010PropOp32
 70
     1
102
RTVSPost2010Prop33
280
     0
102
RTVSPost2010PropOp33
 70
     1
102
RTVSPost2010Prop34
280
     0
102
RTVSPost2010PropOp34
 70
     1
102
RTVSPost2010Prop35
280
     0
102
RTVSPost2010PropOp35
 70
     1
102
RTVSPost2010Prop36
280
     0
102
RTVSPost2010PropOp36
 70
     1
102
RTVSPost2010Prop37
 90
       50
102
RTVSPost2010PropOp37
 70
     1
102
RTVSPost2010Prop38
140
0.0
102
RTVSPost2010PropOp38
 70
     1
102
RTVSPost2010Prop39
140
1.0
102
RTVSPost2010PropOp39
 70
     1
102
RTVSPost2010Prop40
 90
        0
102
RTVSPost2010PropOp40
 70
     1
102
RTVSPost2010Prop41ColorIndex
 90
       18
102
RTVSPost2010Prop41ColorRGB
 90
        0
102
RTVSPost2010PropOp41
 70
     1
102
RTVSPost2010Prop42
 90
       50
102
RTVSPost2010PropOp42
 70
     1
102
RTVSPost2010Prop43
 90
        3
102
RTVSPost2010PropOp43
 70
     1
102
RTVSPost2010Prop44ColorIndex
 90
        5
102
RTVSPost2010Prop44ColorRGB
 90
      255
102
RTVSPost2010PropOp44
 70
     1
102
RTVSPost2010Prop45
280
     0
102
RTVSPost2010PropOp45
 70
     1
102
RTVSPost2010Prop46
 90
       50
102
RTVSPost2010PropOp46
 70
     1
102
RTVSPost2010Prop47
 90
       50
102
RTVSPost2010PropOp47
 70
     1
102
RTVSPost2010Prop48
 90
       50
102
RTVSPost2010PropOp48
 70
     1
102
RTVSPost2010Prop49
280
     0
102
RTVSPost2010PropOp49
 70
     1
102
RTVSPost2010Prop50
 90
       50
102
RTVSPost2010PropOp50
 70
     1
102
RTVSPost2010Prop51ColorIndex
 90
      256
102
RTVSPost2010Prop51ColorRGB
 90
-16777216
102
RTVSPost2010PropOp51
 70
     0
102
RTVSPost2010Prop52
140
1.0
102
RTVSPost2010PropOp52
 70
     0
102
RTVSPost2010Prop53
 90
        2
102
RTVSPost2010PropOp53
 70
     1
102
RTVSPost2010Prop54
  1
strokes_ogs.tif
102
RTVSPost2010PropOp54
 70
     1
102
RTVSPost2010Prop55
280
     0
102
RTVSPost2010PropOp55
 70
     1
102
RTVSPost2010Prop56
140
1.0
102
RTVSPost2010PropOp56
 70
     1
102
RTVSPost2010Prop57
140
1.0
102
RTVSPost2010PropOp57
 70
     1
  0
XRECORD
  5
387
102
{ACAD_REACTORS
330
386
102
}
330
386
100
AcDbXrecord
280
     1
102
RTVSPropertyOp0
 70
     0
102
RTVSPropertyOp1
 70
     0
102
RTVSPropertyOp2
 70
     0
102
RTVSPropertyOp3
 70
     0
102
RTVSPropertyOp4
 70
     0
102
RTVSPropertyOp5
 70
     0
102
RTVSPropertyOp6
 70
     0
102
RTVSPropertyOp7
 70
     0
102
RTVSPropertyOp8
 70
     0
102
RTVSPropertyOp9
 70
     0
102
RTVSPropertyOp10
 70
     0
102
RTVSPropertyOp11
 70
     0
102
RTVSPropertyOp12
 70
     0
102
RTVSPropertyOp13
 70
     0
102
RTVSPropertyOp14
 70
     2
102
RTVSPropertyOp15
 70
     0
102
RTVSPropertyOp16
 70
     0
102
RTVSPropertyOp17
 70
     0
102
RTVSPropertyOp18
 70
     0
102
RTVSPropertyOp19
 70
     0
102
RTVSPropertyOp20
 70
     0
102
RTVSPropertyOp21
 70
     0
102
RTVSPropertyOp22
 70
     0
102
RTVSPropertyOp23
 70
     0
102
RTVSPropertyOp24
 70
     0
102
RTVSPropertyOp25
 70
     0
102
RTVSPropertyOp26
 70
     0
102
RTVSPropertyOp27
 70
     0
102
RTVSPropertyOp28
 70
     0
102
RTVSPropertyOp29
 70
     0
102
RTVSPropertyOp30
 70
     0
102
RTVSPropertyOp31
 70
     0
102
RTVSPropertyOp32
 70
     0
102
RTVSPropertyOp33
 70
     0
102
RTVSPropertyOp34
 70
     0
102
RTVSPropertyOp35
 70
     0
102
RTVSPropertyOp36
 70
     0
102
RTVSPropertyOp37
 70
     0
102
RTVSPropertyOp38
 70
     0
102
RTVSPropertyOp39
 70
     0
102
RTVSPropertyOp40
 70
     0
102
RTVSPropertyOp41
 70
     0
102
RTVSPropertyOp42
 70
     0
102
RTVSPropertyOp43
 70
     0
102
RTVSPropertyOp44
 70
     0
102
RTVSPropertyOp45
 70
     0
102
RTVSPropertyOp46
 70
     0
102
RTVSPropertyOp47
 70
     0
102
RTVSPropertyOp48
 70
     0
102
RTVSPropertyOp49
 70
     0
102
RTVSPropertyOp50
 70
     0
102
RTVSPropertyOp51
 70
     0
102
RTVSPropertyOp52
 70
     0
102
RTVSPropertyOp53
 70
     0
102
RTVSPropertyOp54
 70
     0
102
RTVSPropertyOp55
 70
     0
102
RTVSPropertyOp56
 70
     0
102
RTVSPropertyOp57
 70
     0
102
RTVSPost2010Prop28
280
     0
102
RTVSPost2010PropOp28
 70
     0
102
RTVSPost2010Prop29
280
     1
102
RTVSPost2010PropOp29
 70
     0
102
RTVSPost2010Prop30
280
     1
102
RTVSPost2010PropOp30
 70
     0
102
RTVSPost2010Prop31
280
     0
102
RTVSPost2010PropOp31
 70
     0
102
RTVSPost2010Prop32
280
     0
102
RTVSPost2010PropOp32
 70
     0
102
RTVSPost2010Prop33
280
     0
102
RTVSPost2010PropOp33
 70
     0
102
RTVSPost2010Prop34
280
     0
102
RTVSPost2010PropOp34
 70
     0
102
RTVSPost2010Prop35
280
     0
102
RTVSPost2010PropOp35
 70
     0
102
RTVSPost2010Prop36
280
     0
102
RTVSPost2010PropOp36
 70
     0
102
RTVSPost2010Prop37
 90
       50
102
RTVSPost2010PropOp37
 70
     0
102
RTVSPost2010Prop38
140
0.0
102
RTVSPost2010PropOp38
 70
     0
102
RTVSPost2010Prop39
140
1.0
102
RTVSPost2010PropOp39
 70
     0
102
RTVSPost2010Prop40
 90
        0
102
RTVSPost2010PropOp40
 70
     0
102
RTVSPost2010Prop41ColorIndex
 90
       18
102
RTVSPost2010Prop41ColorRGB
 90
        0
102
RTVSPost2010PropOp41
 70
     0
102
RTVSPost2010Prop42
 90
       50
102
RTVSPost2010PropOp42
 70
     0
102
RTVSPost2010Prop43
 90
        3
102
RTVSPost2010PropOp43
 70
     0
102
RTVSPost2010Prop44ColorIndex
 90
        5
102
RTVSPost2010Prop44ColorRGB
 90
      255
102
RTVSPost2010PropOp44
 70
     0
102
RTVSPost2010Prop45
280
     0
102
RTVSPost2010PropOp45
 70
     0
102
RTVSPost2010Prop46
 90
       50
102
RTVSPost2010PropOp46
 70
     0
102
RTVSPost2010Prop47
 90
       50
102
RTVSPost2010PropOp47
 70
     0
102
RTVSPost2010Prop48
 90
       50
102
RTVSPost2010PropOp48
 70
     0
102
RTVSPost2010Prop49
280
     0
102
RTVSPost2010PropOp49
 70
     0
102
RTVSPost2010Prop50
 90
       50
102
RTVSPost2010PropOp50
 70
     0
102
RTVSPost2010Prop51ColorIndex
 90
      256
102
RTVSPost2010Prop51ColorRGB
 90
-16777216
102
RTVSPost2010PropOp51
 70
     0
102
RTVSPost2010Prop52
140
1.0
102
RTVSPost2010PropOp52
 70
     0
102
RTVSPost2010Prop53
 90
        2
102
RTVSPost2010PropOp53
 70
     0
102
RTVSPost2010Prop54
  1
strokes_ogs.tif
102
RTVSPost2010PropOp54
 70
     0
102
RTVSPost2010Prop55
280
     0
102
RTVSPost2010PropOp55
 70
     0
102
RTVSPost2010Prop56
140
1.0
102
RTVSPost2010PropOp56
 70
     0
102
RTVSPost2010Prop57
140
1.0
102
RTVSPost2010PropOp57
 70
     0
  0
XRECORD
  5
37F
102
{ACAD_REACTORS
330
37E
102
}
330
37E
100
AcDbXrecord
280
     1
102
RTVSPropertyOp0
 70
     1
102
RTVSPropertyOp1
 70
     1
102
RTVSPropertyOp2
 70
     1
102
RTVSPropertyOp3
 70
     1
102
RTVSPropertyOp4
 70
     1
102
RTVSPropertyOp5
 70
     1
102
RTVSPropertyOp6
 70
     1
102
RTVSPropertyOp7
 70
     1
102
RTVSPropertyOp8
 70
     1
102
RTVSPropertyOp9
 70
     1
102
RTVSPropertyOp10
 70
     1
102
RTVSPropertyOp11
 70
     1
102
RTVSPropertyOp12
 70
     1
102
RTVSPropertyOp13
 70
     1
102
RTVSPropertyOp14
 70
     1
102
RTVSPropertyOp15
 70
     1
102
RTVSPropertyOp16
 70
     1
102
RTVSPropertyOp17
 70
     1
102
RTVSPropertyOp18
 70
     1
102
RTVSPropertyOp19
 70
     1
102
RTVSPropertyOp20
 70
     1
102
RTVSPropertyOp21
 70
     1
102
RTVSPropertyOp22
 70
     1
102
RTVSPropertyOp23
 70
     1
102
RTVSPropertyOp24
 70
     1
102
RTVSPropertyOp25
 70
     1
102
RTVSPropertyOp26
 70
     1
102
RTVSPropertyOp27
 70
     1
102
RTVSPropertyOp28
 70
     1
102
RTVSPropertyOp29
 70
     1
102
RTVSPropertyOp30
 70
     1
102
RTVSPropertyOp31
 70
     1
102
RTVSPropertyOp32
 70
     1
102
RTVSPropertyOp33
 70
     1
102
RTVSPropertyOp34
 70
     1
102
RTVSPropertyOp35
 70
     1
102
RTVSPropertyOp36
 70
     1
102
RTVSPropertyOp37
 70
     1
102
RTVSPropertyOp38
 70
     1
102
RTVSPropertyOp39
 70
     1
102
RTVSPropertyOp40
 70
     1
102
RTVSPropertyOp41
 70
     1
102
RTVSPropertyOp42
 70
     1
102
RTVSPropertyOp43
 70
     1
102
RTVSPropertyOp44
 70
     1
102
RTVSPropertyOp45
 70
     1
102
RTVSPropertyOp46
 70
     1
102
RTVSPropertyOp47
 70
     1
102
RTVSPropertyOp48
 70
     1
102
RTVSPropertyOp49
 70
     1
102
RTVSPropertyOp50
 70
     1
102
RTVSPropertyOp51
 70
     0
102
RTVSPropertyOp52
 70
     0
102
RTVSPropertyOp53
 70
     1
102
RTVSPropertyOp54
 70
     1
102
RTVSPropertyOp55
 70
     1
102
RTVSPropertyOp56
 70
     1
102
RTVSPropertyOp57
 70
     1
102
RTVSPost2010Prop28
280
     0
102
RTVSPost2010PropOp28
 70
     1
102
RTVSPost2010Prop29
280
     1
102
RTVSPost2010PropOp29
 70
     1
102
RTVSPost2010Prop30
280
     1
102
RTVSPost2010PropOp30
 70
     1
102
RTVSPost2010Prop31
280
     0
102
RTVSPost2010PropOp31
 70
     1
102
RTVSPost2010Prop32
280
     0
102
RTVSPost2010PropOp32
 70
     1
102
RTVSPost2010Prop33
280
     0
102
RTVSPost2010PropOp33
 70
     1
102
RTVSPost2010Prop34
280
     0
102
RTVSPost2010PropOp34
 70
     1
102
RTVSPost2010Prop35
280
     0
102
RTVSPost2010PropOp35
 70
     1
102
RTVSPost2010Prop36
280
     0
102
RTVSPost2010PropOp36
 70
     1
102
RTVSPost2010Prop37
 90
       50
102
RTVSPost2010PropOp37
 70
     1
102
RTVSPost2010Prop38
140
0.0
102
RTVSPost2010PropOp38
 70
     1
102
RTVSPost2010Prop39
140
1.0
102
RTVSPost2010PropOp39
 70
     1
102
RTVSPost2010Prop40
 90
        0
102
RTVSPost2010PropOp40
 70
     1
102
RTVSPost2010Prop41ColorIndex
 90
       18
102
RTVSPost2010Prop41ColorRGB
 90
        0
102
RTVSPost2010PropOp41
 70
     1
102
RTVSPost2010Prop42
 90
       50
102
RTVSPost2010PropOp42
 70
     1
102
RTVSPost2010Prop43
 90
        3
102
RTVSPost2010PropOp43
 70
     1
102
RTVSPost2010Prop44ColorIndex
 90
        5
102
RTVSPost2010Prop44ColorRGB
 90
      255
102
RTVSPost2010PropOp44
 70
     1
102
RTVSPost2010Prop45
280
     0
102
RTVSPost2010PropOp45
 70
     1
102
RTVSPost2010Prop46
 90
       50
102
RTVSPost2010PropOp46
 70
     1
102
RTVSPost2010Prop47
 90
       50
102
RTVSPost2010PropOp47
 70
     1
102
RTVSPost2010Prop48
 90
       50
102
RTVSPost2010PropOp48
 70
     1
102
RTVSPost2010Prop49
280
     0
102
RTVSPost2010PropOp49
 70
     1
102
RTVSPost2010Prop50
 90
       50
102
RTVSPost2010PropOp50
 70
     1
102
RTVSPost2010Prop51ColorIndex
 90
      256
102
RTVSPost2010Prop51ColorRGB
 90
-16777216
102
RTVSPost2010PropOp51
 70
     0
102
RTVSPost2010Prop52
140
1.0
102
RTVSPost2010PropOp52
 70
     0
102
RTVSPost2010Prop53
 90
        2
102
RTVSPost2010PropOp53
 70
     1
102
RTVSPost2010Prop54
  1
strokes_ogs.tif
102
RTVSPost2010PropOp54
 70
     1
102
RTVSPost2010Prop55
280
     0
102
RTVSPost2010PropOp55
 70
     1
102
RTVSPost2010Prop56
140
1.0
102
RTVSPost2010PropOp56
 70
     1
102
RTVSPost2010Prop57
140
1.0
102
RTVSPost2010PropOp57
 70
     1
  0
XRECORD
  5
363
102
{ACAD_REACTORS
330
362
102
}
330
362
100
AcDbXrecord
280
     1
102
RTVSPropertyOp0
 70
     1
102
RTVSPropertyOp1
 70
     1
102
RTVSPropertyOp2
 70
     1
102
RTVSPropertyOp3
 70
     1
102
RTVSPropertyOp4
 70
     1
102
RTVSPropertyOp5
 70
     1
102
RTVSPropertyOp6
 70
     1
102
RTVSPropertyOp7
 70
     1
102
RTVSPropertyOp8
 70
     1
102
RTVSPropertyOp9
 70
     1
102
RTVSPropertyOp10
 70
     1
102
RTVSPropertyOp11
 70
     1
102
RTVSPropertyOp12
 70
     1
102
RTVSPropertyOp13
 70
     1
102
RTVSPropertyOp14
 70
     1
102
RTVSPropertyOp15
 70
     1
102
RTVSPropertyOp16
 70
     1
102
RTVSPropertyOp17
 70
     1
102
RTVSPropertyOp18
 70
     1
102
RTVSPropertyOp19
 70
     1
102
RTVSPropertyOp20
 70
     1
102
RTVSPropertyOp21
 70
     1
102
RTVSPropertyOp22
 70
     1
102
RTVSPropertyOp23
 70
     1
102
RTVSPropertyOp24
 70
     1
102
RTVSPropertyOp25
 70
     1
102
RTVSPropertyOp26
 70
     1
102
RTVSPropertyOp27
 70
     1
102
RTVSPropertyOp28
 70
     1
102
RTVSPropertyOp29
 70
     1
102
RTVSPropertyOp30
 70
     1
102
RTVSPropertyOp31
 70
     1
102
RTVSPropertyOp32
 70
     1
102
RTVSPropertyOp33
 70
     1
102
RTVSPropertyOp34
 70
     1
102
RTVSPropertyOp35
 70
     1
102
RTVSPropertyOp36
 70
     1
102
RTVSPropertyOp37
 70
     1
102
RTVSPropertyOp38
 70
     1
102
RTVSPropertyOp39
 70
     1
102
RTVSPropertyOp40
 70
     1
102
RTVSPropertyOp41
 70
     1
102
RTVSPropertyOp42
 70
     1
102
RTVSPropertyOp43
 70
     1
102
RTVSPropertyOp44
 70
     1
102
RTVSPropertyOp45
 70
     1
102
RTVSPropertyOp46
 70
     1
102
RTVSPropertyOp47
 70
     1
102
RTVSPropertyOp48
 70
     1
102
RTVSPropertyOp49
 70
     1
102
RTVSPropertyOp50
 70
     1
102
RTVSPropertyOp51
 70
     0
102
RTVSPropertyOp52
 70
     0
102
RTVSPropertyOp53
 70
     1
102
RTVSPropertyOp54
 70
     1
102
RTVSPropertyOp55
 70
     1
102
RTVSPropertyOp56
 70
     1
102
RTVSPropertyOp57
 70
     1
102
RTVSPost2010Prop28
280
     0
102
RTVSPost2010PropOp28
 70
     1
102
RTVSPost2010Prop29
280
     1
102
RTVSPost2010PropOp29
 70
     1
102
RTVSPost2010Prop30
280
     1
102
RTVSPost2010PropOp30
 70
     1
102
RTVSPost2010Prop31
280
     0
102
RTVSPost2010PropOp31
 70
     1
102
RTVSPost2010Prop32
280
     0
102
RTVSPost2010PropOp32
 70
     1
102
RTVSPost2010Prop33
280
     0
102
RTVSPost2010PropOp33
 70
     1
102
RTVSPost2010Prop34
280
     0
102
RTVSPost2010PropOp34
 70
     1
102
RTVSPost2010Prop35
280
     0
102
RTVSPost2010PropOp35
 70
     1
102
RTVSPost2010Prop36
280
     0
102
RTVSPost2010PropOp36
 70
     1
102
RTVSPost2010Prop37
 90
       50
102
RTVSPost2010PropOp37
 70
     1
102
RTVSPost2010Prop38
140
0.0
102
RTVSPost2010PropOp38
 70
     1
102
RTVSPost2010Prop39
140
1.0
102
RTVSPost2010PropOp39
 70
     1
102
RTVSPost2010Prop40
 90
        0
102
RTVSPost2010PropOp40
 70
     1
102
RTVSPost2010Prop41ColorIndex
 90
       18
102
RTVSPost2010Prop41ColorRGB
 90
        0
102
RTVSPost2010PropOp41
 70
     1
102
RTVSPost2010Prop42
 90
       50
102
RTVSPost2010PropOp42
 70
     1
102
RTVSPost2010Prop43
 90
        3
102
RTVSPost2010PropOp43
 70
     1
102
RTVSPost2010Prop44ColorIndex
 90
        5
102
RTVSPost2010Prop44ColorRGB
 90
      255
102
RTVSPost2010PropOp44
 70
     1
102
RTVSPost2010Prop45
280
     0
102
RTVSPost2010PropOp45
 70
     1
102
RTVSPost2010Prop46
 90
       50
102
RTVSPost2010PropOp46
 70
     1
102
RTVSPost2010Prop47
 90
       50
102
RTVSPost2010PropOp47
 70
     1
102
RTVSPost2010Prop48
 90
       50
102
RTVSPost2010PropOp48
 70
     1
102
RTVSPost2010Prop49
280
     0
102
RTVSPost2010PropOp49
 70
     1
102
RTVSPost2010Prop50
 90
       50
102
RTVSPost2010PropOp50
 70
     1
102
RTVSPost2010Prop51ColorIndex
 90
      256
102
RTVSPost2010Prop51ColorRGB
 90
-16777216
102
RTVSPost2010PropOp51
 70
     0
102
RTVSPost2010Prop52
140
1.0
102
RTVSPost2010PropOp52
 70
     0
102
RTVSPost2010Prop53
 90
        2
102
RTVSPost2010PropOp53
 70
     1
102
RTVSPost2010Prop54
  1
strokes_ogs.tif
102
RTVSPost2010PropOp54
 70
     1
102
RTVSPost2010Prop55
280
     0
102
RTVSPost2010PropOp55
 70
     1
102
RTVSPost2010Prop56
140
1.0
102
RTVSPost2010PropOp56
 70
     1
102
RTVSPost2010Prop57
140
1.0
102
RTVSPost2010PropOp57
 70
     1
  0
XRECORD
  5
365
102
{ACAD_REACTORS
330
364
102
}
330
364
100
AcDbXrecord
280
     1
102
RTVSPropertyOp0
 70
     1
102
RTVSPropertyOp1
 70
     1
102
RTVSPropertyOp2
 70
     1
102
RTVSPropertyOp3
 70
     1
102
RTVSPropertyOp4
 70
     1
102
RTVSPropertyOp5
 70
     1
102
RTVSPropertyOp6
 70
     1
102
RTVSPropertyOp7
 70
     1
102
RTVSPropertyOp8
 70
     1
102
RTVSPropertyOp9
 70
     1
102
RTVSPropertyOp10
 70
     1
102
RTVSPropertyOp11
 70
     1
102
RTVSPropertyOp12
 70
     1
102
RTVSPropertyOp13
 70
     1
102
RTVSPropertyOp14
 70
     1
102
RTVSPropertyOp15
 70
     1
102
RTVSPropertyOp16
 70
     1
102
RTVSPropertyOp17
 70
     1
102
RTVSPropertyOp18
 70
     1
102
RTVSPropertyOp19
 70
     1
102
RTVSPropertyOp20
 70
     1
102
RTVSPropertyOp21
 70
     1
102
RTVSPropertyOp22
 70
     1
102
RTVSPropertyOp23
 70
     1
102
RTVSPropertyOp24
 70
     1
102
RTVSPropertyOp25
 70
     1
102
RTVSPropertyOp26
 70
     1
102
RTVSPropertyOp27
 70
     1
102
RTVSPropertyOp28
 70
     1
102
RTVSPropertyOp29
 70
     1
102
RTVSPropertyOp30
 70
     1
102
RTVSPropertyOp31
 70
     1
102
RTVSPropertyOp32
 70
     1
102
RTVSPropertyOp33
 70
     1
102
RTVSPropertyOp34
 70
     1
102
RTVSPropertyOp35
 70
     1
102
RTVSPropertyOp36
 70
     1
102
RTVSPropertyOp37
 70
     1
102
RTVSPropertyOp38
 70
     1
102
RTVSPropertyOp39
 70
     1
102
RTVSPropertyOp40
 70
     1
102
RTVSPropertyOp41
 70
     1
102
RTVSPropertyOp42
 70
     1
102
RTVSPropertyOp43
 70
     1
102
RTVSPropertyOp44
 70
     1
102
RTVSPropertyOp45
 70
     1
102
RTVSPropertyOp46
 70
     1
102
RTVSPropertyOp47
 70
     1
102
RTVSPropertyOp48
 70
     1
102
RTVSPropertyOp49
 70
     1
102
RTVSPropertyOp50
 70
     1
102
RTVSPropertyOp51
 70
     0
102
RTVSPropertyOp52
 70
     0
102
RTVSPropertyOp53
 70
     1
102
RTVSPropertyOp54
 70
     1
102
RTVSPropertyOp55
 70
     1
102
RTVSPropertyOp56
 70
     1
102
RTVSPropertyOp57
 70
     1
102
RTVSPost2010Prop28
280
     0
102
RTVSPost2010PropOp28
 70
     1
102
RTVSPost2010Prop29
280
     1
102
RTVSPost2010PropOp29
 70
     1
102
RTVSPost2010Prop30
280
     1
102
RTVSPost2010PropOp30
 70
     1
102
RTVSPost2010Prop31
280
     0
102
RTVSPost2010PropOp31
 70
     1
102
RTVSPost2010Prop32
280
     0
102
RTVSPost2010PropOp32
 70
     1
102
RTVSPost2010Prop33
280
     0
102
RTVSPost2010PropOp33
 70
     1
102
RTVSPost2010Prop34
280
     0
102
RTVSPost2010PropOp34
 70
     1
102
RTVSPost2010Prop35
280
     0
102
RTVSPost2010PropOp35
 70
     1
102
RTVSPost2010Prop36
280
     0
102
RTVSPost2010PropOp36
 70
     1
102
RTVSPost2010Prop37
 90
       50
102
RTVSPost2010PropOp37
 70
     1
102
RTVSPost2010Prop38
140
0.0
102
RTVSPost2010PropOp38
 70
     1
102
RTVSPost2010Prop39
140
1.0
102
RTVSPost2010PropOp39
 70
     1
102
RTVSPost2010Prop40
 90
        0
102
RTVSPost2010PropOp40
 70
     1
102
RTVSPost2010Prop41ColorIndex
 90
       18
102
RTVSPost2010Prop41ColorRGB
 90
        0
102
RTVSPost2010PropOp41
 70
     1
102
RTVSPost2010Prop42
 90
       50
102
RTVSPost2010PropOp42
 70
     1
102
RTVSPost2010Prop43
 90
        3
102
RTVSPost2010PropOp43
 70
     1
102
RTVSPost2010Prop44ColorIndex
 90
        5
102
RTVSPost2010Prop44ColorRGB
 90
      255
102
RTVSPost2010PropOp44
 70
     1
102
RTVSPost2010Prop45
280
     0
102
RTVSPost2010PropOp45
 70
     1
102
RTVSPost2010Prop46
 90
       50
102
RTVSPost2010PropOp46
 70
     1
102
RTVSPost2010Prop47
 90
       50
102
RTVSPost2010PropOp47
 70
     1
102
RTVSPost2010Prop48
 90
       50
102
RTVSPost2010PropOp48
 70
     1
102
RTVSPost2010Prop49
280
     0
102
RTVSPost2010PropOp49
 70
     1
102
RTVSPost2010Prop50
 90
       50
102
RTVSPost2010PropOp50
 70
     1
102
RTVSPost2010Prop51ColorIndex
 90
      256
102
RTVSPost2010Prop51ColorRGB
 90
-16777216
102
RTVSPost2010PropOp51
 70
     0
102
RTVSPost2010Prop52
140
1.0
102
RTVSPost2010PropOp52
 70
     0
102
RTVSPost2010Prop53
 90
        2
102
RTVSPost2010PropOp53
 70
     1
102
RTVSPost2010Prop54
  1
strokes_ogs.tif
102
RTVSPost2010PropOp54
 70
     1
102
RTVSPost2010Prop55
280
     0
102
RTVSPost2010PropOp55
 70
     1
102
RTVSPost2010Prop56
140
1.0
102
RTVSPost2010PropOp56
 70
     1
102
RTVSPost2010Prop57
140
1.0
102
RTVSPost2010PropOp57
 70
     1
  0
XRECORD
  5
367
102
{ACAD_REACTORS
330
366
102
}
330
366
100
AcDbXrecord
280
     1
102
RTVSPropertyOp0
 70
     1
102
RTVSPropertyOp1
 70
     1
102
RTVSPropertyOp2
 70
     1
102
RTVSPropertyOp3
 70
     1
102
RTVSPropertyOp4
 70
     1
102
RTVSPropertyOp5
 70
     1
102
RTVSPropertyOp6
 70
     1
102
RTVSPropertyOp7
 70
     1
102
RTVSPropertyOp8
 70
     1
102
RTVSPropertyOp9
 70
     1
102
RTVSPropertyOp10
 70
     1
102
RTVSPropertyOp11
 70
     1
102
RTVSPropertyOp12
 70
     1
102
RTVSPropertyOp13
 70
     1
102
RTVSPropertyOp14
 70
     1
102
RTVSPropertyOp15
 70
     1
102
RTVSPropertyOp16
 70
     1
102
RTVSPropertyOp17
 70
     1
102
RTVSPropertyOp18
 70
     1
102
RTVSPropertyOp19
 70
     1
102
RTVSPropertyOp20
 70
     1
102
RTVSPropertyOp21
 70
     1
102
RTVSPropertyOp22
 70
     1
102
RTVSPropertyOp23
 70
     1
102
RTVSPropertyOp24
 70
     1
102
RTVSPropertyOp25
 70
     1
102
RTVSPropertyOp26
 70
     1
102
RTVSPropertyOp27
 70
     1
102
RTVSPropertyOp28
 70
     1
102
RTVSPropertyOp29
 70
     1
102
RTVSPropertyOp30
 70
     1
102
RTVSPropertyOp31
 70
     1
102
RTVSPropertyOp32
 70
     1
102
RTVSPropertyOp33
 70
     1
102
RTVSPropertyOp34
 70
     1
102
RTVSPropertyOp35
 70
     1
102
RTVSPropertyOp36
 70
     1
102
RTVSPropertyOp37
 70
     1
102
RTVSPropertyOp38
 70
     1
102
RTVSPropertyOp39
 70
     1
102
RTVSPropertyOp40
 70
     1
102
RTVSPropertyOp41
 70
     1
102
RTVSPropertyOp42
 70
     1
102
RTVSPropertyOp43
 70
     1
102
RTVSPropertyOp44
 70
     1
102
RTVSPropertyOp45
 70
     1
102
RTVSPropertyOp46
 70
     1
102
RTVSPropertyOp47
 70
     1
102
RTVSPropertyOp48
 70
     1
102
RTVSPropertyOp49
 70
     1
102
RTVSPropertyOp50
 70
     1
102
RTVSPropertyOp51
 70
     0
102
RTVSPropertyOp52
 70
     0
102
RTVSPropertyOp53
 70
     1
102
RTVSPropertyOp54
 70
     1
102
RTVSPropertyOp55
 70
     1
102
RTVSPropertyOp56
 70
     1
102
RTVSPropertyOp57
 70
     1
102
RTVSPost2010Prop28
280
     0
102
RTVSPost2010PropOp28
 70
     1
102
RTVSPost2010Prop29
280
     1
102
RTVSPost2010PropOp29
 70
     1
102
RTVSPost2010Prop30
280
     1
102
RTVSPost2010PropOp30
 70
     1
102
RTVSPost2010Prop31
280
     0
102
RTVSPost2010PropOp31
 70
     1
102
RTVSPost2010Prop32
280
     0
102
RTVSPost2010PropOp32
 70
     1
102
RTVSPost2010Prop33
280
     0
102
RTVSPost2010PropOp33
 70
     1
102
RTVSPost2010Prop34
280
     0
102
RTVSPost2010PropOp34
 70
     1
102
RTVSPost2010Prop35
280
     0
102
RTVSPost2010PropOp35
 70
     1
102
RTVSPost2010Prop36
280
     0
102
RTVSPost2010PropOp36
 70
     1
102
RTVSPost2010Prop37
 90
       50
102
RTVSPost2010PropOp37
 70
     1
102
RTVSPost2010Prop38
140
0.0
102
RTVSPost2010PropOp38
 70
     1
102
RTVSPost2010Prop39
140
1.0
102
RTVSPost2010PropOp39
 70
     1
102
RTVSPost2010Prop40
 90
        0
102
RTVSPost2010PropOp40
 70
     1
102
RTVSPost2010Prop41ColorIndex
 90
       18
102
RTVSPost2010Prop41ColorRGB
 90
        0
102
RTVSPost2010PropOp41
 70
     1
102
RTVSPost2010Prop42
 90
       50
102
RTVSPost2010PropOp42
 70
     1
102
RTVSPost2010Prop43
 90
        3
102
RTVSPost2010PropOp43
 70
     1
102
RTVSPost2010Prop44ColorIndex
 90
        5
102
RTVSPost2010Prop44ColorRGB
 90
      255
102
RTVSPost2010PropOp44
 70
     1
102
RTVSPost2010Prop45
280
     0
102
RTVSPost2010PropOp45
 70
     1
102
RTVSPost2010Prop46
 90
       50
102
RTVSPost2010PropOp46
 70
     1
102
RTVSPost2010Prop47
 90
       50
102
RTVSPost2010PropOp47
 70
     1
102
RTVSPost2010Prop48
 90
       50
102
RTVSPost2010PropOp48
 70
     1
102
RTVSPost2010Prop49
280
     0
102
RTVSPost2010PropOp49
 70
     1
102
RTVSPost2010Prop50
 90
       50
102
RTVSPost2010PropOp50
 70
     1
102
RTVSPost2010Prop51ColorIndex
 90
      256
102
RTVSPost2010Prop51ColorRGB
 90
-16777216
102
RTVSPost2010PropOp51
 70
     0
102
RTVSPost2010Prop52
140
1.0
102
RTVSPost2010PropOp52
 70
     0
102
RTVSPost2010Prop53
 90
        2
102
RTVSPost2010PropOp53
 70
     1
102
RTVSPost2010Prop54
  1
strokes_ogs.tif
102
RTVSPost2010PropOp54
 70
     1
102
RTVSPost2010Prop55
280
     0
102
RTVSPost2010PropOp55
 70
     1
102
RTVSPost2010Prop56
140
1.0
102
RTVSPost2010PropOp56
 70
     1
102
RTVSPost2010Prop57
140
1.0
102
RTVSPost2010PropOp57
 70
     1
  0
XRECORD
  5
369
102
{ACAD_REACTORS
330
368
102
}
330
368
100
AcDbXrecord
280
     1
102
RTVSPropertyOp0
 70
     1
102
RTVSPropertyOp1
 70
     1
102
RTVSPropertyOp2
 70
     1
102
RTVSPropertyOp3
 70
     1
102
RTVSPropertyOp4
 70
     1
102
RTVSPropertyOp5
 70
     1
102
RTVSPropertyOp6
 70
     1
102
RTVSPropertyOp7
 70
     1
102
RTVSPropertyOp8
 70
     1
102
RTVSPropertyOp9
 70
     1
102
RTVSPropertyOp10
 70
     1
102
RTVSPropertyOp11
 70
     1
102
RTVSPropertyOp12
 70
     1
102
RTVSPropertyOp13
 70
     1
102
RTVSPropertyOp14
 70
     1
102
RTVSPropertyOp15
 70
     1
102
RTVSPropertyOp16
 70
     1
102
RTVSPropertyOp17
 70
     1
102
RTVSPropertyOp18
 70
     1
102
RTVSPropertyOp19
 70
     1
102
RTVSPropertyOp20
 70
     1
102
RTVSPropertyOp21
 70
     1
102
RTVSPropertyOp22
 70
     1
102
RTVSPropertyOp23
 70
     1
102
RTVSPropertyOp24
 70
     1
102
RTVSPropertyOp25
 70
     1
102
RTVSPropertyOp26
 70
     1
102
RTVSPropertyOp27
 70
     1
102
RTVSPropertyOp28
 70
     1
102
RTVSPropertyOp29
 70
     1
102
RTVSPropertyOp30
 70
     1
102
RTVSPropertyOp31
 70
     1
102
RTVSPropertyOp32
 70
     1
102
RTVSPropertyOp33
 70
     1
102
RTVSPropertyOp34
 70
     1
102
RTVSPropertyOp35
 70
     1
102
RTVSPropertyOp36
 70
     1
102
RTVSPropertyOp37
 70
     1
102
RTVSPropertyOp38
 70
     1
102
RTVSPropertyOp39
 70
     1
102
RTVSPropertyOp40
 70
     1
102
RTVSPropertyOp41
 70
     1
102
RTVSPropertyOp42
 70
     1
102
RTVSPropertyOp43
 70
     1
102
RTVSPropertyOp44
 70
     1
102
RTVSPropertyOp45
 70
     1
102
RTVSPropertyOp46
 70
     1
102
RTVSPropertyOp47
 70
     1
102
RTVSPropertyOp48
 70
     1
102
RTVSPropertyOp49
 70
     1
102
RTVSPropertyOp50
 70
     1
102
RTVSPropertyOp51
 70
     0
102
RTVSPropertyOp52
 70
     0
102
RTVSPropertyOp53
 70
     1
102
RTVSPropertyOp54
 70
     1
102
RTVSPropertyOp55
 70
     1
102
RTVSPropertyOp56
 70
     1
102
RTVSPropertyOp57
 70
     1
102
RTVSPost2010Prop28
280
     0
102
RTVSPost2010PropOp28
 70
     1
102
RTVSPost2010Prop29
280
     1
102
RTVSPost2010PropOp29
 70
     1
102
RTVSPost2010Prop30
280
     1
102
RTVSPost2010PropOp30
 70
     1
102
RTVSPost2010Prop31
280
     0
102
RTVSPost2010PropOp31
 70
     1
102
RTVSPost2010Prop32
280
     0
102
RTVSPost2010PropOp32
 70
     1
102
RTVSPost2010Prop33
280
     0
102
RTVSPost2010PropOp33
 70
     1
102
RTVSPost2010Prop34
280
     0
102
RTVSPost2010PropOp34
 70
     1
102
RTVSPost2010Prop35
280
     0
102
RTVSPost2010PropOp35
 70
     1
102
RTVSPost2010Prop36
280
     0
102
RTVSPost2010PropOp36
 70
     1
102
RTVSPost2010Prop37
 90
       50
102
RTVSPost2010PropOp37
 70
     1
102
RTVSPost2010Prop38
140
0.0
102
RTVSPost2010PropOp38
 70
     1
102
RTVSPost2010Prop39
140
1.0
102
RTVSPost2010PropOp39
 70
     1
102
RTVSPost2010Prop40
 90
        0
102
RTVSPost2010PropOp40
 70
     1
102
RTVSPost2010Prop41ColorIndex
 90
       18
102
RTVSPost2010Prop41ColorRGB
 90
        0
102
RTVSPost2010PropOp41
 70
     1
102
RTVSPost2010Prop42
 90
       50
102
RTVSPost2010PropOp42
 70
     1
102
RTVSPost2010Prop43
 90
        3
102
RTVSPost2010PropOp43
 70
     1
102
RTVSPost2010Prop44ColorIndex
 90
        5
102
RTVSPost2010Prop44ColorRGB
 90
      255
102
RTVSPost2010PropOp44
 70
     1
102
RTVSPost2010Prop45
280
     0
102
RTVSPost2010PropOp45
 70
     1
102
RTVSPost2010Prop46
 90
       50
102
RTVSPost2010PropOp46
 70
     1
102
RTVSPost2010Prop47
 90
       50
102
RTVSPost2010PropOp47
 70
     1
102
RTVSPost2010Prop48
 90
       50
102
RTVSPost2010PropOp48
 70
     1
102
RTVSPost2010Prop49
280
     0
102
RTVSPost2010PropOp49
 70
     1
102
RTVSPost2010Prop50
 90
       50
102
RTVSPost2010PropOp50
 70
     1
102
RTVSPost2010Prop51ColorIndex
 90
      256
102
RTVSPost2010Prop51ColorRGB
 90
-16777216
102
RTVSPost2010PropOp51
 70
     0
102
RTVSPost2010Prop52
140
1.0
102
RTVSPost2010PropOp52
 70
     0
102
RTVSPost2010Prop53
 90
        2
102
RTVSPost2010PropOp53
 70
     1
102
RTVSPost2010Prop54
  1
strokes_ogs.tif
102
RTVSPost2010PropOp54
 70
     1
102
RTVSPost2010Prop55
280
     0
102
RTVSPost2010PropOp55
 70
     1
102
RTVSPost2010Prop56
140
1.0
102
RTVSPost2010PropOp56
 70
     1
102
RTVSPost2010Prop57
140
1.0
102
RTVSPost2010PropOp57
 70
     1
  0
XRECORD
  5
36F
102
{ACAD_REACTORS
330
36E
102
}
330
36E
100
AcDbXrecord
280
     1
102
RTVSPropertyOp0
 70
     1
102
RTVSPropertyOp1
 70
     1
102
RTVSPropertyOp2
 70
     1
102
RTVSPropertyOp3
 70
     1
102
RTVSPropertyOp4
 70
     1
102
RTVSPropertyOp5
 70
     1
102
RTVSPropertyOp6
 70
     1
102
RTVSPropertyOp7
 70
     1
102
RTVSPropertyOp8
 70
     1
102
RTVSPropertyOp9
 70
     1
102
RTVSPropertyOp10
 70
     1
102
RTVSPropertyOp11
 70
     1
102
RTVSPropertyOp12
 70
     1
102
RTVSPropertyOp13
 70
     1
102
RTVSPropertyOp14
 70
     1
102
RTVSPropertyOp15
 70
     1
102
RTVSPropertyOp16
 70
     1
102
RTVSPropertyOp17
 70
     1
102
RTVSPropertyOp18
 70
     1
102
RTVSPropertyOp19
 70
     1
102
RTVSPropertyOp20
 70
     1
102
RTVSPropertyOp21
 70
     1
102
RTVSPropertyOp22
 70
     1
102
RTVSPropertyOp23
 70
     1
102
RTVSPropertyOp24
 70
     1
102
RTVSPropertyOp25
 70
     1
102
RTVSPropertyOp26
 70
     1
102
RTVSPropertyOp27
 70
     1
102
RTVSPropertyOp28
 70
     1
102
RTVSPropertyOp29
 70
     1
102
RTVSPropertyOp30
 70
     1
102
RTVSPropertyOp31
 70
     1
102
RTVSPropertyOp32
 70
     1
102
RTVSPropertyOp33
 70
     1
102
RTVSPropertyOp34
 70
     1
102
RTVSPropertyOp35
 70
     1
102
RTVSPropertyOp36
 70
     1
102
RTVSPropertyOp37
 70
     1
102
RTVSPropertyOp38
 70
     1
102
RTVSPropertyOp39
 70
     1
102
RTVSPropertyOp40
 70
     1
102
RTVSPropertyOp41
 70
     1
102
RTVSPropertyOp42
 70
     1
102
RTVSPropertyOp43
 70
     1
102
RTVSPropertyOp44
 70
     1
102
RTVSPropertyOp45
 70
     1
102
RTVSPropertyOp46
 70
     1
102
RTVSPropertyOp47
 70
     1
102
RTVSPropertyOp48
 70
     1
102
RTVSPropertyOp49
 70
     1
102
RTVSPropertyOp50
 70
     1
102
RTVSPropertyOp51
 70
     0
102
RTVSPropertyOp52
 70
     0
102
RTVSPropertyOp53
 70
     1
102
RTVSPropertyOp54
 70
     1
102
RTVSPropertyOp55
 70
     1
102
RTVSPropertyOp56
 70
     1
102
RTVSPropertyOp57
 70
     1
102
RTVSPost2010Prop28
280
     0
102
RTVSPost2010PropOp28
 70
     1
102
RTVSPost2010Prop29
280
     1
102
RTVSPost2010PropOp29
 70
     1
102
RTVSPost2010Prop30
280
     1
102
RTVSPost2010PropOp30
 70
     1
102
RTVSPost2010Prop31
280
     0
102
RTVSPost2010PropOp31
 70
     1
102
RTVSPost2010Prop32
280
     0
102
RTVSPost2010PropOp32
 70
     1
102
RTVSPost2010Prop33
280
     0
102
RTVSPost2010PropOp33
 70
     1
102
RTVSPost2010Prop34
280
     0
102
RTVSPost2010PropOp34
 70
     1
102
RTVSPost2010Prop35
280
     0
102
RTVSPost2010PropOp35
 70
     1
102
RTVSPost2010Prop36
280
     0
102
RTVSPost2010PropOp36
 70
     1
102
RTVSPost2010Prop37
 90
       50
102
RTVSPost2010PropOp37
 70
     1
102
RTVSPost2010Prop38
140
0.0
102
RTVSPost2010PropOp38
 70
     1
102
RTVSPost2010Prop39
140
1.0
102
RTVSPost2010PropOp39
 70
     1
102
RTVSPost2010Prop40
 90
        0
102
RTVSPost2010PropOp40
 70
     1
102
RTVSPost2010Prop41ColorIndex
 90
       18
102
RTVSPost2010Prop41ColorRGB
 90
        0
102
RTVSPost2010PropOp41
 70
     1
102
RTVSPost2010Prop42
 90
       50
102
RTVSPost2010PropOp42
 70
     1
102
RTVSPost2010Prop43
 90
        3
102
RTVSPost2010PropOp43
 70
     1
102
RTVSPost2010Prop44ColorIndex
 90
        5
102
RTVSPost2010Prop44ColorRGB
 90
      255
102
RTVSPost2010PropOp44
 70
     1
102
RTVSPost2010Prop45
280
     0
102
RTVSPost2010PropOp45
 70
     1
102
RTVSPost2010Prop46
 90
       50
102
RTVSPost2010PropOp46
 70
     1
102
RTVSPost2010Prop47
 90
       50
102
RTVSPost2010PropOp47
 70
     1
102
RTVSPost2010Prop48
 90
       50
102
RTVSPost2010PropOp48
 70
     1
102
RTVSPost2010Prop49
280
     0
102
RTVSPost2010PropOp49
 70
     1
102
RTVSPost2010Prop50
 90
       50
102
RTVSPost2010PropOp50
 70
     1
102
RTVSPost2010Prop51ColorIndex
 90
      256
102
RTVSPost2010Prop51ColorRGB
 90
-16777216
102
RTVSPost2010PropOp51
 70
     0
102
RTVSPost2010Prop52
140
1.0
102
RTVSPost2010PropOp52
 70
     0
102
RTVSPost2010Prop53
 90
        2
102
RTVSPost2010PropOp53
 70
     1
102
RTVSPost2010Prop54
  1
strokes_ogs.tif
102
RTVSPost2010PropOp54
 70
     1
102
RTVSPost2010Prop55
280
     0
102
RTVSPost2010PropOp55
 70
     1
102
RTVSPost2010Prop56
140
1.0
102
RTVSPost2010PropOp56
 70
     1
102
RTVSPost2010Prop57
140
1.0
102
RTVSPost2010PropOp57
 70
     1
  0
XRECORD
  5
383
102
{ACAD_REACTORS
330
382
102
}
330
382
100
AcDbXrecord
280
     1
102
RTVSPropertyOp0
 70
     0
102
RTVSPropertyOp1
 70
     0
102
RTVSPropertyOp2
 70
     0
102
RTVSPropertyOp3
 70
     0
102
RTVSPropertyOp4
 70
     0
102
RTVSPropertyOp5
 70
     0
102
RTVSPropertyOp6
 70
     0
102
RTVSPropertyOp7
 70
     0
102
RTVSPropertyOp8
 70
     0
102
RTVSPropertyOp9
 70
     0
102
RTVSPropertyOp10
 70
     0
102
RTVSPropertyOp11
 70
     0
102
RTVSPropertyOp12
 70
     0
102
RTVSPropertyOp13
 70
     0
102
RTVSPropertyOp14
 70
     2
102
RTVSPropertyOp15
 70
     0
102
RTVSPropertyOp16
 70
     0
102
RTVSPropertyOp17
 70
     0
102
RTVSPropertyOp18
 70
     0
102
RTVSPropertyOp19
 70
     0
102
RTVSPropertyOp20
 70
     0
102
RTVSPropertyOp21
 70
     0
102
RTVSPropertyOp22
 70
     0
102
RTVSPropertyOp23
 70
     0
102
RTVSPropertyOp24
 70
     0
102
RTVSPropertyOp25
 70
     0
102
RTVSPropertyOp26
 70
     0
102
RTVSPropertyOp27
 70
     0
102
RTVSPropertyOp28
 70
     0
102
RTVSPropertyOp29
 70
     0
102
RTVSPropertyOp30
 70
     0
102
RTVSPropertyOp31
 70
     0
102
RTVSPropertyOp32
 70
     0
102
RTVSPropertyOp33
 70
     0
102
RTVSPropertyOp34
 70
     0
102
RTVSPropertyOp35
 70
     0
102
RTVSPropertyOp36
 70
     0
102
RTVSPropertyOp37
 70
     0
102
RTVSPropertyOp38
 70
     0
102
RTVSPropertyOp39
 70
     0
102
RTVSPropertyOp40
 70
     0
102
RTVSPropertyOp41
 70
     0
102
RTVSPropertyOp42
 70
     0
102
RTVSPropertyOp43
 70
     0
102
RTVSPropertyOp44
 70
     0
102
RTVSPropertyOp45
 70
     0
102
RTVSPropertyOp46
 70
     0
102
RTVSPropertyOp47
 70
     0
102
RTVSPropertyOp48
 70
     0
102
RTVSPropertyOp49
 70
     0
102
RTVSPropertyOp50
 70
     0
102
RTVSPropertyOp51
 70
     0
102
RTVSPropertyOp52
 70
     0
102
RTVSPropertyOp53
 70
     0
102
RTVSPropertyOp54
 70
     0
102
RTVSPropertyOp55
 70
     0
102
RTVSPropertyOp56
 70
     0
102
RTVSPropertyOp57
 70
     0
102
RTVSPost2010Prop28
280
     0
102
RTVSPost2010PropOp28
 70
     0
102
RTVSPost2010Prop29
280
     1
102
RTVSPost2010PropOp29
 70
     0
102
RTVSPost2010Prop30
280
     1
102
RTVSPost2010PropOp30
 70
     0
102
RTVSPost2010Prop31
280
     0
102
RTVSPost2010PropOp31
 70
     0
102
RTVSPost2010Prop32
280
     0
102
RTVSPost2010PropOp32
 70
     0
102
RTVSPost2010Prop33
280
     0
102
RTVSPost2010PropOp33
 70
     0
102
RTVSPost2010Prop34
280
     0
102
RTVSPost2010PropOp34
 70
     0
102
RTVSPost2010Prop35
280
     0
102
RTVSPost2010PropOp35
 70
     0
102
RTVSPost2010Prop36
280
     0
102
RTVSPost2010PropOp36
 70
     0
102
RTVSPost2010Prop37
 90
       50
102
RTVSPost2010PropOp37
 70
     0
102
RTVSPost2010Prop38
140
0.0
102
RTVSPost2010PropOp38
 70
     0
102
RTVSPost2010Prop39
140
1.0
102
RTVSPost2010PropOp39
 70
     0
102
RTVSPost2010Prop40
 90
        0
102
RTVSPost2010PropOp40
 70
     0
102
RTVSPost2010Prop41ColorIndex
 90
       18
102
RTVSPost2010Prop41ColorRGB
 90
        0
102
RTVSPost2010PropOp41
 70
     0
102
RTVSPost2010Prop42
 90
       50
102
RTVSPost2010PropOp42
 70
     0
102
RTVSPost2010Prop43
 90
        3
102
RTVSPost2010PropOp43
 70
     0
102
RTVSPost2010Prop44ColorIndex
 90
        5
102
RTVSPost2010Prop44ColorRGB
 90
      255
102
RTVSPost2010PropOp44
 70
     0
102
RTVSPost2010Prop45
280
     0
102
RTVSPost2010PropOp45
 70
     0
102
RTVSPost2010Prop46
 90
       50
102
RTVSPost2010PropOp46
 70
     0
102
RTVSPost2010Prop47
 90
       50
102
RTVSPost2010PropOp47
 70
     0
102
RTVSPost2010Prop48
 90
       50
102
RTVSPost2010PropOp48
 70
     0
102
RTVSPost2010Prop49
280
     0
102
RTVSPost2010PropOp49
 70
     0
102
RTVSPost2010Prop50
 90
       50
102
RTVSPost2010PropOp50
 70
     0
102
RTVSPost2010Prop51ColorIndex
 90
      256
102
RTVSPost2010Prop51ColorRGB
 90
-16777216
102
RTVSPost2010PropOp51
 70
     0
102
RTVSPost2010Prop52
140
1.0
102
RTVSPost2010PropOp52
 70
     0
102
RTVSPost2010Prop53
 90
        2
102
RTVSPost2010PropOp53
 70
     0
102
RTVSPost2010Prop54
  1
strokes_ogs.tif
102
RTVSPost2010PropOp54
 70
     0
102
RTVSPost2010Prop55
280
     0
102
RTVSPost2010PropOp55
 70
     0
102
RTVSPost2010Prop56
140
1.0
102
RTVSPost2010PropOp56
 70
     0
102
RTVSPost2010Prop57
140
1.0
102
RTVSPost2010PropOp57
 70
     0
  0
XRECORD
  5
37D
102
{ACAD_REACTORS
330
37C
102
}
330
37C
100
AcDbXrecord
280
     1
102
RTVSPropertyOp0
 70
     1
102
RTVSPropertyOp1
 70
     1
102
RTVSPropertyOp2
 70
     1
102
RTVSPropertyOp3
 70
     1
102
RTVSPropertyOp4
 70
     1
102
RTVSPropertyOp5
 70
     1
102
RTVSPropertyOp6
 70
     1
102
RTVSPropertyOp7
 70
     1
102
RTVSPropertyOp8
 70
     1
102
RTVSPropertyOp9
 70
     1
102
RTVSPropertyOp10
 70
     1
102
RTVSPropertyOp11
 70
     1
102
RTVSPropertyOp12
 70
     1
102
RTVSPropertyOp13
 70
     1
102
RTVSPropertyOp14
 70
     1
102
RTVSPropertyOp15
 70
     1
102
RTVSPropertyOp16
 70
     1
102
RTVSPropertyOp17
 70
     1
102
RTVSPropertyOp18
 70
     1
102
RTVSPropertyOp19
 70
     1
102
RTVSPropertyOp20
 70
     1
102
RTVSPropertyOp21
 70
     1
102
RTVSPropertyOp22
 70
     1
102
RTVSPropertyOp23
 70
     1
102
RTVSPropertyOp24
 70
     1
102
RTVSPropertyOp25
 70
     1
102
RTVSPropertyOp26
 70
     1
102
RTVSPropertyOp27
 70
     1
102
RTVSPropertyOp28
 70
     1
102
RTVSPropertyOp29
 70
     1
102
RTVSPropertyOp30
 70
     1
102
RTVSPropertyOp31
 70
     1
102
RTVSPropertyOp32
 70
     1
102
RTVSPropertyOp33
 70
     1
102
RTVSPropertyOp34
 70
     1
102
RTVSPropertyOp35
 70
     1
102
RTVSPropertyOp36
 70
     1
102
RTVSPropertyOp37
 70
     1
102
RTVSPropertyOp38
 70
     1
102
RTVSPropertyOp39
 70
     1
102
RTVSPropertyOp40
 70
     1
102
RTVSPropertyOp41
 70
     1
102
RTVSPropertyOp42
 70
     1
102
RTVSPropertyOp43
 70
     1
102
RTVSPropertyOp44
 70
     1
102
RTVSPropertyOp45
 70
     1
102
RTVSPropertyOp46
 70
     1
102
RTVSPropertyOp47
 70
     1
102
RTVSPropertyOp48
 70
     1
102
RTVSPropertyOp49
 70
     1
102
RTVSPropertyOp50
 70
     1
102
RTVSPropertyOp51
 70
     0
102
RTVSPropertyOp52
 70
     0
102
RTVSPropertyOp53
 70
     1
102
RTVSPropertyOp54
 70
     1
102
RTVSPropertyOp55
 70
     1
102
RTVSPropertyOp56
 70
     1
102
RTVSPropertyOp57
 70
     1
102
RTVSPost2010Prop28
280
     0
102
RTVSPost2010PropOp28
 70
     1
102
RTVSPost2010Prop29
280
     1
102
RTVSPost2010PropOp29
 70
     1
102
RTVSPost2010Prop30
280
     1
102
RTVSPost2010PropOp30
 70
     1
102
RTVSPost2010Prop31
280
     0
102
RTVSPost2010PropOp31
 70
     1
102
RTVSPost2010Prop32
280
     0
102
RTVSPost2010PropOp32
 70
     1
102
RTVSPost2010Prop33
280
     0
102
RTVSPost2010PropOp33
 70
     1
102
RTVSPost2010Prop34
280
     0
102
RTVSPost2010PropOp34
 70
     1
102
RTVSPost2010Prop35
280
     0
102
RTVSPost2010PropOp35
 70
     1
102
RTVSPost2010Prop36
280
     0
102
RTVSPost2010PropOp36
 70
     1
102
RTVSPost2010Prop37
 90
       50
102
RTVSPost2010PropOp37
 70
     1
102
RTVSPost2010Prop38
140
0.0
102
RTVSPost2010PropOp38
 70
     1
102
RTVSPost2010Prop39
140
1.0
102
RTVSPost2010PropOp39
 70
     1
102
RTVSPost2010Prop40
 90
        0
102
RTVSPost2010PropOp40
 70
     1
102
RTVSPost2010Prop41ColorIndex
 90
       18
102
RTVSPost2010Prop41ColorRGB
 90
        0
102
RTVSPost2010PropOp41
 70
     1
102
RTVSPost2010Prop42
 90
       50
102
RTVSPost2010PropOp42
 70
     1
102
RTVSPost2010Prop43
 90
        3
102
RTVSPost2010PropOp43
 70
     1
102
RTVSPost2010Prop44ColorIndex
 90
        5
102
RTVSPost2010Prop44ColorRGB
 90
      255
102
RTVSPost2010PropOp44
 70
     1
102
RTVSPost2010Prop45
280
     0
102
RTVSPost2010PropOp45
 70
     1
102
RTVSPost2010Prop46
 90
       50
102
RTVSPost2010PropOp46
 70
     1
102
RTVSPost2010Prop47
 90
       50
102
RTVSPost2010PropOp47
 70
     1
102
RTVSPost2010Prop48
 90
       50
102
RTVSPost2010PropOp48
 70
     1
102
RTVSPost2010Prop49
280
     0
102
RTVSPost2010PropOp49
 70
     1
102
RTVSPost2010Prop50
 90
       50
102
RTVSPost2010PropOp50
 70
     1
102
RTVSPost2010Prop51ColorIndex
 90
      256
102
RTVSPost2010Prop51ColorRGB
 90
-16777216
102
RTVSPost2010PropOp51
 70
     0
102
RTVSPost2010Prop52
140
1.0
102
RTVSPost2010PropOp52
 70
     0
102
RTVSPost2010Prop53
 90
        2
102
RTVSPost2010PropOp53
 70
     1
102
RTVSPost2010Prop54
  1
strokes_ogs.tif
102
RTVSPost2010PropOp54
 70
     1
102
RTVSPost2010Prop55
280
     0
102
RTVSPost2010PropOp55
 70
     1
102
RTVSPost2010Prop56
140
1.0
102
RTVSPost2010PropOp56
 70
     1
102
RTVSPost2010Prop57
140
1.0
102
RTVSPost2010PropOp57
 70
     1
  0
XRECORD
  5
385
102
{ACAD_REACTORS
330
384
102
}
330
384
100
AcDbXrecord
280
     1
102
RTVSPropertyOp0
 70
     0
102
RTVSPropertyOp1
 70
     0
102
RTVSPropertyOp2
 70
     0
102
RTVSPropertyOp3
 70
     0
102
RTVSPropertyOp4
 70
     0
102
RTVSPropertyOp5
 70
     0
102
RTVSPropertyOp6
 70
     0
102
RTVSPropertyOp7
 70
     0
102
RTVSPropertyOp8
 70
     0
102
RTVSPropertyOp9
 70
     0
102
RTVSPropertyOp10
 70
     0
102
RTVSPropertyOp11
 70
     0
102
RTVSPropertyOp12
 70
     0
102
RTVSPropertyOp13
 70
     0
102
RTVSPropertyOp14
 70
     2
102
RTVSPropertyOp15
 70
     0
102
RTVSPropertyOp16
 70
     0
102
RTVSPropertyOp17
 70
     0
102
RTVSPropertyOp18
 70
     0
102
RTVSPropertyOp19
 70
     0
102
RTVSPropertyOp20
 70
     0
102
RTVSPropertyOp21
 70
     0
102
RTVSPropertyOp22
 70
     0
102
RTVSPropertyOp23
 70
     0
102
RTVSPropertyOp24
 70
     0
102
RTVSPropertyOp25
 70
     0
102
RTVSPropertyOp26
 70
     0
102
RTVSPropertyOp27
 70
     0
102
RTVSPropertyOp28
 70
     0
102
RTVSPropertyOp29
 70
     0
102
RTVSPropertyOp30
 70
     0
102
RTVSPropertyOp31
 70
     0
102
RTVSPropertyOp32
 70
     0
102
RTVSPropertyOp33
 70
     0
102
RTVSPropertyOp34
 70
     0
102
RTVSPropertyOp35
 70
     0
102
RTVSPropertyOp36
 70
     0
102
RTVSPropertyOp37
 70
     0
102
RTVSPropertyOp38
 70
     0
102
RTVSPropertyOp39
 70
     0
102
RTVSPropertyOp40
 70
     0
102
RTVSPropertyOp41
 70
     0
102
RTVSPropertyOp42
 70
     0
102
RTVSPropertyOp43
 70
     0
102
RTVSPropertyOp44
 70
     0
102
RTVSPropertyOp45
 70
     0
102
RTVSPropertyOp46
 70
     0
102
RTVSPropertyOp47
 70
     0
102
RTVSPropertyOp48
 70
     0
102
RTVSPropertyOp49
 70
     0
102
RTVSPropertyOp50
 70
     0
102
RTVSPropertyOp51
 70
     0
102
RTVSPropertyOp52
 70
     0
102
RTVSPropertyOp53
 70
     0
102
RTVSPropertyOp54
 70
     0
102
RTVSPropertyOp55
 70
     0
102
RTVSPropertyOp56
 70
     0
102
RTVSPropertyOp57
 70
     0
102
RTVSPost2010Prop28
280
     0
102
RTVSPost2010PropOp28
 70
     0
102
RTVSPost2010Prop29
280
     1
102
RTVSPost2010PropOp29
 70
     0
102
RTVSPost2010Prop30
280
     1
102
RTVSPost2010PropOp30
 70
     0
102
RTVSPost2010Prop31
280
     0
102
RTVSPost2010PropOp31
 70
     0
102
RTVSPost2010Prop32
280
     0
102
RTVSPost2010PropOp32
 70
     0
102
RTVSPost2010Prop33
280
     0
102
RTVSPost2010PropOp33
 70
     0
102
RTVSPost2010Prop34
280
     0
102
RTVSPost2010PropOp34
 70
     0
102
RTVSPost2010Prop35
280
     0
102
RTVSPost2010PropOp35
 70
     0
102
RTVSPost2010Prop36
280
     0
102
RTVSPost2010PropOp36
 70
     0
102
RTVSPost2010Prop37
 90
       50
102
RTVSPost2010PropOp37
 70
     0
102
RTVSPost2010Prop38
140
0.0
102
RTVSPost2010PropOp38
 70
     0
102
RTVSPost2010Prop39
140
1.0
102
RTVSPost2010PropOp39
 70
     0
102
RTVSPost2010Prop40
 90
        0
102
RTVSPost2010PropOp40
 70
     0
102
RTVSPost2010Prop41ColorIndex
 90
       18
102
RTVSPost2010Prop41ColorRGB
 90
        0
102
RTVSPost2010PropOp41
 70
     0
102
RTVSPost2010Prop42
 90
       50
102
RTVSPost2010PropOp42
 70
     0
102
RTVSPost2010Prop43
 90
        3
102
RTVSPost2010PropOp43
 70
     0
102
RTVSPost2010Prop44ColorIndex
 90
        5
102
RTVSPost2010Prop44ColorRGB
 90
      255
102
RTVSPost2010PropOp44
 70
     0
102
RTVSPost2010Prop45
280
     0
102
RTVSPost2010PropOp45
 70
     0
102
RTVSPost2010Prop46
 90
       50
102
RTVSPost2010PropOp46
 70
     0
102
RTVSPost2010Prop47
 90
       50
102
RTVSPost2010PropOp47
 70
     0
102
RTVSPost2010Prop48
 90
       50
102
RTVSPost2010PropOp48
 70
     0
102
RTVSPost2010Prop49
280
     0
102
RTVSPost2010PropOp49
 70
     0
102
RTVSPost2010Prop50
 90
       50
102
RTVSPost2010PropOp50
 70
     0
102
RTVSPost2010Prop51ColorIndex
 90
      256
102
RTVSPost2010Prop51ColorRGB
 90
-16777216
102
RTVSPost2010PropOp51
 70
     0
102
RTVSPost2010Prop52
140
1.0
102
RTVSPost2010PropOp52
 70
     0
102
RTVSPost2010Prop53
 90
        2
102
RTVSPost2010PropOp53
 70
     0
102
RTVSPost2010Prop54
  1
strokes_ogs.tif
102
RTVSPost2010PropOp54
 70
     0
102
RTVSPost2010Prop55
280
     0
102
RTVSPost2010PropOp55
 70
     0
102
RTVSPost2010Prop56
140
1.0
102
RTVSPost2010PropOp56
 70
     0
102
RTVSPost2010Prop57
140
1.0
102
RTVSPost2010PropOp57
 70
     0
  0
XRECORD
  5
373
102
{ACAD_REACTORS
330
372
102
}
330
372
100
AcDbXrecord
280
     1
102
RTVSPropertyOp0
 70
     1
102
RTVSPropertyOp1
 70
     1
102
RTVSPropertyOp2
 70
     1
102
RTVSPropertyOp3
 70
     1
102
RTVSPropertyOp4
 70
     1
102
RTVSPropertyOp5
 70
     1
102
RTVSPropertyOp6
 70
     1
102
RTVSPropertyOp7
 70
     1
102
RTVSPropertyOp8
 70
     1
102
RTVSPropertyOp9
 70
     1
102
RTVSPropertyOp10
 70
     1
102
RTVSPropertyOp11
 70
     1
102
RTVSPropertyOp12
 70
     1
102
RTVSPropertyOp13
 70
     1
102
RTVSPropertyOp14
 70
     1
102
RTVSPropertyOp15
 70
     1
102
RTVSPropertyOp16
 70
     1
102
RTVSPropertyOp17
 70
     1
102
RTVSPropertyOp18
 70
     1
102
RTVSPropertyOp19
 70
     1
102
RTVSPropertyOp20
 70
     1
102
RTVSPropertyOp21
 70
     1
102
RTVSPropertyOp22
 70
     1
102
RTVSPropertyOp23
 70
     1
102
RTVSPropertyOp24
 70
     1
102
RTVSPropertyOp25
 70
     1
102
RTVSPropertyOp26
 70
     1
102
RTVSPropertyOp27
 70
     1
102
RTVSPropertyOp28
 70
     1
102
RTVSPropertyOp29
 70
     1
102
RTVSPropertyOp30
 70
     1
102
RTVSPropertyOp31
 70
     1
102
RTVSPropertyOp32
 70
     1
102
RTVSPropertyOp33
 70
     1
102
RTVSPropertyOp34
 70
     1
102
RTVSPropertyOp35
 70
     1
102
RTVSPropertyOp36
 70
     1
102
RTVSPropertyOp37
 70
     1
102
RTVSPropertyOp38
 70
     1
102
RTVSPropertyOp39
 70
     1
102
RTVSPropertyOp40
 70
     1
102
RTVSPropertyOp41
 70
     1
102
RTVSPropertyOp42
 70
     1
102
RTVSPropertyOp43
 70
     1
102
RTVSPropertyOp44
 70
     1
102
RTVSPropertyOp45
 70
     1
102
RTVSPropertyOp46
 70
     1
102
RTVSPropertyOp47
 70
     1
102
RTVSPropertyOp48
 70
     1
102
RTVSPropertyOp49
 70
     1
102
RTVSPropertyOp50
 70
     1
102
RTVSPropertyOp51
 70
     0
102
RTVSPropertyOp52
 70
     0
102
RTVSPropertyOp53
 70
     1
102
RTVSPropertyOp54
 70
     1
102
RTVSPropertyOp55
 70
     1
102
RTVSPropertyOp56
 70
     1
102
RTVSPropertyOp57
 70
     1
102
RTVSPost2010Prop28
280
     0
102
RTVSPost2010PropOp28
 70
     1
102
RTVSPost2010Prop29
280
     1
102
RTVSPost2010PropOp29
 70
     1
102
RTVSPost2010Prop30
280
     1
102
RTVSPost2010PropOp30
 70
     1
102
RTVSPost2010Prop31
280
     0
102
RTVSPost2010PropOp31
 70
     1
102
RTVSPost2010Prop32
280
     0
102
RTVSPost2010PropOp32
 70
     1
102
RTVSPost2010Prop33
280
     0
102
RTVSPost2010PropOp33
 70
     1
102
RTVSPost2010Prop34
280
     0
102
RTVSPost2010PropOp34
 70
     1
102
RTVSPost2010Prop35
280
     0
102
RTVSPost2010PropOp35
 70
     1
102
RTVSPost2010Prop36
280
     0
102
RTVSPost2010PropOp36
 70
     1
102
RTVSPost2010Prop37
 90
       50
102
RTVSPost2010PropOp37
 70
     1
102
RTVSPost2010Prop38
140
0.0
102
RTVSPost2010PropOp38
 70
     1
102
RTVSPost2010Prop39
140
1.0
102
RTVSPost2010PropOp39
 70
     1
102
RTVSPost2010Prop40
 90
        0
102
RTVSPost2010PropOp40
 70
     1
102
RTVSPost2010Prop41ColorIndex
 90
       18
102
RTVSPost2010Prop41ColorRGB
 90
        0
102
RTVSPost2010PropOp41
 70
     1
102
RTVSPost2010Prop42
 90
       50
102
RTVSPost2010PropOp42
 70
     1
102
RTVSPost2010Prop43
 90
        3
102
RTVSPost2010PropOp43
 70
     1
102
RTVSPost2010Prop44ColorIndex
 90
        5
102
RTVSPost2010Prop44ColorRGB
 90
      255
102
RTVSPost2010PropOp44
 70
     1
102
RTVSPost2010Prop45
280
     0
102
RTVSPost2010PropOp45
 70
     1
102
RTVSPost2010Prop46
 90
       50
102
RTVSPost2010PropOp46
 70
     1
102
RTVSPost2010Prop47
 90
       50
102
RTVSPost2010PropOp47
 70
     1
102
RTVSPost2010Prop48
 90
       50
102
RTVSPost2010PropOp48
 70
     1
102
RTVSPost2010Prop49
280
     0
102
RTVSPost2010PropOp49
 70
     1
102
RTVSPost2010Prop50
 90
       50
102
RTVSPost2010PropOp50
 70
     1
102
RTVSPost2010Prop51ColorIndex
 90
      256
102
RTVSPost2010Prop51ColorRGB
 90
-16777216
102
RTVSPost2010PropOp51
 70
     0
102
RTVSPost2010Prop52
140
1.0
102
RTVSPost2010PropOp52
 70
     0
102
RTVSPost2010Prop53
 90
        2
102
RTVSPost2010PropOp53
 70
     1
102
RTVSPost2010Prop54
  1
strokes_ogs.tif
102
RTVSPost2010PropOp54
 70
     1
102
RTVSPost2010Prop55
280
     0
102
RTVSPost2010PropOp55
 70
     1
102
RTVSPost2010Prop56
140
1.0
102
RTVSPost2010PropOp56
 70
     1
102
RTVSPost2010Prop57
140
1.0
102
RTVSPost2010PropOp57
 70
     1
  0
XRECORD
  5
391
102
{ACAD_REACTORS
330
390
102
}
330
390
100
AcDbXrecord
280
     1
102
RTVSPropertyOp0
 70
     1
102
RTVSPropertyOp1
 70
     1
102
RTVSPropertyOp2
 70
     1
102
RTVSPropertyOp3
 70
     1
102
RTVSPropertyOp4
 70
     1
102
RTVSPropertyOp5
 70
     1
102
RTVSPropertyOp6
 70
     1
102
RTVSPropertyOp7
 70
     1
102
RTVSPropertyOp8
 70
     1
102
RTVSPropertyOp9
 70
     1
102
RTVSPropertyOp10
 70
     1
102
RTVSPropertyOp11
 70
     1
102
RTVSPropertyOp12
 70
     1
102
RTVSPropertyOp13
 70
     1
102
RTVSPropertyOp14
 70
     1
102
RTVSPropertyOp15
 70
     1
102
RTVSPropertyOp16
 70
     1
102
RTVSPropertyOp17
 70
     1
102
RTVSPropertyOp18
 70
     1
102
RTVSPropertyOp19
 70
     1
102
RTVSPropertyOp20
 70
     1
102
RTVSPropertyOp21
 70
     1
102
RTVSPropertyOp22
 70
     1
102
RTVSPropertyOp23
 70
     1
102
RTVSPropertyOp24
 70
     1
102
RTVSPropertyOp25
 70
     1
102
RTVSPropertyOp26
 70
     1
102
RTVSPropertyOp27
 70
     1
102
RTVSPropertyOp28
 70
     1
102
RTVSPropertyOp29
 70
     1
102
RTVSPropertyOp30
 70
     1
102
RTVSPropertyOp31
 70
     1
102
RTVSPropertyOp32
 70
     1
102
RTVSPropertyOp33
 70
     1
102
RTVSPropertyOp34
 70
     1
102
RTVSPropertyOp35
 70
     1
102
RTVSPropertyOp36
 70
     1
102
RTVSPropertyOp37
 70
     1
102
RTVSPropertyOp38
 70
     1
102
RTVSPropertyOp39
 70
     1
102
RTVSPropertyOp40
 70
     1
102
RTVSPropertyOp41
 70
     1
102
RTVSPropertyOp42
 70
     1
102
RTVSPropertyOp43
 70
     1
102
RTVSPropertyOp44
 70
     1
102
RTVSPropertyOp45
 70
     1
102
RTVSPropertyOp46
 70
     1
102
RTVSPropertyOp47
 70
     1
102
RTVSPropertyOp48
 70
     1
102
RTVSPropertyOp49
 70
     1
102
RTVSPropertyOp50
 70
     1
102
RTVSPropertyOp51
 70
     0
102
RTVSPropertyOp52
 70
     0
102
RTVSPropertyOp53
 70
     1
102
RTVSPropertyOp54
 70
     1
102
RTVSPropertyOp55
 70
     1
102
RTVSPropertyOp56
 70
     1
102
RTVSPropertyOp57
 70
     1
102
RTVSPost2010Prop28
280
     0
102
RTVSPost2010PropOp28
 70
     1
102
RTVSPost2010Prop29
280
     1
102
RTVSPost2010PropOp29
 70
     1
102
RTVSPost2010Prop30
280
     1
102
RTVSPost2010PropOp30
 70
     1
102
RTVSPost2010Prop31
280
     0
102
RTVSPost2010PropOp31
 70
     1
102
RTVSPost2010Prop32
280
     0
102
RTVSPost2010PropOp32
 70
     1
102
RTVSPost2010Prop33
280
     0
102
RTVSPost2010PropOp33
 70
     1
102
RTVSPost2010Prop34
280
     0
102
RTVSPost2010PropOp34
 70
     1
102
RTVSPost2010Prop35
280
     0
102
RTVSPost2010PropOp35
 70
     1
102
RTVSPost2010Prop36
280
     0
102
RTVSPost2010PropOp36
 70
     1
102
RTVSPost2010Prop37
 90
       50
102
RTVSPost2010PropOp37
 70
     1
102
RTVSPost2010Prop38
140
0.0
102
RTVSPost2010PropOp38
 70
     1
102
RTVSPost2010Prop39
140
1.0
102
RTVSPost2010PropOp39
 70
     1
102
RTVSPost2010Prop40
 90
        0
102
RTVSPost2010PropOp40
 70
     1
102
RTVSPost2010Prop41ColorIndex
 90
       18
102
RTVSPost2010Prop41ColorRGB
 90
        0
102
RTVSPost2010PropOp41
 70
     1
102
RTVSPost2010Prop42
 90
       50
102
RTVSPost2010PropOp42
 70
     1
102
RTVSPost2010Prop43
 90
        3
102
RTVSPost2010PropOp43
 70
     1
102
RTVSPost2010Prop44ColorIndex
 90
        5
102
RTVSPost2010Prop44ColorRGB
 90
      255
102
RTVSPost2010PropOp44
 70
     1
102
RTVSPost2010Prop45
280
     0
102
RTVSPost2010PropOp45
 70
     1
102
RTVSPost2010Prop46
 90
       50
102
RTVSPost2010PropOp46
 70
     1
102
RTVSPost2010Prop47
 90
       50
102
RTVSPost2010PropOp47
 70
     1
102
RTVSPost2010Prop48
 90
       50
102
RTVSPost2010PropOp48
 70
     1
102
RTVSPost2010Prop49
280
     0
102
RTVSPost2010PropOp49
 70
     1
102
RTVSPost2010Prop50
 90
       50
102
RTVSPost2010PropOp50
 70
     1
102
RTVSPost2010Prop51ColorIndex
 90
      256
102
RTVSPost2010Prop51ColorRGB
 90
-16777216
102
RTVSPost2010PropOp51
 70
     0
102
RTVSPost2010Prop52
140
1.0
102
RTVSPost2010PropOp52
 70
     0
102
RTVSPost2010Prop53
 90
        2
102
RTVSPost2010PropOp53
 70
     1
102
RTVSPost2010Prop54
  1
strokes_ogs.tif
102
RTVSPost2010PropOp54
 70
     1
102
RTVSPost2010Prop55
280
     0
102
RTVSPost2010PropOp55
 70
     1
102
RTVSPost2010Prop56
140
1.0
102
RTVSPost2010PropOp56
 70
     1
102
RTVSPost2010Prop57
140
1.0
102
RTVSPost2010PropOp57
 70
     1
  0
XRECORD
  5
38F
102
{ACAD_REACTORS
330
38E
102
}
330
38E
100
AcDbXrecord
280
     1
102
RTVSPropertyOp0
 70
     1
102
RTVSPropertyOp1
 70
     1
102
RTVSPropertyOp2
 70
     1
102
RTVSPropertyOp3
 70
     1
102
RTVSPropertyOp4
 70
     1
102
RTVSPropertyOp5
 70
     1
102
RTVSPropertyOp6
 70
     1
102
RTVSPropertyOp7
 70
     1
102
RTVSPropertyOp8
 70
     1
102
RTVSPropertyOp9
 70
     1
102
RTVSPropertyOp10
 70
     1
102
RTVSPropertyOp11
 70
     1
102
RTVSPropertyOp12
 70
     1
102
RTVSPropertyOp13
 70
     1
102
RTVSPropertyOp14
 70
     1
102
RTVSPropertyOp15
 70
     1
102
RTVSPropertyOp16
 70
     1
102
RTVSPropertyOp17
 70
     1
102
RTVSPropertyOp18
 70
     1
102
RTVSPropertyOp19
 70
     1
102
RTVSPropertyOp20
 70
     1
102
RTVSPropertyOp21
 70
     1
102
RTVSPropertyOp22
 70
     1
102
RTVSPropertyOp23
 70
     1
102
RTVSPropertyOp24
 70
     1
102
RTVSPropertyOp25
 70
     1
102
RTVSPropertyOp26
 70
     1
102
RTVSPropertyOp27
 70
     1
102
RTVSPropertyOp28
 70
     1
102
RTVSPropertyOp29
 70
     1
102
RTVSPropertyOp30
 70
     1
102
RTVSPropertyOp31
 70
     1
102
RTVSPropertyOp32
 70
     1
102
RTVSPropertyOp33
 70
     1
102
RTVSPropertyOp34
 70
     1
102
RTVSPropertyOp35
 70
     1
102
RTVSPropertyOp36
 70
     1
102
RTVSPropertyOp37
 70
     1
102
RTVSPropertyOp38
 70
     1
102
RTVSPropertyOp39
 70
     1
102
RTVSPropertyOp40
 70
     1
102
RTVSPropertyOp41
 70
     1
102
RTVSPropertyOp42
 70
     1
102
RTVSPropertyOp43
 70
     1
102
RTVSPropertyOp44
 70
     1
102
RTVSPropertyOp45
 70
     1
102
RTVSPropertyOp46
 70
     1
102
RTVSPropertyOp47
 70
     1
102
RTVSPropertyOp48
 70
     1
102
RTVSPropertyOp49
 70
     1
102
RTVSPropertyOp50
 70
     1
102
RTVSPropertyOp51
 70
     0
102
RTVSPropertyOp52
 70
     0
102
RTVSPropertyOp53
 70
     1
102
RTVSPropertyOp54
 70
     1
102
RTVSPropertyOp55
 70
     1
102
RTVSPropertyOp56
 70
     1
102
RTVSPropertyOp57
 70
     1
102
RTVSPost2010Prop28
280
     0
102
RTVSPost2010PropOp28
 70
     1
102
RTVSPost2010Prop29
280
     1
102
RTVSPost2010PropOp29
 70
     1
102
RTVSPost2010Prop30
280
     1
102
RTVSPost2010PropOp30
 70
     1
102
RTVSPost2010Prop31
280
     0
102
RTVSPost2010PropOp31
 70
     1
102
RTVSPost2010Prop32
280
     0
102
RTVSPost2010PropOp32
 70
     1
102
RTVSPost2010Prop33
280
     0
102
RTVSPost2010PropOp33
 70
     1
102
RTVSPost2010Prop34
280
     0
102
RTVSPost2010PropOp34
 70
     1
102
RTVSPost2010Prop35
280
     0
102
RTVSPost2010PropOp35
 70
     1
102
RTVSPost2010Prop36
280
     0
102
RTVSPost2010PropOp36
 70
     1
102
RTVSPost2010Prop37
 90
       50
102
RTVSPost2010PropOp37
 70
     1
102
RTVSPost2010Prop38
140
0.0
102
RTVSPost2010PropOp38
 70
     1
102
RTVSPost2010Prop39
140
1.0
102
RTVSPost2010PropOp39
 70
     1
102
RTVSPost2010Prop40
 90
        0
102
RTVSPost2010PropOp40
 70
     1
102
RTVSPost2010Prop41ColorIndex
 90
       18
102
RTVSPost2010Prop41ColorRGB
 90
        0
102
RTVSPost2010PropOp41
 70
     1
102
RTVSPost2010Prop42
 90
       50
102
RTVSPost2010PropOp42
 70
     1
102
RTVSPost2010Prop43
 90
        3
102
RTVSPost2010PropOp43
 70
     1
102
RTVSPost2010Prop44ColorIndex
 90
        5
102
RTVSPost2010Prop44ColorRGB
 90
      255
102
RTVSPost2010PropOp44
 70
     1
102
RTVSPost2010Prop45
280
     0
102
RTVSPost2010PropOp45
 70
     1
102
RTVSPost2010Prop46
 90
       50
102
RTVSPost2010PropOp46
 70
     1
102
RTVSPost2010Prop47
 90
       50
102
RTVSPost2010PropOp47
 70
     1
102
RTVSPost2010Prop48
 90
       50
102
RTVSPost2010PropOp48
 70
     1
102
RTVSPost2010Prop49
280
     0
102
RTVSPost2010PropOp49
 70
     1
102
RTVSPost2010Prop50
 90
       50
102
RTVSPost2010PropOp50
 70
     1
102
RTVSPost2010Prop51ColorIndex
 90
      256
102
RTVSPost2010Prop51ColorRGB
 90
-16777216
102
RTVSPost2010PropOp51
 70
     0
102
RTVSPost2010Prop52
140
1.0
102
RTVSPost2010PropOp52
 70
     0
102
RTVSPost2010Prop53
 90
        2
102
RTVSPost2010PropOp53
 70
     1
102
RTVSPost2010Prop54
  1
strokes_ogs.tif
102
RTVSPost2010PropOp54
 70
     1
102
RTVSPost2010Prop55
280
     0
102
RTVSPost2010PropOp55
 70
     1
102
RTVSPost2010Prop56
140
1.0
102
RTVSPost2010PropOp56
 70
     1
102
RTVSPost2010Prop57
140
1.0
102
RTVSPost2010PropOp57
 70
     1
  0
XRECORD
  5
389
102
{ACAD_REACTORS
330
388
102
}
330
388
100
AcDbXrecord
280
     1
102
RTVSPropertyOp0
 70
     1
102
RTVSPropertyOp1
 70
     1
102
RTVSPropertyOp2
 70
     1
102
RTVSPropertyOp3
 70
     1
102
RTVSPropertyOp4
 70
     1
102
RTVSPropertyOp5
 70
     1
102
RTVSPropertyOp6
 70
     1
102
RTVSPropertyOp7
 70
     1
102
RTVSPropertyOp8
 70
     1
102
RTVSPropertyOp9
 70
     1
102
RTVSPropertyOp10
 70
     1
102
RTVSPropertyOp11
 70
     1
102
RTVSPropertyOp12
 70
     1
102
RTVSPropertyOp13
 70
     1
102
RTVSPropertyOp14
 70
     1
102
RTVSPropertyOp15
 70
     1
102
RTVSPropertyOp16
 70
     1
102
RTVSPropertyOp17
 70
     1
102
RTVSPropertyOp18
 70
     1
102
RTVSPropertyOp19
 70
     1
102
RTVSPropertyOp20
 70
     1
102
RTVSPropertyOp21
 70
     1
102
RTVSPropertyOp22
 70
     1
102
RTVSPropertyOp23
 70
     1
102
RTVSPropertyOp24
 70
     1
102
RTVSPropertyOp25
 70
     1
102
RTVSPropertyOp26
 70
     1
102
RTVSPropertyOp27
 70
     1
102
RTVSPropertyOp28
 70
     1
102
RTVSPropertyOp29
 70
     1
102
RTVSPropertyOp30
 70
     1
102
RTVSPropertyOp31
 70
     1
102
RTVSPropertyOp32
 70
     1
102
RTVSPropertyOp33
 70
     1
102
RTVSPropertyOp34
 70
     1
102
RTVSPropertyOp35
 70
     1
102
RTVSPropertyOp36
 70
     1
102
RTVSPropertyOp37
 70
     1
102
RTVSPropertyOp38
 70
     1
102
RTVSPropertyOp39
 70
     1
102
RTVSPropertyOp40
 70
     1
102
RTVSPropertyOp41
 70
     1
102
RTVSPropertyOp42
 70
     1
102
RTVSPropertyOp43
 70
     1
102
RTVSPropertyOp44
 70
     1
102
RTVSPropertyOp45
 70
     1
102
RTVSPropertyOp46
 70
     1
102
RTVSPropertyOp47
 70
     1
102
RTVSPropertyOp48
 70
     1
102
RTVSPropertyOp49
 70
     1
102
RTVSPropertyOp50
 70
     1
102
RTVSPropertyOp51
 70
     0
102
RTVSPropertyOp52
 70
     0
102
RTVSPropertyOp53
 70
     1
102
RTVSPropertyOp54
 70
     1
102
RTVSPropertyOp55
 70
     1
102
RTVSPropertyOp56
 70
     1
102
RTVSPropertyOp57
 70
     1
102
RTVSPost2010Prop28
280
     0
102
RTVSPost2010PropOp28
 70
     1
102
RTVSPost2010Prop29
280
     1
102
RTVSPost2010PropOp29
 70
     1
102
RTVSPost2010Prop30
280
     1
102
RTVSPost2010PropOp30
 70
     1
102
RTVSPost2010Prop31
280
     0
102
RTVSPost2010PropOp31
 70
     1
102
RTVSPost2010Prop32
280
     0
102
RTVSPost2010PropOp32
 70
     1
102
RTVSPost2010Prop33
280
     0
102
RTVSPost2010PropOp33
 70
     1
102
RTVSPost2010Prop34
280
     0
102
RTVSPost2010PropOp34
 70
     1
102
RTVSPost2010Prop35
280
     0
102
RTVSPost2010PropOp35
 70
     1
102
RTVSPost2010Prop36
280
     0
102
RTVSPost2010PropOp36
 70
     1
102
RTVSPost2010Prop37
 90
       50
102
RTVSPost2010PropOp37
 70
     1
102
RTVSPost2010Prop38
140
0.0
102
RTVSPost2010PropOp38
 70
     1
102
RTVSPost2010Prop39
140
1.0
102
RTVSPost2010PropOp39
 70
     1
102
RTVSPost2010Prop40
 90
        0
102
RTVSPost2010PropOp40
 70
     1
102
RTVSPost2010Prop41ColorIndex
 90
       18
102
RTVSPost2010Prop41ColorRGB
 90
        0
102
RTVSPost2010PropOp41
 70
     1
102
RTVSPost2010Prop42
 90
       50
102
RTVSPost2010PropOp42
 70
     1
102
RTVSPost2010Prop43
 90
        3
102
RTVSPost2010PropOp43
 70
     1
102
RTVSPost2010Prop44ColorIndex
 90
        5
102
RTVSPost2010Prop44ColorRGB
 90
      255
102
RTVSPost2010PropOp44
 70
     1
102
RTVSPost2010Prop45
280
     0
102
RTVSPost2010PropOp45
 70
     1
102
RTVSPost2010Prop46
 90
       50
102
RTVSPost2010PropOp46
 70
     1
102
RTVSPost2010Prop47
 90
       50
102
RTVSPost2010PropOp47
 70
     1
102
RTVSPost2010Prop48
 90
       50
102
RTVSPost2010PropOp48
 70
     1
102
RTVSPost2010Prop49
280
     0
102
RTVSPost2010PropOp49
 70
     1
102
RTVSPost2010Prop50
 90
       50
102
RTVSPost2010PropOp50
 70
     1
102
RTVSPost2010Prop51ColorIndex
 90
      256
102
RTVSPost2010Prop51ColorRGB
 90
-16777216
102
RTVSPost2010PropOp51
 70
     0
102
RTVSPost2010Prop52
140
1.0
102
RTVSPost2010PropOp52
 70
     0
102
RTVSPost2010Prop53
 90
        2
102
RTVSPost2010PropOp53
 70
     1
102
RTVSPost2010Prop54
  1
strokes_ogs.tif
102
RTVSPost2010PropOp54
 70
     1
102
RTVSPost2010Prop55
280
     0
102
RTVSPost2010PropOp55
 70
     1
102
RTVSPost2010Prop56
140
1.0
102
RTVSPost2010PropOp56
 70
     1
102
RTVSPost2010Prop57
140
1.0
102
RTVSPost2010PropOp57
 70
     1
  0
XRECORD
  5
38B
102
{ACAD_REACTORS
330
38A
102
}
330
38A
100
AcDbXrecord
280
     1
102
RTVSPropertyOp0
 70
     1
102
RTVSPropertyOp1
 70
     1
102
RTVSPropertyOp2
 70
     1
102
RTVSPropertyOp3
 70
     1
102
RTVSPropertyOp4
 70
     1
102
RTVSPropertyOp5
 70
     1
102
RTVSPropertyOp6
 70
     1
102
RTVSPropertyOp7
 70
     1
102
RTVSPropertyOp8
 70
     1
102
RTVSPropertyOp9
 70
     1
102
RTVSPropertyOp10
 70
     1
102
RTVSPropertyOp11
 70
     1
102
RTVSPropertyOp12
 70
     1
102
RTVSPropertyOp13
 70
     1
102
RTVSPropertyOp14
 70
     1
102
RTVSPropertyOp15
 70
     1
102
RTVSPropertyOp16
 70
     1
102
RTVSPropertyOp17
 70
     1
102
RTVSPropertyOp18
 70
     1
102
RTVSPropertyOp19
 70
     1
102
RTVSPropertyOp20
 70
     1
102
RTVSPropertyOp21
 70
     1
102
RTVSPropertyOp22
 70
     1
102
RTVSPropertyOp23
 70
     1
102
RTVSPropertyOp24
 70
     1
102
RTVSPropertyOp25
 70
     1
102
RTVSPropertyOp26
 70
     1
102
RTVSPropertyOp27
 70
     1
102
RTVSPropertyOp28
 70
     1
102
RTVSPropertyOp29
 70
     1
102
RTVSPropertyOp30
 70
     1
102
RTVSPropertyOp31
 70
     1
102
RTVSPropertyOp32
 70
     1
102
RTVSPropertyOp33
 70
     1
102
RTVSPropertyOp34
 70
     1
102
RTVSPropertyOp35
 70
     1
102
RTVSPropertyOp36
 70
     1
102
RTVSPropertyOp37
 70
     1
102
RTVSPropertyOp38
 70
     1
102
RTVSPropertyOp39
 70
     1
102
RTVSPropertyOp40
 70
     1
102
RTVSPropertyOp41
 70
     1
102
RTVSPropertyOp42
 70
     1
102
RTVSPropertyOp43
 70
     1
102
RTVSPropertyOp44
 70
     1
102
RTVSPropertyOp45
 70
     1
102
RTVSPropertyOp46
 70
     1
102
RTVSPropertyOp47
 70
     1
102
RTVSPropertyOp48
 70
     1
102
RTVSPropertyOp49
 70
     1
102
RTVSPropertyOp50
 70
     1
102
RTVSPropertyOp51
 70
     0
102
RTVSPropertyOp52
 70
     0
102
RTVSPropertyOp53
 70
     1
102
RTVSPropertyOp54
 70
     1
102
RTVSPropertyOp55
 70
     1
102
RTVSPropertyOp56
 70
     1
102
RTVSPropertyOp57
 70
     1
102
RTVSPost2010Prop28
280
     0
102
RTVSPost2010PropOp28
 70
     1
102
RTVSPost2010Prop29
280
     1
102
RTVSPost2010PropOp29
 70
     1
102
RTVSPost2010Prop30
280
     1
102
RTVSPost2010PropOp30
 70
     1
102
RTVSPost2010Prop31
280
     0
102
RTVSPost2010PropOp31
 70
     1
102
RTVSPost2010Prop32
280
     0
102
RTVSPost2010PropOp32
 70
     1
102
RTVSPost2010Prop33
280
     0
102
RTVSPost2010PropOp33
 70
     1
102
RTVSPost2010Prop34
280
     0
102
RTVSPost2010PropOp34
 70
     1
102
RTVSPost2010Prop35
280
     0
102
RTVSPost2010PropOp35
 70
     1
102
RTVSPost2010Prop36
280
     0
102
RTVSPost2010PropOp36
 70
     1
102
RTVSPost2010Prop37
 90
       50
102
RTVSPost2010PropOp37
 70
     1
102
RTVSPost2010Prop38
140
0.0
102
RTVSPost2010PropOp38
 70
     1
102
RTVSPost2010Prop39
140
1.0
102
RTVSPost2010PropOp39
 70
     1
102
RTVSPost2010Prop40
 90
        0
102
RTVSPost2010PropOp40
 70
     1
102
RTVSPost2010Prop41ColorIndex
 90
       18
102
RTVSPost2010Prop41ColorRGB
 90
        0
102
RTVSPost2010PropOp41
 70
     1
102
RTVSPost2010Prop42
 90
       50
102
RTVSPost2010PropOp42
 70
     1
102
RTVSPost2010Prop43
 90
        3
102
RTVSPost2010PropOp43
 70
     1
102
RTVSPost2010Prop44ColorIndex
 90
        5
102
RTVSPost2010Prop44ColorRGB
 90
      255
102
RTVSPost2010PropOp44
 70
     1
102
RTVSPost2010Prop45
280
     0
102
RTVSPost2010PropOp45
 70
     1
102
RTVSPost2010Prop46
 90
       50
102
RTVSPost2010PropOp46
 70
     1
102
RTVSPost2010Prop47
 90
       50
102
RTVSPost2010PropOp47
 70
     1
102
RTVSPost2010Prop48
 90
       50
102
RTVSPost2010PropOp48
 70
     1
102
RTVSPost2010Prop49
280
     0
102
RTVSPost2010PropOp49
 70
     1
102
RTVSPost2010Prop50
 90
       50
102
RTVSPost2010PropOp50
 70
     1
102
RTVSPost2010Prop51ColorIndex
 90
      256
102
RTVSPost2010Prop51ColorRGB
 90
-16777216
102
RTVSPost2010PropOp51
 70
     0
102
RTVSPost2010Prop52
140
1.0
102
RTVSPost2010PropOp52
 70
     0
102
RTVSPost2010Prop53
 90
        2
102
RTVSPost2010PropOp53
 70
     1
102
RTVSPost2010Prop54
  1
strokes_ogs.tif
102
RTVSPost2010PropOp54
 70
     1
102
RTVSPost2010Prop55
280
     0
102
RTVSPost2010PropOp55
 70
     1
102
RTVSPost2010Prop56
140
1.0
102
RTVSPost2010PropOp56
 70
     1
102
RTVSPost2010Prop57
140
1.0
102
RTVSPost2010PropOp57
 70
     1
  0
XRECORD
  5
37B
102
{ACAD_REACTORS
330
37A
102
}
330
37A
100
AcDbXrecord
280
     1
102
RTVSPropertyOp0
 70
     1
102
RTVSPropertyOp1
 70
     1
102
RTVSPropertyOp2
 70
     1
102
RTVSPropertyOp3
 70
     1
102
RTVSPropertyOp4
 70
     1
102
RTVSPropertyOp5
 70
     1
102
RTVSPropertyOp6
 70
     1
102
RTVSPropertyOp7
 70
     1
102
RTVSPropertyOp8
 70
     1
102
RTVSPropertyOp9
 70
     1
102
RTVSPropertyOp10
 70
     1
102
RTVSPropertyOp11
 70
     1
102
RTVSPropertyOp12
 70
     1
102
RTVSPropertyOp13
 70
     1
102
RTVSPropertyOp14
 70
     1
102
RTVSPropertyOp15
 70
     1
102
RTVSPropertyOp16
 70
     1
102
RTVSPropertyOp17
 70
     1
102
RTVSPropertyOp18
 70
     1
102
RTVSPropertyOp19
 70
     1
102
RTVSPropertyOp20
 70
     1
102
RTVSPropertyOp21
 70
     1
102
RTVSPropertyOp22
 70
     1
102
RTVSPropertyOp23
 70
     1
102
RTVSPropertyOp24
 70
     1
102
RTVSPropertyOp25
 70
     1
102
RTVSPropertyOp26
 70
     1
102
RTVSPropertyOp27
 70
     1
102
RTVSPropertyOp28
 70
     1
102
RTVSPropertyOp29
 70
     1
102
RTVSPropertyOp30
 70
     1
102
RTVSPropertyOp31
 70
     1
102
RTVSPropertyOp32
 70
     1
102
RTVSPropertyOp33
 70
     1
102
RTVSPropertyOp34
 70
     1
102
RTVSPropertyOp35
 70
     1
102
RTVSPropertyOp36
 70
     1
102
RTVSPropertyOp37
 70
     1
102
RTVSPropertyOp38
 70
     1
102
RTVSPropertyOp39
 70
     1
102
RTVSPropertyOp40
 70
     1
102
RTVSPropertyOp41
 70
     1
102
RTVSPropertyOp42
 70
     1
102
RTVSPropertyOp43
 70
     1
102
RTVSPropertyOp44
 70
     1
102
RTVSPropertyOp45
 70
     1
102
RTVSPropertyOp46
 70
     1
102
RTVSPropertyOp47
 70
     1
102
RTVSPropertyOp48
 70
     1
102
RTVSPropertyOp49
 70
     1
102
RTVSPropertyOp50
 70
     1
102
RTVSPropertyOp51
 70
     0
102
RTVSPropertyOp52
 70
     0
102
RTVSPropertyOp53
 70
     1
102
RTVSPropertyOp54
 70
     1
102
RTVSPropertyOp55
 70
     1
102
RTVSPropertyOp56
 70
     1
102
RTVSPropertyOp57
 70
     1
102
RTVSPost2010Prop28
280
     0
102
RTVSPost2010PropOp28
 70
     1
102
RTVSPost2010Prop29
280
     1
102
RTVSPost2010PropOp29
 70
     1
102
RTVSPost2010Prop30
280
     1
102
RTVSPost2010PropOp30
 70
     1
102
RTVSPost2010Prop31
280
     0
102
RTVSPost2010PropOp31
 70
     1
102
RTVSPost2010Prop32
280
     0
102
RTVSPost2010PropOp32
 70
     1
102
RTVSPost2010Prop33
280
     0
102
RTVSPost2010PropOp33
 70
     1
102
RTVSPost2010Prop34
280
     0
102
RTVSPost2010PropOp34
 70
     1
102
RTVSPost2010Prop35
280
     0
102
RTVSPost2010PropOp35
 70
     1
102
RTVSPost2010Prop36
280
     0
102
RTVSPost2010PropOp36
 70
     1
102
RTVSPost2010Prop37
 90
       50
102
RTVSPost2010PropOp37
 70
     1
102
RTVSPost2010Prop38
140
0.0
102
RTVSPost2010PropOp38
 70
     1
102
RTVSPost2010Prop39
140
1.0
102
RTVSPost2010PropOp39
 70
     1
102
RTVSPost2010Prop40
 90
        0
102
RTVSPost2010PropOp40
 70
     1
102
RTVSPost2010Prop41ColorIndex
 90
       18
102
RTVSPost2010Prop41ColorRGB
 90
        0
102
RTVSPost2010PropOp41
 70
     1
102
RTVSPost2010Prop42
 90
       50
102
RTVSPost2010PropOp42
 70
     1
102
RTVSPost2010Prop43
 90
        3
102
RTVSPost2010PropOp43
 70
     1
102
RTVSPost2010Prop44ColorIndex
 90
        5
102
RTVSPost2010Prop44ColorRGB
 90
      255
102
RTVSPost2010PropOp44
 70
     1
102
RTVSPost2010Prop45
280
     0
102
RTVSPost2010PropOp45
 70
     1
102
RTVSPost2010Prop46
 90
       50
102
RTVSPost2010PropOp46
 70
     1
102
RTVSPost2010Prop47
 90
       50
102
RTVSPost2010PropOp47
 70
     1
102
RTVSPost2010Prop48
 90
       50
102
RTVSPost2010PropOp48
 70
     1
102
RTVSPost2010Prop49
280
     0
102
RTVSPost2010PropOp49
 70
     1
102
RTVSPost2010Prop50
 90
       50
102
RTVSPost2010PropOp50
 70
     1
102
RTVSPost2010Prop51ColorIndex
 90
      256
102
RTVSPost2010Prop51ColorRGB
 90
-16777216
102
RTVSPost2010PropOp51
 70
     0
102
RTVSPost2010Prop52
140
1.0
102
RTVSPost2010PropOp52
 70
     0
102
RTVSPost2010Prop53
 90
        2
102
RTVSPost2010PropOp53
 70
     1
102
RTVSPost2010Prop54
  1
strokes_ogs.tif
102
RTVSPost2010PropOp54
 70
     1
102
RTVSPost2010Prop55
280
     0
102
RTVSPost2010PropOp55
 70
     1
102
RTVSPost2010Prop56
140
1.0
102
RTVSPost2010PropOp56
 70
     1
102
RTVSPost2010Prop57
140
1.0
102
RTVSPost2010PropOp57
 70
     1
  0
XRECORD
  5
36D
102
{ACAD_REACTORS
330
36C
102
}
330
36C
100
AcDbXrecord
280
     1
102
RTVSPropertyOp0
 70
     1
102
RTVSPropertyOp1
 70
     1
102
RTVSPropertyOp2
 70
     1
102
RTVSPropertyOp3
 70
     1
102
RTVSPropertyOp4
 70
     1
102
RTVSPropertyOp5
 70
     1
102
RTVSPropertyOp6
 70
     1
102
RTVSPropertyOp7
 70
     1
102
RTVSPropertyOp8
 70
     1
102
RTVSPropertyOp9
 70
     1
102
RTVSPropertyOp10
 70
     1
102
RTVSPropertyOp11
 70
     1
102
RTVSPropertyOp12
 70
     1
102
RTVSPropertyOp13
 70
     1
102
RTVSPropertyOp14
 70
     1
102
RTVSPropertyOp15
 70
     1
102
RTVSPropertyOp16
 70
     1
102
RTVSPropertyOp17
 70
     1
102
RTVSPropertyOp18
 70
     1
102
RTVSPropertyOp19
 70
     1
102
RTVSPropertyOp20
 70
     1
102
RTVSPropertyOp21
 70
     1
102
RTVSPropertyOp22
 70
     1
102
RTVSPropertyOp23
 70
     1
102
RTVSPropertyOp24
 70
     1
102
RTVSPropertyOp25
 70
     1
102
RTVSPropertyOp26
 70
     1
102
RTVSPropertyOp27
 70
     1
102
RTVSPropertyOp28
 70
     1
102
RTVSPropertyOp29
 70
     1
102
RTVSPropertyOp30
 70
     1
102
RTVSPropertyOp31
 70
     1
102
RTVSPropertyOp32
 70
     1
102
RTVSPropertyOp33
 70
     1
102
RTVSPropertyOp34
 70
     1
102
RTVSPropertyOp35
 70
     1
102
RTVSPropertyOp36
 70
     1
102
RTVSPropertyOp37
 70
     1
102
RTVSPropertyOp38
 70
     1
102
RTVSPropertyOp39
 70
     1
102
RTVSPropertyOp40
 70
     1
102
RTVSPropertyOp41
 70
     1
102
RTVSPropertyOp42
 70
     1
102
RTVSPropertyOp43
 70
     1
102
RTVSPropertyOp44
 70
     1
102
RTVSPropertyOp45
 70
     1
102
RTVSPropertyOp46
 70
     1
102
RTVSPropertyOp47
 70
     1
102
RTVSPropertyOp48
 70
     1
102
RTVSPropertyOp49
 70
     1
102
RTVSPropertyOp50
 70
     1
102
RTVSPropertyOp51
 70
     0
102
RTVSPropertyOp52
 70
     0
102
RTVSPropertyOp53
 70
     1
102
RTVSPropertyOp54
 70
     1
102
RTVSPropertyOp55
 70
     1
102
RTVSPropertyOp56
 70
     1
102
RTVSPropertyOp57
 70
     1
102
RTVSPost2010Prop28
280
     0
102
RTVSPost2010PropOp28
 70
     1
102
RTVSPost2010Prop29
280
     1
102
RTVSPost2010PropOp29
 70
     1
102
RTVSPost2010Prop30
280
     1
102
RTVSPost2010PropOp30
 70
     1
102
RTVSPost2010Prop31
280
     0
102
RTVSPost2010PropOp31
 70
     1
102
RTVSPost2010Prop32
280
     0
102
RTVSPost2010PropOp32
 70
     1
102
RTVSPost2010Prop33
280
     0
102
RTVSPost2010PropOp33
 70
     1
102
RTVSPost2010Prop34
280
     0
102
RTVSPost2010PropOp34
 70
     1
102
RTVSPost2010Prop35
280
     0
102
RTVSPost2010PropOp35
 70
     1
102
RTVSPost2010Prop36
280
     0
102
RTVSPost2010PropOp36
 70
     1
102
RTVSPost2010Prop37
 90
       50
102
RTVSPost2010PropOp37
 70
     1
102
RTVSPost2010Prop38
140
0.0
102
RTVSPost2010PropOp38
 70
     1
102
RTVSPost2010Prop39
140
1.0
102
RTVSPost2010PropOp39
 70
     1
102
RTVSPost2010Prop40
 90
        0
102
RTVSPost2010PropOp40
 70
     1
102
RTVSPost2010Prop41ColorIndex
 90
       18
102
RTVSPost2010Prop41ColorRGB
 90
        0
102
RTVSPost2010PropOp41
 70
     1
102
RTVSPost2010Prop42
 90
       50
102
RTVSPost2010PropOp42
 70
     1
102
RTVSPost2010Prop43
 90
        3
102
RTVSPost2010PropOp43
 70
     1
102
RTVSPost2010Prop44ColorIndex
 90
        5
102
RTVSPost2010Prop44ColorRGB
 90
      255
102
RTVSPost2010PropOp44
 70
     1
102
RTVSPost2010Prop45
280
     0
102
RTVSPost2010PropOp45
 70
     1
102
RTVSPost2010Prop46
 90
       50
102
RTVSPost2010PropOp46
 70
     1
102
RTVSPost2010Prop47
 90
       50
102
RTVSPost2010PropOp47
 70
     1
102
RTVSPost2010Prop48
 90
       50
102
RTVSPost2010PropOp48
 70
     1
102
RTVSPost2010Prop49
280
     0
102
RTVSPost2010PropOp49
 70
     1
102
RTVSPost2010Prop50
 90
       50
102
RTVSPost2010PropOp50
 70
     1
102
RTVSPost2010Prop51ColorIndex
 90
      256
102
RTVSPost2010Prop51ColorRGB
 90
-16777216
102
RTVSPost2010PropOp51
 70
     0
102
RTVSPost2010Prop52
140
1.0
102
RTVSPost2010PropOp52
 70
     0
102
RTVSPost2010Prop53
 90
        2
102
RTVSPost2010PropOp53
 70
     1
102
RTVSPost2010Prop54
  1
strokes_ogs.tif
102
RTVSPost2010PropOp54
 70
     1
102
RTVSPost2010Prop55
280
     0
102
RTVSPost2010PropOp55
 70
     1
102
RTVSPost2010Prop56
140
1.0
102
RTVSPost2010PropOp56
 70
     1
102
RTVSPost2010Prop57
140
1.0
102
RTVSPost2010PropOp57
 70
     1
  0
XRECORD
  5
38D
102
{ACAD_REACTORS
330
38C
102
}
330
38C
100
AcDbXrecord
280
     1
102
RTVSPropertyOp0
 70
     1
102
RTVSPropertyOp1
 70
     1
102
RTVSPropertyOp2
 70
     1
102
RTVSPropertyOp3
 70
     1
102
RTVSPropertyOp4
 70
     1
102
RTVSPropertyOp5
 70
     1
102
RTVSPropertyOp6
 70
     1
102
RTVSPropertyOp7
 70
     1
102
RTVSPropertyOp8
 70
     1
102
RTVSPropertyOp9
 70
     1
102
RTVSPropertyOp10
 70
     1
102
RTVSPropertyOp11
 70
     1
102
RTVSPropertyOp12
 70
     1
102
RTVSPropertyOp13
 70
     1
102
RTVSPropertyOp14
 70
     1
102
RTVSPropertyOp15
 70
     1
102
RTVSPropertyOp16
 70
     1
102
RTVSPropertyOp17
 70
     1
102
RTVSPropertyOp18
 70
     1
102
RTVSPropertyOp19
 70
     1
102
RTVSPropertyOp20
 70
     1
102
RTVSPropertyOp21
 70
     1
102
RTVSPropertyOp22
 70
     1
102
RTVSPropertyOp23
 70
     1
102
RTVSPropertyOp24
 70
     1
102
RTVSPropertyOp25
 70
     1
102
RTVSPropertyOp26
 70
     1
102
RTVSPropertyOp27
 70
     1
102
RTVSPropertyOp28
 70
     1
102
RTVSPropertyOp29
 70
     1
102
RTVSPropertyOp30
 70
     1
102
RTVSPropertyOp31
 70
     1
102
RTVSPropertyOp32
 70
     1
102
RTVSPropertyOp33
 70
     1
102
RTVSPropertyOp34
 70
     1
102
RTVSPropertyOp35
 70
     1
102
RTVSPropertyOp36
 70
     1
102
RTVSPropertyOp37
 70
     1
102
RTVSPropertyOp38
 70
     1
102
RTVSPropertyOp39
 70
     1
102
RTVSPropertyOp40
 70
     1
102
RTVSPropertyOp41
 70
     1
102
RTVSPropertyOp42
 70
     1
102
RTVSPropertyOp43
 70
     1
102
RTVSPropertyOp44
 70
     1
102
RTVSPropertyOp45
 70
     1
102
RTVSPropertyOp46
 70
     1
102
RTVSPropertyOp47
 70
     1
102
RTVSPropertyOp48
 70
     1
102
RTVSPropertyOp49
 70
     1
102
RTVSPropertyOp50
 70
     1
102
RTVSPropertyOp51
 70
     0
102
RTVSPropertyOp52
 70
     0
102
RTVSPropertyOp53
 70
     1
102
RTVSPropertyOp54
 70
     1
102
RTVSPropertyOp55
 70
     1
102
RTVSPropertyOp56
 70
     1
102
RTVSPropertyOp57
 70
     1
102
RTVSPost2010Prop28
280
     0
102
RTVSPost2010PropOp28
 70
     1
102
RTVSPost2010Prop29
280
     1
102
RTVSPost2010PropOp29
 70
     1
102
RTVSPost2010Prop30
280
     1
102
RTVSPost2010PropOp30
 70
     1
102
RTVSPost2010Prop31
280
     0
102
RTVSPost2010PropOp31
 70
     1
102
RTVSPost2010Prop32
280
     0
102
RTVSPost2010PropOp32
 70
     1
102
RTVSPost2010Prop33
280
     0
102
RTVSPost2010PropOp33
 70
     1
102
RTVSPost2010Prop34
280
     0
102
RTVSPost2010PropOp34
 70
     1
102
RTVSPost2010Prop35
280
     0
102
RTVSPost2010PropOp35
 70
     1
102
RTVSPost2010Prop36
280
     0
102
RTVSPost2010PropOp36
 70
     1
102
RTVSPost2010Prop37
 90
       50
102
RTVSPost2010PropOp37
 70
     1
102
RTVSPost2010Prop38
140
0.0
102
RTVSPost2010PropOp38
 70
     1
102
RTVSPost2010Prop39
140
1.0
102
RTVSPost2010PropOp39
 70
     1
102
RTVSPost2010Prop40
 90
        0
102
RTVSPost2010PropOp40
 70
     1
102
RTVSPost2010Prop41ColorIndex
 90
       18
102
RTVSPost2010Prop41ColorRGB
 90
        0
102
RTVSPost2010PropOp41
 70
     1
102
RTVSPost2010Prop42
 90
       50
102
RTVSPost2010PropOp42
 70
     1
102
RTVSPost2010Prop43
 90
        3
102
RTVSPost2010PropOp43
 70
     1
102
RTVSPost2010Prop44ColorIndex
 90
        5
102
RTVSPost2010Prop44ColorRGB
 90
      255
102
RTVSPost2010PropOp44
 70
     1
102
RTVSPost2010Prop45
280
     0
102
RTVSPost2010PropOp45
 70
     1
102
RTVSPost2010Prop46
 90
       50
102
RTVSPost2010PropOp46
 70
     1
102
RTVSPost2010Prop47
 90
       50
102
RTVSPost2010PropOp47
 70
     1
102
RTVSPost2010Prop48
 90
       50
102
RTVSPost2010PropOp48
 70
     1
102
RTVSPost2010Prop49
280
     0
102
RTVSPost2010PropOp49
 70
     1
102
RTVSPost2010Prop50
 90
       50
102
RTVSPost2010PropOp50
 70
     1
102
RTVSPost2010Prop51ColorIndex
 90
      256
102
RTVSPost2010Prop51ColorRGB
 90
-16777216
102
RTVSPost2010PropOp51
 70
     0
102
RTVSPost2010Prop52
140
1.0
102
RTVSPost2010PropOp52
 70
     0
102
RTVSPost2010Prop53
 90
        2
102
RTVSPost2010PropOp53
 70
     1
102
RTVSPost2010Prop54
  1
strokes_ogs.tif
102
RTVSPost2010PropOp54
 70
     1
102
RTVSPost2010Prop55
280
     0
102
RTVSPost2010PropOp55
 70
     1
102
RTVSPost2010Prop56
140
1.0
102
RTVSPost2010PropOp56
 70
     1
102
RTVSPost2010Prop57
140
1.0
102
RTVSPost2010PropOp57
 70
     1
  0
ENDSEC
  0
EOF
