  0
SECTION
  2
HEADER
  9
$ACADVER
  1
AC1018
  9
$ACADMAINTVER
 70
     0
  9
$DWGCODEPAGE
  3
ANSI_932
  9
$INSBASE
 10
0.0
 20
0.0
 30
0.0
  9
$EXTMIN
 10
-840.0
 20
-594.0
 30
0.0
  9
$EXTMAX
 10
840.0
 20
594.0
 30
0.0
  9
$LIMMIN
 10
-840.0
 20
-594.0
  9
$LIMMAX
 10
840.0
 20
594.0
  9
$ORTHOMODE
 70
     0
  9
$REGENMODE
 70
     1
  9
$FILLMODE
 70
     1
  9
$QTEXTMODE
 70
     0
  9
$MIRRTEXT
 70
     1
  9
$LTSCALE
 40
4.0
  9
$ATTMODE
 70
     1
  9
$TEXTSIZE
 40
2.5
  9
$TRACEWID
 40
1.0
  9
$TEXTSTYLE
  7
Standard
  9
$CLAYER
  8
0
  9
$CELTYPE
  6
ByLayer
  9
$CECOLOR
 62
   256
  9
$CELTSCALE
 40
1.0
  9
$DISPSILH
 70
     0
  9
$DIMSCALE
 40
1.0
  9
$DIMASZ
 40
2.5
  9
$DIMEXO
 40
0.625
  9
$DIMDLI
 40
3.75
  9
$DIMRND
 40
0.0
  9
$DIMDLE
 40
0.0
  9
$DIMEXE
 40
1.25
  9
$DIMTP
 40
0.0
  9
$DIMTM
 40
0.0
  9
$DIMTXT
 40
2.5
  9
$DIMCEN
 40
2.5
  9
$DIMTSZ
 40
0.0
  9
$DIMTOL
 70
     0
  9
$DIMLIM
 70
     0
  9
$DIMTIH
 70
     0
  9
$DIMTOH
 70
     0
  9
$DIMSE1
 70
     0
  9
$DIMSE2
 70
     0
  9
$DIMTAD
 70
     1
  9
$DIMZIN
 70
     8
  9
$DIMBLK
  1

  9
$DIMASO
 70
     1
  9
$DIMSHO
 70
     1
  9
$DIMPOST
  1

  9
$DIMAPOST
  1

  9
$DIMALT
 70
     0
  9
$DIMALTD
 70
     3
  9
$DIMALTF
 40
0.03937007874016
  9
$DIMLFAC
 40
1.0
  9
$DIMTOFL
 70
     1
  9
$DIMTVP
 40
0.0
  9
$DIMTIX
 70
     0
  9
$DIMSOXD
 70
     0
  9
$DIMSAH
 70
     0
  9
$DIMBLK1
  1

  9
$DIMBLK2
  1

  9
$DIMSTYLE
  2
ISO-25
  9
$DIMCLRD
 70
     0
  9
$DIMCLRE
 70
     0
  9
$DIMCLRT
 70
     0
  9
$DIMTFAC
 40
1.0
  9
$DIMGAP
 40
0.625
  9
$DIMJUST
 70
     0
  9
$DIMSD1
 70
     0
  9
$DIMSD2
 70
     0
  9
$DIMTOLJ
 70
     0
  9
$DIMTZIN
 70
     8
  9
$DIMALTZ
 70
     0
  9
$DIMALTTZ
 70
     0
  9
$DIMUPT
 70
     0
  9
$DIMDEC
 70
     2
  9
$DIMTDEC
 70
     2
  9
$DIMALTU
 70
     2
  9
$DIMALTTD
 70
     3
  9
$DIMTXSTY
  7
Standard
  9
$DIMAUNIT
 70
     0
  9
$DIMADEC
 70
     0
  9
$DIMALTRND
 40
0.0
  9
$DIMAZIN
 70
     0
  9
$DIMDSEP
 70
    44
  9
$DIMATFIT
 70
     3
  9
$DIMFRAC
 70
     0
  9
$DIMLDRBLK
  1

  9
$DIMLUNIT
 70
     2
  9
$DIMLWD
 70
    -2
  9
$DIMLWE
 70
    -2
  9
$DIMTMOVE
 70
     0
  9
$LUNITS
 70
     2
  9
$LUPREC
 70
     4
  9
$SKETCHINC
 40
1.0
  9
$FILLETRAD
 40
10.0
  9
$AUNITS
 70
     0
  9
$AUPREC
 70
     0
  9
$MENU
  1
.
  9
$ELEVATION
 40
0.0
  9
$PELEVATION
 40
0.0
  9
$THICKNESS
 40
0.0
  9
$LIMCHECK
 70
     0
  9
$CHAMFERA
 40
10.0
  9
$CHAMFERB
 40
10.0
  9
$CHAMFERC
 40
20.0
  9
$CHAMFERD
 40
0.0
  9
$SKPOLY
 70
     0
  9
$TDCREATE
 40
2457520.724489699
  9
$TDUCREATE
 40
2457520.349489699
  9
$TDUPDATE
 40
2457520.724489711
  9
$TDUUPDATE
 40
2457520.349489711
  9
$TDINDWG
 40
0.0000000116
  9
$TDUSRTIMER
 40
0.0000000116
  9
$USRTIMER
 70
     1
  9
$ANGBASE
 50
0.0
  9
$ANGDIR
 70
     0
  9
$PDMODE
 70
     0
  9
$PDSIZE
 40
0.0
  9
$PLINEWID
 40
0.0
  9
$SPLFRAME
 70
     0
  9
$SPLINETYPE
 70
     6
  9
$SPLINESEGS
 70
     8
  9
$HANDSEED
  5
385
  9
$SURFTAB1
 70
     6
  9
$SURFTAB2
 70
     6
  9
$SURFTYPE
 70
     6
  9
$SURFU
 70
     6
  9
$SURFV
 70
     6
  9
$UCSBASE
  2

  9
$UCSNAME
  2

  9
$UCSORG
 10
0.0
 20
0.0
 30
0.0
  9
$UCSXDIR
 10
1.0
 20
0.0
 30
0.0
  9
$UCSYDIR
 10
0.0
 20
1.0
 30
0.0
  9
$UCSORTHOREF
  2

  9
$UCSORTHOVIEW
 70
     0
  9
$UCSORGTOP
 10
0.0
 20
0.0
 30
0.0
  9
$UCSORGBOTTOM
 10
0.0
 20
0.0
 30
0.0
  9
$UCSORGLEFT
 10
0.0
 20
0.0
 30
0.0
  9
$UCSORGRIGHT
 10
0.0
 20
0.0
 30
0.0
  9
$UCSORGFRONT
 10
0.0
 20
0.0
 30
0.0
  9
$UCSORGBACK
 10
0.0
 20
0.0
 30
0.0
  9
$PUCSBASE
  2

  9
$PUCSNAME
  2

  9
$PUCSORG
 10
0.0
 20
0.0
 30
0.0
  9
$PUCSXDIR
 10
1.0
 20
0.0
 30
0.0
  9
$PUCSYDIR
 10
0.0
 20
1.0
 30
0.0
  9
$PUCSORTHOREF
  2

  9
$PUCSORTHOVIEW
 70
     0
  9
$PUCSORGTOP
 10
0.0
 20
0.0
 30
0.0
  9
$PUCSORGBOTTOM
 10
0.0
 20
0.0
 30
0.0
  9
$PUCSORGLEFT
 10
0.0
 20
0.0
 30
0.0
  9
$PUCSORGRIGHT
 10
0.0
 20
0.0
 30
0.0
  9
$PUCSORGFRONT
 10
0.0
 20
0.0
 30
0.0
  9
$PUCSORGBACK
 10
0.0
 20
0.0
 30
0.0
  9
$USERI1
 70
     0
  9
$USERI2
 70
     0
  9
$USERI3
 70
     0
  9
$USERI4
 70
     0
  9
$USERI5
 70
     0
  9
$USERR1
 40
0.0
  9
$USERR2
 40
0.0
  9
$USERR3
 40
0.0
  9
$USERR4
 40
0.0
  9
$USERR5
 40
0.0
  9
$WORLDVIEW
 70
     1
  9
$SHADEDGE
 70
     3
  9
$SHADEDIF
 70
    70
  9
$TILEMODE
 70
     1
  9
$MAXACTVP
 70
    64
  9
$PINSBASE
 10
0.0
 20
0.0
 30
0.0
  9
$PLIMCHECK
 70
     0
  9
$PEXTMIN
 10
1.000000000000000E+20
 20
1.000000000000000E+20
 30
1.000000000000000E+20
  9
$PEXTMAX
 10
-1.000000000000000E+20
 20
-1.000000000000000E+20
 30
-1.000000000000000E+20
  9
$PLIMMIN
 10
0.0
 20
0.0
  9
$PLIMMAX
 10
420.0
 20
297.0
  9
$UNITMODE
 70
     0
  9
$VISRETAIN
 70
     1
  9
$PLINEGEN
 70
     0
  9
$PSLTSCALE
 70
     1
  9
$TREEDEPTH
 70
  3020
  9
$CMLSTYLE
  2
Standard
  9
$CMLJUST
 70
     0
  9
$CMLSCALE
 40
20.0
  9
$PROXYGRAPHICS
 70
     1
  9
$MEASUREMENT
 70
     1
  9
$CELWEIGHT
370
    -1
  9
$ENDCAPS
280
     0
  9
$JOINSTYLE
280
     0
  9
$LWDISPLAY
290
     0
  9
$INSUNITS
 70
     4
  9
$HYPERLINKBASE
  1

  9
$STYLESHEET
  1

  9
$XEDIT
290
     1
  9
$CEPSNTYPE
380
     0
  9
$PSTYLEMODE
290
     1
  9
$FINGERPRINTGUID
  2
{EA9CE2DB-C2AC-4DD3-9589-F4F0B5DFFFB1}
  9
$VERSIONGUID
  2
{FAEB1C32-E019-11D5-929B-00C0DF256EC4}
  9
$EXTNAMES
290
     1
  9
$PSVPSCALE
 40
0.0
  9
$OLESTARTUP
290
     0
  9
$SORTENTS
280
   127
  9
$INDEXCTL
280
     0
  9
$HIDETEXT
280
     1
  9
$XCLIPFRAME
290
     0
  9
$HALOGAP
280
     0
  9
$OBSCOLOR
 70
   257
  9
$OBSLTYPE
280
     0
  9
$INTERSECTIONDISPLAY
280
     0
  9
$INTERSECTIONCOLOR
 70
   257
  9
$DIMASSOC
280
     2
  9
$PROJECTNAME
  1

  0
ENDSEC
  0
SECTION
  2
CLASSES
  0
CLASS
  1
ACDBDICTIONARYWDFLT
  2
AcDbDictionaryWithDefault
  3
ObjectDBX Classes
 90
        0
 91
        4
280
     0
281
     0
  0
CLASS
  1
VISUALSTYLE
  2
AcDbVisualStyle
  3
ObjectDBX Classes
 90
     4095
 91
        4
280
     0
281
     0
  0
ENDSEC
  0
SECTION
  2
TABLES
  0
TABLE
  2
VPORT
  5
8
330
0
100
AcDbSymbolTable
 70
     1
  0
VPORT
  5
29
330
8
100
AcDbSymbolTableRecord
100
AcDbViewportTableRecord
  2
*Active
 70
     0
 10
0.0
 20
0.0
 11
1.0
 21
1.0
 12
0.0
 22
0.0
 13
0.0
 23
0.0
 14
10.0
 24
10.0
 15
10.0
 25
10.0
 16
0.0
 26
0.0
 36
1.0
 17
0.0
 27
0.0
 37
0.0
 40
1306.8
 41
1.414141414141414
 42
50.0
 43
0.0
 44
0.0
 50
0.0
 51
0.0
 71
     0
 72
 10000
 73
     1
 74
     3
 75
     0
 76
     0
 77
     0
 78
     0
281
     0
 65
     1
110
0.0
120
0.0
130
0.0
111
1.0
121
0.0
131
0.0
112
0.0
122
1.0
132
0.0
 79
     0
146
0.0
  0
ENDTAB
  0
TABLE
  2
LTYPE
  5
5
330
0
100
AcDbSymbolTable
 70
     6
  0
LTYPE
  5
14
330
5
100
AcDbSymbolTableRecord
100
AcDbLinetypeTableRecord
  2
ByBlock
 70
     0
  3

 72
    65
 73
     0
 40
0.0
  0
LTYPE
  5
15
330
5
100
AcDbSymbolTableRecord
100
AcDbLinetypeTableRecord
  2
ByLayer
 70
     0
  3

 72
    65
 73
     0
 40
0.0
  0
LTYPE
  5
16
330
5
100
AcDbSymbolTableRecord
100
AcDbLinetypeTableRecord
  2
Continuous
 70
     0
  3
Solid line
 72
    65
 73
     0
 40
0.0
  0
LTYPE
  5
3C
330
5
100
AcDbSymbolTableRecord
100
AcDbLinetypeTableRecord
  2
JWW_CENTER2
 70
     0
  3
-------------  --  -------------
 72
    65
 73
     4
 40
13.54666666666667
 49
11.00666666666667
 74
     0
 49
-0.8466666666666667
 74
     0
 49
0.8466666666666667
 74
     0
 49
-0.8466666666666667
 74
     0
  0
LTYPE
  5
3D
330
5
100
AcDbSymbolTableRecord
100
AcDbLinetypeTableRecord
  2
JWW_DASHED1
 70
     0
  3
-  --  --  --  --  --  --  --  -
 72
    65
 73
     2
 40
1.693333333333333
 49
0.8466666666666667
 74
     0
 49
-0.8466666666666667
 74
     0
  0
LTYPE
  5
3E
330
5
100
AcDbSymbolTableRecord
100
AcDbLinetypeTableRecord
  2
JWW_CENTER1
 70
     0
  3
-----  --  ----------  --  -----
 72
    65
 73
     4
 40
6.773333333333333
 49
4.233333333333333
 74
     0
 49
-0.8466666666666667
 74
     0
 49
0.8466666666666667
 74
     0
 49
-0.8466666666666667
 74
     0
  0
LTYPE
  5
3F
330
5
100
AcDbSymbolTableRecord
100
AcDbLinetypeTableRecord
  2
JWW_PHANTOM2
 70
     0
  3
------------  -  -  ------------
 72
    65
 73
     6
 40
13.54666666666667
 49
10.16
 74
     0
 49
-0.8466666666666667
 74
     0
 49
0.4233333333333333
 74
     0
 49
-0.8466666666666667
 74
     0
 49
0.4233333333333333
 74
     0
 49
-0.8466666666666667
 74
     0
  0
LTYPE
  5
40
330
5
100
AcDbSymbolTableRecord
100
AcDbLinetypeTableRecord
  2
JWW_DASHED3
 70
     0
  3
---  ------  ------  ------  ---
 72
    65
 73
     2
 40
3.386666666666667
 49
2.54
 74
     0
 49
-0.8466666666666667
 74
     0
  0
ENDTAB
  0
TABLE
  2
LAYER
  5
2
330
0
100
AcDbSymbolTable
 70
     9
  0
LAYER
  5
10
330
2
100
AcDbSymbolTableRecord
100
AcDbLayerTableRecord
  2
0
 70
     0
 62
     7
  6
Continuous
370
    -3
390
F
  0
LAYER
  5
41
330
2
100
AcDbSymbolTableRecord
100
AcDbLayerTableRecord
  2
F-5ﾚｲﾔ
 70
     0
 62
     7
  6
Continuous
370
    -3
390
F
  0
LAYER
  5
42
330
2
100
AcDbSymbolTableRecord
100
AcDbLayerTableRecord
  2
躯体
 70
     0
 62
     7
  6
Continuous
370
    -3
390
F
  0
LAYER
  5
43
330
2
100
AcDbSymbolTableRecord
100
AcDbLayerTableRecord
  2
0-F
 70
     0
 62
     7
  6
Continuous
370
    -3
390
F
  0
LAYER
  5
44
330
2
100
AcDbSymbolTableRecord
100
AcDbLayerTableRecord
  2
寸法
 70
     0
 62
     7
  6
Continuous
370
    -3
390
F
  0
LAYER
  5
45
330
2
100
AcDbSymbolTableRecord
100
AcDbLayerTableRecord
  2
0-E
 70
     0
 62
     7
  6
Continuous
370
    -3
390
F
  0
LAYER
  5
46
330
2
100
AcDbSymbolTableRecord
100
AcDbLayerTableRecord
  2
通り芯
 70
     0
 62
     7
  6
Continuous
370
    -3
390
F
  0
LAYER
  5
47
330
2
100
AcDbSymbolTableRecord
100
AcDbLayerTableRecord
  2
その他
 70
     0
 62
     7
  6
Continuous
370
    -3
390
F
  0
LAYER
  5
48
330
2
100
AcDbSymbolTableRecord
100
AcDbLayerTableRecord
  2
ハッチ
 70
     0
 62
     7
  6
Continuous
370
    -3
390
F
  0
ENDTAB
  0
TABLE
  2
STYLE
  5
3
330
0
100
AcDbSymbolTable
 70
     2
  0
STYLE
  5
11
330
3
100
AcDbSymbolTableRecord
100
AcDbTextStyleTableRecord
  2
Standard
 70
     0
 40
0.0
 41
1.0
 50
0.0
 71
     0
 42
2.5
  3
txt
  4

1001
ACAD
1000

1071
        0
  0
STYLE
  5
3B
330
3
100
AcDbSymbolTableRecord
100
AcDbTextStyleTableRecord
  2
ＭＳ ゴシック
 70
     0
 40
1.0
 41
1.0
 50
0.0
 71
     0
 42
10.0
  3

  4

1001
ACAD
1000
MS Gothic
1071
    32817
  0
ENDTAB
  0
TABLE
  2
VIEW
  5
6
330
0
100
AcDbSymbolTable
 70
     0
  0
ENDTAB
  0
TABLE
  2
UCS
  5
7
330
0
100
AcDbSymbolTable
 70
     0
  0
ENDTAB
  0
TABLE
  2
APPID
  5
9
330
0
100
AcDbSymbolTable
 70
     1
  0
APPID
  5
12
330
9
100
AcDbSymbolTableRecord
100
AcDbRegAppTableRecord
  2
ACAD
 70
     0
  0
ENDTAB
  0
TABLE
  2
DIMSTYLE
  5
A
330
0
100
AcDbSymbolTable
 70
     1
100
AcDbDimStyleTable
  0
DIMSTYLE
105
27
330
A
100
AcDbSymbolTableRecord
100
AcDbDimStyleTableRecord
  2
ISO-25
 70
     0
 41
2.5
 42
0.625
 43
3.75
 44
1.25
 73
     0
 74
     0
 77
     1
 78
     8
140
2.5
141
2.5
143
0.03937007874016
147
0.625
171
     3
172
     1
271
     2
272
     2
274
     3
278
    44
283
     0
284
     8
340
11
  0
ENDTAB
  0
TABLE
  2
BLOCK_RECORD
  5
1
330
0
100
AcDbSymbolTable
 70
     1
  0
BLOCK_RECORD
  5
1F
330
1
100
AcDbSymbolTableRecord
100
AcDbBlockTableRecord
  2
*Model_Space
340
22
  0
BLOCK_RECORD
  5
1B
330
1
100
AcDbSymbolTableRecord
100
AcDbBlockTableRecord
  2
*Paper_Space
340
1E
  0
BLOCK_RECORD
  5
23
330
1
100
AcDbSymbolTableRecord
100
AcDbBlockTableRecord
  2
*Paper_Space0
340
26
  0
ENDTAB
  0
ENDSEC
  0
SECTION
  2
BLOCKS
  0
BLOCK
  5
20
330
1F
100
AcDbEntity
  8
0
100
AcDbBlockBegin
  2
*Model_Space
 70
     0
 10
0.0
 20
0.0
 30
0.0
  3
*Model_Space
  1

  0
ENDBLK
  5
21
330
1F
100
AcDbEntity
  8
0
100
AcDbBlockEnd
  0
BLOCK
  5
1C
330
1B
100
AcDbEntity
 67
     1
  8
0
100
AcDbBlockBegin
  2
*Paper_Space
 70
     0
 10
0.0
 20
0.0
 30
0.0
  3
*Paper_Space
  1

  0
ENDBLK
  5
1D
330
1B
100
AcDbEntity
 67
     1
  8
0
100
AcDbBlockEnd
  0
BLOCK
  5
24
330
23
100
AcDbEntity
  8
0
100
AcDbBlockBegin
  2
*Paper_Space0
 70
     0
 10
0.0
 20
0.0
 30
0.0
  3
*Paper_Space0
  1

  0
ENDBLK
  5
25
330
23
100
AcDbEntity
  8
0
100
AcDbBlockEnd
  0
ENDSEC
  0
SECTION
  2
ENTITIES
  0
TEXT
  5
49
330
1F
100
AcDbEntity
  8
F-5ﾚｲﾔ
  6
Continuous
 62
     2
370
     9
100
AcDbText
 10
-309.3628001271063
 20
-528.4488751053836
 30
0.0
 40
12.192
  1
タイル用　充填深さ４０ｍｍ　ステンレス目地　側溝用　カラー舗装用みぞ蓋　
 41
0.7743055555555557
  7
ＭＳ ゴシック
100
AcDbText
  0
ARC
  5
4A
330
1F
100
AcDbEntity
  8
躯体
  6
Continuous
 62
     2
370
     9
100
AcDbCircle
 10
-3.70752493394594
 20
19.17162405432146
 30
0.0
 40
1.999999824868206
100
AcDbArc
 50
210.0005096035584
 51
270.0
  0
ARC
  5
4B
330
1F
100
AcDbEntity
  8
躯体
  6
Continuous
 62
     2
370
     9
100
AcDbCircle
 10
-18.70754520044557
 20
19.17162405432146
 30
0.0
 40
1.999999824868206
100
AcDbArc
 50
270.0
 51
329.9994903964416
  0
LINE
  5
4C
330
1F
100
AcDbEntity
  8
躯体
  6
JWW_CENTER2
 62
     2
370
     9
100
AcDbLine
 10
-11.20753506719576
 20
-1.828325043772111
 30
0.0
 11
-16.98361110050428
 21
-1.828325043772111
 31
0.0
  0
LINE
  5
4D
330
1F
100
AcDbEntity
  8
躯体
  6
JWW_CENTER2
 62
     2
370
     9
100
AcDbLine
 10
-11.20753506719576
 20
-1.828325043772111
 30
0.0
 11
-5.43145903388632
 21
-1.828325043772111
 31
0.0
  0
LINE
  5
4E
330
1F
100
AcDbEntity
  8
躯体
  6
Continuous
 62
     2
370
     9
100
AcDbLine
 10
-19.95751385806853
 20
17.17161474587101
 30
0.0
 11
-19.95751385806853
 21
-11.82837158602433
 31
0.0
  0
LINE
  5
4F
330
1F
100
AcDbEntity
  8
躯体
  6
Continuous
 62
     2
370
     9
100
AcDbLine
 10
-11.20753506719576
 20
-11.82837158602433
 30
0.0
 11
-19.95751385806853
 21
-11.82837158602433
 31
0.0
  0
LINE
  5
50
330
1F
100
AcDbEntity
  8
躯体
  6
Continuous
 62
     2
370
     9
100
AcDbLine
 10
-11.20753506719576
 20
-11.82837158602433
 30
0.0
 11
-2.457556276322983
 21
-11.82837158602433
 31
0.0
  0
LINE
  5
51
330
1F
100
AcDbEntity
  8
躯体
  6
Continuous
 62
     2
370
     9
100
AcDbLine
 10
-2.457556276322983
 20
17.17161474587101
 30
0.0
 11
-2.457556276322983
 21
-11.82837158602433
 31
0.0
  0
LINE
  5
52
330
1F
100
AcDbEntity
  8
躯体
  6
Continuous
 62
     2
370
     9
100
AcDbLine
 10
-19.95751385806853
 20
17.17161474587101
 30
0.0
 11
-18.70754520044557
 21
17.17161474587101
 31
0.0
  0
LINE
  5
53
330
1F
100
AcDbEntity
  8
躯体
  6
JWW_DASHED1
 62
     2
370
     9
100
AcDbLine
 10
-17.95750454961763
 20
17.31753030385016
 30
0.0
 11
-17.95750454961763
 21
-11.82837158602433
 31
0.0
  0
LINE
  5
54
330
1F
100
AcDbEntity
  8
躯体
  6
Continuous
 62
     2
370
     9
100
AcDbLine
 10
-2.457556276322983
 20
17.17161474587101
 30
0.0
 11
-3.70752493394594
 21
17.17161474587101
 31
0.0
  0
LINE
  5
55
330
1F
100
AcDbEntity
  8
躯体
  6
JWW_DASHED1
 62
     2
370
     9
100
AcDbLine
 10
-4.457565584773882
 20
17.31753030385016
 30
0.0
 11
-4.457565584773882
 21
-11.82837158602433
 31
0.0
  0
CIRCLE
  5
56
330
1F
100
AcDbEntity
  8
躯体
  6
Continuous
 62
     2
370
     9
100
AcDbCircle
 10
-11.20753506719576
 20
-1.828325043772111
 30
0.0
 40
4.249999652037749
  0
LINE
  5
57
330
1F
100
AcDbEntity
  8
躯体
  6
JWW_CENTER2
 62
     2
370
     9
100
AcDbLine
 10
-11.20753506719576
 20
-12.60883402041782
 30
0.0
 11
-11.20753506719576
 21
27.17156219436583
 31
0.0
  0
ARC
  5
58
330
1F
100
AcDbEntity
  8
躯体
  6
Continuous
 62
     2
370
     9
100
AcDbCircle
 10
-603.707508437958
 20
19.17162405432146
 30
0.0
 40
1.999999824868206
100
AcDbArc
 50
210.0005096035584
 51
270.0
  0
ARC
  5
59
330
1F
100
AcDbEntity
  8
躯体
  6
Continuous
 62
     2
370
     9
100
AcDbCircle
 10
-618.7075287044577
 20
19.17162405432146
 30
0.0
 40
1.999999824868206
100
AcDbArc
 50
270.0
 51
329.9994903964416
  0
LINE
  5
5A
330
1F
100
AcDbEntity
  8
躯体
  6
JWW_CENTER2
 62
     2
370
     9
100
AcDbLine
 10
-611.2075185712079
 20
-1.828325043772111
 30
0.0
 11
-616.9835946045164
 21
-1.828325043772111
 31
0.0
  0
LINE
  5
5B
330
1F
100
AcDbEntity
  8
躯体
  6
JWW_CENTER2
 62
     2
370
     9
100
AcDbLine
 10
-611.2075185712079
 20
-1.828325043772111
 30
0.0
 11
-605.4314425378984
 21
-1.828325043772111
 31
0.0
  0
LINE
  5
5C
330
1F
100
AcDbEntity
  8
躯体
  6
Continuous
 62
     2
370
     9
100
AcDbLine
 10
-619.9574973620806
 20
17.17161474587101
 30
0.0
 11
-619.9574973620806
 21
-11.82837158602433
 31
0.0
  0
LINE
  5
5D
330
1F
100
AcDbEntity
  8
躯体
  6
Continuous
 62
     2
370
     9
100
AcDbLine
 10
-611.2075185712079
 20
-11.82837158602433
 30
0.0
 11
-619.9574973620806
 21
-11.82837158602433
 31
0.0
  0
LINE
  5
5E
330
1F
100
AcDbEntity
  8
躯体
  6
Continuous
 62
     2
370
     9
100
AcDbLine
 10
-611.2075185712079
 20
-11.82837158602433
 30
0.0
 11
-602.4575397803351
 21
-11.82837158602433
 31
0.0
  0
LINE
  5
5F
330
1F
100
AcDbEntity
  8
躯体
  6
Continuous
 62
     2
370
     9
100
AcDbLine
 10
-602.4575397803351
 20
17.17161474587101
 30
0.0
 11
-602.4575397803351
 21
-11.82837158602433
 31
0.0
  0
LINE
  5
60
330
1F
100
AcDbEntity
  8
躯体
  6
Continuous
 62
     2
370
     9
100
AcDbLine
 10
-619.9574973620806
 20
17.17161474587101
 30
0.0
 11
-618.7075287044577
 21
17.17161474587101
 31
0.0
  0
LINE
  5
61
330
1F
100
AcDbEntity
  8
躯体
  6
JWW_DASHED1
 62
     2
370
     9
100
AcDbLine
 10
-617.9574880536297
 20
17.31753030385016
 30
0.0
 11
-617.9574880536297
 21
-11.82837158602433
 31
0.0
  0
LINE
  5
62
330
1F
100
AcDbEntity
  8
躯体
  6
Continuous
 62
     2
370
     9
100
AcDbLine
 10
-602.4575397803351
 20
17.17161474587101
 30
0.0
 11
-603.707508437958
 21
17.17161474587101
 31
0.0
  0
LINE
  5
63
330
1F
100
AcDbEntity
  8
躯体
  6
JWW_DASHED1
 62
     2
370
     9
100
AcDbLine
 10
-604.457549088786
 20
17.31753030385016
 30
0.0
 11
-604.457549088786
 21
-11.82837158602433
 31
0.0
  0
CIRCLE
  5
64
330
1F
100
AcDbEntity
  8
躯体
  6
Continuous
 62
     2
370
     9
100
AcDbCircle
 10
-611.2075185712079
 20
-1.828325043772111
 30
0.0
 40
4.249999652037749
  0
LINE
  5
65
330
1F
100
AcDbEntity
  8
躯体
  6
JWW_CENTER2
 62
     2
370
     9
100
AcDbLine
 10
-611.2075185712079
 20
-12.60883402041782
 30
0.0
 11
-611.2075185712079
 21
27.17156219436583
 31
0.0
  0
ARC
  5
66
330
1F
100
AcDbEntity
  8
躯体
  6
Continuous
 62
     2
370
     9
100
AcDbCircle
 10
-3.707524933945969
 20
317.1714944429851
 30
0.0
 40
1.999999824868206
100
AcDbArc
 50
90.0
 51
149.9994903964416
  0
ARC
  5
67
330
1F
100
AcDbEntity
  8
躯体
  6
Continuous
 62
     2
370
     9
100
AcDbCircle
 10
-18.7075452004456
 20
317.1714944429851
 30
0.0
 40
1.999999824868206
100
AcDbArc
 50
30.00050960355836
 51
89.99999999999999
  0
LINE
  5
68
330
1F
100
AcDbEntity
  8
躯体
  6
JWW_CENTER2
 62
     2
370
     9
100
AcDbLine
 10
-11.20753506719578
 20
338.1714435410787
 30
0.0
 11
-16.98361110050431
 21
338.1714435410787
 31
0.0
  0
LINE
  5
69
330
1F
100
AcDbEntity
  8
躯体
  6
JWW_CENTER2
 62
     2
370
     9
100
AcDbLine
 10
-11.20753506719578
 20
338.1714435410787
 30
0.0
 11
-5.431459033886348
 21
338.1714435410787
 31
0.0
  0
LINE
  5
6A
330
1F
100
AcDbEntity
  8
躯体
  6
Continuous
 62
     2
370
     9
100
AcDbLine
 10
-19.95751385806856
 20
319.1715037514356
 30
0.0
 11
-19.95751385806856
 21
348.1714900833309
 31
0.0
  0
LINE
  5
6B
330
1F
100
AcDbEntity
  8
躯体
  6
Continuous
 62
     2
370
     9
100
AcDbLine
 10
-11.20753506719578
 20
348.1714900833309
 30
0.0
 11
-19.95751385806856
 21
348.1714900833309
 31
0.0
  0
LINE
  5
6C
330
1F
100
AcDbEntity
  8
躯体
  6
Continuous
 62
     2
370
     9
100
AcDbLine
 10
-11.20753506719578
 20
348.1714900833309
 30
0.0
 11
-2.457556276323011
 21
348.1714900833309
 31
0.0
  0
LINE
  5
6D
330
1F
100
AcDbEntity
  8
躯体
  6
Continuous
 62
     2
370
     9
100
AcDbLine
 10
-2.457556276323011
 20
319.1715037514356
 30
0.0
 11
-2.457556276323011
 21
348.1714900833309
 31
0.0
  0
LINE
  5
6E
330
1F
100
AcDbEntity
  8
躯体
  6
Continuous
 62
     2
370
     9
100
AcDbLine
 10
-19.95751385806856
 20
319.1715037514356
 30
0.0
 11
-18.7075452004456
 21
319.1715037514356
 31
0.0
  0
LINE
  5
6F
330
1F
100
AcDbEntity
  8
躯体
  6
JWW_DASHED1
 62
     2
370
     9
100
AcDbLine
 10
-17.95750454961766
 20
319.0255881934564
 30
0.0
 11
-17.95750454961766
 21
348.1714900833309
 31
0.0
  0
LINE
  5
70
330
1F
100
AcDbEntity
  8
躯体
  6
Continuous
 62
     2
370
     9
100
AcDbLine
 10
-2.457556276323011
 20
319.1715037514356
 30
0.0
 11
-3.707524933945969
 21
319.1715037514356
 31
0.0
  0
LINE
  5
71
330
1F
100
AcDbEntity
  8
躯体
  6
JWW_DASHED1
 62
     2
370
     9
100
AcDbLine
 10
-4.45756558477391
 20
319.0255881934564
 30
0.0
 11
-4.45756558477391
 21
348.1714900833309
 31
0.0
  0
CIRCLE
  5
72
330
1F
100
AcDbEntity
  8
躯体
  6
Continuous
 62
     2
370
     9
100
AcDbCircle
 10
-11.20753506719578
 20
338.1714435410787
 30
0.0
 40
4.249999652037749
  0
LINE
  5
73
330
1F
100
AcDbEntity
  8
躯体
  6
JWW_CENTER2
 62
     2
370
     9
100
AcDbLine
 10
-11.20753506719578
 20
348.9519525177244
 30
0.0
 11
-11.20753506719578
 21
309.1715563029408
 31
0.0
  0
LINE
  5
74
330
1F
100
AcDbEntity
  8
0-F
  6
Continuous
 62
     7
370
     9
100
AcDbLine
 10
-11.20753506719578
 20
356.897874621358
 30
0.0
 11
-11.20753506719578
 21
394.37149392454
 31
0.0
  0
LINE
  5
75
330
1F
100
AcDbEntity
  8
0-F
  6
Continuous
 62
     7
370
     9
100
AcDbLine
 10
-611.2075524966566
 20
356.897874621358
 30
0.0
 11
-611.207535067196
 21
394.37149392454
 31
0.0
  0
TEXT
  5
76
330
1F
100
AcDbEntity
  8
寸法
  6
Continuous
 62
     2
370
     9
100
AcDbText
 10
-592.2298521150501
 20
372.0208902505535
 30
0.0
 40
12.192
  1
φ8.5
 41
1.1
  7
ＭＳ ゴシック
100
AcDbText
  0
LINE
  5
77
330
1F
100
AcDbEntity
  8
寸法
  6
Continuous
 62
     7
370
     9
100
AcDbLine
 10
-594.1216808130498
 20
367.7649826280873
 30
0.0
 11
-546.3380234170504
 21
367.7649826280873
 31
0.0
  0
LINE
  5
78
330
1F
100
AcDbEntity
  8
寸法
  6
Continuous
 62
     7
370
     9
100
AcDbLine
 10
-609.0825187451887
 20
341.8520512058184
 30
0.0
 11
-594.1216808130498
 21
367.7649826280873
 31
0.0
  0
LINE
  5
79
330
1F
100
AcDbEntity
  8
寸法
  6
Continuous
 62
     7
370
     9
100
AcDbLine
 10
-609.0825187451887
 20
341.8520512058184
 30
0.0
 11
-602.9949044551017
 21
349.7855846087308
 31
0.0
  0
LINE
  5
7A
330
1F
100
AcDbEntity
  8
寸法
  6
Continuous
 62
     7
370
     9
100
AcDbLine
 10
-609.0825187451887
 20
341.8520512058184
 30
0.0
 11
-605.2556844215383
 21
351.0908465309313
 31
0.0
  0
ARC
  5
7B
330
1F
100
AcDbEntity
  8
躯体
  6
Continuous
 62
     2
370
     9
100
AcDbCircle
 10
-603.707508437958
 20
317.1714944429851
 30
0.0
 40
1.999999824868206
100
AcDbArc
 50
90.0
 51
149.9994903964416
  0
ARC
  5
7C
330
1F
100
AcDbEntity
  8
躯体
  6
Continuous
 62
     2
370
     9
100
AcDbCircle
 10
-618.7075287044577
 20
317.1714944429851
 30
0.0
 40
1.999999824868206
100
AcDbArc
 50
30.00050960355836
 51
89.99999999999999
  0
LINE
  5
7D
330
1F
100
AcDbEntity
  8
躯体
  6
JWW_CENTER2
 62
     2
370
     9
100
AcDbLine
 10
-611.2075185712079
 20
338.1714435410787
 30
0.0
 11
-616.9835946045164
 21
338.1714435410787
 31
0.0
  0
LINE
  5
7E
330
1F
100
AcDbEntity
  8
躯体
  6
JWW_CENTER2
 62
     2
370
     9
100
AcDbLine
 10
-611.2075185712079
 20
338.1714435410787
 30
0.0
 11
-605.4314425378984
 21
338.1714435410787
 31
0.0
  0
LINE
  5
7F
330
1F
100
AcDbEntity
  8
躯体
  6
Continuous
 62
     2
370
     9
100
AcDbLine
 10
-619.9574973620806
 20
319.1715037514356
 30
0.0
 11
-619.9574973620806
 21
348.1714900833309
 31
0.0
  0
LINE
  5
80
330
1F
100
AcDbEntity
  8
躯体
  6
Continuous
 62
     2
370
     9
100
AcDbLine
 10
-611.2075185712079
 20
348.1714900833309
 30
0.0
 11
-619.9574973620806
 21
348.1714900833309
 31
0.0
  0
LINE
  5
81
330
1F
100
AcDbEntity
  8
躯体
  6
Continuous
 62
     2
370
     9
100
AcDbLine
 10
-611.2075185712079
 20
348.1714900833309
 30
0.0
 11
-602.4575397803351
 21
348.1714900833309
 31
0.0
  0
LINE
  5
82
330
1F
100
AcDbEntity
  8
躯体
  6
Continuous
 62
     2
370
     9
100
AcDbLine
 10
-602.4575397803351
 20
319.1715037514356
 30
0.0
 11
-602.4575397803351
 21
348.1714900833309
 31
0.0
  0
LINE
  5
83
330
1F
100
AcDbEntity
  8
躯体
  6
Continuous
 62
     2
370
     9
100
AcDbLine
 10
-619.9574973620806
 20
319.1715037514356
 30
0.0
 11
-618.7075287044577
 21
319.1715037514356
 31
0.0
  0
LINE
  5
84
330
1F
100
AcDbEntity
  8
躯体
  6
JWW_DASHED1
 62
     2
370
     9
100
AcDbLine
 10
-617.9574880536297
 20
319.0255881934564
 30
0.0
 11
-617.9574880536297
 21
348.1714900833309
 31
0.0
  0
LINE
  5
85
330
1F
100
AcDbEntity
  8
躯体
  6
Continuous
 62
     2
370
     9
100
AcDbLine
 10
-602.4575397803351
 20
319.1715037514356
 30
0.0
 11
-603.707508437958
 21
319.1715037514356
 31
0.0
  0
LINE
  5
86
330
1F
100
AcDbEntity
  8
躯体
  6
JWW_DASHED1
 62
     2
370
     9
100
AcDbLine
 10
-604.457549088786
 20
319.0255881934564
 30
0.0
 11
-604.457549088786
 21
348.1714900833309
 31
0.0
  0
CIRCLE
  5
87
330
1F
100
AcDbEntity
  8
躯体
  6
Continuous
 62
     2
370
     9
100
AcDbCircle
 10
-611.2075185712079
 20
338.1714435410787
 30
0.0
 40
4.249999652037749
  0
LINE
  5
88
330
1F
100
AcDbEntity
  8
躯体
  6
JWW_CENTER2
 62
     2
370
     9
100
AcDbLine
 10
-611.2075185712079
 20
348.9519525177244
 30
0.0
 11
-611.2075185712079
 21
309.1715563029408
 31
0.0
  0
TEXT
  5
89
330
1F
100
AcDbEntity
  8
0-F
  6
Continuous
 62
     2
370
     9
100
AcDbText
 10
-183.189882710249
 20
437.4275493510602
 30
0.0
 40
12.192
  1
2000
 41
1.09375
  7
ＭＳ ゴシック
100
AcDbText
  0
TEXT
  5
8A
330
1F
100
AcDbEntity
  8
0-F
  6
Continuous
 62
     2
370
     9
100
AcDbText
 10
92.79250452317592
 20
397.4275163590839
 30
0.0
 40
12.192
  1
600
 41
1.083333333333333
  7
ＭＳ ゴシック
100
AcDbText
  0
TEXT
  5
8B
330
1F
100
AcDbEntity
  8
0-F
  6
Continuous
 62
     2
370
     9
100
AcDbText
 10
-323.7075086736147
 20
397.4275163590839
 30
0.0
 40
12.192
  1
600
 41
1.083333333333333
  7
ＭＳ ゴシック
100
AcDbText
  0
TEXT
  5
8C
330
1F
100
AcDbEntity
  8
0-F
  6
Continuous
 62
     2
370
     9
100
AcDbText
 10
-673.7075622855764
 20
397.4275163590839
 30
0.0
 40
12.192
  1
100
 41
1.083333333333333
  7
ＭＳ ゴシック
100
AcDbText
  0
LINE
  5
8D
330
1F
100
AcDbEntity
  8
0-F
  6
Continuous
 62
     7
370
     9
100
AcDbLine
 10
-711.2075185712077
 20
433.171542752665
 30
0.0
 11
118.7924979247806
 21
433.171542752665
 31
0.0
  0
LINE
  5
8E
330
1F
100
AcDbEntity
  8
0-F
  6
Continuous
 62
     7
370
     9
100
AcDbLine
 10
-711.2075185712077
 20
393.1715097606885
 30
0.0
 11
118.7924979247806
 21
393.1715097606885
 31
0.0
  0
LINE
  5
8F
330
1F
100
AcDbEntity
  8
0-F
  6
Continuous
 62
     7
370
     9
100
AcDbLine
 10
-711.2075185712077
 20
433.171542752665
 30
0.0
 11
-699.3102159951942
 21
431.6052486753846
 31
0.0
  0
LINE
  5
90
330
1F
100
AcDbEntity
  8
0-F
  6
Continuous
 62
     7
370
     9
100
AcDbLine
 10
-711.2075185712077
 20
433.171542752665
 30
0.0
 11
-699.3102159951942
 21
434.7378368299454
 31
0.0
  0
LINE
  5
91
330
1F
100
AcDbEntity
  8
0-F
  6
Continuous
 62
     7
370
     9
100
AcDbLine
 10
0.6897675088177593
 20
394.737803837969
 30
0.0
 11
-23.10483764320933
 21
391.6052156834081
 31
0.0
  0
LINE
  5
92
330
1F
100
AcDbEntity
  8
0-F
  6
Continuous
 62
     7
370
     9
100
AcDbLine
 10
0.6897675088177593
 20
391.6052156834081
 30
0.0
 11
-23.10483764320933
 21
394.737803837969
 31
0.0
  0
LINE
  5
93
330
1F
100
AcDbEntity
  8
0-F
  6
Continuous
 62
     7
370
     9
100
AcDbLine
 10
-599.3102324911824
 20
394.737803837969
 30
0.0
 11
-623.1049366191385
 21
391.6052156834081
 31
0.0
  0
LINE
  5
94
330
1F
100
AcDbEntity
  8
0-F
  6
Continuous
 62
     7
370
     9
100
AcDbLine
 10
-599.3102324911824
 20
391.6052156834081
 30
0.0
 11
-623.1049366191385
 21
394.737803837969
 31
0.0
  0
LINE
  5
95
330
1F
100
AcDbEntity
  8
0-F
  6
Continuous
 62
     7
370
     9
100
AcDbLine
 10
-711.2075185712077
 20
393.1715097606885
 30
0.0
 11
-699.3102159951942
 21
391.6052156834081
 31
0.0
  0
LINE
  5
96
330
1F
100
AcDbEntity
  8
0-F
  6
Continuous
 62
     7
370
     9
100
AcDbLine
 10
-711.2075185712077
 20
393.1715097606885
 30
0.0
 11
-699.3102159951942
 21
394.737803837969
 31
0.0
  0
LINE
  5
97
330
1F
100
AcDbEntity
  8
0-F
  6
Continuous
 62
     7
370
     9
100
AcDbLine
 10
-711.2075185712077
 20
322.1715229574792
 30
0.0
 11
-711.2075185712077
 21
434.3715269165165
 31
0.0
  0
TEXT
  5
98
330
1F
100
AcDbEntity
  8
寸法
  6
Continuous
 62
     2
370
     9
100
AcDbText
 10
323.5152052132223
 20
-326.9182663322327
 30
0.0
 40
12.192
  1
仕様
 41
1.0625
  7
ＭＳ ゴシック
100
AcDbText
  0
TEXT
  5
99
330
1F
100
AcDbEntity
  8
寸法
  6
Continuous
 62
     2
370
     9
100
AcDbText
 10
323.5152151108152
 20
-350.9182465370469
 30
0.0
 40
12.192
  1
適用荷重：Ｔ－１４
 41
1.111111111111111
  7
ＭＳ ゴシック
100
AcDbText
  0
TEXT
  5
9A
330
1F
100
AcDbEntity
  8
寸法
  6
Continuous
 62
     2
370
     9
100
AcDbText
 10
323.5152151108154
 20
-398.9182564346398
 30
0.0
 40
12.192
  1
接触圧子：２００×５００ｍｍ
 41
1.116071428571426
  7
ＭＳ ゴシック
100
AcDbText
  0
TEXT
  5
9B
330
1F
100
AcDbEntity
  8
寸法
  6
Continuous
 62
     2
370
     9
100
AcDbText
 10
323.5151854180366
 20
-374.9182762298254
 30
0.0
 40
12.192
  1
破壊荷重：２４２ｋＮ（２４，７００ｋｇｆ）以上
 41
1.119565217391304
  7
ＭＳ ゴシック
100
AcDbText
  0
LINE
  5
9C
330
1F
100
AcDbEntity
  8
0-E
  6
Continuous
 62
     7
370
     9
100
AcDbLine
 10
435.7926034991048
 20
194.3450508554944
 30
0.0
 11
446.7751705388006
 21
199.1806188453593
 31
0.0
  0
LINE
  5
9D
330
1F
100
AcDbEntity
  8
0-E
  6
Continuous
 62
     7
370
     9
100
AcDbLine
 10
435.7926034991048
 20
194.3450508554944
 30
0.0
 11
447.652493173936
 21
196.1733342169809
 31
0.0
  0
LINE
  5
9E
330
1F
100
AcDbEntity
  8
躯体
  6
Continuous
 62
     2
370
     9
100
AcDbLine
 10
378.7925639087331
 20
315.1715493510603
 30
0.0
 11
378.7925639087331
 21
318.1715097606887
 31
0.0
  0
LINE
  5
9F
330
1F
100
AcDbEntity
  8
躯体
  6
Continuous
 62
     2
370
     9
100
AcDbLine
 10
378.7925639087331
 20
21.17147017031721
 30
0.0
 11
378.7925639087331
 21
18.17146027272429
 31
0.0
  0
LINE
  5
A0
330
1F
100
AcDbEntity
  8
躯体
  6
Continuous
 62
     2
370
     9
100
AcDbLine
 10
-711.2075185712077
 20
268.1714932647005
 30
0.0
 11
-711.2075185712077
 21
318.1715097606887
 31
0.0
  0
LINE
  5
A1
330
1F
100
AcDbEntity
  8
躯体
  6
Continuous
 62
     2
370
     9
100
AcDbLine
 10
-711.2075185712077
 20
68.171526256677
 30
0.0
 11
-711.2075185712077
 21
18.17146027272429
 31
0.0
  0
LINE
  5
A2
330
1F
100
AcDbEntity
  8
躯体
  6
Continuous
 62
     2
370
     9
100
AcDbLine
 10
-711.2075185712077
 20
268.1714932647005
 30
0.0
 11
-710.20751527201
 21
268.1714932647005
 31
0.0
  0
LINE
  5
A3
330
1F
100
AcDbEntity
  8
躯体
  6
Continuous
 62
     2
370
     9
100
AcDbLine
 10
-711.2075185712077
 20
68.171526256677
 30
0.0
 11
-710.20751527201
 21
68.171526256677
 31
0.0
  0
LINE
  5
A4
330
1F
100
AcDbEntity
  8
躯体
  6
Continuous
 62
     2
370
     9
100
AcDbLine
 10
118.7924979247805
 20
188.1715757446414
 30
0.0
 11
128.7925309167569
 21
188.1715757446414
 31
0.0
  0
LINE
  5
A5
330
1F
100
AcDbEntity
  8
躯体
  6
Continuous
 62
     2
370
     9
100
AcDbLine
 10
128.7925309167569
 20
188.1715757446414
 30
0.0
 11
108.7924649328042
 21
148.171542752665
 31
0.0
  0
LINE
  5
A6
330
1F
100
AcDbEntity
  8
躯体
  6
Continuous
 62
     2
370
     9
100
AcDbLine
 10
108.7924649328042
 20
148.171542752665
 30
0.0
 11
118.7924979247805
 21
148.171542752665
 31
0.0
  0
LINE
  5
A7
330
1F
100
AcDbEntity
  8
躯体
  6
Continuous
 62
     2
370
     9
100
AcDbLine
 10
118.7924979247805
 20
-1.828457247334882
 30
0.0
 11
118.7924979247805
 21
148.171542752665
 31
0.0
  0
LINE
  5
A8
330
1F
100
AcDbEntity
  8
躯体
  6
Continuous
 62
     2
370
     9
100
AcDbLine
 10
118.7924979247805
 20
188.1715757446414
 30
0.0
 11
118.7924979247805
 21
338.1714767687124
 31
0.0
  0
LINE
  5
A9
330
1F
100
AcDbEntity
  8
躯体
  6
Continuous
 62
     2
370
     9
100
AcDbLine
 10
-711.2075185712077
 20
318.1715097606887
 30
0.0
 11
118.7924979247805
 21
318.1715097606887
 31
0.0
  0
LINE
  5
AA
330
1F
100
AcDbEntity
  8
躯体
  6
Continuous
 62
     2
370
     9
100
AcDbLine
 10
-711.2075185712077
 20
315.1715493510603
 30
0.0
 11
118.7924979247805
 21
315.1715493510603
 31
0.0
  0
LINE
  5
AB
330
1F
100
AcDbEntity
  8
躯体
  6
Continuous
 62
     2
370
     9
100
AcDbLine
 10
-711.2075185712077
 20
18.17146027272429
 30
0.0
 11
118.7924979247805
 21
18.17146027272429
 31
0.0
  0
LINE
  5
AC
330
1F
100
AcDbEntity
  8
躯体
  6
Continuous
 62
     2
370
     9
100
AcDbLine
 10
-711.2075185712077
 20
21.17147017031721
 30
0.0
 11
118.7924979247805
 21
21.17147017031721
 31
0.0
  0
LINE
  5
AD
330
1F
100
AcDbEntity
  8
0-E
  6
Continuous
 62
     7
370
     9
100
AcDbLine
 10
378.7926628846623
 20
32.17160543742011
 30
0.0
 11
350.7103215100844
 21
-72.63306556659177
 31
0.0
  0
LINE
  5
AE
330
1F
100
AcDbEntity
  8
0-E
  6
Continuous
 62
     7
370
     9
100
AcDbLine
 10
378.7926628846623
 20
32.17160543742011
 30
0.0
 11
377.2263688073819
 21
20.27425337344221
 31
0.0
  0
LINE
  5
AF
330
1F
100
AcDbEntity
  8
0-E
  6
Continuous
 62
     7
370
     9
100
AcDbLine
 10
378.7926628846623
 20
32.17160543742011
 30
0.0
 11
374.2004767043415
 21
21.08506418425281
 31
0.0
  0
LINE
  5
B0
330
1F
100
AcDbEntity
  8
0-E
  6
Continuous
 62
     7
370
     9
100
AcDbLine
 10
350.7103215100844
 20
-72.63306556659177
 30
0.0
 11
139.9697836089021
 21
-72.63306556659177
 31
0.0
  0
LINE
  5
B1
330
1F
100
AcDbEntity
  8
通り芯
  6
Continuous
 62
     3
370
     9
100
AcDbLine
 10
396.7921284146452
 20
173.6716021382224
 30
0.0
 11
410.7921746034123
 21
172.6716483269894
 31
0.0
  0
LINE
  5
B2
330
1F
100
AcDbEntity
  8
通り芯
  6
Continuous
 62
     3
370
     9
100
AcDbLine
 10
410.7921746034123
 20
163.6715691462462
 30
0.0
 11
410.7921746034123
 21
172.6716483269894
 31
0.0
  0
LINE
  5
B3
330
1F
100
AcDbEntity
  8
通り芯
  6
Continuous
 62
     3
370
     9
100
AcDbLine
 10
406.3926945569594
 20
170.7716074169387
 30
0.0
 11
401.1925982203886
 21
170.7716074169387
 31
0.0
  0
LINE
  5
B4
330
1F
100
AcDbEntity
  8
通り芯
  6
Continuous
 62
     3
370
     9
100
AcDbLine
 10
401.1925982203886
 20
170.7716074169387
 30
0.0
 11
401.1925982203886
 21
165.5716100562968
 31
0.0
  0
LINE
  5
B5
330
1F
100
AcDbEntity
  8
通り芯
  6
Continuous
 62
     3
370
     9
100
AcDbLine
 10
406.3926945569594
 20
170.7716074169387
 30
0.0
 11
406.3926945569594
 21
165.5716100562968
 31
0.0
  0
LINE
  5
B6
330
1F
100
AcDbEntity
  8
通り芯
  6
Continuous
 62
     3
370
     9
100
AcDbLine
 10
396.7921284146452
 20
174.1716285318035
 30
0.0
 11
410.7921746034123
 21
172.6716483269894
 31
0.0
  0
LINE
  5
B7
330
1F
100
AcDbEntity
  8
通り芯
  6
Continuous
 62
     3
370
     9
100
AcDbLine
 10
420.7926034991048
 20
255.3209535159674
 30
0.0
 11
420.7926034991048
 21
81.02226395726802
 31
0.0
  0
LINE
  5
B8
330
1F
100
AcDbEntity
  8
通り芯
  6
Continuous
 62
     3
370
     9
100
AcDbLine
 10
435.7926034991048
 20
243.1716087366177
 30
0.0
 11
435.7926034991048
 21
93.17160873661771
 31
0.0
  0
LINE
  5
B9
330
1F
100
AcDbEntity
  8
通り芯
  6
Continuous
 62
     3
370
     9
100
AcDbLine
 10
425.7926694830577
 20
258.1716087366177
 30
0.0
 11
435.7926034991048
 21
243.1716087366177
 31
0.0
  0
LINE
  5
BA
330
1F
100
AcDbEntity
  8
通り芯
  6
Continuous
 62
     3
370
     9
100
AcDbLine
 10
420.5734707921794
 20
255.9456400921921
 30
0.0
 11
419.0118285835644
 21
257.8977423409251
 31
0.0
  0
LINE
  5
BB
330
1F
100
AcDbEntity
  8
通り芯
  6
Continuous
 62
     3
370
     9
100
AcDbLine
 10
438.7926628846623
 20
280.4585135613644
 30
0.0
 11
438.7926628846623
 21
283.7749000161785
 31
0.0
  0
LINE
  5
BC
330
1F
100
AcDbEntity
  8
通り芯
  6
Continuous
 62
     3
370
     9
100
AcDbLine
 10
393.7926628846623
 20
289.1715625478508
 30
0.0
 11
393.7926628846623
 21
313.1716417285941
 31
0.0
  0
LINE
  5
BD
330
1F
100
AcDbEntity
  8
通り芯
  6
Continuous
 62
     3
370
     9
100
AcDbLine
 10
398.7926298926861
 20
285.1715493510603
 30
0.0
 11
398.7926298926861
 21
313.1716417285941
 31
0.0
  0
LINE
  5
BE
330
1F
100
AcDbEntity
  8
通り芯
  6
Continuous
 62
     3
370
     9
100
AcDbLine
 10
393.7926628846623
 20
304.1715625478508
 30
0.0
 11
378.7926628846623
 21
304.1715625478508
 31
0.0
  0
LINE
  5
BF
330
1F
100
AcDbEntity
  8
通り芯
  6
Continuous
 62
     3
370
     9
100
AcDbLine
 10
393.7926628846623
 20
300.1715493510603
 30
0.0
 11
378.7926628846623
 21
300.1715493510603
 31
0.0
  0
LINE
  5
C0
330
1F
100
AcDbEntity
  8
通り芯
  6
Continuous
 62
     3
370
     9
100
AcDbLine
 10
398.7926298926861
 20
289.1715625478508
 30
0.0
 11
378.7926628846623
 21
289.1715625478508
 31
0.0
  0
LINE
  5
C1
330
1F
100
AcDbEntity
  8
通り芯
  6
Continuous
 62
     3
370
     9
100
AcDbLine
 10
398.7926298926861
 20
285.1715493510603
 30
0.0
 11
378.7926628846623
 21
285.1715493510603
 31
0.0
  0
LINE
  5
C2
330
1F
100
AcDbEntity
  8
通り芯
  6
Continuous
 62
     3
370
     9
100
AcDbLine
 10
398.7926298926861
 20
313.1716417285941
 30
0.0
 11
393.7926628846623
 21
313.1716417285941
 31
0.0
  0
LINE
  5
C3
330
1F
100
AcDbEntity
  8
通り芯
  6
Continuous
 62
     3
370
     9
100
AcDbLine
 10
378.7926628846623
 20
32.1716549253847
 30
0.0
 11
378.7926628846623
 21
304.1715625478508
 31
0.0
  0
LINE
  5
C4
330
1F
100
AcDbEntity
  8
通り芯
  6
Continuous
 62
     3
370
     9
100
AcDbLine
 10
-111.2074690832431
 20
-236.8285397272757
 30
0.0
 11
-710.2074162960811
 21
-236.8285397272757
 31
0.0
  0
LINE
  5
C5
330
1F
100
AcDbEntity
  8
通り芯
  6
Continuous
 62
     3
370
     9
100
AcDbLine
 10
-111.2074690832431
 20
-216.8285232312876
 30
0.0
 11
-710.2074162960811
 21
-216.8285232312876
 31
0.0
  0
LINE
  5
C6
330
1F
100
AcDbEntity
  8
通り芯
  6
Continuous
 62
     3
370
     9
100
AcDbLine
 10
-710.2074162960811
 20
-236.8285397272757
 30
0.0
 11
-710.2074162960811
 21
-216.8285232312876
 31
0.0
  0
LINE
  5
C7
330
1F
100
AcDbEntity
  8
通り芯
  6
Continuous
 62
     3
370
     9
100
AcDbLine
 10
-111.2074690832431
 20
-231.8285232312876
 30
0.0
 11
-710.2074162960811
 21
-231.8285232312876
 31
0.0
  0
LINE
  5
C8
330
1F
100
AcDbEntity
  8
通り芯
  6
Continuous
 62
     3
370
     9
100
AcDbLine
 10
415.0917879374493
 20
279.9295861964995
 30
0.0
 11
396.7927222702198
 21
281.3020359167275
 31
0.0
  0
LINE
  5
C9
330
1F
100
AcDbEntity
  8
通り芯
  6
Continuous
 62
     3
370
     9
100
AcDbLine
 10
418.7926958766385
 20
275.9408067676566
 30
0.0
 11
418.7926958766385
 21
60.40241070557886
 31
0.0
  0
LINE
  5
CA
330
1F
100
AcDbEntity
  8
通り芯
  6
Continuous
 62
     3
370
     9
100
AcDbLine
 10
429.1843766198818
 20
277.6934230313813
 30
0.0
 11
437.5207232203885
 21
278.9759036320992
 31
0.0
  0
LINE
  5
CB
330
1F
100
AcDbEntity
  8
通り芯
  6
Continuous
 62
     3
370
     9
100
AcDbLine
 10
425.7926694830577
 20
273.7399285212462
 30
0.0
 11
425.7926694830577
 21
62.6032889519895
 31
0.0
  0
LINE
  5
CC
330
1F
100
AcDbEntity
  8
通り芯
  6
Continuous
 62
     3
370
     9
100
AcDbLine
 10
407.7927090734294
 20
172.1716219334082
 30
0.0
 11
407.7927090734294
 21
164.1715955398272
 31
0.0
  0
LINE
  5
CD
330
1F
100
AcDbEntity
  8
通り芯
  6
Continuous
 62
     3
370
     9
100
AcDbLine
 10
396.7927222702198
 20
172.1716219334082
 30
0.0
 11
396.7927222702198
 21
285.1715493510603
 31
0.0
  0
LINE
  5
CE
330
1F
100
AcDbEntity
  8
通り芯
  6
Continuous
 62
     3
370
     9
100
AcDbLine
 10
394.2927882541723
 20
172.1716219334082
 30
0.0
 11
394.2927882541723
 21
164.1715955398272
 31
0.0
  0
LINE
  5
CF
330
1F
100
AcDbEntity
  8
通り芯
  6
Continuous
 62
     3
370
     9
100
AcDbLine
 10
379.7927156718244
 20
172.1716219334082
 30
0.0
 11
379.7927156718244
 21
164.1715955398272
 31
0.0
  0
LINE
  5
D0
330
1F
100
AcDbEntity
  8
通り芯
  6
Continuous
 62
     3
370
     9
100
AcDbLine
 10
407.7927090734294
 20
172.1716219334082
 30
0.0
 11
379.7927156718244
 21
172.1716219334082
 31
0.0
  0
LINE
  5
D1
330
1F
100
AcDbEntity
  8
通り芯
  6
Continuous
 62
     3
370
     9
100
AcDbLine
 10
-637.2074723824409
 20
78.17165822458219
 30
0.0
 11
-637.2074723824409
 21
258.1715592486532
 31
0.0
  0
LINE
  5
D2
330
1F
100
AcDbEntity
  8
通り芯
  6
Continuous
 62
     3
370
     9
100
AcDbLine
 10
-644.2074459888596
 20
258.1715592486532
 30
0.0
 11
-637.2074723824409
 21
258.1715592486532
 31
0.0
  0
LINE
  5
D3
330
1F
100
AcDbEntity
  8
通り芯
  6
Continuous
 62
     3
370
     9
100
AcDbLine
 10
-644.2074459888596
 20
78.17165822458219
 30
0.0
 11
-644.2074459888596
 21
258.1715592486532
 31
0.0
  0
LINE
  5
D4
330
1F
100
AcDbEntity
  8
通り芯
  6
Continuous
 62
     3
370
     9
100
AcDbLine
 10
-639.7074558864525
 20
80.67164172859407
 30
0.0
 11
-639.7074558864525
 21
255.6715757446414
 31
0.0
  0
LINE
  5
D5
330
1F
100
AcDbEntity
  8
通り芯
  6
Continuous
 62
     3
370
     9
100
AcDbLine
 10
-641.7074872288302
 20
255.6715757446414
 30
0.0
 11
-639.7074558864525
 21
255.6715757446414
 31
0.0
  0
LINE
  5
D6
330
1F
100
AcDbEntity
  8
通り芯
  6
Continuous
 62
     3
370
     9
100
AcDbLine
 10
-641.7074872288302
 20
80.67164172859407
 30
0.0
 11
-641.7074872288302
 21
255.6715757446414
 31
0.0
  0
LINE
  5
D7
330
1F
100
AcDbEntity
  8
通り芯
  6
Continuous
 62
     3
370
     9
100
AcDbLine
 10
-637.2074723824409
 20
258.1715592486532
 30
0.0
 11
-639.7074558864525
 21
255.6715757446414
 31
0.0
  0
LINE
  5
D8
330
1F
100
AcDbEntity
  8
通り芯
  6
Continuous
 62
     3
370
     9
100
AcDbLine
 10
-644.2074459888596
 20
258.1715592486532
 30
0.0
 11
-641.7074872288302
 21
255.6715757446414
 31
0.0
  0
LINE
  5
D9
330
1F
100
AcDbEntity
  8
通り芯
  6
Continuous
 62
     3
370
     9
100
AcDbLine
 10
-522.2074641344467
 20
78.17165822458219
 30
0.0
 11
-522.2074641344467
 21
258.1715592486532
 31
0.0
  0
LINE
  5
DA
330
1F
100
AcDbEntity
  8
通り芯
  6
Continuous
 62
     3
370
     9
100
AcDbLine
 10
-529.207462484848
 20
258.1715592486532
 30
0.0
 11
-522.2074641344467
 21
258.1715592486532
 31
0.0
  0
LINE
  5
DB
330
1F
100
AcDbEntity
  8
通り芯
  6
Continuous
 62
     3
370
     9
100
AcDbLine
 10
-529.207462484848
 20
78.17165822458219
 30
0.0
 11
-529.207462484848
 21
258.1715592486532
 31
0.0
  0
LINE
  5
DC
330
1F
100
AcDbEntity
  8
通り芯
  6
Continuous
 62
     3
370
     9
100
AcDbLine
 10
-524.7074476384586
 20
80.67164172859407
 30
0.0
 11
-524.7074476384586
 21
255.6715757446414
 31
0.0
  0
LINE
  5
DD
330
1F
100
AcDbEntity
  8
通り芯
  6
Continuous
 62
     3
370
     9
100
AcDbLine
 10
-526.7074789808361
 20
255.6715757446414
 30
0.0
 11
-524.7074476384586
 21
255.6715757446414
 31
0.0
  0
LINE
  5
DE
330
1F
100
AcDbEntity
  8
通り芯
  6
Continuous
 62
     3
370
     9
100
AcDbLine
 10
-526.7074789808361
 20
80.67164172859407
 30
0.0
 11
-526.7074789808361
 21
255.6715757446414
 31
0.0
  0
LINE
  5
DF
330
1F
100
AcDbEntity
  8
通り芯
  6
Continuous
 62
     3
370
     9
100
AcDbLine
 10
-522.2074641344467
 20
258.1715592486532
 30
0.0
 11
-524.7074476384586
 21
255.6715757446414
 31
0.0
  0
LINE
  5
E0
330
1F
100
AcDbEntity
  8
通り芯
  6
Continuous
 62
     3
370
     9
100
AcDbLine
 10
-529.207462484848
 20
258.1715592486532
 30
0.0
 11
-526.7074789808361
 21
255.6715757446414
 31
0.0
  0
LINE
  5
E1
330
1F
100
AcDbEntity
  8
通り芯
  6
Continuous
 62
     3
370
     9
100
AcDbLine
 10
-414.2074294928715
 20
78.17165822458219
 30
0.0
 11
-414.2074294928715
 21
258.1715592486532
 31
0.0
  0
LINE
  5
E2
330
1F
100
AcDbEntity
  8
通り芯
  6
Continuous
 62
     3
370
     9
100
AcDbLine
 10
-411.7074954768242
 20
80.67164172859407
 30
0.0
 11
-411.7074954768242
 21
255.6715757446414
 31
0.0
  0
LINE
  5
E3
330
1F
100
AcDbEntity
  8
通り芯
  6
Continuous
 62
     3
370
     9
100
AcDbLine
 10
-414.2074294928715
 20
258.1715592486532
 30
0.0
 11
-411.7074954768242
 21
255.6715757446414
 31
0.0
  0
LINE
  5
E4
330
1F
100
AcDbEntity
  8
通り芯
  6
Continuous
 62
     3
370
     9
100
AcDbLine
 10
-414.2074294928715
 20
258.1715592486532
 30
0.0
 11
-407.2074558864526
 21
258.1715592486532
 31
0.0
  0
LINE
  5
E5
330
1F
100
AcDbEntity
  8
通り芯
  6
Continuous
 62
     3
370
     9
100
AcDbLine
 10
-411.7074954768242
 20
255.6715757446414
 30
0.0
 11
-409.7074393904645
 21
255.6715757446414
 31
0.0
  0
LINE
  5
E6
330
1F
100
AcDbEntity
  8
通り芯
  6
Continuous
 62
     3
370
     9
100
AcDbLine
 10
-710.20751527201
 20
32.1716549253847
 30
0.0
 11
-710.20751527201
 21
304.1715625478508
 31
0.0
  0
LINE
  5
E7
330
1F
100
AcDbEntity
  8
通り芯
  6
Continuous
 62
     3
370
     9
100
AcDbLine
 10
-706.2075144472107
 20
32.1716549253847
 30
0.0
 11
-706.2075144472107
 21
304.1715625478508
 31
0.0
  0
LINE
  5
E8
330
1F
100
AcDbEntity
  8
通り芯
  6
Continuous
 62
     3
370
     9
100
AcDbLine
 10
-706.2075144472107
 20
285.1715493510603
 30
0.0
 11
-115.2074327920691
 21
285.1715493510603
 31
0.0
  0
LINE
  5
E9
330
1F
100
AcDbEntity
  8
通り芯
  6
Continuous
 62
     3
370
     9
100
AcDbLine
 10
-706.2075144472107
 20
289.1715625478508
 30
0.0
 11
-115.2074327920691
 21
289.1715625478508
 31
0.0
  0
LINE
  5
EA
330
1F
100
AcDbEntity
  8
通り芯
  6
Continuous
 62
     3
370
     9
100
AcDbLine
 10
-696.1896781599957
 20
281.3020359167275
 30
0.0
 11
-125.2252319633107
 21
281.3020359167275
 31
0.0
  0
LINE
  5
EB
330
1F
100
AcDbEntity
  8
通り芯
  6
Continuous
 62
     3
370
     9
100
AcDbLine
 10
-695.6182901215667
 20
279.6520082034674
 30
0.0
 11
-125.7966200017398
 21
279.6520082034674
 31
0.0
  0
LINE
  5
EC
330
1F
100
AcDbEntity
  8
通り芯
  6
Continuous
 62
     3
370
     9
100
AcDbLine
 10
-698.6182752751773
 20
276.6519983058745
 30
0.0
 11
-698.6182752751773
 21
59.69121916736094
 31
0.0
  0
LINE
  5
ED
330
1F
100
AcDbEntity
  8
通り芯
  6
Continuous
 62
     3
370
     9
100
AcDbLine
 10
-704.7074847544319
 20
164.1715955398272
 30
0.0
 11
-704.7074847544319
 21
172.1716219334082
 31
0.0
  0
LINE
  5
EE
330
1F
100
AcDbEntity
  8
通り芯
  6
Continuous
 62
     3
370
     9
100
AcDbLine
 10
-700.7074715576413
 20
164.1715955398272
 30
0.0
 11
-700.7074715576413
 21
172.1716219334082
 31
0.0
  0
LINE
  5
EF
330
1F
100
AcDbEntity
  8
通り芯
  6
Continuous
 62
     3
370
     9
100
AcDbLine
 10
-706.2075144472107
 20
172.1716219334082
 30
0.0
 11
-700.7074715576413
 21
172.1716219334082
 31
0.0
  0
LINE
  5
F0
330
1F
100
AcDbEntity
  8
通り芯
  6
Continuous
 62
     3
370
     9
100
AcDbLine
 10
-703.1973100289252
 20
174.171579043839
 30
0.0
 11
-702.1972819857452
 21
173.6715526502579
 31
0.0
  0
LINE
  5
F1
330
1F
100
AcDbEntity
  8
通り芯
  6
Continuous
 62
     3
370
     9
100
AcDbLine
 10
-702.1972819857452
 20
173.6715526502579
 30
0.0
 11
-699.1896756855975
 21
173.6715526502579
 31
0.0
  0
LINE
  5
F2
330
1F
100
AcDbEntity
  8
通り芯
  6
Continuous
 62
     3
370
     9
100
AcDbLine
 10
-699.1896756855975
 20
173.6715526502579
 30
0.0
 11
-702.1972819857452
 21
174.171579043839
 31
0.0
  0
LINE
  5
F3
330
1F
100
AcDbEntity
  8
通り芯
  6
Continuous
 62
     3
370
     9
100
AcDbLine
 10
-702.1972819857452
 20
174.171579043839
 30
0.0
 11
-703.1973100289252
 21
174.171579043839
 31
0.0
  0
LINE
  5
F4
330
1F
100
AcDbEntity
  8
通り芯
  6
Continuous
 62
     3
370
     9
100
AcDbLine
 10
-699.1896756855975
 20
162.6716648229775
 30
0.0
 11
-699.1896756855975
 21
173.6715526502579
 31
0.0
  0
LINE
  5
F5
330
1F
100
AcDbEntity
  8
通り芯
  6
Continuous
 62
     3
370
     9
100
AcDbLine
 10
-703.1973100289252
 20
174.171579043839
 30
0.0
 11
-703.1973100289252
 21
172.1716219334082
 31
0.0
  0
LINE
  5
F6
330
1F
100
AcDbEntity
  8
通り芯
  6
Continuous
 62
     3
370
     9
100
AcDbLine
 10
-700.1896913567863
 20
277.302022719937
 30
0.0
 11
-700.1896913567863
 21
173.8377827231042
 31
0.0
  0
LINE
  5
F7
330
1F
100
AcDbEntity
  8
通り芯
  6
Continuous
 62
     3
370
     9
100
AcDbLine
 10
-434.4205906520776
 20
-276.828473743323
 30
0.0
 11
-386.9942947272465
 21
-276.828473743323
 31
0.0
  0
LINE
  5
F8
330
1F
100
AcDbEntity
  8
通り芯
  6
Continuous
 62
     3
370
     9
100
AcDbLine
 10
-569.4205906520775
 20
-276.828473743323
 30
0.0
 11
-521.9943194712288
 21
-276.828473743323
 31
0.0
  0
LINE
  5
F9
330
1F
100
AcDbEntity
  8
通り芯
  6
Continuous
 62
     3
370
     9
100
AcDbLine
 10
-702.810796653978
 20
-276.828473743323
 30
0.0
 11
-655.4943145224323
 21
-276.828473743323
 31
0.0
  0
LINE
  5
FA
330
1F
100
AcDbEntity
  8
通り芯
  6
Continuous
 62
     3
370
     9
100
AcDbLine
 10
-704.3069662855236
 20
-275.4353875418874
 30
0.0
 11
-707.0645841328632
 21
-236.8285397272757
 31
0.0
  0
LINE
  5
FB
330
1F
100
AcDbEntity
  8
通り芯
  6
Continuous
 62
     3
370
     9
100
AcDbLine
 10
-437.3161314565539
 20
-266.3723101823011
 30
0.0
 11
-435.9031510933783
 21
-275.5566330549784
 31
0.0
  0
LINE
  5
FC
330
1F
100
AcDbEntity
  8
通り芯
  6
Continuous
 62
     3
370
     9
100
AcDbLine
 10
-519.0988034107348
 20
-266.3723101823011
 30
0.0
 11
-520.5117342859459
 21
-275.5566330549784
 31
0.0
  0
LINE
  5
FD
330
1F
100
AcDbEntity
  8
通り芯
  6
Continuous
 62
     3
370
     9
100
AcDbLine
 10
-516.1336825281334
 20
-263.8285298296828
 30
0.0
 11
-440.2812523391553
 21
-263.8285298296828
 31
0.0
  0
LINE
  5
FE
330
1F
100
AcDbEntity
  8
通り芯
  6
Continuous
 62
     3
370
     9
100
AcDbLine
 10
-572.3160819685894
 20
-266.3723101823011
 30
0.0
 11
-570.9031510933784
 21
-275.5566330549784
 31
0.0
  0
LINE
  5
FF
330
1F
100
AcDbEntity
  8
通り芯
  6
Continuous
 62
     3
370
     9
100
AcDbLine
 10
-652.5988232059204
 20
-266.3723101823011
 30
0.0
 11
-654.0118035690963
 21
-275.5566330549784
 31
0.0
  0
LINE
  5
100
330
1F
100
AcDbEntity
  8
通り芯
  6
Continuous
 62
     3
370
     9
100
AcDbLine
 10
-649.6337518112838
 20
-263.8285298296828
 30
0.0
 11
-575.2812028511909
 21
-263.8285298296828
 31
0.0
  0
LINE
  5
101
330
1F
100
AcDbEntity
  8
通り芯
  6
Continuous
 62
     3
370
     9
100
AcDbLine
 10
-709.8577838266975
 20
-236.8285397272757
 30
0.0
 11
-705.71514631614
 21
-260.5175870509668
 31
0.0
  0
LINE
  5
102
330
1F
100
AcDbEntity
  8
通り芯
  6
Continuous
 62
     3
370
     9
100
AcDbLine
 10
413.5931933956419
 20
292.1716219334082
 30
0.0
 11
413.5931933956419
 21
306.1716681221751
 31
0.0
  0
LINE
  5
103
330
1F
100
AcDbEntity
  8
通り芯
  6
Continuous
 62
     3
370
     9
100
AcDbLine
 10
413.5931933956419
 20
292.1716219334082
 30
0.0
 11
415.1931392888006
 21
293.6466602041008
 31
0.0
  0
LINE
  5
104
330
1F
100
AcDbEntity
  8
通り芯
  6
Continuous
 62
     3
370
     9
100
AcDbLine
 10
413.5931933956419
 20
306.1716681221751
 30
0.0
 11
415.1931392888006
 21
304.6966298514826
 31
0.0
  0
LINE
  5
105
330
1F
100
AcDbEntity
  8
通り芯
  6
Continuous
 62
     3
370
     9
100
AcDbLine
 10
413.5931933956419
 20
296.4091773599285
 30
0.0
 11
418.7930917803548
 21
296.4091773599285
 31
0.0
  0
LINE
  5
106
330
1F
100
AcDbEntity
  8
通り芯
  6
Continuous
 62
     3
370
     9
100
AcDbLine
 10
413.5931933956419
 20
301.9341126956549
 30
0.0
 11
418.7930917803548
 21
301.9341126956549
 31
0.0
  0
LINE
  5
107
330
1F
100
AcDbEntity
  8
通り芯
  6
Continuous
 62
     3
370
     9
100
AcDbLine
 10
412.7932699370273
 20
292.1716219334082
 30
0.0
 11
413.5931933956419
 21
292.1716219334082
 31
0.0
  0
LINE
  5
108
330
1F
100
AcDbEntity
  8
通り芯
  6
Continuous
 62
     3
370
     9
100
AcDbLine
 10
415.1931392888006
 20
293.6466602041008
 30
0.0
 11
418.7930917803548
 21
293.6466602041008
 31
0.0
  0
LINE
  5
109
330
1F
100
AcDbEntity
  8
通り芯
  6
Continuous
 62
     3
370
     9
100
AcDbLine
 10
418.7930917803548
 20
293.6466602041008
 30
0.0
 11
418.7930917803548
 21
304.6966298514826
 31
0.0
  0
LINE
  5
10A
330
1F
100
AcDbEntity
  8
通り芯
  6
Continuous
 62
     3
370
     9
100
AcDbLine
 10
422.7931049771452
 20
296.1716351301989
 30
0.0
 11
422.7931049771452
 21
302.1715559494555
 31
0.0
  0
LINE
  5
10B
330
1F
100
AcDbEntity
  8
通り芯
  6
Continuous
 62
     3
370
     9
100
AcDbLine
 10
422.7931049771452
 20
296.1716351301989
 30
0.0
 11
423.7931577643077
 21
297.1716879173609
 31
0.0
  0
LINE
  5
10C
330
1F
100
AcDbEntity
  8
通り芯
  6
Continuous
 62
     3
370
     9
100
AcDbLine
 10
423.7931577643077
 20
301.1716021382225
 30
0.0
 11
422.7931049771452
 21
302.1715559494555
 31
0.0
  0
LINE
  5
10D
330
1F
100
AcDbEntity
  8
通り芯
  6
Continuous
 62
     3
370
     9
100
AcDbLine
 10
415.1931392888006
 20
304.6966298514826
 30
0.0
 11
418.7930917803548
 21
304.6966298514826
 31
0.0
  0
LINE
  5
10E
330
1F
100
AcDbEntity
  8
通り芯
  6
Continuous
 62
     3
370
     9
100
AcDbLine
 10
423.7931577643077
 20
297.1716879173609
 30
0.0
 11
423.7931577643077
 21
301.1716021382225
 31
0.0
  0
LINE
  5
10F
330
1F
100
AcDbEntity
  8
通り芯
  6
Continuous
 62
     3
370
     9
100
AcDbLine
 10
418.7930917803548
 20
302.1715559494555
 30
0.0
 11
422.7931049771452
 21
302.1715559494555
 31
0.0
  0
LINE
  5
110
330
1F
100
AcDbEntity
  8
通り芯
  6
Continuous
 62
     3
370
     9
100
AcDbLine
 10
423.7931577643077
 20
301.1716021382225
 30
0.0
 11
418.7930917803548
 21
301.1716021382225
 31
0.0
  0
LINE
  5
111
330
1F
100
AcDbEntity
  8
通り芯
  6
Continuous
 62
     3
370
     9
100
AcDbLine
 10
418.7930917803548
 20
297.1716879173609
 30
0.0
 11
423.7931577643077
 21
297.1716879173609
 31
0.0
  0
LINE
  5
112
330
1F
100
AcDbEntity
  8
通り芯
  6
Continuous
 62
     3
370
     9
100
AcDbLine
 10
418.7930917803548
 20
296.1716351301989
 30
0.0
 11
422.7931049771452
 21
296.1716351301989
 31
0.0
  0
LINE
  5
113
330
1F
100
AcDbEntity
  8
通り芯
  6
Continuous
 62
     3
370
     9
100
AcDbLine
 10
398.7926298926861
 20
294.6716549253846
 30
0.0
 11
412.7932699370273
 21
294.6716549253846
 31
0.0
  0
LINE
  5
114
330
1F
100
AcDbEntity
  8
通り芯
  6
Continuous
 62
     3
370
     9
100
AcDbLine
 10
398.7926298926861
 20
303.6717341061278
 30
0.0
 11
412.7932699370273
 21
303.6717341061278
 31
0.0
  0
LINE
  5
115
330
1F
100
AcDbEntity
  8
通り芯
  6
Continuous
 62
     3
370
     9
100
AcDbLine
 10
398.7926298926861
 20
302.1715559494555
 30
0.0
 11
412.7932699370273
 21
302.1715559494555
 31
0.0
  0
LINE
  5
116
330
1F
100
AcDbEntity
  8
通り芯
  6
Continuous
 62
     3
370
     9
100
AcDbLine
 10
412.7932699370273
 20
301.1716021382225
 30
0.0
 11
398.7926298926861
 21
301.1716021382225
 31
0.0
  0
LINE
  5
117
330
1F
100
AcDbEntity
  8
通り芯
  6
Continuous
 62
     3
370
     9
100
AcDbLine
 10
412.7932699370273
 20
297.1716879173609
 30
0.0
 11
398.7926298926861
 21
297.1716879173609
 31
0.0
  0
LINE
  5
118
330
1F
100
AcDbEntity
  8
通り芯
  6
Continuous
 62
     3
370
     9
100
AcDbLine
 10
398.7926298926861
 20
296.1716351301989
 30
0.0
 11
412.7932699370273
 21
296.1716351301989
 31
0.0
  0
LINE
  5
119
330
1F
100
AcDbEntity
  8
通り芯
  6
Continuous
 62
     3
370
     9
100
AcDbLine
 10
412.7932699370273
 20
306.1716681221751
 30
0.0
 11
413.5931933956419
 21
306.1716681221751
 31
0.0
  0
LINE
  5
11A
330
1F
100
AcDbEntity
  8
通り芯
  6
Continuous
 62
     3
370
     9
100
AcDbLine
 10
437.3994777072973
 20
285.2711191356887
 30
0.0
 11
416.5082324581418
 21
286.7633792180367
 31
0.0
  0
LINE
  5
11B
330
1F
100
AcDbEntity
  8
通り芯
  6
Continuous
 62
     3
370
     9
100
AcDbLine
 10
-417.707416296081
 20
-251.6285588626222
 30
0.0
 11
-416.2324770013175
 21
-253.2285542437453
 31
0.0
  0
LINE
  5
11C
330
1F
100
AcDbEntity
  8
通り芯
  6
Continuous
 62
     3
370
     9
100
AcDbLine
 10
-413.4699598454898
 20
-251.6285588626222
 30
0.0
 11
-413.4699598454898
 21
-256.8285562232641
 31
0.0
  0
LINE
  5
11D
330
1F
100
AcDbEntity
  8
通り芯
  6
Continuous
 62
     3
370
     9
100
AcDbLine
 10
-416.2324770013175
 20
-253.2285542437453
 30
0.0
 11
-416.2324770013175
 21
-256.8285562232641
 31
0.0
  0
LINE
  5
11E
330
1F
100
AcDbEntity
  8
通り芯
  6
Continuous
 62
     3
370
     9
100
AcDbLine
 10
-413.7075020752195
 20
-260.8285694200545
 30
0.0
 11
-412.7074492880573
 21
-261.828473743323
 31
0.0
  0
LINE
  5
11F
330
1F
100
AcDbEntity
  8
通り芯
  6
Continuous
 62
     3
370
     9
100
AcDbLine
 10
-412.7074492880573
 20
-261.828473743323
 30
0.0
 11
-408.7074360912668
 21
-261.828473743323
 31
0.0
  0
LINE
  5
120
330
1F
100
AcDbEntity
  8
通り芯
  6
Continuous
 62
     3
370
     9
100
AcDbLine
 10
-413.7075020752195
 20
-260.8285694200545
 30
0.0
 11
-407.7073833041046
 21
-260.8285694200545
 31
0.0
  0
LINE
  5
121
330
1F
100
AcDbEntity
  8
通り芯
  6
Continuous
 62
     3
370
     9
100
AcDbLine
 10
-416.2324770013175
 20
-256.8285562232641
 30
0.0
 11
-405.1824083780066
 21
-256.8285562232641
 31
0.0
  0
LINE
  5
122
330
1F
100
AcDbEntity
  8
通り芯
  6
Continuous
 62
     3
370
     9
100
AcDbLine
 10
-417.707416296081
 20
-251.6285588626222
 30
0.0
 11
-403.7074690832432
 21
-251.6285588626222
 31
0.0
  0
LINE
  5
123
330
1F
100
AcDbEntity
  8
通り芯
  6
Continuous
 62
     3
370
     9
100
AcDbLine
 10
-417.707416296081
 20
-250.8285364280782
 30
0.0
 11
-417.707416296081
 21
-251.6285588626222
 31
0.0
  0
LINE
  5
124
330
1F
100
AcDbEntity
  8
通り芯
  6
Continuous
 62
     3
370
     9
100
AcDbLine
 10
-419.8832536324408
 20
-250.8285364280782
 30
0.0
 11
-401.5316317468834
 21
-250.8285364280782
 31
0.0
  0
LINE
  5
125
330
1F
100
AcDbEntity
  8
通り芯
  6
Continuous
 62
     3
370
     9
100
AcDbLine
 10
-412.7074492880573
 20
-256.8285562232641
 30
0.0
 11
-412.7074492880573
 21
-261.828473743323
 31
0.0
  0
LINE
  5
126
330
1F
100
AcDbEntity
  8
通り芯
  6
Continuous
 62
     3
370
     9
100
AcDbLine
 10
-413.7075020752195
 20
-256.8285562232641
 30
0.0
 11
-413.7075020752195
 21
-260.8285694200545
 31
0.0
  0
LINE
  5
127
330
1F
100
AcDbEntity
  8
通り芯
  6
Continuous
 62
     3
370
     9
100
AcDbLine
 10
-687.7074657840454
 20
-251.6285588626222
 30
0.0
 11
-686.2324770013175
 21
-253.2285542437453
 31
0.0
  0
LINE
  5
128
330
1F
100
AcDbEntity
  8
通り芯
  6
Continuous
 62
     3
370
     9
100
AcDbLine
 10
-683.4699598454898
 20
-251.6285588626222
 30
0.0
 11
-683.4699598454898
 21
-256.8285562232641
 31
0.0
  0
LINE
  5
129
330
1F
100
AcDbEntity
  8
通り芯
  6
Continuous
 62
     3
370
     9
100
AcDbLine
 10
-686.2324770013175
 20
-253.2285542437453
 30
0.0
 11
-686.2324770013175
 21
-256.8285562232641
 31
0.0
  0
LINE
  5
12A
330
1F
100
AcDbEntity
  8
通り芯
  6
Continuous
 62
     3
370
     9
100
AcDbLine
 10
-683.7075020752194
 20
-260.8285694200545
 30
0.0
 11
-682.7074492880573
 21
-261.828473743323
 31
0.0
  0
LINE
  5
12B
330
1F
100
AcDbEntity
  8
通り芯
  6
Continuous
 62
     3
370
     9
100
AcDbLine
 10
-682.7074492880573
 20
-261.828473743323
 30
0.0
 11
-678.7074360912667
 21
-261.828473743323
 31
0.0
  0
LINE
  5
12C
330
1F
100
AcDbEntity
  8
通り芯
  6
Continuous
 62
     3
370
     9
100
AcDbLine
 10
-683.7075020752194
 20
-260.8285694200545
 30
0.0
 11
-677.7073833041046
 21
-260.8285694200545
 31
0.0
  0
LINE
  5
12D
330
1F
100
AcDbEntity
  8
通り芯
  6
Continuous
 62
     3
370
     9
100
AcDbLine
 10
-686.2324770013175
 20
-256.8285562232641
 30
0.0
 11
-675.1824083780067
 21
-256.8285562232641
 31
0.0
  0
LINE
  5
12E
330
1F
100
AcDbEntity
  8
通り芯
  6
Continuous
 62
     3
370
     9
100
AcDbLine
 10
-687.7074657840454
 20
-251.6285588626222
 30
0.0
 11
-673.7074690832432
 21
-251.6285588626222
 31
0.0
  0
LINE
  5
12F
330
1F
100
AcDbEntity
  8
通り芯
  6
Continuous
 62
     3
370
     9
100
AcDbLine
 10
-687.7074657840454
 20
-250.8285364280782
 30
0.0
 11
-687.7074657840454
 21
-251.6285588626222
 31
0.0
  0
LINE
  5
130
330
1F
100
AcDbEntity
  8
通り芯
  6
Continuous
 62
     3
370
     9
100
AcDbLine
 10
-689.8832536324409
 20
-250.8285364280782
 30
0.0
 11
-671.5316317468834
 21
-250.8285364280782
 31
0.0
  0
LINE
  5
131
330
1F
100
AcDbEntity
  8
通り芯
  6
Continuous
 62
     3
370
     9
100
AcDbLine
 10
-682.7074492880573
 20
-256.8285562232641
 30
0.0
 11
-682.7074492880573
 21
-261.828473743323
 31
0.0
  0
LINE
  5
132
330
1F
100
AcDbEntity
  8
通り芯
  6
Continuous
 62
     3
370
     9
100
AcDbLine
 10
-683.7075020752194
 20
-256.8285562232641
 30
0.0
 11
-683.7075020752194
 21
-260.8285694200545
 31
0.0
  0
LINE
  5
133
330
1F
100
AcDbEntity
  8
通り芯
  6
Continuous
 62
     3
370
     9
100
AcDbLine
 10
-673.7074690832432
 20
-251.6285588626222
 30
0.0
 11
-675.1824083780067
 21
-253.2285542437453
 31
0.0
  0
LINE
  5
134
330
1F
100
AcDbEntity
  8
通り芯
  6
Continuous
 62
     3
370
     9
100
AcDbLine
 10
-677.9449255338344
 20
-251.6285588626222
 30
0.0
 11
-677.9449255338344
 21
-256.8285562232641
 31
0.0
  0
LINE
  5
135
330
1F
100
AcDbEntity
  8
通り芯
  6
Continuous
 62
     3
370
     9
100
AcDbLine
 10
-675.1824083780067
 20
-253.2285542437453
 30
0.0
 11
-675.1824083780067
 21
-256.8285562232641
 31
0.0
  0
LINE
  5
136
330
1F
100
AcDbEntity
  8
通り芯
  6
Continuous
 62
     3
370
     9
100
AcDbLine
 10
-677.7073833041046
 20
-260.8285694200545
 30
0.0
 11
-678.7074360912667
 21
-261.828473743323
 31
0.0
  0
LINE
  5
137
330
1F
100
AcDbEntity
  8
通り芯
  6
Continuous
 62
     3
370
     9
100
AcDbLine
 10
-673.7074690832432
 20
-250.8285364280782
 30
0.0
 11
-673.7074690832432
 21
-251.6285588626222
 31
0.0
  0
LINE
  5
138
330
1F
100
AcDbEntity
  8
通り芯
  6
Continuous
 62
     3
370
     9
100
AcDbLine
 10
-678.7074360912667
 20
-256.8285562232641
 30
0.0
 11
-678.7074360912667
 21
-261.828473743323
 31
0.0
  0
LINE
  5
139
330
1F
100
AcDbEntity
  8
通り芯
  6
Continuous
 62
     3
370
     9
100
AcDbLine
 10
-677.7073833041046
 20
-256.8285562232641
 30
0.0
 11
-677.7073833041046
 21
-260.8285694200545
 31
0.0
  0
LINE
  5
13A
330
1F
100
AcDbEntity
  8
通り芯
  6
Continuous
 62
     3
370
     9
100
AcDbLine
 10
411.4791665269765
 20
309.3358295981043
 30
0.0
 11
398.7926298926861
 21
310.9215229574793
 31
0.0
  0
LINE
  5
13B
330
1F
100
AcDbEntity
  8
通り芯
  6
Continuous
 62
     3
370
     9
100
AcDbLine
 10
412.7932699370273
 20
307.8474295769895
 30
0.0
 11
412.7932699370273
 21
290.7530989182055
 31
0.0
  0
LINE
  5
13C
330
1F
100
AcDbEntity
  8
通り芯
  6
Continuous
 62
     3
370
     9
100
AcDbLine
 10
-693.2074591856502
 20
-231.8285232312876
 30
0.0
 11
-693.2074591856502
 21
-236.8285397272757
 31
0.0
  0
LINE
  5
13D
330
1F
100
AcDbEntity
  8
通り芯
  6
Continuous
 62
     3
370
     9
100
AcDbLine
 10
-668.2074756816384
 20
-231.8285232312876
 30
0.0
 11
-668.2074756816384
 21
-236.8285397272757
 31
0.0
  0
LINE
  5
13E
330
1F
100
AcDbEntity
  8
通り芯
  6
Continuous
 62
     3
370
     9
100
AcDbLine
 10
-558.2075086736148
 20
-231.8285232312876
 30
0.0
 11
-558.2075086736148
 21
-236.8285397272757
 31
0.0
  0
LINE
  5
13F
330
1F
100
AcDbEntity
  8
通り芯
  6
Continuous
 62
     3
370
     9
100
AcDbLine
 10
-533.2074756816385
 20
-231.8285232312876
 30
0.0
 11
-533.2074756816385
 21
-236.8285397272757
 31
0.0
  0
LINE
  5
140
330
1F
100
AcDbEntity
  8
通り芯
  6
Continuous
 62
     3
370
     9
100
AcDbLine
 10
-423.2075086736148
 20
-231.8285232312876
 30
0.0
 11
-423.2075086736148
 21
-236.8285397272757
 31
0.0
  0
LINE
  5
141
330
1F
100
AcDbEntity
  8
通り芯
  6
Continuous
 62
     3
370
     9
100
AcDbLine
 10
-421.3717031415202
 20
-249.5145814819211
 30
0.0
 11
-422.9574459888597
 21
-236.8285397272757
 31
0.0
  0
LINE
  5
142
330
1F
100
AcDbEntity
  8
通り芯
  6
Continuous
 62
     3
370
     9
100
AcDbLine
 10
-691.3717031415202
 20
-249.5145814819211
 30
0.0
 11
-692.9574459888596
 21
-236.8285397272757
 31
0.0
  0
LINE
  5
143
330
1F
100
AcDbEntity
  8
通り芯
  6
Continuous
 62
     3
370
     9
100
AcDbLine
 10
-670.043182237804
 20
-249.5145814819211
 30
0.0
 11
-668.457488878429
 21
-236.8285397272757
 31
0.0
  0
LINE
  5
144
330
1F
100
AcDbEntity
  8
通り芯
  6
Continuous
 62
     3
370
     9
100
AcDbLine
 10
-548.6536096818496
 20
-250.8285364280782
 30
0.0
 11
-542.7612756974746
 21
-250.8285364280782
 31
0.0
  0
LINE
  5
145
330
1F
100
AcDbEntity
  8
通り芯
  6
Continuous
 62
     3
370
     9
100
AcDbLine
 10
-550.1389909371284
 20
-249.5374449215326
 30
0.0
 11
-551.9261992880574
 21
-236.8285397272757
 31
0.0
  0
LINE
  5
146
330
1F
100
AcDbEntity
  8
通り芯
  6
Continuous
 62
     3
370
     9
100
AcDbLine
 10
-541.2759439301605
 20
-249.5374449215326
 30
0.0
 11
-539.4887355792314
 21
-236.8285397272757
 31
0.0
  0
LINE
  5
147
330
1F
100
AcDbEntity
  8
通り芯
  6
Continuous
 62
     3
370
     9
100
AcDbLine
 10
-706.2075144472107
 20
300.1715493510603
 30
0.0
 11
-115.2074327920691
 21
300.1715493510603
 31
0.0
  0
LINE
  5
148
330
1F
100
AcDbEntity
  8
通り芯
  6
Continuous
 62
     3
370
     9
100
AcDbLine
 10
-710.20751527201
 20
304.1715625478508
 30
0.0
 11
-111.207370107314
 21
304.1715625478508
 31
0.0
  0
LINE
  5
149
330
1F
100
AcDbEntity
  8
通り芯
  6
Continuous
 62
     3
370
     9
100
AcDbLine
 10
-693.2074591856502
 20
313.1716417285941
 30
0.0
 11
-668.2074509376561
 21
313.1716417285941
 31
0.0
  0
LINE
  5
14A
330
1F
100
AcDbEntity
  8
通り芯
  6
Continuous
 62
     3
370
     9
100
AcDbLine
 10
-668.2074509376561
 20
313.1716417285941
 30
0.0
 11
-668.2074509376561
 21
304.1715625478508
 31
0.0
  0
LINE
  5
14B
330
1F
100
AcDbEntity
  8
通り芯
  6
Continuous
 62
     3
370
     9
100
AcDbLine
 10
-668.2074509376561
 20
300.1715493510603
 30
0.0
 11
-668.2074509376561
 21
289.1715625478508
 31
0.0
  0
LINE
  5
14C
330
1F
100
AcDbEntity
  8
通り芯
  6
Continuous
 62
     3
370
     9
100
AcDbLine
 10
-693.2074591856502
 20
313.1716417285941
 30
0.0
 11
-693.2074591856502
 21
304.1715625478508
 31
0.0
  0
LINE
  5
14D
330
1F
100
AcDbEntity
  8
通り芯
  6
Continuous
 62
     3
370
     9
100
AcDbLine
 10
-693.2074591856502
 20
300.1715493510603
 30
0.0
 11
-693.2074591856502
 21
289.1715625478508
 31
0.0
  0
LINE
  5
14E
330
1F
100
AcDbEntity
  8
通り芯
  6
Continuous
 62
     3
370
     9
100
AcDbLine
 10
-558.2074839296326
 20
313.1716417285941
 30
0.0
 11
-533.207426193674
 21
313.1716417285941
 31
0.0
  0
LINE
  5
14F
330
1F
100
AcDbEntity
  8
通り芯
  6
Continuous
 62
     3
370
     9
100
AcDbLine
 10
-533.207426193674
 20
313.1716417285941
 30
0.0
 11
-533.207426193674
 21
304.1715625478508
 31
0.0
  0
LINE
  5
150
330
1F
100
AcDbEntity
  8
通り芯
  6
Continuous
 62
     3
370
     9
100
AcDbLine
 10
-533.207426193674
 20
300.1715493510603
 30
0.0
 11
-533.207426193674
 21
289.1715625478508
 31
0.0
  0
LINE
  5
151
330
1F
100
AcDbEntity
  8
通り芯
  6
Continuous
 62
     3
370
     9
100
AcDbLine
 10
-558.2074839296326
 20
313.1716417285941
 30
0.0
 11
-558.2074839296326
 21
304.1715625478508
 31
0.0
  0
LINE
  5
152
330
1F
100
AcDbEntity
  8
通り芯
  6
Continuous
 62
     3
370
     9
100
AcDbLine
 10
-558.2074839296326
 20
300.1715493510603
 30
0.0
 11
-558.2074839296326
 21
289.1715625478508
 31
0.0
  0
LINE
  5
153
330
1F
100
AcDbEntity
  8
通り芯
  6
Continuous
 62
     3
370
     9
100
AcDbLine
 10
-423.2075086736148
 20
313.1716417285941
 30
0.0
 11
-423.2075086736148
 21
304.1715625478508
 31
0.0
  0
LINE
  5
154
330
1F
100
AcDbEntity
  8
通り芯
  6
Continuous
 62
     3
370
     9
100
AcDbLine
 10
-423.2075086736148
 20
300.1715493510603
 30
0.0
 11
-423.2075086736148
 21
289.1715625478508
 31
0.0
  0
LINE
  5
155
330
1F
100
AcDbEntity
  8
通り芯
  6
Continuous
 62
     3
370
     9
100
AcDbLine
 10
-423.2075086736148
 20
313.1716417285941
 30
0.0
 11
-398.2074756816384
 21
313.1716417285941
 31
0.0
  0
LINE
  5
156
330
1F
100
AcDbEntity
  8
通り芯
  6
Continuous
 62
     3
370
     9
100
AcDbLine
 10
-184.2074624848479
 20
78.17165822458219
 30
0.0
 11
-184.2074624848479
 21
258.1715592486532
 31
0.0
  0
LINE
  5
157
330
1F
100
AcDbEntity
  8
通り芯
  6
Continuous
 62
     3
370
     9
100
AcDbLine
 10
-177.2074393904645
 20
258.1715592486532
 30
0.0
 11
-184.2074624848479
 21
258.1715592486532
 31
0.0
  0
LINE
  5
158
330
1F
100
AcDbEntity
  8
通り芯
  6
Continuous
 62
     3
370
     9
100
AcDbLine
 10
-177.2074393904645
 20
78.17165822458219
 30
0.0
 11
-177.2074393904645
 21
258.1715592486532
 31
0.0
  0
LINE
  5
159
330
1F
100
AcDbEntity
  8
通り芯
  6
Continuous
 62
     3
370
     9
100
AcDbLine
 10
-181.7075284688006
 20
80.67164172859407
 30
0.0
 11
-181.7075284688006
 21
255.6715757446414
 31
0.0
  0
LINE
  5
15A
330
1F
100
AcDbEntity
  8
通り芯
  6
Continuous
 62
     3
370
     9
100
AcDbLine
 10
-179.7074228944762
 20
255.6715757446414
 30
0.0
 11
-181.7075284688006
 21
255.6715757446414
 31
0.0
  0
LINE
  5
15B
330
1F
100
AcDbEntity
  8
通り芯
  6
Continuous
 62
     3
370
     9
100
AcDbLine
 10
-179.7074228944762
 20
80.67164172859407
 30
0.0
 11
-179.7074228944762
 21
255.6715757446414
 31
0.0
  0
LINE
  5
15C
330
1F
100
AcDbEntity
  8
通り芯
  6
Continuous
 62
     3
370
     9
100
AcDbLine
 10
-184.2074624848479
 20
258.1715592486532
 30
0.0
 11
-181.7075284688006
 21
255.6715757446414
 31
0.0
  0
LINE
  5
15D
330
1F
100
AcDbEntity
  8
通り芯
  6
Continuous
 62
     3
370
     9
100
AcDbLine
 10
-177.2074393904645
 20
258.1715592486532
 30
0.0
 11
-179.7074228944762
 21
255.6715757446414
 31
0.0
  0
LINE
  5
15E
330
1F
100
AcDbEntity
  8
通り芯
  6
Continuous
 62
     3
370
     9
100
AcDbLine
 10
-299.2074459888597
 20
78.17165822458219
 30
0.0
 11
-299.2074459888597
 21
258.1715592486532
 31
0.0
  0
LINE
  5
15F
330
1F
100
AcDbEntity
  8
通り芯
  6
Continuous
 62
     3
370
     9
100
AcDbLine
 10
-292.2074723824408
 20
258.1715592486532
 30
0.0
 11
-299.2074459888597
 21
258.1715592486532
 31
0.0
  0
LINE
  5
160
330
1F
100
AcDbEntity
  8
通り芯
  6
Continuous
 62
     3
370
     9
100
AcDbLine
 10
-292.2074723824408
 20
78.17165822458219
 30
0.0
 11
-292.2074723824408
 21
258.1715592486532
 31
0.0
  0
LINE
  5
161
330
1F
100
AcDbEntity
  8
通り芯
  6
Continuous
 62
     3
370
     9
100
AcDbLine
 10
-296.7074624848479
 20
80.67164172859407
 30
0.0
 11
-296.7074624848479
 21
255.6715757446414
 31
0.0
  0
LINE
  5
162
330
1F
100
AcDbEntity
  8
通り芯
  6
Continuous
 62
     3
370
     9
100
AcDbLine
 10
-294.7074558864526
 20
255.6715757446414
 30
0.0
 11
-296.7074624848479
 21
255.6715757446414
 31
0.0
  0
LINE
  5
163
330
1F
100
AcDbEntity
  8
通り芯
  6
Continuous
 62
     3
370
     9
100
AcDbLine
 10
-294.7074558864526
 20
80.67164172859407
 30
0.0
 11
-294.7074558864526
 21
255.6715757446414
 31
0.0
  0
LINE
  5
164
330
1F
100
AcDbEntity
  8
通り芯
  6
Continuous
 62
     3
370
     9
100
AcDbLine
 10
-299.2074459888597
 20
258.1715592486532
 30
0.0
 11
-296.7074624848479
 21
255.6715757446414
 31
0.0
  0
LINE
  5
165
330
1F
100
AcDbEntity
  8
通り芯
  6
Continuous
 62
     3
370
     9
100
AcDbLine
 10
-292.2074723824408
 20
258.1715592486532
 30
0.0
 11
-294.7074558864526
 21
255.6715757446414
 31
0.0
  0
LINE
  5
166
330
1F
100
AcDbEntity
  8
通り芯
  6
Continuous
 62
     3
370
     9
100
AcDbLine
 10
-407.2074558864526
 20
78.17165822458219
 30
0.0
 11
-407.2074558864526
 21
258.1715592486532
 31
0.0
  0
LINE
  5
167
330
1F
100
AcDbEntity
  8
通り芯
  6
Continuous
 62
     3
370
     9
100
AcDbLine
 10
-409.7074393904645
 20
80.67164172859407
 30
0.0
 11
-409.7074393904645
 21
255.6715757446414
 31
0.0
  0
LINE
  5
168
330
1F
100
AcDbEntity
  8
通り芯
  6
Continuous
 62
     3
370
     9
100
AcDbLine
 10
-407.2074558864526
 20
258.1715592486532
 30
0.0
 11
-409.7074393904645
 21
255.6715757446414
 31
0.0
  0
LINE
  5
169
330
1F
100
AcDbEntity
  8
通り芯
  6
Continuous
 62
     3
370
     9
100
AcDbLine
 10
-111.207370107314
 20
32.1716549253847
 30
0.0
 11
-111.207370107314
 21
304.1715625478508
 31
0.0
  0
LINE
  5
16A
330
1F
100
AcDbEntity
  8
通り芯
  6
Continuous
 62
     3
370
     9
100
AcDbLine
 10
-115.2074327920691
 20
32.1716549253847
 30
0.0
 11
-115.2074327920691
 21
304.1715625478508
 31
0.0
  0
LINE
  5
16B
330
1F
100
AcDbEntity
  8
通り芯
  6
Continuous
 62
     3
370
     9
100
AcDbLine
 10
-122.7966595921113
 20
276.6519983058745
 30
0.0
 11
-122.7966595921113
 21
59.69121916736094
 31
0.0
  0
LINE
  5
16C
330
1F
100
AcDbEntity
  8
通り芯
  6
Continuous
 62
     3
370
     9
100
AcDbLine
 10
-116.7074624848479
 20
164.1715955398272
 30
0.0
 11
-116.7074624848479
 21
172.1716219334082
 31
0.0
  0
LINE
  5
16D
330
1F
100
AcDbEntity
  8
通り芯
  6
Continuous
 62
     3
370
     9
100
AcDbLine
 10
-120.7074261936738
 20
164.1715955398272
 30
0.0
 11
-120.7074261936738
 21
172.1716219334082
 31
0.0
  0
LINE
  5
16E
330
1F
100
AcDbEntity
  8
通り芯
  6
Continuous
 62
     3
370
     9
100
AcDbLine
 10
-115.2074327920691
 20
172.1716219334082
 30
0.0
 11
-120.7074261936738
 21
172.1716219334082
 31
0.0
  0
LINE
  5
16F
330
1F
100
AcDbEntity
  8
通り芯
  6
Continuous
 62
     3
370
     9
100
AcDbLine
 10
-118.2176372103547
 20
174.171579043839
 30
0.0
 11
-119.2176405095523
 21
173.6715526502579
 31
0.0
  0
LINE
  5
170
330
1F
100
AcDbEntity
  8
通り芯
  6
Continuous
 62
     3
370
     9
100
AcDbLine
 10
-119.2176405095523
 20
173.6715526502579
 30
0.0
 11
-122.2252715536824
 21
173.6715526502579
 31
0.0
  0
LINE
  5
171
330
1F
100
AcDbEntity
  8
通り芯
  6
Continuous
 62
     3
370
     9
100
AcDbLine
 10
-122.2252715536824
 20
173.6715526502579
 30
0.0
 11
-119.2176405095523
 21
174.171579043839
 31
0.0
  0
LINE
  5
172
330
1F
100
AcDbEntity
  8
通り芯
  6
Continuous
 62
     3
370
     9
100
AcDbLine
 10
-119.2176405095523
 20
174.171579043839
 30
0.0
 11
-118.2176372103547
 21
174.171579043839
 31
0.0
  0
LINE
  5
173
330
1F
100
AcDbEntity
  8
通り芯
  6
Continuous
 62
     3
370
     9
100
AcDbLine
 10
-122.2252715536824
 20
162.6716648229775
 30
0.0
 11
-122.2252715536824
 21
173.6715526502579
 31
0.0
  0
LINE
  5
174
330
1F
100
AcDbEntity
  8
通り芯
  6
Continuous
 62
     3
370
     9
100
AcDbLine
 10
-118.2176372103547
 20
174.171579043839
 30
0.0
 11
-118.2176372103547
 21
172.1716219334082
 31
0.0
  0
LINE
  5
175
330
1F
100
AcDbEntity
  8
通り芯
  6
Continuous
 62
     3
370
     9
100
AcDbLine
 10
-121.2252682544847
 20
277.302022719937
 30
0.0
 11
-121.2252682544847
 21
173.8377827231042
 31
0.0
  0
LINE
  5
176
330
1F
100
AcDbEntity
  8
通り芯
  6
Continuous
 62
     3
370
     9
100
AcDbLine
 10
-128.2074261936738
 20
313.1716417285941
 30
0.0
 11
-153.2075086736148
 21
313.1716417285941
 31
0.0
  0
LINE
  5
177
330
1F
100
AcDbEntity
  8
通り芯
  6
Continuous
 62
     3
370
     9
100
AcDbLine
 10
-153.2075086736148
 20
313.1716417285941
 30
0.0
 11
-153.2075086736148
 21
304.1715625478508
 31
0.0
  0
LINE
  5
178
330
1F
100
AcDbEntity
  8
通り芯
  6
Continuous
 62
     3
370
     9
100
AcDbLine
 10
-153.2075086736148
 20
300.1715493510603
 30
0.0
 11
-153.2075086736148
 21
289.1715625478508
 31
0.0
  0
LINE
  5
179
330
1F
100
AcDbEntity
  8
通り芯
  6
Continuous
 62
     3
370
     9
100
AcDbLine
 10
-128.2074261936738
 20
313.1716417285941
 30
0.0
 11
-128.2074261936738
 21
304.1715625478508
 31
0.0
  0
LINE
  5
17A
330
1F
100
AcDbEntity
  8
通り芯
  6
Continuous
 62
     3
370
     9
100
AcDbLine
 10
-128.2074261936738
 20
300.1715493510603
 30
0.0
 11
-128.2074261936738
 21
289.1715625478508
 31
0.0
  0
LINE
  5
17B
330
1F
100
AcDbEntity
  8
通り芯
  6
Continuous
 62
     3
370
     9
100
AcDbLine
 10
-263.2074261936739
 20
313.1716417285941
 30
0.0
 11
-288.2075086736148
 21
313.1716417285941
 31
0.0
  0
LINE
  5
17C
330
1F
100
AcDbEntity
  8
通り芯
  6
Continuous
 62
     3
370
     9
100
AcDbLine
 10
-288.2075086736148
 20
313.1716417285941
 30
0.0
 11
-288.2075086736148
 21
304.1715625478508
 31
0.0
  0
LINE
  5
17D
330
1F
100
AcDbEntity
  8
通り芯
  6
Continuous
 62
     3
370
     9
100
AcDbLine
 10
-288.2075086736148
 20
300.1715493510603
 30
0.0
 11
-288.2075086736148
 21
289.1715625478508
 31
0.0
  0
LINE
  5
17E
330
1F
100
AcDbEntity
  8
通り芯
  6
Continuous
 62
     3
370
     9
100
AcDbLine
 10
-263.2074261936739
 20
313.1716417285941
 30
0.0
 11
-263.2074261936739
 21
304.1715625478508
 31
0.0
  0
LINE
  5
17F
330
1F
100
AcDbEntity
  8
通り芯
  6
Continuous
 62
     3
370
     9
100
AcDbLine
 10
-263.2074261936739
 20
300.1715493510603
 30
0.0
 11
-263.2074261936739
 21
289.1715625478508
 31
0.0
  0
LINE
  5
180
330
1F
100
AcDbEntity
  8
通り芯
  6
Continuous
 62
     3
370
     9
100
AcDbLine
 10
-398.2074756816384
 20
313.1716417285941
 30
0.0
 11
-398.2074756816384
 21
304.1715625478508
 31
0.0
  0
LINE
  5
181
330
1F
100
AcDbEntity
  8
通り芯
  6
Continuous
 62
     3
370
     9
100
AcDbLine
 10
-398.2074756816384
 20
300.1715493510603
 30
0.0
 11
-398.2074756816384
 21
289.1715625478508
 31
0.0
  0
LINE
  5
182
330
1F
100
AcDbEntity
  8
通り芯
  6
JWW_CENTER1
 62
     3
370
     9
100
AcDbLine
 10
-680.7074426896621
 20
-246.8285727192522
 30
0.0
 11
-680.7074426896621
 21
-265.8284869401136
 31
0.0
  0
LINE
  5
183
330
1F
100
AcDbEntity
  8
通り芯
  6
JWW_CENTER1
 62
     3
370
     9
100
AcDbLine
 10
-410.7074426896621
 20
-246.8285727192522
 30
0.0
 11
-410.7074426896621
 21
-265.8284869401136
 31
0.0
  0
LINE
  5
184
330
1F
100
AcDbEntity
  8
通り芯
  6
Continuous
 62
     3
370
     9
100
AcDbLine
 10
-644.2074459888596
 20
78.17165822458219
 30
0.0
 11
-637.2074723824409
 21
78.17165822458219
 31
0.0
  0
LINE
  5
185
330
1F
100
AcDbEntity
  8
通り芯
  6
Continuous
 62
     3
370
     9
100
AcDbLine
 10
-641.7074872288302
 20
80.67164172859407
 30
0.0
 11
-639.7074558864525
 21
80.67164172859407
 31
0.0
  0
LINE
  5
186
330
1F
100
AcDbEntity
  8
通り芯
  6
Continuous
 62
     3
370
     9
100
AcDbLine
 10
-637.2074723824409
 20
78.17165822458219
 30
0.0
 11
-639.7074558864525
 21
80.67164172859407
 31
0.0
  0
LINE
  5
187
330
1F
100
AcDbEntity
  8
通り芯
  6
Continuous
 62
     3
370
     9
100
AcDbLine
 10
-644.2074459888596
 20
78.17165822458219
 30
0.0
 11
-641.7074872288302
 21
80.67164172859407
 31
0.0
  0
LINE
  5
188
330
1F
100
AcDbEntity
  8
通り芯
  6
Continuous
 62
     3
370
     9
100
AcDbLine
 10
-529.207462484848
 20
78.17165822458219
 30
0.0
 11
-522.2074641344467
 21
78.17165822458219
 31
0.0
  0
LINE
  5
189
330
1F
100
AcDbEntity
  8
通り芯
  6
Continuous
 62
     3
370
     9
100
AcDbLine
 10
-526.7074789808361
 20
80.67164172859407
 30
0.0
 11
-524.7074476384586
 21
80.67164172859407
 31
0.0
  0
LINE
  5
18A
330
1F
100
AcDbEntity
  8
通り芯
  6
Continuous
 62
     3
370
     9
100
AcDbLine
 10
-522.2074641344467
 20
78.17165822458219
 30
0.0
 11
-524.7074476384586
 21
80.67164172859407
 31
0.0
  0
LINE
  5
18B
330
1F
100
AcDbEntity
  8
通り芯
  6
Continuous
 62
     3
370
     9
100
AcDbLine
 10
-529.207462484848
 20
78.17165822458219
 30
0.0
 11
-526.7074789808361
 21
80.67164172859407
 31
0.0
  0
LINE
  5
18C
330
1F
100
AcDbEntity
  8
通り芯
  6
Continuous
 62
     3
370
     9
100
AcDbLine
 10
-414.2074294928715
 20
78.17165822458219
 30
0.0
 11
-411.7074954768242
 21
80.67164172859407
 31
0.0
  0
LINE
  5
18D
330
1F
100
AcDbEntity
  8
通り芯
  6
Continuous
 62
     3
370
     9
100
AcDbLine
 10
-414.2074294928715
 20
78.17165822458219
 30
0.0
 11
-407.2074558864526
 21
78.17165822458219
 31
0.0
  0
LINE
  5
18E
330
1F
100
AcDbEntity
  8
通り芯
  6
Continuous
 62
     3
370
     9
100
AcDbLine
 10
-411.7074954768242
 20
80.67164172859407
 30
0.0
 11
-409.7074393904645
 21
80.67164172859407
 31
0.0
  0
LINE
  5
18F
330
1F
100
AcDbEntity
  8
通り芯
  6
Continuous
 62
     3
370
     9
100
AcDbLine
 10
-706.2075144472107
 20
51.17166812217511
 30
0.0
 11
-115.2074327920691
 21
51.17166812217511
 31
0.0
  0
LINE
  5
190
330
1F
100
AcDbEntity
  8
通り芯
  6
Continuous
 62
     3
370
     9
100
AcDbLine
 10
-706.2075144472107
 20
47.1716549253847
 30
0.0
 11
-115.2074327920691
 21
47.1716549253847
 31
0.0
  0
LINE
  5
191
330
1F
100
AcDbEntity
  8
通り芯
  6
Continuous
 62
     3
370
     9
100
AcDbLine
 10
-696.1896781599957
 20
55.04118155650804
 30
0.0
 11
-125.2252319633107
 21
55.04118155650804
 31
0.0
  0
LINE
  5
192
330
1F
100
AcDbEntity
  8
通り芯
  6
Continuous
 62
     3
370
     9
100
AcDbLine
 10
-695.6182901215667
 20
56.69120926976802
 30
0.0
 11
-125.7966200017398
 21
56.69120926976802
 31
0.0
  0
LINE
  5
193
330
1F
100
AcDbEntity
  8
通り芯
  6
Continuous
 62
     3
370
     9
100
AcDbLine
 10
-706.2075144472107
 20
164.1715955398272
 30
0.0
 11
-700.7074715576413
 21
164.1715955398272
 31
0.0
  0
LINE
  5
194
330
1F
100
AcDbEntity
  8
通り芯
  6
Continuous
 62
     3
370
     9
100
AcDbLine
 10
-703.1973100289252
 20
162.1716384293965
 30
0.0
 11
-702.1972819857452
 21
162.6716648229775
 31
0.0
  0
LINE
  5
195
330
1F
100
AcDbEntity
  8
通り芯
  6
Continuous
 62
     3
370
     9
100
AcDbLine
 10
-702.1972819857452
 20
162.6716648229775
 30
0.0
 11
-699.1896756855975
 21
162.6716648229775
 31
0.0
  0
LINE
  5
196
330
1F
100
AcDbEntity
  8
通り芯
  6
Continuous
 62
     3
370
     9
100
AcDbLine
 10
-699.1896756855975
 20
162.6716648229775
 30
0.0
 11
-702.1972819857452
 21
162.1716384293965
 31
0.0
  0
LINE
  5
197
330
1F
100
AcDbEntity
  8
通り芯
  6
Continuous
 62
     3
370
     9
100
AcDbLine
 10
-702.1972819857452
 20
162.1716384293965
 30
0.0
 11
-703.1973100289252
 21
162.1716384293965
 31
0.0
  0
LINE
  5
198
330
1F
100
AcDbEntity
  8
通り芯
  6
Continuous
 62
     3
370
     9
100
AcDbLine
 10
-703.1973100289252
 20
162.1716384293965
 30
0.0
 11
-703.1973100289252
 21
164.1715955398272
 31
0.0
  0
LINE
  5
199
330
1F
100
AcDbEntity
  8
通り芯
  6
Continuous
 62
     3
370
     9
100
AcDbLine
 10
-700.1896913567863
 20
59.04119475329844
 30
0.0
 11
-700.1896913567863
 21
162.5054347501313
 31
0.0
  0
LINE
  5
19A
330
1F
100
AcDbEntity
  8
通り芯
  6
Continuous
 62
     3
370
     9
100
AcDbLine
 10
-706.2075144472107
 20
36.17166812217511
 30
0.0
 11
-115.2074327920691
 21
36.17166812217511
 31
0.0
  0
LINE
  5
19B
330
1F
100
AcDbEntity
  8
通り芯
  6
Continuous
 62
     3
370
     9
100
AcDbLine
 10
-710.20751527201
 20
32.1716549253847
 30
0.0
 11
-111.207370107314
 21
32.1716549253847
 31
0.0
  0
LINE
  5
19C
330
1F
100
AcDbEntity
  8
通り芯
  6
Continuous
 62
     3
370
     9
100
AcDbLine
 10
-693.2074591856502
 20
23.17157574464136
 30
0.0
 11
-668.2074509376561
 21
23.17157574464136
 31
0.0
  0
LINE
  5
19D
330
1F
100
AcDbEntity
  8
通り芯
  6
Continuous
 62
     3
370
     9
100
AcDbLine
 10
-668.2074509376561
 20
23.17157574464136
 30
0.0
 11
-668.2074509376561
 21
32.1716549253847
 31
0.0
  0
LINE
  5
19E
330
1F
100
AcDbEntity
  8
通り芯
  6
Continuous
 62
     3
370
     9
100
AcDbLine
 10
-668.2074509376561
 20
36.17166812217511
 30
0.0
 11
-668.2074509376561
 21
47.1716549253847
 31
0.0
  0
LINE
  5
19F
330
1F
100
AcDbEntity
  8
通り芯
  6
Continuous
 62
     3
370
     9
100
AcDbLine
 10
-693.2074591856502
 20
23.17157574464136
 30
0.0
 11
-693.2074591856502
 21
32.1716549253847
 31
0.0
  0
LINE
  5
1A0
330
1F
100
AcDbEntity
  8
通り芯
  6
Continuous
 62
     3
370
     9
100
AcDbLine
 10
-693.2074591856502
 20
36.17166812217511
 30
0.0
 11
-693.2074591856502
 21
47.1716549253847
 31
0.0
  0
LINE
  5
1A1
330
1F
100
AcDbEntity
  8
通り芯
  6
Continuous
 62
     3
370
     9
100
AcDbLine
 10
-558.2074839296326
 20
23.17157574464136
 30
0.0
 11
-533.207426193674
 21
23.17157574464136
 31
0.0
  0
LINE
  5
1A2
330
1F
100
AcDbEntity
  8
通り芯
  6
Continuous
 62
     3
370
     9
100
AcDbLine
 10
-533.207426193674
 20
23.17157574464136
 30
0.0
 11
-533.207426193674
 21
32.1716549253847
 31
0.0
  0
LINE
  5
1A3
330
1F
100
AcDbEntity
  8
通り芯
  6
Continuous
 62
     3
370
     9
100
AcDbLine
 10
-533.207426193674
 20
36.17166812217511
 30
0.0
 11
-533.207426193674
 21
47.1716549253847
 31
0.0
  0
LINE
  5
1A4
330
1F
100
AcDbEntity
  8
通り芯
  6
Continuous
 62
     3
370
     9
100
AcDbLine
 10
-558.2074839296326
 20
23.17157574464136
 30
0.0
 11
-558.2074839296326
 21
32.1716549253847
 31
0.0
  0
LINE
  5
1A5
330
1F
100
AcDbEntity
  8
通り芯
  6
Continuous
 62
     3
370
     9
100
AcDbLine
 10
-558.2074839296326
 20
36.17166812217511
 30
0.0
 11
-558.2074839296326
 21
47.1716549253847
 31
0.0
  0
LINE
  5
1A6
330
1F
100
AcDbEntity
  8
通り芯
  6
Continuous
 62
     3
370
     9
100
AcDbLine
 10
-423.2075086736148
 20
23.17157574464136
 30
0.0
 11
-423.2075086736148
 21
32.1716549253847
 31
0.0
  0
LINE
  5
1A7
330
1F
100
AcDbEntity
  8
通り芯
  6
Continuous
 62
     3
370
     9
100
AcDbLine
 10
-423.2075086736148
 20
36.17166812217511
 30
0.0
 11
-423.2075086736148
 21
47.1716549253847
 31
0.0
  0
LINE
  5
1A8
330
1F
100
AcDbEntity
  8
通り芯
  6
Continuous
 62
     3
370
     9
100
AcDbLine
 10
-423.2075086736148
 20
23.17157574464136
 30
0.0
 11
-398.2074756816384
 21
23.17157574464136
 31
0.0
  0
LINE
  5
1A9
330
1F
100
AcDbEntity
  8
通り芯
  6
Continuous
 62
     3
370
     9
100
AcDbLine
 10
-177.2074393904645
 20
78.17165822458219
 30
0.0
 11
-184.2074624848479
 21
78.17165822458219
 31
0.0
  0
LINE
  5
1AA
330
1F
100
AcDbEntity
  8
通り芯
  6
Continuous
 62
     3
370
     9
100
AcDbLine
 10
-179.7074228944762
 20
80.67164172859407
 30
0.0
 11
-181.7075284688006
 21
80.67164172859407
 31
0.0
  0
LINE
  5
1AB
330
1F
100
AcDbEntity
  8
通り芯
  6
Continuous
 62
     3
370
     9
100
AcDbLine
 10
-184.2074624848479
 20
78.17165822458219
 30
0.0
 11
-181.7075284688006
 21
80.67164172859407
 31
0.0
  0
LINE
  5
1AC
330
1F
100
AcDbEntity
  8
通り芯
  6
Continuous
 62
     3
370
     9
100
AcDbLine
 10
-177.2074393904645
 20
78.17165822458219
 30
0.0
 11
-179.7074228944762
 21
80.67164172859407
 31
0.0
  0
LINE
  5
1AD
330
1F
100
AcDbEntity
  8
通り芯
  6
Continuous
 62
     3
370
     9
100
AcDbLine
 10
-292.2074723824408
 20
78.17165822458219
 30
0.0
 11
-299.2074459888597
 21
78.17165822458219
 31
0.0
  0
LINE
  5
1AE
330
1F
100
AcDbEntity
  8
通り芯
  6
Continuous
 62
     3
370
     9
100
AcDbLine
 10
-294.7074558864526
 20
80.67164172859407
 30
0.0
 11
-296.7074624848479
 21
80.67164172859407
 31
0.0
  0
LINE
  5
1AF
330
1F
100
AcDbEntity
  8
通り芯
  6
Continuous
 62
     3
370
     9
100
AcDbLine
 10
-299.2074459888597
 20
78.17165822458219
 30
0.0
 11
-296.7074624848479
 21
80.67164172859407
 31
0.0
  0
LINE
  5
1B0
330
1F
100
AcDbEntity
  8
通り芯
  6
Continuous
 62
     3
370
     9
100
AcDbLine
 10
-292.2074723824408
 20
78.17165822458219
 30
0.0
 11
-294.7074558864526
 21
80.67164172859407
 31
0.0
  0
LINE
  5
1B1
330
1F
100
AcDbEntity
  8
通り芯
  6
Continuous
 62
     3
370
     9
100
AcDbLine
 10
-407.2074558864526
 20
78.17165822458219
 30
0.0
 11
-409.7074393904645
 21
80.67164172859407
 31
0.0
  0
LINE
  5
1B2
330
1F
100
AcDbEntity
  8
通り芯
  6
Continuous
 62
     3
370
     9
100
AcDbLine
 10
-115.2074327920691
 20
164.1715955398272
 30
0.0
 11
-120.7074261936738
 21
164.1715955398272
 31
0.0
  0
LINE
  5
1B3
330
1F
100
AcDbEntity
  8
通り芯
  6
Continuous
 62
     3
370
     9
100
AcDbLine
 10
-118.2176372103547
 20
162.1716384293965
 30
0.0
 11
-119.2176405095523
 21
162.6716648229775
 31
0.0
  0
LINE
  5
1B4
330
1F
100
AcDbEntity
  8
通り芯
  6
Continuous
 62
     3
370
     9
100
AcDbLine
 10
-119.2176405095523
 20
162.6716648229775
 30
0.0
 11
-122.2252715536824
 21
162.6716648229775
 31
0.0
  0
LINE
  5
1B5
330
1F
100
AcDbEntity
  8
通り芯
  6
Continuous
 62
     3
370
     9
100
AcDbLine
 10
-122.2252715536824
 20
162.6716648229775
 30
0.0
 11
-119.2176405095523
 21
162.1716384293965
 31
0.0
  0
LINE
  5
1B6
330
1F
100
AcDbEntity
  8
通り芯
  6
Continuous
 62
     3
370
     9
100
AcDbLine
 10
-119.2176405095523
 20
162.1716384293965
 30
0.0
 11
-118.2176372103547
 21
162.1716384293965
 31
0.0
  0
LINE
  5
1B7
330
1F
100
AcDbEntity
  8
通り芯
  6
Continuous
 62
     3
370
     9
100
AcDbLine
 10
-118.2176372103547
 20
162.1716384293965
 30
0.0
 11
-118.2176372103547
 21
164.1715955398272
 31
0.0
  0
LINE
  5
1B8
330
1F
100
AcDbEntity
  8
通り芯
  6
Continuous
 62
     3
370
     9
100
AcDbLine
 10
-121.2252682544847
 20
59.04119475329844
 30
0.0
 11
-121.2252682544847
 21
162.5054347501313
 31
0.0
  0
LINE
  5
1B9
330
1F
100
AcDbEntity
  8
通り芯
  6
Continuous
 62
     3
370
     9
100
AcDbLine
 10
-128.2074261936738
 20
23.17157574464136
 30
0.0
 11
-153.2075086736148
 21
23.17157574464136
 31
0.0
  0
LINE
  5
1BA
330
1F
100
AcDbEntity
  8
通り芯
  6
Continuous
 62
     3
370
     9
100
AcDbLine
 10
-153.2075086736148
 20
23.17157574464136
 30
0.0
 11
-153.2075086736148
 21
32.1716549253847
 31
0.0
  0
LINE
  5
1BB
330
1F
100
AcDbEntity
  8
通り芯
  6
Continuous
 62
     3
370
     9
100
AcDbLine
 10
-153.2075086736148
 20
36.17166812217511
 30
0.0
 11
-153.2075086736148
 21
47.1716549253847
 31
0.0
  0
LINE
  5
1BC
330
1F
100
AcDbEntity
  8
通り芯
  6
Continuous
 62
     3
370
     9
100
AcDbLine
 10
-128.2074261936738
 20
23.17157574464136
 30
0.0
 11
-128.2074261936738
 21
32.1716549253847
 31
0.0
  0
LINE
  5
1BD
330
1F
100
AcDbEntity
  8
通り芯
  6
Continuous
 62
     3
370
     9
100
AcDbLine
 10
-128.2074261936738
 20
36.17166812217511
 30
0.0
 11
-128.2074261936738
 21
47.1716549253847
 31
0.0
  0
LINE
  5
1BE
330
1F
100
AcDbEntity
  8
通り芯
  6
Continuous
 62
     3
370
     9
100
AcDbLine
 10
-263.2074261936739
 20
23.17157574464136
 30
0.0
 11
-288.2075086736148
 21
23.17157574464136
 31
0.0
  0
LINE
  5
1BF
330
1F
100
AcDbEntity
  8
通り芯
  6
Continuous
 62
     3
370
     9
100
AcDbLine
 10
-288.2075086736148
 20
23.17157574464136
 30
0.0
 11
-288.2075086736148
 21
32.1716549253847
 31
0.0
  0
LINE
  5
1C0
330
1F
100
AcDbEntity
  8
通り芯
  6
Continuous
 62
     3
370
     9
100
AcDbLine
 10
-288.2075086736148
 20
36.17166812217511
 30
0.0
 11
-288.2075086736148
 21
47.1716549253847
 31
0.0
  0
LINE
  5
1C1
330
1F
100
AcDbEntity
  8
通り芯
  6
Continuous
 62
     3
370
     9
100
AcDbLine
 10
-263.2074261936739
 20
23.17157574464136
 30
0.0
 11
-263.2074261936739
 21
32.1716549253847
 31
0.0
  0
LINE
  5
1C2
330
1F
100
AcDbEntity
  8
通り芯
  6
Continuous
 62
     3
370
     9
100
AcDbLine
 10
-263.2074261936739
 20
36.17166812217511
 30
0.0
 11
-263.2074261936739
 21
47.1716549253847
 31
0.0
  0
LINE
  5
1C3
330
1F
100
AcDbEntity
  8
通り芯
  6
Continuous
 62
     3
370
     9
100
AcDbLine
 10
-398.2074756816384
 20
23.17157574464136
 30
0.0
 11
-398.2074756816384
 21
32.1716549253847
 31
0.0
  0
LINE
  5
1C4
330
1F
100
AcDbEntity
  8
通り芯
  6
Continuous
 62
     3
370
     9
100
AcDbLine
 10
-398.2074756816384
 20
36.17166812217511
 30
0.0
 11
-398.2074756816384
 21
47.1716549253847
 31
0.0
  0
LINE
  5
1C5
330
1F
100
AcDbEntity
  8
通り芯
  6
Continuous
 62
     3
370
     9
100
AcDbLine
 10
396.7921284146452
 20
162.671615335013
 30
0.0
 11
410.7921746034123
 21
163.6715691462462
 31
0.0
  0
LINE
  5
1C6
330
1F
100
AcDbEntity
  8
通り芯
  6
Continuous
 62
     3
370
     9
100
AcDbLine
 10
406.3926945569594
 20
165.5716100562968
 30
0.0
 11
401.1925982203886
 21
165.5716100562968
 31
0.0
  0
LINE
  5
1C7
330
1F
100
AcDbEntity
  8
通り芯
  6
Continuous
 62
     3
370
     9
100
AcDbLine
 10
396.7921284146452
 20
162.1715889414319
 30
0.0
 11
410.7921746034123
 21
163.6715691462462
 31
0.0
  0
LINE
  5
1C8
330
1F
100
AcDbEntity
  8
通り芯
  6
Continuous
 62
     3
370
     9
100
AcDbLine
 10
425.7926694830577
 20
78.17160873661771
 30
0.0
 11
435.7926034991048
 21
93.17160873661771
 31
0.0
  0
LINE
  5
1C9
330
1F
100
AcDbEntity
  8
通り芯
  6
Continuous
 62
     3
370
     9
100
AcDbLine
 10
420.5734707921794
 20
80.39757738104345
 30
0.0
 11
419.0118285835644
 21
78.44547513231032
 31
0.0
  0
LINE
  5
1CA
330
1F
100
AcDbEntity
  8
通り芯
  6
Continuous
 62
     3
370
     9
100
AcDbLine
 10
438.7926628846623
 20
55.88470391187116
 30
0.0
 11
438.7926628846623
 21
52.56831745705699
 31
0.0
  0
LINE
  5
1CB
330
1F
100
AcDbEntity
  8
通り芯
  6
Continuous
 62
     3
370
     9
100
AcDbLine
 10
393.7926628846623
 20
47.1716549253847
 30
0.0
 11
393.7926628846623
 21
23.17157574464136
 31
0.0
  0
LINE
  5
1CC
330
1F
100
AcDbEntity
  8
通り芯
  6
Continuous
 62
     3
370
     9
100
AcDbLine
 10
398.7926298926861
 20
51.17166812217511
 30
0.0
 11
398.7926298926861
 21
23.17157574464136
 31
0.0
  0
LINE
  5
1CD
330
1F
100
AcDbEntity
  8
通り芯
  6
Continuous
 62
     3
370
     9
100
AcDbLine
 10
393.7926628846623
 20
32.1716549253847
 30
0.0
 11
378.7926628846623
 21
32.1716549253847
 31
0.0
  0
LINE
  5
1CE
330
1F
100
AcDbEntity
  8
通り芯
  6
Continuous
 62
     3
370
     9
100
AcDbLine
 10
393.7926628846623
 20
36.17166812217511
 30
0.0
 11
378.7926628846623
 21
36.17166812217511
 31
0.0
  0
LINE
  5
1CF
330
1F
100
AcDbEntity
  8
通り芯
  6
Continuous
 62
     3
370
     9
100
AcDbLine
 10
398.7926298926861
 20
47.1716549253847
 30
0.0
 11
378.7926628846623
 21
47.1716549253847
 31
0.0
  0
LINE
  5
1D0
330
1F
100
AcDbEntity
  8
通り芯
  6
Continuous
 62
     3
370
     9
100
AcDbLine
 10
398.7926298926861
 20
51.17166812217511
 30
0.0
 11
378.7926628846623
 21
51.17166812217511
 31
0.0
  0
LINE
  5
1D1
330
1F
100
AcDbEntity
  8
通り芯
  6
Continuous
 62
     3
370
     9
100
AcDbLine
 10
398.7926298926861
 20
23.17157574464136
 30
0.0
 11
393.7926628846623
 21
23.17157574464136
 31
0.0
  0
LINE
  5
1D2
330
1F
100
AcDbEntity
  8
通り芯
  6
Continuous
 62
     3
370
     9
100
AcDbLine
 10
415.0917879374493
 20
56.41363127673594
 30
0.0
 11
396.7927222702198
 21
55.04118155650804
 31
0.0
  0
LINE
  5
1D3
330
1F
100
AcDbEntity
  8
通り芯
  6
Continuous
 62
     3
370
     9
100
AcDbLine
 10
429.1843766198818
 20
58.64979444185428
 30
0.0
 11
437.5207232203885
 21
57.36731384113637
 31
0.0
  0
LINE
  5
1D4
330
1F
100
AcDbEntity
  8
通り芯
  6
Continuous
 62
     3
370
     9
100
AcDbLine
 10
396.7927222702198
 20
164.1715955398272
 30
0.0
 11
396.7927222702198
 21
51.17166812217511
 31
0.0
  0
LINE
  5
1D5
330
1F
100
AcDbEntity
  8
通り芯
  6
Continuous
 62
     3
370
     9
100
AcDbLine
 10
407.7927090734294
 20
164.1715955398272
 30
0.0
 11
379.7927156718244
 21
164.1715955398272
 31
0.0
  0
LINE
  5
1D6
330
1F
100
AcDbEntity
  8
通り芯
  6
Continuous
 62
     3
370
     9
100
AcDbLine
 10
413.5931933956419
 20
44.17159553982719
 30
0.0
 11
413.5931933956419
 21
30.17154935106032
 31
0.0
  0
LINE
  5
1D7
330
1F
100
AcDbEntity
  8
通り芯
  6
Continuous
 62
     3
370
     9
100
AcDbLine
 10
413.5931933956419
 20
44.17159553982719
 30
0.0
 11
415.1931392888006
 21
42.6965572691347
 31
0.0
  0
LINE
  5
1D8
330
1F
100
AcDbEntity
  8
通り芯
  6
Continuous
 62
     3
370
     9
100
AcDbLine
 10
413.5931933956419
 20
30.17154935106032
 30
0.0
 11
415.1931392888006
 21
31.64658762175281
 31
0.0
  0
LINE
  5
1D9
330
1F
100
AcDbEntity
  8
通り芯
  6
Continuous
 62
     3
370
     9
100
AcDbLine
 10
413.5931933956419
 20
39.93404011330699
 30
0.0
 11
418.7930917803548
 21
39.93404011330699
 31
0.0
  0
LINE
  5
1DA
330
1F
100
AcDbEntity
  8
通り芯
  6
Continuous
 62
     3
370
     9
100
AcDbLine
 10
413.5931933956419
 20
34.40910477758052
 30
0.0
 11
418.7930917803548
 21
34.40910477758052
 31
0.0
  0
LINE
  5
1DB
330
1F
100
AcDbEntity
  8
通り芯
  6
Continuous
 62
     3
370
     9
100
AcDbLine
 10
412.7932699370273
 20
44.17159553982719
 30
0.0
 11
413.5931933956419
 21
44.17159553982719
 31
0.0
  0
LINE
  5
1DC
330
1F
100
AcDbEntity
  8
通り芯
  6
Continuous
 62
     3
370
     9
100
AcDbLine
 10
415.1931392888006
 20
42.6965572691347
 30
0.0
 11
418.7930917803548
 21
42.6965572691347
 31
0.0
  0
LINE
  5
1DD
330
1F
100
AcDbEntity
  8
通り芯
  6
Continuous
 62
     3
370
     9
100
AcDbLine
 10
418.7930917803548
 20
42.6965572691347
 30
0.0
 11
418.7930917803548
 21
31.64658762175281
 31
0.0
  0
LINE
  5
1DE
330
1F
100
AcDbEntity
  8
通り芯
  6
Continuous
 62
     3
370
     9
100
AcDbLine
 10
422.7931049771452
 20
40.17158234303679
 30
0.0
 11
422.7931049771452
 21
34.1716615237799
 31
0.0
  0
LINE
  5
1DF
330
1F
100
AcDbEntity
  8
通り芯
  6
Continuous
 62
     3
370
     9
100
AcDbLine
 10
422.7931049771452
 20
40.17158234303679
 30
0.0
 11
423.7931577643077
 21
39.17152955587449
 31
0.0
  0
LINE
  5
1E0
330
1F
100
AcDbEntity
  8
通り芯
  6
Continuous
 62
     3
370
     9
100
AcDbLine
 10
423.7931577643077
 20
35.17161533501303
 30
0.0
 11
422.7931049771452
 21
34.1716615237799
 31
0.0
  0
LINE
  5
1E1
330
1F
100
AcDbEntity
  8
通り芯
  6
Continuous
 62
     3
370
     9
100
AcDbLine
 10
415.1931392888006
 20
31.64658762175281
 30
0.0
 11
418.7930917803548
 21
31.64658762175281
 31
0.0
  0
LINE
  5
1E2
330
1F
100
AcDbEntity
  8
通り芯
  6
Continuous
 62
     3
370
     9
100
AcDbLine
 10
423.7931577643077
 20
39.17152955587449
 30
0.0
 11
423.7931577643077
 21
35.17161533501303
 31
0.0
  0
LINE
  5
1E3
330
1F
100
AcDbEntity
  8
通り芯
  6
Continuous
 62
     3
370
     9
100
AcDbLine
 10
418.7930917803548
 20
34.1716615237799
 30
0.0
 11
422.7931049771452
 21
34.1716615237799
 31
0.0
  0
LINE
  5
1E4
330
1F
100
AcDbEntity
  8
通り芯
  6
Continuous
 62
     3
370
     9
100
AcDbLine
 10
423.7931577643077
 20
35.17161533501303
 30
0.0
 11
418.7930917803548
 21
35.17161533501303
 31
0.0
  0
LINE
  5
1E5
330
1F
100
AcDbEntity
  8
通り芯
  6
Continuous
 62
     3
370
     9
100
AcDbLine
 10
418.7930917803548
 20
39.17152955587449
 30
0.0
 11
423.7931577643077
 21
39.17152955587449
 31
0.0
  0
LINE
  5
1E6
330
1F
100
AcDbEntity
  8
通り芯
  6
Continuous
 62
     3
370
     9
100
AcDbLine
 10
418.7930917803548
 20
40.17158234303679
 30
0.0
 11
422.7931049771452
 21
40.17158234303679
 31
0.0
  0
LINE
  5
1E7
330
1F
100
AcDbEntity
  8
通り芯
  6
Continuous
 62
     3
370
     9
100
AcDbLine
 10
398.7926298926861
 20
41.67156254785095
 30
0.0
 11
412.7932699370273
 21
41.67156254785095
 31
0.0
  0
LINE
  5
1E8
330
1F
100
AcDbEntity
  8
通り芯
  6
Continuous
 62
     3
370
     9
100
AcDbLine
 10
398.7926298926861
 20
32.67148336710761
 30
0.0
 11
412.7932699370273
 21
32.67148336710761
 31
0.0
  0
LINE
  5
1E9
330
1F
100
AcDbEntity
  8
通り芯
  6
Continuous
 62
     3
370
     9
100
AcDbLine
 10
398.7926298926861
 20
34.1716615237799
 30
0.0
 11
412.7932699370273
 21
34.1716615237799
 31
0.0
  0
LINE
  5
1EA
330
1F
100
AcDbEntity
  8
通り芯
  6
Continuous
 62
     3
370
     9
100
AcDbLine
 10
412.7932699370273
 20
35.17161533501303
 30
0.0
 11
398.7926298926861
 21
35.17161533501303
 31
0.0
  0
LINE
  5
1EB
330
1F
100
AcDbEntity
  8
通り芯
  6
Continuous
 62
     3
370
     9
100
AcDbLine
 10
412.7932699370273
 20
39.17152955587449
 30
0.0
 11
398.7926298926861
 21
39.17152955587449
 31
0.0
  0
LINE
  5
1EC
330
1F
100
AcDbEntity
  8
通り芯
  6
Continuous
 62
     3
370
     9
100
AcDbLine
 10
398.7926298926861
 20
40.17158234303679
 30
0.0
 11
412.7932699370273
 21
40.17158234303679
 31
0.0
  0
LINE
  5
1ED
330
1F
100
AcDbEntity
  8
通り芯
  6
Continuous
 62
     3
370
     9
100
AcDbLine
 10
412.7932699370273
 20
30.17154935106032
 30
0.0
 11
413.5931933956419
 21
30.17154935106032
 31
0.0
  0
LINE
  5
1EE
330
1F
100
AcDbEntity
  8
通り芯
  6
Continuous
 62
     3
370
     9
100
AcDbLine
 10
437.3994777072973
 20
51.07209833754678
 30
0.0
 11
416.5082324581418
 21
49.57983825519887
 31
0.0
  0
LINE
  5
1EF
330
1F
100
AcDbEntity
  8
通り芯
  6
Continuous
 62
     3
370
     9
100
AcDbLine
 10
411.4791665269765
 20
27.00738787513137
 30
0.0
 11
398.7926298926861
 21
25.42169451575637
 31
0.0
  0
LINE
  5
1F0
330
1F
100
AcDbEntity
  8
通り芯
  6
Continuous
 62
     3
370
     9
100
AcDbLine
 10
412.7932699370273
 20
28.49578789624616
 30
0.0
 11
412.7932699370273
 21
45.5901185550299
 31
0.0
  0
LINE
  5
1F1
330
1F
100
AcDbEntity
  8
通り芯
  6
Continuous
 62
     3
370
     9
100
AcDbLine
 10
-111.2074690832431
 20
-236.8285397272757
 30
0.0
 11
-111.2074690832431
 21
-216.8285232312876
 31
0.0
  0
LINE
  5
1F2
330
1F
100
AcDbEntity
  8
通り芯
  6
Continuous
 62
     3
370
     9
100
AcDbLine
 10
-251.9942947272465
 20
-276.828473743323
 30
0.0
 11
-299.4205906520776
 21
-276.828473743323
 31
0.0
  0
LINE
  5
1F3
330
1F
100
AcDbEntity
  8
通り芯
  6
Continuous
 62
     3
370
     9
100
AcDbLine
 10
-118.6040392373816
 20
-276.828473743323
 30
0.0
 11
-165.9205708568917
 21
-276.828473743323
 31
0.0
  0
LINE
  5
1F4
330
1F
100
AcDbEntity
  8
通り芯
  6
Continuous
 62
     3
370
     9
100
AcDbLine
 10
-117.1079190938006
 20
-275.4353875418874
 30
0.0
 11
-114.3502517584965
 21
-236.8285397272757
 31
0.0
  0
LINE
  5
1F5
330
1F
100
AcDbEntity
  8
通り芯
  6
Continuous
 62
     3
370
     9
100
AcDbLine
 10
-384.0987539227702
 20
-266.3723101823011
 30
0.0
 11
-385.5117342859459
 21
-275.5566330549784
 31
0.0
  0
LINE
  5
1F6
330
1F
100
AcDbEntity
  8
通り芯
  6
Continuous
 62
     3
370
     9
100
AcDbLine
 10
-302.3160819685895
 20
-266.3723101823011
 30
0.0
 11
-300.9031510933783
 21
-275.5566330549784
 31
0.0
  0
LINE
  5
1F7
330
1F
100
AcDbEntity
  8
通り芯
  6
Continuous
 62
     3
370
     9
100
AcDbLine
 10
-305.2812028511908
 20
-263.8285298296828
 30
0.0
 11
-381.1336330401688
 21
-263.8285298296828
 31
0.0
  0
LINE
  5
1F8
330
1F
100
AcDbEntity
  8
通り芯
  6
Continuous
 62
     3
370
     9
100
AcDbLine
 10
-249.0987539227702
 20
-266.3723101823011
 30
0.0
 11
-250.5117342859458
 21
-275.5566330549784
 31
0.0
  0
LINE
  5
1F9
330
1F
100
AcDbEntity
  8
通り芯
  6
Continuous
 62
     3
370
     9
100
AcDbLine
 10
-168.816012685439
 20
-266.3723101823011
 30
0.0
 11
-167.4029828342988
 21
-275.5566330549784
 31
0.0
  0
LINE
  5
1FA
330
1F
100
AcDbEntity
  8
通り芯
  6
Continuous
 62
     3
370
     9
100
AcDbLine
 10
-171.7811335680404
 20
-263.8285298296828
 30
0.0
 11
-246.1336330401688
 21
-263.8285298296828
 31
0.0
  0
LINE
  5
1FB
330
1F
100
AcDbEntity
  8
通り芯
  6
Continuous
 62
     3
370
     9
100
AcDbLine
 10
-111.5570520646621
 20
-236.8285397272757
 30
0.0
 11
-115.6996895752195
 21
-260.5175870509668
 31
0.0
  0
LINE
  5
1FC
330
1F
100
AcDbEntity
  8
通り芯
  6
Continuous
 62
     3
370
     9
100
AcDbLine
 10
-403.7074690832432
 20
-251.6285588626222
 30
0.0
 11
-405.1824083780066
 21
-253.2285542437453
 31
0.0
  0
LINE
  5
1FD
330
1F
100
AcDbEntity
  8
通り芯
  6
Continuous
 62
     3
370
     9
100
AcDbLine
 10
-407.9449255338344
 20
-251.6285588626222
 30
0.0
 11
-407.9449255338344
 21
-256.8285562232641
 31
0.0
  0
LINE
  5
1FE
330
1F
100
AcDbEntity
  8
通り芯
  6
Continuous
 62
     3
370
     9
100
AcDbLine
 10
-405.1824083780066
 20
-253.2285542437453
 30
0.0
 11
-405.1824083780066
 21
-256.8285562232641
 31
0.0
  0
LINE
  5
1FF
330
1F
100
AcDbEntity
  8
通り芯
  6
Continuous
 62
     3
370
     9
100
AcDbLine
 10
-407.7073833041046
 20
-260.8285694200545
 30
0.0
 11
-408.7074360912668
 21
-261.828473743323
 31
0.0
  0
LINE
  5
200
330
1F
100
AcDbEntity
  8
通り芯
  6
Continuous
 62
     3
370
     9
100
AcDbLine
 10
-403.7074690832432
 20
-250.8285364280782
 30
0.0
 11
-403.7074690832432
 21
-251.6285588626222
 31
0.0
  0
LINE
  5
201
330
1F
100
AcDbEntity
  8
通り芯
  6
Continuous
 62
     3
370
     9
100
AcDbLine
 10
-408.7074360912668
 20
-256.8285562232641
 30
0.0
 11
-408.7074360912668
 21
-261.828473743323
 31
0.0
  0
LINE
  5
202
330
1F
100
AcDbEntity
  8
通り芯
  6
Continuous
 62
     3
370
     9
100
AcDbLine
 10
-407.7073833041046
 20
-256.8285562232641
 30
0.0
 11
-407.7073833041046
 21
-260.8285694200545
 31
0.0
  0
LINE
  5
203
330
1F
100
AcDbEntity
  8
通り芯
  6
Continuous
 62
     3
370
     9
100
AcDbLine
 10
-133.707370107314
 20
-251.6285588626222
 30
0.0
 11
-135.1824083780066
 21
-253.2285542437453
 31
0.0
  0
LINE
  5
204
330
1F
100
AcDbEntity
  8
通り芯
  6
Continuous
 62
     3
370
     9
100
AcDbLine
 10
-137.9449255338344
 20
-251.6285588626222
 30
0.0
 11
-137.9449255338344
 21
-256.8285562232641
 31
0.0
  0
LINE
  5
205
330
1F
100
AcDbEntity
  8
通り芯
  6
Continuous
 62
     3
370
     9
100
AcDbLine
 10
-135.1824083780066
 20
-253.2285542437453
 30
0.0
 11
-135.1824083780066
 21
-256.8285562232641
 31
0.0
  0
LINE
  5
206
330
1F
100
AcDbEntity
  8
通り芯
  6
Continuous
 62
     3
370
     9
100
AcDbLine
 10
-137.7073833041047
 20
-260.8285694200545
 30
0.0
 11
-138.7074360912667
 21
-261.828473743323
 31
0.0
  0
LINE
  5
207
330
1F
100
AcDbEntity
  8
通り芯
  6
Continuous
 62
     3
370
     9
100
AcDbLine
 10
-138.7074360912667
 20
-261.828473743323
 30
0.0
 11
-142.7074492880574
 21
-261.828473743323
 31
0.0
  0
LINE
  5
208
330
1F
100
AcDbEntity
  8
通り芯
  6
Continuous
 62
     3
370
     9
100
AcDbLine
 10
-137.7073833041047
 20
-260.8285694200545
 30
0.0
 11
-143.7075020752195
 21
-260.8285694200545
 31
0.0
  0
LINE
  5
209
330
1F
100
AcDbEntity
  8
通り芯
  6
Continuous
 62
     3
370
     9
100
AcDbLine
 10
-135.1824083780066
 20
-256.8285562232641
 30
0.0
 11
-146.2324770013175
 21
-256.8285562232641
 31
0.0
  0
LINE
  5
20A
330
1F
100
AcDbEntity
  8
通り芯
  6
Continuous
 62
     3
370
     9
100
AcDbLine
 10
-133.707370107314
 20
-251.6285588626222
 30
0.0
 11
-147.7073668081164
 21
-251.6285588626222
 31
0.0
  0
LINE
  5
20B
330
1F
100
AcDbEntity
  8
通り芯
  6
Continuous
 62
     3
370
     9
100
AcDbLine
 10
-133.707370107314
 20
-250.8285364280782
 30
0.0
 11
-133.707370107314
 21
-251.6285588626222
 31
0.0
  0
LINE
  5
20C
330
1F
100
AcDbEntity
  8
通り芯
  6
Continuous
 62
     3
370
     9
100
AcDbLine
 10
-131.5315822589188
 20
-250.8285364280782
 30
0.0
 11
-149.8832041444762
 21
-250.8285364280782
 31
0.0
  0
LINE
  5
20D
330
1F
100
AcDbEntity
  8
通り芯
  6
Continuous
 62
     3
370
     9
100
AcDbLine
 10
-138.7074360912667
 20
-256.8285562232641
 30
0.0
 11
-138.7074360912667
 21
-261.828473743323
 31
0.0
  0
LINE
  5
20E
330
1F
100
AcDbEntity
  8
通り芯
  6
Continuous
 62
     3
370
     9
100
AcDbLine
 10
-137.7073833041047
 20
-256.8285562232641
 30
0.0
 11
-137.7073833041047
 21
-260.8285694200545
 31
0.0
  0
LINE
  5
20F
330
1F
100
AcDbEntity
  8
通り芯
  6
Continuous
 62
     3
370
     9
100
AcDbLine
 10
-147.7073668081164
 20
-251.6285588626222
 30
0.0
 11
-146.2324770013175
 21
-253.2285542437453
 31
0.0
  0
LINE
  5
210
330
1F
100
AcDbEntity
  8
通り芯
  6
Continuous
 62
     3
370
     9
100
AcDbLine
 10
-143.4699598454898
 20
-251.6285588626222
 30
0.0
 11
-143.4699598454898
 21
-256.8285562232641
 31
0.0
  0
LINE
  5
211
330
1F
100
AcDbEntity
  8
通り芯
  6
Continuous
 62
     3
370
     9
100
AcDbLine
 10
-146.2324770013175
 20
-253.2285542437453
 30
0.0
 11
-146.2324770013175
 21
-256.8285562232641
 31
0.0
  0
LINE
  5
212
330
1F
100
AcDbEntity
  8
通り芯
  6
Continuous
 62
     3
370
     9
100
AcDbLine
 10
-143.7075020752195
 20
-260.8285694200545
 30
0.0
 11
-142.7074492880574
 21
-261.828473743323
 31
0.0
  0
LINE
  5
213
330
1F
100
AcDbEntity
  8
通り芯
  6
Continuous
 62
     3
370
     9
100
AcDbLine
 10
-147.7073668081164
 20
-250.8285364280782
 30
0.0
 11
-147.7073668081164
 21
-251.6285588626222
 31
0.0
  0
LINE
  5
214
330
1F
100
AcDbEntity
  8
通り芯
  6
Continuous
 62
     3
370
     9
100
AcDbLine
 10
-142.7074492880574
 20
-256.8285562232641
 30
0.0
 11
-142.7074492880574
 21
-261.828473743323
 31
0.0
  0
LINE
  5
215
330
1F
100
AcDbEntity
  8
通り芯
  6
Continuous
 62
     3
370
     9
100
AcDbLine
 10
-143.7075020752195
 20
-256.8285562232641
 30
0.0
 11
-143.7075020752195
 21
-260.8285694200545
 31
0.0
  0
LINE
  5
216
330
1F
100
AcDbEntity
  8
通り芯
  6
Continuous
 62
     3
370
     9
100
AcDbLine
 10
-128.2073767057094
 20
-231.8285232312876
 30
0.0
 11
-128.2073767057094
 21
-236.8285397272757
 31
0.0
  0
LINE
  5
217
330
1F
100
AcDbEntity
  8
通り芯
  6
Continuous
 62
     3
370
     9
100
AcDbLine
 10
-153.2074096976857
 20
-231.8285232312876
 30
0.0
 11
-153.2074096976857
 21
-236.8285397272757
 31
0.0
  0
LINE
  5
218
330
1F
100
AcDbEntity
  8
通り芯
  6
Continuous
 62
     3
370
     9
100
AcDbLine
 10
-263.2073767057094
 20
-231.8285232312876
 30
0.0
 11
-263.2073767057094
 21
-236.8285397272757
 31
0.0
  0
LINE
  5
219
330
1F
100
AcDbEntity
  8
通り芯
  6
Continuous
 62
     3
370
     9
100
AcDbLine
 10
-288.2074096976857
 20
-231.8285232312876
 30
0.0
 11
-288.2074096976857
 21
-236.8285397272757
 31
0.0
  0
LINE
  5
21A
330
1F
100
AcDbEntity
  8
通り芯
  6
Continuous
 62
     3
370
     9
100
AcDbLine
 10
-398.2073767057094
 20
-231.8285232312876
 30
0.0
 11
-398.2073767057094
 21
-236.8285397272757
 31
0.0
  0
LINE
  5
21B
330
1F
100
AcDbEntity
  8
通り芯
  6
Continuous
 62
     3
370
     9
100
AcDbLine
 10
-400.0431822378039
 20
-249.5145814819211
 30
0.0
 11
-398.4574393904645
 21
-236.8285397272757
 31
0.0
  0
LINE
  5
21C
330
1F
100
AcDbEntity
  8
通り芯
  6
Continuous
 62
     3
370
     9
100
AcDbLine
 10
-130.0431822378039
 20
-249.5145814819211
 30
0.0
 11
-128.4573899024999
 21
-236.8285397272757
 31
0.0
  0
LINE
  5
21D
330
1F
100
AcDbEntity
  8
通り芯
  6
Continuous
 62
     3
370
     9
100
AcDbLine
 10
-151.3717031415202
 20
-249.5145814819211
 30
0.0
 11
-152.9573965008952
 21
-236.8285397272757
 31
0.0
  0
LINE
  5
21E
330
1F
100
AcDbEntity
  8
通り芯
  6
Continuous
 62
     3
370
     9
100
AcDbLine
 10
-272.7612262095101
 20
-250.8285364280782
 30
0.0
 11
-278.6535601938851
 21
-250.8285364280782
 31
0.0
  0
LINE
  5
21F
330
1F
100
AcDbEntity
  8
通り芯
  6
Continuous
 62
     3
370
     9
100
AcDbLine
 10
-271.2758944421958
 20
-249.5374449215326
 30
0.0
 11
-269.4886860912667
 21
-236.8285397272757
 31
0.0
  0
LINE
  5
220
330
1F
100
AcDbEntity
  8
通り芯
  6
Continuous
 62
     3
370
     9
100
AcDbLine
 10
-280.1388919611992
 20
-249.5374449215326
 30
0.0
 11
-281.9261003121283
 21
-236.8285397272757
 31
0.0
  0
LINE
  5
221
330
1F
100
AcDbEntity
  8
通り芯
  6
JWW_CENTER1
 62
     3
370
     9
100
AcDbLine
 10
-140.7074426896621
 20
-246.8285727192522
 30
0.0
 11
-140.7074426896621
 21
-265.8284869401136
 31
0.0
  0
LINE
  5
222
330
1F
100
AcDbEntity
  8
通り芯
  6
JWW_CENTER1
 62
     3
370
     9
100
AcDbLine
 10
455.7926694830577
 20
168.1716087366177
 30
0.0
 11
358.7925969007094
 21
168.1716087366177
 31
0.0
  0
LINE
  5
223
330
1F
100
AcDbEntity
  8
通り芯
  6
JWW_CENTER1
 62
     3
370
     9
100
AcDbLine
 10
-730.2075193960071
 20
168.1716087366177
 30
0.0
 11
138.7924649328042
 21
168.1716087366177
 31
0.0
  0
LINE
  5
224
330
1F
100
AcDbEntity
  8
通り芯
  6
JWW_CENTER1
 62
     3
370
     9
100
AcDbLine
 10
389.7924517360136
 20
299.1716945157563
 30
0.0
 11
427.7932699370273
 21
299.1716945157563
 31
0.0
  0
LINE
  5
225
330
1F
100
AcDbEntity
  8
通り芯
  6
JWW_CENTER1
 62
     3
370
     9
100
AcDbLine
 10
389.7924517360136
 20
37.17152295747928
 30
0.0
 11
427.7932699370273
 21
37.17152295747928
 31
0.0
  0
LINE
  5
226
330
1F
100
AcDbEntity
  8
通り芯
  6
JWW_PHANTOM2
 62
     3
370
     9
100
AcDbLine
 10
-110.2073668081164
 20
32.1716549253847
 30
0.0
 11
118.7924979247805
 21
32.1716549253847
 31
0.0
  0
LINE
  5
227
330
1F
100
AcDbEntity
  8
通り芯
  6
JWW_PHANTOM2
 62
     3
370
     9
100
AcDbLine
 10
-110.2073668081164
 20
304.1715625478508
 30
0.0
 11
118.7924979247805
 21
304.1715625478508
 31
0.0
  0
LINE
  5
228
330
1F
100
AcDbEntity
  8
通り芯
  6
JWW_PHANTOM2
 62
     3
370
     9
100
AcDbLine
 10
-110.2073668081164
 20
32.1716549253847
 30
0.0
 11
-110.2073668081164
 21
304.1715625478508
 31
0.0
  0
LINE
  5
229
330
1F
100
AcDbEntity
  8
0-E
  6
Continuous
 62
     7
370
     9
100
AcDbLine
 10
557.2948601502873
 20
229.790755960013
 30
0.0
 11
435.7926034991048
 21
194.3450508554944
 31
0.0
  0
LINE
  5
22A
330
1F
100
AcDbEntity
  8
0-E
  6
Continuous
 62
     7
370
     9
100
AcDbLine
 10
557.2948601502873
 20
229.790755960013
 30
0.0
 11
706.3601314763006
 21
229.790755960013
 31
0.0
  0
LINE
  5
22B
330
1F
100
AcDbEntity
  8
躯体
  6
JWW_DASHED3
 62
     2
370
     9
100
AcDbLine
 10
-710.20751527201
 20
268.1714932647005
 30
0.0
 11
-111.207370107314
 21
268.1714932647005
 31
0.0
  0
LINE
  5
22C
330
1F
100
AcDbEntity
  8
躯体
  6
Continuous
 62
     2
370
     9
100
AcDbLine
 10
-111.207370107314
 20
268.1714932647005
 30
0.0
 11
118.7924979247805
 21
268.1714932647005
 31
0.0
  0
LINE
  5
22D
330
1F
100
AcDbEntity
  8
躯体
  6
JWW_DASHED3
 62
     2
370
     9
100
AcDbLine
 10
-710.20751527201
 20
68.171526256677
 30
0.0
 11
-111.207370107314
 21
68.171526256677
 31
0.0
  0
LINE
  5
22E
330
1F
100
AcDbEntity
  8
躯体
  6
Continuous
 62
     2
370
     9
100
AcDbLine
 10
-111.207370107314
 20
68.171526256677
 30
0.0
 11
118.7924979247805
 21
68.171526256677
 31
0.0
  0
ARC
  5
22F
330
1F
100
AcDbEntity
  8
通り芯
  6
Continuous
 62
     3
370
     9
100
AcDbCircle
 10
414.7927816557773
 20
275.9408067676566
 30
0.0
 40
4.000000051549963
100
AcDbArc
 50
0.0
 51
85.71116638183594
  0
CIRCLE
  5
230
330
1F
100
AcDbEntity
  8
通り芯
  6
Continuous
 62
     3
370
     9
100
AcDbCircle
 10
403.7926958766386
 20
168.1716087366177
 30
0.0
 40
2.000000025774982
  0
ARC
  5
231
330
1F
100
AcDbEntity
  8
通り芯
  6
Continuous
 62
     3
370
     9
100
AcDbCircle
 10
419.7924517360135
 20
255.3209535159674
 30
0.0
 40
1.000000012887491
100
AcDbArc
 50
0.0
 51
38.66105651855469
  0
ARC
  5
232
330
1F
100
AcDbEntity
  8
通り芯
  6
Continuous
 62
     3
370
     9
100
AcDbCircle
 10
419.7927486638006
 20
258.5224784051144
 30
0.0
 40
1.000000012887491
100
AcDbArc
 50
180.0
 51
218.6610565185547
  0
ARC
  5
233
330
1F
100
AcDbEntity
  8
通り芯
  6
Continuous
 62
     3
370
     9
100
AcDbCircle
 10
437.2925837039189
 20
283.7749000161785
 30
0.0
 40
1.500000019331236
100
AcDbArc
 50
0.0
 51
85.91419982910156
  0
ARC
  5
234
330
1F
100
AcDbEntity
  8
通り芯
  6
Continuous
 62
     3
370
     9
100
AcDbCircle
 10
437.2925837039189
 20
280.4585135613644
 30
0.0
 40
1.500000019331236
100
AcDbArc
 50
278.7463684082031
 51
0.0
  0
ARC
  5
235
330
1F
100
AcDbEntity
  8
通り芯
  6
Continuous
 62
     3
370
     9
100
AcDbCircle
 10
429.7927816557773
 20
273.7399285212462
 30
0.0
 40
4.000000051549963
100
AcDbArc
 50
98.74600219726562
 51
180.0
  0
ARC
  5
236
330
1F
100
AcDbEntity
  8
通り芯
  6
Continuous
 62
     3
370
     9
100
AcDbCircle
 10
-696.1896781599957
 20
277.302022719937
 30
0.0
 40
4.000000051549963
100
AcDbArc
 50
90.0
 51
180.0
  0
ARC
  5
237
330
1F
100
AcDbEntity
  8
通り芯
  6
Continuous
 62
     3
370
     9
100
AcDbCircle
 10
-695.6182901215667
 20
276.6519983058745
 30
0.0
 40
3.000000038662472
100
AcDbArc
 50
90.0
 51
180.0
  0
ARC
  5
238
330
1F
100
AcDbEntity
  8
通り芯
  6
Continuous
 62
     3
370
     9
100
AcDbCircle
 10
-434.4205906520776
 20
-275.328592514438
 30
0.0
 40
1.500000019331236
100
AcDbArc
 50
188.7459106445312
 51
270.0
  0
ARC
  5
239
330
1F
100
AcDbEntity
  8
通り芯
  6
Continuous
 62
     3
370
     9
100
AcDbCircle
 10
-521.9943194712288
 20
-275.328592514438
 30
0.0
 40
1.500000019331236
100
AcDbArc
 50
270.0
 51
351.2540893554688
  0
ARC
  5
23A
330
1F
100
AcDbEntity
  8
通り芯
  6
Continuous
 62
     3
370
     9
100
AcDbCircle
 10
-569.4205906520775
 20
-275.328592514438
 30
0.0
 40
1.500000019331236
100
AcDbArc
 50
188.7460174560547
 51
270.0
  0
ARC
  5
23B
330
1F
100
AcDbEntity
  8
通り芯
  6
Continuous
 62
     3
370
     9
100
AcDbCircle
 10
-655.4943145224323
 20
-275.328592514438
 30
0.0
 40
1.500000019331236
100
AcDbArc
 50
270.0
 51
351.2539978027344
  0
ARC
  5
23C
330
1F
100
AcDbEntity
  8
通り芯
  6
Continuous
 62
     3
370
     9
100
AcDbCircle
 10
-702.810796653978
 20
-275.328592514438
 30
0.0
 40
1.500000019331236
100
AcDbArc
 50
184.0851135253906
 51
270.0
  0
ARC
  5
23D
330
1F
100
AcDbEntity
  8
通り芯
  6
Continuous
 62
     3
370
     9
100
AcDbCircle
 10
-440.2812523391553
 20
-266.8285397272757
 30
0.0
 40
3.000000038662472
100
AcDbArc
 50
8.746337890625
 51
90.0
  0
ARC
  5
23E
330
1F
100
AcDbEntity
  8
通り芯
  6
Continuous
 62
     3
370
     9
100
AcDbCircle
 10
-516.1336825281334
 20
-266.8285397272757
 30
0.0
 40
3.000000038662472
100
AcDbArc
 50
90.0
 51
171.253662109375
  0
ARC
  5
23F
330
1F
100
AcDbEntity
  8
通り芯
  6
Continuous
 62
     3
370
     9
100
AcDbCircle
 10
-575.2812028511909
 20
-266.8285397272757
 30
0.0
 40
3.000000038662472
100
AcDbArc
 50
8.746292114257812
 51
90.0
  0
ARC
  5
240
330
1F
100
AcDbEntity
  8
通り芯
  6
Continuous
 62
     3
370
     9
100
AcDbCircle
 10
-649.6337518112838
 20
-266.8285397272757
 30
0.0
 40
3.000000038662472
100
AcDbArc
 50
90.0
 51
171.2537078857422
  0
ARC
  5
241
330
1F
100
AcDbEntity
  8
通り芯
  6
Continuous
 62
     3
370
     9
100
AcDbCircle
 10
-701.7748650925338
 20
-259.828566120857
 30
0.0
 40
4.000000051549963
100
AcDbArc
 50
189.9193572998047
 51
208.6634521484375
  0
ARC
  5
242
330
1F
100
AcDbEntity
  8
通り芯
  6
Continuous
 62
     3
370
     9
100
AcDbCircle
 10
416.7931841578885
 20
290.7530989182055
 30
0.0
 40
4.000000051549963
100
AcDbArc
 50
180.0
 51
265.9141693115234
  0
ARC
  5
243
330
1F
100
AcDbEntity
  8
通り芯
  6
Continuous
 62
     3
370
     9
100
AcDbCircle
 10
411.2930917803548
 20
307.8474295769895
 30
0.0
 40
1.500000019331236
100
AcDbArc
 50
0.0
 51
82.87332153320312
  0
ARC
  5
244
330
1F
100
AcDbEntity
  8
通り芯
  6
Continuous
 62
     3
370
     9
100
AcDbCircle
 10
-419.8832536324408
 20
-249.3285067352995
 30
0.0
 40
1.500000019331236
100
AcDbArc
 50
187.1250152587891
 51
270.0
  0
ARC
  5
245
330
1F
100
AcDbEntity
  8
通り芯
  6
Continuous
 62
     3
370
     9
100
AcDbCircle
 10
-689.8832536324409
 20
-249.3285067352995
 30
0.0
 40
1.500000019331236
100
AcDbArc
 50
187.1250152587891
 51
270.0
  0
ARC
  5
246
330
1F
100
AcDbEntity
  8
通り芯
  6
Continuous
 62
     3
370
     9
100
AcDbCircle
 10
-671.5316317468834
 20
-249.3285067352995
 30
0.0
 40
1.500000019331236
100
AcDbArc
 50
270.0
 51
352.8749847412109
  0
ARC
  5
247
330
1F
100
AcDbEntity
  8
通り芯
  6
Continuous
 62
     3
370
     9
100
AcDbCircle
 10
-548.6536096818496
 20
-249.3285067352995
 30
0.0
 40
1.500000019331236
100
AcDbArc
 50
188.004867553711
 51
270.0
  0
ARC
  5
248
330
1F
100
AcDbEntity
  8
通り芯
  6
Continuous
 62
     3
370
     9
100
AcDbCircle
 10
-542.7612756974746
 20
-249.3285067352995
 30
0.0
 40
1.500000019331236
100
AcDbArc
 50
270.0
 51
351.9951324462891
  0
ARC
  5
249
330
1F
100
AcDbEntity
  8
通り芯
  6
Continuous
 62
     3
370
     9
100
AcDbCircle
 10
-125.2252814512752
 20
277.302022719937
 30
0.0
 40
4.000000051549963
100
AcDbArc
 50
0.0
 51
90.0
  0
ARC
  5
24A
330
1F
100
AcDbEntity
  8
通り芯
  6
Continuous
 62
     3
370
     9
100
AcDbCircle
 10
-125.7966200017398
 20
276.6519983058745
 30
0.0
 40
3.000000038662472
100
AcDbArc
 50
0.0
 51
90.0
  0
ARC
  5
24B
330
1F
100
AcDbEntity
  8
通り芯
  6
Continuous
 62
     3
370
     9
100
AcDbCircle
 10
-696.1896781599957
 20
59.04119475329844
 30
0.0
 40
4.000000051549963
100
AcDbArc
 50
180.0
 51
270.0
  0
ARC
  5
24C
330
1F
100
AcDbEntity
  8
通り芯
  6
Continuous
 62
     3
370
     9
100
AcDbCircle
 10
-695.6182901215667
 20
59.69121916736094
 30
0.0
 40
3.000000038662472
100
AcDbArc
 50
180.0
 51
270.0
  0
ARC
  5
24D
330
1F
100
AcDbEntity
  8
通り芯
  6
Continuous
 62
     3
370
     9
100
AcDbCircle
 10
-125.2252814512752
 20
59.04119475329844
 30
0.0
 40
4.000000051549963
100
AcDbArc
 50
270.0
 51
0.0
  0
ARC
  5
24E
330
1F
100
AcDbEntity
  8
通り芯
  6
Continuous
 62
     3
370
     9
100
AcDbCircle
 10
-125.7966200017398
 20
59.69121916736094
 30
0.0
 40
3.000000038662472
100
AcDbArc
 50
270.0
 51
0.0
  0
ARC
  5
24F
330
1F
100
AcDbEntity
  8
通り芯
  6
Continuous
 62
     3
370
     9
100
AcDbCircle
 10
414.7927816557773
 20
60.40241070557886
 30
0.0
 40
4.000000051549963
100
AcDbArc
 50
274.2888336181641
 51
0.0
  0
ARC
  5
250
330
1F
100
AcDbEntity
  8
通り芯
  6
Continuous
 62
     3
370
     9
100
AcDbCircle
 10
419.7924517360135
 20
81.02226395726802
 30
0.0
 40
1.000000012887491
100
AcDbArc
 50
321.3389434814453
 51
0.0000000000000127
  0
ARC
  5
251
330
1F
100
AcDbEntity
  8
通り芯
  6
Continuous
 62
     3
370
     9
100
AcDbCircle
 10
419.7927486638006
 20
77.82073906812104
 30
0.0
 40
1.000000012887491
100
AcDbArc
 50
141.3389434814453
 51
180.0
  0
ARC
  5
252
330
1F
100
AcDbEntity
  8
通り芯
  6
Continuous
 62
     3
370
     9
100
AcDbCircle
 10
437.2925837039189
 20
52.56831745705699
 30
0.0
 40
1.500000019331236
100
AcDbArc
 50
274.0858001708984
 51
0.0000000000000254
  0
ARC
  5
253
330
1F
100
AcDbEntity
  8
通り芯
  6
Continuous
 62
     3
370
     9
100
AcDbCircle
 10
437.2925837039189
 20
55.88470391187116
 30
0.0
 40
1.500000019331236
100
AcDbArc
 50
0.0
 51
81.25363159179688
  0
ARC
  5
254
330
1F
100
AcDbEntity
  8
通り芯
  6
Continuous
 62
     3
370
     9
100
AcDbCircle
 10
429.7927816557773
 20
62.6032889519895
 30
0.0
 40
4.000000051549963
100
AcDbArc
 50
180.0
 51
261.2539978027344
  0
ARC
  5
255
330
1F
100
AcDbEntity
  8
通り芯
  6
Continuous
 62
     3
370
     9
100
AcDbCircle
 10
416.7931841578885
 20
45.5901185550299
 30
0.0
 40
4.000000051549963
100
AcDbArc
 50
94.08583068847656
 51
180.0
  0
ARC
  5
256
330
1F
100
AcDbEntity
  8
通り芯
  6
Continuous
 62
     3
370
     9
100
AcDbCircle
 10
411.2930917803548
 20
28.49578789624616
 30
0.0
 40
1.500000019331236
100
AcDbArc
 50
277.1266784667969
 51
0.0000000000000127
  0
ARC
  5
257
330
1F
100
AcDbEntity
  8
通り芯
  6
Continuous
 62
     3
370
     9
100
AcDbCircle
 10
-386.9942947272465
 20
-275.328592514438
 30
0.0
 40
1.500000019331236
100
AcDbArc
 50
270.0
 51
351.2540893554688
  0
ARC
  5
258
330
1F
100
AcDbEntity
  8
通り芯
  6
Continuous
 62
     3
370
     9
100
AcDbCircle
 10
-299.4205906520776
 20
-275.328592514438
 30
0.0
 40
1.500000019331236
100
AcDbArc
 50
188.7459106445312
 51
270.0
  0
ARC
  5
259
330
1F
100
AcDbEntity
  8
通り芯
  6
Continuous
 62
     3
370
     9
100
AcDbCircle
 10
-251.9942947272465
 20
-275.328592514438
 30
0.0
 40
1.500000019331236
100
AcDbArc
 50
270.0
 51
351.2539825439453
  0
ARC
  5
25A
330
1F
100
AcDbEntity
  8
通り芯
  6
Continuous
 62
     3
370
     9
100
AcDbCircle
 10
-165.9205708568917
 20
-275.328592514438
 30
0.0
 40
1.500000019331236
100
AcDbArc
 50
188.7460021972657
 51
270.0
  0
ARC
  5
25B
330
1F
100
AcDbEntity
  8
通り芯
  6
Continuous
 62
     3
370
     9
100
AcDbCircle
 10
-118.6040392373816
 20
-275.328592514438
 30
0.0
 40
1.500000019331236
100
AcDbArc
 50
270.0
 51
355.9148864746094
  0
ARC
  5
25C
330
1F
100
AcDbEntity
  8
通り芯
  6
Continuous
 62
     3
370
     9
100
AcDbCircle
 10
-381.1336330401688
 20
-266.8285397272757
 30
0.0
 40
3.000000038662472
100
AcDbArc
 50
90.0
 51
171.253662109375
  0
ARC
  5
25D
330
1F
100
AcDbEntity
  8
通り芯
  6
Continuous
 62
     3
370
     9
100
AcDbCircle
 10
-305.2812028511908
 20
-266.8285397272757
 30
0.0
 40
3.000000038662472
100
AcDbArc
 50
8.746337890625
 51
90.0
  0
ARC
  5
25E
330
1F
100
AcDbEntity
  8
通り芯
  6
Continuous
 62
     3
370
     9
100
AcDbCircle
 10
-246.1336330401688
 20
-266.8285397272757
 30
0.0
 40
3.000000038662472
100
AcDbArc
 50
90.0
 51
171.2537078857422
  0
ARC
  5
25F
330
1F
100
AcDbEntity
  8
通り芯
  6
Continuous
 62
     3
370
     9
100
AcDbCircle
 10
-171.7811335680404
 20
-266.8285397272757
 30
0.0
 40
3.000000038662472
100
AcDbArc
 50
8.746292114257812
 51
90.0
  0
ARC
  5
260
330
1F
100
AcDbEntity
  8
通り芯
  6
Continuous
 62
     3
370
     9
100
AcDbCircle
 10
-119.6400202867904
 20
-259.828566120857
 30
0.0
 40
4.000000051549963
100
AcDbArc
 50
331.3365478515625
 51
350.0806427001953
  0
ARC
  5
261
330
1F
100
AcDbEntity
  8
通り芯
  6
Continuous
 62
     3
370
     9
100
AcDbCircle
 10
-401.5316317468834
 20
-249.3285067352995
 30
0.0
 40
1.500000019331236
100
AcDbArc
 50
270.0
 51
352.8749847412109
  0
ARC
  5
262
330
1F
100
AcDbEntity
  8
通り芯
  6
Continuous
 62
     3
370
     9
100
AcDbCircle
 10
-131.5315822589188
 20
-249.3285067352995
 30
0.0
 40
1.500000019331236
100
AcDbArc
 50
270.0
 51
352.8749847412109
  0
ARC
  5
263
330
1F
100
AcDbEntity
  8
通り芯
  6
Continuous
 62
     3
370
     9
100
AcDbCircle
 10
-149.8832041444762
 20
-249.3285067352995
 30
0.0
 40
1.500000019331236
100
AcDbArc
 50
187.1250152587891
 51
270.0
  0
ARC
  5
264
330
1F
100
AcDbEntity
  8
通り芯
  6
Continuous
 62
     3
370
     9
100
AcDbCircle
 10
-272.7612262095101
 20
-249.3285067352995
 30
0.0
 40
1.500000019331236
100
AcDbArc
 50
270.0
 51
351.9951324462891
  0
ARC
  5
265
330
1F
100
AcDbEntity
  8
通り芯
  6
Continuous
 62
     3
370
     9
100
AcDbCircle
 10
-278.6535601938851
 20
-249.3285067352995
 30
0.0
 40
1.500000019331236
100
AcDbArc
 50
188.004867553711
 51
270.0
  0
TEXT
  5
266
330
1F
100
AcDbEntity
  8
0-E
  6
Continuous
 62
     7
370
     9
100
AcDbText
 10
564.6875834399831
 20
215.2277906675721
 30
0.0
 40
9.144
  1
樹脂系塗装
 41
1.133333333333333
  7
ＭＳ ゴシック
100
AcDbText
  0
TEXT
  5
267
330
1F
100
AcDbEntity
  8
0-E
  6
Continuous
 62
     7
370
     9
100
AcDbText
 10
141.5225146847044
 20
-66.66426618420155
 30
0.0
 40
9.144
  1
排水口グレーチング（Ｐ＝１５）
 41
1.155555555555555
  7
ＭＳ ゴシック
100
AcDbText
  0
TEXT
  5
268
330
1F
100
AcDbEntity
  8
0-E
  6
Continuous
 62
     7
370
     9
100
AcDbText
 10
139.9697704121117
 20
-85.57940752182822
 30
0.0
 40
9.144
  1
ＳＵＳ３０４
 41
1.138888888888889
  7
ＭＳ ゴシック
100
AcDbText
  0
TEXT
  5
269
330
1F
100
AcDbEntity
  8
0-E
  6
Continuous
 62
     7
370
     9
100
AcDbText
 10
565.6689957605068
 20
237.305509866263
 30
0.0
 40
9.144
  1
蓋本体：ＦＣＤ５００
 41
1.15
  7
ＭＳ ゴシック
100
AcDbText
  0
LINE
  5
26A
330
1F
100
AcDbEntity
  8
0-F
  6
Continuous
 62
     7
370
     9
100
AcDbLine
 10
-706.2075020752194
 20
-56.82853972727571
 30
0.0
 11
-115.2074822800336
 21
-56.82853972727571
 31
0.0
  0
LINE
  5
26B
330
1F
100
AcDbEntity
  8
0-F
  6
Continuous
 62
     7
370
     9
100
AcDbLine
 10
-706.2075020752194
 20
-56.82853972727571
 30
0.0
 11
-694.3101994992061
 21
-55.26224564999529
 31
0.0
  0
LINE
  5
26C
330
1F
100
AcDbEntity
  8
0-F
  6
Continuous
 62
     7
370
     9
100
AcDbLine
 10
-706.2075020752194
 20
-56.82853972727571
 30
0.0
 11
-694.3101994992061
 21
-58.39483380455613
 31
0.0
  0
LINE
  5
26D
330
1F
100
AcDbEntity
  8
0-F
  6
Continuous
 62
     7
370
     9
100
AcDbLine
 10
-115.2074822800336
 20
-56.82853972727571
 30
0.0
 11
-127.1047848560472
 21
-55.26224564999529
 31
0.0
  0
LINE
  5
26E
330
1F
100
AcDbEntity
  8
0-F
  6
Continuous
 62
     7
370
     9
100
AcDbLine
 10
-115.2074822800336
 20
-56.82853972727571
 30
0.0
 11
-127.1047848560472
 21
-58.39483380455613
 31
0.0
  0
LINE
  5
26F
330
1F
100
AcDbEntity
  8
0-F
  6
Continuous
 62
     7
370
     9
100
AcDbLine
 10
-710.20751527201
 20
-96.82852323128759
 30
0.0
 11
-698.3102126959965
 21
-95.26222915400717
 31
0.0
  0
LINE
  5
270
330
1F
100
AcDbEntity
  8
0-F
  6
Continuous
 62
     7
370
     9
100
AcDbLine
 10
-710.20751527201
 20
-96.82852323128759
 30
0.0
 11
-698.3102126959965
 21
-98.39481730856801
 31
0.0
  0
LINE
  5
271
330
1F
100
AcDbEntity
  8
0-F
  6
Continuous
 62
     7
370
     9
100
AcDbLine
 10
-111.2074690832431
 20
-96.82852323128759
 30
0.0
 11
-123.1047716592566
 21
-95.26222915400717
 31
0.0
  0
LINE
  5
272
330
1F
100
AcDbEntity
  8
0-F
  6
Continuous
 62
     7
370
     9
100
AcDbLine
 10
-111.2074690832431
 20
-96.82852323128759
 30
0.0
 11
-123.1047716592566
 21
-98.39481730856801
 31
0.0
  0
LINE
  5
273
330
1F
100
AcDbEntity
  8
0-F
  6
Continuous
 62
     7
370
     9
100
AcDbLine
 10
-110.20751527201
 20
-96.82852323128759
 30
0.0
 11
-98.31021269599654
 21
-95.26222915400717
 31
0.0
  0
LINE
  5
274
330
1F
100
AcDbEntity
  8
0-F
  6
Continuous
 62
     7
370
     9
100
AcDbLine
 10
-110.20751527201
 20
-96.82852323128759
 30
0.0
 11
-98.31021269599654
 21
-98.39481730856801
 31
0.0
  0
LINE
  5
275
330
1F
100
AcDbEntity
  8
0-F
  6
Continuous
 62
     7
370
     9
100
AcDbLine
 10
374.7925507119427
 20
23.17142728074782
 30
0.0
 11
277.5925467529057
 21
23.17142728074782
 31
0.0
  0
LINE
  5
276
330
1F
100
AcDbEntity
  8
0-F
  6
Continuous
 62
     7
370
     9
100
AcDbLine
 10
374.7925507119427
 20
51.17156914624616
 30
0.0
 11
317.5925797448819
 21
51.17156914624616
 31
0.0
  0
LINE
  5
277
330
1F
100
AcDbEntity
  8
0-F
  6
Continuous
 62
     7
370
     9
100
AcDbLine
 10
318.7925639087331
 20
23.17142728074782
 30
0.0
 11
317.2262698314527
 21
35.06877934472595
 31
0.0
  0
LINE
  5
278
330
1F
100
AcDbEntity
  8
0-F
  6
Continuous
 62
     7
370
     9
100
AcDbLine
 10
318.7925639087331
 20
23.17142728074782
 30
0.0
 11
320.3588579860136
 21
35.06877934472595
 31
0.0
  0
LINE
  5
279
330
1F
100
AcDbEntity
  8
0-F
  6
Continuous
 62
     7
370
     9
100
AcDbLine
 10
320.3588579860136
 20
63.06892121022429
 30
0.0
 11
317.2262698314527
 21
39.27421708226802
 31
0.0
  0
LINE
  5
27A
330
1F
100
AcDbEntity
  8
0-F
  6
Continuous
 62
     7
370
     9
100
AcDbLine
 10
317.2262698314527
 20
63.06892121022429
 30
0.0
 11
320.3588579860136
 21
39.27421708226802
 31
0.0
  0
LINE
  5
27B
330
1F
100
AcDbEntity
  8
0-F
  6
Continuous
 62
     7
370
     9
100
AcDbLine
 10
374.7925507119427
 20
285.1715493510603
 30
0.0
 11
317.5925797448819
 21
285.1715493510603
 31
0.0
  0
LINE
  5
27C
330
1F
100
AcDbEntity
  8
0-F
  6
Continuous
 62
     7
370
     9
100
AcDbLine
 10
318.7925639087331
 20
285.1715493510603
 30
0.0
 11
317.2262698314527
 21
273.2742962630114
 31
0.0
  0
LINE
  5
27D
330
1F
100
AcDbEntity
  8
0-F
  6
Continuous
 62
     7
370
     9
100
AcDbLine
 10
318.7925639087331
 20
285.1715493510603
 30
0.0
 11
320.3588579860136
 21
273.2742962630114
 31
0.0
  0
LINE
  5
27E
330
1F
100
AcDbEntity
  8
0-F
  6
Continuous
 62
     7
370
     9
100
AcDbLine
 10
374.7925507119427
 20
313.1715427526651
 30
0.0
 11
277.5925467529057
 21
313.1715427526651
 31
0.0
  0
LINE
  5
27F
330
1F
100
AcDbEntity
  8
0-F
  6
Continuous
 62
     7
370
     9
100
AcDbLine
 10
374.7925507119427
 20
18.17146027272429
 30
0.0
 11
237.5925137609291
 21
18.17146027272429
 31
0.0
  0
LINE
  5
280
330
1F
100
AcDbEntity
  8
0-F
  6
Continuous
 62
     7
370
     9
100
AcDbLine
 10
374.7925507119427
 20
21.17147017031721
 30
0.0
 11
277.5925467529057
 21
21.17147017031721
 31
0.0
  0
LINE
  5
281
330
1F
100
AcDbEntity
  8
0-F
  6
Continuous
 62
     7
370
     9
100
AcDbLine
 10
278.7925309167569
 20
-5.558018717985306
 30
0.0
 11
278.7925309167569
 21
341.9009887513982
 31
0.0
  0
LINE
  5
282
330
1F
100
AcDbEntity
  8
0-F
  6
Continuous
 62
     7
370
     9
100
AcDbLine
 10
278.7925309167569
 20
313.1715427526651
 30
0.0
 11
277.2262368394765
 21
301.2742401766515
 31
0.0
  0
LINE
  5
283
330
1F
100
AcDbEntity
  8
0-F
  6
Continuous
 62
     7
370
     9
100
AcDbLine
 10
278.7925309167569
 20
313.1715427526651
 30
0.0
 11
280.3588249940373
 21
301.2742401766515
 31
0.0
  0
LINE
  5
284
330
1F
100
AcDbEntity
  8
0-F
  6
Continuous
 62
     7
370
     9
100
AcDbLine
 10
374.7925507119427
 20
315.1715493510603
 30
0.0
 11
277.5925467529057
 21
315.1715493510603
 31
0.0
  0
LINE
  5
285
330
1F
100
AcDbEntity
  8
0-F
  6
Continuous
 62
     7
370
     9
100
AcDbLine
 10
374.7925507119427
 20
318.1715097606887
 30
0.0
 11
237.5925137609291
 21
318.1715097606887
 31
0.0
  0
LINE
  5
286
330
1F
100
AcDbEntity
  8
0-F
  6
Continuous
 62
     7
370
     9
100
AcDbLine
 10
278.7925309167569
 20
318.1715097606887
 30
0.0
 11
277.2262368394765
 21
330.0688123367022
 31
0.0
  0
LINE
  5
287
330
1F
100
AcDbEntity
  8
0-F
  6
Continuous
 62
     7
370
     9
100
AcDbLine
 10
278.7925309167569
 20
318.1715097606887
 30
0.0
 11
280.3588249940373
 21
330.0688123367022
 31
0.0
  0
LINE
  5
288
330
1F
100
AcDbEntity
  8
0-F
  6
Continuous
 62
     7
370
     9
100
AcDbLine
 10
238.7924979247805
 20
18.17146027272429
 30
0.0
 11
238.7924979247805
 21
318.1715097606887
 31
0.0
  0
LINE
  5
289
330
1F
100
AcDbEntity
  8
0-F
  6
Continuous
 62
     7
370
     9
100
AcDbLine
 10
238.7924979247805
 20
18.17146027272429
 30
0.0
 11
237.2262038475001
 21
30.06881233670219
 31
0.0
  0
LINE
  5
28A
330
1F
100
AcDbEntity
  8
0-F
  6
Continuous
 62
     7
370
     9
100
AcDbLine
 10
238.7924979247805
 20
18.17146027272429
 30
0.0
 11
240.358792002061
 21
30.06881233670219
 31
0.0
  0
LINE
  5
28B
330
1F
100
AcDbEntity
  8
0-F
  6
Continuous
 62
     7
370
     9
100
AcDbLine
 10
238.7924979247805
 20
318.1715097606887
 30
0.0
 11
237.2262038475001
 21
306.2742071846751
 31
0.0
  0
LINE
  5
28C
330
1F
100
AcDbEntity
  8
0-F
  6
Continuous
 62
     7
370
     9
100
AcDbLine
 10
238.7924979247805
 20
318.1715097606887
 30
0.0
 11
240.358792002061
 21
306.2742071846751
 31
0.0
  0
LINE
  5
28D
330
1F
100
AcDbEntity
  8
0-F
  6
Continuous
 62
     7
370
     9
100
AcDbLine
 10
278.7925309167569
 20
23.17147676871241
 30
0.0
 11
277.2262368394765
 21
35.06877934472595
 31
0.0
  0
LINE
  5
28E
330
1F
100
AcDbEntity
  8
0-F
  6
Continuous
 62
     7
370
     9
100
AcDbLine
 10
278.7925309167569
 20
23.17147676871241
 30
0.0
 11
280.3588249940373
 21
35.06877934472595
 31
0.0
  0
LINE
  5
28F
330
1F
100
AcDbEntity
  8
0-F
  6
Continuous
 62
     7
370
     9
100
AcDbLine
 10
278.7925309167569
 20
18.17146027272429
 30
0.0
 11
277.2262368394765
 21
6.274157696710745
 31
0.0
  0
LINE
  5
290
330
1F
100
AcDbEntity
  8
0-F
  6
Continuous
 62
     7
370
     9
100
AcDbLine
 10
278.7925309167569
 20
18.17146027272429
 30
0.0
 11
280.3588249940373
 21
6.274157696710745
 31
0.0
  0
LINE
  5
291
330
1F
100
AcDbEntity
  8
0-F
  6
Continuous
 62
     7
370
     9
100
AcDbLine
 10
378.7923659568752
 20
118.334358155959
 30
0.0
 11
462.8249092423481
 21
118.334358155959
 31
0.0
  0
LINE
  5
292
330
1F
100
AcDbEntity
  8
0-F
  6
Continuous
 62
     7
370
     9
100
AcDbLine
 10
378.7923659568752
 20
118.334358155959
 30
0.0
 11
390.6896685328886
 21
119.9006522332394
 31
0.0
  0
LINE
  5
293
330
1F
100
AcDbEntity
  8
0-F
  6
Continuous
 62
     7
370
     9
100
AcDbLine
 10
378.7923659568752
 20
118.334358155959
 30
0.0
 11
390.6896685328886
 21
116.7680640786785
 31
0.0
  0
LINE
  5
294
330
1F
100
AcDbEntity
  8
0-F
  6
Continuous
 62
     7
370
     9
100
AcDbLine
 10
418.7924979247806
 20
118.334358155959
 30
0.0
 11
406.8951953487669
 21
119.9006522332394
 31
0.0
  0
LINE
  5
295
330
1F
100
AcDbEntity
  8
0-F
  6
Continuous
 62
     7
370
     9
100
AcDbLine
 10
418.7924979247806
 20
118.334358155959
 30
0.0
 11
406.8951953487669
 21
116.7680640786785
 31
0.0
  0
LINE
  5
296
330
1F
100
AcDbEntity
  8
0-F
  6
Continuous
 62
     7
370
     9
100
AcDbLine
 10
435.7926034991048
 20
118.334358155959
 30
0.0
 11
447.6899060751185
 21
119.9006522332394
 31
0.0
  0
LINE
  5
297
330
1F
100
AcDbEntity
  8
0-F
  6
Continuous
 62
     7
370
     9
100
AcDbLine
 10
435.7926034991048
 20
118.334358155959
 30
0.0
 11
447.6899060751185
 21
116.7680640786785
 31
0.0
  0
LINE
  5
298
330
1F
100
AcDbEntity
  8
0-F
  6
Continuous
 62
     7
370
     9
100
AcDbLine
 10
-710.20751527201
 20
14.17154605186261
 30
0.0
 11
-710.20751527201
 21
-98.02850739513906
 31
0.0
  0
LINE
  5
299
330
1F
100
AcDbEntity
  8
0-F
  6
Continuous
 62
     7
370
     9
100
AcDbLine
 10
-706.2075020752194
 20
14.17154605186261
 30
0.0
 11
-706.2075020752194
 21
-58.02852389112718
 31
0.0
  0
LINE
  5
29A
330
1F
100
AcDbEntity
  8
0-F
  6
Continuous
 62
     7
370
     9
100
AcDbLine
 10
-115.2074822800336
 20
14.17154605186261
 30
0.0
 11
-115.2074822800336
 21
-58.02852389112718
 31
0.0
  0
LINE
  5
29B
330
1F
100
AcDbEntity
  8
0-F
  6
Continuous
 62
     7
370
     9
100
AcDbLine
 10
-111.2074690832431
 20
14.17154605186261
 30
0.0
 11
-111.2074690832431
 21
-98.02850739513906
 31
0.0
  0
LINE
  5
29C
330
1F
100
AcDbEntity
  8
0-F
  6
Continuous
 62
     7
370
     9
100
AcDbLine
 10
-110.20751527201
 20
14.17154605186261
 30
0.0
 11
-110.20751527201
 21
-98.02850739513906
 31
0.0
  0
LINE
  5
29D
330
1F
100
AcDbEntity
  8
0-F
  6
Continuous
 62
     7
370
     9
100
AcDbLine
 10
-710.20751527201
 20
-96.82852323128759
 30
0.0
 11
118.7924979247805
 21
-96.82852323128759
 31
0.0
  0
LINE
  5
29E
330
1F
100
AcDbEntity
  8
0-F
  6
Continuous
 62
     7
370
     9
100
AcDbLine
 10
439.8335927305239
 20
141.0557673092528
 30
0.0
 11
422.9042549454731
 21
118.334358155959
 31
0.0
  0
LINE
  5
29F
330
1F
100
AcDbEntity
  8
0-F
  6
Continuous
 62
     7
370
     9
100
AcDbLine
 10
318.7925639087331
 20
23.17142728074782
 30
0.0
 11
318.7925639087331
 21
340.3337049148272
 31
0.0
  0
LINE
  5
2A0
330
1F
100
AcDbEntity
  8
0-F
  6
Continuous
 62
     7
370
     9
100
AcDbLine
 10
374.7925507119427
 20
289.1715625478508
 30
0.0
 11
317.5925797448819
 21
289.1715625478508
 31
0.0
  0
LINE
  5
2A1
330
1F
100
AcDbEntity
  8
0-F
  6
Continuous
 62
     7
370
     9
100
AcDbLine
 10
374.7925507119427
 20
300.1715493510603
 30
0.0
 11
317.5925797448819
 21
300.1715493510603
 31
0.0
  0
LINE
  5
2A2
330
1F
100
AcDbEntity
  8
0-F
  6
Continuous
 62
     7
370
     9
100
AcDbLine
 10
374.7925507119427
 20
304.1715625478508
 30
0.0
 11
317.5925797448819
 21
304.1715625478508
 31
0.0
  0
LINE
  5
2A3
330
1F
100
AcDbEntity
  8
0-F
  6
Continuous
 62
     7
370
     9
100
AcDbLine
 10
318.7925639087331
 20
313.1715427526651
 30
0.0
 11
317.2262698314527
 21
325.0688453286787
 31
0.0
  0
LINE
  5
2A4
330
1F
100
AcDbEntity
  8
0-F
  6
Continuous
 62
     7
370
     9
100
AcDbLine
 10
318.7925639087331
 20
313.1715427526651
 30
0.0
 11
320.3588579860136
 21
325.0688453286787
 31
0.0
  0
LINE
  5
2A5
330
1F
100
AcDbEntity
  8
0-F
  6
Continuous
 62
     7
370
     9
100
AcDbLine
 10
439.8335927305239
 20
141.0557673092528
 30
0.0
 11
452.4347131380406
 21
141.0557673092528
 31
0.0
  0
TEXT
  5
2A6
330
1F
100
AcDbEntity
  8
0-F
  6
Continuous
 62
     2
370
     9
100
AcDbText
 10
-423.7075416655911
 20
-52.57253312888051
 30
0.0
 40
12.192
  1
591
 41
1.083333333333333
  7
ＭＳ ゴシック
100
AcDbText
  0
TEXT
  5
2A7
330
1F
100
AcDbEntity
  8
0-F
  6
Continuous
 62
     2
370
     9
100
AcDbText
 10
-423.7075416655911
 20
-92.57251663289239
 30
0.0
 40
12.192
  1
599
 41
1.083333333333333
  7
ＭＳ ゴシック
100
AcDbText
  0
TEXT
  5
2A8
330
1F
100
AcDbEntity
  8
0-F
  6
Continuous
 62
     2
370
     9
100
AcDbText
 10
-92.77865752021518
 20
-92.57251663289239
 30
0.0
 40
12.192
  1
1
  7
ＭＳ ゴシック
100
AcDbText
  0
TEXT
  5
2A9
330
1F
100
AcDbEntity
  8
0-F
  6
Continuous
 62
     2
370
     9
100
AcDbText
 10
87.81955794378399
 20
-92.57251663289239
 30
0.0
 40
12.192
  1
599
 41
1.083333333333333
  7
ＭＳ ゴシック
100
AcDbText
  0
TEXT
  5
2AA
330
1F
100
AcDbEntity
  8
0-F
  6
Continuous
 62
     2
370
     9
100
AcDbText
 10
314.536557681885
 20
28.67157234683076
 30
0.0
 40
12.192
  1
28
 50
90.00000250447789
 41
1.062500000000001
  7
ＭＳ ゴシック
100
AcDbText
  0
TEXT
  5
2AB
330
1F
100
AcDbEntity
  8
0-F
  6
Continuous
 62
     2
370
     9
100
AcDbText
 10
274.5365244932075
 20
308.2548275991538
 30
0.0
 40
12.192
  1
2
 50
90.00000250448173
 41
1.000000000000001
  7
ＭＳ ゴシック
100
AcDbText
  0
TEXT
  5
2AC
330
1F
100
AcDbEntity
  8
0-F
  6
Continuous
 62
     2
370
     9
100
AcDbText
 10
274.5365244932075
 20
20.36520060643858
 30
0.0
 40
12.192
  1
2
 50
90.00000250448173
 41
1.000000000000001
  7
ＭＳ ゴシック
100
AcDbText
  0
TEXT
  5
2AD
330
1F
100
AcDbEntity
  8
0-F
  6
Continuous
 62
     2
370
     9
100
AcDbText
 10
388.2926727822552
 20
122.5903647543542
 30
0.0
 40
12.192
  1
40
 41
1.0625
  7
ＭＳ ゴシック
100
AcDbText
  0
TEXT
  5
2AE
330
1F
100
AcDbEntity
  8
0-F
  6
Continuous
 62
     2
370
     9
100
AcDbText
 10
442.4214305683616
 20
145.3401305113221
 30
0.0
 40
12.192
  1
7
  7
ＭＳ ゴシック
100
AcDbText
  0
TEXT
  5
2AF
330
1F
100
AcDbEntity
  8
0-F
  6
Continuous
 62
     2
370
     9
100
AcDbText
 10
314.5365574851833
 20
283.1715805948249
 30
0.0
 40
12.192
  1
4
 50
90.00000250447522
 41
1.000000000000001
  7
ＭＳ ゴシック
100
AcDbText
  0
TEXT
  5
2B0
330
1F
100
AcDbEntity
  8
0-F
  6
Continuous
 62
     2
370
     9
100
AcDbText
 10
296.6717983913446
 20
286.1716053388074
 30
0.0
 40
12.192
  1
11
 50
90.00000250448097
 41
1.062500000000001
  7
ＭＳ ゴシック
100
AcDbText
  0
TEXT
  5
2B1
330
1F
100
AcDbEntity
  8
0-F
  6
Continuous
 62
     2
370
     9
100
AcDbText
 10
314.5365574851833
 20
298.1715558508427
 30
0.0
 40
12.192
  1
4
 50
90.00000250447522
 41
1.000000000000001
  7
ＭＳ ゴシック
100
AcDbText
  0
TEXT
  5
2B2
330
1F
100
AcDbEntity
  8
0-F
  6
Continuous
 62
     2
370
     9
100
AcDbText
 10
274.5365244932075
 20
-3.562774609988701
 30
0.0
 40
12.192
  1
3
 50
90.00000250448173
 41
1.000000000000001
  7
ＭＳ ゴシック
100
AcDbText
  0
TEXT
  5
2B3
330
1F
100
AcDbEntity
  8
0-F
  6
Continuous
 62
     2
370
     9
100
AcDbText
 10
314.5365574851833
 20
326.8741793728021
 30
0.0
 40
12.192
  1
9
 50
90.00000250447522
 41
1.000000000000001
  7
ＭＳ ゴシック
100
AcDbText
  0
TEXT
  5
2B4
330
1F
100
AcDbEntity
  8
0-F
  6
Continuous
 62
     2
370
     9
100
AcDbText
 10
274.5365244932075
 20
331.9057197021943
 30
0.0
 40
12.192
  1
3
 50
90.00000250448173
 41
1.000000000000001
  7
ＭＳ ゴシック
100
AcDbText
  0
TEXT
  5
2B5
330
1F
100
AcDbEntity
  8
0-F
  6
Continuous
 62
     2
370
     9
100
AcDbText
 10
445.9037897586064
 20
122.5903647543542
 30
0.0
 40
12.192
  1
10
 41
1.0625
  7
ＭＳ ゴシック
100
AcDbText
  0
TEXT
  5
2B6
330
1F
100
AcDbEntity
  8
0-F
  6
Continuous
 62
     2
370
     9
100
AcDbText
 10
234.5364918946335
 20
155.1714601741114
 30
0.0
 40
12.192
  1
300
 50
90.00000250447873
 41
1.083333333333334
  7
ＭＳ ゴシック
100
AcDbText
  0
TEXT
  5
2B7
330
1F
100
AcDbEntity
  8
0-F
  6
Continuous
 62
     2
370
     9
100
AcDbText
 10
274.5365248866097
 20
155.1715096620759
 30
0.0
 40
12.192
  1
290
 50
90.00000250447873
 41
1.083333333333334
  7
ＭＳ ゴシック
100
AcDbText
  0
TEXT
  5
2B8
330
1F
100
AcDbEntity
  8
0-F
  6
Continuous
 62
     2
370
     9
100
AcDbText
 10
314.5365578785862
 20
155.1715591500404
 30
0.0
 40
12.192
  1
234
 50
90.00000250447873
 41
1.083333333333334
  7
ＭＳ ゴシック
100
AcDbText
  0
LWPOLYLINE
  5
2B9
330
1F
100
AcDbEntity
  8
0-F
  6
Continuous
 62
     7
370
     9
100
AcDbPolyline
 90
        4
 70
     1
 43
0.4
 10
278.9925309167569
 20
315.1715493510603
 42
0.4142135623731
 10
278.7925309167569
 20
315.3715493510603
 42
0.4142135623731
 10
278.5925309167569
 20
315.1715493510603
 42
0.4142135623731
 10
278.7925309167569
 20
314.9715493510603
 42
0.4142135623731
  0
LWPOLYLINE
  5
2BA
330
1F
100
AcDbEntity
  8
0-F
  6
Continuous
 62
     7
370
     9
100
AcDbPolyline
 90
        4
 70
     1
 43
0.4
 10
278.9925309167569
 20
21.17147017031721
 42
0.4142135623731
 10
278.7925309167569
 20
21.37147017031721
 42
0.4142135623731
 10
278.5925309167569
 20
21.17147017031721
 42
0.4142135623731
 10
278.7925309167569
 20
20.97147017031721
 42
0.4142135623731
  0
LWPOLYLINE
  5
2BB
330
1F
100
AcDbEntity
  8
0-F
  6
Continuous
 62
     7
370
     9
100
AcDbPolyline
 90
        4
 70
     1
 43
0.4
 10
425.9926694830577
 20
118.334358155959
 42
0.4142135623731
 10
425.7926694830577
 20
118.534358155959
 42
0.4142135623731
 10
425.5926694830577
 20
118.334358155959
 42
0.4142135623731
 10
425.7926694830577
 20
118.134358155959
 42
0.4142135623731
  0
LWPOLYLINE
  5
2BC
330
1F
100
AcDbEntity
  8
0-F
  6
Continuous
 62
     7
370
     9
100
AcDbPolyline
 90
        4
 70
     1
 43
0.4
 10
318.9925639087331
 20
289.1715625478508
 42
0.4142135623731
 10
318.7925639087331
 20
289.3715625478508
 42
0.4142135623731
 10
318.5925639087332
 20
289.1715625478508
 42
0.4142135623731
 10
318.7925639087331
 20
288.9715625478509
 42
0.4142135623731
  0
LWPOLYLINE
  5
2BD
330
1F
100
AcDbEntity
  8
0-F
  6
Continuous
 62
     7
370
     9
100
AcDbPolyline
 90
        4
 70
     1
 43
0.4
 10
318.9925639087331
 20
300.1715493510603
 42
0.4142135623731
 10
318.7925639087331
 20
300.3715493510603
 42
0.4142135623731
 10
318.5925639087332
 20
300.1715493510603
 42
0.4142135623731
 10
318.7925639087331
 20
299.9715493510603
 42
0.4142135623731
  0
LWPOLYLINE
  5
2BE
330
1F
100
AcDbEntity
  8
0-F
  6
Continuous
 62
     7
370
     9
100
AcDbPolyline
 90
        4
 70
     1
 43
0.4
 10
318.9925639087331
 20
304.1715625478508
 42
0.4142135623731
 10
318.7925639087331
 20
304.3715625478508
 42
0.4142135623731
 10
318.5925639087332
 20
304.1715625478508
 42
0.4142135623731
 10
318.7925639087331
 20
303.9715625478509
 42
0.4142135623731
  0
TEXT
  5
2BF
330
1F
100
AcDbEntity
  8
寸法
  6
Continuous
 62
     2
370
     9
100
AcDbText
 10
323.5154229602663
 20
-422.9182861274184
 30
0.0
 40
12.192
  1
蓋 質 量：１３．０ｋｇ
 41
1.113636363636362
  7
ＭＳ ゴシック
100
AcDbText
  0
LINE
  5
2C0
330
1F
100
AcDbEntity
  8
躯体
  6
Continuous
 62
     2
370
     9
100
AcDbLine
 10
444.7925243183614
 20
315.1715493510603
 30
0.0
 11
444.7925243183614
 21
268.1714932647005
 31
0.0
  0
LINE
  5
2C1
330
1F
100
AcDbEntity
  8
躯体
  6
Continuous
 62
     2
370
     9
100
AcDbLine
 10
444.7925243183614
 20
21.15605029231938
 30
0.0
 11
444.7925243183614
 21
68.171526256677
 31
0.0
  0
LINE
  5
2C2
330
1F
100
AcDbEntity
  8
躯体
  6
Continuous
 62
     2
370
     9
100
AcDbLine
 10
441.7925639087331
 20
315.1715493510603
 30
0.0
 11
378.7925639087331
 21
315.1715493510603
 31
0.0
  0
LINE
  5
2C3
330
1F
100
AcDbEntity
  8
躯体
  6
Continuous
 62
     2
370
     9
100
AcDbLine
 10
444.7925243183614
 20
268.1714932647005
 30
0.0
 11
441.7925639087331
 21
268.1714932647005
 31
0.0
  0
LINE
  5
2C4
330
1F
100
AcDbEntity
  8
躯体
  6
Continuous
 62
     2
370
     9
100
AcDbLine
 10
441.7925639087331
 20
21.17147017031721
 30
0.0
 11
378.7925639087331
 21
21.17147017031721
 31
0.0
  0
LINE
  5
2C5
330
1F
100
AcDbEntity
  8
躯体
  6
Continuous
 62
     2
370
     9
100
AcDbLine
 10
444.7925243183614
 20
68.171526256677
 30
0.0
 11
441.7925639087331
 21
68.171526256677
 31
0.0
  0
LINE
  5
2C6
330
1F
100
AcDbEntity
  8
躯体
  6
Continuous
 62
     2
370
     9
100
AcDbLine
 10
441.7925639087331
 20
21.17147017031721
 30
0.0
 11
441.7925639087331
 21
68.171526256677
 31
0.0
  0
LINE
  5
2C7
330
1F
100
AcDbEntity
  8
躯体
  6
Continuous
 62
     2
370
     9
100
AcDbLine
 10
441.7925639087331
 20
315.1715493510603
 30
0.0
 11
441.7925639087331
 21
268.1714932647005
 31
0.0
  0
LINE
  5
2C8
330
1F
100
AcDbEntity
  8
躯体
  6
Continuous
 62
     2
370
     9
100
AcDbLine
 10
441.7925639087331
 20
18.17146027272429
 30
0.0
 11
378.7925639087331
 21
18.17146027272429
 31
0.0
  0
LINE
  5
2C9
330
1F
100
AcDbEntity
  8
躯体
  6
Continuous
 62
     2
370
     9
100
AcDbLine
 10
441.7925639087331
 20
318.1715097606887
 30
0.0
 11
378.7925639087331
 21
318.1715097606887
 31
0.0
  0
ARC
  5
2CA
330
1F
100
AcDbEntity
  8
躯体
  6
Continuous
 62
     2
370
     9
100
AcDbCircle
 10
441.7925639087331
 20
315.1715493510603
 30
0.0
 40
3.000000038662472
100
AcDbArc
 50
0.0
 51
90.0
  0
ARC
  5
2CB
330
1F
100
AcDbEntity
  8
躯体
  6
Continuous
 62
     2
370
     9
100
AcDbCircle
 10
441.7925639087331
 20
21.17147017031721
 30
0.0
 40
3.000000038662472
100
AcDbArc
 50
270.0
 51
0.0
  0
TEXT
  5
2CC
330
1F
100
AcDbEntity
  8
その他
  6
Continuous
 62
     2
370
   211
100
AcDbText
 10
528.136379153666
 20
324.6714833081932
 30
0.0
 40
12.192
  1
30
 50
90.0
 41
1.0625
  7
ＭＳ ゴシック
100
AcDbText
  0
LINE
  5
2CD
330
1F
100
AcDbEntity
  8
その他
  6
Continuous
 62
     7
370
     9
100
AcDbLine
 10
533.9923791536659
 20
348.1714568556978
 30
0.0
 11
453.2922537841553
 21
348.1714568556978
 31
0.0
  0
LINE
  5
2CE
330
1F
100
AcDbEntity
  8
その他
  6
Continuous
 62
     7
370
     9
100
AcDbLine
 10
532.7923791536656
 20
318.1715097606885
 30
0.0
 11
531.4871172314653
 21
328.0859583744267
 31
0.0
  0
LINE
  5
2CF
330
1F
100
AcDbEntity
  8
その他
  6
Continuous
 62
     7
370
     9
100
AcDbLine
 10
532.7923791536656
 20
318.1715097606885
 30
0.0
 11
534.0976410758664
 21
328.0859583744267
 31
0.0
  0
LINE
  5
2D0
330
1F
100
AcDbEntity
  8
その他
  6
Continuous
 62
     7
370
     9
100
AcDbLine
 10
532.7923791536656
 20
348.1714568556978
 30
0.0
 11
531.4871172314653
 21
338.2570082419596
 31
0.0
  0
LINE
  5
2D1
330
1F
100
AcDbEntity
  8
その他
  6
Continuous
 62
     7
370
     9
100
AcDbLine
 10
532.7923791536656
 20
348.1714568556978
 30
0.0
 11
534.0976410758664
 21
338.2570082419596
 31
0.0
  0
LINE
  5
2D2
330
1F
100
AcDbEntity
  8
その他
  6
Continuous
 62
     7
370
     9
100
AcDbLine
 10
532.7923791536656
 20
348.1714568556978
 30
0.0
 11
532.7923791536656
 21
318.1715097606885
 31
0.0
  0
TEXT
  5
2D3
330
1F
100
AcDbEntity
  8
その他
  6
Continuous
 62
     2
370
     9
100
AcDbText
 10
528.5363725552702
 20
284.6714767687123
 30
0.0
 40
12.192
  1
50
 50
90.0
 41
1.0625
  7
ＭＳ ゴシック
100
AcDbText
  0
LINE
  5
2D4
330
1F
100
AcDbEntity
  8
その他
  6
Continuous
 62
     7
370
     9
100
AcDbLine
 10
532.7923791536656
 20
318.1715097606885
 30
0.0
 11
534.358673230946
 21
306.2742071846752
 31
0.0
  0
LINE
  5
2D5
330
1F
100
AcDbEntity
  8
その他
  6
Continuous
 62
     7
370
     9
100
AcDbLine
 10
532.7923791536656
 20
318.1715097606885
 30
0.0
 11
531.2260850763852
 21
306.2742071846752
 31
0.0
  0
LINE
  5
2D6
330
1F
100
AcDbEntity
  8
その他
  6
Continuous
 62
     7
370
     9
100
AcDbLine
 10
531.2260850763852
 20
280.0687463527494
 30
0.0
 11
534.358673230946
 21
256.2741412007225
 31
0.0
  0
LINE
  5
2D7
330
1F
100
AcDbEntity
  8
その他
  6
Continuous
 62
     7
370
     9
100
AcDbLine
 10
534.358673230946
 20
280.0687463527494
 30
0.0
 11
531.2260850763852
 21
256.2741412007225
 31
0.0
  0
LINE
  5
2D8
330
1F
100
AcDbEntity
  8
その他
  6
Continuous
 62
     7
370
     9
100
AcDbLine
 10
449.7925507119429
 20
268.1714437767361
 30
0.0
 11
533.9923633175168
 21
268.1714437767361
 31
0.0
  0
LINE
  5
2D9
330
1F
100
AcDbEntity
  8
その他
  6
Continuous
 62
     7
370
     9
100
AcDbLine
 10
453.2922537841553
 20
318.1715097606885
 30
0.0
 11
533.9923633175168
 21
318.1715097606885
 31
0.0
  0
LINE
  5
2DA
330
1F
100
AcDbEntity
  8
その他
  6
Continuous
 62
     7
370
     9
100
AcDbLine
 10
532.7923791536656
 20
268.1714437767361
 30
0.0
 11
532.7923791536656
 21
318.1715097606885
 31
0.0
  0
LINE
  5
2DB
330
1F
100
AcDbEntity
  8
躯体
  6
JWW_CENTER2
 62
     2
370
     9
100
AcDbLine
 10
449.2922724010562
 20
338.171410313446
 30
0.0
 11
443.2922940225838
 21
338.171410313446
 31
0.0
  0
LINE
  5
2DC
330
1F
100
AcDbEntity
  8
躯体
  6
Continuous
 62
     2
370
     9
100
AcDbLine
 10
445.2922537841553
 20
305.9216596385241
 30
0.0
 11
445.2922537841553
 21
292.4216150993558
 31
0.0
  0
LINE
  5
2DD
330
1F
100
AcDbEntity
  8
躯体
  6
Continuous
 62
     2
370
     9
100
AcDbLine
 10
444.7925243183616
 20
309.1715095250316
 30
0.0
 11
444.7925243183616
 21
289.1714435410792
 31
0.0
  0
LINE
  5
2DE
330
1F
100
AcDbEntity
  8
躯体
  6
Continuous
 62
     2
370
     9
100
AcDbLine
 10
449.7922500725579
 20
296.4214056003062
 30
0.0
 11
449.7922500725579
 21
301.9214237458933
 31
0.0
  0
LINE
  5
2DF
330
1F
100
AcDbEntity
  8
躯体
  6
Continuous
 62
     2
370
     9
100
AcDbLine
 10
449.7922500725579
 20
296.4214056003062
 30
0.0
 11
449.2925206067642
 21
296.4214056003062
 31
0.0
  0
LINE
  5
2E0
330
1F
100
AcDbEntity
  8
躯体
  6
Continuous
 62
     2
370
     9
100
AcDbLine
 10
449.7922500725579
 20
296.4214056003062
 30
0.0
 11
451.2921313014434
 21
298.17149797784
 31
0.0
  0
LINE
  5
2E1
330
1F
100
AcDbEntity
  8
躯体
  6
Continuous
 62
     2
370
     9
100
AcDbLine
 10
451.2921313014434
 20
298.17149797784
 30
0.0
 11
451.2921313014434
 21
300.171281880395
 31
0.0
  0
LINE
  5
2E2
330
1F
100
AcDbEntity
  8
躯体
  6
Continuous
 62
     2
370
     9
100
AcDbLine
 10
451.2921313014434
 20
300.171281880395
 30
0.0
 11
449.7922500725579
 21
301.9214237458933
 31
0.0
  0
LINE
  5
2E3
330
1F
100
AcDbEntity
  8
躯体
  6
Continuous
 62
     2
370
     9
100
AcDbLine
 10
449.7922500725579
 20
301.9214237458933
 30
0.0
 11
449.2925206067642
 21
301.9214237458933
 31
0.0
  0
LINE
  5
2E4
330
1F
100
AcDbEntity
  8
躯体
  6
Continuous
 62
     2
370
     9
100
AcDbLine
 10
445.0920873396347
 20
295.1713396163537
 30
0.0
 11
445.0920873396347
 21
299.1714765330554
 31
0.0
  0
LINE
  5
2E5
330
1F
100
AcDbEntity
  8
躯体
  6
Continuous
 62
     2
370
     9
100
AcDbLine
 10
445.0920873396347
 20
303.1712175460412
 30
0.0
 11
445.0920873396347
 21
299.1714765330554
 31
0.0
  0
LINE
  5
2E6
330
1F
100
AcDbEntity
  8
躯体
  6
Continuous
 62
     2
370
     9
100
AcDbLine
 10
445.2922537841553
 20
303.1712175460412
 30
0.0
 11
445.0920873396347
 21
303.1712175460412
 31
0.0
  0
LINE
  5
2E7
330
1F
100
AcDbEntity
  8
躯体
  6
Continuous
 62
     2
370
     9
100
AcDbLine
 10
445.2922537841553
 20
295.1713396163537
 30
0.0
 11
445.0920873396347
 21
295.1713396163537
 31
0.0
  0
LINE
  5
2E8
330
1F
100
AcDbEntity
  8
躯体
  6
Continuous
 62
     2
370
     9
100
AcDbLine
 10
444.7925243183616
 20
289.1714435410792
 30
0.0
 11
449.2925206067642
 21
289.1714435410792
 31
0.0
  0
LINE
  5
2E9
330
1F
100
AcDbEntity
  8
躯体
  6
Continuous
 62
     2
370
     9
100
AcDbLine
 10
447.2925573103378
 20
290.4214847810496
 30
0.0
 11
447.2925573103378
 21
289.1714435410792
 31
0.0
  0
LINE
  5
2EA
330
1F
100
AcDbEntity
  8
躯体
  6
Continuous
 62
     2
370
     9
100
AcDbLine
 10
445.2922537841553
 20
292.4216150993558
 30
0.0
 11
445.2922537841553
 21
289.1714435410792
 31
0.0
  0
LINE
  5
2EB
330
1F
100
AcDbEntity
  8
躯体
  6
Continuous
 62
     2
370
     9
100
AcDbLine
 10
447.2925573103378
 20
307.9214682850612
 30
0.0
 11
447.2925573103378
 21
309.1715095250316
 31
0.0
  0
LINE
  5
2EC
330
1F
100
AcDbEntity
  8
躯体
  6
Continuous
 62
     2
370
     9
100
AcDbLine
 10
445.2922537841553
 20
305.9216596385241
 30
0.0
 11
445.2922537841553
 21
309.1715095250316
 31
0.0
  0
LINE
  5
2ED
330
1F
100
AcDbEntity
  8
躯体
  6
JWW_CENTER2
 62
     2
370
     9
100
AcDbLine
 10
452.8403251556977
 20
299.1714765330554
 30
0.0
 11
443.7559494133782
 21
299.1714765330554
 31
0.0
  0
LINE
  5
2EE
330
1F
100
AcDbEntity
  8
躯体
  6
JWW_DASHED1
 62
     2
370
     9
100
AcDbLine
 10
447.2922630926058
 20
342.4214424806229
 30
0.0
 11
445.2922537841553
 21
342.4214424806229
 31
0.0
  0
LINE
  5
2EF
330
1F
100
AcDbEntity
  8
躯体
  6
JWW_DASHED1
 62
     2
370
     9
100
AcDbLine
 10
447.2922630926058
 20
333.9214772400261
 30
0.0
 11
445.2922537841553
 21
333.9214772400261
 31
0.0
  0
LINE
  5
2F0
330
1F
100
AcDbEntity
  8
躯体
  6
Continuous
 62
     2
370
     9
100
AcDbLine
 10
447.2922630926058
 20
315.1714519069016
 30
0.0
 11
445.2922537841553
 21
315.1714519069016
 31
0.0
  0
LINE
  5
2F1
330
1F
100
AcDbEntity
  8
躯体
  6
JWW_DASHED1
 62
     2
370
     9
100
AcDbLine
 10
447.2922630926058
 20
348.1664526209421
 30
0.0
 11
447.2922630926058
 21
319.1764747585581
 31
0.0
  0
LINE
  5
2F2
330
1F
100
AcDbEntity
  8
躯体
  6
Continuous
 62
     2
370
     9
100
AcDbLine
 10
448.0922469972346
 20
348.1714568556978
 30
0.0
 11
445.2922537841553
 21
348.1714568556978
 31
0.0
  0
LINE
  5
2F3
330
1F
100
AcDbEntity
  8
躯体
  6
Continuous
 62
     2
370
     9
100
AcDbLine
 10
448.0922469972346
 20
319.1714705238024
 30
0.0
 11
445.2922537841553
 21
319.1714705238024
 31
0.0
  0
LINE
  5
2F4
330
1F
100
AcDbEntity
  8
躯体
  6
Continuous
 62
     2
370
     9
100
AcDbLine
 10
451.09226095991
 20
322.1714844864779
 30
0.0
 11
451.09226095991
 21
345.1714924399008
 31
0.0
  0
ARC
  5
2F5
330
1F
100
AcDbEntity
  8
躯体
  6
Continuous
 62
     2
370
     9
100
AcDbCircle
 10
448.0922469972346
 20
345.1714924399008
 30
0.0
 40
3.000000414701042
100
AcDbArc
 50
0.0
 51
90.0
  0
ARC
  5
2F6
330
1F
100
AcDbEntity
  8
躯体
  6
Continuous
 62
     2
370
     9
100
AcDbCircle
 10
448.0922469972346
 20
322.1714844864779
 30
0.0
 40
3.000000414701042
100
AcDbArc
 50
270.0
 51
0.0
  0
LINE
  5
2F7
330
1F
100
AcDbEntity
  8
躯体
  6
Continuous
 62
     2
370
     9
100
AcDbLine
 10
445.2922537841553
 20
348.1714568556978
 30
0.0
 11
445.2922537841553
 21
289.1714299908032
 31
0.0
  0
LINE
  5
2F8
330
1F
100
AcDbEntity
  8
躯体
  6
Continuous
 62
     2
370
     9
100
AcDbLine
 10
447.2922630926058
 20
319.1764747585581
 30
0.0
 11
447.2922630926058
 21
289.1714299908032
 31
0.0
  0
LINE
  5
2F9
330
1F
100
AcDbEntity
  8
躯体
  6
Continuous
 62
     2
370
     9
100
AcDbLine
 10
445.2922537841553
 20
289.1714299908032
 30
0.0
 11
447.2922630926058
 21
289.1714299908032
 31
0.0
  0
LINE
  5
2FA
330
1F
100
AcDbEntity
  8
躯体
  6
JWW_DASHED1
 62
     2
370
     9
100
AcDbLine
 10
447.0922423430091
 20
296.921453674329
 30
0.0
 11
445.2922537841553
 21
295.1715570099119
 31
0.0
  0
LINE
  5
2FB
330
1F
100
AcDbEntity
  8
躯体
  6
JWW_DASHED1
 62
     2
370
     9
100
AcDbLine
 10
449.2922724010562
 20
296.921453674329
 30
0.0
 11
447.2922630926058
 21
296.921453674329
 31
0.0
  0
LINE
  5
2FC
330
1F
100
AcDbEntity
  8
躯体
  6
JWW_DASHED1
 62
     2
370
     9
100
AcDbLine
 10
447.0922423430091
 20
301.4214498449033
 30
0.0
 11
447.0922423430091
 21
296.921453674329
 31
0.0
  0
LINE
  5
2FD
330
1F
100
AcDbEntity
  8
躯体
  6
JWW_DASHED1
 62
     2
370
     9
100
AcDbLine
 10
447.0922423430091
 20
296.921453674329
 30
0.0
 11
447.2923126394847
 21
296.921453674329
 31
0.0
  0
LINE
  5
2FE
330
1F
100
AcDbEntity
  8
躯体
  6
JWW_DASHED1
 62
     2
370
     9
100
AcDbLine
 10
447.0922423430091
 20
301.4214498449033
 30
0.0
 11
447.2923126394847
 21
301.4214498449033
 31
0.0
  0
LINE
  5
2FF
330
1F
100
AcDbEntity
  8
躯体
  6
JWW_DASHED1
 62
     2
370
     9
100
AcDbLine
 10
447.0922423430091
 20
301.4214498449033
 30
0.0
 11
445.2922537841553
 21
303.1713960561989
 31
0.0
  0
LINE
  5
300
330
1F
100
AcDbEntity
  8
躯体
  6
JWW_DASHED1
 62
     2
370
     9
100
AcDbLine
 10
449.2922724010562
 20
301.4214498449033
 30
0.0
 11
447.2922630926058
 21
301.4214498449033
 31
0.0
  0
LINE
  5
301
330
1F
100
AcDbEntity
  8
躯体
  6
Continuous
 62
     2
370
     9
100
AcDbLine
 10
449.2925206067642
 20
309.1715095250316
 30
0.0
 11
449.2925206067642
 21
289.1714435410792
 31
0.0
  0
LINE
  5
302
330
1F
100
AcDbEntity
  8
躯体
  6
Continuous
 62
     2
370
     9
100
AcDbLine
 10
444.7925243183616
 20
309.1715095250316
 30
0.0
 11
445.2922537841553
 21
309.1715095250316
 31
0.0
  0
LINE
  5
303
330
1F
100
AcDbEntity
  8
躯体
  6
Continuous
 62
     2
370
     9
100
AcDbLine
 10
447.2922630926058
 20
309.1715095250316
 30
0.0
 11
449.2925206067642
 21
309.1715095250316
 31
0.0
  0
LINE
  5
304
330
1F
100
AcDbEntity
  8
ハッチ
  6
Continuous
 62
     6
370
     9
100
AcDbLine
 10
438.792365956875
 20
271.6714437767358
 30
0.0
 11
441.792365956875
 21
271.6714437767358
 31
0.0
  0
LINE
  5
305
330
1F
100
AcDbEntity
  8
ハッチ
  6
Continuous
 62
     6
370
     9
100
AcDbLine
 10
438.792365956875
 20
309.3560219586906
 30
0.0
 11
441.1077877749203
 21
311.6714437767356
 31
0.0
  0
LINE
  5
306
330
1F
100
AcDbEntity
  8
ハッチ
  6
Continuous
 62
     6
370
     9
100
AcDbLine
 10
438.7923659568755
 20
303.6991677091977
 30
0.0
 11
441.7923659568755
 21
306.6991677091979
 31
0.0
  0
LINE
  5
307
330
1F
100
AcDbEntity
  8
ハッチ
  6
Continuous
 62
     6
370
     9
100
AcDbLine
 10
438.7923659568746
 20
298.0423134597035
 30
0.0
 11
441.7923659568746
 21
301.0423134597035
 31
0.0
  0
LINE
  5
308
330
1F
100
AcDbEntity
  8
ハッチ
  6
Continuous
 62
     6
370
     9
100
AcDbLine
 10
438.792365956875
 20
292.3854592102108
 30
0.0
 11
441.792365956875
 21
295.3854592102108
 31
0.0
  0
LINE
  5
309
330
1F
100
AcDbEntity
  8
ハッチ
  6
Continuous
 62
     6
370
     9
100
AcDbLine
 10
438.7923659568746
 20
286.7286049607168
 30
0.0
 11
441.792365956875
 21
289.728604960717
 31
0.0
  0
LINE
  5
30A
330
1F
100
AcDbEntity
  8
ハッチ
  6
Continuous
 62
     6
370
     9
100
AcDbLine
 10
438.792365956875
 20
281.0717507112239
 30
0.0
 11
441.7923659568732
 21
284.0717507112221
 31
0.0
  0
LINE
  5
30B
330
1F
100
AcDbEntity
  8
ハッチ
  6
Continuous
 62
     6
370
     9
100
AcDbLine
 10
438.7923659568741
 20
275.4148964617367
 30
0.0
 11
441.7923659568741
 21
278.4148964617369
 31
0.0
  0
LINE
  5
30C
330
1F
100
AcDbEntity
  8
ハッチ
  6
Continuous
 62
     6
370
     9
100
AcDbLine
 10
440.7057675213668
 20
271.6714437767363
 30
0.0
 11
441.7923659568746
 21
272.758042212244
 31
0.0
  0
LINE
  5
30D
330
1F
100
AcDbEntity
  8
ハッチ
  6
Continuous
 62
     6
370
     9
100
AcDbLine
 10
438.792365956875
 20
311.6714437767358
 30
0.0
 11
438.792365956875
 21
271.6714437767358
 31
0.0
  0
LINE
  5
30E
330
1F
100
AcDbEntity
  8
ハッチ
  6
Continuous
 62
     6
370
     9
100
AcDbLine
 10
441.792365956875
 20
311.6714437767358
 30
0.0
 11
438.792365956875
 21
311.6714437767358
 31
0.0
  0
LINE
  5
30F
330
1F
100
AcDbEntity
  8
ハッチ
  6
Continuous
 62
     6
370
     9
100
AcDbLine
 10
441.792365956875
 20
271.6714437767358
 30
0.0
 11
441.792365956875
 21
311.6714437767358
 31
0.0
  0
LINE
  5
310
330
1F
100
AcDbEntity
  8
寸法
  6
Continuous
 62
     7
370
     9
100
AcDbLine
 10
370.7978822153211
 20
389.8510652927833
 30
0.0
 11
404.1941422448819
 21
318.1715097606885
 31
0.0
  0
LINE
  5
311
330
1F
100
AcDbEntity
  8
寸法
  6
Continuous
 62
     7
370
     9
100
AcDbLine
 10
404.1941422448819
 20
318.1715097606885
 30
0.0
 11
397.7498195041723
 21
328.2942729046921
 31
0.0
  0
LINE
  5
312
330
1F
100
AcDbEntity
  8
寸法
  6
Continuous
 62
     7
370
     9
100
AcDbLine
 10
404.1941422448819
 20
318.1715097606885
 30
0.0
 11
400.5894389087331
 21
329.6172841483575
 31
0.0
  0
LINE
  5
313
330
1F
100
AcDbEntity
  8
寸法
  6
Continuous
 62
     7
370
     9
100
AcDbLine
 10
447.2922630926059
 20
348.1714568556976
 30
0.0
 11
451.3238496107646
 21
359.4739140980963
 31
0.0
  0
LINE
  5
314
330
1F
100
AcDbEntity
  8
寸法
  6
Continuous
 62
     7
370
     9
100
AcDbLine
 10
447.2922630926059
 20
348.1714568556976
 30
0.0
 11
454.1118035803592
 21
358.0454934899884
 31
0.0
  0
LINE
  5
315
330
1F
100
AcDbEntity
  8
寸法
  6
Continuous
 62
     7
370
     9
100
AcDbLine
 10
468.6494627041126
 20
389.8510652927833
 30
0.0
 11
447.2922630926059
 21
348.1714568556976
 31
0.0
  0
TEXT
  5
316
330
1F
100
AcDbEntity
  8
寸法
  6
Continuous
 62
     7
370
     9
100
AcDbText
 10
472.2569052993705
 20
376.7235973873779
 30
0.0
 40
9.144
  1
ＳＥＣＣ
 41
1.125
  7
ＭＳ ゴシック
100
AcDbText
  0
LINE
  5
317
330
1F
100
AcDbEntity
  8
寸法
  6
Continuous
 62
     7
370
     9
100
AcDbLine
 10
468.6494627041126
 20
389.8510652927833
 30
0.0
 11
633.9030609782127
 21
389.8510652927833
 31
0.0
  0
TEXT
  5
318
330
1F
100
AcDbEntity
  8
寸法
  6
Continuous
 62
     7
370
     9
100
AcDbText
 10
472.4489087041421
 20
396.9921850668542
 30
0.0
 40
9.144
  1
回転アンカー：ｔ＝２.０
 41
1.152173913043478
  7
ＭＳ ゴシック
100
AcDbText
  0
TEXT
  5
319
330
1F
100
AcDbEntity
  8
寸法
  6
Continuous
 62
     7
370
     9
100
AcDbText
 10
472.4489087041424
 20
421.5867350689672
 30
0.0
 40
9.144
  1
境界部・壁際用として使用できます
 41
1.156249999999999
  7
ＭＳ ゴシック
100
AcDbText
  0
TEXT
  5
31A
330
1F
100
AcDbEntity
  8
寸法
  6
Continuous
 62
     7
370
     9
100
AcDbText
 10
472.4489087041424
 20
436.7673020635356
 30
0.0
 40
9.144
  1
アンカーを回転・変形させることで
 41
1.156249999999999
  7
ＭＳ ゴシック
100
AcDbText
  0
TEXT
  5
31B
330
1F
100
AcDbEntity
  8
寸法
  6
Continuous
 62
     7
370
     9
100
AcDbText
 10
458.4489087041419
 20
436.7673020635356
 30
0.0
 40
9.144
  1
※
  7
ＭＳ ゴシック
100
AcDbText
  0
TEXT
  5
31C
330
1F
100
AcDbEntity
  8
寸法
  6
Continuous
 62
     7
370
     9
100
AcDbText
 10
178.266399494116
 20
395.5777200647427
 30
0.0
 40
9.144
  1
受枠：ＴＬ６０Ｐ，ｔ＝３．０
 41
1.154761904761905
  7
ＭＳ ゴシック
100
AcDbText
  0
LINE
  5
31D
330
1F
100
AcDbEntity
  8
寸法
  6
Continuous
 62
     7
370
     9
100
AcDbLine
 10
177.3392485945239
 20
389.8510652927833
 30
0.0
 11
370.7978822153211
 21
389.8510652927833
 31
0.0
  0
TEXT
  5
31E
330
1F
100
AcDbEntity
  8
寸法
  6
Continuous
 62
     7
370
     9
100
AcDbText
 10
177.8790934869368
 20
375.7926297986954
 30
0.0
 40
9.144
  1
ＳＵＳ３０４
 41
1.138888888888889
  7
ＭＳ ゴシック
100
AcDbText
  0
LINE
  5
31F
330
1F
100
AcDbEntity
  8
その他
  6
Continuous
 62
     7
370
     9
100
AcDbLine
 10
456.0922469972346
 20
18.17146027272429
 30
0.0
 11
533.9923633175168
 21
18.17146027272429
 31
0.0
  0
TEXT
  5
320
330
1F
100
AcDbEntity
  8
その他
  6
Continuous
 62
     2
370
   211
100
AcDbText
 10
528.136379153666
 20
-5.328531274232319
 30
0.0
 40
12.192
  1
30
 50
90.0
 41
1.0625
  7
ＭＳ ゴシック
100
AcDbText
  0
LINE
  5
321
330
1F
100
AcDbEntity
  8
その他
  6
Continuous
 62
     7
370
     9
100
AcDbLine
 10
533.9923791536659
 20
-11.82852282118893
 30
0.0
 11
456.0922469972346
 21
-11.82852282118893
 31
0.0
  0
LINE
  5
322
330
1F
100
AcDbEntity
  8
その他
  6
Continuous
 62
     7
370
     9
100
AcDbLine
 10
532.7923791536656
 20
-11.82852282118893
 30
0.0
 11
531.4871172314653
 21
-1.914074207450994
 31
0.0
  0
LINE
  5
323
330
1F
100
AcDbEntity
  8
その他
  6
Continuous
 62
     7
370
     9
100
AcDbLine
 10
532.7923791536656
 20
-11.82852282118893
 30
0.0
 11
534.0976410758664
 21
-1.914074207450994
 31
0.0
  0
LINE
  5
324
330
1F
100
AcDbEntity
  8
その他
  6
Continuous
 62
     7
370
     9
100
AcDbLine
 10
532.7923791536656
 20
18.17146027272429
 30
0.0
 11
531.4871172314653
 21
8.257011658986357
 31
0.0
  0
LINE
  5
325
330
1F
100
AcDbEntity
  8
その他
  6
Continuous
 62
     7
370
     9
100
AcDbLine
 10
532.7923791536656
 20
18.17146027272429
 30
0.0
 11
534.0976410758664
 21
8.257011658986357
 31
0.0
  0
LINE
  5
326
330
1F
100
AcDbEntity
  8
その他
  6
Continuous
 62
     7
370
     9
100
AcDbLine
 10
532.7923791536656
 20
18.17146027272429
 30
0.0
 11
532.7923791536656
 21
-11.82852282118893
 31
0.0
  0
LINE
  5
327
330
1F
100
AcDbEntity
  8
その他
  6
Continuous
 62
     7
370
     9
100
AcDbLine
 10
449.7925507119429
 20
68.171526256677
 30
0.0
 11
533.9923633175168
 21
68.171526256677
 31
0.0
  0
LINE
  5
328
330
1F
100
AcDbEntity
  8
その他
  6
Continuous
 62
     7
370
     9
100
AcDbLine
 10
534.358673230946
 20
56.27422368066368
 30
0.0
 11
531.2260850763852
 21
80.06882883269054
 31
0.0
  0
LINE
  5
329
330
1F
100
AcDbEntity
  8
その他
  6
Continuous
 62
     7
370
     9
100
AcDbLine
 10
531.2260850763852
 20
56.27422368066368
 30
0.0
 11
534.358673230946
 21
80.06882883269054
 31
0.0
  0
LINE
  5
32A
330
1F
100
AcDbEntity
  8
その他
  6
Continuous
 62
     7
370
     9
100
AcDbLine
 10
532.7923791536656
 20
18.17146027272429
 30
0.0
 11
531.2260850763852
 21
30.06876284873783
 31
0.0
  0
LINE
  5
32B
330
1F
100
AcDbEntity
  8
その他
  6
Continuous
 62
     7
370
     9
100
AcDbLine
 10
532.7923791536656
 20
18.17146027272429
 30
0.0
 11
534.358673230946
 21
30.06876284873783
 31
0.0
  0
TEXT
  5
32C
330
1F
100
AcDbEntity
  8
その他
  6
Continuous
 62
     2
370
     9
100
AcDbText
 10
528.5363725552702
 20
34.67149326470076
 30
0.0
 40
12.192
  1
50
 50
90.0
 41
1.0625
  7
ＭＳ ゴシック
100
AcDbText
  0
LINE
  5
32D
330
1F
100
AcDbEntity
  8
その他
  6
Continuous
 62
     7
370
     9
100
AcDbLine
 10
532.7923791536656
 20
18.17146027272429
 30
0.0
 11
532.7923791536656
 21
68.171526256677
 31
0.0
  0
LINE
  5
32E
330
1F
100
AcDbEntity
  8
その他
  6
Continuous
 62
     7
370
     9
100
AcDbLine
 10
532.7923791536656
 20
68.171526256677
 30
0.0
 11
532.7923791536656
 21
268.1714437767361
 31
0.0
  0
TEXT
  5
32F
330
1F
100
AcDbEntity
  8
その他
  6
Continuous
 62
     2
370
   211
100
AcDbText
 10
526.5363791536656
 20
155.1714850167066
 30
0.0
 40
12.192
  1
200
 50
90.0
 41
1.083333333333333
  7
ＭＳ ゴシック
100
AcDbText
  0
LINE
  5
330
330
1F
100
AcDbEntity
  8
躯体
  6
Continuous
 62
     2
370
     9
100
AcDbLine
 10
445.2922537841553
 20
30.42131039488868
 30
0.0
 11
445.2922537841553
 21
43.92135493405658
 31
0.0
  0
LINE
  5
331
330
1F
100
AcDbEntity
  8
躯体
  6
Continuous
 62
     2
370
     9
100
AcDbLine
 10
444.7925243183616
 20
27.17146050838073
 30
0.0
 11
444.7925243183616
 21
47.17152649233367
 31
0.0
  0
LINE
  5
332
330
1F
100
AcDbEntity
  8
躯体
  6
Continuous
 62
     2
370
     9
100
AcDbLine
 10
449.7922500725579
 20
39.9215644331066
 30
0.0
 11
449.7922500725579
 21
34.4215462875195
 31
0.0
  0
LINE
  5
333
330
1F
100
AcDbEntity
  8
躯体
  6
Continuous
 62
     2
370
     9
100
AcDbLine
 10
449.7922500725579
 20
39.9215644331066
 30
0.0
 11
449.2925206067642
 21
39.9215644331066
 31
0.0
  0
LINE
  5
334
330
1F
100
AcDbEntity
  8
躯体
  6
Continuous
 62
     2
370
     9
100
AcDbLine
 10
449.7922500725579
 20
39.9215644331066
 30
0.0
 11
451.2921313014434
 21
38.17147205557239
 31
0.0
  0
LINE
  5
335
330
1F
100
AcDbEntity
  8
躯体
  6
Continuous
 62
     2
370
     9
100
AcDbLine
 10
451.2921313014434
 20
38.17147205557239
 30
0.0
 11
451.2921313014434
 21
36.17168815301784
 31
0.0
  0
LINE
  5
336
330
1F
100
AcDbEntity
  8
躯体
  6
Continuous
 62
     2
370
     9
100
AcDbLine
 10
451.2921313014434
 20
36.17168815301784
 30
0.0
 11
449.7922500725579
 21
34.4215462875195
 31
0.0
  0
LINE
  5
337
330
1F
100
AcDbEntity
  8
躯体
  6
Continuous
 62
     2
370
     9
100
AcDbLine
 10
449.7922500725579
 20
34.4215462875195
 30
0.0
 11
449.2925206067642
 21
34.4215462875195
 31
0.0
  0
LINE
  5
338
330
1F
100
AcDbEntity
  8
躯体
  6
Continuous
 62
     2
370
     9
100
AcDbLine
 10
445.0920873396347
 20
41.17163041705908
 30
0.0
 11
445.0920873396347
 21
37.17149350035743
 31
0.0
  0
LINE
  5
339
330
1F
100
AcDbEntity
  8
躯体
  6
Continuous
 62
     2
370
     9
100
AcDbLine
 10
445.0920873396347
 20
33.17175248737158
 30
0.0
 11
445.0920873396347
 21
37.17149350035743
 31
0.0
  0
LINE
  5
33A
330
1F
100
AcDbEntity
  8
躯体
  6
Continuous
 62
     2
370
     9
100
AcDbLine
 10
445.2922537841553
 20
33.17175248737158
 30
0.0
 11
445.0920873396347
 21
33.17175248737158
 31
0.0
  0
LINE
  5
33B
330
1F
100
AcDbEntity
  8
躯体
  6
Continuous
 62
     2
370
     9
100
AcDbLine
 10
445.2922537841553
 20
41.17163041705908
 30
0.0
 11
445.0920873396347
 21
41.17163041705908
 31
0.0
  0
LINE
  5
33C
330
1F
100
AcDbEntity
  8
躯体
  6
Continuous
 62
     2
370
     9
100
AcDbLine
 10
444.7925243183616
 20
47.17152649233367
 30
0.0
 11
449.2925206067642
 21
47.17152649233367
 31
0.0
  0
LINE
  5
33D
330
1F
100
AcDbEntity
  8
躯体
  6
Continuous
 62
     2
370
     9
100
AcDbLine
 10
447.2925573103378
 20
45.92148525236325
 30
0.0
 11
447.2925573103378
 21
47.17152649233367
 31
0.0
  0
LINE
  5
33E
330
1F
100
AcDbEntity
  8
躯体
  6
Continuous
 62
     2
370
     9
100
AcDbLine
 10
445.2922537841553
 20
43.92135493405658
 30
0.0
 11
445.2922537841553
 21
47.17152649233367
 31
0.0
  0
LINE
  5
33F
330
1F
100
AcDbEntity
  8
躯体
  6
Continuous
 62
     2
370
     9
100
AcDbLine
 10
447.2925573103378
 20
28.42150174835115
 30
0.0
 11
447.2925573103378
 21
27.17146050838073
 31
0.0
  0
LINE
  5
340
330
1F
100
AcDbEntity
  8
躯体
  6
Continuous
 62
     2
370
     9
100
AcDbLine
 10
445.2922537841553
 20
30.42131039488868
 30
0.0
 11
445.2922537841553
 21
27.17146050838073
 31
0.0
  0
LINE
  5
341
330
1F
100
AcDbEntity
  8
躯体
  6
JWW_DASHED1
 62
     2
370
     9
100
AcDbLine
 10
447.2922630926058
 20
-6.078472447210061
 30
0.0
 11
445.2922537841553
 21
-6.078472447210061
 31
0.0
  0
LINE
  5
342
330
1F
100
AcDbEntity
  8
躯体
  6
JWW_DASHED1
 62
     2
370
     9
100
AcDbLine
 10
447.2922630926058
 20
2.421492793386278
 30
0.0
 11
445.2922537841553
 21
2.421492793386278
 31
0.0
  0
LINE
  5
343
330
1F
100
AcDbEntity
  8
躯体
  6
Continuous
 62
     2
370
     9
100
AcDbLine
 10
447.2922630926058
 20
21.17151812651082
 30
0.0
 11
445.2922537841553
 21
21.17151812651082
 31
0.0
  0
LINE
  5
344
330
1F
100
AcDbEntity
  8
躯体
  6
JWW_CENTER2
 62
     2
370
     9
100
AcDbLine
 10
449.2922724010562
 20
-1.828440280033192
 30
0.0
 11
443.2922940225838
 21
-1.828440280033192
 31
0.0
  0
LINE
  5
345
330
1F
100
AcDbEntity
  8
躯体
  6
JWW_DASHED1
 62
     2
370
     9
100
AcDbLine
 10
447.2922630926058
 20
-11.82348258752972
 30
0.0
 11
447.2922630926058
 21
17.16649527485424
 31
0.0
  0
LINE
  5
346
330
1F
100
AcDbEntity
  8
躯体
  6
Continuous
 62
     2
370
     9
100
AcDbLine
 10
448.0922469972346
 20
-11.82848682228541
 30
0.0
 11
445.2922537841553
 21
-11.82848682228541
 31
0.0
  0
LINE
  5
347
330
1F
100
AcDbEntity
  8
躯体
  6
Continuous
 62
     2
370
     9
100
AcDbLine
 10
448.0922469972346
 20
17.17149950960993
 30
0.0
 11
445.2922537841553
 21
17.17149950960993
 31
0.0
  0
LINE
  5
348
330
1F
100
AcDbEntity
  8
躯体
  6
Continuous
 62
     2
370
     9
100
AcDbLine
 10
451.09226095991
 20
14.17148554693449
 30
0.0
 11
451.09226095991
 21
-8.828522406488446
 31
0.0
  0
ARC
  5
349
330
1F
100
AcDbEntity
  8
躯体
  6
Continuous
 62
     2
370
     9
100
AcDbCircle
 10
448.0922469972346
 20
-8.828522406488446
 30
0.0
 40
3.000000414701042
100
AcDbArc
 50
270.0
 51
0.0
  0
ARC
  5
34A
330
1F
100
AcDbEntity
  8
躯体
  6
Continuous
 62
     2
370
     9
100
AcDbCircle
 10
448.0922469972346
 20
14.17148554693449
 30
0.0
 40
3.000000414701042
100
AcDbArc
 50
0.0
 51
90.0
  0
LINE
  5
34B
330
1F
100
AcDbEntity
  8
躯体
  6
Continuous
 62
     2
370
     9
100
AcDbLine
 10
445.2922537841553
 20
-11.82848682228541
 30
0.0
 11
445.2922537841553
 21
47.17154004260965
 31
0.0
  0
LINE
  5
34C
330
1F
100
AcDbEntity
  8
躯体
  6
Continuous
 62
     2
370
     9
100
AcDbLine
 10
447.2922630926058
 20
17.16649527485424
 30
0.0
 11
447.2922630926058
 21
47.17154004260965
 31
0.0
  0
LINE
  5
34D
330
1F
100
AcDbEntity
  8
躯体
  6
Continuous
 62
     2
370
     9
100
AcDbLine
 10
445.2922537841553
 20
47.17154004260965
 30
0.0
 11
447.2922630926058
 21
47.17154004260965
 31
0.0
  0
LINE
  5
34E
330
1F
100
AcDbEntity
  8
躯体
  6
JWW_DASHED1
 62
     2
370
     9
100
AcDbLine
 10
447.0922423430091
 20
39.42151635908385
 30
0.0
 11
445.2922537841553
 21
41.17141302350046
 31
0.0
  0
LINE
  5
34F
330
1F
100
AcDbEntity
  8
躯体
  6
JWW_DASHED1
 62
     2
370
     9
100
AcDbLine
 10
449.2922724010562
 20
39.42151635908385
 30
0.0
 11
447.2922630926058
 21
39.42151635908385
 31
0.0
  0
LINE
  5
350
330
1F
100
AcDbEntity
  8
躯体
  6
JWW_DASHED1
 62
     2
370
     9
100
AcDbLine
 10
447.0922423430091
 20
34.92152018850948
 30
0.0
 11
447.0922423430091
 21
39.42151635908385
 31
0.0
  0
LINE
  5
351
330
1F
100
AcDbEntity
  8
躯体
  6
JWW_DASHED1
 62
     2
370
     9
100
AcDbLine
 10
447.0922423430091
 20
39.42151635908385
 30
0.0
 11
447.2923126394847
 21
39.42151635908385
 31
0.0
  0
LINE
  5
352
330
1F
100
AcDbEntity
  8
躯体
  6
JWW_DASHED1
 62
     2
370
     9
100
AcDbLine
 10
447.0922423430091
 20
34.92152018850948
 30
0.0
 11
447.2923126394847
 21
34.92152018850948
 31
0.0
  0
LINE
  5
353
330
1F
100
AcDbEntity
  8
躯体
  6
JWW_DASHED1
 62
     2
370
     9
100
AcDbLine
 10
447.0922423430091
 20
34.92152018850948
 30
0.0
 11
445.2922537841553
 21
33.17157397721394
 31
0.0
  0
LINE
  5
354
330
1F
100
AcDbEntity
  8
躯体
  6
JWW_DASHED1
 62
     2
370
     9
100
AcDbLine
 10
449.2922724010562
 20
34.92152018850948
 30
0.0
 11
447.2922630926058
 21
34.92152018850948
 31
0.0
  0
LINE
  5
355
330
1F
100
AcDbEntity
  8
躯体
  6
Continuous
 62
     2
370
     9
100
AcDbLine
 10
449.2925206067642
 20
27.17146050838073
 30
0.0
 11
449.2925206067642
 21
47.17152649233367
 31
0.0
  0
LINE
  5
356
330
1F
100
AcDbEntity
  8
躯体
  6
Continuous
 62
     2
370
     9
100
AcDbLine
 10
444.7925243183616
 20
27.17146050838073
 30
0.0
 11
445.2922537841553
 21
27.17146050838073
 31
0.0
  0
LINE
  5
357
330
1F
100
AcDbEntity
  8
躯体
  6
Continuous
 62
     2
370
     9
100
AcDbLine
 10
447.2922630926058
 20
27.17146050838073
 30
0.0
 11
449.2925206067642
 21
27.17146050838073
 31
0.0
  0
LINE
  5
358
330
1F
100
AcDbEntity
  8
躯体
  6
JWW_CENTER2
 62
     2
370
     9
100
AcDbLine
 10
452.8403251556977
 20
37.17149350035743
 30
0.0
 11
443.7559494133782
 21
37.17149350035743
 31
0.0
  0
LINE
  5
359
330
1F
100
AcDbEntity
  8
その他
  6
Continuous
 62
     7
370
     9
100
AcDbLine
 10
451.2921313014435
 20
-82.82874031849178
 30
0.0
 11
451.2921313014435
 21
29.17149350035743
 31
0.0
  0
LINE
  5
35A
330
1F
100
AcDbEntity
  8
その他
  6
Continuous
 62
     7
370
     9
100
AcDbLine
 10
451.2921313014435
 20
-81.62874031849196
 30
0.0
 11
461.2065799151818
 21
-80.3234783962912
 31
0.0
  0
LINE
  5
35B
330
1F
100
AcDbEntity
  8
その他
  6
Continuous
 62
     7
370
     9
100
AcDbLine
 10
451.2921313014435
 20
-81.62874031849196
 30
0.0
 11
461.2065799151818
 21
-82.93400224069228
 31
0.0
  0
LINE
  5
35C
330
1F
100
AcDbEntity
  8
その他
  6
Continuous
 62
     7
370
     9
100
AcDbLine
 10
444.7925243183617
 20
-81.62874031849196
 30
0.0
 11
434.8780757046238
 21
-80.3234783962912
 31
0.0
  0
LINE
  5
35D
330
1F
100
AcDbEntity
  8
その他
  6
Continuous
 62
     7
370
     9
100
AcDbLine
 10
444.7925243183617
 20
-81.62874031849196
 30
0.0
 11
434.8780757046238
 21
-82.93400224069228
 31
0.0
  0
LINE
  5
35E
330
1F
100
AcDbEntity
  8
その他
  6
Continuous
 62
     7
370
     9
100
AcDbLine
 10
444.7925243183617
 20
-81.62874031849196
 30
0.0
 11
451.2921313014435
 21
-81.62874031849196
 31
0.0
  0
TEXT
  5
35F
330
1F
100
AcDbEntity
  8
その他
  6
Continuous
 62
     2
370
     9
100
AcDbText
 10
400.292613396698
 20
-37.37270072812029
 30
0.0
 40
12.192
  1
60
 41
1.0625
  7
ＭＳ ゴシック
100
AcDbText
  0
LINE
  5
360
330
1F
100
AcDbEntity
  8
その他
  6
Continuous
 62
     7
370
     9
100
AcDbLine
 10
378.7925639087334
 20
-81.62874031849196
 30
0.0
 11
390.6898664847471
 21
-83.19503439577238
 31
0.0
  0
LINE
  5
361
330
1F
100
AcDbEntity
  8
その他
  6
Continuous
 62
     7
370
     9
100
AcDbLine
 10
378.7925639087334
 20
-81.62874031849196
 30
0.0
 11
390.6898664847471
 21
-80.06244624121155
 31
0.0
  0
LINE
  5
362
330
1F
100
AcDbEntity
  8
その他
  6
Continuous
 62
     7
370
     9
100
AcDbLine
 10
438.7925639087334
 20
-41.62870732651572
 30
0.0
 11
426.8952613327201
 21
-43.19500140379614
 31
0.0
  0
LINE
  5
363
330
1F
100
AcDbEntity
  8
その他
  6
Continuous
 62
     7
370
     9
100
AcDbLine
 10
438.7925639087334
 20
-41.62870732651572
 30
0.0
 11
426.8952613327201
 21
-40.06241324923531
 31
0.0
  0
LINE
  5
364
330
1F
100
AcDbEntity
  8
その他
  6
Continuous
 62
     7
370
     9
100
AcDbLine
 10
378.7925639087334
 20
-41.62870732651572
 30
0.0
 11
390.6898664847471
 21
-43.19500140379614
 31
0.0
  0
LINE
  5
365
330
1F
100
AcDbEntity
  8
その他
  6
Continuous
 62
     7
370
     9
100
AcDbLine
 10
378.7925639087334
 20
-41.62870732651572
 30
0.0
 11
390.6898664847471
 21
-40.06241324923531
 31
0.0
  0
LINE
  5
366
330
1F
100
AcDbEntity
  8
その他
  6
Continuous
 62
     7
370
     9
100
AcDbLine
 10
438.7925639087334
 20
13.17139428877135
 30
0.0
 11
438.7925639087334
 21
-42.82869149036696
 31
0.0
  0
LINE
  5
367
330
1F
100
AcDbEntity
  8
その他
  6
Continuous
 62
     7
370
     9
100
AcDbLine
 10
378.7925639087334
 20
10.17143387914302
 30
0.0
 11
378.7925639087334
 21
-82.8287244823432
 31
0.0
  0
LINE
  5
368
330
1F
100
AcDbEntity
  8
その他
  6
Continuous
 62
     7
370
     9
100
AcDbLine
 10
378.7925639087334
 20
-41.62870732651572
 30
0.0
 11
438.7925639087334
 21
-41.62870732651572
 31
0.0
  0
LINE
  5
369
330
1F
100
AcDbEntity
  8
その他
  6
Continuous
 62
     7
370
     9
100
AcDbLine
 10
444.7925243183617
 20
-15.86447270176177
 30
0.0
 11
444.7925243183617
 21
-82.8287244823432
 31
0.0
  0
LINE
  5
36A
330
1F
100
AcDbEntity
  8
その他
  6
Continuous
 62
     7
370
     9
100
AcDbLine
 10
444.7925243183617
 20
-81.62874031849196
 30
0.0
 11
432.8952217423479
 21
-83.19503439577238
 31
0.0
  0
LINE
  5
36B
330
1F
100
AcDbEntity
  8
その他
  6
Continuous
 62
     7
370
     9
100
AcDbLine
 10
444.7925243183617
 20
-81.62874031849196
 30
0.0
 11
432.8952217423479
 21
-80.06244624121155
 31
0.0
  0
LINE
  5
36C
330
1F
100
AcDbEntity
  8
その他
  6
Continuous
 62
     7
370
     9
100
AcDbLine
 10
378.7925639087334
 20
-81.62874031849196
 30
0.0
 11
444.7925243183617
 21
-81.62874031849196
 31
0.0
  0
TEXT
  5
36D
330
1F
100
AcDbEntity
  8
その他
  6
Continuous
 62
     2
370
   211
100
AcDbText
 10
403.2925441135475
 20
-77.37273372009653
 30
0.0
 40
12.192
  1
66
 41
1.0625
  7
ＭＳ ゴシック
100
AcDbText
  0
TEXT
  5
36E
330
1F
100
AcDbEntity
  8
その他
  6
Continuous
 62
     2
370
   211
100
AcDbText
 10
456.6646146096957
 20
-76.97274031849187
 30
0.0
 40
12.192
  1
6.5
 41
1.083333333333312
  7
ＭＳ ゴシック
100
AcDbText
  0
LINE
  5
36F
330
1F
100
AcDbEntity
  8
その他
  6
Continuous
 62
     7
370
     9
100
AcDbLine
 10
451.2921313014435
 20
-81.62874031849196
 30
0.0
 11
483.7503369623104
 21
-81.62874031849196
 31
0.0
  0
LINE
  5
370
330
1F
100
AcDbEntity
  8
ハッチ
  6
Continuous
 62
     6
370
     9
100
AcDbLine
 10
438.792365956875
 20
24.67147017031721
 30
0.0
 11
441.792365956875
 21
24.67147017031721
 31
0.0
  0
LINE
  5
371
330
1F
100
AcDbEntity
  8
ハッチ
  6
Continuous
 62
     6
370
     9
100
AcDbLine
 10
438.792365956875
 20
62.35604835227196
 30
0.0
 11
441.1077877749203
 21
64.67147017031675
 31
0.0
  0
LINE
  5
372
330
1F
100
AcDbEntity
  8
ハッチ
  6
Continuous
 62
     6
370
     9
100
AcDbLine
 10
438.7923659568755
 20
56.69919410277907
 30
0.0
 11
441.7923659568755
 21
59.69919410277907
 31
0.0
  0
LINE
  5
373
330
1F
100
AcDbEntity
  8
ハッチ
  6
Continuous
 62
     6
370
     9
100
AcDbLine
 10
438.7923659568746
 20
51.04233985328483
 30
0.0
 11
441.7923659568746
 21
54.04233985328483
 31
0.0
  0
LINE
  5
374
330
1F
100
AcDbEntity
  8
ハッチ
  6
Continuous
 62
     6
370
     9
100
AcDbLine
 10
438.792365956875
 20
45.38548560379195
 30
0.0
 11
441.792365956875
 21
48.38548560379195
 31
0.0
  0
LINE
  5
375
330
1F
100
AcDbEntity
  8
ハッチ
  6
Continuous
 62
     6
370
     9
100
AcDbLine
 10
438.7923659568746
 20
39.72863135429816
 30
0.0
 11
441.792365956875
 21
42.72863135429816
 31
0.0
  0
LINE
  5
376
330
1F
100
AcDbEntity
  8
ハッチ
  6
Continuous
 62
     6
370
     9
100
AcDbLine
 10
438.792365956875
 20
34.07177710480528
 30
0.0
 11
441.7923659568732
 21
37.07177710480346
 31
0.0
  0
LINE
  5
377
330
1F
100
AcDbEntity
  8
ハッチ
  6
Continuous
 62
     6
370
     9
100
AcDbLine
 10
438.7923659568741
 20
28.41492285531785
 30
0.0
 11
441.7923659568741
 21
31.41492285531831
 31
0.0
  0
LINE
  5
378
330
1F
100
AcDbEntity
  8
ハッチ
  6
Continuous
 62
     6
370
     9
100
AcDbLine
 10
440.7057675213668
 20
24.67147017031766
 30
0.0
 11
441.7923659568746
 21
25.75806860582543
 31
0.0
  0
LINE
  5
379
330
1F
100
AcDbEntity
  8
ハッチ
  6
Continuous
 62
     6
370
     9
100
AcDbLine
 10
438.792365956875
 20
64.6714701703172
 30
0.0
 11
438.792365956875
 21
24.67147017031721
 31
0.0
  0
LINE
  5
37A
330
1F
100
AcDbEntity
  8
ハッチ
  6
Continuous
 62
     6
370
     9
100
AcDbLine
 10
441.792365956875
 20
64.6714701703172
 30
0.0
 11
438.792365956875
 21
64.6714701703172
 31
0.0
  0
LINE
  5
37B
330
1F
100
AcDbEntity
  8
ハッチ
  6
Continuous
 62
     6
370
     9
100
AcDbLine
 10
441.792365956875
 20
24.67147017031721
 30
0.0
 11
441.792365956875
 21
64.6714701703172
 31
0.0
  0
LINE
  5
37C
330
1F
100
AcDbEntity
  8
寸法
  6
Continuous
 62
     7
370
     9
100
AcDbLine
 10
440.292365956875
 20
64.67152625667677
 30
0.0
 11
451.2749329965708
 21
69.50709424654178
 31
0.0
  0
LINE
  5
37D
330
1F
100
AcDbEntity
  8
寸法
  6
Continuous
 62
     7
370
     9
100
AcDbLine
 10
440.292365956875
 20
64.67152625667677
 30
0.0
 11
452.1522556317058
 21
66.49980961816345
 31
0.0
  0
LINE
  5
37E
330
1F
100
AcDbEntity
  8
寸法
  6
Continuous
 62
     7
370
     9
100
AcDbLine
 10
554.9353400511983
 20
98.1161790942341
 30
0.0
 11
440.292365956875
 21
64.67152625667677
 31
0.0
  0
TEXT
  5
37F
330
1F
100
AcDbEntity
  8
寸法
  6
Continuous
 62
     7
370
     9
100
AcDbText
 10
558.7009957346055
 20
83.55321380179305
 30
0.0
 40
9.144
  1
クロロプレンゴム
 41
1.145833333333333
  7
ＭＳ ゴシック
100
AcDbText
  0
LINE
  5
380
330
1F
100
AcDbEntity
  8
寸法
  6
Continuous
 62
     7
370
     9
100
AcDbLine
 10
554.9353400511983
 20
98.1161790942341
 30
0.0
 11
711.5826294517334
 21
98.1161790942341
 31
0.0
  0
TEXT
  5
381
330
1F
100
AcDbEntity
  8
寸法
  6
Continuous
 62
     7
370
     9
100
AcDbText
 10
559.6824344487105
 20
105.6309330004841
 30
0.0
 40
9.144
  1
クッション：ｔ＝３．０
 41
1.151515151515152
  7
ＭＳ ゴシック
100
AcDbText
  0
TEXT
  5
382
330
1F
100
AcDbEntity
  8
F-5ﾚｲﾔ
  6
Continuous
 62
     2
370
     9
100
AcDbText
 10
-309.3628001271063
 20
-548.1112208411942
 30
0.0
 40
12.192
  1
　　　　　　　　　　　　ＳＥＭ－１４－３０６０（Ｐ＝１５）＋ＴＬ６０Ｐ
 41
0.7742857142857144
  7
ＭＳ ゴシック
100
AcDbText
  0
ENDSEC
  0
SECTION
  2
OBJECTS
  0
DICTIONARY
  5
C
330
0
100
AcDbDictionary
281
     1
  3
ACAD_GROUP
350
D
  3
ACAD_LAYOUT
350
1A
  3
ACAD_MLEADERSTYLE
350
384
  3
ACAD_MLINESTYLE
350
17
  3
ACAD_PLOTSETTINGS
350
19
  3
ACAD_PLOTSTYLENAME
350
E
  3
ACAD_TABLESTYLE
350
383
  3
ACAD_VISUALSTYLE
350
2A
  0
DICTIONARY
  5
D
102
{ACAD_REACTORS
330
C
102
}
330
C
100
AcDbDictionary
281
     1
  0
DICTIONARY
  5
1A
102
{ACAD_REACTORS
330
C
102
}
330
C
100
AcDbDictionary
281
     1
  3
Layout1
350
1E
  3
Layout2
350
26
  3
Model
350
22
  0
DICTIONARY
  5
384
102
{ACAD_REACTORS
330
C
102
}
330
C
100
AcDbDictionary
281
     1
  0
DICTIONARY
  5
17
102
{ACAD_REACTORS
330
C
102
}
330
C
100
AcDbDictionary
281
     1
  3
Standard
350
18
  0
DICTIONARY
  5
19
102
{ACAD_REACTORS
330
C
102
}
330
C
100
AcDbDictionary
281
     1
  0
ACDBDICTIONARYWDFLT
  5
E
102
{ACAD_REACTORS
330
C
102
}
330
C
100
AcDbDictionary
281
     1
  3
Normal
350
F
100
AcDbDictionaryWithDefault
340
F
  0
DICTIONARY
  5
383
102
{ACAD_REACTORS
330
C
102
}
330
C
100
AcDbDictionary
281
     1
  0
DICTIONARY
  5
2A
102
{ACAD_REACTORS
330
C
102
}
330
C
100
AcDbDictionary
281
     1
  3
2dWireframe
350
2F
  3
3D Hidden
350
31
  3
3dWireframe
350
30
  3
Basic
350
32
  3
Brighten
350
36
  3
ColorChange
350
3A
  3
Conceptual
350
34
  3
Dim
350
35
  3
Facepattern
350
39
  3
Flat
350
2B
  3
FlatWithEdges
350
2C
  3
Gouraud
350
2D
  3
GouraudWithEdges
350
2E
  3
Linepattern
350
38
  3
Realistic
350
33
  3
Thicken
350
37
  0
LAYOUT
  5
1E
102
{ACAD_REACTORS
330
1A
102
}
330
1A
100
AcDbPlotSettings
  1

  2
none_device
  4

  6

 40
0.0
 41
0.0
 42
0.0
 43
0.0
 44
0.0
 45
0.0
 46
0.0
 47
0.0
 48
0.0
 49
0.0
140
0.0
141
0.0
142
1.0
143
1.0
 70
   688
 72
     0
 73
     0
 74
     5
  7

 75
    16
 76
     0
 77
     5
 78
   300
147
1.0
148
0.0
149
0.0
100
AcDbLayout
  1
Layout1
 70
     1
 71
     1
 10
0.0
 20
0.0
 11
420.0
 21
297.0
 12
0.0
 22
0.0
 32
0.0
 14
1.000000000000000E+20
 24
1.000000000000000E+20
 34
1.000000000000000E+20
 15
-1.000000000000000E+20
 25
-1.000000000000000E+20
 35
-1.000000000000000E+20
146
0.0
 13
0.0
 23
0.0
 33
0.0
 16
1.0
 26
0.0
 36
0.0
 17
0.0
 27
1.0
 37
0.0
 76
     0
330
1B
  0
LAYOUT
  5
26
102
{ACAD_REACTORS
330
1A
102
}
330
1A
100
AcDbPlotSettings
  1

  2
none_device
  4

  6

 40
0.0
 41
0.0
 42
0.0
 43
0.0
 44
0.0
 45
0.0
 46
0.0
 47
0.0
 48
0.0
 49
0.0
140
0.0
141
0.0
142
1.0
143
1.0
 70
   688
 72
     0
 73
     0
 74
     5
  7

 75
    16
 76
     0
 77
     5
 78
   300
147
1.0
148
0.0
149
0.0
100
AcDbLayout
  1
Layout2
 70
     1
 71
     2
 10
0.0
 20
0.0
 11
0.0
 21
0.0
 12
0.0
 22
0.0
 32
0.0
 14
0.0
 24
0.0
 34
0.0
 15
0.0
 25
0.0
 35
0.0
146
0.0
 13
0.0
 23
0.0
 33
0.0
 16
1.0
 26
0.0
 36
0.0
 17
0.0
 27
1.0
 37
0.0
 76
     0
330
23
  0
LAYOUT
  5
22
102
{ACAD_REACTORS
330
1A
102
}
330
1A
100
AcDbPlotSettings
  1

  2
none_device
  4

  6

 40
0.0
 41
0.0
 42
0.0
 43
0.0
 44
0.0
 45
0.0
 46
0.0
 47
0.0
 48
0.0
 49
0.0
140
0.0
141
0.0
142
1.0
143
1.0
 70
  1712
 72
     0
 73
     0
 74
     0
  7

 75
     0
 76
     0
 77
     5
 78
   300
147
1.0
148
0.0
149
0.0
100
AcDbLayout
  1
Model
 70
     1
 71
     0
 10
-840.0
 20
-594.0
 11
840.0
 21
594.0
 12
0.0
 22
0.0
 32
0.0
 14
-840.0
 24
-594.0
 34
0.0
 15
840.0
 25
594.0
 35
0.0
146
0.0
 13
0.0
 23
0.0
 33
0.0
 16
1.0
 26
0.0
 36
0.0
 17
0.0
 27
1.0
 37
0.0
 76
     0
330
1F
331
29
  0
MLINESTYLE
  5
18
102
{ACAD_REACTORS
330
17
102
}
330
17
100
AcDbMlineStyle
  2
Standard
 70
     0
  3

 62
   256
 51
90.0
 52
90.0
 71
     2
 49
0.5
 62
   256
  6
BYLAYER
 49
-0.5
 62
   256
  6
BYLAYER
  0
ACDBPLACEHOLDER
  5
F
102
{ACAD_REACTORS
330
E
102
}
330
E
  0
VISUALSTYLE
  5
2F
102
{ACAD_REACTORS
330
2A
102
}
330
2A
100
AcDbVisualStyle
  2
2dWireframe
 70
     4
 71
     0
 72
     2
 73
     0
 90
        0
 40
-0.6
 41
-30.0
 62
     5
 63
     7
421
 16777215
 74
     1
 91
        4
 64
     7
 65
   257
 75
     1
175
     1
 42
1.0
 92
        0
 66
   257
 43
1.0
 76
     1
 77
     6
 78
     2
 67
     7
 79
     5
170
     0
171
     0
290
     0
174
     0
 93
        1
 44
0.0
173
     0
291
     0
 45
0.0
1001
ACAD
1000
AcDbSavedByObjectVersion
1070
     0
  0
VISUALSTYLE
  5
31
102
{ACAD_REACTORS
330
2A
102
}
330
2A
100
AcDbVisualStyle
  2
3D Hidden
 70
     6
 71
     1
 72
     2
 73
     2
 90
        0
 40
-0.6
 41
-30.0
 62
     5
 63
     7
421
 16777215
 74
     2
 91
        2
 64
     7
 65
   257
 75
     2
175
     1
 42
40.0
 92
        0
 66
   257
 43
1.0
 76
     1
 77
     6
 78
     2
 67
     7
 79
     3
170
     0
171
     0
290
     0
174
     0
 93
        1
 44
0.0
173
     0
291
     0
 45
0.0
1001
ACAD
1000
AcDbSavedByObjectVersion
1070
     0
  0
VISUALSTYLE
  5
30
102
{ACAD_REACTORS
330
2A
102
}
330
2A
100
AcDbVisualStyle
  2
3dWireframe
 70
     5
 71
     0
 72
     2
 73
     0
 90
        0
 40
-0.6
 41
-30.0
 62
     5
 63
     7
421
 16777215
 74
     1
 91
        4
 64
     7
 65
   257
 75
     1
175
     1
 42
1.0
 92
        0
 66
   257
 43
1.0
 76
     1
 77
     6
 78
     2
 67
     7
 79
     5
170
     0
171
     0
290
     0
174
     0
 93
        1
 44
0.0
173
     0
291
     0
 45
0.0
1001
ACAD
1000
AcDbSavedByObjectVersion
1070
     0
  0
VISUALSTYLE
  5
32
102
{ACAD_REACTORS
330
2A
102
}
330
2A
100
AcDbVisualStyle
  2
Basic
 70
     7
 71
     1
 72
     0
 73
     1
 90
        0
 40
-0.6
 41
-30.0
 62
     5
 63
     7
421
 16777215
 74
     0
 91
        4
 64
     7
 65
   257
 75
     1
175
     1
 42
1.0
 92
        8
 66
     7
 43
1.0
 76
     1
 77
     6
 78
     2
 67
     7
 79
     5
170
     0
171
     0
290
     0
174
     0
 93
        1
 44
0.0
173
     0
291
     1
 45
0.0
1001
ACAD
1000
AcDbSavedByObjectVersion
1070
     0
  0
VISUALSTYLE
  5
36
102
{ACAD_REACTORS
330
2A
102
}
330
2A
100
AcDbVisualStyle
  2
Brighten
 70
    12
 71
     2
 72
     2
 73
     0
 90
        0
 40
-0.6
 41
-30.0
 62
     5
 63
     7
421
 16777215
 74
     1
 91
        4
 64
     7
 65
   257
 75
     1
175
     1
 42
1.0
 92
        8
 66
     7
 43
1.0
 76
     1
 77
     6
 78
     2
 67
     7
 79
     5
170
     0
171
     0
290
     0
174
     0
 93
        1
 44
50.0
173
     0
291
     1
 45
0.0
1001
ACAD
1000
AcDbSavedByObjectVersion
1070
     0
  0
VISUALSTYLE
  5
3A
102
{ACAD_REACTORS
330
2A
102
}
330
2A
100
AcDbVisualStyle
  2
ColorChange
 70
    16
 71
     2
 72
     2
 73
     3
 90
        0
 40
-0.6
 41
-30.0
 62
     5
 63
     8
421
  8421504
 74
     1
 91
        4
 64
     7
 65
   257
 75
     1
175
     1
 42
1.0
 92
        8
 66
     8
424
  8421504
 43
1.0
 76
     1
 77
     6
 78
     2
 67
     7
 79
     5
170
     0
171
     0
290
     0
174
     0
 93
        1
 44
0.0
173
     0
291
     1
 45
0.0
1001
ACAD
1000
AcDbSavedByObjectVersion
1070
     0
  0
VISUALSTYLE
  5
34
102
{ACAD_REACTORS
330
2A
102
}
330
2A
100
AcDbVisualStyle
  2
Conceptual
 70
     9
 71
     3
 72
     2
 73
     0
 90
        0
 40
-0.6
 41
-30.0
 62
     5
 63
     7
421
 16777215
 74
     2
 91
        2
 64
     7
 65
   257
 75
     1
175
     1
 42
40.0
 92
        8
 66
     7
 43
1.0
 76
     1
 77
     6
 78
     2
 67
     7
 79
     3
170
     0
171
     0
290
     0
174
     0
 93
        1
 44
0.0
173
     0
291
     0
 45
0.0
1001
ACAD
1000
AcDbSavedByObjectVersion
1070
     0
  0
VISUALSTYLE
  5
35
102
{ACAD_REACTORS
330
2A
102
}
330
2A
100
AcDbVisualStyle
  2
Dim
 70
    11
 71
     2
 72
     2
 73
     0
 90
        0
 40
-0.6
 41
-30.0
 62
     5
 63
     7
421
 16777215
 74
     1
 91
        4
 64
     7
 65
   257
 75
     1
175
     1
 42
1.0
 92
        8
 66
     7
 43
1.0
 76
     1
 77
     6
 78
     2
 67
     7
 79
     5
170
     0
171
     0
290
     0
174
     0
 93
        1
 44
-50.0
173
     0
291
     1
 45
0.0
1001
ACAD
1000
AcDbSavedByObjectVersion
1070
     0
  0
VISUALSTYLE
  5
39
102
{ACAD_REACTORS
330
2A
102
}
330
2A
100
AcDbVisualStyle
  2
Facepattern
 70
    15
 71
     2
 72
     2
 73
     0
 90
        0
 40
-0.6
 41
-30.0
 62
     5
 63
     7
421
 16777215
 74
     1
 91
        4
 64
     7
 65
   257
 75
     1
175
     1
 42
1.0
 92
        8
 66
     7
 43
1.0
 76
     1
 77
     6
 78
     2
 67
     7
 79
     5
170
     0
171
     0
290
     0
174
     0
 93
        1
 44
0.0
173
     0
291
     1
 45
0.0
1001
ACAD
1000
AcDbSavedByObjectVersion
1070
     0
  0
VISUALSTYLE
  5
2B
102
{ACAD_REACTORS
330
2A
102
}
330
2A
100
AcDbVisualStyle
  2
Flat
 70
     0
 71
     2
 72
     1
 73
     1
 90
        2
 40
-0.6
 41
30.0
 62
     5
 63
     7
421
 16777215
 74
     0
 91
        4
 64
     7
 65
   257
 75
     1
175
     1
 42
1.0
 92
        8
 66
     7
 43
1.0
 76
     1
 77
     6
 78
     2
 67
     7
 79
     5
170
     0
171
     0
290
     0
174
     0
 93
       13
 44
0.0
173
     0
291
     1
 45
0.0
1001
ACAD
1000
AcDbSavedByObjectVersion
1070
     0
  0
VISUALSTYLE
  5
2C
102
{ACAD_REACTORS
330
2A
102
}
330
2A
100
AcDbVisualStyle
  2
FlatWithEdges
 70
     1
 71
     2
 72
     1
 73
     1
 90
        2
 40
-0.6
 41
30.0
 62
     5
 63
     7
421
 16777215
 74
     1
 91
        4
 64
     7
 65
   257
 75
     1
175
     1
 42
1.0
 92
        0
 66
   257
 43
1.0
 76
     1
 77
     6
 78
     2
 67
     7
 79
     5
170
     0
171
     0
290
     0
174
     0
 93
       13
 44
0.0
173
     0
291
     1
 45
0.0
1001
ACAD
1000
AcDbSavedByObjectVersion
1070
     0
  0
VISUALSTYLE
  5
2D
102
{ACAD_REACTORS
330
2A
102
}
330
2A
100
AcDbVisualStyle
  2
Gouraud
 70
     2
 71
     2
 72
     2
 73
     1
 90
        2
 40
-0.6
 41
30.0
 62
     5
 63
     7
421
 16777215
 74
     0
 91
        4
 64
     7
 65
   257
 75
     1
175
     1
 42
1.0
 92
        0
 66
     7
 43
1.0
 76
     1
 77
     6
 78
     2
 67
     7
 79
     5
170
     0
171
     0
290
     0
174
     0
 93
       13
 44
0.0
173
     0
291
     1
 45
0.0
1001
ACAD
1000
AcDbSavedByObjectVersion
1070
     0
  0
VISUALSTYLE
  5
2E
102
{ACAD_REACTORS
330
2A
102
}
330
2A
100
AcDbVisualStyle
  2
GouraudWithEdges
 70
     3
 71
     2
 72
     2
 73
     1
 90
        2
 40
-0.6
 41
30.0
 62
     5
 63
     7
421
 16777215
 74
     1
 91
        4
 64
     7
 65
   257
 75
     1
175
     1
 42
1.0
 92
        0
 66
   257
 43
1.0
 76
     1
 77
     6
 78
     2
 67
     7
 79
     5
170
     0
171
     0
290
     0
174
     0
 93
       13
 44
0.0
173
     0
291
     1
 45
0.0
1001
ACAD
1000
AcDbSavedByObjectVersion
1070
     0
  0
VISUALSTYLE
  5
38
102
{ACAD_REACTORS
330
2A
102
}
330
2A
100
AcDbVisualStyle
  2
Linepattern
 70
    14
 71
     2
 72
     2
 73
     0
 90
        0
 40
-0.6
 41
-30.0
 62
     5
 63
     7
421
 16777215
 74
     1
 91
        4
 64
     7
 65
   257
 75
     7
175
     7
 42
1.0
 92
        8
 66
     7
 43
1.0
 76
     1
 77
     6
 78
     2
 67
     7
 79
     5
170
     0
171
     0
290
     0
174
     0
 93
        1
 44
0.0
173
     0
291
     1
 45
0.0
1001
ACAD
1000
AcDbSavedByObjectVersion
1070
     0
  0
VISUALSTYLE
  5
33
102
{ACAD_REACTORS
330
2A
102
}
330
2A
100
AcDbVisualStyle
  2
Realistic
 70
     8
 71
     2
 72
     2
 73
     0
 90
        0
 40
-0.6
 41
-30.0
 62
     5
 63
     7
421
 16777215
 74
     1
 91
        0
 64
     7
 65
   257
 75
     1
175
     1
 42
1.0
 92
        8
 66
     8
424
  7895160
 43
1.0
 76
     1
 77
     6
 78
     2
 67
     7
 79
     5
170
     0
171
     0
290
     0
174
     0
 93
       13
 44
0.0
173
     0
291
     0
 45
0.0
1001
ACAD
1000
AcDbSavedByObjectVersion
1070
     0
  0
VISUALSTYLE
  5
37
102
{ACAD_REACTORS
330
2A
102
}
330
2A
100
AcDbVisualStyle
  2
Thicken
 70
    13
 71
     2
 72
     2
 73
     0
 90
        0
 40
-0.6
 41
-30.0
 62
     5
 63
     7
421
 16777215
 74
     1
 91
        4
 64
     7
 65
   257
 75
     1
175
     1
 42
1.0
 92
       12
 66
     7
 43
1.0
 76
     1
 77
     6
 78
     2
 67
     7
 79
     5
170
     0
171
     0
290
     0
174
     0
 93
        1
 44
0.0
173
     0
291
     1
 45
0.0
1001
ACAD
1000
AcDbSavedByObjectVersion
1070
     0
  0
ENDSEC
  0
EOF
