  0
SECTION
  2
HEADER
  9
$ACADVER
  1
AC1018
  9
$ACADMAINTVER
 70
     0
  9
$DWGCODEPAGE
  3
ANSI_932
  9
$INSBASE
 10
0.0
 20
0.0
 30
0.0
  9
$EXTMIN
 10
-840.0
 20
-594.0
 30
0.0
  9
$EXTMAX
 10
840.0
 20
594.0
 30
0.0
  9
$LIMMIN
 10
-840.0
 20
-594.0
  9
$LIMMAX
 10
840.0
 20
594.0
  9
$ORTHOMODE
 70
     0
  9
$REGENMODE
 70
     1
  9
$FILLMODE
 70
     1
  9
$QTEXTMODE
 70
     0
  9
$MIRRTEXT
 70
     1
  9
$LTSCALE
 40
4.0
  9
$ATTMODE
 70
     1
  9
$TEXTSIZE
 40
2.5
  9
$TRACEWID
 40
1.0
  9
$TEXTSTYLE
  7
Standard
  9
$CLAYER
  8
0
  9
$CELTYPE
  6
ByLayer
  9
$CECOLOR
 62
   256
  9
$CELTSCALE
 40
1.0
  9
$DISPSILH
 70
     0
  9
$DIMSCALE
 40
1.0
  9
$DIMASZ
 40
2.5
  9
$DIMEXO
 40
0.625
  9
$DIMDLI
 40
3.75
  9
$DIMRND
 40
0.0
  9
$DIMDLE
 40
0.0
  9
$DIMEXE
 40
1.25
  9
$DIMTP
 40
0.0
  9
$DIMTM
 40
0.0
  9
$DIMTXT
 40
2.5
  9
$DIMCEN
 40
2.5
  9
$DIMTSZ
 40
0.0
  9
$DIMTOL
 70
     0
  9
$DIMLIM
 70
     0
  9
$DIMTIH
 70
     0
  9
$DIMTOH
 70
     0
  9
$DIMSE1
 70
     0
  9
$DIMSE2
 70
     0
  9
$DIMTAD
 70
     1
  9
$DIMZIN
 70
     8
  9
$DIMBLK
  1

  9
$DIMASO
 70
     1
  9
$DIMSHO
 70
     1
  9
$DIMPOST
  1

  9
$DIMAPOST
  1

  9
$DIMALT
 70
     0
  9
$DIMALTD
 70
     3
  9
$DIMALTF
 40
0.03937007874016
  9
$DIMLFAC
 40
1.0
  9
$DIMTOFL
 70
     1
  9
$DIMTVP
 40
0.0
  9
$DIMTIX
 70
     0
  9
$DIMSOXD
 70
     0
  9
$DIMSAH
 70
     0
  9
$DIMBLK1
  1

  9
$DIMBLK2
  1

  9
$DIMSTYLE
  2
ISO-25
  9
$DIMCLRD
 70
     0
  9
$DIMCLRE
 70
     0
  9
$DIMCLRT
 70
     0
  9
$DIMTFAC
 40
1.0
  9
$DIMGAP
 40
0.625
  9
$DIMJUST
 70
     0
  9
$DIMSD1
 70
     0
  9
$DIMSD2
 70
     0
  9
$DIMTOLJ
 70
     0
  9
$DIMTZIN
 70
     8
  9
$DIMALTZ
 70
     0
  9
$DIMALTTZ
 70
     0
  9
$DIMUPT
 70
     0
  9
$DIMDEC
 70
     2
  9
$DIMTDEC
 70
     2
  9
$DIMALTU
 70
     2
  9
$DIMALTTD
 70
     3
  9
$DIMTXSTY
  7
Standard
  9
$DIMAUNIT
 70
     0
  9
$DIMADEC
 70
     0
  9
$DIMALTRND
 40
0.0
  9
$DIMAZIN
 70
     0
  9
$DIMDSEP
 70
    44
  9
$DIMATFIT
 70
     3
  9
$DIMFRAC
 70
     0
  9
$DIMLDRBLK
  1

  9
$DIMLUNIT
 70
     2
  9
$DIMLWD
 70
    -2
  9
$DIMLWE
 70
    -2
  9
$DIMTMOVE
 70
     0
  9
$LUNITS
 70
     2
  9
$LUPREC
 70
     4
  9
$SKETCHINC
 40
1.0
  9
$FILLETRAD
 40
10.0
  9
$AUNITS
 70
     0
  9
$AUPREC
 70
     0
  9
$MENU
  1
.
  9
$ELEVATION
 40
0.0
  9
$PELEVATION
 40
0.0
  9
$THICKNESS
 40
0.0
  9
$LIMCHECK
 70
     0
  9
$CHAMFERA
 40
10.0
  9
$CHAMFERB
 40
10.0
  9
$CHAMFERC
 40
20.0
  9
$CHAMFERD
 40
0.0
  9
$SKPOLY
 70
     0
  9
$TDCREATE
 40
2457520.72449125
  9
$TDUCREATE
 40
2457520.34949125
  9
$TDUPDATE
 40
2457520.724491261
  9
$TDUUPDATE
 40
2457520.349491261
  9
$TDINDWG
 40
0.0000000116
  9
$TDUSRTIMER
 40
0.0000000116
  9
$USRTIMER
 70
     1
  9
$ANGBASE
 50
0.0
  9
$ANGDIR
 70
     0
  9
$PDMODE
 70
     0
  9
$PDSIZE
 40
0.0
  9
$PLINEWID
 40
0.0
  9
$SPLFRAME
 70
     0
  9
$SPLINETYPE
 70
     6
  9
$SPLINESEGS
 70
     8
  9
$HANDSEED
  5
3A3
  9
$SURFTAB1
 70
     6
  9
$SURFTAB2
 70
     6
  9
$SURFTYPE
 70
     6
  9
$SURFU
 70
     6
  9
$SURFV
 70
     6
  9
$UCSBASE
  2

  9
$UCSNAME
  2

  9
$UCSORG
 10
0.0
 20
0.0
 30
0.0
  9
$UCSXDIR
 10
1.0
 20
0.0
 30
0.0
  9
$UCSYDIR
 10
0.0
 20
1.0
 30
0.0
  9
$UCSORTHOREF
  2

  9
$UCSORTHOVIEW
 70
     0
  9
$UCSORGTOP
 10
0.0
 20
0.0
 30
0.0
  9
$UCSORGBOTTOM
 10
0.0
 20
0.0
 30
0.0
  9
$UCSORGLEFT
 10
0.0
 20
0.0
 30
0.0
  9
$UCSORGRIGHT
 10
0.0
 20
0.0
 30
0.0
  9
$UCSORGFRONT
 10
0.0
 20
0.0
 30
0.0
  9
$UCSORGBACK
 10
0.0
 20
0.0
 30
0.0
  9
$PUCSBASE
  2

  9
$PUCSNAME
  2

  9
$PUCSORG
 10
0.0
 20
0.0
 30
0.0
  9
$PUCSXDIR
 10
1.0
 20
0.0
 30
0.0
  9
$PUCSYDIR
 10
0.0
 20
1.0
 30
0.0
  9
$PUCSORTHOREF
  2

  9
$PUCSORTHOVIEW
 70
     0
  9
$PUCSORGTOP
 10
0.0
 20
0.0
 30
0.0
  9
$PUCSORGBOTTOM
 10
0.0
 20
0.0
 30
0.0
  9
$PUCSORGLEFT
 10
0.0
 20
0.0
 30
0.0
  9
$PUCSORGRIGHT
 10
0.0
 20
0.0
 30
0.0
  9
$PUCSORGFRONT
 10
0.0
 20
0.0
 30
0.0
  9
$PUCSORGBACK
 10
0.0
 20
0.0
 30
0.0
  9
$USERI1
 70
     0
  9
$USERI2
 70
     0
  9
$USERI3
 70
     0
  9
$USERI4
 70
     0
  9
$USERI5
 70
     0
  9
$USERR1
 40
0.0
  9
$USERR2
 40
0.0
  9
$USERR3
 40
0.0
  9
$USERR4
 40
0.0
  9
$USERR5
 40
0.0
  9
$WORLDVIEW
 70
     1
  9
$SHADEDGE
 70
     3
  9
$SHADEDIF
 70
    70
  9
$TILEMODE
 70
     1
  9
$MAXACTVP
 70
    64
  9
$PINSBASE
 10
0.0
 20
0.0
 30
0.0
  9
$PLIMCHECK
 70
     0
  9
$PEXTMIN
 10
1.000000000000000E+20
 20
1.000000000000000E+20
 30
1.000000000000000E+20
  9
$PEXTMAX
 10
-1.000000000000000E+20
 20
-1.000000000000000E+20
 30
-1.000000000000000E+20
  9
$PLIMMIN
 10
0.0
 20
0.0
  9
$PLIMMAX
 10
420.0
 20
297.0
  9
$UNITMODE
 70
     0
  9
$VISRETAIN
 70
     1
  9
$PLINEGEN
 70
     0
  9
$PSLTSCALE
 70
     1
  9
$TREEDEPTH
 70
  3020
  9
$CMLSTYLE
  2
Standard
  9
$CMLJUST
 70
     0
  9
$CMLSCALE
 40
20.0
  9
$PROXYGRAPHICS
 70
     1
  9
$MEASUREMENT
 70
     1
  9
$CELWEIGHT
370
    -1
  9
$ENDCAPS
280
     0
  9
$JOINSTYLE
280
     0
  9
$LWDISPLAY
290
     0
  9
$INSUNITS
 70
     4
  9
$HYPERLINKBASE
  1

  9
$STYLESHEET
  1

  9
$XEDIT
290
     1
  9
$CEPSNTYPE
380
     0
  9
$PSTYLEMODE
290
     1
  9
$FINGERPRINTGUID
  2
{52E5A47C-DE53-4622-97ED-6CF69C065EEB}
  9
$VERSIONGUID
  2
{FAEB1C32-E019-11D5-929B-00C0DF256EC4}
  9
$EXTNAMES
290
     1
  9
$PSVPSCALE
 40
0.0
  9
$OLESTARTUP
290
     0
  9
$SORTENTS
280
   127
  9
$INDEXCTL
280
     0
  9
$HIDETEXT
280
     1
  9
$XCLIPFRAME
290
     0
  9
$HALOGAP
280
     0
  9
$OBSCOLOR
 70
   257
  9
$OBSLTYPE
280
     0
  9
$INTERSECTIONDISPLAY
280
     0
  9
$INTERSECTIONCOLOR
 70
   257
  9
$DIMASSOC
280
     2
  9
$PROJECTNAME
  1

  0
ENDSEC
  0
SECTION
  2
CLASSES
  0
CLASS
  1
ACDBDICTIONARYWDFLT
  2
AcDbDictionaryWithDefault
  3
ObjectDBX Classes
 90
        0
 91
        4
280
     0
281
     0
  0
CLASS
  1
VISUALSTYLE
  2
AcDbVisualStyle
  3
ObjectDBX Classes
 90
     4095
 91
        4
280
     0
281
     0
  0
ENDSEC
  0
SECTION
  2
TABLES
  0
TABLE
  2
VPORT
  5
8
330
0
100
AcDbSymbolTable
 70
     1
  0
VPORT
  5
29
330
8
100
AcDbSymbolTableRecord
100
AcDbViewportTableRecord
  2
*Active
 70
     0
 10
0.0
 20
0.0
 11
1.0
 21
1.0
 12
0.0
 22
0.0
 13
0.0
 23
0.0
 14
10.0
 24
10.0
 15
10.0
 25
10.0
 16
0.0
 26
0.0
 36
1.0
 17
0.0
 27
0.0
 37
0.0
 40
1306.8
 41
1.414141414141414
 42
50.0
 43
0.0
 44
0.0
 50
0.0
 51
0.0
 71
     0
 72
 10000
 73
     1
 74
     3
 75
     0
 76
     0
 77
     0
 78
     0
281
     0
 65
     1
110
0.0
120
0.0
130
0.0
111
1.0
121
0.0
131
0.0
112
0.0
122
1.0
132
0.0
 79
     0
146
0.0
  0
ENDTAB
  0
TABLE
  2
LTYPE
  5
5
330
0
100
AcDbSymbolTable
 70
     6
  0
LTYPE
  5
14
330
5
100
AcDbSymbolTableRecord
100
AcDbLinetypeTableRecord
  2
ByBlock
 70
     0
  3

 72
    65
 73
     0
 40
0.0
  0
LTYPE
  5
15
330
5
100
AcDbSymbolTableRecord
100
AcDbLinetypeTableRecord
  2
ByLayer
 70
     0
  3

 72
    65
 73
     0
 40
0.0
  0
LTYPE
  5
16
330
5
100
AcDbSymbolTableRecord
100
AcDbLinetypeTableRecord
  2
Continuous
 70
     0
  3
Solid line
 72
    65
 73
     0
 40
0.0
  0
LTYPE
  5
3C
330
5
100
AcDbSymbolTableRecord
100
AcDbLinetypeTableRecord
  2
JWW_CENTER2
 70
     0
  3
-------------  --  -------------
 72
    65
 73
     4
 40
13.54666666666667
 49
11.00666666666667
 74
     0
 49
-0.8466666666666667
 74
     0
 49
0.8466666666666667
 74
     0
 49
-0.8466666666666667
 74
     0
  0
LTYPE
  5
3D
330
5
100
AcDbSymbolTableRecord
100
AcDbLinetypeTableRecord
  2
JWW_DASHED1
 70
     0
  3
-  --  --  --  --  --  --  --  -
 72
    65
 73
     2
 40
1.693333333333333
 49
0.8466666666666667
 74
     0
 49
-0.8466666666666667
 74
     0
  0
LTYPE
  5
3E
330
5
100
AcDbSymbolTableRecord
100
AcDbLinetypeTableRecord
  2
JWW_CENTER1
 70
     0
  3
-----  --  ----------  --  -----
 72
    65
 73
     4
 40
6.773333333333333
 49
4.233333333333333
 74
     0
 49
-0.8466666666666667
 74
     0
 49
0.8466666666666667
 74
     0
 49
-0.8466666666666667
 74
     0
  0
LTYPE
  5
3F
330
5
100
AcDbSymbolTableRecord
100
AcDbLinetypeTableRecord
  2
JWW_DASHED3
 70
     0
  3
---  ------  ------  ------  ---
 72
    65
 73
     2
 40
3.386666666666667
 49
2.54
 74
     0
 49
-0.8466666666666667
 74
     0
  0
LTYPE
  5
40
330
5
100
AcDbSymbolTableRecord
100
AcDbLinetypeTableRecord
  2
JWW_PHANTOM2
 70
     0
  3
------------  -  -  ------------
 72
    65
 73
     6
 40
13.54666666666667
 49
10.16
 74
     0
 49
-0.8466666666666667
 74
     0
 49
0.4233333333333333
 74
     0
 49
-0.8466666666666667
 74
     0
 49
0.4233333333333333
 74
     0
 49
-0.8466666666666667
 74
     0
  0
ENDTAB
  0
TABLE
  2
LAYER
  5
2
330
0
100
AcDbSymbolTable
 70
     8
  0
LAYER
  5
10
330
2
100
AcDbSymbolTableRecord
100
AcDbLayerTableRecord
  2
0
 70
     0
 62
     7
  6
Continuous
370
    -3
390
F
  0
LAYER
  5
41
330
2
100
AcDbSymbolTableRecord
100
AcDbLayerTableRecord
  2
F-5ﾚｲﾔ
 70
     0
 62
     7
  6
Continuous
370
    -3
390
F
  0
LAYER
  5
42
330
2
100
AcDbSymbolTableRecord
100
AcDbLayerTableRecord
  2
0-F
 70
     0
 62
     7
  6
Continuous
370
    -3
390
F
  0
LAYER
  5
43
330
2
100
AcDbSymbolTableRecord
100
AcDbLayerTableRecord
  2
ハッチ
 70
     0
 62
     7
  6
Continuous
370
    -3
390
F
  0
LAYER
  5
44
330
2
100
AcDbSymbolTableRecord
100
AcDbLayerTableRecord
  2
躯体
 70
     0
 62
     7
  6
Continuous
370
    -3
390
F
  0
LAYER
  5
45
330
2
100
AcDbSymbolTableRecord
100
AcDbLayerTableRecord
  2
0-E
 70
     0
 62
     7
  6
Continuous
370
    -3
390
F
  0
LAYER
  5
46
330
2
100
AcDbSymbolTableRecord
100
AcDbLayerTableRecord
  2
寸法
 70
     0
 62
     7
  6
Continuous
370
    -3
390
F
  0
LAYER
  5
47
330
2
100
AcDbSymbolTableRecord
100
AcDbLayerTableRecord
  2
通り芯
 70
     0
 62
     7
  6
Continuous
370
    -3
390
F
  0
ENDTAB
  0
TABLE
  2
STYLE
  5
3
330
0
100
AcDbSymbolTable
 70
     2
  0
STYLE
  5
11
330
3
100
AcDbSymbolTableRecord
100
AcDbTextStyleTableRecord
  2
Standard
 70
     0
 40
0.0
 41
1.0
 50
0.0
 71
     0
 42
2.5
  3
txt
  4

1001
ACAD
1000

1071
        0
  0
STYLE
  5
3B
330
3
100
AcDbSymbolTableRecord
100
AcDbTextStyleTableRecord
  2
ＭＳ ゴシック
 70
     0
 40
1.0
 41
1.0
 50
0.0
 71
     0
 42
10.0
  3

  4

1001
ACAD
1000
MS Gothic
1071
    32817
  0
ENDTAB
  0
TABLE
  2
VIEW
  5
6
330
0
100
AcDbSymbolTable
 70
     0
  0
ENDTAB
  0
TABLE
  2
UCS
  5
7
330
0
100
AcDbSymbolTable
 70
     0
  0
ENDTAB
  0
TABLE
  2
APPID
  5
9
330
0
100
AcDbSymbolTable
 70
     1
  0
APPID
  5
12
330
9
100
AcDbSymbolTableRecord
100
AcDbRegAppTableRecord
  2
ACAD
 70
     0
  0
ENDTAB
  0
TABLE
  2
DIMSTYLE
  5
A
330
0
100
AcDbSymbolTable
 70
     1
100
AcDbDimStyleTable
  0
DIMSTYLE
105
27
330
A
100
AcDbSymbolTableRecord
100
AcDbDimStyleTableRecord
  2
ISO-25
 70
     0
 41
2.5
 42
0.625
 43
3.75
 44
1.25
 73
     0
 74
     0
 77
     1
 78
     8
140
2.5
141
2.5
143
0.03937007874016
147
0.625
171
     3
172
     1
271
     2
272
     2
274
     3
278
    44
283
     0
284
     8
340
11
  0
ENDTAB
  0
TABLE
  2
BLOCK_RECORD
  5
1
330
0
100
AcDbSymbolTable
 70
     1
  0
BLOCK_RECORD
  5
1F
330
1
100
AcDbSymbolTableRecord
100
AcDbBlockTableRecord
  2
*Model_Space
340
22
  0
BLOCK_RECORD
  5
1B
330
1
100
AcDbSymbolTableRecord
100
AcDbBlockTableRecord
  2
*Paper_Space
340
1E
  0
BLOCK_RECORD
  5
23
330
1
100
AcDbSymbolTableRecord
100
AcDbBlockTableRecord
  2
*Paper_Space0
340
26
  0
ENDTAB
  0
ENDSEC
  0
SECTION
  2
BLOCKS
  0
BLOCK
  5
20
330
1F
100
AcDbEntity
  8
0
100
AcDbBlockBegin
  2
*Model_Space
 70
     0
 10
0.0
 20
0.0
 30
0.0
  3
*Model_Space
  1

  0
ENDBLK
  5
21
330
1F
100
AcDbEntity
  8
0
100
AcDbBlockEnd
  0
BLOCK
  5
1C
330
1B
100
AcDbEntity
 67
     1
  8
0
100
AcDbBlockBegin
  2
*Paper_Space
 70
     0
 10
0.0
 20
0.0
 30
0.0
  3
*Paper_Space
  1

  0
ENDBLK
  5
1D
330
1B
100
AcDbEntity
 67
     1
  8
0
100
AcDbBlockEnd
  0
BLOCK
  5
24
330
23
100
AcDbEntity
  8
0
100
AcDbBlockBegin
  2
*Paper_Space0
 70
     0
 10
0.0
 20
0.0
 30
0.0
  3
*Paper_Space0
  1

  0
ENDBLK
  5
25
330
23
100
AcDbEntity
  8
0
100
AcDbBlockEnd
  0
ENDSEC
  0
SECTION
  2
ENTITIES
  0
TEXT
  5
48
330
1F
100
AcDbEntity
  8
F-5ﾚｲﾔ
  6
Continuous
 62
     2
370
     9
100
AcDbText
 10
-309.3628001271063
 20
-528.4488751053836
 30
0.0
 40
12.192
  1
タイル用　充填深さ４０ｍｍ　ステンレス目地　側溝用　カラー舗装用みぞ蓋　
 41
0.7743055555555557
  7
ＭＳ ゴシック
100
AcDbText
  0
TEXT
  5
49
330
1F
100
AcDbEntity
  8
0-F
  6
Continuous
 62
     2
370
   211
100
AcDbText
 10
467.3121445221716
 20
-111.2025980900072
 30
0.0
 40
12.192
  1
6.5
 41
1.083333333333333
  7
ＭＳ ゴシック
100
AcDbText
  0
LINE
  5
4A
330
1F
100
AcDbEntity
  8
0-F
  6
Continuous
 62
     7
370
     9
100
AcDbLine
 10
461.360928699166
 20
-117.4585980900072
 30
0.0
 11
495.3532280437863
 21
-117.4585980900072
 31
0.0
  0
LINE
  5
4B
330
1F
100
AcDbEntity
  8
0-F
  6
Continuous
 62
     7
370
     9
100
AcDbLine
 10
461.360928699166
 20
-117.4585980900072
 30
0.0
 11
471.2753773129042
 21
-118.7638600122077
 31
0.0
  0
LINE
  5
4C
330
1F
100
AcDbEntity
  8
0-F
  6
Continuous
 62
     7
370
     9
100
AcDbLine
 10
461.360928699166
 20
-117.4585980900072
 30
0.0
 11
471.2753773129042
 21
-116.1533361678066
 31
0.0
  0
LINE
  5
4D
330
1F
100
AcDbEntity
  8
0-F
  6
Continuous
 62
     7
370
     9
100
AcDbLine
 10
461.360928699166
 20
-118.6585980900072
 30
0.0
 11
461.360928699166
 21
-6.458581358361926
 31
0.0
  0
LINE
  5
4E
330
1F
100
AcDbEntity
  8
0-F
  6
Continuous
 62
     7
370
     9
100
AcDbLine
 10
454.8613217160841
 20
-117.4585980900072
 30
0.0
 11
461.360928699166
 21
-117.4585980900072
 31
0.0
  0
TEXT
  5
4F
330
1F
100
AcDbEntity
  8
0-F
  6
Continuous
 62
     2
370
   211
100
AcDbText
 10
535.6054206920134
 20
-40.95858813349992
 30
0.0
 40
12.192
  1
30
 50
90.0
 41
1.0625
  7
ＭＳ ゴシック
100
AcDbText
  0
LINE
  5
50
330
1F
100
AcDbEntity
  8
0-F
  6
Continuous
 62
     7
370
     9
100
AcDbLine
 10
543.0614206920134
 20
-47.45856168100477
 30
0.0
 11
463.361051181878
 21
-47.45856168100477
 31
0.0
  0
LINE
  5
51
330
1F
100
AcDbEntity
  8
0-F
  6
Continuous
 62
     7
370
     9
100
AcDbLine
 10
541.8614206920133
 20
-17.45861458599529
 30
0.0
 11
543.1666826142139
 21
-27.37306319973345
 31
0.0
  0
LINE
  5
52
330
1F
100
AcDbEntity
  8
0-F
  6
Continuous
 62
     7
370
     9
100
AcDbLine
 10
541.8614206920133
 20
-17.45861458599529
 30
0.0
 11
540.5561587698128
 21
-27.37306319973345
 31
0.0
  0
LINE
  5
53
330
1F
100
AcDbEntity
  8
0-F
  6
Continuous
 62
     7
370
     9
100
AcDbLine
 10
541.8614206920133
 20
-47.45856168100477
 30
0.0
 11
543.1666826142139
 21
-37.54411306726661
 31
0.0
  0
LINE
  5
54
330
1F
100
AcDbEntity
  8
0-F
  6
Continuous
 62
     7
370
     9
100
AcDbLine
 10
541.8614206920133
 20
-47.45856168100477
 30
0.0
 11
540.5561587698128
 21
-37.54411306726661
 31
0.0
  0
LINE
  5
55
330
1F
100
AcDbEntity
  8
0-F
  6
Continuous
 62
     7
370
     9
100
AcDbLine
 10
541.8614206920133
 20
-47.45856168100477
 30
0.0
 11
541.8614206920133
 21
-17.45861458599529
 31
0.0
  0
TEXT
  5
56
330
1F
100
AcDbEntity
  8
0-F
  6
Continuous
 62
     2
370
   211
100
AcDbText
 10
535.6054206920134
 20
339.0414002014795
 30
0.0
 40
12.192
  1
30
 50
90.0
 41
1.0625
  7
ＭＳ ゴシック
100
AcDbText
  0
LINE
  5
57
330
1F
100
AcDbEntity
  8
0-F
  6
Continuous
 62
     7
370
     9
100
AcDbLine
 10
543.0614206920134
 20
362.5413490050016
 30
0.0
 11
463.361051181878
 21
362.5413490050016
 31
0.0
  0
LINE
  5
58
330
1F
100
AcDbEntity
  8
0-F
  6
Continuous
 62
     7
370
     9
100
AcDbLine
 10
540.6614206920133
 20
332.5414513979574
 30
0.0
 11
533.8615196679423
 21
332.5414513979574
 31
0.0
  0
LINE
  5
59
330
1F
100
AcDbEntity
  8
0-F
  6
Continuous
 62
     7
370
     9
100
AcDbLine
 10
541.8614206920133
 20
362.5413490050016
 30
0.0
 11
543.1666826142139
 21
352.6269003912635
 31
0.0
  0
LINE
  5
5A
330
1F
100
AcDbEntity
  8
0-F
  6
Continuous
 62
     7
370
     9
100
AcDbLine
 10
541.8614206920133
 20
362.5413490050016
 30
0.0
 11
540.5561587698128
 21
352.6269003912635
 31
0.0
  0
LINE
  5
5B
330
1F
100
AcDbEntity
  8
0-F
  6
Continuous
 62
     7
370
     9
100
AcDbLine
 10
541.8614206920133
 20
332.5414513979574
 30
0.0
 11
543.1666826142139
 21
342.4559000116956
 31
0.0
  0
LINE
  5
5C
330
1F
100
AcDbEntity
  8
0-F
  6
Continuous
 62
     7
370
     9
100
AcDbLine
 10
541.8614206920133
 20
332.5414513979574
 30
0.0
 11
540.5561587698128
 21
342.4559000116956
 31
0.0
  0
LINE
  5
5D
330
1F
100
AcDbEntity
  8
0-F
  6
Continuous
 62
     7
370
     9
100
AcDbLine
 10
541.8614206920133
 20
332.5414513979574
 30
0.0
 11
541.8614206920133
 21
362.5413490050016
 31
0.0
  0
LINE
  5
5E
330
1F
100
AcDbEntity
  8
ハッチ
  6
Continuous
 62
     6
370
     9
100
AcDbLine
 10
451.8611633545976
 20
286.0413854140045
 30
0.0
 11
451.8611633545976
 21
326.0413854140045
 31
0.0
  0
LINE
  5
5F
330
1F
100
AcDbEntity
  8
ハッチ
  6
Continuous
 62
     6
370
     9
100
AcDbLine
 10
451.8611633545976
 20
326.0413854140045
 30
0.0
 11
448.8611633545976
 21
326.0413854140045
 31
0.0
  0
LINE
  5
60
330
1F
100
AcDbEntity
  8
ハッチ
  6
Continuous
 62
     6
370
     9
100
AcDbLine
 10
448.8611633545976
 20
326.0413854140045
 30
0.0
 11
448.8611633545976
 21
286.0413854140045
 31
0.0
  0
LINE
  5
61
330
1F
100
AcDbEntity
  8
ハッチ
  6
Continuous
 62
     6
370
     9
100
AcDbLine
 10
450.7745649190894
 20
286.0413854140049
 30
0.0
 11
451.8611633545971
 21
287.1279838495127
 31
0.0
  0
LINE
  5
62
330
1F
100
AcDbEntity
  8
ハッチ
  6
Continuous
 62
     6
370
     9
100
AcDbLine
 10
448.8611633545967
 20
289.7848380990054
 30
0.0
 11
451.8611633545967
 21
292.7848380990056
 31
0.0
  0
LINE
  5
63
330
1F
100
AcDbEntity
  8
ハッチ
  6
Continuous
 62
     6
370
     9
100
AcDbLine
 10
448.8611633545976
 20
295.4416923484926
 30
0.0
 11
451.8611633545958
 21
298.4416923484907
 31
0.0
  0
LINE
  5
64
330
1F
100
AcDbEntity
  8
ハッチ
  6
Continuous
 62
     6
370
     9
100
AcDbLine
 10
448.8611633545971
 20
301.0985465979854
 30
0.0
 11
451.8611633545976
 21
304.0985465979857
 31
0.0
  0
LINE
  5
65
330
1F
100
AcDbEntity
  8
ハッチ
  6
Continuous
 62
     6
370
     9
100
AcDbLine
 10
448.8611633545976
 20
306.7554008474795
 30
0.0
 11
451.8611633545976
 21
309.7554008474795
 31
0.0
  0
LINE
  5
66
330
1F
100
AcDbEntity
  8
ハッチ
  6
Continuous
 62
     6
370
     9
100
AcDbLine
 10
448.8611633545971
 20
312.4122550969721
 30
0.0
 11
451.8611633545971
 21
315.4122550969721
 31
0.0
  0
LINE
  5
67
330
1F
100
AcDbEntity
  8
ハッチ
  6
Continuous
 62
     6
370
     9
100
AcDbLine
 10
448.861163354598
 20
318.0691093464663
 30
0.0
 11
451.861163354598
 21
321.0691093464666
 31
0.0
  0
LINE
  5
68
330
1F
100
AcDbEntity
  8
ハッチ
  6
Continuous
 62
     6
370
     9
100
AcDbLine
 10
448.8611633545976
 20
323.7259635959592
 30
0.0
 11
451.1765851726428
 21
326.0413854140043
 31
0.0
  0
LINE
  5
69
330
1F
100
AcDbEntity
  8
ハッチ
  6
Continuous
 62
     6
370
     9
100
AcDbLine
 10
448.8611633545976
 20
286.0413854140045
 30
0.0
 11
451.8611633545976
 21
286.0413854140045
 31
0.0
  0
LINE
  5
6A
330
1F
100
AcDbEntity
  8
躯体
  6
JWW_CENTER2
 62
     2
370
     9
100
AcDbLine
 10
459.3610697987789
 20
352.5413024627499
 30
0.0
 11
453.3610914203065
 21
352.5413024627499
 31
0.0
  0
LINE
  5
6B
330
1F
100
AcDbEntity
  8
躯体
  6
Continuous
 62
     2
370
     9
100
AcDbLine
 10
455.361051181878
 20
320.291551787828
 30
0.0
 11
455.361051181878
 21
306.7915072486596
 31
0.0
  0
LINE
  5
6C
330
1F
100
AcDbEntity
  8
躯体
  6
Continuous
 62
     2
370
     9
100
AcDbLine
 10
454.8613217160843
 20
323.5414016743355
 30
0.0
 11
454.8613217160843
 21
303.541335690383
 31
0.0
  0
LINE
  5
6D
330
1F
100
AcDbEntity
  8
躯体
  6
Continuous
 62
     2
370
     9
100
AcDbLine
 10
459.8610474702806
 20
310.7912977496101
 30
0.0
 11
459.8610474702806
 21
316.2913158951972
 31
0.0
  0
LINE
  5
6E
330
1F
100
AcDbEntity
  8
躯体
  6
Continuous
 62
     2
370
     9
100
AcDbLine
 10
459.8610474702806
 20
310.7912977496101
 30
0.0
 11
459.3613180044869
 21
310.7912977496101
 31
0.0
  0
LINE
  5
6F
330
1F
100
AcDbEntity
  8
躯体
  6
Continuous
 62
     2
370
     9
100
AcDbLine
 10
459.8610474702806
 20
310.7912977496101
 30
0.0
 11
461.360928699166
 21
312.5413901271438
 31
0.0
  0
LINE
  5
70
330
1F
100
AcDbEntity
  8
躯体
  6
Continuous
 62
     2
370
     9
100
AcDbLine
 10
461.360928699166
 20
312.5413901271438
 30
0.0
 11
461.360928699166
 21
314.5411740296988
 31
0.0
  0
LINE
  5
71
330
1F
100
AcDbEntity
  8
躯体
  6
Continuous
 62
     2
370
     9
100
AcDbLine
 10
461.360928699166
 20
314.5411740296988
 30
0.0
 11
459.8610474702806
 21
316.2913158951972
 31
0.0
  0
LINE
  5
72
330
1F
100
AcDbEntity
  8
躯体
  6
Continuous
 62
     2
370
     9
100
AcDbLine
 10
459.8610474702806
 20
316.2913158951972
 30
0.0
 11
459.3613180044869
 21
316.2913158951972
 31
0.0
  0
LINE
  5
73
330
1F
100
AcDbEntity
  8
躯体
  6
Continuous
 62
     2
370
     9
100
AcDbLine
 10
455.1608847373574
 20
309.5412317656576
 30
0.0
 11
455.1608847373574
 21
313.5413686823592
 31
0.0
  0
LINE
  5
74
330
1F
100
AcDbEntity
  8
躯体
  6
Continuous
 62
     2
370
     9
100
AcDbLine
 10
455.1608847373574
 20
317.5411096953451
 30
0.0
 11
455.1608847373574
 21
313.5413686823592
 31
0.0
  0
LINE
  5
75
330
1F
100
AcDbEntity
  8
躯体
  6
Continuous
 62
     2
370
     9
100
AcDbLine
 10
455.361051181878
 20
317.5411096953451
 30
0.0
 11
455.1608847373574
 21
317.5411096953451
 31
0.0
  0
LINE
  5
76
330
1F
100
AcDbEntity
  8
躯体
  6
Continuous
 62
     2
370
     9
100
AcDbLine
 10
455.361051181878
 20
309.5412317656576
 30
0.0
 11
455.1608847373574
 21
309.5412317656576
 31
0.0
  0
LINE
  5
77
330
1F
100
AcDbEntity
  8
躯体
  6
Continuous
 62
     2
370
     9
100
AcDbLine
 10
454.8613217160843
 20
303.541335690383
 30
0.0
 11
459.3613180044869
 21
303.541335690383
 31
0.0
  0
LINE
  5
78
330
1F
100
AcDbEntity
  8
躯体
  6
Continuous
 62
     2
370
     9
100
AcDbLine
 10
457.3613547080605
 20
304.7913769303534
 30
0.0
 11
457.3613547080605
 21
303.541335690383
 31
0.0
  0
LINE
  5
79
330
1F
100
AcDbEntity
  8
躯体
  6
Continuous
 62
     2
370
     9
100
AcDbLine
 10
455.361051181878
 20
306.7915072486596
 30
0.0
 11
455.361051181878
 21
303.541335690383
 31
0.0
  0
LINE
  5
7A
330
1F
100
AcDbEntity
  8
躯体
  6
Continuous
 62
     2
370
     9
100
AcDbLine
 10
457.3613547080605
 20
322.2913604343651
 30
0.0
 11
457.3613547080605
 21
323.5414016743355
 31
0.0
  0
LINE
  5
7B
330
1F
100
AcDbEntity
  8
躯体
  6
Continuous
 62
     2
370
     9
100
AcDbLine
 10
455.361051181878
 20
320.291551787828
 30
0.0
 11
455.361051181878
 21
323.5414016743355
 31
0.0
  0
LINE
  5
7C
330
1F
100
AcDbEntity
  8
躯体
  6
JWW_CENTER2
 62
     2
370
     9
100
AcDbLine
 10
462.9091225534204
 20
313.5413686823592
 30
0.0
 11
453.8247468111009
 21
313.5413686823592
 31
0.0
  0
LINE
  5
7D
330
1F
100
AcDbEntity
  8
躯体
  6
JWW_DASHED1
 62
     2
370
     9
100
AcDbLine
 10
457.3610604903284
 20
356.7913346299267
 30
0.0
 11
455.361051181878
 21
356.7913346299267
 31
0.0
  0
LINE
  5
7E
330
1F
100
AcDbEntity
  8
躯体
  6
JWW_DASHED1
 62
     2
370
     9
100
AcDbLine
 10
457.3610604903284
 20
348.2913693893299
 30
0.0
 11
455.361051181878
 21
348.2913693893299
 31
0.0
  0
LINE
  5
7F
330
1F
100
AcDbEntity
  8
躯体
  6
Continuous
 62
     2
370
     9
100
AcDbLine
 10
457.3610604903284
 20
329.5413440562054
 30
0.0
 11
455.361051181878
 21
329.5413440562054
 31
0.0
  0
LINE
  5
80
330
1F
100
AcDbEntity
  8
躯体
  6
JWW_DASHED1
 62
     2
370
     9
100
AcDbLine
 10
457.3610604903284
 20
362.5363447702459
 30
0.0
 11
457.3610604903284
 21
333.546366907862
 31
0.0
  0
LINE
  5
81
330
1F
100
AcDbEntity
  8
躯体
  6
Continuous
 62
     2
370
     9
100
AcDbLine
 10
458.1610443949572
 20
362.5413490050016
 30
0.0
 11
455.361051181878
 21
362.5413490050016
 31
0.0
  0
LINE
  5
82
330
1F
100
AcDbEntity
  8
躯体
  6
Continuous
 62
     2
370
     9
100
AcDbLine
 10
458.1610443949572
 20
333.5413626731063
 30
0.0
 11
455.361051181878
 21
333.5413626731063
 31
0.0
  0
LINE
  5
83
330
1F
100
AcDbEntity
  8
躯体
  6
Continuous
 62
     2
370
     9
100
AcDbLine
 10
461.1610583576327
 20
336.5413766357817
 30
0.0
 11
461.1610583576327
 21
359.5413845892047
 31
0.0
  0
ARC
  5
84
330
1F
100
AcDbEntity
  8
躯体
  6
Continuous
 62
     2
370
     9
100
AcDbCircle
 10
458.1610443949572
 20
359.5413845892047
 30
0.0
 40
3.000000414701042
100
AcDbArc
 50
0.0
 51
90.0
  0
ARC
  5
85
330
1F
100
AcDbEntity
  8
躯体
  6
Continuous
 62
     2
370
     9
100
AcDbCircle
 10
458.1610443949572
 20
336.5413766357817
 30
0.0
 40
3.000000414701042
100
AcDbArc
 50
270.0
 51
0.0
  0
LINE
  5
86
330
1F
100
AcDbEntity
  8
躯体
  6
Continuous
 62
     2
370
     9
100
AcDbLine
 10
455.361051181878
 20
362.5413490050016
 30
0.0
 11
455.361051181878
 21
303.541322140107
 31
0.0
  0
LINE
  5
87
330
1F
100
AcDbEntity
  8
躯体
  6
Continuous
 62
     2
370
     9
100
AcDbLine
 10
457.3610604903284
 20
333.546366907862
 30
0.0
 11
457.3610604903284
 21
303.541322140107
 31
0.0
  0
LINE
  5
88
330
1F
100
AcDbEntity
  8
躯体
  6
Continuous
 62
     2
370
     9
100
AcDbLine
 10
455.361051181878
 20
303.541322140107
 30
0.0
 11
457.3610604903284
 21
303.541322140107
 31
0.0
  0
LINE
  5
89
330
1F
100
AcDbEntity
  8
躯体
  6
JWW_DASHED1
 62
     2
370
     9
100
AcDbLine
 10
457.1610397407318
 20
311.2913458236328
 30
0.0
 11
455.361051181878
 21
309.5414491592157
 31
0.0
  0
LINE
  5
8A
330
1F
100
AcDbEntity
  8
躯体
  6
JWW_DASHED1
 62
     2
370
     9
100
AcDbLine
 10
459.3610697987789
 20
311.2913458236328
 30
0.0
 11
457.3610604903284
 21
311.2913458236328
 31
0.0
  0
LINE
  5
8B
330
1F
100
AcDbEntity
  8
躯体
  6
JWW_DASHED1
 62
     2
370
     9
100
AcDbLine
 10
457.1610397407318
 20
315.7913419942072
 30
0.0
 11
457.1610397407318
 21
311.2913458236328
 31
0.0
  0
LINE
  5
8C
330
1F
100
AcDbEntity
  8
躯体
  6
JWW_DASHED1
 62
     2
370
     9
100
AcDbLine
 10
457.1610397407318
 20
311.2913458236328
 30
0.0
 11
457.3611100372074
 21
311.2913458236328
 31
0.0
  0
LINE
  5
8D
330
1F
100
AcDbEntity
  8
躯体
  6
JWW_DASHED1
 62
     2
370
     9
100
AcDbLine
 10
457.1610397407318
 20
315.7913419942072
 30
0.0
 11
457.3611100372074
 21
315.7913419942072
 31
0.0
  0
LINE
  5
8E
330
1F
100
AcDbEntity
  8
躯体
  6
JWW_DASHED1
 62
     2
370
     9
100
AcDbLine
 10
457.1610397407318
 20
315.7913419942072
 30
0.0
 11
455.361051181878
 21
317.5412882055027
 31
0.0
  0
LINE
  5
8F
330
1F
100
AcDbEntity
  8
躯体
  6
JWW_DASHED1
 62
     2
370
     9
100
AcDbLine
 10
459.3610697987789
 20
315.7913419942072
 30
0.0
 11
457.3610604903284
 21
315.7913419942072
 31
0.0
  0
LINE
  5
90
330
1F
100
AcDbEntity
  8
躯体
  6
Continuous
 62
     2
370
     9
100
AcDbLine
 10
459.3613180044869
 20
323.5414016743355
 30
0.0
 11
459.3613180044869
 21
303.541335690383
 31
0.0
  0
LINE
  5
91
330
1F
100
AcDbEntity
  8
躯体
  6
Continuous
 62
     2
370
     9
100
AcDbLine
 10
454.8613217160843
 20
323.5414016743355
 30
0.0
 11
455.361051181878
 21
323.5414016743355
 31
0.0
  0
LINE
  5
92
330
1F
100
AcDbEntity
  8
躯体
  6
Continuous
 62
     2
370
     9
100
AcDbLine
 10
457.3610604903284
 20
323.5414016743355
 30
0.0
 11
459.3613180044869
 21
323.5414016743355
 31
0.0
  0
TEXT
  5
93
330
1F
100
AcDbEntity
  8
0-E
  6
Continuous
 62
     7
370
     9
100
AcDbText
 10
569.751231846433
 20
70.00085814176464
 30
0.0
 40
9.144
  1
クッション：ｔ＝３．０
 41
1.151515151515152
  7
ＭＳ ゴシック
100
AcDbText
  0
LINE
  5
94
330
1F
100
AcDbEntity
  8
0-E
  6
Continuous
 62
     7
370
     9
100
AcDbLine
 10
565.004137448921
 20
62.48610423551463
 30
0.0
 11
721.6514268494559
 21
62.48610423551463
 31
0.0
  0
TEXT
  5
95
330
1F
100
AcDbEntity
  8
0-E
  6
Continuous
 62
     7
370
     9
100
AcDbText
 10
568.7697931323282
 20
47.92313894307357
 30
0.0
 40
9.144
  1
クロロプレンゴム
 41
1.145833333333333
  7
ＭＳ ゴシック
100
AcDbText
  0
LINE
  5
96
330
1F
100
AcDbEntity
  8
0-E
  6
Continuous
 62
     7
370
     9
100
AcDbLine
 10
565.004137448921
 20
62.48610423551463
 30
0.0
 11
450.3611633545976
 21
29.04145139795742
 31
0.0
  0
LINE
  5
97
330
1F
100
AcDbEntity
  8
0-E
  6
Continuous
 62
     7
370
     9
100
AcDbLine
 10
450.3611633545976
 20
29.04145139795742
 30
0.0
 11
462.2210530294284
 21
30.86973475944387
 31
0.0
  0
LINE
  5
98
330
1F
100
AcDbEntity
  8
0-E
  6
Continuous
 62
     7
370
     9
100
AcDbLine
 10
450.3611633545976
 20
29.04145139795742
 30
0.0
 11
461.3437303942934
 21
33.8770193878222
 31
0.0
  0
LINE
  5
99
330
1F
100
AcDbEntity
  8
ハッチ
  6
Continuous
 62
     6
370
     9
100
AcDbLine
 10
451.8611633545976
 20
-10.95860468840237
 30
0.0
 11
451.8611633545976
 21
29.04139531159763
 31
0.0
  0
LINE
  5
9A
330
1F
100
AcDbEntity
  8
ハッチ
  6
Continuous
 62
     6
370
     9
100
AcDbLine
 10
451.8611633545976
 20
29.04139531159763
 30
0.0
 11
448.8611633545976
 21
29.04139531159763
 31
0.0
  0
LINE
  5
9B
330
1F
100
AcDbEntity
  8
ハッチ
  6
Continuous
 62
     6
370
     9
100
AcDbLine
 10
448.8611633545976
 20
29.04139531159763
 30
0.0
 11
448.8611633545976
 21
-10.95860468840237
 31
0.0
  0
LINE
  5
9C
330
1F
100
AcDbEntity
  8
ハッチ
  6
Continuous
 62
     6
370
     9
100
AcDbLine
 10
450.7745649190894
 20
-10.95860468840192
 30
0.0
 11
451.8611633545971
 21
-9.872006252894153
 31
0.0
  0
LINE
  5
9D
330
1F
100
AcDbEntity
  8
ハッチ
  6
Continuous
 62
     6
370
     9
100
AcDbLine
 10
448.8611633545967
 20
-7.215152003401499
 30
0.0
 11
451.8611633545967
 21
-4.215152003401272
 31
0.0
  0
LINE
  5
9E
330
1F
100
AcDbEntity
  8
ハッチ
  6
Continuous
 62
     6
370
     9
100
AcDbLine
 10
448.8611633545976
 20
-1.558297753914303
 30
0.0
 11
451.8611633545958
 21
1.441702246083878
 31
0.0
  0
LINE
  5
9F
330
1F
100
AcDbEntity
  8
ハッチ
  6
Continuous
 62
     6
370
     9
100
AcDbLine
 10
448.8611633545971
 20
4.098556495578578
 30
0.0
 11
451.8611633545976
 21
7.098556495578805
 31
0.0
  0
LINE
  5
A0
330
1F
100
AcDbEntity
  8
ハッチ
  6
Continuous
 62
     6
370
     9
100
AcDbLine
 10
448.8611633545976
 20
9.755410745072595
 30
0.0
 11
451.8611633545976
 21
12.7554107450726
 31
0.0
  0
LINE
  5
A1
330
1F
100
AcDbEntity
  8
ハッチ
  6
Continuous
 62
     6
370
     9
100
AcDbLine
 10
448.8611633545971
 20
15.41226499456525
 30
0.0
 11
451.8611633545971
 21
18.41226499456525
 31
0.0
  0
LINE
  5
A2
330
1F
100
AcDbEntity
  8
ハッチ
  6
Continuous
 62
     6
370
     9
100
AcDbLine
 10
448.861163354598
 20
21.06911924405949
 30
0.0
 11
451.861163354598
 21
24.06911924405972
 31
0.0
  0
LINE
  5
A3
330
1F
100
AcDbEntity
  8
ハッチ
  6
Continuous
 62
     6
370
     9
100
AcDbLine
 10
448.8611633545976
 20
26.72597349355237
 30
0.0
 11
451.1765851726428
 21
29.0413953115974
 31
0.0
  0
LINE
  5
A4
330
1F
100
AcDbEntity
  8
ハッチ
  6
Continuous
 62
     6
370
     9
100
AcDbLine
 10
448.8611633545976
 20
-10.95860468840237
 30
0.0
 11
451.8611633545976
 21
-10.95860468840237
 31
0.0
  0
LINE
  5
A5
330
1F
100
AcDbEntity
  8
躯体
  6
Continuous
 62
     2
370
     9
100
AcDbLine
 10
455.361051181878
 20
-5.208764463830676
 30
0.0
 11
455.361051181878
 21
8.291280075337227
 31
0.0
  0
LINE
  5
A6
330
1F
100
AcDbEntity
  8
躯体
  6
Continuous
 62
     2
370
     9
100
AcDbLine
 10
454.8613217160843
 20
-8.458614350338621
 30
0.0
 11
454.8613217160843
 21
11.54145163361432
 31
0.0
  0
LINE
  5
A7
330
1F
100
AcDbEntity
  8
躯体
  6
Continuous
 62
     2
370
     9
100
AcDbLine
 10
459.8610474702806
 20
4.291489574387242
 30
0.0
 11
459.8610474702806
 21
-1.208528571199849
 31
0.0
  0
LINE
  5
A8
330
1F
100
AcDbEntity
  8
躯体
  6
Continuous
 62
     2
370
     9
100
AcDbLine
 10
459.8610474702806
 20
4.291489574387242
 30
0.0
 11
459.3613180044869
 21
4.291489574387242
 31
0.0
  0
LINE
  5
A9
330
1F
100
AcDbEntity
  8
躯体
  6
Continuous
 62
     2
370
     9
100
AcDbLine
 10
459.8610474702806
 20
4.291489574387242
 30
0.0
 11
461.360928699166
 21
2.54139719685304
 31
0.0
  0
LINE
  5
AA
330
1F
100
AcDbEntity
  8
躯体
  6
Continuous
 62
     2
370
     9
100
AcDbLine
 10
461.360928699166
 20
2.54139719685304
 30
0.0
 11
461.360928699166
 21
0.5416132942984859
 31
0.0
  0
LINE
  5
AB
330
1F
100
AcDbEntity
  8
躯体
  6
Continuous
 62
     2
370
     9
100
AcDbLine
 10
461.360928699166
 20
0.5416132942984859
 30
0.0
 11
459.8610474702806
 21
-1.208528571199849
 31
0.0
  0
LINE
  5
AC
330
1F
100
AcDbEntity
  8
躯体
  6
Continuous
 62
     2
370
     9
100
AcDbLine
 10
459.8610474702806
 20
-1.208528571199849
 30
0.0
 11
459.3613180044869
 21
-1.208528571199849
 31
0.0
  0
LINE
  5
AD
330
1F
100
AcDbEntity
  8
躯体
  6
Continuous
 62
     2
370
     9
100
AcDbLine
 10
455.1608847373574
 20
5.541555558339724
 30
0.0
 11
455.1608847373574
 21
1.541418641638074
 31
0.0
  0
LINE
  5
AE
330
1F
100
AcDbEntity
  8
躯体
  6
Continuous
 62
     2
370
     9
100
AcDbLine
 10
455.1608847373574
 20
-2.458322371347776
 30
0.0
 11
455.1608847373574
 21
1.541418641638074
 31
0.0
  0
LINE
  5
AF
330
1F
100
AcDbEntity
  8
躯体
  6
Continuous
 62
     2
370
     9
100
AcDbLine
 10
455.361051181878
 20
-2.458322371347776
 30
0.0
 11
455.1608847373574
 21
-2.458322371347776
 31
0.0
  0
LINE
  5
B0
330
1F
100
AcDbEntity
  8
躯体
  6
Continuous
 62
     2
370
     9
100
AcDbLine
 10
455.361051181878
 20
5.541555558339724
 30
0.0
 11
455.1608847373574
 21
5.541555558339724
 31
0.0
  0
LINE
  5
B1
330
1F
100
AcDbEntity
  8
躯体
  6
Continuous
 62
     2
370
     9
100
AcDbLine
 10
454.8613217160843
 20
11.54145163361432
 30
0.0
 11
459.3613180044869
 21
11.54145163361432
 31
0.0
  0
LINE
  5
B2
330
1F
100
AcDbEntity
  8
躯体
  6
Continuous
 62
     2
370
     9
100
AcDbLine
 10
457.3613547080605
 20
10.2914103936439
 30
0.0
 11
457.3613547080605
 21
11.54145163361432
 31
0.0
  0
LINE
  5
B3
330
1F
100
AcDbEntity
  8
躯体
  6
Continuous
 62
     2
370
     9
100
AcDbLine
 10
455.361051181878
 20
8.291280075337227
 30
0.0
 11
455.361051181878
 21
11.54145163361432
 31
0.0
  0
LINE
  5
B4
330
1F
100
AcDbEntity
  8
躯体
  6
Continuous
 62
     2
370
     9
100
AcDbLine
 10
457.3613547080605
 20
-7.208573110368206
 30
0.0
 11
457.3613547080605
 21
-8.458614350338621
 31
0.0
  0
LINE
  5
B5
330
1F
100
AcDbEntity
  8
躯体
  6
Continuous
 62
     2
370
     9
100
AcDbLine
 10
455.361051181878
 20
-5.208764463830676
 30
0.0
 11
455.361051181878
 21
-8.458614350338621
 31
0.0
  0
LINE
  5
B6
330
1F
100
AcDbEntity
  8
躯体
  6
JWW_DASHED1
 62
     2
370
     9
100
AcDbLine
 10
457.3610604903284
 20
-41.70854730592941
 30
0.0
 11
455.361051181878
 21
-41.70854730592941
 31
0.0
  0
LINE
  5
B7
330
1F
100
AcDbEntity
  8
躯体
  6
JWW_DASHED1
 62
     2
370
     9
100
AcDbLine
 10
457.3610604903284
 20
-33.20858206533308
 30
0.0
 11
455.361051181878
 21
-33.20858206533308
 31
0.0
  0
LINE
  5
B8
330
1F
100
AcDbEntity
  8
躯体
  6
Continuous
 62
     2
370
     9
100
AcDbLine
 10
457.3610604903284
 20
-14.45855673220854
 30
0.0
 11
455.361051181878
 21
-14.45855673220854
 31
0.0
  0
LINE
  5
B9
330
1F
100
AcDbEntity
  8
躯体
  6
JWW_CENTER2
 62
     2
370
     9
100
AcDbLine
 10
459.3610697987789
 20
-37.45851513875255
 30
0.0
 11
453.3610914203065
 21
-37.45851513875255
 31
0.0
  0
LINE
  5
BA
330
1F
100
AcDbEntity
  8
躯体
  6
JWW_DASHED1
 62
     2
370
     9
100
AcDbLine
 10
457.3610604903284
 20
-47.45355744624908
 30
0.0
 11
457.3610604903284
 21
-18.46357958386511
 31
0.0
  0
LINE
  5
BB
330
1F
100
AcDbEntity
  8
躯体
  6
Continuous
 62
     2
370
     9
100
AcDbLine
 10
458.1610443949572
 20
-47.45856168100477
 30
0.0
 11
455.361051181878
 21
-47.45856168100477
 31
0.0
  0
LINE
  5
BC
330
1F
100
AcDbEntity
  8
躯体
  6
Continuous
 62
     2
370
     9
100
AcDbLine
 10
458.1610443949572
 20
-18.45857534910942
 30
0.0
 11
455.361051181878
 21
-18.45857534910942
 31
0.0
  0
LINE
  5
BD
330
1F
100
AcDbEntity
  8
躯体
  6
Continuous
 62
     2
370
     9
100
AcDbLine
 10
461.1610583576327
 20
-21.45858931178486
 30
0.0
 11
461.1610583576327
 21
-44.4585972652078
 31
0.0
  0
ARC
  5
BE
330
1F
100
AcDbEntity
  8
躯体
  6
Continuous
 62
     2
370
     9
100
AcDbCircle
 10
458.1610443949572
 20
-44.4585972652078
 30
0.0
 40
3.000000414701042
100
AcDbArc
 50
270.0
 51
0.0
  0
ARC
  5
BF
330
1F
100
AcDbEntity
  8
躯体
  6
Continuous
 62
     2
370
     9
100
AcDbCircle
 10
458.1610443949572
 20
-21.45858931178486
 30
0.0
 40
3.000000414701042
100
AcDbArc
 50
0.0
 51
90.0
  0
LINE
  5
C0
330
1F
100
AcDbEntity
  8
躯体
  6
Continuous
 62
     2
370
     9
100
AcDbLine
 10
455.361051181878
 20
-47.45856168100477
 30
0.0
 11
455.361051181878
 21
11.5414651838903
 31
0.0
  0
LINE
  5
C1
330
1F
100
AcDbEntity
  8
躯体
  6
Continuous
 62
     2
370
     9
100
AcDbLine
 10
457.3610604903284
 20
-18.46357958386511
 30
0.0
 11
457.3610604903284
 21
11.5414651838903
 31
0.0
  0
LINE
  5
C2
330
1F
100
AcDbEntity
  8
躯体
  6
Continuous
 62
     2
370
     9
100
AcDbLine
 10
455.361051181878
 20
11.5414651838903
 30
0.0
 11
457.3610604903284
 21
11.5414651838903
 31
0.0
  0
LINE
  5
C3
330
1F
100
AcDbEntity
  8
躯体
  6
JWW_DASHED1
 62
     2
370
     9
100
AcDbLine
 10
457.1610397407318
 20
3.791441500364499
 30
0.0
 11
455.361051181878
 21
5.541338164781109
 31
0.0
  0
LINE
  5
C4
330
1F
100
AcDbEntity
  8
躯体
  6
JWW_DASHED1
 62
     2
370
     9
100
AcDbLine
 10
459.3610697987789
 20
3.791441500364499
 30
0.0
 11
457.3610604903284
 21
3.791441500364499
 31
0.0
  0
LINE
  5
C5
330
1F
100
AcDbEntity
  8
躯体
  6
JWW_DASHED1
 62
     2
370
     9
100
AcDbLine
 10
457.1610397407318
 20
-0.7085546702098782
 30
0.0
 11
457.1610397407318
 21
3.791441500364499
 31
0.0
  0
LINE
  5
C6
330
1F
100
AcDbEntity
  8
躯体
  6
JWW_DASHED1
 62
     2
370
     9
100
AcDbLine
 10
457.1610397407318
 20
3.791441500364499
 30
0.0
 11
457.3611100372074
 21
3.791441500364499
 31
0.0
  0
LINE
  5
C7
330
1F
100
AcDbEntity
  8
躯体
  6
JWW_DASHED1
 62
     2
370
     9
100
AcDbLine
 10
457.1610397407318
 20
-0.7085546702098782
 30
0.0
 11
457.3611100372074
 21
-0.7085546702098782
 31
0.0
  0
LINE
  5
C8
330
1F
100
AcDbEntity
  8
躯体
  6
JWW_DASHED1
 62
     2
370
     9
100
AcDbLine
 10
457.1610397407318
 20
-0.7085546702098782
 30
0.0
 11
455.361051181878
 21
-2.458500881505415
 31
0.0
  0
LINE
  5
C9
330
1F
100
AcDbEntity
  8
躯体
  6
JWW_DASHED1
 62
     2
370
     9
100
AcDbLine
 10
459.3610697987789
 20
-0.7085546702098782
 30
0.0
 11
457.3610604903284
 21
-0.7085546702098782
 31
0.0
  0
LINE
  5
CA
330
1F
100
AcDbEntity
  8
躯体
  6
Continuous
 62
     2
370
     9
100
AcDbLine
 10
459.3613180044869
 20
-8.458614350338621
 30
0.0
 11
459.3613180044869
 21
11.54145163361432
 31
0.0
  0
LINE
  5
CB
330
1F
100
AcDbEntity
  8
躯体
  6
Continuous
 62
     2
370
     9
100
AcDbLine
 10
454.8613217160843
 20
-8.458614350338621
 30
0.0
 11
455.361051181878
 21
-8.458614350338621
 31
0.0
  0
LINE
  5
CC
330
1F
100
AcDbEntity
  8
躯体
  6
Continuous
 62
     2
370
     9
100
AcDbLine
 10
457.3610604903284
 20
-8.458614350338621
 30
0.0
 11
459.3613180044869
 21
-8.458614350338621
 31
0.0
  0
LINE
  5
CD
330
1F
100
AcDbEntity
  8
躯体
  6
JWW_CENTER2
 62
     2
370
     9
100
AcDbLine
 10
462.9091225534204
 20
1.541418641638074
 30
0.0
 11
453.8247468111009
 21
1.541418641638074
 31
0.0
  0
LINE
  5
CE
330
1F
100
AcDbEntity
  8
躯体
  6
Continuous
 62
     2
370
     9
100
AcDbLine
 10
454.8613217160841
 20
329.5414909883291
 30
0.0
 11
454.8613217160841
 21
282.5413854140047
 31
0.0
  0
LINE
  5
CF
330
1F
100
AcDbEntity
  8
躯体
  6
Continuous
 62
     2
370
     9
100
AcDbLine
 10
454.8613217160841
 20
-14.45860468840237
 30
0.0
 11
454.8613217160841
 21
32.54145139795742
 31
0.0
  0
LINE
  5
D0
330
1F
100
AcDbEntity
  8
0-F
  6
Continuous
 62
     7
370
     9
100
AcDbLine
 10
458.8613349128748
 20
-17.45861458599529
 30
0.0
 11
543.0614048558646
 21
-17.45861458599529
 31
0.0
  0
LINE
  5
D1
330
1F
100
AcDbEntity
  8
0-F
  6
Continuous
 62
     7
370
     9
100
AcDbLine
 10
458.8613349128748
 20
32.54150088592201
 30
0.0
 11
543.0614048558646
 21
32.54150088592201
 31
0.0
  0
LINE
  5
D2
330
1F
100
AcDbEntity
  8
0-F
  6
Continuous
 62
     7
370
     9
100
AcDbLine
 10
458.8613349128748
 20
282.5414843899338
 30
0.0
 11
543.0614048558646
 21
282.5414843899338
 31
0.0
  0
LINE
  5
D3
330
1F
100
AcDbEntity
  8
躯体
  6
Continuous
 62
     2
370
     9
100
AcDbLine
 10
451.8613613064558
 20
329.5414909883291
 30
0.0
 11
388.8613613064557
 21
329.5414909883291
 31
0.0
  0
LINE
  5
D4
330
1F
100
AcDbEntity
  8
躯体
  6
Continuous
 62
     2
370
     9
100
AcDbLine
 10
454.8613217160841
 20
282.5413854140047
 30
0.0
 11
451.8613613064558
 21
282.5413854140047
 31
0.0
  0
LINE
  5
D5
330
1F
100
AcDbEntity
  8
躯体
  6
Continuous
 62
     2
370
     9
100
AcDbLine
 10
451.8613613064558
 20
-14.45860468840237
 30
0.0
 11
388.8613613064557
 21
-14.45860468840237
 31
0.0
  0
LINE
  5
D6
330
1F
100
AcDbEntity
  8
躯体
  6
Continuous
 62
     2
370
     9
100
AcDbLine
 10
454.8613217160841
 20
32.54145139795742
 30
0.0
 11
451.8613613064558
 21
32.54145139795742
 31
0.0
  0
LINE
  5
D7
330
1F
100
AcDbEntity
  8
躯体
  6
Continuous
 62
     2
370
     9
100
AcDbLine
 10
451.8613613064558
 20
-14.45860468840237
 30
0.0
 11
451.8613613064558
 21
32.54145139795742
 31
0.0
  0
LINE
  5
D8
330
1F
100
AcDbEntity
  8
躯体
  6
Continuous
 62
     2
370
     9
100
AcDbLine
 10
451.8613613064558
 20
329.5414909883291
 30
0.0
 11
451.8613613064558
 21
282.5413854140047
 31
0.0
  0
LINE
  5
D9
330
1F
100
AcDbEntity
  8
躯体
  6
Continuous
 62
     2
370
     9
100
AcDbLine
 10
451.8613613064558
 20
-17.45861458599529
 30
0.0
 11
388.8613613064557
 21
-17.45861458599529
 31
0.0
  0
LINE
  5
DA
330
1F
100
AcDbEntity
  8
躯体
  6
Continuous
 62
     2
370
     9
100
AcDbLine
 10
451.8613613064558
 20
332.5414513979574
 30
0.0
 11
388.8613613064557
 21
332.5414513979574
 31
0.0
  0
LINE
  5
DB
330
1F
100
AcDbEntity
  8
0-F
  6
Continuous
 62
     7
370
     9
100
AcDbLine
 10
454.8613217160841
 20
-117.4585980900072
 30
0.0
 11
442.9640191400706
 21
-115.8923040127268
 31
0.0
  0
LINE
  5
DC
330
1F
100
AcDbEntity
  8
0-F
  6
Continuous
 62
     7
370
     9
100
AcDbLine
 10
454.8613217160841
 20
-117.4585980900072
 30
0.0
 11
442.9640191400706
 21
-119.0248921672876
 31
0.0
  0
LINE
  5
DD
330
1F
100
AcDbEntity
  8
0-F
  6
Continuous
 62
     7
370
     9
100
AcDbLine
 10
454.8613217160841
 20
-36.45857829482134
 30
0.0
 11
454.8613217160841
 21
-118.6585822538584
 31
0.0
  0
ARC
  5
DE
330
1F
100
AcDbEntity
  8
躯体
  6
Continuous
 62
     2
370
     9
100
AcDbCircle
 10
451.8613613064558
 20
329.5414909883291
 30
0.0
 40
3.000000038662472
100
AcDbArc
 50
0.0
 51
90.0
  0
ARC
  5
DF
330
1F
100
AcDbEntity
  8
躯体
  6
Continuous
 62
     2
370
     9
100
AcDbCircle
 10
451.8613613064558
 20
-14.45860468840237
 30
0.0
 40
3.000000038662472
100
AcDbArc
 50
270.0
 51
0.0
  0
LINE
  5
E0
330
1F
100
AcDbEntity
  8
躯体
  6
JWW_CENTER2
 62
     2
370
     9
100
AcDbLine
 10
-1.138737669473343
 20
-48.23905734303116
 30
0.0
 11
-1.138737669473343
 21
-8.458661128247513
 31
0.0
  0
CIRCLE
  5
E1
330
1F
100
AcDbEntity
  8
躯体
  6
Continuous
 62
     2
370
     9
100
AcDbCircle
 10
-1.138737669473343
 20
-37.45854836638546
 30
0.0
 40
4.249999652037749
  0
LINE
  5
E2
330
1F
100
AcDbEntity
  8
躯体
  6
JWW_DASHED1
 62
     2
370
     9
100
AcDbLine
 10
5.611231812948532
 20
-18.31269301876318
 30
0.0
 11
5.611231812948532
 21
-47.45859490863768
 31
0.0
  0
LINE
  5
E3
330
1F
100
AcDbEntity
  8
躯体
  6
Continuous
 62
     2
370
     9
100
AcDbLine
 10
7.611241121399431
 20
-18.45860857674234
 30
0.0
 11
6.361272463776473
 21
-18.45860857674234
 31
0.0
  0
LINE
  5
E4
330
1F
100
AcDbEntity
  8
躯体
  6
JWW_DASHED1
 62
     2
370
     9
100
AcDbLine
 10
-7.888707151895218
 20
-18.31269301876318
 30
0.0
 11
-7.888707151895218
 21
-47.45859490863768
 31
0.0
  0
LINE
  5
E5
330
1F
100
AcDbEntity
  8
躯体
  6
Continuous
 62
     2
370
     9
100
AcDbLine
 10
-9.888716460346117
 20
-18.45860857674234
 30
0.0
 11
-8.63874780272316
 21
-18.45860857674234
 31
0.0
  0
LINE
  5
E6
330
1F
100
AcDbEntity
  8
躯体
  6
Continuous
 62
     2
370
     9
100
AcDbLine
 10
7.611241121399431
 20
-18.45860857674234
 30
0.0
 11
7.611241121399431
 21
-47.45859490863768
 31
0.0
  0
LINE
  5
E7
330
1F
100
AcDbEntity
  8
躯体
  6
Continuous
 62
     2
370
     9
100
AcDbLine
 10
-1.138737669473343
 20
-47.45859490863768
 30
0.0
 11
7.611241121399431
 21
-47.45859490863768
 31
0.0
  0
LINE
  5
E8
330
1F
100
AcDbEntity
  8
躯体
  6
Continuous
 62
     2
370
     9
100
AcDbLine
 10
-1.138737669473343
 20
-47.45859490863768
 30
0.0
 11
-9.888716460346117
 21
-47.45859490863768
 31
0.0
  0
LINE
  5
E9
330
1F
100
AcDbEntity
  8
躯体
  6
Continuous
 62
     2
370
     9
100
AcDbLine
 10
-9.888716460346117
 20
-18.45860857674234
 30
0.0
 11
-9.888716460346117
 21
-47.45859490863768
 31
0.0
  0
LINE
  5
EA
330
1F
100
AcDbEntity
  8
躯体
  6
JWW_CENTER2
 62
     2
370
     9
100
AcDbLine
 10
-1.138737669473343
 20
-37.45854836638546
 30
0.0
 11
4.637338363836093
 21
-37.45854836638546
 31
0.0
  0
LINE
  5
EB
330
1F
100
AcDbEntity
  8
躯体
  6
JWW_CENTER2
 62
     2
370
     9
100
AcDbLine
 10
-1.138737669473343
 20
-37.45854836638546
 30
0.0
 11
-6.914813702781871
 21
-37.45854836638546
 31
0.0
  0
ARC
  5
EC
330
1F
100
AcDbEntity
  8
躯体
  6
Continuous
 62
     2
370
     9
100
AcDbCircle
 10
-8.63874780272316
 20
-16.45859926829189
 30
0.0
 40
1.999999824868206
100
AcDbArc
 50
270.0
 51
329.9994903964416
  0
ARC
  5
ED
330
1F
100
AcDbEntity
  8
躯体
  6
Continuous
 62
     2
370
     9
100
AcDbCircle
 10
6.361272463776473
 20
-16.45859926829189
 30
0.0
 40
1.999999824868206
100
AcDbArc
 50
210.0005096035584
 51
270.0
  0
LINE
  5
EE
330
1F
100
AcDbEntity
  8
躯体
  6
JWW_CENTER2
 62
     2
370
     9
100
AcDbLine
 10
-601.1387211734854
 20
-48.23905734303116
 30
0.0
 11
-601.1387211734854
 21
-8.458661128247513
 31
0.0
  0
CIRCLE
  5
EF
330
1F
100
AcDbEntity
  8
躯体
  6
Continuous
 62
     2
370
     9
100
AcDbCircle
 10
-601.1387211734854
 20
-37.45854836638546
 30
0.0
 40
4.249999652037749
  0
LINE
  5
F0
330
1F
100
AcDbEntity
  8
躯体
  6
JWW_DASHED1
 62
     2
370
     9
100
AcDbLine
 10
-594.3887516910635
 20
-18.31269301876318
 30
0.0
 11
-594.3887516910635
 21
-47.45859490863768
 31
0.0
  0
LINE
  5
F1
330
1F
100
AcDbEntity
  8
躯体
  6
Continuous
 62
     2
370
     9
100
AcDbLine
 10
-592.3887423826126
 20
-18.45860857674234
 30
0.0
 11
-593.6387110402355
 21
-18.45860857674234
 31
0.0
  0
LINE
  5
F2
330
1F
100
AcDbEntity
  8
躯体
  6
JWW_DASHED1
 62
     2
370
     9
100
AcDbLine
 10
-607.8886906559072
 20
-18.31269301876318
 30
0.0
 11
-607.8886906559072
 21
-47.45859490863768
 31
0.0
  0
LINE
  5
F3
330
1F
100
AcDbEntity
  8
躯体
  6
Continuous
 62
     2
370
     9
100
AcDbLine
 10
-609.8886999643581
 20
-18.45860857674234
 30
0.0
 11
-608.6387313067352
 21
-18.45860857674234
 31
0.0
  0
LINE
  5
F4
330
1F
100
AcDbEntity
  8
躯体
  6
Continuous
 62
     2
370
     9
100
AcDbLine
 10
-592.3887423826126
 20
-18.45860857674234
 30
0.0
 11
-592.3887423826126
 21
-47.45859490863768
 31
0.0
  0
LINE
  5
F5
330
1F
100
AcDbEntity
  8
躯体
  6
Continuous
 62
     2
370
     9
100
AcDbLine
 10
-601.1387211734854
 20
-47.45859490863768
 30
0.0
 11
-592.3887423826126
 21
-47.45859490863768
 31
0.0
  0
LINE
  5
F6
330
1F
100
AcDbEntity
  8
躯体
  6
Continuous
 62
     2
370
     9
100
AcDbLine
 10
-601.1387211734854
 20
-47.45859490863768
 30
0.0
 11
-609.8886999643581
 21
-47.45859490863768
 31
0.0
  0
LINE
  5
F7
330
1F
100
AcDbEntity
  8
躯体
  6
Continuous
 62
     2
370
     9
100
AcDbLine
 10
-609.8886999643581
 20
-18.45860857674234
 30
0.0
 11
-609.8886999643581
 21
-47.45859490863768
 31
0.0
  0
LINE
  5
F8
330
1F
100
AcDbEntity
  8
躯体
  6
JWW_CENTER2
 62
     2
370
     9
100
AcDbLine
 10
-601.1387211734854
 20
-37.45854836638546
 30
0.0
 11
-595.3626451401759
 21
-37.45854836638546
 31
0.0
  0
LINE
  5
F9
330
1F
100
AcDbEntity
  8
躯体
  6
JWW_CENTER2
 62
     2
370
     9
100
AcDbLine
 10
-601.1387211734854
 20
-37.45854836638546
 30
0.0
 11
-606.9147972067939
 21
-37.45854836638546
 31
0.0
  0
ARC
  5
FA
330
1F
100
AcDbEntity
  8
躯体
  6
Continuous
 62
     2
370
     9
100
AcDbCircle
 10
-608.6387313067352
 20
-16.45859926829189
 30
0.0
 40
1.999999824868206
100
AcDbArc
 50
270.0
 51
329.9994903964416
  0
ARC
  5
FB
330
1F
100
AcDbEntity
  8
躯体
  6
Continuous
 62
     2
370
     9
100
AcDbCircle
 10
-593.6387110402355
 20
-16.45859926829189
 30
0.0
 40
1.999999824868206
100
AcDbArc
 50
210.0005096035584
 51
270.0
  0
LINE
  5
FC
330
1F
100
AcDbEntity
  8
0-F
  6
Continuous
 62
     7
370
     9
100
AcDbLine
 10
-1.138737669473301
 20
374.3686855473412
 30
0.0
 11
-1.138737669473301
 21
408.7414355618088
 31
0.0
  0
LINE
  5
FD
330
1F
100
AcDbEntity
  8
0-F
  6
Continuous
 62
     7
370
     9
100
AcDbLine
 10
-601.13875365668
 20
374.3686855473412
 30
0.0
 11
-601.1387376694734
 21
408.7414355618088
 31
0.0
  0
ARC
  5
FE
330
1F
100
AcDbEntity
  8
躯体
  6
Continuous
 62
     2
370
     9
100
AcDbCircle
 10
6.361272463776473
 20
331.5414360802538
 30
0.0
 40
1.999999824868206
100
AcDbArc
 50
90.0
 51
149.9994903964416
  0
ARC
  5
FF
330
1F
100
AcDbEntity
  8
躯体
  6
Continuous
 62
     2
370
     9
100
AcDbCircle
 10
-8.63874780272316
 20
331.5414360802538
 30
0.0
 40
1.999999824868206
100
AcDbArc
 50
30.00050960355836
 51
89.99999999999999
  0
LINE
  5
100
330
1F
100
AcDbEntity
  8
躯体
  6
JWW_CENTER2
 62
     2
370
     9
100
AcDbLine
 10
-1.138737669473343
 20
352.5413851783474
 30
0.0
 11
-6.914813702781871
 21
352.5413851783474
 31
0.0
  0
LINE
  5
101
330
1F
100
AcDbEntity
  8
躯体
  6
JWW_CENTER2
 62
     2
370
     9
100
AcDbLine
 10
-1.138737669473343
 20
352.5413851783474
 30
0.0
 11
4.637338363836093
 21
352.5413851783474
 31
0.0
  0
LINE
  5
102
330
1F
100
AcDbEntity
  8
躯体
  6
Continuous
 62
     2
370
     9
100
AcDbLine
 10
-9.888716460346117
 20
333.5414453887042
 30
0.0
 11
-9.888716460346117
 21
362.5414317205996
 31
0.0
  0
LINE
  5
103
330
1F
100
AcDbEntity
  8
躯体
  6
Continuous
 62
     2
370
     9
100
AcDbLine
 10
-1.138737669473343
 20
362.5414317205996
 30
0.0
 11
-9.888716460346117
 21
362.5414317205996
 31
0.0
  0
LINE
  5
104
330
1F
100
AcDbEntity
  8
躯体
  6
Continuous
 62
     2
370
     9
100
AcDbLine
 10
-1.138737669473343
 20
362.5414317205996
 30
0.0
 11
7.611241121399431
 21
362.5414317205996
 31
0.0
  0
LINE
  5
105
330
1F
100
AcDbEntity
  8
躯体
  6
Continuous
 62
     2
370
     9
100
AcDbLine
 10
7.611241121399431
 20
333.5414453887042
 30
0.0
 11
7.611241121399431
 21
362.5414317205996
 31
0.0
  0
LINE
  5
106
330
1F
100
AcDbEntity
  8
躯体
  6
Continuous
 62
     2
370
     9
100
AcDbLine
 10
-9.888716460346117
 20
333.5414453887042
 30
0.0
 11
-8.63874780272316
 21
333.5414453887042
 31
0.0
  0
LINE
  5
107
330
1F
100
AcDbEntity
  8
躯体
  6
JWW_DASHED1
 62
     2
370
     9
100
AcDbLine
 10
-7.888707151895218
 20
333.3955298307251
 30
0.0
 11
-7.888707151895218
 21
362.5414317205996
 31
0.0
  0
LINE
  5
108
330
1F
100
AcDbEntity
  8
躯体
  6
Continuous
 62
     2
370
     9
100
AcDbLine
 10
7.611241121399431
 20
333.5414453887042
 30
0.0
 11
6.361272463776473
 21
333.5414453887042
 31
0.0
  0
LINE
  5
109
330
1F
100
AcDbEntity
  8
躯体
  6
JWW_DASHED1
 62
     2
370
     9
100
AcDbLine
 10
5.611231812948532
 20
333.3955298307251
 30
0.0
 11
5.611231812948532
 21
362.5414317205996
 31
0.0
  0
CIRCLE
  5
10A
330
1F
100
AcDbEntity
  8
躯体
  6
Continuous
 62
     2
370
     9
100
AcDbCircle
 10
-1.138737669473343
 20
352.5413851783474
 30
0.0
 40
4.249999652037749
  0
LINE
  5
10B
330
1F
100
AcDbEntity
  8
躯体
  6
JWW_CENTER2
 62
     2
370
     9
100
AcDbLine
 10
-1.138737669473343
 20
363.3218941549931
 30
0.0
 11
-1.138737669473343
 21
323.5414979402094
 31
0.0
  0
TEXT
  5
10C
330
1F
100
AcDbEntity
  8
寸法
  6
Continuous
 62
     2
370
     9
100
AcDbText
 10
-582.1610547173276
 20
386.3908318878222
 30
0.0
 40
12.192
  1
φ8.5
 41
1.1
  7
ＭＳ ゴシック
100
AcDbText
  0
LINE
  5
10D
330
1F
100
AcDbEntity
  8
寸法
  6
Continuous
 62
     7
370
     9
100
AcDbLine
 10
-584.0528834153273
 20
382.1349242653559
 30
0.0
 11
-536.2692260193279
 21
382.1349242653559
 31
0.0
  0
LINE
  5
10E
330
1F
100
AcDbEntity
  8
寸法
  6
Continuous
 62
     7
370
     9
100
AcDbLine
 10
-599.0137213474662
 20
356.221992843087
 30
0.0
 11
-584.0528834153273
 21
382.1349242653559
 31
0.0
  0
LINE
  5
10F
330
1F
100
AcDbEntity
  8
寸法
  6
Continuous
 62
     7
370
     9
100
AcDbLine
 10
-599.0137213474662
 20
356.221992843087
 30
0.0
 11
-592.9261070573792
 21
364.1555262459995
 31
0.0
  0
LINE
  5
110
330
1F
100
AcDbEntity
  8
寸法
  6
Continuous
 62
     7
370
     9
100
AcDbLine
 10
-599.0137213474662
 20
356.221992843087
 30
0.0
 11
-595.1868870238158
 21
365.4607881681999
 31
0.0
  0
ARC
  5
111
330
1F
100
AcDbEntity
  8
躯体
  6
Continuous
 62
     2
370
     9
100
AcDbCircle
 10
-593.6387110402355
 20
331.5414360802538
 30
0.0
 40
1.999999824868206
100
AcDbArc
 50
90.0
 51
149.9994903964416
  0
ARC
  5
112
330
1F
100
AcDbEntity
  8
躯体
  6
Continuous
 62
     2
370
     9
100
AcDbCircle
 10
-608.6387313067352
 20
331.5414360802538
 30
0.0
 40
1.999999824868206
100
AcDbArc
 50
30.00050960355836
 51
89.99999999999999
  0
LINE
  5
113
330
1F
100
AcDbEntity
  8
躯体
  6
JWW_CENTER2
 62
     2
370
     9
100
AcDbLine
 10
-601.1387211734854
 20
352.5413851783474
 30
0.0
 11
-606.9147972067939
 21
352.5413851783474
 31
0.0
  0
LINE
  5
114
330
1F
100
AcDbEntity
  8
躯体
  6
JWW_CENTER2
 62
     2
370
     9
100
AcDbLine
 10
-601.1387211734854
 20
352.5413851783474
 30
0.0
 11
-595.3626451401759
 21
352.5413851783474
 31
0.0
  0
LINE
  5
115
330
1F
100
AcDbEntity
  8
躯体
  6
Continuous
 62
     2
370
     9
100
AcDbLine
 10
-609.8886999643581
 20
333.5414453887042
 30
0.0
 11
-609.8886999643581
 21
362.5414317205996
 31
0.0
  0
LINE
  5
116
330
1F
100
AcDbEntity
  8
躯体
  6
Continuous
 62
     2
370
     9
100
AcDbLine
 10
-601.1387211734854
 20
362.5414317205996
 30
0.0
 11
-609.8886999643581
 21
362.5414317205996
 31
0.0
  0
LINE
  5
117
330
1F
100
AcDbEntity
  8
躯体
  6
Continuous
 62
     2
370
     9
100
AcDbLine
 10
-601.1387211734854
 20
362.5414317205996
 30
0.0
 11
-592.3887423826126
 21
362.5414317205996
 31
0.0
  0
LINE
  5
118
330
1F
100
AcDbEntity
  8
躯体
  6
Continuous
 62
     2
370
     9
100
AcDbLine
 10
-592.3887423826126
 20
333.5414453887042
 30
0.0
 11
-592.3887423826126
 21
362.5414317205996
 31
0.0
  0
LINE
  5
119
330
1F
100
AcDbEntity
  8
躯体
  6
Continuous
 62
     2
370
     9
100
AcDbLine
 10
-609.8886999643581
 20
333.5414453887042
 30
0.0
 11
-608.6387313067352
 21
333.5414453887042
 31
0.0
  0
LINE
  5
11A
330
1F
100
AcDbEntity
  8
躯体
  6
JWW_DASHED1
 62
     2
370
     9
100
AcDbLine
 10
-607.8886906559072
 20
333.3955298307251
 30
0.0
 11
-607.8886906559072
 21
362.5414317205996
 31
0.0
  0
LINE
  5
11B
330
1F
100
AcDbEntity
  8
躯体
  6
Continuous
 62
     2
370
     9
100
AcDbLine
 10
-592.3887423826126
 20
333.5414453887042
 30
0.0
 11
-593.6387110402355
 21
333.5414453887042
 31
0.0
  0
LINE
  5
11C
330
1F
100
AcDbEntity
  8
躯体
  6
JWW_DASHED1
 62
     2
370
     9
100
AcDbLine
 10
-594.3887516910635
 20
333.3955298307251
 30
0.0
 11
-594.3887516910635
 21
362.5414317205996
 31
0.0
  0
CIRCLE
  5
11D
330
1F
100
AcDbEntity
  8
躯体
  6
Continuous
 62
     2
370
     9
100
AcDbCircle
 10
-601.1387211734854
 20
352.5413851783474
 30
0.0
 40
4.249999652037749
  0
LINE
  5
11E
330
1F
100
AcDbEntity
  8
躯体
  6
JWW_CENTER2
 62
     2
370
     9
100
AcDbLine
 10
-601.1387211734854
 20
363.3218941549931
 30
0.0
 11
-601.1387211734854
 21
323.5414979402094
 31
0.0
  0
LWPOLYLINE
  5
11F
330
1F
100
AcDbEntity
  8
0-F
  6
Continuous
 62
     7
370
     9
100
AcDbPolyline
 90
        4
 70
     1
 43
0.4
 10
329.0613613064557
 20
303.5415041851196
 42
0.4142135623731
 10
328.8613613064557
 20
303.7415041851196
 42
0.4142135623731
 10
328.6613613064557
 20
303.5415041851196
 42
0.4142135623731
 10
328.8613613064557
 20
303.3415041851196
 42
0.4142135623731
  0
LWPOLYLINE
  5
120
330
1F
100
AcDbEntity
  8
0-F
  6
Continuous
 62
     7
370
     9
100
AcDbPolyline
 90
        4
 70
     1
 43
0.4
 10
329.0613613064557
 20
309.5414250043764
 42
0.4142135623731
 10
328.8613613064557
 20
309.7414250043764
 42
0.4142135623731
 10
328.6613613064557
 20
309.5414250043764
 42
0.4142135623731
 10
328.8613613064557
 20
309.3414250043764
 42
0.4142135623731
  0
LWPOLYLINE
  5
121
330
1F
100
AcDbEntity
  8
0-F
  6
Continuous
 62
     7
370
     9
100
AcDbPolyline
 90
        4
 70
     1
 43
0.4
 10
329.0613613064557
 20
313.5414382011669
 42
0.4142135623731
 10
328.8613613064557
 20
313.7414382011669
 42
0.4142135623731
 10
328.6613613064557
 20
313.5414382011669
 42
0.4142135623731
 10
328.8613613064557
 20
313.3414382011669
 42
0.4142135623731
  0
LWPOLYLINE
  5
122
330
1F
100
AcDbEntity
  8
0-F
  6
Continuous
 62
     7
370
     9
100
AcDbPolyline
 90
        4
 70
     1
 43
0.4
 10
329.0613613064557
 20
319.5414579963527
 42
0.4142135623731
 10
328.8613613064557
 20
319.7414579963527
 42
0.4142135623731
 10
328.6613613064557
 20
319.5414579963527
 42
0.4142135623731
 10
328.8613613064557
 20
319.3414579963527
 42
0.4142135623731
  0
LWPOLYLINE
  5
123
330
1F
100
AcDbEntity
  8
0-F
  6
Continuous
 62
     7
370
     9
100
AcDbPolyline
 90
        4
 70
     1
 43
0.4
 10
329.0613613064557
 20
323.5414711931433
 42
0.4142135623731
 10
328.8613613064557
 20
323.7414711931432
 42
0.4142135623731
 10
328.6613613064557
 20
323.5414711931433
 42
0.4142135623731
 10
328.8613613064557
 20
323.3414711931433
 42
0.4142135623731
  0
LWPOLYLINE
  5
124
330
1F
100
AcDbEntity
  8
0-F
  6
Continuous
 62
     7
370
     9
100
AcDbPolyline
 90
        4
 70
     1
 43
0.4
 10
436.0614668807801
 20
108.5190861371889
 42
0.4142135623731
 10
435.8614668807801
 20
108.7190861371889
 42
0.4142135623731
 10
435.6614668807801
 20
108.5190861371889
 42
0.4142135623731
 10
435.8614668807801
 20
108.3190861371889
 42
0.4142135623731
  0
LWPOLYLINE
  5
125
330
1F
100
AcDbEntity
  8
0-F
  6
Continuous
 62
     7
370
     9
100
AcDbPolyline
 90
        4
 70
     1
 43
0.4
 10
289.0613283144792
 20
-14.45860468840237
 42
0.4142135623731
 10
288.8613283144792
 20
-14.25860468840238
 42
0.4142135623731
 10
288.6613283144792
 20
-14.45860468840237
 42
0.4142135623731
 10
288.8613283144792
 20
-14.65860468840237
 42
0.4142135623731
  0
LWPOLYLINE
  5
126
330
1F
100
AcDbEntity
  8
0-F
  6
Continuous
 62
     7
370
     9
100
AcDbPolyline
 90
        4
 70
     1
 43
0.4
 10
289.0613283144792
 20
329.5414909883291
 42
0.4142135623731
 10
288.8613283144792
 20
329.7414909883291
 42
0.4142135623731
 10
288.6613283144792
 20
329.5414909883291
 42
0.4142135623731
 10
288.8613283144792
 20
329.3414909883291
 42
0.4142135623731
  0
TEXT
  5
127
330
1F
100
AcDbEntity
  8
0-F
  6
Continuous
 62
     2
370
     9
100
AcDbText
 10
324.6053547080605
 20
297.5414975867243
 30
0.0
 40
12.192
  1
4
 50
90.0
  7
ＭＳ ゴシック
100
AcDbText
  0
TEXT
  5
128
330
1F
100
AcDbEntity
  8
0-F
  6
Continuous
 62
     2
370
     9
100
AcDbText
 10
308.7318921341584
 20
302.541464594748
 30
0.0
 40
12.192
  1
6
 50
90.0
  7
ＭＳ ゴシック
100
AcDbText
  0
TEXT
  5
129
330
1F
100
AcDbEntity
  8
0-F
  6
Continuous
 62
     2
370
     9
100
AcDbText
 10
324.6053547080605
 20
307.5414316027716
 30
0.0
 40
12.192
  1
4
 50
90.0
  7
ＭＳ ゴシック
100
AcDbText
  0
TEXT
  5
12A
330
1F
100
AcDbEntity
  8
0-F
  6
Continuous
 62
     2
370
     9
100
AcDbText
 10
308.7318921341584
 20
312.5414975867243
 30
0.0
 40
12.192
  1
6
 50
90.0
  7
ＭＳ ゴシック
100
AcDbText
  0
TEXT
  5
12B
330
1F
100
AcDbEntity
  8
0-F
  6
Continuous
 62
     2
370
     9
100
AcDbText
 10
324.6053547080605
 20
317.541464594748
 30
0.0
 40
12.192
  1
4
 50
90.0
  7
ＭＳ ゴシック
100
AcDbText
  0
TEXT
  5
12C
330
1F
100
AcDbEntity
  8
0-F
  6
Continuous
 62
     2
370
     9
100
AcDbText
 10
324.6053547080605
 20
340.9988587564878
 30
0.0
 40
12.192
  1
4
 50
90.0
  7
ＭＳ ゴシック
100
AcDbText
  0
TEXT
  5
12D
330
1F
100
AcDbEntity
  8
0-F
  6
Continuous
 62
     2
370
     9
100
AcDbText
 10
460.9726531402816
 20
112.7750927355841
 30
0.0
 40
12.192
  1
15
 41
1.0625
  7
ＭＳ ゴシック
100
AcDbText
  0
TEXT
  5
12E
330
1F
100
AcDbEntity
  8
0-F
  6
Continuous
 62
     2
370
     9
100
AcDbText
 10
537.6054140936179
 20
144.5414678939455
 30
0.0
 40
12.192
  1
250
 50
90.0
 41
1.083333333333333
  7
ＭＳ ゴシック
100
AcDbText
  0
TEXT
  5
12F
330
1F
100
AcDbEntity
  8
0-F
  6
Continuous
 62
     2
370
     9
100
AcDbText
 10
324.6053547080605
 20
144.5414678939455
 30
0.0
 40
12.192
  1
284
 50
90.0
 41
1.083333333333333
  7
ＭＳ ゴシック
100
AcDbText
  0
TEXT
  5
130
330
1F
100
AcDbEntity
  8
0-F
  6
Continuous
 62
     2
370
     9
100
AcDbText
 10
284.6053217160841
 20
144.5414184059812
 30
0.0
 40
12.192
  1
340
 50
90.0
 41
1.083333333333333
  7
ＭＳ ゴシック
100
AcDbText
  0
TEXT
  5
131
330
1F
100
AcDbEntity
  8
0-F
  6
Continuous
 62
     2
370
     9
100
AcDbText
 10
244.6052887241078
 20
144.5414184059812
 30
0.0
 40
12.192
  1
350
 50
90.0
 41
1.083333333333333
  7
ＭＳ ゴシック
100
AcDbText
  0
TEXT
  5
132
330
1F
100
AcDbEntity
  8
0-F
  6
Continuous
 62
     2
370
     9
100
AcDbText
 10
284.6053217160841
 20
346.2756614380758
 30
0.0
 40
12.192
  1
3
 50
90.0
  7
ＭＳ ゴシック
100
AcDbText
  0
TEXT
  5
133
330
1F
100
AcDbEntity
  8
0-F
  6
Continuous
 62
     2
370
     9
100
AcDbText
 10
284.6053217160841
 20
-39.1928493700957
 30
0.0
 40
12.192
  1
3
 50
90.0
  7
ＭＳ ゴシック
100
AcDbText
  0
TEXT
  5
134
330
1F
100
AcDbEntity
  8
0-F
  6
Continuous
 62
     2
370
     9
100
AcDbText
 10
537.6054140936179
 20
-0.9585321060544628
 30
0.0
 40
12.192
  1
50
 50
90.0
 41
1.0625
  7
ＭＳ ゴシック
100
AcDbText
  0
TEXT
  5
135
330
1F
100
AcDbEntity
  8
0-F
  6
Continuous
 62
     2
370
     9
100
AcDbText
 10
537.6054140936179
 20
299.0414678939455
 30
0.0
 40
12.192
  1
50
 50
90.0
 41
1.0625
  7
ＭＳ ゴシック
100
AcDbText
  0
TEXT
  5
136
330
1F
100
AcDbEntity
  8
0-F
  6
Continuous
 62
     2
370
     9
100
AcDbText
 10
453.1328786734321
 20
130.8430990964372
 30
0.0
 40
12.192
  1
7
  7
ＭＳ ゴシック
100
AcDbText
  0
TEXT
  5
137
330
1F
100
AcDbEntity
  8
0-F
  6
Continuous
 62
     2
370
     9
100
AcDbText
 10
398.3614701799777
 20
112.7750927355841
 30
0.0
 40
12.192
  1
40
 41
1.0625
  7
ＭＳ ゴシック
100
AcDbText
  0
TEXT
  5
138
330
1F
100
AcDbEntity
  8
0-F
  6
Continuous
 62
     2
370
     9
100
AcDbText
 10
410.3614107944202
 20
-73.20260798760009
 30
0.0
 40
12.192
  1
60
 41
1.0625
  7
ＭＳ ゴシック
100
AcDbText
  0
TEXT
  5
139
330
1F
100
AcDbEntity
  8
0-F
  6
Continuous
 62
     2
370
     9
100
AcDbText
 10
284.6053217160841
 20
-15.26487415366842
 30
0.0
 40
12.192
  1
2
 50
90.0
  7
ＭＳ ゴシック
100
AcDbText
  0
TEXT
  5
13A
330
1F
100
AcDbEntity
  8
0-F
  6
Continuous
 62
     2
370
     9
100
AcDbText
 10
284.6053217160841
 20
322.6247693350351
 30
0.0
 40
12.192
  1
2
 50
90.0
  7
ＭＳ ゴシック
100
AcDbText
  0
TEXT
  5
13B
330
1F
100
AcDbEntity
  8
0-F
  6
Continuous
 62
     2
370
     9
100
AcDbText
 10
324.6053547080605
 20
-6.95850241327571
 30
0.0
 40
12.192
  1
28
 50
90.0
 41
1.0625
  7
ＭＳ ゴシック
100
AcDbText
  0
TEXT
  5
13C
330
1F
100
AcDbEntity
  8
0-F
  6
Continuous
 62
     2
370
     9
100
AcDbText
 10
97.88835534150638
 20
-128.2025914916117
 30
0.0
 40
12.192
  1
599
 41
1.083333333333333
  7
ＭＳ ゴシック
100
AcDbText
  0
TEXT
  5
13D
330
1F
100
AcDbEntity
  8
0-F
  6
Continuous
 62
     2
370
     9
100
AcDbText
 10
-82.70986012249273
 20
-128.2025914916117
 30
0.0
 40
12.192
  1
1
  7
ＭＳ ゴシック
100
AcDbText
  0
TEXT
  5
13E
330
1F
100
AcDbEntity
  8
0-F
  6
Continuous
 62
     2
370
     9
100
AcDbText
 10
-413.6387442678687
 20
-128.2025914916117
 30
0.0
 40
12.192
  1
599
 41
1.083333333333333
  7
ＭＳ ゴシック
100
AcDbText
  0
TEXT
  5
13F
330
1F
100
AcDbEntity
  8
0-F
  6
Continuous
 62
     2
370
     9
100
AcDbText
 10
-413.6387442678687
 20
-88.20260798760009
 30
0.0
 40
12.192
  1
591
 41
1.083333333333333
  7
ＭＳ ゴシック
100
AcDbText
  0
TEXT
  5
140
330
1F
100
AcDbEntity
  8
0-F
  6
Continuous
 62
     2
370
     9
100
AcDbText
 10
-173.1210853125265
 20
451.7974909883291
 30
0.0
 40
12.192
  1
2000
 41
1.09375
  7
ＭＳ ゴシック
100
AcDbText
  0
TEXT
  5
141
330
1F
100
AcDbEntity
  8
0-F
  6
Continuous
 62
     2
370
     9
100
AcDbText
 10
102.8613019208983
 20
411.7974579963527
 30
0.0
 40
12.192
  1
600
 41
1.083333333333333
  7
ＭＳ ゴシック
100
AcDbText
  0
TEXT
  5
142
330
1F
100
AcDbEntity
  8
0-F
  6
Continuous
 62
     2
370
     9
100
AcDbText
 10
-313.6387112758923
 20
411.7974579963527
 30
0.0
 40
12.192
  1
600
 41
1.083333333333338
  7
ＭＳ ゴシック
100
AcDbText
  0
TEXT
  5
143
330
1F
100
AcDbEntity
  8
0-F
  6
Continuous
 62
     2
370
     9
100
AcDbText
 10
-663.6387648878538
 20
411.7974579963527
 30
0.0
 40
12.192
  1
100
 41
1.083333333333333
  7
ＭＳ ゴシック
100
AcDbText
  0
ARC
  5
144
330
1F
100
AcDbEntity
  8
通り芯
  6
Continuous
 62
     3
370
     9
100
AcDbCircle
 10
421.3618891780774
 20
-7.134237474508836
 30
0.0
 40
1.500000019331236
100
AcDbArc
 50
277.1266784667969
 51
0.0000000000000254
  0
ARC
  5
145
330
1F
100
AcDbEntity
  8
通り芯
  6
Continuous
 62
     3
370
     9
100
AcDbCircle
 10
426.8619815556111
 20
9.959994208345961
 30
0.0
 40
4.000000051549963
100
AcDbArc
 50
94.08583068847656
 51
180.0
  0
ARC
  5
146
330
1F
100
AcDbEntity
  8
通り芯
  6
Continuous
 62
     3
370
     9
100
AcDbCircle
 10
439.8615790534998
 20
26.97316460530533
 30
0.0
 40
4.000000051549963
100
AcDbArc
 50
180.0
 51
261.2539978027344
  0
ARC
  5
147
330
1F
100
AcDbEntity
  8
通り芯
  6
Continuous
 62
     3
370
     9
100
AcDbCircle
 10
447.3613811016417
 20
20.25457956518699
 30
0.0
 40
1.500000019331236
100
AcDbArc
 50
0.0
 51
81.25363159179688
  0
ARC
  5
148
330
1F
100
AcDbEntity
  8
通り芯
  6
Continuous
 62
     3
370
     9
100
AcDbCircle
 10
447.3613811016417
 20
16.93819311037282
 30
0.0
 40
1.500000019331236
100
AcDbArc
 50
274.0858001708984
 51
0.0000000000000254
  0
ARC
  5
149
330
1F
100
AcDbEntity
  8
通り芯
  6
Continuous
 62
     3
370
     9
100
AcDbCircle
 10
429.8615460615232
 20
42.19066420940158
 30
0.0
 40
1.000000012887491
100
AcDbArc
 50
141.3389434814453
 51
180.0
  0
ARC
  5
14A
330
1F
100
AcDbEntity
  8
通り芯
  6
Continuous
 62
     3
370
     9
100
AcDbCircle
 10
429.8612491337361
 20
45.39218909854867
 30
0.0
 40
1.000000012887491
100
AcDbArc
 50
321.3389434814453
 51
0.0000000000000127
  0
ARC
  5
14B
330
1F
100
AcDbEntity
  8
通り芯
  6
Continuous
 62
     3
370
     9
100
AcDbCircle
 10
424.8615790534997
 20
24.77233584685951
 30
0.0
 40
4.000000051549963
100
AcDbArc
 50
274.2888336181641
 51
0.0000000000000254
  0
ARC
  5
14C
330
1F
100
AcDbEntity
  8
通り芯
  6
Continuous
 62
     3
370
     9
100
AcDbCircle
 10
421.3618891780774
 20
322.2172722383291
 30
0.0
 40
1.500000019331236
100
AcDbArc
 50
0.0
 51
82.87332153320314
  0
ARC
  5
14D
330
1F
100
AcDbEntity
  8
通り芯
  6
Continuous
 62
     3
370
     9
100
AcDbCircle
 10
426.8619815556111
 20
305.1230405554743
 30
0.0
 40
4.000000051549963
100
AcDbArc
 50
180.0
 51
265.9141693115234
  0
ARC
  5
14E
330
1F
100
AcDbEntity
  8
通り芯
  6
Continuous
 62
     3
370
     9
100
AcDbCircle
 10
439.8615790534998
 20
288.1098701585149
 30
0.0
 40
4.000000051549963
100
AcDbArc
 50
98.74600219726561
 51
180.0
  0
ARC
  5
14F
330
1F
100
AcDbEntity
  8
通り芯
  6
Continuous
 62
     3
370
     9
100
AcDbCircle
 10
447.3613811016417
 20
294.8284551986332
 30
0.0
 40
1.500000019331236
100
AcDbArc
 50
278.7463684082031
 51
0.0000000000000127
  0
ARC
  5
150
330
1F
100
AcDbEntity
  8
通り芯
  6
Continuous
 62
     3
370
     9
100
AcDbCircle
 10
447.3613811016417
 20
298.1448416534473
 30
0.0
 40
1.500000019331236
100
AcDbArc
 50
0.0
 51
85.91419982910156
  0
ARC
  5
151
330
1F
100
AcDbEntity
  8
通り芯
  6
Continuous
 62
     3
370
     9
100
AcDbCircle
 10
429.8615460615232
 20
272.8923705544186
 30
0.0
 40
1.000000012887491
100
AcDbArc
 50
180.0
 51
218.6610565185547
  0
ARC
  5
152
330
1F
100
AcDbEntity
  8
通り芯
  6
Continuous
 62
     3
370
     9
100
AcDbCircle
 10
429.8612491337361
 20
269.6908456652716
 30
0.0
 40
1.000000012887491
100
AcDbArc
 50
0.0
 51
38.66105651855469
  0
CIRCLE
  5
153
330
1F
100
AcDbEntity
  8
通り芯
  6
Continuous
 62
     3
370
     9
100
AcDbCircle
 10
413.8614932743611
 20
157.5415173819101
 30
0.0
 40
2.000000025774982
  0
ARC
  5
154
330
1F
100
AcDbEntity
  8
通り芯
  6
Continuous
 62
     3
370
     9
100
AcDbCircle
 10
424.8615790534997
 20
290.3106989169609
 30
0.0
 40
4.000000051549963
100
AcDbArc
 50
0.0
 51
85.71116638183594
  0
LINE
  5
155
330
1F
100
AcDbEntity
  8
0-F
  6
Continuous
 62
     7
370
     9
100
AcDbLine
 10
384.8613481096651
 20
323.5414711931433
 30
0.0
 11
327.6613771426042
 21
323.5414711931433
 31
0.0
  0
LINE
  5
156
330
1F
100
AcDbEntity
  8
0-F
  6
Continuous
 62
     7
370
     9
100
AcDbLine
 10
328.8613613064557
 20
327.5414843899338
 30
0.0
 11
330.4276553837361
 21
339.4387869659473
 31
0.0
  0
LINE
  5
157
330
1F
100
AcDbEntity
  8
0-F
  6
Continuous
 62
     7
370
     9
100
AcDbLine
 10
384.8613481096651
 20
299.5414909883291
 30
0.0
 11
327.6613771426042
 21
299.5414909883291
 31
0.0
  0
LINE
  5
158
330
1F
100
AcDbEntity
  8
0-F
  6
Continuous
 62
     7
370
     9
100
AcDbLine
 10
384.8613481096651
 20
303.5415041851196
 30
0.0
 11
327.6613771426042
 21
303.5415041851196
 31
0.0
  0
LINE
  5
159
330
1F
100
AcDbEntity
  8
0-F
  6
Continuous
 62
     7
370
     9
100
AcDbLine
 10
384.8613481096651
 20
309.5414250043764
 30
0.0
 11
327.6613771426042
 21
309.5414250043764
 31
0.0
  0
LINE
  5
15A
330
1F
100
AcDbEntity
  8
0-F
  6
Continuous
 62
     7
370
     9
100
AcDbLine
 10
384.8613481096651
 20
313.5414382011669
 30
0.0
 11
327.6613771426042
 21
313.5414382011669
 31
0.0
  0
LINE
  5
15B
330
1F
100
AcDbEntity
  8
0-F
  6
Continuous
 62
     7
370
     9
100
AcDbLine
 10
384.8613481096651
 20
319.5414579963527
 30
0.0
 11
327.6613771426042
 21
319.5414579963527
 31
0.0
  0
LINE
  5
15C
330
1F
100
AcDbEntity
  8
0-F
  6
Continuous
 62
     7
370
     9
100
AcDbLine
 10
328.8613613064557
 20
327.5414843899338
 30
0.0
 11
327.2950672291753
 21
339.4387869659473
 31
0.0
  0
LINE
  5
15D
330
1F
100
AcDbEntity
  8
通り芯
  6
JWW_CENTER1
 62
     3
370
     9
100
AcDbLine
 10
404.8614140936178
 20
1.541398610795113
 30
0.0
 11
437.8620673347497
 21
1.541398610795113
 31
0.0
  0
LINE
  5
15E
330
1F
100
AcDbEntity
  8
通り芯
  6
Continuous
 62
     3
370
     9
100
AcDbLine
 10
422.8620673347497
 20
-7.134237474508836
 30
0.0
 11
422.8620673347497
 21
9.959994208345961
 31
0.0
  0
LINE
  5
15F
330
1F
100
AcDbEntity
  8
通り芯
  6
Continuous
 62
     3
370
     9
100
AcDbLine
 10
421.547963924699
 20
-8.622736471552798
 30
0.0
 11
408.8614272904084
 21
-10.2084298309278
 31
0.0
  0
LINE
  5
160
330
1F
100
AcDbEntity
  8
通り芯
  6
Continuous
 62
     3
370
     9
100
AcDbLine
 10
447.46827510502
 20
15.44207296679178
 30
0.0
 11
426.5770298558645
 21
13.94981288444387
 31
0.0
  0
LINE
  5
161
330
1F
100
AcDbEntity
  8
通り芯
  6
Continuous
 62
     3
370
     9
100
AcDbLine
 10
422.8620673347497
 20
-5.458574995623621
 30
0.0
 11
423.6619907933645
 21
-5.458574995623621
 31
0.0
  0
LINE
  5
162
330
1F
100
AcDbEntity
  8
通り芯
  6
Continuous
 62
     3
370
     9
100
AcDbLine
 10
408.8614272904084
 20
4.541457996352619
 30
0.0
 11
422.8620673347497
 21
4.541457996352619
 31
0.0
  0
LINE
  5
163
330
1F
100
AcDbEntity
  8
通り芯
  6
Continuous
 62
     3
370
     9
100
AcDbLine
 10
422.8620673347497
 20
3.541504185119493
 30
0.0
 11
408.8614272904084
 21
3.541504185119493
 31
0.0
  0
LINE
  5
164
330
1F
100
AcDbEntity
  8
通り芯
  6
Continuous
 62
     3
370
     9
100
AcDbLine
 10
422.8620673347497
 20
-0.4585090116709125
 30
0.0
 11
408.8614272904084
 21
-0.4585090116709125
 31
0.0
  0
LINE
  5
165
330
1F
100
AcDbEntity
  8
通り芯
  6
Continuous
 62
     3
370
     9
100
AcDbLine
 10
408.8614272904084
 20
-1.458462822904039
 30
0.0
 11
422.8620673347497
 21
-1.458462822904039
 31
0.0
  0
LINE
  5
166
330
1F
100
AcDbEntity
  8
通り芯
  6
Continuous
 62
     3
370
     9
100
AcDbLine
 10
408.8614272904084
 20
-2.958542003647381
 30
0.0
 11
422.8620673347497
 21
-2.958542003647381
 31
0.0
  0
LINE
  5
167
330
1F
100
AcDbEntity
  8
通り芯
  6
Continuous
 62
     3
370
     9
100
AcDbLine
 10
408.8614272904084
 20
6.041438201166784
 30
0.0
 11
422.8620673347497
 21
6.041438201166784
 31
0.0
  0
LINE
  5
168
330
1F
100
AcDbEntity
  8
通り芯
  6
Continuous
 62
     3
370
     9
100
AcDbLine
 10
428.8618891780774
 20
4.541457996352619
 30
0.0
 11
432.8619023748678
 21
4.541457996352619
 31
0.0
  0
LINE
  5
169
330
1F
100
AcDbEntity
  8
通り芯
  6
Continuous
 62
     3
370
     9
100
AcDbLine
 10
428.8618891780774
 20
3.541504185119493
 30
0.0
 11
433.8619551620301
 21
3.541504185119493
 31
0.0
  0
LINE
  5
16A
330
1F
100
AcDbEntity
  8
通り芯
  6
Continuous
 62
     3
370
     9
100
AcDbLine
 10
433.8619551620301
 20
-0.4585090116709125
 30
0.0
 11
428.8618891780774
 21
-0.4585090116709125
 31
0.0
  0
LINE
  5
16B
330
1F
100
AcDbEntity
  8
通り芯
  6
Continuous
 62
     3
370
     9
100
AcDbLine
 10
428.8618891780774
 20
-1.458462822904039
 30
0.0
 11
432.8619023748678
 21
-1.458462822904039
 31
0.0
  0
LINE
  5
16C
330
1F
100
AcDbEntity
  8
通り芯
  6
Continuous
 62
     3
370
     9
100
AcDbLine
 10
433.8619551620301
 20
3.541504185119493
 30
0.0
 11
433.8619551620301
 21
-0.4585090116709125
 31
0.0
  0
LINE
  5
16D
330
1F
100
AcDbEntity
  8
通り芯
  6
Continuous
 62
     3
370
     9
100
AcDbLine
 10
425.2619366865232
 20
-3.983536724931128
 30
0.0
 11
428.8618891780774
 21
-3.983536724931128
 31
0.0
  0
LINE
  5
16E
330
1F
100
AcDbEntity
  8
通り芯
  6
Continuous
 62
     3
370
     9
100
AcDbLine
 10
433.8619551620301
 20
-0.4585090116709125
 30
0.0
 11
432.8619023748678
 21
-1.458462822904039
 31
0.0
  0
LINE
  5
16F
330
1F
100
AcDbEntity
  8
通り芯
  6
Continuous
 62
     3
370
     9
100
AcDbLine
 10
432.8619023748678
 20
4.541457996352619
 30
0.0
 11
433.8619551620301
 21
3.541504185119493
 31
0.0
  0
LINE
  5
170
330
1F
100
AcDbEntity
  8
通り芯
  6
Continuous
 62
     3
370
     9
100
AcDbLine
 10
432.8619023748678
 20
4.541457996352619
 30
0.0
 11
432.8619023748678
 21
-1.458462822904039
 31
0.0
  0
LINE
  5
171
330
1F
100
AcDbEntity
  8
通り芯
  6
Continuous
 62
     3
370
     9
100
AcDbLine
 10
428.8618891780774
 20
7.066432922450531
 30
0.0
 11
428.8618891780774
 21
-3.983536724931128
 31
0.0
  0
LINE
  5
172
330
1F
100
AcDbEntity
  8
通り芯
  6
Continuous
 62
     3
370
     9
100
AcDbLine
 10
425.2619366865232
 20
7.066432922450531
 30
0.0
 11
428.8618891780774
 21
7.066432922450531
 31
0.0
  0
LINE
  5
173
330
1F
100
AcDbEntity
  8
通り芯
  6
Continuous
 62
     3
370
     9
100
AcDbLine
 10
422.8620673347497
 20
8.541471193143252
 30
0.0
 11
423.6619907933645
 21
8.541471193143252
 31
0.0
  0
LINE
  5
174
330
1F
100
AcDbEntity
  8
通り芯
  6
Continuous
 62
     3
370
     9
100
AcDbLine
 10
423.6619907933645
 20
-1.221019569103419
 30
0.0
 11
428.8618891780774
 21
-1.221019569103419
 31
0.0
  0
LINE
  5
175
330
1F
100
AcDbEntity
  8
通り芯
  6
Continuous
 62
     3
370
     9
100
AcDbLine
 10
423.6619907933645
 20
4.303915766622822
 30
0.0
 11
428.8618891780774
 21
4.303915766622822
 31
0.0
  0
LINE
  5
176
330
1F
100
AcDbEntity
  8
通り芯
  6
Continuous
 62
     3
370
     9
100
AcDbLine
 10
423.6619907933645
 20
-5.458574995623621
 30
0.0
 11
425.2619366865232
 21
-3.983536724931128
 31
0.0
  0
LINE
  5
177
330
1F
100
AcDbEntity
  8
通り芯
  6
Continuous
 62
     3
370
     9
100
AcDbLine
 10
423.6619907933645
 20
8.541471193143252
 30
0.0
 11
425.2619366865232
 21
7.066432922450531
 31
0.0
  0
LINE
  5
178
330
1F
100
AcDbEntity
  8
通り芯
  6
Continuous
 62
     3
370
     9
100
AcDbLine
 10
423.6619907933645
 20
8.541471193143252
 30
0.0
 11
423.6619907933645
 21
-5.458574995623621
 31
0.0
  0
LINE
  5
179
330
1F
100
AcDbEntity
  8
通り芯
  6
Continuous
 62
     3
370
     9
100
AcDbLine
 10
403.8614602823847
 20
-8.458436429323001
 30
0.0
 11
388.8614602823847
 21
-8.458436429323001
 31
0.0
  0
LINE
  5
17A
330
1F
100
AcDbEntity
  8
通り芯
  6
Continuous
 62
     3
370
     9
100
AcDbLine
 10
403.8614602823847
 20
-4.458423232532596
 30
0.0
 11
388.8614602823847
 21
-4.458423232532596
 31
0.0
  0
LINE
  5
17B
330
1F
100
AcDbEntity
  8
通り芯
  6
Continuous
 62
     3
370
     9
100
AcDbLine
 10
403.8614602823847
 20
1.54159656265324
 30
0.0
 11
388.8614602823847
 21
1.54159656265324
 31
0.0
  0
LINE
  5
17C
330
1F
100
AcDbEntity
  8
通り芯
  6
Continuous
 62
     3
370
     9
100
AcDbLine
 10
403.8614602823847
 20
5.541609759443872
 30
0.0
 11
388.8614602823847
 21
5.541609759443872
 31
0.0
  0
LINE
  5
17D
330
1F
100
AcDbEntity
  8
通り芯
  6
Continuous
 62
     3
370
     9
100
AcDbLine
 10
417.8615064711518
 20
153.5415041851195
 30
0.0
 11
389.861513069547
 21
153.5415041851195
 31
0.0
  0
LINE
  5
17E
330
1F
100
AcDbEntity
  8
通り芯
  6
Continuous
 62
     3
370
     9
100
AcDbLine
 10
406.8615196679422
 20
153.5415041851195
 30
0.0
 11
406.8615196679422
 21
15.54154377549116
 31
0.0
  0
LINE
  5
17F
330
1F
100
AcDbEntity
  8
通り芯
  6
Continuous
 62
     3
370
     9
100
AcDbLine
 10
439.2531740176042
 20
23.01976907109929
 30
0.0
 11
447.5895206181112
 21
21.73723898241678
 31
0.0
  0
LINE
  5
180
330
1F
100
AcDbEntity
  8
通り芯
  6
Continuous
 62
     3
370
     9
100
AcDbLine
 10
425.160585335172
 20
20.783506930052
 30
0.0
 11
406.8615196679422
 21
19.41110669778845
 31
0.0
  0
LINE
  5
181
330
1F
100
AcDbEntity
  8
通り芯
  6
Continuous
 62
     3
370
     9
100
AcDbLine
 10
408.8614272904084
 20
-12.45844962611363
 30
0.0
 11
403.8614602823847
 21
-12.45844962611363
 31
0.0
  0
LINE
  5
182
330
1F
100
AcDbEntity
  8
通り芯
  6
Continuous
 62
     3
370
     9
100
AcDbLine
 10
408.8614272904084
 20
15.54154377549116
 30
0.0
 11
388.8614602823847
 21
15.54154377549116
 31
0.0
  0
LINE
  5
183
330
1F
100
AcDbEntity
  8
通り芯
  6
Continuous
 62
     3
370
     9
100
AcDbLine
 10
408.8614272904084
 20
11.54153057870053
 30
0.0
 11
388.8614602823847
 21
11.54153057870053
 31
0.0
  0
LINE
  5
184
330
1F
100
AcDbEntity
  8
通り芯
  6
Continuous
 62
     3
370
     9
100
AcDbLine
 10
408.8614272904084
 20
15.54154377549116
 30
0.0
 11
408.8614272904084
 21
-12.45844962611363
 31
0.0
  0
LINE
  5
185
330
1F
100
AcDbEntity
  8
通り芯
  6
Continuous
 62
     3
370
     9
100
AcDbLine
 10
403.8614602823847
 20
11.54153057870053
 30
0.0
 11
403.8614602823847
 21
-12.45844962611363
 31
0.0
  0
LINE
  5
186
330
1F
100
AcDbEntity
  8
通り芯
  6
Continuous
 62
     3
370
     9
100
AcDbLine
 10
448.8614602823848
 20
20.25457956518699
 30
0.0
 11
448.8614602823848
 21
16.93819311037282
 31
0.0
  0
LINE
  5
187
330
1F
100
AcDbEntity
  8
通り芯
  6
Continuous
 62
     3
370
     9
100
AcDbLine
 10
430.6422681899018
 20
44.76745303435951
 30
0.0
 11
429.0806259812867
 21
42.81540027359074
 31
0.0
  0
LINE
  5
188
330
1F
100
AcDbEntity
  8
通り芯
  6
Continuous
 62
     3
370
     9
100
AcDbLine
 10
435.8614668807801
 20
42.54153387789825
 30
0.0
 11
450.8614668807802
 21
57.54153387789825
 31
0.0
  0
LINE
  5
189
330
1F
100
AcDbEntity
  8
通り芯
  6
Continuous
 62
     3
370
     9
100
AcDbLine
 10
406.8609258123678
 20
151.5414975867243
 30
0.0
 11
420.8609720011347
 21
153.0414777915385
 31
0.0
  0
LINE
  5
18A
330
1F
100
AcDbEntity
  8
通り芯
  6
Continuous
 62
     3
370
     9
100
AcDbLine
 10
416.4614919546819
 20
154.9415187015891
 30
0.0
 11
411.2613956181111
 21
154.9415187015891
 31
0.0
  0
LINE
  5
18B
330
1F
100
AcDbEntity
  8
通り芯
  6
Continuous
 62
     3
370
     9
100
AcDbLine
 10
406.8609258123678
 20
152.0415239803053
 30
0.0
 11
420.8609720011347
 21
153.0414777915385
 31
0.0
  0
LINE
  5
18C
330
1F
100
AcDbEntity
  8
通り芯
  6
JWW_CENTER1
 62
     3
370
     9
100
AcDbLine
 10
476.7100205125369
 20
157.5415173819101
 30
0.0
 11
365.9631811438713
 21
157.5415173819101
 31
0.0
  0
LINE
  5
18D
330
1F
100
AcDbEntity
  8
通り芯
  6
Continuous
 62
     3
370
     9
100
AcDbLine
 10
411.2613956181111
 20
160.1415160622309
 30
0.0
 11
411.2613956181111
 21
154.9415187015891
 31
0.0
  0
LINE
  5
18E
330
1F
100
AcDbEntity
  8
通り芯
  6
JWW_CENTER1
 62
     3
370
     9
100
AcDbLine
 10
404.8614140936178
 20
313.541636153025
 30
0.0
 11
437.8620673347497
 21
313.541636153025
 31
0.0
  0
LINE
  5
18F
330
1F
100
AcDbEntity
  8
通り芯
  6
Continuous
 62
     3
370
     9
100
AcDbLine
 10
422.8620673347497
 20
322.2172722383291
 30
0.0
 11
422.8620673347497
 21
305.1230405554743
 31
0.0
  0
LINE
  5
190
330
1F
100
AcDbEntity
  8
通り芯
  6
Continuous
 62
     3
370
     9
100
AcDbLine
 10
421.547963924699
 20
323.7057712353729
 30
0.0
 11
408.8614272904084
 21
325.2914645947479
 31
0.0
  0
LINE
  5
191
330
1F
100
AcDbEntity
  8
通り芯
  6
Continuous
 62
     3
370
     9
100
AcDbLine
 10
447.46827510502
 20
299.6409617970284
 30
0.0
 11
426.5770298558645
 21
301.1332218793764
 31
0.0
  0
LINE
  5
192
330
1F
100
AcDbEntity
  8
通り芯
  6
Continuous
 62
     3
370
     9
100
AcDbLine
 10
422.8620673347497
 20
320.5416097594439
 30
0.0
 11
423.6619907933645
 21
320.5416097594439
 31
0.0
  0
LINE
  5
193
330
1F
100
AcDbEntity
  8
通り芯
  6
Continuous
 62
     3
370
     9
100
AcDbLine
 10
408.8614272904084
 20
310.5415767674676
 30
0.0
 11
422.8620673347497
 21
310.5415767674676
 31
0.0
  0
LINE
  5
194
330
1F
100
AcDbEntity
  8
通り芯
  6
Continuous
 62
     3
370
     9
100
AcDbLine
 10
422.8620673347497
 20
311.5415305787006
 30
0.0
 11
408.8614272904084
 21
311.5415305787006
 31
0.0
  0
LINE
  5
195
330
1F
100
AcDbEntity
  8
通り芯
  6
Continuous
 62
     3
370
     9
100
AcDbLine
 10
422.8620673347497
 20
315.5415437754913
 30
0.0
 11
408.8614272904084
 21
315.5415437754913
 31
0.0
  0
LINE
  5
196
330
1F
100
AcDbEntity
  8
通り芯
  6
Continuous
 62
     3
370
     9
100
AcDbLine
 10
408.8614272904084
 20
316.5414975867243
 30
0.0
 11
422.8620673347497
 21
316.5414975867243
 31
0.0
  0
LINE
  5
197
330
1F
100
AcDbEntity
  8
通り芯
  6
Continuous
 62
     3
370
     9
100
AcDbLine
 10
408.8614272904084
 20
318.0415767674676
 30
0.0
 11
422.8620673347497
 21
318.0415767674676
 31
0.0
  0
LINE
  5
198
330
1F
100
AcDbEntity
  8
通り芯
  6
Continuous
 62
     3
370
     9
100
AcDbLine
 10
408.8614272904084
 20
309.0415965626534
 30
0.0
 11
422.8620673347497
 21
309.0415965626534
 31
0.0
  0
LINE
  5
199
330
1F
100
AcDbEntity
  8
通り芯
  6
Continuous
 62
     3
370
     9
100
AcDbLine
 10
428.8618891780774
 20
310.5415767674676
 30
0.0
 11
432.8619023748678
 21
310.5415767674676
 31
0.0
  0
LINE
  5
19A
330
1F
100
AcDbEntity
  8
通り芯
  6
Continuous
 62
     3
370
     9
100
AcDbLine
 10
428.8618891780774
 20
311.5415305787006
 30
0.0
 11
433.8619551620301
 21
311.5415305787006
 31
0.0
  0
LINE
  5
19B
330
1F
100
AcDbEntity
  8
通り芯
  6
Continuous
 62
     3
370
     9
100
AcDbLine
 10
433.8619551620301
 20
315.5415437754913
 30
0.0
 11
428.8618891780774
 21
315.5415437754913
 31
0.0
  0
LINE
  5
19C
330
1F
100
AcDbEntity
  8
通り芯
  6
Continuous
 62
     3
370
     9
100
AcDbLine
 10
428.8618891780774
 20
316.5414975867243
 30
0.0
 11
432.8619023748678
 21
316.5414975867243
 31
0.0
  0
LINE
  5
19D
330
1F
100
AcDbEntity
  8
通り芯
  6
Continuous
 62
     3
370
     9
100
AcDbLine
 10
433.8619551620301
 20
311.5415305787006
 30
0.0
 11
433.8619551620301
 21
315.5415437754913
 31
0.0
  0
LINE
  5
19E
330
1F
100
AcDbEntity
  8
通り芯
  6
Continuous
 62
     3
370
     9
100
AcDbLine
 10
425.2619366865232
 20
319.0665714887514
 30
0.0
 11
428.8618891780774
 21
319.0665714887514
 31
0.0
  0
LINE
  5
19F
330
1F
100
AcDbEntity
  8
通り芯
  6
Continuous
 62
     3
370
     9
100
AcDbLine
 10
433.8619551620301
 20
315.5415437754913
 30
0.0
 11
432.8619023748678
 21
316.5414975867243
 31
0.0
  0
LINE
  5
1A0
330
1F
100
AcDbEntity
  8
通り芯
  6
Continuous
 62
     3
370
     9
100
AcDbLine
 10
432.8619023748678
 20
310.5415767674676
 30
0.0
 11
433.8619551620301
 21
311.5415305787006
 31
0.0
  0
LINE
  5
1A1
330
1F
100
AcDbEntity
  8
通り芯
  6
Continuous
 62
     3
370
     9
100
AcDbLine
 10
432.8619023748678
 20
310.5415767674676
 30
0.0
 11
432.8619023748678
 21
316.5414975867243
 31
0.0
  0
LINE
  5
1A2
330
1F
100
AcDbEntity
  8
通り芯
  6
Continuous
 62
     3
370
     9
100
AcDbLine
 10
428.8618891780774
 20
308.0166018413696
 30
0.0
 11
428.8618891780774
 21
319.0665714887514
 31
0.0
  0
LINE
  5
1A3
330
1F
100
AcDbEntity
  8
通り芯
  6
Continuous
 62
     3
370
     9
100
AcDbLine
 10
425.2619366865232
 20
308.0166018413696
 30
0.0
 11
428.8618891780774
 21
308.0166018413696
 31
0.0
  0
LINE
  5
1A4
330
1F
100
AcDbEntity
  8
通り芯
  6
Continuous
 62
     3
370
     9
100
AcDbLine
 10
422.8620673347497
 20
306.541563570677
 30
0.0
 11
423.6619907933645
 21
306.541563570677
 31
0.0
  0
LINE
  5
1A5
330
1F
100
AcDbEntity
  8
通り芯
  6
Continuous
 62
     3
370
     9
100
AcDbLine
 10
423.6619907933645
 20
316.3040543329237
 30
0.0
 11
428.8618891780774
 21
316.3040543329237
 31
0.0
  0
LINE
  5
1A6
330
1F
100
AcDbEntity
  8
通り芯
  6
Continuous
 62
     3
370
     9
100
AcDbLine
 10
423.6619907933645
 20
310.7791189971973
 30
0.0
 11
428.8618891780774
 21
310.7791189971973
 31
0.0
  0
LINE
  5
1A7
330
1F
100
AcDbEntity
  8
通り芯
  6
Continuous
 62
     3
370
     9
100
AcDbLine
 10
423.6619907933645
 20
320.5416097594439
 30
0.0
 11
425.2619366865232
 21
319.0665714887514
 31
0.0
  0
LINE
  5
1A8
330
1F
100
AcDbEntity
  8
通り芯
  6
Continuous
 62
     3
370
     9
100
AcDbLine
 10
423.6619907933645
 20
306.541563570677
 30
0.0
 11
425.2619366865232
 21
308.0166018413696
 31
0.0
  0
LINE
  5
1A9
330
1F
100
AcDbEntity
  8
通り芯
  6
Continuous
 62
     3
370
     9
100
AcDbLine
 10
423.6619907933645
 20
306.541563570677
 30
0.0
 11
423.6619907933645
 21
320.5416097594439
 31
0.0
  0
LINE
  5
1AA
330
1F
100
AcDbEntity
  8
通り芯
  6
Continuous
 62
     3
370
     9
100
AcDbLine
 10
388.8614602823847
 20
-8.458436429323001
 30
0.0
 11
388.8614602823847
 21
323.5414711931433
 31
0.0
  0
LINE
  5
1AB
330
1F
100
AcDbEntity
  8
通り芯
  6
Continuous
 62
     3
370
     9
100
AcDbLine
 10
403.8614602823847
 20
323.5414711931433
 30
0.0
 11
388.8614602823847
 21
323.5414711931433
 31
0.0
  0
LINE
  5
1AC
330
1F
100
AcDbEntity
  8
通り芯
  6
Continuous
 62
     3
370
     9
100
AcDbLine
 10
403.8614602823847
 20
319.5414579963527
 30
0.0
 11
388.8614602823847
 21
319.5414579963527
 31
0.0
  0
LINE
  5
1AD
330
1F
100
AcDbEntity
  8
通り芯
  6
Continuous
 62
     3
370
     9
100
AcDbLine
 10
403.8614602823847
 20
313.5414382011669
 30
0.0
 11
388.8614602823847
 21
313.5414382011669
 31
0.0
  0
LINE
  5
1AE
330
1F
100
AcDbEntity
  8
通り芯
  6
Continuous
 62
     3
370
     9
100
AcDbLine
 10
403.8614602823847
 20
309.5414250043764
 30
0.0
 11
388.8614602823847
 21
309.5414250043764
 31
0.0
  0
LINE
  5
1AF
330
1F
100
AcDbEntity
  8
通り芯
  6
Continuous
 62
     3
370
     9
100
AcDbLine
 10
417.8615064711518
 20
161.5415305787005
 30
0.0
 11
389.861513069547
 21
161.5415305787005
 31
0.0
  0
LINE
  5
1B0
330
1F
100
AcDbEntity
  8
通り芯
  6
Continuous
 62
     3
370
     9
100
AcDbLine
 10
389.861513069547
 20
161.5415305787005
 30
0.0
 11
389.861513069547
 21
153.5415041851195
 31
0.0
  0
LINE
  5
1B1
330
1F
100
AcDbEntity
  8
通り芯
  6
Continuous
 62
     3
370
     9
100
AcDbLine
 10
404.3615856518949
 20
161.5415305787005
 30
0.0
 11
404.3615856518949
 21
153.5415041851195
 31
0.0
  0
LINE
  5
1B2
330
1F
100
AcDbEntity
  8
通り芯
  6
Continuous
 62
     3
370
     9
100
AcDbLine
 10
406.8615196679422
 20
161.5415305787005
 30
0.0
 11
406.8615196679422
 21
299.5414909883291
 31
0.0
  0
LINE
  5
1B3
330
1F
100
AcDbEntity
  8
通り芯
  6
Continuous
 62
     3
370
     9
100
AcDbLine
 10
417.8615064711518
 20
161.5415305787005
 30
0.0
 11
417.8615064711518
 21
153.5415041851195
 31
0.0
  0
LINE
  5
1B4
330
1F
100
AcDbEntity
  8
通り芯
  6
Continuous
 62
     3
370
     9
100
AcDbLine
 10
435.8614668807801
 20
288.1098701585149
 30
0.0
 11
435.8614668807801
 21
26.97316460530533
 31
0.0
  0
LINE
  5
1B5
330
1F
100
AcDbEntity
  8
通り芯
  6
Continuous
 62
     3
370
     9
100
AcDbLine
 10
439.2531740176042
 20
292.063265692721
 30
0.0
 11
447.5895206181112
 21
293.3457957814034
 31
0.0
  0
LINE
  5
1B6
330
1F
100
AcDbEntity
  8
通り芯
  6
Continuous
 62
     3
370
     9
100
AcDbLine
 10
428.8614932743611
 20
290.3106989169609
 30
0.0
 11
428.8614932743611
 21
24.77233584685951
 31
0.0
  0
LINE
  5
1B7
330
1F
100
AcDbEntity
  8
通り芯
  6
Continuous
 62
     3
370
     9
100
AcDbLine
 10
425.160585335172
 20
294.2995278337683
 30
0.0
 11
406.8615196679422
 21
295.6719280660318
 31
0.0
  0
LINE
  5
1B8
330
1F
100
AcDbEntity
  8
通り芯
  6
Continuous
 62
     3
370
     9
100
AcDbLine
 10
408.8614272904084
 20
327.5414843899338
 30
0.0
 11
403.8614602823847
 21
327.5414843899338
 31
0.0
  0
LINE
  5
1B9
330
1F
100
AcDbEntity
  8
通り芯
  6
Continuous
 62
     3
370
     9
100
AcDbLine
 10
408.8614272904084
 20
299.5414909883291
 30
0.0
 11
388.8614602823847
 21
299.5414909883291
 31
0.0
  0
LINE
  5
1BA
330
1F
100
AcDbEntity
  8
通り芯
  6
Continuous
 62
     3
370
     9
100
AcDbLine
 10
408.8614272904084
 20
303.5415041851196
 30
0.0
 11
388.8614602823847
 21
303.5415041851196
 31
0.0
  0
LINE
  5
1BB
330
1F
100
AcDbEntity
  8
通り芯
  6
Continuous
 62
     3
370
     9
100
AcDbLine
 10
408.8614272904084
 20
299.5414909883291
 30
0.0
 11
408.8614272904084
 21
327.5414843899338
 31
0.0
  0
LINE
  5
1BC
330
1F
100
AcDbEntity
  8
通り芯
  6
Continuous
 62
     3
370
     9
100
AcDbLine
 10
403.8614602823847
 20
303.5415041851196
 30
0.0
 11
403.8614602823847
 21
327.5414843899338
 31
0.0
  0
LINE
  5
1BD
330
1F
100
AcDbEntity
  8
通り芯
  6
Continuous
 62
     3
370
     9
100
AcDbLine
 10
448.8614602823848
 20
294.8284551986332
 30
0.0
 11
448.8614602823848
 21
298.1448416534473
 31
0.0
  0
LINE
  5
1BE
330
1F
100
AcDbEntity
  8
通り芯
  6
Continuous
 62
     3
370
     9
100
AcDbLine
 10
430.6422681899018
 20
270.3155817294609
 30
0.0
 11
429.0806259812867
 21
272.2676344902294
 31
0.0
  0
LINE
  5
1BF
330
1F
100
AcDbEntity
  8
通り芯
  6
Continuous
 62
     3
370
     9
100
AcDbLine
 10
435.8614668807801
 20
272.541500885922
 30
0.0
 11
450.8614668807802
 21
257.541500885922
 31
0.0
  0
LINE
  5
1C0
330
1F
100
AcDbEntity
  8
通り芯
  6
Continuous
 62
     3
370
     9
100
AcDbLine
 10
450.8614668807802
 20
257.541500885922
 30
0.0
 11
450.8614668807802
 21
57.54153387789825
 31
0.0
  0
LINE
  5
1C1
330
1F
100
AcDbEntity
  8
通り芯
  6
Continuous
 62
     3
370
     9
100
AcDbLine
 10
430.8614008968274
 20
269.6908456652716
 30
0.0
 11
430.8614008968274
 21
45.39218909854867
 31
0.0
  0
LINE
  5
1C2
330
1F
100
AcDbEntity
  8
通り芯
  6
Continuous
 62
     3
370
     9
100
AcDbLine
 10
406.8609258123678
 20
163.541537177096
 30
0.0
 11
420.8609720011347
 21
162.0415569722818
 31
0.0
  0
LINE
  5
1C3
330
1F
100
AcDbEntity
  8
通り芯
  6
Continuous
 62
     3
370
     9
100
AcDbLine
 10
416.4614919546819
 20
160.1415160622309
 30
0.0
 11
416.4614919546819
 21
154.9415187015891
 31
0.0
  0
LINE
  5
1C4
330
1F
100
AcDbEntity
  8
通り芯
  6
Continuous
 62
     3
370
     9
100
AcDbLine
 10
416.4614919546819
 20
160.1415160622309
 30
0.0
 11
411.2613956181111
 21
160.1415160622309
 31
0.0
  0
LINE
  5
1C5
330
1F
100
AcDbEntity
  8
通り芯
  6
Continuous
 62
     3
370
     9
100
AcDbLine
 10
420.8609720011347
 20
153.0414777915385
 30
0.0
 11
420.8609720011347
 21
162.0415569722818
 31
0.0
  0
LINE
  5
1C6
330
1F
100
AcDbEntity
  8
通り芯
  6
Continuous
 62
     3
370
     9
100
AcDbLine
 10
406.8609258123678
 20
163.0415107835147
 30
0.0
 11
420.8609720011347
 21
162.0415569722818
 31
0.0
  0
LINE
  5
1C7
330
1F
100
AcDbEntity
  8
0-E
  6
Continuous
 62
     7
370
     9
100
AcDbLine
 10
388.8614602823847
 20
-3.458469421299469
 30
0.0
 11
384.2692741020638
 21
-14.54501067446654
 31
0.0
  0
LINE
  5
1C8
330
1F
100
AcDbEntity
  8
0-E
  6
Continuous
 62
     7
370
     9
100
AcDbLine
 10
388.8614602823847
 20
-3.458469421299469
 30
0.0
 11
387.2951662051042
 21
-15.35582148527737
 31
0.0
  0
LINE
  5
1C9
330
1F
100
AcDbEntity
  8
0-E
  6
Continuous
 62
     7
370
     9
100
AcDbLine
 10
388.8614602823847
 20
-3.458469421299469
 30
0.0
 11
360.7791189078069
 21
-108.2631404253111
 31
0.0
  0
LINE
  5
1CA
330
1F
100
AcDbEntity
  8
0-F
  6
Continuous
 62
     7
370
     9
100
AcDbLine
 10
446.5152358841585
 20
126.5587358943678
 30
0.0
 11
461.4148742920977
 21
126.5587358943678
 31
0.0
  0
LINE
  5
1CB
330
1F
100
AcDbEntity
  8
0-E
  6
Continuous
 62
     7
370
     9
100
AcDbLine
 10
567.3636575480098
 20
219.1606646053053
 30
0.0
 11
450.8614668807802
 21
185.173617255221
 31
0.0
  0
LINE
  5
1CC
330
1F
100
AcDbEntity
  8
0-F
  6
Continuous
 62
     7
370
     9
100
AcDbLine
 10
541.8614206920133
 20
-17.45861458599529
 30
0.0
 11
543.4277147692937
 21
-5.561262522017387
 31
0.0
  0
LINE
  5
1CD
330
1F
100
AcDbEntity
  8
0-F
  6
Continuous
 62
     7
370
     9
100
AcDbLine
 10
541.8614206920133
 20
-17.45861458599529
 30
0.0
 11
540.2951266147329
 21
-5.561262522017387
 31
0.0
  0
LINE
  5
1CE
330
1F
100
AcDbEntity
  8
0-F
  6
Continuous
 62
     7
370
     9
100
AcDbLine
 10
541.8615196679423
 20
332.5414513979574
 30
0.0
 11
543.4277147692937
 21
320.6441488219439
 31
0.0
  0
LINE
  5
1CF
330
1F
100
AcDbEntity
  8
0-F
  6
Continuous
 62
     7
370
     9
100
AcDbLine
 10
541.8614206920133
 20
332.5414513979574
 30
0.0
 11
540.2951266147329
 21
320.6441488219439
 31
0.0
  0
LINE
  5
1D0
330
1F
100
AcDbEntity
  8
躯体
  6
Continuous
 62
     2
370
     9
100
AcDbLine
 10
388.8613613064557
 20
-14.45860468840237
 30
0.0
 11
388.8613613064557
 21
-17.45861458599529
 31
0.0
  0
LINE
  5
1D1
330
1F
100
AcDbEntity
  8
躯体
  6
Continuous
 62
     2
370
     9
100
AcDbLine
 10
388.8613613064557
 20
329.5414909883291
 30
0.0
 11
388.8613613064557
 21
332.5414513979574
 31
0.0
  0
LINE
  5
1D2
330
1F
100
AcDbEntity
  8
0-F
  6
Continuous
 62
     7
370
     9
100
AcDbLine
 10
448.8613613064558
 20
-21.45862778278592
 30
0.0
 11
448.8613613064558
 21
-78.65859874984676
 31
0.0
  0
LINE
  5
1D3
330
1F
100
AcDbEntity
  8
0-F
  6
Continuous
 62
     7
370
     9
100
AcDbLine
 10
388.8613613064557
 20
-21.45862778278592
 30
0.0
 11
388.8613613064557
 21
-118.6585822538584
 31
0.0
  0
LINE
  5
1D4
330
1F
100
AcDbEntity
  8
0-F
  6
Continuous
 62
     7
370
     9
100
AcDbLine
 10
328.8613613064557
 20
-12.45864757797176
 30
0.0
 11
328.8613613064557
 21
351.6541981779405
 31
0.0
  0
LINE
  5
1D5
330
1F
100
AcDbEntity
  8
0-F
  6
Continuous
 62
     7
370
     9
100
AcDbLine
 10
446.5152358841585
 20
126.5587358943678
 30
0.0
 11
432.9730523431955
 21
108.5190861371889
 31
0.0
  0
LINE
  5
1D6
330
1F
100
AcDbEntity
  8
0-F
  6
Continuous
 62
     7
370
     9
100
AcDbLine
 10
-701.1387211734852
 20
447.5414843899338
 30
0.0
 11
128.8612953225031
 21
447.5414843899338
 31
0.0
  0
LINE
  5
1D7
330
1F
100
AcDbEntity
  8
0-F
  6
Continuous
 62
     7
370
     9
100
AcDbLine
 10
-701.1387211734852
 20
407.5414513979574
 30
0.0
 11
128.8612953225031
 21
407.5414513979574
 31
0.0
  0
LINE
  5
1D8
330
1F
100
AcDbEntity
  8
0-E
  6
Continuous
 62
     7
370
     9
100
AcDbLine
 10
414.2629396426042
 20
332.5414513979574
 30
0.0
 11
410.6582363064557
 21
343.9872257856264
 31
0.0
  0
LINE
  5
1D9
330
1F
100
AcDbEntity
  8
0-E
  6
Continuous
 62
     7
370
     9
100
AcDbLine
 10
414.2629396426042
 20
332.5414513979574
 30
0.0
 11
407.8186169018949
 21
342.6642145419609
 31
0.0
  0
LINE
  5
1DA
330
1F
100
AcDbEntity
  8
0-E
  6
Continuous
 62
     7
370
     9
100
AcDbLine
 10
450.8614668807802
 20
185.173617255221
 30
0.0
 11
462.7213565556112
 21
187.0019006167074
 31
0.0
  0
LINE
  5
1DB
330
1F
100
AcDbEntity
  8
0-E
  6
Continuous
 62
     7
370
     9
100
AcDbLine
 10
450.8614668807802
 20
185.173617255221
 30
0.0
 11
461.844033920476
 21
190.0091852450857
 31
0.0
  0
LINE
  5
1DC
330
1F
100
AcDbEntity
  8
0-F
  6
Continuous
 62
     7
370
     9
100
AcDbLine
 10
450.8614668807802
 20
108.5190861371889
 30
0.0
 11
462.7587694567937
 21
106.9527920599085
 31
0.0
  0
LINE
  5
1DD
330
1F
100
AcDbEntity
  8
0-F
  6
Continuous
 62
     7
370
     9
100
AcDbLine
 10
450.8614668807802
 20
108.5190861371889
 30
0.0
 11
462.7587694567937
 21
110.0853802144693
 31
0.0
  0
LINE
  5
1DE
330
1F
100
AcDbEntity
  8
0-F
  6
Continuous
 62
     7
370
     9
100
AcDbLine
 10
428.861295322503
 20
108.5190861371889
 30
0.0
 11
416.9639927464895
 21
106.9527920599085
 31
0.0
  0
LINE
  5
1DF
330
1F
100
AcDbEntity
  8
0-F
  6
Continuous
 62
     7
370
     9
100
AcDbLine
 10
428.861295322503
 20
108.5190861371889
 30
0.0
 11
416.9639927464895
 21
110.0853802144693
 31
0.0
  0
LINE
  5
1E0
330
1F
100
AcDbEntity
  8
0-F
  6
Continuous
 62
     7
370
     9
100
AcDbLine
 10
388.8611633545976
 20
108.5190861371889
 30
0.0
 11
400.7584659306111
 21
106.9527920599085
 31
0.0
  0
LINE
  5
1E1
330
1F
100
AcDbEntity
  8
0-F
  6
Continuous
 62
     7
370
     9
100
AcDbLine
 10
388.8611633545976
 20
108.5190861371889
 30
0.0
 11
400.7584659306111
 21
110.0853802144693
 31
0.0
  0
LINE
  5
1E2
330
1F
100
AcDbEntity
  8
0-F
  6
Continuous
 62
     7
370
     9
100
AcDbLine
 10
388.8611633545976
 20
108.5190861371889
 30
0.0
 11
477.8937726240233
 21
108.5190861371889
 31
0.0
  0
LINE
  5
1E3
330
1F
100
AcDbEntity
  8
0-F
  6
Continuous
 62
     7
370
     9
100
AcDbLine
 10
540.2951266147329
 20
294.4387869659473
 30
0.0
 11
543.4277147692937
 21
270.6441818139202
 31
0.0
  0
LINE
  5
1E4
330
1F
100
AcDbEntity
  8
0-F
  6
Continuous
 62
     7
370
     9
100
AcDbLine
 10
543.4277147692937
 20
294.4387869659473
 30
0.0
 11
540.2951266147329
 21
270.6441818139202
 31
0.0
  0
LINE
  5
1E5
330
1F
100
AcDbEntity
  8
0-F
  6
Continuous
 62
     7
370
     9
100
AcDbLine
 10
540.2951266147329
 20
44.43885294989991
 30
0.0
 11
543.4277147692937
 21
20.64414882194387
 31
0.0
  0
LINE
  5
1E6
330
1F
100
AcDbEntity
  8
0-F
  6
Continuous
 62
     7
370
     9
100
AcDbLine
 10
543.4277147692937
 20
44.43885294989991
 30
0.0
 11
540.2951266147329
 21
20.64414882194387
 31
0.0
  0
LINE
  5
1E7
330
1F
100
AcDbEntity
  8
0-F
  6
Continuous
 62
     7
370
     9
100
AcDbLine
 10
388.8613613064557
 20
-117.4585980900072
 30
0.0
 11
400.7586638824692
 21
-119.0248921672876
 31
0.0
  0
LINE
  5
1E8
330
1F
100
AcDbEntity
  8
0-F
  6
Continuous
 62
     7
370
     9
100
AcDbLine
 10
388.8613613064557
 20
-117.4585980900072
 30
0.0
 11
400.7586638824692
 21
-115.8923040127268
 31
0.0
  0
LINE
  5
1E9
330
1F
100
AcDbEntity
  8
0-F
  6
Continuous
 62
     7
370
     9
100
AcDbLine
 10
448.8613613064558
 20
-77.45861458599529
 30
0.0
 11
436.9640587304422
 21
-79.02490866327571
 31
0.0
  0
LINE
  5
1EA
330
1F
100
AcDbEntity
  8
0-F
  6
Continuous
 62
     7
370
     9
100
AcDbLine
 10
448.8613613064558
 20
-77.45861458599529
 30
0.0
 11
436.9640587304422
 21
-75.89232050871487
 31
0.0
  0
LINE
  5
1EB
330
1F
100
AcDbEntity
  8
0-F
  6
Continuous
 62
     7
370
     9
100
AcDbLine
 10
388.8613613064557
 20
-77.45861458599529
 30
0.0
 11
400.7586638824692
 21
-79.02490866327571
 31
0.0
  0
LINE
  5
1EC
330
1F
100
AcDbEntity
  8
0-F
  6
Continuous
 62
     7
370
     9
100
AcDbLine
 10
388.8613613064557
 20
-77.45861458599529
 30
0.0
 11
400.7586638824692
 21
-75.89232050871487
 31
0.0
  0
LINE
  5
1ED
330
1F
100
AcDbEntity
  8
0-F
  6
Continuous
 62
     7
370
     9
100
AcDbLine
 10
388.8613613064557
 20
-77.45861458599529
 30
0.0
 11
448.8613613064558
 21
-77.45861458599529
 31
0.0
  0
LINE
  5
1EE
330
1F
100
AcDbEntity
  8
0-F
  6
Continuous
 62
     7
370
     9
100
AcDbLine
 10
288.8613283144792
 20
-17.45861458599529
 30
0.0
 11
290.4276223917597
 21
-29.35591716200884
 31
0.0
  0
LINE
  5
1EF
330
1F
100
AcDbEntity
  8
0-F
  6
Continuous
 62
     7
370
     9
100
AcDbLine
 10
288.8613283144792
 20
-17.45861458599529
 30
0.0
 11
287.2950342371988
 21
-29.35591716200884
 31
0.0
  0
LINE
  5
1F0
330
1F
100
AcDbEntity
  8
0-F
  6
Continuous
 62
     7
370
     9
100
AcDbLine
 10
288.8613283144792
 20
-12.45859809000717
 30
0.0
 11
290.4276223917597
 21
-0.5612955139936275
 31
0.0
  0
LINE
  5
1F1
330
1F
100
AcDbEntity
  8
0-F
  6
Continuous
 62
     7
370
     9
100
AcDbLine
 10
288.8613283144792
 20
-12.45859809000717
 30
0.0
 11
287.2950342371988
 21
-0.5612955139936275
 31
0.0
  0
LINE
  5
1F2
330
1F
100
AcDbEntity
  8
0-F
  6
Continuous
 62
     7
370
     9
100
AcDbLine
 10
248.861295322503
 20
332.5414513979574
 30
0.0
 11
250.4275893997834
 21
320.6441488219439
 31
0.0
  0
LINE
  5
1F3
330
1F
100
AcDbEntity
  8
0-F
  6
Continuous
 62
     7
370
     9
100
AcDbLine
 10
248.861295322503
 20
332.5414513979574
 30
0.0
 11
247.2950012452226
 21
320.6441488219439
 31
0.0
  0
LINE
  5
1F4
330
1F
100
AcDbEntity
  8
0-F
  6
Continuous
 62
     7
370
     9
100
AcDbLine
 10
248.861295322503
 20
-17.45861458599529
 30
0.0
 11
250.4275893997834
 21
-5.561262522017387
 31
0.0
  0
LINE
  5
1F5
330
1F
100
AcDbEntity
  8
0-F
  6
Continuous
 62
     7
370
     9
100
AcDbLine
 10
248.861295322503
 20
-17.45861458599529
 30
0.0
 11
247.2950012452226
 21
-5.561262522017387
 31
0.0
  0
LINE
  5
1F6
330
1F
100
AcDbEntity
  8
0-F
  6
Continuous
 62
     7
370
     9
100
AcDbLine
 10
248.861295322503
 20
-17.45861458599529
 30
0.0
 11
248.861295322503
 21
332.5414513979574
 31
0.0
  0
LINE
  5
1F7
330
1F
100
AcDbEntity
  8
0-F
  6
Continuous
 62
     7
370
     9
100
AcDbLine
 10
288.8613283144792
 20
332.5414513979574
 30
0.0
 11
290.4276223917597
 21
344.438753973971
 31
0.0
  0
LINE
  5
1F8
330
1F
100
AcDbEntity
  8
0-F
  6
Continuous
 62
     7
370
     9
100
AcDbLine
 10
288.8613283144792
 20
332.5414513979574
 30
0.0
 11
287.2950342371988
 21
344.438753973971
 31
0.0
  0
LINE
  5
1F9
330
1F
100
AcDbEntity
  8
0-F
  6
Continuous
 62
     7
370
     9
100
AcDbLine
 10
384.8613481096651
 20
332.5414513979574
 30
0.0
 11
247.6613111586516
 21
332.5414513979574
 31
0.0
  0
LINE
  5
1FA
330
1F
100
AcDbEntity
  8
0-F
  6
Continuous
 62
     7
370
     9
100
AcDbLine
 10
384.8613481096651
 20
329.5414909883291
 30
0.0
 11
287.661344150628
 21
329.5414909883291
 31
0.0
  0
LINE
  5
1FB
330
1F
100
AcDbEntity
  8
0-F
  6
Continuous
 62
     7
370
     9
100
AcDbLine
 10
288.8613283144792
 20
327.5414843899338
 30
0.0
 11
290.4276223917597
 21
315.6441818139202
 31
0.0
  0
LINE
  5
1FC
330
1F
100
AcDbEntity
  8
0-F
  6
Continuous
 62
     7
370
     9
100
AcDbLine
 10
288.8613283144792
 20
327.5414843899338
 30
0.0
 11
287.2950342371988
 21
315.6441818139202
 31
0.0
  0
LINE
  5
1FD
330
1F
100
AcDbEntity
  8
0-F
  6
Continuous
 62
     7
370
     9
100
AcDbLine
 10
288.8613283144792
 20
-41.18809357670489
 30
0.0
 11
288.8613283144792
 21
356.2709303886669
 31
0.0
  0
LINE
  5
1FE
330
1F
100
AcDbEntity
  8
0-F
  6
Continuous
 62
     7
370
     9
100
AcDbLine
 10
384.8613481096651
 20
-14.45860468840237
 30
0.0
 11
287.661344150628
 21
-14.45860468840237
 31
0.0
  0
LINE
  5
1FF
330
1F
100
AcDbEntity
  8
0-F
  6
Continuous
 62
     7
370
     9
100
AcDbLine
 10
384.8613481096651
 20
-17.45861458599529
 30
0.0
 11
247.6613111586516
 21
-17.45861458599529
 31
0.0
  0
LINE
  5
200
330
1F
100
AcDbEntity
  8
0-F
  6
Continuous
 62
     7
370
     9
100
AcDbLine
 10
384.8613481096651
 20
327.5414843899338
 30
0.0
 11
287.661344150628
 21
327.5414843899338
 31
0.0
  0
LINE
  5
201
330
1F
100
AcDbEntity
  8
0-F
  6
Continuous
 62
     7
370
     9
100
AcDbLine
 10
328.8613613064557
 20
299.5414909883291
 30
0.0
 11
330.4276553837361
 21
287.6441884123155
 31
0.0
  0
LINE
  5
202
330
1F
100
AcDbEntity
  8
0-F
  6
Continuous
 62
     7
370
     9
100
AcDbLine
 10
328.8613613064557
 20
299.5414909883291
 30
0.0
 11
327.2950672291753
 21
287.6441884123155
 31
0.0
  0
LINE
  5
203
330
1F
100
AcDbEntity
  8
0-F
  6
Continuous
 62
     7
370
     9
100
AcDbLine
 10
327.2950672291753
 20
27.43884635150471
 30
0.0
 11
330.4276553837361
 21
3.64414222354867
 31
0.0
  0
LINE
  5
204
330
1F
100
AcDbEntity
  8
0-F
  6
Continuous
 62
     7
370
     9
100
AcDbLine
 10
330.4276553837361
 20
27.43884635150471
 30
0.0
 11
327.2950672291753
 21
3.64414222354867
 31
0.0
  0
LINE
  5
205
330
1F
100
AcDbEntity
  8
0-F
  6
Continuous
 62
     7
370
     9
100
AcDbLine
 10
328.8613613064557
 20
-12.45864757797176
 30
0.0
 11
330.4276553837361
 21
-0.5612955139936275
 31
0.0
  0
LINE
  5
206
330
1F
100
AcDbEntity
  8
0-F
  6
Continuous
 62
     7
370
     9
100
AcDbLine
 10
328.8613613064557
 20
-12.45864757797176
 30
0.0
 11
327.2950672291753
 21
-0.5612955139936275
 31
0.0
  0
LINE
  5
207
330
1F
100
AcDbEntity
  8
0-F
  6
Continuous
 62
     7
370
     9
100
AcDbLine
 10
384.8613481096651
 20
15.54149428752658
 30
0.0
 11
327.6613771426042
 21
15.54149428752658
 31
0.0
  0
LINE
  5
208
330
1F
100
AcDbEntity
  8
0-F
  6
Continuous
 62
     7
370
     9
100
AcDbLine
 10
384.8613481096651
 20
-12.45864757797176
 30
0.0
 11
287.661344150628
 21
-12.45864757797176
 31
0.0
  0
LINE
  5
209
330
1F
100
AcDbEntity
  8
0-F
  6
Continuous
 62
     7
370
     9
100
AcDbLine
 10
-100.1387178742875
 20
-132.4585980900072
 30
0.0
 11
-88.24141529827403
 21
-134.0248921672876
 31
0.0
  0
LINE
  5
20A
330
1F
100
AcDbEntity
  8
0-F
  6
Continuous
 62
     7
370
     9
100
AcDbLine
 10
-100.1387178742875
 20
-132.4585980900072
 30
0.0
 11
-88.24141529827403
 21
-130.8923040127268
 31
0.0
  0
LINE
  5
20B
330
1F
100
AcDbEntity
  8
0-F
  6
Continuous
 62
     7
370
     9
100
AcDbLine
 10
-101.1386716855206
 20
-132.4585980900072
 30
0.0
 11
-113.0359742615341
 21
-134.0248921672876
 31
0.0
  0
LINE
  5
20C
330
1F
100
AcDbEntity
  8
0-F
  6
Continuous
 62
     7
370
     9
100
AcDbLine
 10
-101.1386716855206
 20
-132.4585980900072
 30
0.0
 11
-113.0359742615341
 21
-130.8923040127268
 31
0.0
  0
LINE
  5
20D
330
1F
100
AcDbEntity
  8
0-F
  6
Continuous
 62
     7
370
     9
100
AcDbLine
 10
-105.1386848823111
 20
-92.45861458599529
 30
0.0
 11
-117.0359874583247
 21
-94.02490866327571
 31
0.0
  0
LINE
  5
20E
330
1F
100
AcDbEntity
  8
0-F
  6
Continuous
 62
     7
370
     9
100
AcDbLine
 10
-105.1386848823111
 20
-92.45861458599529
 30
0.0
 11
-117.0359874583247
 21
-90.89232050871487
 31
0.0
  0
LINE
  5
20F
330
1F
100
AcDbEntity
  8
0-F
  6
Continuous
 62
     7
370
     9
100
AcDbLine
 10
-701.1387211734852
 20
447.5414843899338
 30
0.0
 11
-689.2414185974717
 21
445.9751903126534
 31
0.0
  0
LINE
  5
210
330
1F
100
AcDbEntity
  8
0-F
  6
Continuous
 62
     7
370
     9
100
AcDbLine
 10
-701.1387211734852
 20
447.5414843899338
 30
0.0
 11
-689.2414185974717
 21
449.1077784672142
 31
0.0
  0
LINE
  5
211
330
1F
100
AcDbEntity
  8
0-F
  6
Continuous
 62
     7
370
     9
100
AcDbLine
 10
10.75856490654024
 20
409.1077454752378
 30
0.0
 11
-13.03604024548684
 21
405.975157320677
 31
0.0
  0
LINE
  5
212
330
1F
100
AcDbEntity
  8
0-F
  6
Continuous
 62
     7
370
     9
100
AcDbLine
 10
10.75856490654024
 20
405.975157320677
 30
0.0
 11
-13.03604024548684
 21
409.1077454752378
 31
0.0
  0
LINE
  5
213
330
1F
100
AcDbEntity
  8
0-F
  6
Continuous
 62
     7
370
     9
100
AcDbLine
 10
-589.2414350934598
 20
409.1077454752378
 30
0.0
 11
-613.0361392214159
 21
405.975157320677
 31
0.0
  0
LINE
  5
214
330
1F
100
AcDbEntity
  8
0-F
  6
Continuous
 62
     7
370
     9
100
AcDbLine
 10
-589.2414350934598
 20
405.975157320677
 30
0.0
 11
-613.0361392214159
 21
409.1077454752378
 31
0.0
  0
LINE
  5
215
330
1F
100
AcDbEntity
  8
0-F
  6
Continuous
 62
     7
370
     9
100
AcDbLine
 10
-701.1387211734852
 20
407.5414513979574
 30
0.0
 11
-689.2414185974717
 21
405.975157320677
 31
0.0
  0
LINE
  5
216
330
1F
100
AcDbEntity
  8
0-F
  6
Continuous
 62
     7
370
     9
100
AcDbLine
 10
-701.1387211734852
 20
407.5414513979574
 30
0.0
 11
-689.2414185974717
 21
409.1077454752378
 31
0.0
  0
TEXT
  5
217
330
1F
100
AcDbEntity
  8
0-E
  6
Continuous
 62
     7
370
     9
100
AcDbText
 10
151.591312082427
 20
-101.7100861337149
 30
0.0
 40
9.144
  1
排水口グレーチング（Ｐ＝１０）
 41
1.155555555555555
  7
ＭＳ ゴシック
100
AcDbText
  0
TEXT
  5
218
330
1F
100
AcDbEntity
  8
0-E
  6
Continuous
 62
     7
370
     9
100
AcDbText
 10
150.0385678098341
 20
-121.8746995997199
 30
0.0
 40
9.144
  1
ＳＵＳ３０４
 41
1.138888888888887
  7
ＭＳ ゴシック
100
AcDbText
  0
TEXT
  5
219
330
1F
100
AcDbEntity
  8
0-E
  6
Continuous
 62
     7
370
     9
100
AcDbText
 10
575.7377931582294
 20
226.6754185115553
 30
0.0
 40
9.144
  1
蓋本体：ＦＣＤ５００
 41
1.15
  7
ＭＳ ゴシック
100
AcDbText
  0
TEXT
  5
21A
330
1F
100
AcDbEntity
  8
0-E
  6
Continuous
 62
     7
370
     9
100
AcDbText
 10
574.7563808377058
 20
204.5976993128645
 30
0.0
 40
9.144
  1
樹脂系塗装
 41
1.133333333333333
  7
ＭＳ ゴシック
100
AcDbText
  0
ARC
  5
21B
330
1F
100
AcDbEntity
  8
通り芯
  6
Continuous
 62
     3
370
     9
100
AcDbCircle
 10
-115.7278226040173
 20
24.061094820677
 30
0.0
 40
3.000000038662472
100
AcDbArc
 50
270.0
 51
0.0
  0
ARC
  5
21C
330
1F
100
AcDbEntity
  8
通り芯
  6
Continuous
 62
     3
370
     9
100
AcDbCircle
 10
-115.1564840535527
 20
23.41111989457909
 30
0.0
 40
4.000000051549963
100
AcDbArc
 50
270.0
 51
0.0
  0
ARC
  5
21D
330
1F
100
AcDbEntity
  8
通り芯
  6
Continuous
 62
     3
370
     9
100
AcDbCircle
 10
-685.5494679798619
 20
24.061094820677
 30
0.0
 40
3.000000038662472
100
AcDbArc
 50
180.0
 51
270.0
  0
ARC
  5
21E
330
1F
100
AcDbEntity
  8
通り芯
  6
Continuous
 62
     3
370
     9
100
AcDbCircle
 10
-686.1208560182909
 20
23.41111989457909
 30
0.0
 40
4.000000051549963
100
AcDbArc
 50
180.0
 51
270.0
  0
ARC
  5
21F
330
1F
100
AcDbEntity
  8
通り芯
  6
Continuous
 62
     3
370
     9
100
AcDbCircle
 10
-115.7278226040173
 20
291.0219399431433
 30
0.0
 40
3.000000038662472
100
AcDbArc
 50
0.0
 51
90.0
  0
ARC
  5
220
330
1F
100
AcDbEntity
  8
通り芯
  6
Continuous
 62
     3
370
     9
100
AcDbCircle
 10
-115.1564840535527
 20
291.6719148692413
 30
0.0
 40
4.000000051549963
100
AcDbArc
 50
0.0
 51
90.0
  0
ARC
  5
221
330
1F
100
AcDbEntity
  8
通り芯
  6
Continuous
 62
     3
370
     9
100
AcDbCircle
 10
-685.5494927238442
 20
291.0219399431433
 30
0.0
 40
3.000000038662472
100
AcDbArc
 50
90.0
 51
180.0
  0
ARC
  5
222
330
1F
100
AcDbEntity
  8
通り芯
  6
Continuous
 62
     3
370
     9
100
AcDbCircle
 10
-686.1208807622731
 20
291.6719148692413
 30
0.0
 40
4.000000051549963
100
AcDbArc
 50
90.0
 51
180.0
  0
ARC
  5
223
330
1F
100
AcDbEntity
  8
通り芯
  6
Continuous
 62
     3
370
     9
100
AcDbCircle
 10
-268.5848122841271
 20
-284.9585073620722
 30
0.0
 40
1.500000019331236
100
AcDbArc
 50
188.004867553711
 51
270.0
  0
ARC
  5
224
330
1F
100
AcDbEntity
  8
通り芯
  6
Continuous
 62
     3
370
     9
100
AcDbCircle
 10
-262.6924782997521
 20
-284.9585073620722
 30
0.0
 40
1.500000019331236
100
AcDbArc
 50
270.0
 51
351.9951324462891
  0
ARC
  5
225
330
1F
100
AcDbEntity
  8
通り芯
  6
Continuous
 62
     3
370
     9
100
AcDbCircle
 10
-139.8144067467537
 20
-284.9585073620722
 30
0.0
 40
1.500000019331236
100
AcDbArc
 50
187.1250152587891
 51
270.0
  0
ARC
  5
226
330
1F
100
AcDbEntity
  8
通り芯
  6
Continuous
 62
     3
370
     9
100
AcDbCircle
 10
-121.4627848611963
 20
-284.9585073620722
 30
0.0
 40
1.500000019331236
100
AcDbArc
 50
270.0
 51
352.8749847412109
  0
ARC
  5
227
330
1F
100
AcDbEntity
  8
通り芯
  6
Continuous
 62
     3
370
     9
100
AcDbCircle
 10
-391.4628343491609
 20
-284.9585073620722
 30
0.0
 40
1.500000019331236
100
AcDbArc
 50
270.0
 51
352.8749847412109
  0
ARC
  5
228
330
1F
100
AcDbEntity
  8
通り芯
  6
Continuous
 62
     3
370
     9
100
AcDbCircle
 10
-109.5712228890679
 20
-295.4585420036474
 30
0.0
 40
4.000000051549963
100
AcDbArc
 50
331.3365478515626
 51
350.0806427001954
  0
ARC
  5
229
330
1F
100
AcDbEntity
  8
通り芯
  6
Continuous
 62
     3
370
     9
100
AcDbCircle
 10
-161.7123361703179
 20
-302.4585156100663
 30
0.0
 40
3.000000038662472
100
AcDbArc
 50
8.746292114257812
 51
90.0
  0
ARC
  5
22A
330
1F
100
AcDbEntity
  8
通り芯
  6
Continuous
 62
     3
370
     9
100
AcDbCircle
 10
-236.0648851304108
 20
-302.4585156100663
 30
0.0
 40
3.000000038662472
100
AcDbArc
 50
90.0
 51
171.2537078857422
  0
ARC
  5
22B
330
1F
100
AcDbEntity
  8
通り芯
  6
Continuous
 62
     3
370
     9
100
AcDbCircle
 10
-295.2124054534683
 20
-302.4585156100663
 30
0.0
 40
3.000000038662472
100
AcDbArc
 50
8.746337890625
 51
90.0
  0
ARC
  5
22C
330
1F
100
AcDbEntity
  8
通り芯
  6
Continuous
 62
     3
370
     9
100
AcDbCircle
 10
-371.0648356424464
 20
-302.4585156100663
 30
0.0
 40
3.000000038662472
100
AcDbArc
 50
90.0
 51
171.253662109375
  0
ARC
  5
22D
330
1F
100
AcDbEntity
  8
通り芯
  6
Continuous
 62
     3
370
     9
100
AcDbCircle
 10
-108.5353408155882
 20
-310.9585189092638
 30
0.0
 40
1.500000019331236
100
AcDbArc
 50
270.0
 51
355.9148864746094
  0
ARC
  5
22E
330
1F
100
AcDbEntity
  8
通り芯
  6
Continuous
 62
     3
370
     9
100
AcDbCircle
 10
-155.8517734591692
 20
-310.9585189092638
 30
0.0
 40
1.500000019331236
100
AcDbArc
 50
188.7460021972657
 51
270.0
  0
ARC
  5
22F
330
1F
100
AcDbEntity
  8
通り芯
  6
Continuous
 62
     3
370
     9
100
AcDbCircle
 10
-241.925497329524
 20
-310.9585189092638
 30
0.0
 40
1.500000019331236
100
AcDbArc
 50
270.0
 51
351.2539825439453
  0
ARC
  5
230
330
1F
100
AcDbEntity
  8
通り芯
  6
Continuous
 62
     3
370
     9
100
AcDbCircle
 10
-289.3517932543551
 20
-310.9585189092638
 30
0.0
 40
1.500000019331236
100
AcDbArc
 50
188.7459106445313
 51
270.0
  0
ARC
  5
231
330
1F
100
AcDbEntity
  8
通り芯
  6
Continuous
 62
     3
370
     9
100
AcDbCircle
 10
-376.9254973295241
 20
-310.9585189092638
 30
0.0
 40
1.500000019331236
100
AcDbArc
 50
270.0
 51
351.2540893554688
  0
ARC
  5
232
330
1F
100
AcDbEntity
  8
通り芯
  6
Continuous
 62
     3
370
     9
100
AcDbCircle
 10
-532.6924782997521
 20
-284.9585073620722
 30
0.0
 40
1.500000019331236
100
AcDbArc
 50
270.0
 51
351.9951324462891
  0
ARC
  5
233
330
1F
100
AcDbEntity
  8
通り芯
  6
Continuous
 62
     3
370
     9
100
AcDbCircle
 10
-538.5848122841271
 20
-284.9585073620722
 30
0.0
 40
1.500000019331236
100
AcDbArc
 50
188.004867553711
 51
270.0
  0
ARC
  5
234
330
1F
100
AcDbEntity
  8
通り芯
  6
Continuous
 62
     3
370
     9
100
AcDbCircle
 10
-661.4628343491609
 20
-284.9585073620722
 30
0.0
 40
1.500000019331236
100
AcDbArc
 50
270.0
 51
352.8749847412109
  0
ARC
  5
235
330
1F
100
AcDbEntity
  8
通り芯
  6
Continuous
 62
     3
370
     9
100
AcDbCircle
 10
-679.8144562347184
 20
-284.9585073620722
 30
0.0
 40
1.500000019331236
100
AcDbArc
 50
187.1250152587891
 51
270.0
  0
ARC
  5
236
330
1F
100
AcDbEntity
  8
通り芯
  6
Continuous
 62
     3
370
     9
100
AcDbCircle
 10
-409.8144562347184
 20
-284.9585073620722
 30
0.0
 40
1.500000019331236
100
AcDbArc
 50
187.1250152587891
 51
270.0
  0
ARC
  5
237
330
1F
100
AcDbEntity
  8
通り芯
  6
Continuous
 62
     3
370
     9
100
AcDbCircle
 10
-691.7060676948113
 20
-295.4585420036474
 30
0.0
 40
4.000000051549963
100
AcDbArc
 50
189.9193572998047
 51
208.6634521484375
  0
ARC
  5
238
330
1F
100
AcDbEntity
  8
通り芯
  6
Continuous
 62
     3
370
     9
100
AcDbCircle
 10
-639.5649544135613
 20
-302.4585156100663
 30
0.0
 40
3.000000038662472
100
AcDbArc
 50
90.0
 51
171.2537078857422
  0
ARC
  5
239
330
1F
100
AcDbEntity
  8
通り芯
  6
Continuous
 62
     3
370
     9
100
AcDbCircle
 10
-565.2124054534684
 20
-302.4585156100663
 30
0.0
 40
3.000000038662472
100
AcDbArc
 50
8.746292114257812
 51
90.0
  0
ARC
  5
23A
330
1F
100
AcDbEntity
  8
通り芯
  6
Continuous
 62
     3
370
     9
100
AcDbCircle
 10
-506.0648851304109
 20
-302.4585156100663
 30
0.0
 40
3.000000038662472
100
AcDbArc
 50
90.0
 51
171.253662109375
  0
ARC
  5
23B
330
1F
100
AcDbEntity
  8
通り芯
  6
Continuous
 62
     3
370
     9
100
AcDbCircle
 10
-430.2124549414328
 20
-302.4585156100663
 30
0.0
 40
3.000000038662472
100
AcDbArc
 50
8.746337890625
 51
90.0
  0
ARC
  5
23C
330
1F
100
AcDbEntity
  8
通り芯
  6
Continuous
 62
     3
370
     9
100
AcDbCircle
 10
-692.7419992562554
 20
-310.9585189092638
 30
0.0
 40
1.500000019331236
100
AcDbArc
 50
184.0851135253907
 51
270.0
  0
ARC
  5
23D
330
1F
100
AcDbEntity
  8
通り芯
  6
Continuous
 62
     3
370
     9
100
AcDbCircle
 10
-645.4255171247098
 20
-310.9585189092638
 30
0.0
 40
1.500000019331236
100
AcDbArc
 50
270.0
 51
351.2539978027344
  0
ARC
  5
23E
330
1F
100
AcDbEntity
  8
通り芯
  6
Continuous
 62
     3
370
     9
100
AcDbCircle
 10
-559.351793254355
 20
-310.9585189092638
 30
0.0
 40
1.500000019331236
100
AcDbArc
 50
188.7460174560547
 51
270.0
  0
ARC
  5
23F
330
1F
100
AcDbEntity
  8
通り芯
  6
Continuous
 62
     3
370
     9
100
AcDbCircle
 10
-511.9255220735063
 20
-310.9585189092638
 30
0.0
 40
1.500000019331236
100
AcDbArc
 50
270.0
 51
351.2540893554688
  0
ARC
  5
240
330
1F
100
AcDbEntity
  8
通り芯
  6
Continuous
 62
     3
370
     9
100
AcDbCircle
 10
-424.3517932543551
 20
-310.9585189092638
 30
0.0
 40
1.500000019331236
100
AcDbArc
 50
188.7459106445313
 51
270.0
  0
LINE
  5
241
330
1F
100
AcDbEntity
  8
躯体
  6
Continuous
 62
     2
370
     9
100
AcDbLine
 10
-101.1385727095915
 20
32.54145139795742
 30
0.0
 11
128.8612953225031
 21
32.54145139795742
 31
0.0
  0
LINE
  5
242
330
1F
100
AcDbEntity
  8
躯体
  6
JWW_DASHED3
 62
     2
370
     9
100
AcDbLine
 10
-700.1387178742875
 20
32.54145139795742
 30
0.0
 11
-101.1385727095915
 21
32.54145139795742
 31
0.0
  0
LINE
  5
243
330
1F
100
AcDbEntity
  8
躯体
  6
Continuous
 62
     2
370
     9
100
AcDbLine
 10
-101.1385727095915
 20
282.5413854140047
 30
0.0
 11
128.8612953225031
 21
282.5413854140047
 31
0.0
  0
LINE
  5
244
330
1F
100
AcDbEntity
  8
躯体
  6
JWW_DASHED3
 62
     2
370
     9
100
AcDbLine
 10
-700.1387178742875
 20
282.5413854140047
 30
0.0
 11
-101.1385727095915
 21
282.5413854140047
 31
0.0
  0
LINE
  5
245
330
1F
100
AcDbEntity
  8
通り芯
  6
JWW_PHANTOM2
 62
     3
370
     9
100
AcDbLine
 10
-100.1385694103939
 20
-8.458436429323001
 30
0.0
 11
128.8612953225031
 21
-8.458436429323001
 31
0.0
  0
LINE
  5
246
330
1F
100
AcDbEntity
  8
通り芯
  6
JWW_PHANTOM2
 62
     3
370
     9
100
AcDbLine
 10
-100.1385694103939
 20
-8.458436429323001
 30
0.0
 11
-100.1385694103939
 21
323.5414711931433
 31
0.0
  0
LINE
  5
247
330
1F
100
AcDbEntity
  8
通り芯
  6
JWW_PHANTOM2
 62
     3
370
     9
100
AcDbLine
 10
-100.1385694103939
 20
323.5414711931433
 30
0.0
 11
128.8612953225031
 21
323.5414711931433
 31
0.0
  0
LINE
  5
248
330
1F
100
AcDbEntity
  8
通り芯
  6
Continuous
 62
     3
370
     9
100
AcDbLine
 10
-388.138678283916
 20
-4.458423232532596
 30
0.0
 11
-388.138678283916
 21
1.54159656265324
 31
0.0
  0
LINE
  5
249
330
1F
100
AcDbEntity
  8
通り芯
  6
Continuous
 62
     3
370
     9
100
AcDbLine
 10
-388.138678283916
 20
5.541609759443872
 30
0.0
 11
-388.138678283916
 21
11.54153057870053
 31
0.0
  0
LINE
  5
24A
330
1F
100
AcDbEntity
  8
通り芯
  6
Continuous
 62
     3
370
     9
100
AcDbLine
 10
-388.138678283916
 20
-12.45844962611363
 30
0.0
 11
-388.138678283916
 21
-8.458436429323001
 31
0.0
  0
LINE
  5
24B
330
1F
100
AcDbEntity
  8
通り芯
  6
Continuous
 62
     3
370
     9
100
AcDbLine
 10
-278.1387112758923
 20
-4.458423232532596
 30
0.0
 11
-278.1387112758923
 21
1.54159656265324
 31
0.0
  0
LINE
  5
24C
330
1F
100
AcDbEntity
  8
通り芯
  6
Continuous
 62
     3
370
     9
100
AcDbLine
 10
-253.1386287959514
 20
-4.458423232532596
 30
0.0
 11
-253.1386287959514
 21
1.54159656265324
 31
0.0
  0
LINE
  5
24D
330
1F
100
AcDbEntity
  8
通り芯
  6
Continuous
 62
     3
370
     9
100
AcDbLine
 10
-278.1387112758923
 20
5.541609759443872
 30
0.0
 11
-278.1387112758923
 21
11.54153057870053
 31
0.0
  0
LINE
  5
24E
330
1F
100
AcDbEntity
  8
通り芯
  6
Continuous
 62
     3
370
     9
100
AcDbLine
 10
-253.1386287959514
 20
5.541609759443872
 30
0.0
 11
-253.1386287959514
 21
11.54153057870053
 31
0.0
  0
LINE
  5
24F
330
1F
100
AcDbEntity
  8
通り芯
  6
Continuous
 62
     3
370
     9
100
AcDbLine
 10
-278.1387112758923
 20
-12.45844962611363
 30
0.0
 11
-278.1387112758923
 21
-8.458436429323001
 31
0.0
  0
LINE
  5
250
330
1F
100
AcDbEntity
  8
通り芯
  6
Continuous
 62
     3
370
     9
100
AcDbLine
 10
-253.1386287959514
 20
-12.45844962611363
 30
0.0
 11
-253.1386287959514
 21
-8.458436429323001
 31
0.0
  0
LINE
  5
251
330
1F
100
AcDbEntity
  8
通り芯
  6
Continuous
 62
     3
370
     9
100
AcDbLine
 10
-143.1387112758923
 20
5.541609759443872
 30
0.0
 11
-143.1387112758923
 21
11.54153057870053
 31
0.0
  0
LINE
  5
252
330
1F
100
AcDbEntity
  8
通り芯
  6
Continuous
 62
     3
370
     9
100
AcDbLine
 10
-143.1387112758923
 20
-4.458423232532596
 30
0.0
 11
-143.1387112758923
 21
1.54159656265324
 31
0.0
  0
LINE
  5
253
330
1F
100
AcDbEntity
  8
通り芯
  6
Continuous
 62
     3
370
     9
100
AcDbLine
 10
-143.1387112758923
 20
-12.45844962611363
 30
0.0
 11
-143.1387112758923
 21
-8.458436429323001
 31
0.0
  0
LINE
  5
254
330
1F
100
AcDbEntity
  8
通り芯
  6
Continuous
 62
     3
370
     9
100
AcDbLine
 10
-118.1386287959513
 20
5.541609759443872
 30
0.0
 11
-118.1386287959513
 21
11.54153057870053
 31
0.0
  0
LINE
  5
255
330
1F
100
AcDbEntity
  8
通り芯
  6
Continuous
 62
     3
370
     9
100
AcDbLine
 10
-118.1386287959513
 20
-4.458423232532596
 30
0.0
 11
-118.1386287959513
 21
1.54159656265324
 31
0.0
  0
LINE
  5
256
330
1F
100
AcDbEntity
  8
通り芯
  6
Continuous
 62
     3
370
     9
100
AcDbLine
 10
-118.1386287959513
 20
-12.45844962611363
 30
0.0
 11
-118.1386287959513
 21
-8.458436429323001
 31
0.0
  0
LINE
  5
257
330
1F
100
AcDbEntity
  8
通り芯
  6
Continuous
 62
     3
370
     9
100
AcDbLine
 10
-253.1386287959514
 20
-12.45844962611363
 30
0.0
 11
-278.1387112758923
 21
-12.45844962611363
 31
0.0
  0
LINE
  5
258
330
1F
100
AcDbEntity
  8
通り芯
  6
Continuous
 62
     3
370
     9
100
AcDbLine
 10
-118.1386287959513
 20
-12.45844962611363
 30
0.0
 11
-143.1387112758923
 21
-12.45844962611363
 31
0.0
  0
LINE
  5
259
330
1F
100
AcDbEntity
  8
通り芯
  6
Continuous
 62
     3
370
     9
100
AcDbLine
 10
-111.1564708567622
 20
23.41111989457909
 30
0.0
 11
-111.1564708567622
 21
151.8753433954237
 31
0.0
  0
LINE
  5
25A
330
1F
100
AcDbEntity
  8
通り芯
  6
Continuous
 62
     3
370
     9
100
AcDbLine
 10
-108.1488398126322
 20
151.5415470746889
 30
0.0
 11
-108.1488398126322
 21
153.5415041851195
 31
0.0
  0
LINE
  5
25B
330
1F
100
AcDbEntity
  8
通り芯
  6
Continuous
 62
     3
370
     9
100
AcDbLine
 10
-109.1488431118298
 20
151.5415470746889
 30
0.0
 11
-108.1488398126322
 21
151.5415470746889
 31
0.0
  0
LINE
  5
25C
330
1F
100
AcDbEntity
  8
通り芯
  6
Continuous
 62
     3
370
     9
100
AcDbLine
 10
-112.1564741559599
 20
152.0415734682699
 30
0.0
 11
-109.1488431118298
 21
151.5415470746889
 31
0.0
  0
LINE
  5
25D
330
1F
100
AcDbEntity
  8
通り芯
  6
Continuous
 62
     3
370
     9
100
AcDbLine
 10
-109.1488431118298
 20
152.0415734682699
 30
0.0
 11
-112.1564741559599
 21
152.0415734682699
 31
0.0
  0
LINE
  5
25E
330
1F
100
AcDbEntity
  8
通り芯
  6
Continuous
 62
     3
370
     9
100
AcDbLine
 10
-108.1488398126322
 20
151.5415470746889
 30
0.0
 11
-109.1488431118298
 21
152.0415734682699
 31
0.0
  0
LINE
  5
25F
330
1F
100
AcDbEntity
  8
通り芯
  6
Continuous
 62
     3
370
     9
100
AcDbLine
 10
-105.1386353943466
 20
153.5415041851195
 30
0.0
 11
-110.6386287959513
 21
153.5415041851195
 31
0.0
  0
LINE
  5
260
330
1F
100
AcDbEntity
  8
通り芯
  6
Continuous
 62
     3
370
     9
100
AcDbLine
 10
-397.1386584887301
 20
42.54158336586283
 30
0.0
 11
-399.638641992742
 21
45.04156686987449
 31
0.0
  0
LINE
  5
261
330
1F
100
AcDbEntity
  8
通り芯
  6
Continuous
 62
     3
370
     9
100
AcDbLine
 10
-282.1386749847183
 20
42.54158336586283
 30
0.0
 11
-284.6386584887301
 21
45.04156686987449
 31
0.0
  0
LINE
  5
262
330
1F
100
AcDbEntity
  8
通り芯
  6
Continuous
 62
     3
370
     9
100
AcDbLine
 10
-289.1386485911372
 20
42.54158336586283
 30
0.0
 11
-286.6386650871254
 21
45.04156686987449
 31
0.0
  0
LINE
  5
263
330
1F
100
AcDbEntity
  8
通り芯
  6
Continuous
 62
     3
370
     9
100
AcDbLine
 10
-284.6386584887301
 20
45.04156686987449
 30
0.0
 11
-286.6386650871254
 21
45.04156686987449
 31
0.0
  0
LINE
  5
264
330
1F
100
AcDbEntity
  8
通り芯
  6
Continuous
 62
     3
370
     9
100
AcDbLine
 10
-282.1386749847183
 20
42.54158336586283
 30
0.0
 11
-289.1386485911372
 21
42.54158336586283
 31
0.0
  0
LINE
  5
265
330
1F
100
AcDbEntity
  8
通り芯
  6
Continuous
 62
     3
370
     9
100
AcDbLine
 10
-167.138641992742
 20
42.54158336586283
 30
0.0
 11
-169.6386254967537
 21
45.04156686987449
 31
0.0
  0
LINE
  5
266
330
1F
100
AcDbEntity
  8
通り芯
  6
Continuous
 62
     3
370
     9
100
AcDbLine
 10
-174.1386650871254
 20
42.54158336586283
 30
0.0
 11
-171.6387310710781
 21
45.04156686987449
 31
0.0
  0
LINE
  5
267
330
1F
100
AcDbEntity
  8
通り芯
  6
Continuous
 62
     3
370
     9
100
AcDbLine
 10
-169.6386254967537
 20
45.04156686987449
 30
0.0
 11
-171.6387310710781
 21
45.04156686987449
 31
0.0
  0
LINE
  5
268
330
1F
100
AcDbEntity
  8
通り芯
  6
Continuous
 62
     3
370
     9
100
AcDbLine
 10
-167.138641992742
 20
42.54158336586283
 30
0.0
 11
-174.1386650871254
 21
42.54158336586283
 31
0.0
  0
LINE
  5
269
330
1F
100
AcDbEntity
  8
通り芯
  6
Continuous
 62
     3
370
     9
100
AcDbLine
 10
-413.1387112758923
 20
-4.458423232532596
 30
0.0
 11
-413.1387112758923
 21
1.54159656265324
 31
0.0
  0
LINE
  5
26A
330
1F
100
AcDbEntity
  8
通り芯
  6
Continuous
 62
     3
370
     9
100
AcDbLine
 10
-413.1387112758923
 20
5.541609759443872
 30
0.0
 11
-413.1387112758923
 21
11.54153057870053
 31
0.0
  0
LINE
  5
26B
330
1F
100
AcDbEntity
  8
通り芯
  6
Continuous
 62
     3
370
     9
100
AcDbLine
 10
-413.1387112758923
 20
-12.45844962611363
 30
0.0
 11
-413.1387112758923
 21
-8.458436429323001
 31
0.0
  0
LINE
  5
26C
330
1F
100
AcDbEntity
  8
通り芯
  6
Continuous
 62
     3
370
     9
100
AcDbLine
 10
-523.1386287959514
 20
-4.458423232532596
 30
0.0
 11
-523.1386287959514
 21
1.54159656265324
 31
0.0
  0
LINE
  5
26D
330
1F
100
AcDbEntity
  8
通り芯
  6
Continuous
 62
     3
370
     9
100
AcDbLine
 10
-548.1387112758923
 20
-4.458423232532596
 30
0.0
 11
-548.1387112758923
 21
1.54159656265324
 31
0.0
  0
LINE
  5
26E
330
1F
100
AcDbEntity
  8
通り芯
  6
Continuous
 62
     3
370
     9
100
AcDbLine
 10
-523.1386287959514
 20
5.541609759443872
 30
0.0
 11
-523.1386287959514
 21
11.54153057870053
 31
0.0
  0
LINE
  5
26F
330
1F
100
AcDbEntity
  8
通り芯
  6
Continuous
 62
     3
370
     9
100
AcDbLine
 10
-548.1387112758923
 20
5.541609759443872
 30
0.0
 11
-548.1387112758923
 21
11.54153057870053
 31
0.0
  0
LINE
  5
270
330
1F
100
AcDbEntity
  8
通り芯
  6
Continuous
 62
     3
370
     9
100
AcDbLine
 10
-523.1386287959514
 20
-12.45844962611363
 30
0.0
 11
-523.1386287959514
 21
-8.458436429323001
 31
0.0
  0
LINE
  5
271
330
1F
100
AcDbEntity
  8
通り芯
  6
Continuous
 62
     3
370
     9
100
AcDbLine
 10
-548.1387112758923
 20
-12.45844962611363
 30
0.0
 11
-548.1387112758923
 21
-8.458436429323001
 31
0.0
  0
LINE
  5
272
330
1F
100
AcDbEntity
  8
通り芯
  6
Continuous
 62
     3
370
     9
100
AcDbLine
 10
-658.1386782839159
 20
5.541609759443872
 30
0.0
 11
-658.1386782839159
 21
11.54153057870053
 31
0.0
  0
LINE
  5
273
330
1F
100
AcDbEntity
  8
通り芯
  6
Continuous
 62
     3
370
     9
100
AcDbLine
 10
-658.1386782839159
 20
-4.458423232532596
 30
0.0
 11
-658.1386782839159
 21
1.54159656265324
 31
0.0
  0
LINE
  5
274
330
1F
100
AcDbEntity
  8
通り芯
  6
Continuous
 62
     3
370
     9
100
AcDbLine
 10
-658.1386782839159
 20
-12.45844962611363
 30
0.0
 11
-658.1386782839159
 21
-8.458436429323001
 31
0.0
  0
LINE
  5
275
330
1F
100
AcDbEntity
  8
通り芯
  6
Continuous
 62
     3
370
     9
100
AcDbLine
 10
-683.1387112758923
 20
5.541609759443872
 30
0.0
 11
-683.1387112758923
 21
11.54153057870053
 31
0.0
  0
LINE
  5
276
330
1F
100
AcDbEntity
  8
通り芯
  6
Continuous
 62
     3
370
     9
100
AcDbLine
 10
-683.1387112758923
 20
-4.458423232532596
 30
0.0
 11
-683.1387112758923
 21
1.54159656265324
 31
0.0
  0
LINE
  5
277
330
1F
100
AcDbEntity
  8
通り芯
  6
Continuous
 62
     3
370
     9
100
AcDbLine
 10
-683.1387112758923
 20
-12.45844962611363
 30
0.0
 11
-683.1387112758923
 21
-8.458436429323001
 31
0.0
  0
LINE
  5
278
330
1F
100
AcDbEntity
  8
通り芯
  6
Continuous
 62
     3
370
     9
100
AcDbLine
 10
-413.1387112758923
 20
-12.45844962611363
 30
0.0
 11
-388.138678283916
 21
-12.45844962611363
 31
0.0
  0
LINE
  5
279
330
1F
100
AcDbEntity
  8
通り芯
  6
Continuous
 62
     3
370
     9
100
AcDbLine
 10
-548.1387112758923
 20
-12.45844962611363
 30
0.0
 11
-523.1386287959514
 21
-12.45844962611363
 31
0.0
  0
LINE
  5
27A
330
1F
100
AcDbEntity
  8
通り芯
  6
Continuous
 62
     3
370
     9
100
AcDbLine
 10
-683.1387112758923
 20
-12.45844962611363
 30
0.0
 11
-658.1386782839159
 21
-12.45844962611363
 31
0.0
  0
LINE
  5
27B
330
1F
100
AcDbEntity
  8
通り芯
  6
Continuous
 62
     3
370
     9
100
AcDbLine
 10
-700.1387178742875
 20
-8.458436429323001
 30
0.0
 11
-101.1385727095915
 21
-8.458436429323001
 31
0.0
  0
LINE
  5
27C
330
1F
100
AcDbEntity
  8
通り芯
  6
Continuous
 62
     3
370
     9
100
AcDbLine
 10
-696.1387046774969
 20
-4.458423232532596
 30
0.0
 11
-105.1386353943466
 21
-4.458423232532596
 31
0.0
  0
LINE
  5
27D
330
1F
100
AcDbEntity
  8
通り芯
  6
Continuous
 62
     3
370
     9
100
AcDbLine
 10
-696.1387046774969
 20
1.54159656265324
 30
0.0
 11
-105.1386353943466
 21
1.54159656265324
 31
0.0
  0
LINE
  5
27E
330
1F
100
AcDbEntity
  8
通り芯
  6
Continuous
 62
     3
370
     9
100
AcDbLine
 10
-696.1387046774969
 20
5.541609759443872
 30
0.0
 11
-105.1386353943466
 21
5.541609759443872
 31
0.0
  0
LINE
  5
27F
330
1F
100
AcDbEntity
  8
通り芯
  6
Continuous
 62
     3
370
     9
100
AcDbLine
 10
-690.1208692150815
 20
23.41111989457909
 30
0.0
 11
-690.1208692150815
 21
151.8753433954237
 31
0.0
  0
LINE
  5
280
330
1F
100
AcDbEntity
  8
通り芯
  6
Continuous
 62
     3
370
     9
100
AcDbLine
 10
-693.1285497471761
 20
151.5415470746889
 30
0.0
 11
-693.1285497471761
 21
153.5415041851195
 31
0.0
  0
LINE
  5
281
330
1F
100
AcDbEntity
  8
通り芯
  6
Continuous
 62
     3
370
     9
100
AcDbLine
 10
-692.128496960014
 20
151.5415470746889
 30
0.0
 11
-693.1285497471761
 21
151.5415470746889
 31
0.0
  0
LINE
  5
282
330
1F
100
AcDbEntity
  8
通り芯
  6
Continuous
 62
     3
370
     9
100
AcDbLine
 10
-689.1209154038484
 20
152.0415734682699
 30
0.0
 11
-692.128496960014
 21
151.5415470746889
 31
0.0
  0
LINE
  5
283
330
1F
100
AcDbEntity
  8
通り芯
  6
Continuous
 62
     3
370
     9
100
AcDbLine
 10
-692.128496960014
 20
152.0415734682699
 30
0.0
 11
-689.1209154038484
 21
152.0415734682699
 31
0.0
  0
LINE
  5
284
330
1F
100
AcDbEntity
  8
通り芯
  6
Continuous
 62
     3
370
     9
100
AcDbLine
 10
-693.1285497471761
 20
151.5415470746889
 30
0.0
 11
-692.128496960014
 21
152.0415734682699
 31
0.0
  0
LINE
  5
285
330
1F
100
AcDbEntity
  8
通り芯
  6
Continuous
 62
     3
370
     9
100
AcDbLine
 10
-696.1387046774969
 20
153.5415041851195
 30
0.0
 11
-690.6387112758923
 21
153.5415041851195
 31
0.0
  0
LINE
  5
286
330
1F
100
AcDbEntity
  8
通り芯
  6
Continuous
 62
     3
370
     9
100
AcDbLine
 10
-685.5494679798619
 20
21.06113441104867
 30
0.0
 11
-115.7278226040173
 21
21.06113441104867
 31
0.0
  0
LINE
  5
287
330
1F
100
AcDbEntity
  8
通り芯
  6
Continuous
 62
     3
370
     9
100
AcDbLine
 10
-686.1208560182909
 20
19.41110669778845
 30
0.0
 11
-115.1564840535527
 21
19.41110669778845
 31
0.0
  0
LINE
  5
288
330
1F
100
AcDbEntity
  8
通り芯
  6
Continuous
 62
     3
370
     9
100
AcDbLine
 10
-696.1387046774969
 20
11.54153057870053
 30
0.0
 11
-105.1386353943466
 21
11.54153057870053
 31
0.0
  0
LINE
  5
289
330
1F
100
AcDbEntity
  8
通り芯
  6
Continuous
 62
     3
370
     9
100
AcDbLine
 10
-696.1387046774969
 20
15.54154377549116
 30
0.0
 11
-105.1386353943466
 21
15.54154377549116
 31
0.0
  0
LINE
  5
28A
330
1F
100
AcDbEntity
  8
通り芯
  6
Continuous
 62
     3
370
     9
100
AcDbLine
 10
-401.6386980791018
 20
45.04156686987449
 30
0.0
 11
-399.638641992742
 21
45.04156686987449
 31
0.0
  0
LINE
  5
28B
330
1F
100
AcDbEntity
  8
通り芯
  6
Continuous
 62
     3
370
     9
100
AcDbLine
 10
-404.1386320951491
 20
42.54158336586283
 30
0.0
 11
-397.1386584887301
 21
42.54158336586283
 31
0.0
  0
LINE
  5
28C
330
1F
100
AcDbEntity
  8
通り芯
  6
Continuous
 62
     3
370
     9
100
AcDbLine
 10
-404.1386320951491
 20
42.54158336586283
 30
0.0
 11
-401.6386980791018
 21
45.04156686987449
 31
0.0
  0
LINE
  5
28D
330
1F
100
AcDbEntity
  8
通り芯
  6
Continuous
 62
     3
370
     9
100
AcDbLine
 10
-519.1386650871254
 20
42.54158336586283
 30
0.0
 11
-516.6386815831136
 21
45.04156686987449
 31
0.0
  0
LINE
  5
28E
330
1F
100
AcDbEntity
  8
通り芯
  6
Continuous
 62
     3
370
     9
100
AcDbLine
 10
-512.1386914807065
 20
42.54158336586283
 30
0.0
 11
-514.6386254967538
 21
45.04156686987449
 31
0.0
  0
LINE
  5
28F
330
1F
100
AcDbEntity
  8
通り芯
  6
Continuous
 62
     3
370
     9
100
AcDbLine
 10
-516.6386815831136
 20
45.04156686987449
 30
0.0
 11
-514.6386254967538
 21
45.04156686987449
 31
0.0
  0
LINE
  5
290
330
1F
100
AcDbEntity
  8
通り芯
  6
Continuous
 62
     3
370
     9
100
AcDbLine
 10
-519.1386650871254
 20
42.54158336586283
 30
0.0
 11
-512.1386914807065
 21
42.54158336586283
 31
0.0
  0
LINE
  5
291
330
1F
100
AcDbEntity
  8
通り芯
  6
Continuous
 62
     3
370
     9
100
AcDbLine
 10
-634.1386485911371
 20
42.54158336586283
 30
0.0
 11
-631.6386650871254
 21
45.04156686987449
 31
0.0
  0
LINE
  5
292
330
1F
100
AcDbEntity
  8
通り芯
  6
Continuous
 62
     3
370
     9
100
AcDbLine
 10
-627.1386749847184
 20
42.54158336586283
 30
0.0
 11
-629.63865848873
 21
45.04156686987449
 31
0.0
  0
LINE
  5
293
330
1F
100
AcDbEntity
  8
通り芯
  6
Continuous
 62
     3
370
     9
100
AcDbLine
 10
-631.6386650871254
 20
45.04156686987449
 30
0.0
 11
-629.63865848873
 21
45.04156686987449
 31
0.0
  0
LINE
  5
294
330
1F
100
AcDbEntity
  8
通り芯
  6
Continuous
 62
     3
370
     9
100
AcDbLine
 10
-634.1386485911371
 20
42.54158336586283
 30
0.0
 11
-627.1386749847184
 21
42.54158336586283
 31
0.0
  0
LINE
  5
295
330
1F
100
AcDbEntity
  8
通り芯
  6
Continuous
 62
     3
370
     9
100
AcDbLine
 10
-388.138678283916
 20
319.5414579963527
 30
0.0
 11
-388.138678283916
 21
313.5414382011669
 31
0.0
  0
LINE
  5
296
330
1F
100
AcDbEntity
  8
通り芯
  6
Continuous
 62
     3
370
     9
100
AcDbLine
 10
-388.138678283916
 20
309.5414250043764
 30
0.0
 11
-388.138678283916
 21
303.5415041851196
 31
0.0
  0
LINE
  5
297
330
1F
100
AcDbEntity
  8
通り芯
  6
Continuous
 62
     3
370
     9
100
AcDbLine
 10
-388.138678283916
 20
327.5414843899338
 30
0.0
 11
-388.138678283916
 21
323.5414711931433
 31
0.0
  0
LINE
  5
298
330
1F
100
AcDbEntity
  8
通り芯
  6
Continuous
 62
     3
370
     9
100
AcDbLine
 10
-278.1387112758923
 20
319.5414579963527
 30
0.0
 11
-278.1387112758923
 21
313.5414382011669
 31
0.0
  0
LINE
  5
299
330
1F
100
AcDbEntity
  8
通り芯
  6
Continuous
 62
     3
370
     9
100
AcDbLine
 10
-253.1386287959514
 20
319.5414579963527
 30
0.0
 11
-253.1386287959514
 21
313.5414382011669
 31
0.0
  0
LINE
  5
29A
330
1F
100
AcDbEntity
  8
通り芯
  6
Continuous
 62
     3
370
     9
100
AcDbLine
 10
-278.1387112758923
 20
309.5414250043764
 30
0.0
 11
-278.1387112758923
 21
303.5415041851196
 31
0.0
  0
LINE
  5
29B
330
1F
100
AcDbEntity
  8
通り芯
  6
Continuous
 62
     3
370
     9
100
AcDbLine
 10
-253.1386287959514
 20
309.5414250043764
 30
0.0
 11
-253.1386287959514
 21
303.5415041851196
 31
0.0
  0
LINE
  5
29C
330
1F
100
AcDbEntity
  8
通り芯
  6
Continuous
 62
     3
370
     9
100
AcDbLine
 10
-278.1387112758923
 20
327.5414843899338
 30
0.0
 11
-278.1387112758923
 21
323.5414711931433
 31
0.0
  0
LINE
  5
29D
330
1F
100
AcDbEntity
  8
通り芯
  6
Continuous
 62
     3
370
     9
100
AcDbLine
 10
-253.1386287959514
 20
327.5414843899338
 30
0.0
 11
-253.1386287959514
 21
323.5414711931433
 31
0.0
  0
LINE
  5
29E
330
1F
100
AcDbEntity
  8
通り芯
  6
Continuous
 62
     3
370
     9
100
AcDbLine
 10
-143.1387112758923
 20
309.5414250043764
 30
0.0
 11
-143.1387112758923
 21
303.5415041851196
 31
0.0
  0
LINE
  5
29F
330
1F
100
AcDbEntity
  8
通り芯
  6
Continuous
 62
     3
370
     9
100
AcDbLine
 10
-143.1387112758923
 20
319.5414579963527
 30
0.0
 11
-143.1387112758923
 21
313.5414382011669
 31
0.0
  0
LINE
  5
2A0
330
1F
100
AcDbEntity
  8
通り芯
  6
Continuous
 62
     3
370
     9
100
AcDbLine
 10
-143.1387112758923
 20
327.5414843899338
 30
0.0
 11
-143.1387112758923
 21
323.5414711931433
 31
0.0
  0
LINE
  5
2A1
330
1F
100
AcDbEntity
  8
通り芯
  6
Continuous
 62
     3
370
     9
100
AcDbLine
 10
-118.1386287959513
 20
309.5414250043764
 30
0.0
 11
-118.1386287959513
 21
303.5415041851196
 31
0.0
  0
LINE
  5
2A2
330
1F
100
AcDbEntity
  8
通り芯
  6
Continuous
 62
     3
370
     9
100
AcDbLine
 10
-118.1386287959513
 20
319.5414579963527
 30
0.0
 11
-118.1386287959513
 21
313.5414382011669
 31
0.0
  0
LINE
  5
2A3
330
1F
100
AcDbEntity
  8
通り芯
  6
Continuous
 62
     3
370
     9
100
AcDbLine
 10
-118.1386287959513
 20
327.5414843899338
 30
0.0
 11
-118.1386287959513
 21
323.5414711931433
 31
0.0
  0
LINE
  5
2A4
330
1F
100
AcDbEntity
  8
通り芯
  6
Continuous
 62
     3
370
     9
100
AcDbLine
 10
-253.1386287959514
 20
327.5414843899338
 30
0.0
 11
-278.1387112758923
 21
327.5414843899338
 31
0.0
  0
LINE
  5
2A5
330
1F
100
AcDbEntity
  8
通り芯
  6
Continuous
 62
     3
370
     9
100
AcDbLine
 10
-118.1386287959513
 20
327.5414843899338
 30
0.0
 11
-143.1387112758923
 21
327.5414843899338
 31
0.0
  0
LINE
  5
2A6
330
1F
100
AcDbEntity
  8
通り芯
  6
Continuous
 62
     3
370
     9
100
AcDbLine
 10
-101.1385727095915
 20
-8.458436429323001
 30
0.0
 11
-101.1385727095915
 21
323.5414711931433
 31
0.0
  0
LINE
  5
2A7
330
1F
100
AcDbEntity
  8
通り芯
  6
Continuous
 62
     3
370
     9
100
AcDbLine
 10
-105.1386353943466
 20
-8.458436429323001
 30
0.0
 11
-105.1386353943466
 21
323.5414711931433
 31
0.0
  0
LINE
  5
2A8
330
1F
100
AcDbEntity
  8
通り芯
  6
Continuous
 62
     3
370
     9
100
AcDbLine
 10
-111.1564708567622
 20
291.6719148692413
 30
0.0
 11
-111.1564708567622
 21
163.2076913683966
 31
0.0
  0
LINE
  5
2A9
330
1F
100
AcDbEntity
  8
通り芯
  6
Continuous
 62
     3
370
     9
100
AcDbLine
 10
-108.1488398126322
 20
163.5414876891314
 30
0.0
 11
-108.1488398126322
 21
161.5415305787005
 31
0.0
  0
LINE
  5
2AA
330
1F
100
AcDbEntity
  8
通り芯
  6
Continuous
 62
     3
370
     9
100
AcDbLine
 10
-112.1564741559599
 20
152.0415734682699
 30
0.0
 11
-112.1564741559599
 21
163.0414612955503
 31
0.0
  0
LINE
  5
2AB
330
1F
100
AcDbEntity
  8
通り芯
  6
Continuous
 62
     3
370
     9
100
AcDbLine
 10
-109.1488431118298
 20
163.5414876891314
 30
0.0
 11
-108.1488398126322
 21
163.5414876891314
 31
0.0
  0
LINE
  5
2AC
330
1F
100
AcDbEntity
  8
通り芯
  6
Continuous
 62
     3
370
     9
100
AcDbLine
 10
-112.1564741559599
 20
163.0414612955503
 30
0.0
 11
-109.1488431118298
 21
163.5414876891314
 31
0.0
  0
LINE
  5
2AD
330
1F
100
AcDbEntity
  8
通り芯
  6
Continuous
 62
     3
370
     9
100
AcDbLine
 10
-109.1488431118298
 20
163.0414612955503
 30
0.0
 11
-112.1564741559599
 21
163.0414612955503
 31
0.0
  0
LINE
  5
2AE
330
1F
100
AcDbEntity
  8
通り芯
  6
Continuous
 62
     3
370
     9
100
AcDbLine
 10
-108.1488398126322
 20
163.5414876891314
 30
0.0
 11
-109.1488431118298
 21
163.0414612955503
 31
0.0
  0
LINE
  5
2AF
330
1F
100
AcDbEntity
  8
通り芯
  6
Continuous
 62
     3
370
     9
100
AcDbLine
 10
-105.1386353943466
 20
161.5415305787005
 30
0.0
 11
-110.6386287959513
 21
161.5415305787005
 31
0.0
  0
LINE
  5
2B0
330
1F
100
AcDbEntity
  8
通り芯
  6
Continuous
 62
     3
370
     9
100
AcDbLine
 10
-110.6386287959513
 20
153.5415041851195
 30
0.0
 11
-110.6386287959513
 21
161.5415305787005
 31
0.0
  0
LINE
  5
2B1
330
1F
100
AcDbEntity
  8
通り芯
  6
Continuous
 62
     3
370
     9
100
AcDbLine
 10
-106.6386650871254
 20
153.5415041851195
 30
0.0
 11
-106.6386650871254
 21
161.5415305787005
 31
0.0
  0
LINE
  5
2B2
330
1F
100
AcDbEntity
  8
通り芯
  6
Continuous
 62
     3
370
     9
100
AcDbLine
 10
-112.7278621943888
 20
291.0219399431433
 30
0.0
 11
-112.7278621943888
 21
24.061094820677
 31
0.0
  0
LINE
  5
2B3
330
1F
100
AcDbEntity
  8
通り芯
  6
Continuous
 62
     3
370
     9
100
AcDbLine
 10
-397.1386584887301
 20
272.5414513979574
 30
0.0
 11
-399.638641992742
 21
270.0414678939457
 31
0.0
  0
LINE
  5
2B4
330
1F
100
AcDbEntity
  8
通り芯
  6
Continuous
 62
     3
370
     9
100
AcDbLine
 10
-399.638641992742
 20
45.04156686987449
 30
0.0
 11
-399.638641992742
 21
270.0414678939457
 31
0.0
  0
LINE
  5
2B5
330
1F
100
AcDbEntity
  8
通り芯
  6
Continuous
 62
     3
370
     9
100
AcDbLine
 10
-397.1386584887301
 20
42.54158336586283
 30
0.0
 11
-397.1386584887301
 21
272.5414513979574
 31
0.0
  0
LINE
  5
2B6
330
1F
100
AcDbEntity
  8
通り芯
  6
Continuous
 62
     3
370
     9
100
AcDbLine
 10
-282.1386749847183
 20
272.5414513979574
 30
0.0
 11
-284.6386584887301
 21
270.0414678939457
 31
0.0
  0
LINE
  5
2B7
330
1F
100
AcDbEntity
  8
通り芯
  6
Continuous
 62
     3
370
     9
100
AcDbLine
 10
-289.1386485911372
 20
272.5414513979574
 30
0.0
 11
-286.6386650871254
 21
270.0414678939457
 31
0.0
  0
LINE
  5
2B8
330
1F
100
AcDbEntity
  8
通り芯
  6
Continuous
 62
     3
370
     9
100
AcDbLine
 10
-284.6386584887301
 20
45.04156686987449
 30
0.0
 11
-284.6386584887301
 21
270.0414678939457
 31
0.0
  0
LINE
  5
2B9
330
1F
100
AcDbEntity
  8
通り芯
  6
Continuous
 62
     3
370
     9
100
AcDbLine
 10
-284.6386584887301
 20
270.0414678939457
 30
0.0
 11
-286.6386650871254
 21
270.0414678939457
 31
0.0
  0
LINE
  5
2BA
330
1F
100
AcDbEntity
  8
通り芯
  6
Continuous
 62
     3
370
     9
100
AcDbLine
 10
-286.6386650871254
 20
45.04156686987449
 30
0.0
 11
-286.6386650871254
 21
270.0414678939457
 31
0.0
  0
LINE
  5
2BB
330
1F
100
AcDbEntity
  8
通り芯
  6
Continuous
 62
     3
370
     9
100
AcDbLine
 10
-282.1386749847183
 20
42.54158336586283
 30
0.0
 11
-282.1386749847183
 21
272.5414513979574
 31
0.0
  0
LINE
  5
2BC
330
1F
100
AcDbEntity
  8
通り芯
  6
Continuous
 62
     3
370
     9
100
AcDbLine
 10
-282.1386749847183
 20
272.5414513979574
 30
0.0
 11
-289.1386485911372
 21
272.5414513979574
 31
0.0
  0
LINE
  5
2BD
330
1F
100
AcDbEntity
  8
通り芯
  6
Continuous
 62
     3
370
     9
100
AcDbLine
 10
-289.1386485911372
 20
42.54158336586283
 30
0.0
 11
-289.1386485911372
 21
272.5414513979574
 31
0.0
  0
LINE
  5
2BE
330
1F
100
AcDbEntity
  8
通り芯
  6
Continuous
 62
     3
370
     9
100
AcDbLine
 10
-167.138641992742
 20
272.5414513979574
 30
0.0
 11
-169.6386254967537
 21
270.0414678939457
 31
0.0
  0
LINE
  5
2BF
330
1F
100
AcDbEntity
  8
通り芯
  6
Continuous
 62
     3
370
     9
100
AcDbLine
 10
-174.1386650871254
 20
272.5414513979574
 30
0.0
 11
-171.6387310710781
 21
270.0414678939457
 31
0.0
  0
LINE
  5
2C0
330
1F
100
AcDbEntity
  8
通り芯
  6
Continuous
 62
     3
370
     9
100
AcDbLine
 10
-169.6386254967537
 20
45.04156686987449
 30
0.0
 11
-169.6386254967537
 21
270.0414678939457
 31
0.0
  0
LINE
  5
2C1
330
1F
100
AcDbEntity
  8
通り芯
  6
Continuous
 62
     3
370
     9
100
AcDbLine
 10
-169.6386254967537
 20
270.0414678939457
 30
0.0
 11
-171.6387310710781
 21
270.0414678939457
 31
0.0
  0
LINE
  5
2C2
330
1F
100
AcDbEntity
  8
通り芯
  6
Continuous
 62
     3
370
     9
100
AcDbLine
 10
-171.6387310710781
 20
45.04156686987449
 30
0.0
 11
-171.6387310710781
 21
270.0414678939457
 31
0.0
  0
LINE
  5
2C3
330
1F
100
AcDbEntity
  8
通り芯
  6
Continuous
 62
     3
370
     9
100
AcDbLine
 10
-167.138641992742
 20
42.54158336586283
 30
0.0
 11
-167.138641992742
 21
272.5414513979574
 31
0.0
  0
LINE
  5
2C4
330
1F
100
AcDbEntity
  8
通り芯
  6
Continuous
 62
     3
370
     9
100
AcDbLine
 10
-167.138641992742
 20
272.5414513979574
 30
0.0
 11
-174.1386650871254
 21
272.5414513979574
 31
0.0
  0
LINE
  5
2C5
330
1F
100
AcDbEntity
  8
通り芯
  6
Continuous
 62
     3
370
     9
100
AcDbLine
 10
-174.1386650871254
 20
42.54158336586283
 30
0.0
 11
-174.1386650871254
 21
272.5414513979574
 31
0.0
  0
LINE
  5
2C6
330
1F
100
AcDbEntity
  8
通り芯
  6
Continuous
 62
     3
370
     9
100
AcDbLine
 10
-413.1387112758923
 20
319.5414579963527
 30
0.0
 11
-413.1387112758923
 21
313.5414382011669
 31
0.0
  0
LINE
  5
2C7
330
1F
100
AcDbEntity
  8
通り芯
  6
Continuous
 62
     3
370
     9
100
AcDbLine
 10
-413.1387112758923
 20
309.5414250043764
 30
0.0
 11
-413.1387112758923
 21
303.5415041851196
 31
0.0
  0
LINE
  5
2C8
330
1F
100
AcDbEntity
  8
通り芯
  6
Continuous
 62
     3
370
     9
100
AcDbLine
 10
-413.1387112758923
 20
327.5414843899338
 30
0.0
 11
-413.1387112758923
 21
323.5414711931433
 31
0.0
  0
LINE
  5
2C9
330
1F
100
AcDbEntity
  8
通り芯
  6
Continuous
 62
     3
370
     9
100
AcDbLine
 10
-523.1386287959514
 20
319.5414579963527
 30
0.0
 11
-523.1386287959514
 21
313.5414382011669
 31
0.0
  0
LINE
  5
2CA
330
1F
100
AcDbEntity
  8
通り芯
  6
Continuous
 62
     3
370
     9
100
AcDbLine
 10
-548.13868653191
 20
319.5414579963527
 30
0.0
 11
-548.13868653191
 21
313.5414382011669
 31
0.0
  0
LINE
  5
2CB
330
1F
100
AcDbEntity
  8
通り芯
  6
Continuous
 62
     3
370
     9
100
AcDbLine
 10
-523.1386287959514
 20
309.5414250043764
 30
0.0
 11
-523.1386287959514
 21
303.5415041851196
 31
0.0
  0
LINE
  5
2CC
330
1F
100
AcDbEntity
  8
通り芯
  6
Continuous
 62
     3
370
     9
100
AcDbLine
 10
-548.13868653191
 20
309.5414250043764
 30
0.0
 11
-548.13868653191
 21
303.5415041851196
 31
0.0
  0
LINE
  5
2CD
330
1F
100
AcDbEntity
  8
通り芯
  6
Continuous
 62
     3
370
     9
100
AcDbLine
 10
-523.1386287959514
 20
327.5414843899338
 30
0.0
 11
-523.1386287959514
 21
323.5414711931433
 31
0.0
  0
LINE
  5
2CE
330
1F
100
AcDbEntity
  8
通り芯
  6
Continuous
 62
     3
370
     9
100
AcDbLine
 10
-548.13868653191
 20
327.5414843899338
 30
0.0
 11
-548.13868653191
 21
323.5414711931433
 31
0.0
  0
LINE
  5
2CF
330
1F
100
AcDbEntity
  8
通り芯
  6
Continuous
 62
     3
370
     9
100
AcDbLine
 10
-658.1386535399336
 20
309.5414250043764
 30
0.0
 11
-658.1386535399336
 21
303.5415041851196
 31
0.0
  0
LINE
  5
2D0
330
1F
100
AcDbEntity
  8
通り芯
  6
Continuous
 62
     3
370
     9
100
AcDbLine
 10
-658.1386535399336
 20
319.5414579963527
 30
0.0
 11
-658.1386535399336
 21
313.5414382011669
 31
0.0
  0
LINE
  5
2D1
330
1F
100
AcDbEntity
  8
通り芯
  6
Continuous
 62
     3
370
     9
100
AcDbLine
 10
-658.1386535399336
 20
327.5414843899338
 30
0.0
 11
-658.1386535399336
 21
323.5414711931433
 31
0.0
  0
LINE
  5
2D2
330
1F
100
AcDbEntity
  8
通り芯
  6
Continuous
 62
     3
370
     9
100
AcDbLine
 10
-683.1386617879277
 20
309.5414250043764
 30
0.0
 11
-683.1386617879277
 21
303.5415041851196
 31
0.0
  0
LINE
  5
2D3
330
1F
100
AcDbEntity
  8
通り芯
  6
Continuous
 62
     3
370
     9
100
AcDbLine
 10
-683.1386617879277
 20
319.5414579963527
 30
0.0
 11
-683.1386617879277
 21
313.5414382011669
 31
0.0
  0
LINE
  5
2D4
330
1F
100
AcDbEntity
  8
通り芯
  6
Continuous
 62
     3
370
     9
100
AcDbLine
 10
-683.1386617879277
 20
327.5414843899338
 30
0.0
 11
-683.1386617879277
 21
323.5414711931433
 31
0.0
  0
LINE
  5
2D5
330
1F
100
AcDbEntity
  8
通り芯
  6
Continuous
 62
     3
370
     9
100
AcDbLine
 10
-413.1387112758923
 20
327.5414843899338
 30
0.0
 11
-388.138678283916
 21
327.5414843899338
 31
0.0
  0
LINE
  5
2D6
330
1F
100
AcDbEntity
  8
通り芯
  6
Continuous
 62
     3
370
     9
100
AcDbLine
 10
-548.13868653191
 20
327.5414843899338
 30
0.0
 11
-523.1386287959514
 21
327.5414843899338
 31
0.0
  0
LINE
  5
2D7
330
1F
100
AcDbEntity
  8
通り芯
  6
Continuous
 62
     3
370
     9
100
AcDbLine
 10
-683.1386617879277
 20
327.5414843899338
 30
0.0
 11
-658.1386535399336
 21
327.5414843899338
 31
0.0
  0
LINE
  5
2D8
330
1F
100
AcDbEntity
  8
通り芯
  6
Continuous
 62
     3
370
     9
100
AcDbLine
 10
-700.1387178742875
 20
-8.458436429323001
 30
0.0
 11
-700.1387178742875
 21
323.5414711931433
 31
0.0
  0
LINE
  5
2D9
330
1F
100
AcDbEntity
  8
通り芯
  6
Continuous
 62
     3
370
     9
100
AcDbLine
 10
-696.1387170494882
 20
-8.458436429323001
 30
0.0
 11
-696.1387170494882
 21
323.5414711931433
 31
0.0
  0
LINE
  5
2DA
330
1F
100
AcDbEntity
  8
通り芯
  6
Continuous
 62
     3
370
     9
100
AcDbLine
 10
-700.1387178742875
 20
323.5414711931433
 30
0.0
 11
-101.1385727095915
 21
323.5414711931433
 31
0.0
  0
LINE
  5
2DB
330
1F
100
AcDbEntity
  8
通り芯
  6
Continuous
 62
     3
370
     9
100
AcDbLine
 10
-696.1387170494882
 20
319.5414579963527
 30
0.0
 11
-105.1386353943466
 21
319.5414579963527
 31
0.0
  0
LINE
  5
2DC
330
1F
100
AcDbEntity
  8
通り芯
  6
Continuous
 62
     3
370
     9
100
AcDbLine
 10
-696.1387170494882
 20
313.5414382011669
 30
0.0
 11
-105.1386353943466
 21
313.5414382011669
 31
0.0
  0
LINE
  5
2DD
330
1F
100
AcDbEntity
  8
通り芯
  6
Continuous
 62
     3
370
     9
100
AcDbLine
 10
-696.1387170494882
 20
309.5414250043764
 30
0.0
 11
-105.1386353943466
 21
309.5414250043764
 31
0.0
  0
LINE
  5
2DE
330
1F
100
AcDbEntity
  8
通り芯
  6
Continuous
 62
     3
370
     9
100
AcDbLine
 10
-690.1208939590638
 20
291.6719148692413
 30
0.0
 11
-690.1208939590638
 21
163.2076913683966
 31
0.0
  0
LINE
  5
2DF
330
1F
100
AcDbEntity
  8
通り芯
  6
Continuous
 62
     3
370
     9
100
AcDbLine
 10
-693.1285126312027
 20
163.5414876891314
 30
0.0
 11
-693.1285126312027
 21
161.5415305787005
 31
0.0
  0
LINE
  5
2E0
330
1F
100
AcDbEntity
  8
通り芯
  6
Continuous
 62
     3
370
     9
100
AcDbLine
 10
-689.120878287875
 20
152.0415734682699
 30
0.0
 11
-689.120878287875
 21
163.0414612955503
 31
0.0
  0
LINE
  5
2E1
330
1F
100
AcDbEntity
  8
通り芯
  6
Continuous
 62
     3
370
     9
100
AcDbLine
 10
-692.1284845880227
 20
163.5414876891314
 30
0.0
 11
-693.1285126312027
 21
163.5414876891314
 31
0.0
  0
LINE
  5
2E2
330
1F
100
AcDbEntity
  8
通り芯
  6
Continuous
 62
     3
370
     9
100
AcDbLine
 10
-689.120878287875
 20
163.0414612955503
 30
0.0
 11
-692.1284845880227
 21
163.5414876891314
 31
0.0
  0
LINE
  5
2E3
330
1F
100
AcDbEntity
  8
通り芯
  6
Continuous
 62
     3
370
     9
100
AcDbLine
 10
-692.1284845880227
 20
163.0414612955503
 30
0.0
 11
-689.120878287875
 21
163.0414612955503
 31
0.0
  0
LINE
  5
2E4
330
1F
100
AcDbEntity
  8
通り芯
  6
Continuous
 62
     3
370
     9
100
AcDbLine
 10
-693.1285126312027
 20
163.5414876891314
 30
0.0
 11
-692.1284845880227
 21
163.0414612955503
 31
0.0
  0
LINE
  5
2E5
330
1F
100
AcDbEntity
  8
通り芯
  6
Continuous
 62
     3
370
     9
100
AcDbLine
 10
-696.1387170494882
 20
161.5415305787005
 30
0.0
 11
-690.6386741599188
 21
161.5415305787005
 31
0.0
  0
LINE
  5
2E6
330
1F
100
AcDbEntity
  8
通り芯
  6
Continuous
 62
     3
370
     9
100
AcDbLine
 10
-690.6386741599188
 20
153.5415041851195
 30
0.0
 11
-690.6386741599188
 21
161.5415305787005
 31
0.0
  0
LINE
  5
2E7
330
1F
100
AcDbEntity
  8
通り芯
  6
Continuous
 62
     3
370
     9
100
AcDbLine
 10
-694.6386873567094
 20
153.5415041851195
 30
0.0
 11
-694.6386873567094
 21
161.5415305787005
 31
0.0
  0
LINE
  5
2E8
330
1F
100
AcDbEntity
  8
通り芯
  6
Continuous
 62
     3
370
     9
100
AcDbLine
 10
-688.5494778774548
 20
291.0219399431433
 30
0.0
 11
-688.5494778774548
 21
24.061094820677
 31
0.0
  0
LINE
  5
2E9
330
1F
100
AcDbEntity
  8
通り芯
  6
Continuous
 62
     3
370
     9
100
AcDbLine
 10
-685.5494927238442
 20
294.0219003527716
 30
0.0
 11
-115.7278226040173
 21
294.0219003527716
 31
0.0
  0
LINE
  5
2EA
330
1F
100
AcDbEntity
  8
通り芯
  6
Continuous
 62
     3
370
     9
100
AcDbLine
 10
-686.1208807622731
 20
295.6719280660318
 30
0.0
 11
-115.1564345655882
 21
295.6719280660318
 31
0.0
  0
LINE
  5
2EB
330
1F
100
AcDbEntity
  8
通り芯
  6
Continuous
 62
     3
370
     9
100
AcDbLine
 10
-696.1387170494882
 20
303.5415041851196
 30
0.0
 11
-105.1386353943466
 21
303.5415041851196
 31
0.0
  0
LINE
  5
2EC
330
1F
100
AcDbEntity
  8
通り芯
  6
Continuous
 62
     3
370
     9
100
AcDbLine
 10
-696.1387170494882
 20
299.5414909883291
 30
0.0
 11
-105.1386353943466
 21
299.5414909883291
 31
0.0
  0
LINE
  5
2ED
330
1F
100
AcDbEntity
  8
通り芯
  6
Continuous
 62
     3
370
     9
100
AcDbLine
 10
-401.6386980791018
 20
270.0414678939457
 30
0.0
 11
-399.638641992742
 21
270.0414678939457
 31
0.0
  0
LINE
  5
2EE
330
1F
100
AcDbEntity
  8
通り芯
  6
Continuous
 62
     3
370
     9
100
AcDbLine
 10
-404.1386320951491
 20
272.5414513979574
 30
0.0
 11
-397.1386584887301
 21
272.5414513979574
 31
0.0
  0
LINE
  5
2EF
330
1F
100
AcDbEntity
  8
通り芯
  6
Continuous
 62
     3
370
     9
100
AcDbLine
 10
-404.1386320951491
 20
272.5414513979574
 30
0.0
 11
-401.6386980791018
 21
270.0414678939457
 31
0.0
  0
LINE
  5
2F0
330
1F
100
AcDbEntity
  8
通り芯
  6
Continuous
 62
     3
370
     9
100
AcDbLine
 10
-401.6386980791018
 20
45.04156686987449
 30
0.0
 11
-401.6386980791018
 21
270.0414678939457
 31
0.0
  0
LINE
  5
2F1
330
1F
100
AcDbEntity
  8
通り芯
  6
Continuous
 62
     3
370
     9
100
AcDbLine
 10
-404.1386320951491
 20
42.54158336586283
 30
0.0
 11
-404.1386320951491
 21
272.5414513979574
 31
0.0
  0
LINE
  5
2F2
330
1F
100
AcDbEntity
  8
通り芯
  6
Continuous
 62
     3
370
     9
100
AcDbLine
 10
-519.1386650871254
 20
272.5414513979574
 30
0.0
 11
-516.6386815831136
 21
270.0414678939457
 31
0.0
  0
LINE
  5
2F3
330
1F
100
AcDbEntity
  8
通り芯
  6
Continuous
 62
     3
370
     9
100
AcDbLine
 10
-512.1386667367242
 20
272.5414513979574
 30
0.0
 11
-514.6386502407361
 21
270.0414678939457
 31
0.0
  0
LINE
  5
2F4
330
1F
100
AcDbEntity
  8
通り芯
  6
Continuous
 62
     3
370
     9
100
AcDbLine
 10
-516.6386815831136
 20
45.04156686987449
 30
0.0
 11
-516.6386815831136
 21
270.0414678939457
 31
0.0
  0
LINE
  5
2F5
330
1F
100
AcDbEntity
  8
通り芯
  6
Continuous
 62
     3
370
     9
100
AcDbLine
 10
-516.6386815831136
 20
270.0414678939457
 30
0.0
 11
-514.6386502407361
 21
270.0414678939457
 31
0.0
  0
LINE
  5
2F6
330
1F
100
AcDbEntity
  8
通り芯
  6
Continuous
 62
     3
370
     9
100
AcDbLine
 10
-514.6386502407361
 20
45.04156686987449
 30
0.0
 11
-514.6386502407361
 21
270.0414678939457
 31
0.0
  0
LINE
  5
2F7
330
1F
100
AcDbEntity
  8
通り芯
  6
Continuous
 62
     3
370
     9
100
AcDbLine
 10
-519.1386650871254
 20
42.54158336586283
 30
0.0
 11
-519.1386650871254
 21
272.5414513979574
 31
0.0
  0
LINE
  5
2F8
330
1F
100
AcDbEntity
  8
通り芯
  6
Continuous
 62
     3
370
     9
100
AcDbLine
 10
-519.1386650871254
 20
272.5414513979574
 30
0.0
 11
-512.1386667367242
 21
272.5414513979574
 31
0.0
  0
LINE
  5
2F9
330
1F
100
AcDbEntity
  8
通り芯
  6
Continuous
 62
     3
370
     9
100
AcDbLine
 10
-512.1386667367242
 20
42.54158336586283
 30
0.0
 11
-512.1386667367242
 21
272.5414513979574
 31
0.0
  0
LINE
  5
2FA
330
1F
100
AcDbEntity
  8
通り芯
  6
Continuous
 62
     3
370
     9
100
AcDbLine
 10
-634.1386485911371
 20
272.5414513979574
 30
0.0
 11
-631.6386898311077
 21
270.0414678939457
 31
0.0
  0
LINE
  5
2FB
330
1F
100
AcDbEntity
  8
通り芯
  6
Continuous
 62
     3
370
     9
100
AcDbLine
 10
-627.1386749847184
 20
272.5414513979574
 30
0.0
 11
-629.63865848873
 21
270.0414678939457
 31
0.0
  0
LINE
  5
2FC
330
1F
100
AcDbEntity
  8
通り芯
  6
Continuous
 62
     3
370
     9
100
AcDbLine
 10
-631.6386898311077
 20
45.04156686987449
 30
0.0
 11
-631.6386898311077
 21
270.0414678939457
 31
0.0
  0
LINE
  5
2FD
330
1F
100
AcDbEntity
  8
通り芯
  6
Continuous
 62
     3
370
     9
100
AcDbLine
 10
-631.6386898311077
 20
270.0414678939457
 30
0.0
 11
-629.63865848873
 21
270.0414678939457
 31
0.0
  0
LINE
  5
2FE
330
1F
100
AcDbEntity
  8
通り芯
  6
Continuous
 62
     3
370
     9
100
AcDbLine
 10
-629.63865848873
 20
45.04156686987449
 30
0.0
 11
-629.63865848873
 21
270.0414678939457
 31
0.0
  0
LINE
  5
2FF
330
1F
100
AcDbEntity
  8
通り芯
  6
Continuous
 62
     3
370
     9
100
AcDbLine
 10
-634.1386485911371
 20
42.54158336586283
 30
0.0
 11
-634.1386485911371
 21
272.5414513979574
 31
0.0
  0
LINE
  5
300
330
1F
100
AcDbEntity
  8
通り芯
  6
Continuous
 62
     3
370
     9
100
AcDbLine
 10
-634.1386485911371
 20
272.5414513979574
 30
0.0
 11
-627.1386749847184
 21
272.5414513979574
 31
0.0
  0
LINE
  5
301
330
1F
100
AcDbEntity
  8
通り芯
  6
Continuous
 62
     3
370
     9
100
AcDbLine
 10
-627.1386749847184
 20
42.54158336586283
 30
0.0
 11
-627.1386749847184
 21
272.5414513979574
 31
0.0
  0
LINE
  5
302
330
1F
100
AcDbEntity
  8
0-E
  6
Continuous
 62
     7
370
     9
100
AcDbLine
 10
360.7791189078069
 20
-108.2631404253111
 30
0.0
 11
150.0385810066246
 21
-108.2631404253111
 31
0.0
  0
LINE
  5
303
330
1F
100
AcDbEntity
  8
0-E
  6
Continuous
 62
     7
370
     9
100
AcDbLine
 10
567.3636575480098
 20
219.1606646053053
 30
0.0
 11
712.3748748199694
 21
219.1606646053053
 31
0.0
  0
LINE
  5
304
330
1F
100
AcDbEntity
  8
通り芯
  6
JWW_CENTER1
 62
     3
370
     9
100
AcDbLine
 10
-720.1387219982846
 20
157.5415173819101
 30
0.0
 11
148.8612623305267
 21
157.5415173819101
 31
0.0
  0
LINE
  5
305
330
1F
100
AcDbEntity
  8
通り芯
  6
JWW_CENTER1
 62
     3
370
     9
100
AcDbLine
 10
-130.6386452919396
 20
-282.4585238580603
 30
0.0
 11
-130.6386452919396
 21
-301.458462822904
 31
0.0
  0
LINE
  5
306
330
1F
100
AcDbEntity
  8
通り芯
  6
Continuous
 62
     3
370
     9
100
AcDbLine
 10
-270.0701440514412
 20
-285.1673960603407
 30
0.0
 11
-271.8573524023703
 21
-272.4585403540484
 31
0.0
  0
LINE
  5
307
330
1F
100
AcDbEntity
  8
通り芯
  6
Continuous
 62
     3
370
     9
100
AcDbLine
 10
-261.2070970444733
 20
-285.1673960603407
 30
0.0
 11
-259.4198886935442
 21
-272.4585403540484
 31
0.0
  0
LINE
  5
308
330
1F
100
AcDbEntity
  8
通り芯
  6
Continuous
 62
     3
370
     9
100
AcDbLine
 10
-262.6924782997521
 20
-286.4585123108686
 30
0.0
 11
-268.5848122841271
 21
-286.4585123108686
 31
0.0
  0
LINE
  5
309
330
1F
100
AcDbEntity
  8
通り芯
  6
Continuous
 62
     3
370
     9
100
AcDbLine
 10
-141.3029057437977
 20
-285.1445326207293
 30
0.0
 11
-142.8885991031727
 21
-272.4585403540484
 31
0.0
  0
LINE
  5
30A
330
1F
100
AcDbEntity
  8
通り芯
  6
Continuous
 62
     3
370
     9
100
AcDbLine
 10
-119.9743848400814
 20
-285.1445326207293
 30
0.0
 11
-118.388641992742
 21
-272.4585403540484
 31
0.0
  0
LINE
  5
30B
330
1F
100
AcDbEntity
  8
通り芯
  6
Continuous
 62
     3
370
     9
100
AcDbLine
 10
-389.9743848400815
 20
-285.1445326207293
 30
0.0
 11
-388.388641992742
 21
-272.4585403540484
 31
0.0
  0
LINE
  5
30C
330
1F
100
AcDbEntity
  8
通り芯
  6
Continuous
 62
     3
370
     9
100
AcDbLine
 10
-388.1385793079869
 20
-267.4584743700959
 30
0.0
 11
-388.1385793079869
 21
-272.4585403540484
 31
0.0
  0
LINE
  5
30D
330
1F
100
AcDbEntity
  8
通り芯
  6
Continuous
 62
     3
370
     9
100
AcDbLine
 10
-278.1386122999632
 20
-267.4584743700959
 30
0.0
 11
-278.1386122999632
 21
-272.4585403540484
 31
0.0
  0
LINE
  5
30E
330
1F
100
AcDbEntity
  8
通り芯
  6
Continuous
 62
     3
370
     9
100
AcDbLine
 10
-253.1385793079868
 20
-267.4584743700959
 30
0.0
 11
-253.1385793079868
 21
-272.4585403540484
 31
0.0
  0
LINE
  5
30F
330
1F
100
AcDbEntity
  8
通り芯
  6
Continuous
 62
     3
370
     9
100
AcDbLine
 10
-143.1386122999632
 20
-267.4584743700959
 30
0.0
 11
-143.1386122999632
 21
-272.4585403540484
 31
0.0
  0
LINE
  5
310
330
1F
100
AcDbEntity
  8
通り芯
  6
Continuous
 62
     3
370
     9
100
AcDbLine
 10
-118.1386287959513
 20
-267.4584743700959
 30
0.0
 11
-118.1386287959513
 21
-272.4585403540484
 31
0.0
  0
LINE
  5
311
330
1F
100
AcDbEntity
  8
通り芯
  6
Continuous
 62
     3
370
     9
100
AcDbLine
 10
-133.6387046774969
 20
-292.4585321060545
 30
0.0
 11
-133.6387046774969
 21
-296.4585205588626
 31
0.0
  0
LINE
  5
312
330
1F
100
AcDbEntity
  8
通り芯
  6
Continuous
 62
     3
370
     9
100
AcDbLine
 10
-132.6386518903349
 20
-292.4585321060545
 30
0.0
 11
-132.6386518903349
 21
-297.4584743700959
 31
0.0
  0
LINE
  5
313
330
1F
100
AcDbEntity
  8
通り芯
  6
Continuous
 62
     3
370
     9
100
AcDbLine
 10
-139.8144067467537
 20
-286.4585123108686
 30
0.0
 11
-121.4627848611963
 21
-286.4585123108686
 31
0.0
  0
LINE
  5
314
330
1F
100
AcDbEntity
  8
通り芯
  6
Continuous
 62
     3
370
     9
100
AcDbLine
 10
-137.6385694103939
 20
-286.4585123108686
 30
0.0
 11
-137.6385694103939
 21
-287.2585594893947
 31
0.0
  0
LINE
  5
315
330
1F
100
AcDbEntity
  8
通り芯
  6
Continuous
 62
     3
370
     9
100
AcDbLine
 10
-133.6387046774969
 20
-296.4585205588626
 30
0.0
 11
-132.6386518903349
 21
-297.4584743700959
 31
0.0
  0
LINE
  5
316
330
1F
100
AcDbEntity
  8
通り芯
  6
Continuous
 62
     3
370
     9
100
AcDbLine
 10
-136.163679603595
 20
-288.8585053825536
 30
0.0
 11
-136.163679603595
 21
-292.4585321060545
 31
0.0
  0
LINE
  5
317
330
1F
100
AcDbEntity
  8
通り芯
  6
Continuous
 62
     3
370
     9
100
AcDbLine
 10
-133.4011624477673
 20
-287.2585594893947
 30
0.0
 11
-133.4011624477673
 21
-292.4585321060545
 31
0.0
  0
LINE
  5
318
330
1F
100
AcDbEntity
  8
通り芯
  6
Continuous
 62
     3
370
     9
100
AcDbLine
 10
-137.6385694103939
 20
-287.2585594893947
 30
0.0
 11
-136.163679603595
 21
-288.8585053825536
 31
0.0
  0
LINE
  5
319
330
1F
100
AcDbEntity
  8
通り芯
  6
Continuous
 62
     3
370
     9
100
AcDbLine
 10
-127.6385859063822
 20
-292.4585321060545
 30
0.0
 11
-127.6385859063822
 21
-296.4585205588626
 31
0.0
  0
LINE
  5
31A
330
1F
100
AcDbEntity
  8
通り芯
  6
Continuous
 62
     3
370
     9
100
AcDbLine
 10
-128.6386386935442
 20
-292.4585321060545
 30
0.0
 11
-128.6386386935442
 21
-297.4584743700959
 31
0.0
  0
LINE
  5
31B
330
1F
100
AcDbEntity
  8
通り芯
  6
Continuous
 62
     3
370
     9
100
AcDbLine
 10
-123.6386716855206
 20
-286.4585123108686
 30
0.0
 11
-123.6386716855206
 21
-287.2585594893947
 31
0.0
  0
LINE
  5
31C
330
1F
100
AcDbEntity
  8
通り芯
  6
Continuous
 62
     3
370
     9
100
AcDbLine
 10
-123.6386716855206
 20
-287.2585594893947
 30
0.0
 11
-137.6385694103939
 21
-287.2585594893947
 31
0.0
  0
LINE
  5
31D
330
1F
100
AcDbEntity
  8
通り芯
  6
Continuous
 62
     3
370
     9
100
AcDbLine
 10
-125.1136109802841
 20
-292.4585321060545
 30
0.0
 11
-136.163679603595
 21
-292.4585321060545
 31
0.0
  0
LINE
  5
31E
330
1F
100
AcDbEntity
  8
通り芯
  6
Continuous
 62
     3
370
     9
100
AcDbLine
 10
-127.6385859063822
 20
-296.4585205588626
 30
0.0
 11
-133.6387046774969
 21
-296.4585205588626
 31
0.0
  0
LINE
  5
31F
330
1F
100
AcDbEntity
  8
通り芯
  6
Continuous
 62
     3
370
     9
100
AcDbLine
 10
-128.6386386935442
 20
-297.4584743700959
 30
0.0
 11
-132.6386518903349
 21
-297.4584743700959
 31
0.0
  0
LINE
  5
320
330
1F
100
AcDbEntity
  8
通り芯
  6
Continuous
 62
     3
370
     9
100
AcDbLine
 10
-127.6385859063822
 20
-296.4585205588626
 30
0.0
 11
-128.6386386935442
 21
-297.4584743700959
 31
0.0
  0
LINE
  5
321
330
1F
100
AcDbEntity
  8
通り芯
  6
Continuous
 62
     3
370
     9
100
AcDbLine
 10
-125.1136109802841
 20
-288.8585053825536
 30
0.0
 11
-125.1136109802841
 21
-292.4585321060545
 31
0.0
  0
LINE
  5
322
330
1F
100
AcDbEntity
  8
通り芯
  6
Continuous
 62
     3
370
     9
100
AcDbLine
 10
-127.8761281361118
 20
-287.2585594893947
 30
0.0
 11
-127.8761281361118
 21
-292.4585321060545
 31
0.0
  0
LINE
  5
323
330
1F
100
AcDbEntity
  8
通り芯
  6
Continuous
 62
     3
370
     9
100
AcDbLine
 10
-123.6386716855206
 20
-287.2585594893947
 30
0.0
 11
-125.1136109802841
 21
-288.8585053825536
 31
0.0
  0
LINE
  5
324
330
1F
100
AcDbEntity
  8
通り芯
  6
Continuous
 62
     3
370
     9
100
AcDbLine
 10
-397.6385859063821
 20
-292.4585321060545
 30
0.0
 11
-397.6385859063821
 21
-296.4585205588626
 31
0.0
  0
LINE
  5
325
330
1F
100
AcDbEntity
  8
通り芯
  6
Continuous
 62
     3
370
     9
100
AcDbLine
 10
-398.6386386935443
 20
-292.4585321060545
 30
0.0
 11
-398.6386386935443
 21
-297.4584743700959
 31
0.0
  0
LINE
  5
326
330
1F
100
AcDbEntity
  8
通り芯
  6
Continuous
 62
     3
370
     9
100
AcDbLine
 10
-393.6386716855206
 20
-286.4585123108686
 30
0.0
 11
-393.6386716855206
 21
-287.2585594893947
 31
0.0
  0
LINE
  5
327
330
1F
100
AcDbEntity
  8
通り芯
  6
Continuous
 62
     3
370
     9
100
AcDbLine
 10
-397.6385859063821
 20
-296.4585205588626
 30
0.0
 11
-398.6386386935443
 21
-297.4584743700959
 31
0.0
  0
LINE
  5
328
330
1F
100
AcDbEntity
  8
通り芯
  6
Continuous
 62
     3
370
     9
100
AcDbLine
 10
-395.1136109802842
 20
-288.8585053825536
 30
0.0
 11
-395.1136109802842
 21
-292.4585321060545
 31
0.0
  0
LINE
  5
329
330
1F
100
AcDbEntity
  8
通り芯
  6
Continuous
 62
     3
370
     9
100
AcDbLine
 10
-397.8761281361119
 20
-287.2585594893947
 30
0.0
 11
-397.8761281361119
 21
-292.4585321060545
 31
0.0
  0
LINE
  5
32A
330
1F
100
AcDbEntity
  8
通り芯
  6
Continuous
 62
     3
370
     9
100
AcDbLine
 10
-393.6386716855206
 20
-287.2585594893947
 30
0.0
 11
-395.1136109802842
 21
-288.8585053825536
 31
0.0
  0
LINE
  5
32B
330
1F
100
AcDbEntity
  8
通り芯
  6
Continuous
 62
     3
370
     9
100
AcDbLine
 10
-101.488304154904
 20
-272.4585403540484
 30
0.0
 11
-105.6309416654615
 21
-296.1475629337572
 31
0.0
  0
LINE
  5
32C
330
1F
100
AcDbEntity
  8
通り芯
  6
Continuous
 62
     3
370
     9
100
AcDbLine
 10
-161.7123361703179
 20
-299.4585057124734
 30
0.0
 11
-236.0648851304108
 21
-299.4585057124734
 31
0.0
  0
LINE
  5
32D
330
1F
100
AcDbEntity
  8
通り芯
  6
Continuous
 62
     3
370
     9
100
AcDbLine
 10
-158.7473142636456
 20
-302.0022860650915
 30
0.0
 11
-157.3342844125054
 21
-311.1865594498045
 31
0.0
  0
LINE
  5
32E
330
1F
100
AcDbEntity
  8
通り芯
  6
Continuous
 62
     3
370
     9
100
AcDbLine
 10
-239.0300060130122
 20
-302.0022860650915
 30
0.0
 11
-240.4429368882233
 21
-311.1865594498045
 31
0.0
  0
LINE
  5
32F
330
1F
100
AcDbEntity
  8
通り芯
  6
Continuous
 62
     3
370
     9
100
AcDbLine
 10
-295.2124054534683
 20
-299.4585057124734
 30
0.0
 11
-371.0648356424464
 21
-299.4585057124734
 31
0.0
  0
LINE
  5
330
330
1F
100
AcDbEntity
  8
通り芯
  6
Continuous
 62
     3
370
     9
100
AcDbLine
 10
-292.247284570867
 20
-302.0022860650915
 30
0.0
 11
-290.8343536956558
 21
-311.1865594498045
 31
0.0
  0
LINE
  5
331
330
1F
100
AcDbEntity
  8
通り芯
  6
Continuous
 62
     3
370
     9
100
AcDbLine
 10
-374.0299565250477
 20
-302.0022860650915
 30
0.0
 11
-375.4429368882234
 21
-311.1865594498045
 31
0.0
  0
LINE
  5
332
330
1F
100
AcDbEntity
  8
通り芯
  6
Continuous
 62
     3
370
     9
100
AcDbLine
 10
-107.0391216960781
 20
-311.0653139367132
 30
0.0
 11
-104.281454360774
 21
-272.4585403540484
 31
0.0
  0
LINE
  5
333
330
1F
100
AcDbEntity
  8
通り芯
  6
Continuous
 62
     3
370
     9
100
AcDbLine
 10
-108.5353408155882
 20
-312.458499114078
 30
0.0
 11
-155.8517734591692
 21
-312.458499114078
 31
0.0
  0
LINE
  5
334
330
1F
100
AcDbEntity
  8
通り芯
  6
Continuous
 62
     3
370
     9
100
AcDbLine
 10
-241.925497329524
 20
-312.458499114078
 30
0.0
 11
-289.3517932543551
 21
-312.458499114078
 31
0.0
  0
LINE
  5
335
330
1F
100
AcDbEntity
  8
通り芯
  6
Continuous
 62
     3
370
     9
100
AcDbLine
 10
-101.1386716855206
 20
-272.4585403540484
 30
0.0
 11
-101.1386716855206
 21
-252.458499114078
 31
0.0
  0
LINE
  5
336
330
1F
100
AcDbEntity
  8
通り芯
  6
JWW_CENTER1
 62
     3
370
     9
100
AcDbLine
 10
-400.6386452919396
 20
-282.4585238580603
 30
0.0
 11
-400.6386452919396
 21
-301.458462822904
 31
0.0
  0
LINE
  5
337
330
1F
100
AcDbEntity
  8
通り芯
  6
JWW_CENTER1
 62
     3
370
     9
100
AcDbLine
 10
-670.6386452919396
 20
-282.4585238580603
 30
0.0
 11
-670.6386452919396
 21
-301.458462822904
 31
0.0
  0
LINE
  5
338
330
1F
100
AcDbEntity
  8
通り芯
  6
Continuous
 62
     3
370
     9
100
AcDbLine
 10
-531.207146532438
 20
-285.1673960603407
 30
0.0
 11
-529.4199381815088
 21
-272.4585403540484
 31
0.0
  0
LINE
  5
339
330
1F
100
AcDbEntity
  8
通り芯
  6
Continuous
 62
     3
370
     9
100
AcDbLine
 10
-540.0701935394059
 20
-285.1673960603407
 30
0.0
 11
-541.8574018903348
 21
-272.4585403540484
 31
0.0
  0
LINE
  5
33A
330
1F
100
AcDbEntity
  8
通り芯
  6
Continuous
 62
     3
370
     9
100
AcDbLine
 10
-538.5848122841271
 20
-286.4585123108686
 30
0.0
 11
-532.6924782997521
 21
-286.4585123108686
 31
0.0
  0
LINE
  5
33B
330
1F
100
AcDbEntity
  8
通り芯
  6
Continuous
 62
     3
370
     9
100
AcDbLine
 10
-659.9743848400815
 20
-285.1445326207293
 30
0.0
 11
-658.3886914807065
 21
-272.4585403540484
 31
0.0
  0
LINE
  5
33C
330
1F
100
AcDbEntity
  8
通り芯
  6
Continuous
 62
     3
370
     9
100
AcDbLine
 10
-681.3029057437977
 20
-285.1445326207293
 30
0.0
 11
-682.8886485911371
 21
-272.4585403540484
 31
0.0
  0
LINE
  5
33D
330
1F
100
AcDbEntity
  8
通り芯
  6
Continuous
 62
     3
370
     9
100
AcDbLine
 10
-411.3029057437977
 20
-285.1445326207293
 30
0.0
 11
-412.8886485911372
 21
-272.4585403540484
 31
0.0
  0
LINE
  5
33E
330
1F
100
AcDbEntity
  8
通り芯
  6
Continuous
 62
     3
370
     9
100
AcDbLine
 10
-413.1387112758923
 20
-267.4584743700959
 30
0.0
 11
-413.1387112758923
 21
-272.4585403540484
 31
0.0
  0
LINE
  5
33F
330
1F
100
AcDbEntity
  8
通り芯
  6
Continuous
 62
     3
370
     9
100
AcDbLine
 10
-523.1386782839159
 20
-267.4584743700959
 30
0.0
 11
-523.1386782839159
 21
-272.4585403540484
 31
0.0
  0
LINE
  5
340
330
1F
100
AcDbEntity
  8
通り芯
  6
Continuous
 62
     3
370
     9
100
AcDbLine
 10
-548.1387112758923
 20
-267.4584743700959
 30
0.0
 11
-548.1387112758923
 21
-272.4585403540484
 31
0.0
  0
LINE
  5
341
330
1F
100
AcDbEntity
  8
通り芯
  6
Continuous
 62
     3
370
     9
100
AcDbLine
 10
-658.1386782839159
 20
-267.4584743700959
 30
0.0
 11
-658.1386782839159
 21
-272.4585403540484
 31
0.0
  0
LINE
  5
342
330
1F
100
AcDbEntity
  8
通り芯
  6
Continuous
 62
     3
370
     9
100
AcDbLine
 10
-683.1386617879277
 20
-267.4584743700959
 30
0.0
 11
-683.1386617879277
 21
-272.4585403540484
 31
0.0
  0
LINE
  5
343
330
1F
100
AcDbEntity
  8
通り芯
  6
Continuous
 62
     3
370
     9
100
AcDbLine
 10
-667.6385859063821
 20
-292.4585321060545
 30
0.0
 11
-667.6385859063821
 21
-296.4585205588626
 31
0.0
  0
LINE
  5
344
330
1F
100
AcDbEntity
  8
通り芯
  6
Continuous
 62
     3
370
     9
100
AcDbLine
 10
-668.6386386935442
 20
-292.4585321060545
 30
0.0
 11
-668.6386386935442
 21
-297.4584743700959
 31
0.0
  0
LINE
  5
345
330
1F
100
AcDbEntity
  8
通り芯
  6
Continuous
 62
     3
370
     9
100
AcDbLine
 10
-661.4628343491609
 20
-286.4585123108686
 30
0.0
 11
-679.8144562347184
 21
-286.4585123108686
 31
0.0
  0
LINE
  5
346
330
1F
100
AcDbEntity
  8
通り芯
  6
Continuous
 62
     3
370
     9
100
AcDbLine
 10
-663.6386716855206
 20
-286.4585123108686
 30
0.0
 11
-663.6386716855206
 21
-287.2585594893947
 31
0.0
  0
LINE
  5
347
330
1F
100
AcDbEntity
  8
通り芯
  6
Continuous
 62
     3
370
     9
100
AcDbLine
 10
-667.6385859063821
 20
-296.4585205588626
 30
0.0
 11
-668.6386386935442
 21
-297.4584743700959
 31
0.0
  0
LINE
  5
348
330
1F
100
AcDbEntity
  8
通り芯
  6
Continuous
 62
     3
370
     9
100
AcDbLine
 10
-665.1136109802842
 20
-288.8585053825536
 30
0.0
 11
-665.1136109802842
 21
-292.4585321060545
 31
0.0
  0
LINE
  5
349
330
1F
100
AcDbEntity
  8
通り芯
  6
Continuous
 62
     3
370
     9
100
AcDbLine
 10
-667.8761281361119
 20
-287.2585594893947
 30
0.0
 11
-667.8761281361119
 21
-292.4585321060545
 31
0.0
  0
LINE
  5
34A
330
1F
100
AcDbEntity
  8
通り芯
  6
Continuous
 62
     3
370
     9
100
AcDbLine
 10
-663.6386716855206
 20
-287.2585594893947
 30
0.0
 11
-665.1136109802842
 21
-288.8585053825536
 31
0.0
  0
LINE
  5
34B
330
1F
100
AcDbEntity
  8
通り芯
  6
Continuous
 62
     3
370
     9
100
AcDbLine
 10
-673.6387046774969
 20
-292.4585321060545
 30
0.0
 11
-673.6387046774969
 21
-296.4585205588626
 31
0.0
  0
LINE
  5
34C
330
1F
100
AcDbEntity
  8
通り芯
  6
Continuous
 62
     3
370
     9
100
AcDbLine
 10
-672.6386518903348
 20
-292.4585321060545
 30
0.0
 11
-672.6386518903348
 21
-297.4584743700959
 31
0.0
  0
LINE
  5
34D
330
1F
100
AcDbEntity
  8
通り芯
  6
Continuous
 62
     3
370
     9
100
AcDbLine
 10
-677.6386683863229
 20
-286.4585123108686
 30
0.0
 11
-677.6386683863229
 21
-287.2585594893947
 31
0.0
  0
LINE
  5
34E
330
1F
100
AcDbEntity
  8
通り芯
  6
Continuous
 62
     3
370
     9
100
AcDbLine
 10
-677.6386683863229
 20
-287.2585594893947
 30
0.0
 11
-663.6386716855206
 21
-287.2585594893947
 31
0.0
  0
LINE
  5
34F
330
1F
100
AcDbEntity
  8
通り芯
  6
Continuous
 62
     3
370
     9
100
AcDbLine
 10
-676.163679603595
 20
-292.4585321060545
 30
0.0
 11
-665.1136109802842
 21
-292.4585321060545
 31
0.0
  0
LINE
  5
350
330
1F
100
AcDbEntity
  8
通り芯
  6
Continuous
 62
     3
370
     9
100
AcDbLine
 10
-673.6387046774969
 20
-296.4585205588626
 30
0.0
 11
-667.6385859063821
 21
-296.4585205588626
 31
0.0
  0
LINE
  5
351
330
1F
100
AcDbEntity
  8
通り芯
  6
Continuous
 62
     3
370
     9
100
AcDbLine
 10
-672.6386518903348
 20
-297.4584743700959
 30
0.0
 11
-668.6386386935442
 21
-297.4584743700959
 31
0.0
  0
LINE
  5
352
330
1F
100
AcDbEntity
  8
通り芯
  6
Continuous
 62
     3
370
     9
100
AcDbLine
 10
-673.6387046774969
 20
-296.4585205588626
 30
0.0
 11
-672.6386518903348
 21
-297.4584743700959
 31
0.0
  0
LINE
  5
353
330
1F
100
AcDbEntity
  8
通り芯
  6
Continuous
 62
     3
370
     9
100
AcDbLine
 10
-676.163679603595
 20
-288.8585053825536
 30
0.0
 11
-676.163679603595
 21
-292.4585321060545
 31
0.0
  0
LINE
  5
354
330
1F
100
AcDbEntity
  8
通り芯
  6
Continuous
 62
     3
370
     9
100
AcDbLine
 10
-673.4011624477673
 20
-287.2585594893947
 30
0.0
 11
-673.4011624477673
 21
-292.4585321060545
 31
0.0
  0
LINE
  5
355
330
1F
100
AcDbEntity
  8
通り芯
  6
Continuous
 62
     3
370
     9
100
AcDbLine
 10
-677.6386683863229
 20
-287.2585594893947
 30
0.0
 11
-676.163679603595
 21
-288.8585053825536
 31
0.0
  0
LINE
  5
356
330
1F
100
AcDbEntity
  8
通り芯
  6
Continuous
 62
     3
370
     9
100
AcDbLine
 10
-403.638704677497
 20
-292.4585321060545
 30
0.0
 11
-403.638704677497
 21
-296.4585205588626
 31
0.0
  0
LINE
  5
357
330
1F
100
AcDbEntity
  8
通り芯
  6
Continuous
 62
     3
370
     9
100
AcDbLine
 10
-402.6386518903348
 20
-292.4585321060545
 30
0.0
 11
-402.6386518903348
 21
-297.4584743700959
 31
0.0
  0
LINE
  5
358
330
1F
100
AcDbEntity
  8
通り芯
  6
Continuous
 62
     3
370
     9
100
AcDbLine
 10
-409.8144562347184
 20
-286.4585123108686
 30
0.0
 11
-391.4628343491609
 21
-286.4585123108686
 31
0.0
  0
LINE
  5
359
330
1F
100
AcDbEntity
  8
通り芯
  6
Continuous
 62
     3
370
     9
100
AcDbLine
 10
-407.6386188983585
 20
-286.4585123108686
 30
0.0
 11
-407.6386188983585
 21
-287.2585594893947
 31
0.0
  0
LINE
  5
35A
330
1F
100
AcDbEntity
  8
通り芯
  6
Continuous
 62
     3
370
     9
100
AcDbLine
 10
-407.6386188983585
 20
-287.2585594893947
 30
0.0
 11
-393.6386716855206
 21
-287.2585594893947
 31
0.0
  0
LINE
  5
35B
330
1F
100
AcDbEntity
  8
通り芯
  6
Continuous
 62
     3
370
     9
100
AcDbLine
 10
-406.163679603595
 20
-292.4585321060545
 30
0.0
 11
-395.1136109802842
 21
-292.4585321060545
 31
0.0
  0
LINE
  5
35C
330
1F
100
AcDbEntity
  8
通り芯
  6
Continuous
 62
     3
370
     9
100
AcDbLine
 10
-403.638704677497
 20
-296.4585205588626
 30
0.0
 11
-397.6385859063821
 21
-296.4585205588626
 31
0.0
  0
LINE
  5
35D
330
1F
100
AcDbEntity
  8
通り芯
  6
Continuous
 62
     3
370
     9
100
AcDbLine
 10
-402.6386518903348
 20
-297.4584743700959
 30
0.0
 11
-398.6386386935443
 21
-297.4584743700959
 31
0.0
  0
LINE
  5
35E
330
1F
100
AcDbEntity
  8
通り芯
  6
Continuous
 62
     3
370
     9
100
AcDbLine
 10
-403.638704677497
 20
-296.4585205588626
 30
0.0
 11
-402.6386518903348
 21
-297.4584743700959
 31
0.0
  0
LINE
  5
35F
330
1F
100
AcDbEntity
  8
通り芯
  6
Continuous
 62
     3
370
     9
100
AcDbLine
 10
-406.163679603595
 20
-288.8585053825536
 30
0.0
 11
-406.163679603595
 21
-292.4585321060545
 31
0.0
  0
LINE
  5
360
330
1F
100
AcDbEntity
  8
通り芯
  6
Continuous
 62
     3
370
     9
100
AcDbLine
 10
-403.4011624477673
 20
-287.2585594893947
 30
0.0
 11
-403.4011624477673
 21
-292.4585321060545
 31
0.0
  0
LINE
  5
361
330
1F
100
AcDbEntity
  8
通り芯
  6
Continuous
 62
     3
370
     9
100
AcDbLine
 10
-407.6386188983585
 20
-287.2585594893947
 30
0.0
 11
-406.163679603595
 21
-288.8585053825536
 31
0.0
  0
LINE
  5
362
330
1F
100
AcDbEntity
  8
通り芯
  6
Continuous
 62
     3
370
     9
100
AcDbLine
 10
-699.788986428975
 20
-272.4585403540484
 30
0.0
 11
-695.6463489184175
 21
-296.1475629337572
 31
0.0
  0
LINE
  5
363
330
1F
100
AcDbEntity
  8
通り芯
  6
Continuous
 62
     3
370
     9
100
AcDbLine
 10
-639.5649544135613
 20
-299.4585057124734
 30
0.0
 11
-565.2124054534684
 21
-299.4585057124734
 31
0.0
  0
LINE
  5
364
330
1F
100
AcDbEntity
  8
通り芯
  6
Continuous
 62
     3
370
     9
100
AcDbLine
 10
-642.5300258081979
 20
-302.0022860650915
 30
0.0
 11
-643.9430061713738
 21
-311.1865594498045
 31
0.0
  0
LINE
  5
365
330
1F
100
AcDbEntity
  8
通り芯
  6
Continuous
 62
     3
370
     9
100
AcDbLine
 10
-562.2472845708669
 20
-302.0022860650915
 30
0.0
 11
-560.8343536956559
 21
-311.1865594498045
 31
0.0
  0
LINE
  5
366
330
1F
100
AcDbEntity
  8
通り芯
  6
Continuous
 62
     3
370
     9
100
AcDbLine
 10
-506.0648851304109
 20
-299.4585057124734
 30
0.0
 11
-430.2124549414328
 21
-299.4585057124734
 31
0.0
  0
LINE
  5
367
330
1F
100
AcDbEntity
  8
通り芯
  6
Continuous
 62
     3
370
     9
100
AcDbLine
 10
-509.0300060130122
 20
-302.0022860650915
 30
0.0
 11
-510.4429368882234
 21
-311.1865594498045
 31
0.0
  0
LINE
  5
368
330
1F
100
AcDbEntity
  8
通り芯
  6
Continuous
 62
     3
370
     9
100
AcDbLine
 10
-427.2473340588315
 20
-302.0022860650915
 30
0.0
 11
-425.8343536956559
 21
-311.1865594498045
 31
0.0
  0
LINE
  5
369
330
1F
100
AcDbEntity
  8
通り芯
  6
Continuous
 62
     3
370
     9
100
AcDbLine
 10
-694.2381688878011
 20
-311.0653139367132
 30
0.0
 11
-696.9957867351407
 21
-272.4585403540484
 31
0.0
  0
LINE
  5
36A
330
1F
100
AcDbEntity
  8
通り芯
  6
Continuous
 62
     3
370
     9
100
AcDbLine
 10
-692.7419992562554
 20
-312.458499114078
 30
0.0
 11
-645.4255171247098
 21
-312.458499114078
 31
0.0
  0
LINE
  5
36B
330
1F
100
AcDbEntity
  8
通り芯
  6
Continuous
 62
     3
370
     9
100
AcDbLine
 10
-559.351793254355
 20
-312.458499114078
 30
0.0
 11
-511.9255220735063
 21
-312.458499114078
 31
0.0
  0
LINE
  5
36C
330
1F
100
AcDbEntity
  8
通り芯
  6
Continuous
 62
     3
370
     9
100
AcDbLine
 10
-424.3517932543551
 20
-312.458499114078
 30
0.0
 11
-376.9254973295241
 21
-312.458499114078
 31
0.0
  0
LINE
  5
36D
330
1F
100
AcDbEntity
  8
通り芯
  6
Continuous
 62
     3
370
     9
100
AcDbLine
 10
-101.1386716855206
 20
-267.4584743700959
 30
0.0
 11
-700.1386188983586
 21
-267.4584743700959
 31
0.0
  0
LINE
  5
36E
330
1F
100
AcDbEntity
  8
通り芯
  6
Continuous
 62
     3
370
     9
100
AcDbLine
 10
-700.1386188983586
 20
-272.4585403540484
 30
0.0
 11
-700.1386188983586
 21
-252.458499114078
 31
0.0
  0
LINE
  5
36F
330
1F
100
AcDbEntity
  8
通り芯
  6
Continuous
 62
     3
370
     9
100
AcDbLine
 10
-101.1386716855206
 20
-252.458499114078
 30
0.0
 11
-700.1386188983586
 21
-252.458499114078
 31
0.0
  0
LINE
  5
370
330
1F
100
AcDbEntity
  8
通り芯
  6
Continuous
 62
     3
370
     9
100
AcDbLine
 10
-101.1386716855206
 20
-272.4585403540484
 30
0.0
 11
-700.1386188983586
 21
-272.4585403540484
 31
0.0
  0
LINE
  5
371
330
1F
100
AcDbEntity
  8
0-F
  6
Continuous
 62
     7
370
     9
100
AcDbLine
 10
-701.1387211734852
 20
336.5414645947479
 30
0.0
 11
-701.1387211734852
 21
448.7414685537851
 31
0.0
  0
LINE
  5
372
330
1F
100
AcDbEntity
  8
躯体
  6
Continuous
 62
     2
370
     9
100
AcDbLine
 10
-701.1387211734852
 20
-14.45860468840237
 30
0.0
 11
128.8612953225031
 21
-14.45860468840237
 31
0.0
  0
LINE
  5
373
330
1F
100
AcDbEntity
  8
躯体
  6
Continuous
 62
     2
370
     9
100
AcDbLine
 10
-701.1387211734852
 20
-17.45861458599529
 30
0.0
 11
128.8612953225031
 21
-17.45861458599529
 31
0.0
  0
LINE
  5
374
330
1F
100
AcDbEntity
  8
躯体
  6
Continuous
 62
     2
370
     9
100
AcDbLine
 10
-701.1387211734852
 20
329.5414909883291
 30
0.0
 11
128.8612953225031
 21
329.5414909883291
 31
0.0
  0
LINE
  5
375
330
1F
100
AcDbEntity
  8
躯体
  6
Continuous
 62
     2
370
     9
100
AcDbLine
 10
-701.1387211734852
 20
332.5414513979574
 30
0.0
 11
128.8612953225031
 21
332.5414513979574
 31
0.0
  0
LINE
  5
376
330
1F
100
AcDbEntity
  8
躯体
  6
Continuous
 62
     2
370
     9
100
AcDbLine
 10
128.8612953225031
 20
177.5414843899337
 30
0.0
 11
128.8612953225031
 21
352.5414184059811
 31
0.0
  0
LINE
  5
377
330
1F
100
AcDbEntity
  8
躯体
  6
Continuous
 62
     2
370
     9
100
AcDbLine
 10
128.8612953225031
 20
-37.45853210605446
 30
0.0
 11
128.8612953225031
 21
137.5414513979574
 31
0.0
  0
LINE
  5
378
330
1F
100
AcDbEntity
  8
躯体
  6
Continuous
 62
     2
370
     9
100
AcDbLine
 10
118.8612623305267
 20
137.5414513979574
 30
0.0
 11
128.8612953225031
 21
137.5414513979574
 31
0.0
  0
LINE
  5
379
330
1F
100
AcDbEntity
  8
躯体
  6
Continuous
 62
     2
370
     9
100
AcDbLine
 10
138.8613283144794
 20
177.5414843899337
 30
0.0
 11
118.8612623305267
 21
137.5414513979574
 31
0.0
  0
LINE
  5
37A
330
1F
100
AcDbEntity
  8
躯体
  6
Continuous
 62
     2
370
     9
100
AcDbLine
 10
128.8612953225031
 20
177.5414843899337
 30
0.0
 11
138.8613283144794
 21
177.5414843899337
 31
0.0
  0
LINE
  5
37B
330
1F
100
AcDbEntity
  8
躯体
  6
Continuous
 62
     2
370
     9
100
AcDbLine
 10
-701.1387211734852
 20
32.54145139795742
 30
0.0
 11
-700.1387178742875
 21
32.54145139795742
 31
0.0
  0
LINE
  5
37C
330
1F
100
AcDbEntity
  8
躯体
  6
Continuous
 62
     2
370
     9
100
AcDbLine
 10
-701.1387211734852
 20
282.5413854140047
 30
0.0
 11
-700.1387178742875
 21
282.5413854140047
 31
0.0
  0
LINE
  5
37D
330
1F
100
AcDbEntity
  8
躯体
  6
Continuous
 62
     2
370
     9
100
AcDbLine
 10
-701.1387211734852
 20
32.54145139795742
 30
0.0
 11
-701.1387211734852
 21
-17.45861458599529
 31
0.0
  0
LINE
  5
37E
330
1F
100
AcDbEntity
  8
躯体
  6
Continuous
 62
     2
370
     9
100
AcDbLine
 10
-701.1387211734852
 20
282.5413854140047
 30
0.0
 11
-701.1387211734852
 21
332.5414513979574
 31
0.0
  0
LINE
  5
37F
330
1F
100
AcDbEntity
  8
0-F
  6
Continuous
 62
     7
370
     9
100
AcDbLine
 10
-700.1387178742875
 20
-132.4585980900072
 30
0.0
 11
128.8612953225031
 21
-132.4585980900072
 31
0.0
  0
LINE
  5
380
330
1F
100
AcDbEntity
  8
0-F
  6
Continuous
 62
     7
370
     9
100
AcDbLine
 10
-100.1387178742875
 20
-21.45852880685675
 30
0.0
 11
-100.1387178742875
 21
-133.6585822538584
 31
0.0
  0
LINE
  5
381
330
1F
100
AcDbEntity
  8
0-F
  6
Continuous
 62
     7
370
     9
100
AcDbLine
 10
-101.1386716855206
 20
-21.45852880685675
 30
0.0
 11
-101.1386716855206
 21
-133.6585822538584
 31
0.0
  0
LINE
  5
382
330
1F
100
AcDbEntity
  8
0-F
  6
Continuous
 62
     7
370
     9
100
AcDbLine
 10
-105.1386848823111
 20
-21.45852880685675
 30
0.0
 11
-105.1386848823111
 21
-93.65859874984676
 31
0.0
  0
LINE
  5
383
330
1F
100
AcDbEntity
  8
0-F
  6
Continuous
 62
     7
370
     9
100
AcDbLine
 10
-696.1387046774969
 20
-21.45852880685675
 30
0.0
 11
-696.1387046774969
 21
-93.65859874984676
 31
0.0
  0
LINE
  5
384
330
1F
100
AcDbEntity
  8
0-F
  6
Continuous
 62
     7
370
     9
100
AcDbLine
 10
-700.1387178742875
 20
-21.45852880685675
 30
0.0
 11
-700.1387178742875
 21
-133.6585822538584
 31
0.0
  0
LINE
  5
385
330
1F
100
AcDbEntity
  8
0-F
  6
Continuous
 62
     7
370
     9
100
AcDbLine
 10
-700.1387178742875
 20
-132.4585980900072
 30
0.0
 11
-688.241415298274
 21
-134.0248921672876
 31
0.0
  0
LINE
  5
386
330
1F
100
AcDbEntity
  8
0-F
  6
Continuous
 62
     7
370
     9
100
AcDbLine
 10
-700.1387178742875
 20
-132.4585980900072
 30
0.0
 11
-688.241415298274
 21
-130.8923040127268
 31
0.0
  0
LINE
  5
387
330
1F
100
AcDbEntity
  8
0-F
  6
Continuous
 62
     7
370
     9
100
AcDbLine
 10
-696.1387046774969
 20
-92.45861458599529
 30
0.0
 11
-684.2414021014836
 21
-94.02490866327571
 31
0.0
  0
LINE
  5
388
330
1F
100
AcDbEntity
  8
0-F
  6
Continuous
 62
     7
370
     9
100
AcDbLine
 10
-696.1387046774969
 20
-92.45861458599529
 30
0.0
 11
-684.2414021014836
 21
-90.89232050871487
 31
0.0
  0
LINE
  5
389
330
1F
100
AcDbEntity
  8
0-F
  6
Continuous
 62
     7
370
     9
100
AcDbLine
 10
-696.1387046774969
 20
-92.45861458599529
 30
0.0
 11
-105.1386848823111
 21
-92.45861458599529
 31
0.0
  0
LINE
  5
38A
330
1F
100
AcDbEntity
  8
0-F
  6
Continuous
 62
     7
370
     9
100
AcDbLine
 10
541.8614206920133
 20
-17.45861458599529
 30
0.0
 11
541.8614206920133
 21
332.5414513979574
 31
0.0
  0
LINE
  5
38B
330
1F
100
AcDbEntity
  8
0-F
  6
Continuous
 62
     7
370
     9
100
AcDbLine
 10
458.8613349128748
 20
332.5414513979574
 30
0.0
 11
543.0614048558646
 21
332.5414513979574
 31
0.0
  0
LINE
  5
38C
330
1F
100
AcDbEntity
  8
0-F
  6
Continuous
 62
     7
370
     9
100
AcDbLine
 10
388.8613613064557
 20
-117.4585980900072
 30
0.0
 11
454.8613217160841
 21
-117.4585980900072
 31
0.0
  0
TEXT
  5
38D
330
1F
100
AcDbEntity
  8
0-F
  6
Continuous
 62
     2
370
   211
100
AcDbText
 10
413.36134151127
 20
-113.2025914916117
 30
0.0
 40
12.192
  1
66
 41
1.0625
  7
ＭＳ ゴシック
100
AcDbText
  0
LINE
  5
38E
330
1F
100
AcDbEntity
  8
0-F
  6
Continuous
 62
     7
370
     9
100
AcDbLine
 10
457.3610604903284
 20
362.5413490050016
 30
0.0
 11
461.3926470084872
 21
373.8438062474004
 31
0.0
  0
LINE
  5
38F
330
1F
100
AcDbEntity
  8
0-F
  6
Continuous
 62
     7
370
     9
100
AcDbLine
 10
457.3610604903284
 20
362.5413490050016
 30
0.0
 11
464.1806009780818
 21
372.4153856392923
 31
0.0
  0
LINE
  5
390
330
1F
100
AcDbEntity
  8
0-E
  6
Continuous
 62
     7
370
     9
100
AcDbLine
 10
478.7182601018351
 20
404.2209574420872
 30
0.0
 11
457.3610604903284
 21
362.5413490050016
 31
0.0
  0
TEXT
  5
391
330
1F
100
AcDbEntity
  8
0-E
  6
Continuous
 62
     7
370
     9
100
AcDbText
 10
482.3257026970932
 20
391.0934895366818
 30
0.0
 40
9.144
  1
ＳＥＣＣ
 41
1.124999999999995
  7
ＭＳ ゴシック
100
AcDbText
  0
LINE
  5
392
330
1F
100
AcDbEntity
  8
0-E
  6
Continuous
 62
     7
370
     9
100
AcDbLine
 10
478.7182601018351
 20
404.2209574420872
 30
0.0
 11
643.9718583759354
 21
404.2209574420872
 31
0.0
  0
TEXT
  5
393
330
1F
100
AcDbEntity
  8
0-E
  6
Continuous
 62
     7
370
     9
100
AcDbText
 10
482.5177061018649
 20
411.362077216158
 30
0.0
 40
9.144
  1
回転アンカー：ｔ＝２.０
 41
1.152173913043477
  7
ＭＳ ゴシック
100
AcDbText
  0
TEXT
  5
394
330
1F
100
AcDbEntity
  8
寸法
  6
Continuous
 62
     7
370
     9
100
AcDbText
 10
482.5177061018649
 20
435.9566272182711
 30
0.0
 40
9.144
  1
境界部・壁際用として使用できます
 41
1.156249999999998
  7
ＭＳ ゴシック
100
AcDbText
  0
TEXT
  5
395
330
1F
100
AcDbEntity
  8
寸法
  6
Continuous
 62
     7
370
     9
100
AcDbText
 10
482.5177061018649
 20
451.1371942128396
 30
0.0
 40
9.144
  1
アンカーを回転・変形させることで
 41
1.156249999999998
  7
ＭＳ ゴシック
100
AcDbText
  0
TEXT
  5
396
330
1F
100
AcDbEntity
  8
寸法
  6
Continuous
 62
     7
370
     9
100
AcDbText
 10
468.5177061018646
 20
451.1371942128396
 30
0.0
 40
9.144
  1
※
  7
ＭＳ ゴシック
100
AcDbText
  0
TEXT
  5
397
330
1F
100
AcDbEntity
  8
0-E
  6
Continuous
 62
     7
370
     9
100
AcDbText
 10
187.9478908846592
 20
390.1625219479994
 30
0.0
 40
9.144
  1
ＳＵＳ３０４
 41
1.138888888888889
  7
ＭＳ ゴシック
100
AcDbText
  0
TEXT
  5
398
330
1F
100
AcDbEntity
  8
0-E
  6
Continuous
 62
     7
370
     9
100
AcDbText
 10
188.3351968918384
 20
409.9476122140467
 30
0.0
 40
9.144
  1
受枠：ＴＬ６０Ｐ，ｔ＝３．０
 41
1.154761904761905
  7
ＭＳ ゴシック
100
AcDbText
  0
LINE
  5
399
330
1F
100
AcDbEntity
  8
0-E
  6
Continuous
 62
     7
370
     9
100
AcDbLine
 10
414.2629396426042
 20
332.5414513979574
 30
0.0
 11
380.8667026700078
 21
404.2209574420872
 31
0.0
  0
LINE
  5
39A
330
1F
100
AcDbEntity
  8
0-E
  6
Continuous
 62
     7
370
     9
100
AcDbLine
 10
187.4080459922463
 20
404.2209574420872
 30
0.0
 11
380.8667026700078
 21
404.2209574420872
 31
0.0
  0
TEXT
  5
39B
330
1F
100
AcDbEntity
  8
寸法
  6
Continuous
 62
     2
370
     0
100
AcDbText
 10
330.0811030878568
 20
-342.3708378311877
 30
0.0
 40
12.192
  1
仕様
 41
1.0625
  7
ＭＳ ゴシック
100
AcDbText
  0
TEXT
  5
39C
330
1F
100
AcDbEntity
  8
寸法
  6
Continuous
 62
     2
370
     0
100
AcDbText
 10
330.0811129854497
 20
-366.370818036002
 30
0.0
 40
12.192
  1
適用荷重：Ｔ－１４
 41
1.111111111111111
  7
ＭＳ ゴシック
100
AcDbText
  0
TEXT
  5
39D
330
1F
100
AcDbEntity
  8
寸法
  6
Continuous
 62
     2
370
     0
100
AcDbText
 10
330.0811129854498
 20
-414.3708403055859
 30
0.0
 40
12.192
  1
接触圧子：２００×５００ｍｍ
 41
1.116071428571429
  7
ＭＳ ゴシック
100
AcDbText
  0
TEXT
  5
39E
330
1F
100
AcDbEntity
  8
寸法
  6
Continuous
 62
     2
370
     0
100
AcDbText
 10
330.0810832926712
 20
-390.3708477287806
 30
0.0
 40
12.192
  1
破壊荷重：２４２ｋＮ（２４，７００ｋｇｆ）以上
 41
1.119565217391304
  7
ＭＳ ゴシック
100
AcDbText
  0
TEXT
  5
39F
330
1F
100
AcDbEntity
  8
寸法
  6
Continuous
 62
     2
370
     0
100
AcDbText
 10
330.0813208349008
 20
-438.3708699983647
 30
0.0
 40
12.192
  1
蓋 質 量：１５．０ｋｇ
 41
1.113636363636364
  7
ＭＳ ゴシック
100
AcDbText
  0
TEXT
  5
3A0
330
1F
100
AcDbEntity
  8
F-5ﾚｲﾔ
  6
Continuous
 62
     2
370
     9
100
AcDbText
 10
-309.3628001271063
 20
-548.1112208411942
 30
0.0
 40
12.192
  1
　　　　　　　　　　　　ＳＥＭ－１４－３５６０（Ｐ＝１０）＋ＴＬ６０Ｐ
 41
0.7742857142857144
  7
ＭＳ ゴシック
100
AcDbText
  0
ENDSEC
  0
SECTION
  2
OBJECTS
  0
DICTIONARY
  5
C
330
0
100
AcDbDictionary
281
     1
  3
ACAD_GROUP
350
D
  3
ACAD_LAYOUT
350
1A
  3
ACAD_MLEADERSTYLE
350
3A2
  3
ACAD_MLINESTYLE
350
17
  3
ACAD_PLOTSETTINGS
350
19
  3
ACAD_PLOTSTYLENAME
350
E
  3
ACAD_TABLESTYLE
350
3A1
  3
ACAD_VISUALSTYLE
350
2A
  0
DICTIONARY
  5
D
102
{ACAD_REACTORS
330
C
102
}
330
C
100
AcDbDictionary
281
     1
  0
DICTIONARY
  5
1A
102
{ACAD_REACTORS
330
C
102
}
330
C
100
AcDbDictionary
281
     1
  3
Layout1
350
1E
  3
Layout2
350
26
  3
Model
350
22
  0
DICTIONARY
  5
3A2
102
{ACAD_REACTORS
330
C
102
}
330
C
100
AcDbDictionary
281
     1
  0
DICTIONARY
  5
17
102
{ACAD_REACTORS
330
C
102
}
330
C
100
AcDbDictionary
281
     1
  3
Standard
350
18
  0
DICTIONARY
  5
19
102
{ACAD_REACTORS
330
C
102
}
330
C
100
AcDbDictionary
281
     1
  0
ACDBDICTIONARYWDFLT
  5
E
102
{ACAD_REACTORS
330
C
102
}
330
C
100
AcDbDictionary
281
     1
  3
Normal
350
F
100
AcDbDictionaryWithDefault
340
F
  0
DICTIONARY
  5
3A1
102
{ACAD_REACTORS
330
C
102
}
330
C
100
AcDbDictionary
281
     1
  0
DICTIONARY
  5
2A
102
{ACAD_REACTORS
330
C
102
}
330
C
100
AcDbDictionary
281
     1
  3
2dWireframe
350
2F
  3
3D Hidden
350
31
  3
3dWireframe
350
30
  3
Basic
350
32
  3
Brighten
350
36
  3
ColorChange
350
3A
  3
Conceptual
350
34
  3
Dim
350
35
  3
Facepattern
350
39
  3
Flat
350
2B
  3
FlatWithEdges
350
2C
  3
Gouraud
350
2D
  3
GouraudWithEdges
350
2E
  3
Linepattern
350
38
  3
Realistic
350
33
  3
Thicken
350
37
  0
LAYOUT
  5
1E
102
{ACAD_REACTORS
330
1A
102
}
330
1A
100
AcDbPlotSettings
  1

  2
none_device
  4

  6

 40
0.0
 41
0.0
 42
0.0
 43
0.0
 44
0.0
 45
0.0
 46
0.0
 47
0.0
 48
0.0
 49
0.0
140
0.0
141
0.0
142
1.0
143
1.0
 70
   688
 72
     0
 73
     0
 74
     5
  7

 75
    16
 76
     0
 77
     5
 78
   300
147
1.0
148
0.0
149
0.0
100
AcDbLayout
  1
Layout1
 70
     1
 71
     1
 10
0.0
 20
0.0
 11
420.0
 21
297.0
 12
0.0
 22
0.0
 32
0.0
 14
1.000000000000000E+20
 24
1.000000000000000E+20
 34
1.000000000000000E+20
 15
-1.000000000000000E+20
 25
-1.000000000000000E+20
 35
-1.000000000000000E+20
146
0.0
 13
0.0
 23
0.0
 33
0.0
 16
1.0
 26
0.0
 36
0.0
 17
0.0
 27
1.0
 37
0.0
 76
     0
330
1B
  0
LAYOUT
  5
26
102
{ACAD_REACTORS
330
1A
102
}
330
1A
100
AcDbPlotSettings
  1

  2
none_device
  4

  6

 40
0.0
 41
0.0
 42
0.0
 43
0.0
 44
0.0
 45
0.0
 46
0.0
 47
0.0
 48
0.0
 49
0.0
140
0.0
141
0.0
142
1.0
143
1.0
 70
   688
 72
     0
 73
     0
 74
     5
  7

 75
    16
 76
     0
 77
     5
 78
   300
147
1.0
148
0.0
149
0.0
100
AcDbLayout
  1
Layout2
 70
     1
 71
     2
 10
0.0
 20
0.0
 11
0.0
 21
0.0
 12
0.0
 22
0.0
 32
0.0
 14
0.0
 24
0.0
 34
0.0
 15
0.0
 25
0.0
 35
0.0
146
0.0
 13
0.0
 23
0.0
 33
0.0
 16
1.0
 26
0.0
 36
0.0
 17
0.0
 27
1.0
 37
0.0
 76
     0
330
23
  0
LAYOUT
  5
22
102
{ACAD_REACTORS
330
1A
102
}
330
1A
100
AcDbPlotSettings
  1

  2
none_device
  4

  6

 40
0.0
 41
0.0
 42
0.0
 43
0.0
 44
0.0
 45
0.0
 46
0.0
 47
0.0
 48
0.0
 49
0.0
140
0.0
141
0.0
142
1.0
143
1.0
 70
  1712
 72
     0
 73
     0
 74
     0
  7

 75
     0
 76
     0
 77
     5
 78
   300
147
1.0
148
0.0
149
0.0
100
AcDbLayout
  1
Model
 70
     1
 71
     0
 10
-840.0
 20
-594.0
 11
840.0
 21
594.0
 12
0.0
 22
0.0
 32
0.0
 14
-840.0
 24
-594.0
 34
0.0
 15
840.0
 25
594.0
 35
0.0
146
0.0
 13
0.0
 23
0.0
 33
0.0
 16
1.0
 26
0.0
 36
0.0
 17
0.0
 27
1.0
 37
0.0
 76
     0
330
1F
331
29
  0
MLINESTYLE
  5
18
102
{ACAD_REACTORS
330
17
102
}
330
17
100
AcDbMlineStyle
  2
Standard
 70
     0
  3

 62
   256
 51
90.0
 52
90.0
 71
     2
 49
0.5
 62
   256
  6
BYLAYER
 49
-0.5
 62
   256
  6
BYLAYER
  0
ACDBPLACEHOLDER
  5
F
102
{ACAD_REACTORS
330
E
102
}
330
E
  0
VISUALSTYLE
  5
2F
102
{ACAD_REACTORS
330
2A
102
}
330
2A
100
AcDbVisualStyle
  2
2dWireframe
 70
     4
 71
     0
 72
     2
 73
     0
 90
        0
 40
-0.6
 41
-30.0
 62
     5
 63
     7
421
 16777215
 74
     1
 91
        4
 64
     7
 65
   257
 75
     1
175
     1
 42
1.0
 92
        0
 66
   257
 43
1.0
 76
     1
 77
     6
 78
     2
 67
     7
 79
     5
170
     0
171
     0
290
     0
174
     0
 93
        1
 44
0.0
173
     0
291
     0
 45
0.0
1001
ACAD
1000
AcDbSavedByObjectVersion
1070
     0
  0
VISUALSTYLE
  5
31
102
{ACAD_REACTORS
330
2A
102
}
330
2A
100
AcDbVisualStyle
  2
3D Hidden
 70
     6
 71
     1
 72
     2
 73
     2
 90
        0
 40
-0.6
 41
-30.0
 62
     5
 63
     7
421
 16777215
 74
     2
 91
        2
 64
     7
 65
   257
 75
     2
175
     1
 42
40.0
 92
        0
 66
   257
 43
1.0
 76
     1
 77
     6
 78
     2
 67
     7
 79
     3
170
     0
171
     0
290
     0
174
     0
 93
        1
 44
0.0
173
     0
291
     0
 45
0.0
1001
ACAD
1000
AcDbSavedByObjectVersion
1070
     0
  0
VISUALSTYLE
  5
30
102
{ACAD_REACTORS
330
2A
102
}
330
2A
100
AcDbVisualStyle
  2
3dWireframe
 70
     5
 71
     0
 72
     2
 73
     0
 90
        0
 40
-0.6
 41
-30.0
 62
     5
 63
     7
421
 16777215
 74
     1
 91
        4
 64
     7
 65
   257
 75
     1
175
     1
 42
1.0
 92
        0
 66
   257
 43
1.0
 76
     1
 77
     6
 78
     2
 67
     7
 79
     5
170
     0
171
     0
290
     0
174
     0
 93
        1
 44
0.0
173
     0
291
     0
 45
0.0
1001
ACAD
1000
AcDbSavedByObjectVersion
1070
     0
  0
VISUALSTYLE
  5
32
102
{ACAD_REACTORS
330
2A
102
}
330
2A
100
AcDbVisualStyle
  2
Basic
 70
     7
 71
     1
 72
     0
 73
     1
 90
        0
 40
-0.6
 41
-30.0
 62
     5
 63
     7
421
 16777215
 74
     0
 91
        4
 64
     7
 65
   257
 75
     1
175
     1
 42
1.0
 92
        8
 66
     7
 43
1.0
 76
     1
 77
     6
 78
     2
 67
     7
 79
     5
170
     0
171
     0
290
     0
174
     0
 93
        1
 44
0.0
173
     0
291
     1
 45
0.0
1001
ACAD
1000
AcDbSavedByObjectVersion
1070
     0
  0
VISUALSTYLE
  5
36
102
{ACAD_REACTORS
330
2A
102
}
330
2A
100
AcDbVisualStyle
  2
Brighten
 70
    12
 71
     2
 72
     2
 73
     0
 90
        0
 40
-0.6
 41
-30.0
 62
     5
 63
     7
421
 16777215
 74
     1
 91
        4
 64
     7
 65
   257
 75
     1
175
     1
 42
1.0
 92
        8
 66
     7
 43
1.0
 76
     1
 77
     6
 78
     2
 67
     7
 79
     5
170
     0
171
     0
290
     0
174
     0
 93
        1
 44
50.0
173
     0
291
     1
 45
0.0
1001
ACAD
1000
AcDbSavedByObjectVersion
1070
     0
  0
VISUALSTYLE
  5
3A
102
{ACAD_REACTORS
330
2A
102
}
330
2A
100
AcDbVisualStyle
  2
ColorChange
 70
    16
 71
     2
 72
     2
 73
     3
 90
        0
 40
-0.6
 41
-30.0
 62
     5
 63
     8
421
  8421504
 74
     1
 91
        4
 64
     7
 65
   257
 75
     1
175
     1
 42
1.0
 92
        8
 66
     8
424
  8421504
 43
1.0
 76
     1
 77
     6
 78
     2
 67
     7
 79
     5
170
     0
171
     0
290
     0
174
     0
 93
        1
 44
0.0
173
     0
291
     1
 45
0.0
1001
ACAD
1000
AcDbSavedByObjectVersion
1070
     0
  0
VISUALSTYLE
  5
34
102
{ACAD_REACTORS
330
2A
102
}
330
2A
100
AcDbVisualStyle
  2
Conceptual
 70
     9
 71
     3
 72
     2
 73
     0
 90
        0
 40
-0.6
 41
-30.0
 62
     5
 63
     7
421
 16777215
 74
     2
 91
        2
 64
     7
 65
   257
 75
     1
175
     1
 42
40.0
 92
        8
 66
     7
 43
1.0
 76
     1
 77
     6
 78
     2
 67
     7
 79
     3
170
     0
171
     0
290
     0
174
     0
 93
        1
 44
0.0
173
     0
291
     0
 45
0.0
1001
ACAD
1000
AcDbSavedByObjectVersion
1070
     0
  0
VISUALSTYLE
  5
35
102
{ACAD_REACTORS
330
2A
102
}
330
2A
100
AcDbVisualStyle
  2
Dim
 70
    11
 71
     2
 72
     2
 73
     0
 90
        0
 40
-0.6
 41
-30.0
 62
     5
 63
     7
421
 16777215
 74
     1
 91
        4
 64
     7
 65
   257
 75
     1
175
     1
 42
1.0
 92
        8
 66
     7
 43
1.0
 76
     1
 77
     6
 78
     2
 67
     7
 79
     5
170
     0
171
     0
290
     0
174
     0
 93
        1
 44
-50.0
173
     0
291
     1
 45
0.0
1001
ACAD
1000
AcDbSavedByObjectVersion
1070
     0
  0
VISUALSTYLE
  5
39
102
{ACAD_REACTORS
330
2A
102
}
330
2A
100
AcDbVisualStyle
  2
Facepattern
 70
    15
 71
     2
 72
     2
 73
     0
 90
        0
 40
-0.6
 41
-30.0
 62
     5
 63
     7
421
 16777215
 74
     1
 91
        4
 64
     7
 65
   257
 75
     1
175
     1
 42
1.0
 92
        8
 66
     7
 43
1.0
 76
     1
 77
     6
 78
     2
 67
     7
 79
     5
170
     0
171
     0
290
     0
174
     0
 93
        1
 44
0.0
173
     0
291
     1
 45
0.0
1001
ACAD
1000
AcDbSavedByObjectVersion
1070
     0
  0
VISUALSTYLE
  5
2B
102
{ACAD_REACTORS
330
2A
102
}
330
2A
100
AcDbVisualStyle
  2
Flat
 70
     0
 71
     2
 72
     1
 73
     1
 90
        2
 40
-0.6
 41
30.0
 62
     5
 63
     7
421
 16777215
 74
     0
 91
        4
 64
     7
 65
   257
 75
     1
175
     1
 42
1.0
 92
        8
 66
     7
 43
1.0
 76
     1
 77
     6
 78
     2
 67
     7
 79
     5
170
     0
171
     0
290
     0
174
     0
 93
       13
 44
0.0
173
     0
291
     1
 45
0.0
1001
ACAD
1000
AcDbSavedByObjectVersion
1070
     0
  0
VISUALSTYLE
  5
2C
102
{ACAD_REACTORS
330
2A
102
}
330
2A
100
AcDbVisualStyle
  2
FlatWithEdges
 70
     1
 71
     2
 72
     1
 73
     1
 90
        2
 40
-0.6
 41
30.0
 62
     5
 63
     7
421
 16777215
 74
     1
 91
        4
 64
     7
 65
   257
 75
     1
175
     1
 42
1.0
 92
        0
 66
   257
 43
1.0
 76
     1
 77
     6
 78
     2
 67
     7
 79
     5
170
     0
171
     0
290
     0
174
     0
 93
       13
 44
0.0
173
     0
291
     1
 45
0.0
1001
ACAD
1000
AcDbSavedByObjectVersion
1070
     0
  0
VISUALSTYLE
  5
2D
102
{ACAD_REACTORS
330
2A
102
}
330
2A
100
AcDbVisualStyle
  2
Gouraud
 70
     2
 71
     2
 72
     2
 73
     1
 90
        2
 40
-0.6
 41
30.0
 62
     5
 63
     7
421
 16777215
 74
     0
 91
        4
 64
     7
 65
   257
 75
     1
175
     1
 42
1.0
 92
        0
 66
     7
 43
1.0
 76
     1
 77
     6
 78
     2
 67
     7
 79
     5
170
     0
171
     0
290
     0
174
     0
 93
       13
 44
0.0
173
     0
291
     1
 45
0.0
1001
ACAD
1000
AcDbSavedByObjectVersion
1070
     0
  0
VISUALSTYLE
  5
2E
102
{ACAD_REACTORS
330
2A
102
}
330
2A
100
AcDbVisualStyle
  2
GouraudWithEdges
 70
     3
 71
     2
 72
     2
 73
     1
 90
        2
 40
-0.6
 41
30.0
 62
     5
 63
     7
421
 16777215
 74
     1
 91
        4
 64
     7
 65
   257
 75
     1
175
     1
 42
1.0
 92
        0
 66
   257
 43
1.0
 76
     1
 77
     6
 78
     2
 67
     7
 79
     5
170
     0
171
     0
290
     0
174
     0
 93
       13
 44
0.0
173
     0
291
     1
 45
0.0
1001
ACAD
1000
AcDbSavedByObjectVersion
1070
     0
  0
VISUALSTYLE
  5
38
102
{ACAD_REACTORS
330
2A
102
}
330
2A
100
AcDbVisualStyle
  2
Linepattern
 70
    14
 71
     2
 72
     2
 73
     0
 90
        0
 40
-0.6
 41
-30.0
 62
     5
 63
     7
421
 16777215
 74
     1
 91
        4
 64
     7
 65
   257
 75
     7
175
     7
 42
1.0
 92
        8
 66
     7
 43
1.0
 76
     1
 77
     6
 78
     2
 67
     7
 79
     5
170
     0
171
     0
290
     0
174
     0
 93
        1
 44
0.0
173
     0
291
     1
 45
0.0
1001
ACAD
1000
AcDbSavedByObjectVersion
1070
     0
  0
VISUALSTYLE
  5
33
102
{ACAD_REACTORS
330
2A
102
}
330
2A
100
AcDbVisualStyle
  2
Realistic
 70
     8
 71
     2
 72
     2
 73
     0
 90
        0
 40
-0.6
 41
-30.0
 62
     5
 63
     7
421
 16777215
 74
     1
 91
        0
 64
     7
 65
   257
 75
     1
175
     1
 42
1.0
 92
        8
 66
     8
424
  7895160
 43
1.0
 76
     1
 77
     6
 78
     2
 67
     7
 79
     5
170
     0
171
     0
290
     0
174
     0
 93
       13
 44
0.0
173
     0
291
     0
 45
0.0
1001
ACAD
1000
AcDbSavedByObjectVersion
1070
     0
  0
VISUALSTYLE
  5
37
102
{ACAD_REACTORS
330
2A
102
}
330
2A
100
AcDbVisualStyle
  2
Thicken
 70
    13
 71
     2
 72
     2
 73
     0
 90
        0
 40
-0.6
 41
-30.0
 62
     5
 63
     7
421
 16777215
 74
     1
 91
        4
 64
     7
 65
   257
 75
     1
175
     1
 42
1.0
 92
       12
 66
     7
 43
1.0
 76
     1
 77
     6
 78
     2
 67
     7
 79
     5
170
     0
171
     0
290
     0
174
     0
 93
        1
 44
0.0
173
     0
291
     1
 45
0.0
1001
ACAD
1000
AcDbSavedByObjectVersion
1070
     0
  0
ENDSEC
  0
EOF
