  0
SECTION
  2
HEADER
  9
$ACADVER
  1
AC1018
  9
$ACADMAINTVER
 70
     0
  9
$DWGCODEPAGE
  3
ANSI_932
  9
$INSBASE
 10
0.0
 20
0.0
 30
0.0
  9
$EXTMIN
 10
-840.0
 20
-594.0
 30
0.0
  9
$EXTMAX
 10
840.0
 20
594.0
 30
0.0
  9
$LIMMIN
 10
-840.0
 20
-594.0
  9
$LIMMAX
 10
840.0
 20
594.0
  9
$ORTHOMODE
 70
     0
  9
$REGENMODE
 70
     1
  9
$FILLMODE
 70
     1
  9
$QTEXTMODE
 70
     0
  9
$MIRRTEXT
 70
     1
  9
$LTSCALE
 40
4.0
  9
$ATTMODE
 70
     1
  9
$TEXTSIZE
 40
2.5
  9
$TRACEWID
 40
1.0
  9
$TEXTSTYLE
  7
Standard
  9
$CLAYER
  8
0
  9
$CELTYPE
  6
ByLayer
  9
$CECOLOR
 62
   256
  9
$CELTSCALE
 40
1.0
  9
$DISPSILH
 70
     0
  9
$DIMSCALE
 40
1.0
  9
$DIMASZ
 40
2.5
  9
$DIMEXO
 40
0.625
  9
$DIMDLI
 40
3.75
  9
$DIMRND
 40
0.0
  9
$DIMDLE
 40
0.0
  9
$DIMEXE
 40
1.25
  9
$DIMTP
 40
0.0
  9
$DIMTM
 40
0.0
  9
$DIMTXT
 40
2.5
  9
$DIMCEN
 40
2.5
  9
$DIMTSZ
 40
0.0
  9
$DIMTOL
 70
     0
  9
$DIMLIM
 70
     0
  9
$DIMTIH
 70
     0
  9
$DIMTOH
 70
     0
  9
$DIMSE1
 70
     0
  9
$DIMSE2
 70
     0
  9
$DIMTAD
 70
     1
  9
$DIMZIN
 70
     8
  9
$DIMBLK
  1

  9
$DIMASO
 70
     1
  9
$DIMSHO
 70
     1
  9
$DIMPOST
  1

  9
$DIMAPOST
  1

  9
$DIMALT
 70
     0
  9
$DIMALTD
 70
     3
  9
$DIMALTF
 40
0.03937007874016
  9
$DIMLFAC
 40
1.0
  9
$DIMTOFL
 70
     1
  9
$DIMTVP
 40
0.0
  9
$DIMTIX
 70
     0
  9
$DIMSOXD
 70
     0
  9
$DIMSAH
 70
     0
  9
$DIMBLK1
  1

  9
$DIMBLK2
  1

  9
$DIMSTYLE
  2
ISO-25
  9
$DIMCLRD
 70
     0
  9
$DIMCLRE
 70
     0
  9
$DIMCLRT
 70
     0
  9
$DIMTFAC
 40
1.0
  9
$DIMGAP
 40
0.625
  9
$DIMJUST
 70
     0
  9
$DIMSD1
 70
     0
  9
$DIMSD2
 70
     0
  9
$DIMTOLJ
 70
     0
  9
$DIMTZIN
 70
     8
  9
$DIMALTZ
 70
     0
  9
$DIMALTTZ
 70
     0
  9
$DIMUPT
 70
     0
  9
$DIMDEC
 70
     2
  9
$DIMTDEC
 70
     2
  9
$DIMALTU
 70
     2
  9
$DIMALTTD
 70
     3
  9
$DIMTXSTY
  7
Standard
  9
$DIMAUNIT
 70
     0
  9
$DIMADEC
 70
     0
  9
$DIMALTRND
 40
0.0
  9
$DIMAZIN
 70
     0
  9
$DIMDSEP
 70
    44
  9
$DIMATFIT
 70
     3
  9
$DIMFRAC
 70
     0
  9
$DIMLDRBLK
  1

  9
$DIMLUNIT
 70
     2
  9
$DIMLWD
 70
    -2
  9
$DIMLWE
 70
    -2
  9
$DIMTMOVE
 70
     0
  9
$LUNITS
 70
     2
  9
$LUPREC
 70
     4
  9
$SKETCHINC
 40
1.0
  9
$FILLETRAD
 40
10.0
  9
$AUNITS
 70
     0
  9
$AUPREC
 70
     0
  9
$MENU
  1
.
  9
$ELEVATION
 40
0.0
  9
$PELEVATION
 40
0.0
  9
$THICKNESS
 40
0.0
  9
$LIMCHECK
 70
     0
  9
$CHAMFERA
 40
10.0
  9
$CHAMFERB
 40
10.0
  9
$CHAMFERC
 40
20.0
  9
$CHAMFERD
 40
0.0
  9
$SKPOLY
 70
     0
  9
$TDCREATE
 40
2457520.724493287
  9
$TDUCREATE
 40
2457520.349493287
  9
$TDUPDATE
 40
2457520.724493299
  9
$TDUUPDATE
 40
2457520.349493299
  9
$TDINDWG
 40
0.0000000116
  9
$TDUSRTIMER
 40
0.0000000116
  9
$USRTIMER
 70
     1
  9
$ANGBASE
 50
0.0
  9
$ANGDIR
 70
     0
  9
$PDMODE
 70
     0
  9
$PDSIZE
 40
0.0
  9
$PLINEWID
 40
0.0
  9
$SPLFRAME
 70
     0
  9
$SPLINETYPE
 70
     6
  9
$SPLINESEGS
 70
     8
  9
$HANDSEED
  5
385
  9
$SURFTAB1
 70
     6
  9
$SURFTAB2
 70
     6
  9
$SURFTYPE
 70
     6
  9
$SURFU
 70
     6
  9
$SURFV
 70
     6
  9
$UCSBASE
  2

  9
$UCSNAME
  2

  9
$UCSORG
 10
0.0
 20
0.0
 30
0.0
  9
$UCSXDIR
 10
1.0
 20
0.0
 30
0.0
  9
$UCSYDIR
 10
0.0
 20
1.0
 30
0.0
  9
$UCSORTHOREF
  2

  9
$UCSORTHOVIEW
 70
     0
  9
$UCSORGTOP
 10
0.0
 20
0.0
 30
0.0
  9
$UCSORGBOTTOM
 10
0.0
 20
0.0
 30
0.0
  9
$UCSORGLEFT
 10
0.0
 20
0.0
 30
0.0
  9
$UCSORGRIGHT
 10
0.0
 20
0.0
 30
0.0
  9
$UCSORGFRONT
 10
0.0
 20
0.0
 30
0.0
  9
$UCSORGBACK
 10
0.0
 20
0.0
 30
0.0
  9
$PUCSBASE
  2

  9
$PUCSNAME
  2

  9
$PUCSORG
 10
0.0
 20
0.0
 30
0.0
  9
$PUCSXDIR
 10
1.0
 20
0.0
 30
0.0
  9
$PUCSYDIR
 10
0.0
 20
1.0
 30
0.0
  9
$PUCSORTHOREF
  2

  9
$PUCSORTHOVIEW
 70
     0
  9
$PUCSORGTOP
 10
0.0
 20
0.0
 30
0.0
  9
$PUCSORGBOTTOM
 10
0.0
 20
0.0
 30
0.0
  9
$PUCSORGLEFT
 10
0.0
 20
0.0
 30
0.0
  9
$PUCSORGRIGHT
 10
0.0
 20
0.0
 30
0.0
  9
$PUCSORGFRONT
 10
0.0
 20
0.0
 30
0.0
  9
$PUCSORGBACK
 10
0.0
 20
0.0
 30
0.0
  9
$USERI1
 70
     0
  9
$USERI2
 70
     0
  9
$USERI3
 70
     0
  9
$USERI4
 70
     0
  9
$USERI5
 70
     0
  9
$USERR1
 40
0.0
  9
$USERR2
 40
0.0
  9
$USERR3
 40
0.0
  9
$USERR4
 40
0.0
  9
$USERR5
 40
0.0
  9
$WORLDVIEW
 70
     1
  9
$SHADEDGE
 70
     3
  9
$SHADEDIF
 70
    70
  9
$TILEMODE
 70
     1
  9
$MAXACTVP
 70
    64
  9
$PINSBASE
 10
0.0
 20
0.0
 30
0.0
  9
$PLIMCHECK
 70
     0
  9
$PEXTMIN
 10
1.000000000000000E+20
 20
1.000000000000000E+20
 30
1.000000000000000E+20
  9
$PEXTMAX
 10
-1.000000000000000E+20
 20
-1.000000000000000E+20
 30
-1.000000000000000E+20
  9
$PLIMMIN
 10
0.0
 20
0.0
  9
$PLIMMAX
 10
420.0
 20
297.0
  9
$UNITMODE
 70
     0
  9
$VISRETAIN
 70
     1
  9
$PLINEGEN
 70
     0
  9
$PSLTSCALE
 70
     1
  9
$TREEDEPTH
 70
  3020
  9
$CMLSTYLE
  2
Standard
  9
$CMLJUST
 70
     0
  9
$CMLSCALE
 40
20.0
  9
$PROXYGRAPHICS
 70
     1
  9
$MEASUREMENT
 70
     1
  9
$CELWEIGHT
370
    -1
  9
$ENDCAPS
280
     0
  9
$JOINSTYLE
280
     0
  9
$LWDISPLAY
290
     0
  9
$INSUNITS
 70
     4
  9
$HYPERLINKBASE
  1

  9
$STYLESHEET
  1

  9
$XEDIT
290
     1
  9
$CEPSNTYPE
380
     0
  9
$PSTYLEMODE
290
     1
  9
$FINGERPRINTGUID
  2
{E59268EC-4955-4C00-8A62-6B2ADC4B9B60}
  9
$VERSIONGUID
  2
{FAEB1C32-E019-11D5-929B-00C0DF256EC4}
  9
$EXTNAMES
290
     1
  9
$PSVPSCALE
 40
0.0
  9
$OLESTARTUP
290
     0
  9
$SORTENTS
280
   127
  9
$INDEXCTL
280
     0
  9
$HIDETEXT
280
     1
  9
$XCLIPFRAME
290
     0
  9
$HALOGAP
280
     0
  9
$OBSCOLOR
 70
   257
  9
$OBSLTYPE
280
     0
  9
$INTERSECTIONDISPLAY
280
     0
  9
$INTERSECTIONCOLOR
 70
   257
  9
$DIMASSOC
280
     2
  9
$PROJECTNAME
  1

  0
ENDSEC
  0
SECTION
  2
CLASSES
  0
CLASS
  1
ACDBDICTIONARYWDFLT
  2
AcDbDictionaryWithDefault
  3
ObjectDBX Classes
 90
        0
 91
        4
280
     0
281
     0
  0
CLASS
  1
VISUALSTYLE
  2
AcDbVisualStyle
  3
ObjectDBX Classes
 90
     4095
 91
        4
280
     0
281
     0
  0
ENDSEC
  0
SECTION
  2
TABLES
  0
TABLE
  2
VPORT
  5
8
330
0
100
AcDbSymbolTable
 70
     1
  0
VPORT
  5
29
330
8
100
AcDbSymbolTableRecord
100
AcDbViewportTableRecord
  2
*Active
 70
     0
 10
0.0
 20
0.0
 11
1.0
 21
1.0
 12
0.0
 22
0.0
 13
0.0
 23
0.0
 14
10.0
 24
10.0
 15
10.0
 25
10.0
 16
0.0
 26
0.0
 36
1.0
 17
0.0
 27
0.0
 37
0.0
 40
1306.8
 41
1.414141414141414
 42
50.0
 43
0.0
 44
0.0
 50
0.0
 51
0.0
 71
     0
 72
 10000
 73
     1
 74
     3
 75
     0
 76
     0
 77
     0
 78
     0
281
     0
 65
     1
110
0.0
120
0.0
130
0.0
111
1.0
121
0.0
131
0.0
112
0.0
122
1.0
132
0.0
 79
     0
146
0.0
  0
ENDTAB
  0
TABLE
  2
LTYPE
  5
5
330
0
100
AcDbSymbolTable
 70
     6
  0
LTYPE
  5
14
330
5
100
AcDbSymbolTableRecord
100
AcDbLinetypeTableRecord
  2
ByBlock
 70
     0
  3

 72
    65
 73
     0
 40
0.0
  0
LTYPE
  5
15
330
5
100
AcDbSymbolTableRecord
100
AcDbLinetypeTableRecord
  2
ByLayer
 70
     0
  3

 72
    65
 73
     0
 40
0.0
  0
LTYPE
  5
16
330
5
100
AcDbSymbolTableRecord
100
AcDbLinetypeTableRecord
  2
Continuous
 70
     0
  3
Solid line
 72
    65
 73
     0
 40
0.0
  0
LTYPE
  5
3C
330
5
100
AcDbSymbolTableRecord
100
AcDbLinetypeTableRecord
  2
JWW_CENTER2
 70
     0
  3
-------------  --  -------------
 72
    65
 73
     4
 40
13.54666666666667
 49
11.00666666666667
 74
     0
 49
-0.8466666666666667
 74
     0
 49
0.8466666666666667
 74
     0
 49
-0.8466666666666667
 74
     0
  0
LTYPE
  5
3D
330
5
100
AcDbSymbolTableRecord
100
AcDbLinetypeTableRecord
  2
JWW_DASHED1
 70
     0
  3
-  --  --  --  --  --  --  --  -
 72
    65
 73
     2
 40
1.693333333333333
 49
0.8466666666666667
 74
     0
 49
-0.8466666666666667
 74
     0
  0
LTYPE
  5
3E
330
5
100
AcDbSymbolTableRecord
100
AcDbLinetypeTableRecord
  2
JWW_CENTER1
 70
     0
  3
-----  --  ----------  --  -----
 72
    65
 73
     4
 40
6.773333333333333
 49
4.233333333333333
 74
     0
 49
-0.8466666666666667
 74
     0
 49
0.8466666666666667
 74
     0
 49
-0.8466666666666667
 74
     0
  0
LTYPE
  5
3F
330
5
100
AcDbSymbolTableRecord
100
AcDbLinetypeTableRecord
  2
JWW_PHANTOM2
 70
     0
  3
------------  -  -  ------------
 72
    65
 73
     6
 40
13.54666666666667
 49
10.16
 74
     0
 49
-0.8466666666666667
 74
     0
 49
0.4233333333333333
 74
     0
 49
-0.8466666666666667
 74
     0
 49
0.4233333333333333
 74
     0
 49
-0.8466666666666667
 74
     0
  0
LTYPE
  5
40
330
5
100
AcDbSymbolTableRecord
100
AcDbLinetypeTableRecord
  2
JWW_DASHED3
 70
     0
  3
---  ------  ------  ------  ---
 72
    65
 73
     2
 40
3.386666666666667
 49
2.54
 74
     0
 49
-0.8466666666666667
 74
     0
  0
ENDTAB
  0
TABLE
  2
LAYER
  5
2
330
0
100
AcDbSymbolTable
 70
     9
  0
LAYER
  5
10
330
2
100
AcDbSymbolTableRecord
100
AcDbLayerTableRecord
  2
0
 70
     0
 62
     7
  6
Continuous
370
    -3
390
F
  0
LAYER
  5
41
330
2
100
AcDbSymbolTableRecord
100
AcDbLayerTableRecord
  2
F-5ﾚｲﾔ
 70
     0
 62
     7
  6
Continuous
370
    -3
390
F
  0
LAYER
  5
42
330
2
100
AcDbSymbolTableRecord
100
AcDbLayerTableRecord
  2
寸法
 70
     0
 62
     7
  6
Continuous
370
    -3
390
F
  0
LAYER
  5
43
330
2
100
AcDbSymbolTableRecord
100
AcDbLayerTableRecord
  2
ハッチ
 70
     0
 62
     7
  6
Continuous
370
    -3
390
F
  0
LAYER
  5
44
330
2
100
AcDbSymbolTableRecord
100
AcDbLayerTableRecord
  2
その他
 70
     0
 62
     7
  6
Continuous
370
    -3
390
F
  0
LAYER
  5
45
330
2
100
AcDbSymbolTableRecord
100
AcDbLayerTableRecord
  2
躯体
 70
     0
 62
     7
  6
Continuous
370
    -3
390
F
  0
LAYER
  5
46
330
2
100
AcDbSymbolTableRecord
100
AcDbLayerTableRecord
  2
0-F
 70
     0
 62
     7
  6
Continuous
370
    -3
390
F
  0
LAYER
  5
47
330
2
100
AcDbSymbolTableRecord
100
AcDbLayerTableRecord
  2
0-E
 70
     0
 62
     7
  6
Continuous
370
    -3
390
F
  0
LAYER
  5
48
330
2
100
AcDbSymbolTableRecord
100
AcDbLayerTableRecord
  2
通り芯
 70
     0
 62
     7
  6
Continuous
370
    -3
390
F
  0
ENDTAB
  0
TABLE
  2
STYLE
  5
3
330
0
100
AcDbSymbolTable
 70
     2
  0
STYLE
  5
11
330
3
100
AcDbSymbolTableRecord
100
AcDbTextStyleTableRecord
  2
Standard
 70
     0
 40
0.0
 41
1.0
 50
0.0
 71
     0
 42
2.5
  3
txt
  4

1001
ACAD
1000

1071
        0
  0
STYLE
  5
3B
330
3
100
AcDbSymbolTableRecord
100
AcDbTextStyleTableRecord
  2
ＭＳ ゴシック
 70
     0
 40
1.0
 41
1.0
 50
0.0
 71
     0
 42
10.0
  3

  4

1001
ACAD
1000
MS Gothic
1071
    32817
  0
ENDTAB
  0
TABLE
  2
VIEW
  5
6
330
0
100
AcDbSymbolTable
 70
     0
  0
ENDTAB
  0
TABLE
  2
UCS
  5
7
330
0
100
AcDbSymbolTable
 70
     0
  0
ENDTAB
  0
TABLE
  2
APPID
  5
9
330
0
100
AcDbSymbolTable
 70
     1
  0
APPID
  5
12
330
9
100
AcDbSymbolTableRecord
100
AcDbRegAppTableRecord
  2
ACAD
 70
     0
  0
ENDTAB
  0
TABLE
  2
DIMSTYLE
  5
A
330
0
100
AcDbSymbolTable
 70
     1
100
AcDbDimStyleTable
  0
DIMSTYLE
105
27
330
A
100
AcDbSymbolTableRecord
100
AcDbDimStyleTableRecord
  2
ISO-25
 70
     0
 41
2.5
 42
0.625
 43
3.75
 44
1.25
 73
     0
 74
     0
 77
     1
 78
     8
140
2.5
141
2.5
143
0.03937007874016
147
0.625
171
     3
172
     1
271
     2
272
     2
274
     3
278
    44
283
     0
284
     8
340
11
  0
ENDTAB
  0
TABLE
  2
BLOCK_RECORD
  5
1
330
0
100
AcDbSymbolTable
 70
     1
  0
BLOCK_RECORD
  5
1F
330
1
100
AcDbSymbolTableRecord
100
AcDbBlockTableRecord
  2
*Model_Space
340
22
  0
BLOCK_RECORD
  5
1B
330
1
100
AcDbSymbolTableRecord
100
AcDbBlockTableRecord
  2
*Paper_Space
340
1E
  0
BLOCK_RECORD
  5
23
330
1
100
AcDbSymbolTableRecord
100
AcDbBlockTableRecord
  2
*Paper_Space0
340
26
  0
ENDTAB
  0
ENDSEC
  0
SECTION
  2
BLOCKS
  0
BLOCK
  5
20
330
1F
100
AcDbEntity
  8
0
100
AcDbBlockBegin
  2
*Model_Space
 70
     0
 10
0.0
 20
0.0
 30
0.0
  3
*Model_Space
  1

  0
ENDBLK
  5
21
330
1F
100
AcDbEntity
  8
0
100
AcDbBlockEnd
  0
BLOCK
  5
1C
330
1B
100
AcDbEntity
 67
     1
  8
0
100
AcDbBlockBegin
  2
*Paper_Space
 70
     0
 10
0.0
 20
0.0
 30
0.0
  3
*Paper_Space
  1

  0
ENDBLK
  5
1D
330
1B
100
AcDbEntity
 67
     1
  8
0
100
AcDbBlockEnd
  0
BLOCK
  5
24
330
23
100
AcDbEntity
  8
0
100
AcDbBlockBegin
  2
*Paper_Space0
 70
     0
 10
0.0
 20
0.0
 30
0.0
  3
*Paper_Space0
  1

  0
ENDBLK
  5
25
330
23
100
AcDbEntity
  8
0
100
AcDbBlockEnd
  0
ENDSEC
  0
SECTION
  2
ENTITIES
  0
TEXT
  5
49
330
1F
100
AcDbEntity
  8
F-5ﾚｲﾔ
  6
Continuous
 62
     2
370
     9
100
AcDbText
 10
-309.3628001271063
 20
-528.4488751053836
 30
0.0
 40
12.192
  1
タイル用　充填深さ４０ｍｍ　ステンレス目地　側溝用　カラー舗装用みぞ蓋　
 41
0.7743055555555557
  7
ＭＳ ゴシック
100
AcDbText
  0
TEXT
  5
4A
330
1F
100
AcDbEntity
  8
寸法
  6
Continuous
 62
     7
370
     9
100
AcDbText
 10
556.6091447861553
 20
83.60189036398538
 30
0.0
 40
9.144
  1
クッション：ｔ＝３．０
 41
1.151515151515152
  7
ＭＳ ゴシック
100
AcDbText
  0
TEXT
  5
4B
330
1F
100
AcDbEntity
  8
寸法
  6
Continuous
 62
     7
370
     9
100
AcDbText
 10
555.6277060720503
 20
61.52417116529409
 30
0.0
 40
9.144
  1
クロロプレンゴム
 41
1.145833333333333
  7
ＭＳ ゴシック
100
AcDbText
  0
LINE
  5
4C
330
1F
100
AcDbEntity
  8
寸法
  6
Continuous
 62
     7
370
     9
100
AcDbLine
 10
551.8620503886431
 20
76.08713645773537
 30
0.0
 11
708.5093397891782
 21
76.08713645773537
 31
0.0
  0
LINE
  5
4D
330
1F
100
AcDbEntity
  8
寸法
  6
Continuous
 62
     7
370
     9
100
AcDbLine
 10
551.8620503886431
 20
76.08713645773537
 30
0.0
 11
437.2190762943198
 21
42.64248362017793
 31
0.0
  0
LINE
  5
4E
330
1F
100
AcDbEntity
  8
寸法
  6
Continuous
 62
     7
370
     9
100
AcDbLine
 10
437.2190762943198
 20
42.64248362017793
 30
0.0
 11
449.0789659691507
 21
44.47076698166461
 31
0.0
  0
LINE
  5
4F
330
1F
100
AcDbEntity
  8
寸法
  6
Continuous
 62
     7
370
     9
100
AcDbLine
 10
437.2190762943198
 20
42.64248362017793
 30
0.0
 11
448.2016433340157
 21
47.47805161004294
 31
0.0
  0
LINE
  5
50
330
1F
100
AcDbEntity
  8
ハッチ
  6
Continuous
 62
     6
370
     9
100
AcDbLine
 10
438.7190762943198
 20
2.642427533818363
 30
0.0
 11
438.7190762943198
 21
42.64242753381836
 31
0.0
  0
LINE
  5
51
330
1F
100
AcDbEntity
  8
ハッチ
  6
Continuous
 62
     6
370
     9
100
AcDbLine
 10
438.7190762943198
 20
42.64242753381836
 30
0.0
 11
435.7190762943198
 21
42.64242753381836
 31
0.0
  0
LINE
  5
52
330
1F
100
AcDbEntity
  8
ハッチ
  6
Continuous
 62
     6
370
     9
100
AcDbLine
 10
435.7190762943198
 20
42.64242753381836
 30
0.0
 11
435.7190762943198
 21
2.642427533818363
 31
0.0
  0
LINE
  5
53
330
1F
100
AcDbEntity
  8
ハッチ
  6
Continuous
 62
     6
370
     9
100
AcDbLine
 10
437.6324778588116
 20
2.642427533818818
 30
0.0
 11
438.7190762943194
 21
3.729025969326585
 31
0.0
  0
LINE
  5
54
330
1F
100
AcDbEntity
  8
ハッチ
  6
Continuous
 62
     6
370
     9
100
AcDbLine
 10
435.7190762943189
 20
6.385880218819011
 30
0.0
 11
438.7190762943189
 21
9.385880218819466
 31
0.0
  0
LINE
  5
55
330
1F
100
AcDbEntity
  8
ハッチ
  6
Continuous
 62
     6
370
     9
100
AcDbLine
 10
435.7190762943198
 20
12.04273446830643
 30
0.0
 11
438.719076294318
 21
15.04273446830462
 31
0.0
  0
LINE
  5
56
330
1F
100
AcDbEntity
  8
ハッチ
  6
Continuous
 62
     6
370
     9
100
AcDbLine
 10
435.7190762943194
 20
17.69958871779932
 30
0.0
 11
438.7190762943198
 21
20.69958871779932
 31
0.0
  0
LINE
  5
57
330
1F
100
AcDbEntity
  8
ハッチ
  6
Continuous
 62
     6
370
     9
100
AcDbLine
 10
435.7190762943198
 20
23.35644296729311
 30
0.0
 11
438.7190762943198
 21
26.35644296729311
 31
0.0
  0
LINE
  5
58
330
1F
100
AcDbEntity
  8
ハッチ
  6
Continuous
 62
     6
370
     9
100
AcDbLine
 10
435.7190762943194
 20
29.01329721678599
 30
0.0
 11
438.7190762943194
 21
32.01329721678599
 31
0.0
  0
LINE
  5
59
330
1F
100
AcDbEntity
  8
ハッチ
  6
Continuous
 62
     6
370
     9
100
AcDbLine
 10
435.7190762943203
 20
34.67015146628023
 30
0.0
 11
438.7190762943203
 21
37.67015146628023
 31
0.0
  0
LINE
  5
5A
330
1F
100
AcDbEntity
  8
ハッチ
  6
Continuous
 62
     6
370
     9
100
AcDbLine
 10
435.7190762943198
 20
40.32700571577311
 30
0.0
 11
438.0344981123651
 21
42.64242753381791
 31
0.0
  0
LINE
  5
5B
330
1F
100
AcDbEntity
  8
ハッチ
  6
Continuous
 62
     6
370
     9
100
AcDbLine
 10
435.7190762943198
 20
2.642427533818363
 30
0.0
 11
438.7190762943198
 21
2.642427533818363
 31
0.0
  0
LINE
  5
5C
330
1F
100
AcDbEntity
  8
その他
  6
Continuous
 62
     7
370
     9
100
AcDbLine
 10
448.2188416388883
 20
-103.6577829549908
 30
0.0
 11
480.6770472997552
 21
-103.6577829549908
 31
0.0
  0
TEXT
  5
5D
330
1F
100
AcDbEntity
  8
その他
  6
Continuous
 62
     2
370
   211
100
AcDbText
 10
453.5913249471405
 20
-99.00178295499072
 30
0.0
 40
12.192
  1
6.5
 41
1.08333333333331
  7
ＭＳ ゴシック
100
AcDbText
  0
TEXT
  5
5E
330
1F
100
AcDbEntity
  8
その他
  6
Continuous
 62
     2
370
   211
100
AcDbText
 10
400.2192544509924
 20
-99.40177635659538
 30
0.0
 40
12.192
  1
66
 41
1.0625
  7
ＭＳ ゴシック
100
AcDbText
  0
LINE
  5
5F
330
1F
100
AcDbEntity
  8
その他
  6
Continuous
 62
     7
370
     9
100
AcDbLine
 10
375.7192742461782
 20
-103.6577829549908
 30
0.0
 11
441.7192346558065
 21
-103.6577829549908
 31
0.0
  0
LINE
  5
60
330
1F
100
AcDbEntity
  8
その他
  6
Continuous
 62
     7
370
     9
100
AcDbLine
 10
441.7192346558065
 20
-103.6577829549908
 30
0.0
 11
429.8219320797928
 21
-102.0914888777104
 31
0.0
  0
LINE
  5
61
330
1F
100
AcDbEntity
  8
その他
  6
Continuous
 62
     7
370
     9
100
AcDbLine
 10
441.7192346558065
 20
-103.6577829549908
 30
0.0
 11
429.8219320797928
 21
-105.2240770322712
 31
0.0
  0
LINE
  5
62
330
1F
100
AcDbEntity
  8
その他
  6
Continuous
 62
     7
370
     9
100
AcDbLine
 10
441.7192346558065
 20
-37.89351533826061
 30
0.0
 11
441.7192346558065
 21
-104.857767118842
 31
0.0
  0
LINE
  5
63
330
1F
100
AcDbEntity
  8
その他
  6
Continuous
 62
     7
370
     9
100
AcDbLine
 10
375.7192742461782
 20
-63.65774996301457
 30
0.0
 11
435.7192742461782
 21
-63.65774996301457
 31
0.0
  0
LINE
  5
64
330
1F
100
AcDbEntity
  8
その他
  6
Continuous
 62
     7
370
     9
100
AcDbLine
 10
375.7192742461782
 20
-11.85760875735582
 30
0.0
 11
375.7192742461782
 21
-104.857767118842
 31
0.0
  0
LINE
  5
65
330
1F
100
AcDbEntity
  8
その他
  6
Continuous
 62
     7
370
     9
100
AcDbLine
 10
435.7192742461782
 20
-8.85764834772749
 30
0.0
 11
435.7192742461782
 21
-64.85773412686581
 31
0.0
  0
LINE
  5
66
330
1F
100
AcDbEntity
  8
その他
  6
Continuous
 62
     7
370
     9
100
AcDbLine
 10
375.7192742461782
 20
-63.65774996301457
 30
0.0
 11
387.616576822192
 21
-62.09145588573415
 31
0.0
  0
LINE
  5
67
330
1F
100
AcDbEntity
  8
その他
  6
Continuous
 62
     7
370
     9
100
AcDbLine
 10
375.7192742461782
 20
-63.65774996301457
 30
0.0
 11
387.616576822192
 21
-65.22404404029498
 31
0.0
  0
LINE
  5
68
330
1F
100
AcDbEntity
  8
その他
  6
Continuous
 62
     7
370
     9
100
AcDbLine
 10
435.7192742461782
 20
-63.65774996301457
 30
0.0
 11
423.8219716701649
 21
-62.09145588573415
 31
0.0
  0
LINE
  5
69
330
1F
100
AcDbEntity
  8
その他
  6
Continuous
 62
     7
370
     9
100
AcDbLine
 10
435.7192742461782
 20
-63.65774996301457
 30
0.0
 11
423.8219716701649
 21
-65.22404404029498
 31
0.0
  0
LINE
  5
6A
330
1F
100
AcDbEntity
  8
その他
  6
Continuous
 62
     7
370
     9
100
AcDbLine
 10
375.7192742461782
 20
-103.6577829549908
 30
0.0
 11
387.616576822192
 21
-102.0914888777104
 31
0.0
  0
LINE
  5
6B
330
1F
100
AcDbEntity
  8
その他
  6
Continuous
 62
     7
370
     9
100
AcDbLine
 10
375.7192742461782
 20
-103.6577829549908
 30
0.0
 11
387.616576822192
 21
-105.2240770322712
 31
0.0
  0
TEXT
  5
6C
330
1F
100
AcDbEntity
  8
その他
  6
Continuous
 62
     2
370
     9
100
AcDbText
 10
397.2193237341428
 20
-59.40174336461914
 30
0.0
 40
12.192
  1
60
 41
1.0625
  7
ＭＳ ゴシック
100
AcDbText
  0
LINE
  5
6D
330
1F
100
AcDbEntity
  8
その他
  6
Continuous
 62
     7
370
     9
100
AcDbLine
 10
441.7192346558065
 20
-103.6577829549908
 30
0.0
 11
448.2188416388883
 21
-103.6577829549908
 31
0.0
  0
LINE
  5
6E
330
1F
100
AcDbEntity
  8
その他
  6
Continuous
 62
     7
370
     9
100
AcDbLine
 10
441.7192346558065
 20
-103.6577829549908
 30
0.0
 11
431.8047860420686
 21
-104.9630448771911
 31
0.0
  0
LINE
  5
6F
330
1F
100
AcDbEntity
  8
その他
  6
Continuous
 62
     7
370
     9
100
AcDbLine
 10
441.7192346558065
 20
-103.6577829549908
 30
0.0
 11
431.8047860420686
 21
-102.35252103279
 31
0.0
  0
LINE
  5
70
330
1F
100
AcDbEntity
  8
その他
  6
Continuous
 62
     7
370
     9
100
AcDbLine
 10
448.2188416388883
 20
-103.6577829549908
 30
0.0
 11
458.1332902526266
 21
-104.9630448771911
 31
0.0
  0
LINE
  5
71
330
1F
100
AcDbEntity
  8
その他
  6
Continuous
 62
     7
370
     9
100
AcDbLine
 10
448.2188416388883
 20
-103.6577829549908
 30
0.0
 11
458.1332902526266
 21
-102.35252103279
 31
0.0
  0
LINE
  5
72
330
1F
100
AcDbEntity
  8
その他
  6
Continuous
 62
     7
370
     9
100
AcDbLine
 10
448.2188416388883
 20
-104.8577829549906
 30
0.0
 11
448.2188416388883
 21
7.142450863858585
 31
0.0
  0
LINE
  5
73
330
1F
100
AcDbEntity
  8
躯体
  6
JWW_CENTER2
 62
     2
370
     9
100
AcDbLine
 10
449.7670354931425
 20
15.14245086385858
 30
0.0
 11
440.6826597508231
 21
15.14245086385858
 31
0.0
  0
LINE
  5
74
330
1F
100
AcDbEntity
  8
躯体
  6
Continuous
 62
     2
370
     9
100
AcDbLine
 10
444.2189734300506
 20
5.142417871881889
 30
0.0
 11
446.219230944209
 21
5.142417871881889
 31
0.0
  0
LINE
  5
75
330
1F
100
AcDbEntity
  8
躯体
  6
Continuous
 62
     2
370
     9
100
AcDbLine
 10
441.7192346558064
 20
5.142417871881889
 30
0.0
 11
442.2189641216002
 21
5.142417871881889
 31
0.0
  0
LINE
  5
76
330
1F
100
AcDbEntity
  8
躯体
  6
Continuous
 62
     2
370
     9
100
AcDbLine
 10
446.219230944209
 20
5.142417871881889
 30
0.0
 11
446.219230944209
 21
25.14248385583483
 31
0.0
  0
LINE
  5
77
330
1F
100
AcDbEntity
  8
躯体
  6
JWW_DASHED1
 62
     2
370
     9
100
AcDbLine
 10
446.218982738501
 20
12.89247755201063
 30
0.0
 11
444.2189734300506
 21
12.89247755201063
 31
0.0
  0
LINE
  5
78
330
1F
100
AcDbEntity
  8
躯体
  6
JWW_DASHED1
 62
     2
370
     9
100
AcDbLine
 10
444.0189526804539
 20
12.89247755201063
 30
0.0
 11
442.2189641216002
 21
11.1425313407151
 31
0.0
  0
LINE
  5
79
330
1F
100
AcDbEntity
  8
躯体
  6
JWW_DASHED1
 62
     2
370
     9
100
AcDbLine
 10
444.0189526804539
 20
12.89247755201063
 30
0.0
 11
444.2190229769295
 21
12.89247755201063
 31
0.0
  0
LINE
  5
7A
330
1F
100
AcDbEntity
  8
躯体
  6
JWW_DASHED1
 62
     2
370
     9
100
AcDbLine
 10
444.0189526804539
 20
17.39247372258501
 30
0.0
 11
444.2190229769295
 21
17.39247372258501
 31
0.0
  0
LINE
  5
7B
330
1F
100
AcDbEntity
  8
躯体
  6
JWW_DASHED1
 62
     2
370
     9
100
AcDbLine
 10
444.0189526804539
 20
12.89247755201063
 30
0.0
 11
444.0189526804539
 21
17.39247372258501
 31
0.0
  0
LINE
  5
7C
330
1F
100
AcDbEntity
  8
躯体
  6
JWW_DASHED1
 62
     2
370
     9
100
AcDbLine
 10
446.218982738501
 20
17.39247372258501
 30
0.0
 11
444.2189734300506
 21
17.39247372258501
 31
0.0
  0
LINE
  5
7D
330
1F
100
AcDbEntity
  8
躯体
  6
JWW_DASHED1
 62
     2
370
     9
100
AcDbLine
 10
444.0189526804539
 20
17.39247372258501
 30
0.0
 11
442.2189641216002
 21
19.14237038700162
 31
0.0
  0
LINE
  5
7E
330
1F
100
AcDbEntity
  8
躯体
  6
Continuous
 62
     2
370
     9
100
AcDbLine
 10
442.2189641216002
 20
25.14249740611081
 30
0.0
 11
444.2189734300506
 21
25.14249740611081
 31
0.0
  0
LINE
  5
7F
330
1F
100
AcDbEntity
  8
躯体
  6
Continuous
 62
     2
370
     9
100
AcDbLine
 10
444.2189734300506
 20
-4.862547361644602
 30
0.0
 11
444.2189734300506
 21
25.14249740611081
 31
0.0
  0
LINE
  5
80
330
1F
100
AcDbEntity
  8
躯体
  6
Continuous
 62
     2
370
     9
100
AcDbLine
 10
442.2189641216002
 20
-33.85752945878426
 30
0.0
 11
442.2189641216002
 21
25.14249740611081
 31
0.0
  0
ARC
  5
81
330
1F
100
AcDbEntity
  8
躯体
  6
Continuous
 62
     2
370
     9
100
AcDbCircle
 10
445.0189573346794
 20
-7.857557089564352
 30
0.0
 40
3.000000414701042
100
AcDbArc
 50
0.0
 51
90.0
  0
ARC
  5
82
330
1F
100
AcDbEntity
  8
躯体
  6
Continuous
 62
     2
370
     9
100
AcDbCircle
 10
445.0189573346794
 20
-30.85756504298729
 30
0.0
 40
3.000000414701042
100
AcDbArc
 50
270.0
 51
0.0
  0
LINE
  5
83
330
1F
100
AcDbEntity
  8
躯体
  6
Continuous
 62
     2
370
     9
100
AcDbLine
 10
448.0189712973548
 20
-7.857557089564352
 30
0.0
 11
448.0189712973548
 21
-30.85756504298729
 31
0.0
  0
LINE
  5
84
330
1F
100
AcDbEntity
  8
躯体
  6
Continuous
 62
     2
370
     9
100
AcDbLine
 10
445.0189573346794
 20
-4.857543126888913
 30
0.0
 11
442.2189641216002
 21
-4.857543126888913
 31
0.0
  0
LINE
  5
85
330
1F
100
AcDbEntity
  8
躯体
  6
Continuous
 62
     2
370
     9
100
AcDbLine
 10
445.0189573346794
 20
-33.85752945878426
 30
0.0
 11
442.2189641216002
 21
-33.85752945878426
 31
0.0
  0
LINE
  5
86
330
1F
100
AcDbEntity
  8
躯体
  6
JWW_DASHED1
 62
     2
370
     9
100
AcDbLine
 10
444.2189734300506
 20
-33.85252522402857
 30
0.0
 11
444.2189734300506
 21
-4.862547361644602
 31
0.0
  0
LINE
  5
87
330
1F
100
AcDbEntity
  8
躯体
  6
JWW_CENTER2
 62
     2
370
     9
100
AcDbLine
 10
446.218982738501
 20
-23.85748291653204
 30
0.0
 11
440.2190043600286
 21
-23.85748291653204
 31
0.0
  0
LINE
  5
88
330
1F
100
AcDbEntity
  8
躯体
  6
Continuous
 62
     2
370
     9
100
AcDbLine
 10
444.2189734300506
 20
-0.8575245099880249
 30
0.0
 11
442.2189641216002
 21
-0.8575245099880249
 31
0.0
  0
LINE
  5
89
330
1F
100
AcDbEntity
  8
躯体
  6
JWW_DASHED1
 62
     2
370
     9
100
AcDbLine
 10
444.2189734300506
 20
-19.60754984311257
 30
0.0
 11
442.2189641216002
 21
-19.60754984311257
 31
0.0
  0
LINE
  5
8A
330
1F
100
AcDbEntity
  8
躯体
  6
JWW_DASHED1
 62
     2
370
     9
100
AcDbLine
 10
444.2189734300506
 20
-28.1075150837089
 30
0.0
 11
442.2189641216002
 21
-28.1075150837089
 31
0.0
  0
LINE
  5
8B
330
1F
100
AcDbEntity
  8
躯体
  6
Continuous
 62
     2
370
     9
100
AcDbLine
 10
442.2189641216002
 20
8.392267758389835
 30
0.0
 11
442.2189641216002
 21
5.142417871881889
 31
0.0
  0
LINE
  5
8C
330
1F
100
AcDbEntity
  8
躯体
  6
Continuous
 62
     2
370
     9
100
AcDbLine
 10
444.2192676477827
 20
6.392459111852304
 30
0.0
 11
444.2192676477827
 21
5.142417871881889
 31
0.0
  0
LINE
  5
8D
330
1F
100
AcDbEntity
  8
躯体
  6
Continuous
 62
     2
370
     9
100
AcDbLine
 10
442.2189641216002
 20
21.89231229755774
 30
0.0
 11
442.2189641216002
 21
25.14248385583483
 31
0.0
  0
LINE
  5
8E
330
1F
100
AcDbEntity
  8
躯体
  6
Continuous
 62
     2
370
     9
100
AcDbLine
 10
444.2192676477827
 20
23.89244261586441
 30
0.0
 11
444.2192676477827
 21
25.14248385583483
 31
0.0
  0
LINE
  5
8F
330
1F
100
AcDbEntity
  8
躯体
  6
Continuous
 62
     2
370
     9
100
AcDbLine
 10
441.7192346558064
 20
25.14248385583483
 30
0.0
 11
446.219230944209
 21
25.14248385583483
 31
0.0
  0
LINE
  5
90
330
1F
100
AcDbEntity
  8
躯体
  6
Continuous
 62
     2
370
     9
100
AcDbLine
 10
442.2189641216002
 20
19.14258778056023
 30
0.0
 11
442.0187976770795
 21
19.14258778056023
 31
0.0
  0
LINE
  5
91
330
1F
100
AcDbEntity
  8
躯体
  6
Continuous
 62
     2
370
     9
100
AcDbLine
 10
442.2189641216002
 20
11.14270985087273
 30
0.0
 11
442.0187976770795
 21
11.14270985087273
 31
0.0
  0
LINE
  5
92
330
1F
100
AcDbEntity
  8
躯体
  6
Continuous
 62
     2
370
     9
100
AcDbLine
 10
442.0187976770795
 20
11.14270985087273
 30
0.0
 11
442.0187976770795
 21
15.14245086385858
 31
0.0
  0
LINE
  5
93
330
1F
100
AcDbEntity
  8
躯体
  6
Continuous
 62
     2
370
     9
100
AcDbLine
 10
442.0187976770795
 20
19.14258778056023
 30
0.0
 11
442.0187976770795
 21
15.14245086385858
 31
0.0
  0
LINE
  5
94
330
1F
100
AcDbEntity
  8
躯体
  6
Continuous
 62
     2
370
     9
100
AcDbLine
 10
446.7189604100028
 20
12.39250365102066
 30
0.0
 11
446.219230944209
 21
12.39250365102066
 31
0.0
  0
LINE
  5
95
330
1F
100
AcDbEntity
  8
躯体
  6
Continuous
 62
     2
370
     9
100
AcDbLine
 10
448.2188416388882
 20
14.142645516519
 30
0.0
 11
446.7189604100028
 21
12.39250365102066
 31
0.0
  0
LINE
  5
96
330
1F
100
AcDbEntity
  8
躯体
  6
Continuous
 62
     2
370
     9
100
AcDbLine
 10
448.2188416388882
 20
16.14242941907355
 30
0.0
 11
448.2188416388882
 21
14.142645516519
 31
0.0
  0
LINE
  5
97
330
1F
100
AcDbEntity
  8
躯体
  6
Continuous
 62
     2
370
     9
100
AcDbLine
 10
446.7189604100028
 20
17.89252179660775
 30
0.0
 11
448.2188416388882
 21
16.14242941907355
 31
0.0
  0
LINE
  5
98
330
1F
100
AcDbEntity
  8
躯体
  6
Continuous
 62
     2
370
     9
100
AcDbLine
 10
446.7189604100028
 20
17.89252179660775
 30
0.0
 11
446.219230944209
 21
17.89252179660775
 31
0.0
  0
LINE
  5
99
330
1F
100
AcDbEntity
  8
躯体
  6
Continuous
 62
     2
370
     9
100
AcDbLine
 10
446.7189604100028
 20
17.89252179660775
 30
0.0
 11
446.7189604100028
 21
12.39250365102066
 31
0.0
  0
LINE
  5
9A
330
1F
100
AcDbEntity
  8
躯体
  6
Continuous
 62
     2
370
     9
100
AcDbLine
 10
441.7192346558064
 20
5.142417871881889
 30
0.0
 11
441.7192346558064
 21
25.14248385583483
 31
0.0
  0
LINE
  5
9B
330
1F
100
AcDbEntity
  8
躯体
  6
Continuous
 62
     2
370
     9
100
AcDbLine
 10
442.2189641216002
 20
8.392267758389835
 30
0.0
 11
442.2189641216002
 21
21.89231229755774
 31
0.0
  0
LINE
  5
9C
330
1F
100
AcDbEntity
  8
その他
  6
Continuous
 62
     7
370
     9
100
AcDbLine
 10
529.7190894911104
 20
-3.857582363774554
 30
0.0
 11
529.7190894911104
 21
46.14248362017815
 31
0.0
  0
TEXT
  5
9D
330
1F
100
AcDbEntity
  8
その他
  6
Continuous
 62
     2
370
     9
100
AcDbText
 10
525.463082892715
 20
12.64245062820191
 30
0.0
 40
12.192
  1
50
 50
90.0
 41
1.0625
  7
ＭＳ ゴシック
100
AcDbText
  0
LINE
  5
9E
330
1F
100
AcDbEntity
  8
その他
  6
Continuous
 62
     7
370
     9
100
AcDbLine
 10
529.7190894911104
 20
-3.857582363774554
 30
0.0
 11
531.2853835683908
 21
8.03972021223899
 31
0.0
  0
LINE
  5
9F
330
1F
100
AcDbEntity
  8
その他
  6
Continuous
 62
     7
370
     9
100
AcDbLine
 10
529.7190894911104
 20
-3.857582363774554
 30
0.0
 11
528.15279541383
 21
8.03972021223899
 31
0.0
  0
LINE
  5
A0
330
1F
100
AcDbEntity
  8
その他
  6
Continuous
 62
     7
370
     9
100
AcDbLine
 10
528.15279541383
 20
34.24518104416484
 30
0.0
 11
531.2853835683908
 21
58.0397861961917
 31
0.0
  0
LINE
  5
A1
330
1F
100
AcDbEntity
  8
その他
  6
Continuous
 62
     7
370
     9
100
AcDbLine
 10
531.2853835683908
 20
34.24518104416484
 30
0.0
 11
528.15279541383
 21
58.0397861961917
 31
0.0
  0
LINE
  5
A2
330
1F
100
AcDbEntity
  8
その他
  6
Continuous
 62
     7
370
     9
100
AcDbLine
 10
446.7192610493877
 20
46.14248362017815
 30
0.0
 11
530.9190736549616
 21
46.14248362017815
 31
0.0
  0
LINE
  5
A3
330
1F
100
AcDbEntity
  8
その他
  6
Continuous
 62
     7
370
     9
100
AcDbLine
 10
529.7190894911104
 20
-3.857582363774554
 30
0.0
 11
529.7190894911104
 21
-33.85756545768777
 31
0.0
  0
LINE
  5
A4
330
1F
100
AcDbEntity
  8
その他
  6
Continuous
 62
     7
370
     9
100
AcDbLine
 10
529.7190894911104
 20
-3.857582363774554
 30
0.0
 11
531.0243514133111
 21
-13.77203097751249
 31
0.0
  0
LINE
  5
A5
330
1F
100
AcDbEntity
  8
その他
  6
Continuous
 62
     7
370
     9
100
AcDbLine
 10
529.7190894911104
 20
-3.857582363774554
 30
0.0
 11
528.41382756891
 21
-13.77203097751249
 31
0.0
  0
LINE
  5
A6
330
1F
100
AcDbEntity
  8
その他
  6
Continuous
 62
     7
370
     9
100
AcDbLine
 10
529.7190894911104
 20
-33.85756545768777
 30
0.0
 11
531.0243514133111
 21
-23.94311684394984
 31
0.0
  0
LINE
  5
A7
330
1F
100
AcDbEntity
  8
その他
  6
Continuous
 62
     7
370
     9
100
AcDbLine
 10
529.7190894911104
 20
-33.85756545768777
 30
0.0
 11
528.41382756891
 21
-23.94311684394984
 31
0.0
  0
LINE
  5
A8
330
1F
100
AcDbEntity
  8
その他
  6
Continuous
 62
     7
370
     9
100
AcDbLine
 10
530.9190894911106
 20
-33.85756545768777
 30
0.0
 11
453.0189573346793
 21
-33.85756545768777
 31
0.0
  0
TEXT
  5
A9
330
1F
100
AcDbEntity
  8
その他
  6
Continuous
 62
     2
370
   211
100
AcDbText
 10
525.0630894911108
 20
-27.35757391073116
 30
0.0
 40
12.192
  1
30
 50
90.0
 41
1.0625
  7
ＭＳ ゴシック
100
AcDbText
  0
LINE
  5
AA
330
1F
100
AcDbEntity
  8
その他
  6
Continuous
 62
     7
370
     9
100
AcDbLine
 10
453.0189573346793
 20
-3.857582363774554
 30
0.0
 11
530.9190736549616
 21
-3.857582363774554
 31
0.0
  0
LINE
  5
AB
330
1F
100
AcDbEntity
  8
0-F
  6
Continuous
 62
     7
370
     9
100
AcDbLine
 10
-714.280808233763
 20
350.1424968169687
 30
0.0
 11
-714.280808233763
 21
462.342500776006
 31
0.0
  0
LINE
  5
AC
330
1F
100
AcDbEntity
  8
0-F
  6
Continuous
 62
     7
370
     9
100
AcDbLine
 10
-714.280808233763
 20
421.142483620178
 30
0.0
 11
-702.3835056577494
 21
422.7087776974585
 31
0.0
  0
LINE
  5
AD
330
1F
100
AcDbEntity
  8
0-F
  6
Continuous
 62
     7
370
     9
100
AcDbLine
 10
-714.280808233763
 20
421.142483620178
 30
0.0
 11
-702.3835056577494
 21
419.5761895428976
 31
0.0
  0
LINE
  5
AE
330
1F
100
AcDbEntity
  8
0-F
  6
Continuous
 62
     7
370
     9
100
AcDbLine
 10
-602.3835221537377
 20
419.5761895428976
 30
0.0
 11
-626.1782262816937
 21
422.7087776974585
 31
0.0
  0
LINE
  5
AF
330
1F
100
AcDbEntity
  8
0-F
  6
Continuous
 62
     7
370
     9
100
AcDbLine
 10
-602.3835221537377
 20
422.7087776974585
 30
0.0
 11
-626.1782262816937
 21
419.5761895428976
 31
0.0
  0
LINE
  5
B0
330
1F
100
AcDbEntity
  8
0-F
  6
Continuous
 62
     7
370
     9
100
AcDbLine
 10
-2.383522153737424
 20
419.5761895428976
 30
0.0
 11
-26.17812730576451
 21
422.7087776974585
 31
0.0
  0
LINE
  5
B1
330
1F
100
AcDbEntity
  8
0-F
  6
Continuous
 62
     7
370
     9
100
AcDbLine
 10
-2.383522153737424
 20
422.7087776974585
 30
0.0
 11
-26.17812730576451
 21
419.5761895428976
 31
0.0
  0
LINE
  5
B2
330
1F
100
AcDbEntity
  8
0-F
  6
Continuous
 62
     7
370
     9
100
AcDbLine
 10
-714.280808233763
 20
461.1425166121545
 30
0.0
 11
-702.3835056577494
 21
462.7088106894349
 31
0.0
  0
LINE
  5
B3
330
1F
100
AcDbEntity
  8
0-F
  6
Continuous
 62
     7
370
     9
100
AcDbLine
 10
-714.280808233763
 20
461.1425166121545
 30
0.0
 11
-702.3835056577494
 21
459.5762225348741
 31
0.0
  0
LINE
  5
B4
330
1F
100
AcDbEntity
  8
0-F
  6
Continuous
 62
     7
370
     9
100
AcDbLine
 10
-714.280808233763
 20
421.142483620178
 30
0.0
 11
115.7192082622254
 21
421.142483620178
 31
0.0
  0
LINE
  5
B5
330
1F
100
AcDbEntity
  8
0-F
  6
Continuous
 62
     7
370
     9
100
AcDbLine
 10
-714.280808233763
 20
461.1425166121545
 30
0.0
 11
115.7192082622254
 21
461.1425166121545
 31
0.0
  0
TEXT
  5
B6
330
1F
100
AcDbEntity
  8
0-F
  6
Continuous
 62
     2
370
     9
100
AcDbText
 10
-676.7808519481316
 20
425.3984902185734
 30
0.0
 40
12.192
  1
100
 41
1.083333333333333
  7
ＭＳ ゴシック
100
AcDbText
  0
TEXT
  5
B7
330
1F
100
AcDbEntity
  8
0-F
  6
Continuous
 62
     2
370
     9
100
AcDbText
 10
-326.7807983361699
 20
425.3984902185734
 30
0.0
 40
12.192
  1
600
 41
1.083333333333333
  7
ＭＳ ゴシック
100
AcDbText
  0
TEXT
  5
B8
330
1F
100
AcDbEntity
  8
0-F
  6
Continuous
 62
     2
370
     9
100
AcDbText
 10
89.71921486062074
 20
425.3984902185734
 30
0.0
 40
12.192
  1
600
 41
1.083333333333333
  7
ＭＳ ゴシック
100
AcDbText
  0
TEXT
  5
B9
330
1F
100
AcDbEntity
  8
0-F
  6
Continuous
 62
     2
370
     9
100
AcDbText
 10
-186.2631723728041
 20
465.3985232105497
 30
0.0
 40
12.192
  1
2000
 41
1.09375
  7
ＭＳ ゴシック
100
AcDbText
  0
LINE
  5
BA
330
1F
100
AcDbEntity
  8
躯体
  6
JWW_CENTER2
 62
     2
370
     9
100
AcDbLine
 10
-614.2808082337631
 20
376.9229263772139
 30
0.0
 11
-614.2808082337631
 21
337.1425301624303
 31
0.0
  0
CIRCLE
  5
BB
330
1F
100
AcDbEntity
  8
躯体
  6
Continuous
 62
     2
370
     9
100
AcDbCircle
 10
-614.2808082337631
 20
366.1424174005682
 30
0.0
 40
4.249999652037749
  0
LINE
  5
BC
330
1F
100
AcDbEntity
  8
躯体
  6
JWW_DASHED1
 62
     2
370
     9
100
AcDbLine
 10
-607.5308387513412
 20
346.9965620529459
 30
0.0
 11
-607.5308387513412
 21
376.1424639428204
 31
0.0
  0
LINE
  5
BD
330
1F
100
AcDbEntity
  8
躯体
  6
Continuous
 62
     2
370
     9
100
AcDbLine
 10
-605.5308294428903
 20
347.1424776109251
 30
0.0
 11
-606.7807981005133
 21
347.1424776109251
 31
0.0
  0
LINE
  5
BE
330
1F
100
AcDbEntity
  8
躯体
  6
JWW_DASHED1
 62
     2
370
     9
100
AcDbLine
 10
-621.030777716185
 20
346.9965620529459
 30
0.0
 11
-621.030777716185
 21
376.1424639428204
 31
0.0
  0
LINE
  5
BF
330
1F
100
AcDbEntity
  8
躯体
  6
Continuous
 62
     2
370
     9
100
AcDbLine
 10
-623.0307870246359
 20
347.1424776109251
 30
0.0
 11
-621.7808183670129
 21
347.1424776109251
 31
0.0
  0
LINE
  5
C0
330
1F
100
AcDbEntity
  8
躯体
  6
Continuous
 62
     2
370
     9
100
AcDbLine
 10
-605.5308294428903
 20
347.1424776109251
 30
0.0
 11
-605.5308294428903
 21
376.1424639428204
 31
0.0
  0
LINE
  5
C1
330
1F
100
AcDbEntity
  8
躯体
  6
Continuous
 62
     2
370
     9
100
AcDbLine
 10
-614.2808082337631
 20
376.1424639428204
 30
0.0
 11
-605.5308294428903
 21
376.1424639428204
 31
0.0
  0
LINE
  5
C2
330
1F
100
AcDbEntity
  8
躯体
  6
Continuous
 62
     2
370
     9
100
AcDbLine
 10
-614.2808082337631
 20
376.1424639428204
 30
0.0
 11
-623.0307870246359
 21
376.1424639428204
 31
0.0
  0
LINE
  5
C3
330
1F
100
AcDbEntity
  8
躯体
  6
Continuous
 62
     2
370
     9
100
AcDbLine
 10
-623.0307870246359
 20
347.1424776109251
 30
0.0
 11
-623.0307870246359
 21
376.1424639428204
 31
0.0
  0
LINE
  5
C4
330
1F
100
AcDbEntity
  8
躯体
  6
JWW_CENTER2
 62
     2
370
     9
100
AcDbLine
 10
-614.2808082337631
 20
366.1424174005682
 30
0.0
 11
-608.5047322004536
 21
366.1424174005682
 31
0.0
  0
LINE
  5
C5
330
1F
100
AcDbEntity
  8
躯体
  6
JWW_CENTER2
 62
     2
370
     9
100
AcDbLine
 10
-614.2808082337631
 20
366.1424174005682
 30
0.0
 11
-620.0568842670716
 21
366.1424174005682
 31
0.0
  0
ARC
  5
C6
330
1F
100
AcDbEntity
  8
躯体
  6
Continuous
 62
     2
370
     9
100
AcDbCircle
 10
-621.7808183670129
 20
345.1424683024746
 30
0.0
 40
1.999999824868206
100
AcDbArc
 50
30.00050960355836
 51
89.99999999999999
  0
ARC
  5
C7
330
1F
100
AcDbEntity
  8
躯体
  6
Continuous
 62
     2
370
     9
100
AcDbCircle
 10
-606.7807981005133
 20
345.1424683024746
 30
0.0
 40
1.999999824868206
100
AcDbArc
 50
90.0
 51
149.9994903964416
  0
LINE
  5
C8
330
1F
100
AcDbEntity
  8
寸法
  6
Continuous
 62
     7
370
     9
100
AcDbLine
 10
-612.155808407744
 20
369.8230250653079
 30
0.0
 11
-608.3289740840935
 21
379.0618203904208
 31
0.0
  0
LINE
  5
C9
330
1F
100
AcDbEntity
  8
寸法
  6
Continuous
 62
     7
370
     9
100
AcDbLine
 10
-612.155808407744
 20
369.8230250653079
 30
0.0
 11
-606.068194117657
 21
377.7565584682203
 31
0.0
  0
LINE
  5
CA
330
1F
100
AcDbEntity
  8
寸法
  6
Continuous
 62
     7
370
     9
100
AcDbLine
 10
-612.155808407744
 20
369.8230250653079
 30
0.0
 11
-597.194970475605
 21
395.7359564875768
 31
0.0
  0
LINE
  5
CB
330
1F
100
AcDbEntity
  8
寸法
  6
Continuous
 62
     7
370
     9
100
AcDbLine
 10
-597.194970475605
 20
395.7359564875768
 30
0.0
 11
-549.4113130796056
 21
395.7359564875768
 31
0.0
  0
TEXT
  5
CC
330
1F
100
AcDbEntity
  8
寸法
  6
Continuous
 62
     2
370
     9
100
AcDbText
 10
-595.3031417776053
 20
399.991864110043
 30
0.0
 40
12.192
  1
φ8.5
 41
1.1
  7
ＭＳ ゴシック
100
AcDbText
  0
LINE
  5
CD
330
1F
100
AcDbEntity
  8
0-F
  6
Continuous
 62
     7
370
     9
100
AcDbLine
 10
-614.2808421592118
 20
384.8688484808475
 30
0.0
 11
-614.2808247297512
 21
422.3424677840295
 31
0.0
  0
LINE
  5
CE
330
1F
100
AcDbEntity
  8
0-F
  6
Continuous
 62
     7
370
     9
100
AcDbLine
 10
-14.28082472975097
 20
384.8688484808475
 30
0.0
 11
-14.28082472975097
 21
422.3424677840295
 31
0.0
  0
LINE
  5
CF
330
1F
100
AcDbEntity
  8
躯体
  6
JWW_CENTER2
 62
     2
370
     9
100
AcDbLine
 10
-14.28082472975097
 20
376.9229263772139
 30
0.0
 11
-14.28082472975097
 21
337.1425301624303
 31
0.0
  0
CIRCLE
  5
D0
330
1F
100
AcDbEntity
  8
躯体
  6
Continuous
 62
     2
370
     9
100
AcDbCircle
 10
-14.28082472975097
 20
366.1424174005682
 30
0.0
 40
4.249999652037749
  0
LINE
  5
D1
330
1F
100
AcDbEntity
  8
躯体
  6
JWW_DASHED1
 62
     2
370
     9
100
AcDbLine
 10
-7.530855247329093
 20
346.9965620529459
 30
0.0
 11
-7.530855247329093
 21
376.1424639428204
 31
0.0
  0
LINE
  5
D2
330
1F
100
AcDbEntity
  8
躯体
  6
Continuous
 62
     2
370
     9
100
AcDbLine
 10
-5.530845938878194
 20
347.1424776109251
 30
0.0
 11
-6.780814596501152
 21
347.1424776109251
 31
0.0
  0
LINE
  5
D3
330
1F
100
AcDbEntity
  8
躯体
  6
JWW_DASHED1
 62
     2
370
     9
100
AcDbLine
 10
-21.03079421217284
 20
346.9965620529459
 30
0.0
 11
-21.03079421217284
 21
376.1424639428204
 31
0.0
  0
LINE
  5
D4
330
1F
100
AcDbEntity
  8
躯体
  6
Continuous
 62
     2
370
     9
100
AcDbLine
 10
-23.03080352062374
 20
347.1424776109251
 30
0.0
 11
-21.78083486300078
 21
347.1424776109251
 31
0.0
  0
LINE
  5
D5
330
1F
100
AcDbEntity
  8
躯体
  6
Continuous
 62
     2
370
     9
100
AcDbLine
 10
-5.530845938878194
 20
347.1424776109251
 30
0.0
 11
-5.530845938878194
 21
376.1424639428204
 31
0.0
  0
LINE
  5
D6
330
1F
100
AcDbEntity
  8
躯体
  6
Continuous
 62
     2
370
     9
100
AcDbLine
 10
-14.28082472975097
 20
376.1424639428204
 30
0.0
 11
-5.530845938878194
 21
376.1424639428204
 31
0.0
  0
LINE
  5
D7
330
1F
100
AcDbEntity
  8
躯体
  6
Continuous
 62
     2
370
     9
100
AcDbLine
 10
-14.28082472975097
 20
376.1424639428204
 30
0.0
 11
-23.03080352062374
 21
376.1424639428204
 31
0.0
  0
LINE
  5
D8
330
1F
100
AcDbEntity
  8
躯体
  6
Continuous
 62
     2
370
     9
100
AcDbLine
 10
-23.03080352062374
 20
347.1424776109251
 30
0.0
 11
-23.03080352062374
 21
376.1424639428204
 31
0.0
  0
LINE
  5
D9
330
1F
100
AcDbEntity
  8
躯体
  6
JWW_CENTER2
 62
     2
370
     9
100
AcDbLine
 10
-14.28082472975097
 20
366.1424174005682
 30
0.0
 11
-8.504748696441531
 21
366.1424174005682
 31
0.0
  0
LINE
  5
DA
330
1F
100
AcDbEntity
  8
躯体
  6
JWW_CENTER2
 62
     2
370
     9
100
AcDbLine
 10
-14.28082472975097
 20
366.1424174005682
 30
0.0
 11
-20.0569007630595
 21
366.1424174005682
 31
0.0
  0
ARC
  5
DB
330
1F
100
AcDbEntity
  8
躯体
  6
Continuous
 62
     2
370
     9
100
AcDbCircle
 10
-21.78083486300078
 20
345.1424683024746
 30
0.0
 40
1.999999824868206
100
AcDbArc
 50
30.00050960355836
 51
89.99999999999999
  0
ARC
  5
DC
330
1F
100
AcDbEntity
  8
躯体
  6
Continuous
 62
     2
370
     9
100
AcDbCircle
 10
-6.780814596501152
 20
345.1424683024746
 30
0.0
 40
1.999999824868206
100
AcDbArc
 50
90.0
 51
149.9994903964416
  0
LINE
  5
DD
330
1F
100
AcDbEntity
  8
躯体
  6
JWW_CENTER2
 62
     2
370
     9
100
AcDbLine
 10
-614.2808082337631
 20
-34.63787665691666
 30
0.0
 11
-614.2808082337631
 21
5.14251955786699
 31
0.0
  0
CIRCLE
  5
DE
330
1F
100
AcDbEntity
  8
躯体
  6
Continuous
 62
     2
370
     9
100
AcDbCircle
 10
-614.2808082337631
 20
-23.85736768027095
 30
0.0
 40
4.249999652037749
  0
LINE
  5
DF
330
1F
100
AcDbEntity
  8
躯体
  6
JWW_DASHED1
 62
     2
370
     9
100
AcDbLine
 10
-607.5308387513412
 20
-4.711512332648681
 30
0.0
 11
-607.5308387513412
 21
-33.85741422252318
 31
0.0
  0
LINE
  5
E0
330
1F
100
AcDbEntity
  8
躯体
  6
Continuous
 62
     2
370
     9
100
AcDbLine
 10
-605.5308294428903
 20
-4.857427890627832
 30
0.0
 11
-606.7807981005133
 21
-4.857427890627832
 31
0.0
  0
LINE
  5
E1
330
1F
100
AcDbEntity
  8
躯体
  6
JWW_DASHED1
 62
     2
370
     9
100
AcDbLine
 10
-621.030777716185
 20
-4.711512332648681
 30
0.0
 11
-621.030777716185
 21
-33.85741422252318
 31
0.0
  0
LINE
  5
E2
330
1F
100
AcDbEntity
  8
躯体
  6
Continuous
 62
     2
370
     9
100
AcDbLine
 10
-623.0307870246359
 20
-4.857427890627832
 30
0.0
 11
-621.7808183670129
 21
-4.857427890627832
 31
0.0
  0
LINE
  5
E3
330
1F
100
AcDbEntity
  8
躯体
  6
Continuous
 62
     2
370
     9
100
AcDbLine
 10
-605.5308294428903
 20
-4.857427890627832
 30
0.0
 11
-605.5308294428903
 21
-33.85741422252318
 31
0.0
  0
LINE
  5
E4
330
1F
100
AcDbEntity
  8
躯体
  6
Continuous
 62
     2
370
     9
100
AcDbLine
 10
-614.2808082337631
 20
-33.85741422252318
 30
0.0
 11
-605.5308294428903
 21
-33.85741422252318
 31
0.0
  0
LINE
  5
E5
330
1F
100
AcDbEntity
  8
躯体
  6
Continuous
 62
     2
370
     9
100
AcDbLine
 10
-614.2808082337631
 20
-33.85741422252318
 30
0.0
 11
-623.0307870246359
 21
-33.85741422252318
 31
0.0
  0
LINE
  5
E6
330
1F
100
AcDbEntity
  8
躯体
  6
Continuous
 62
     2
370
     9
100
AcDbLine
 10
-623.0307870246359
 20
-4.857427890627832
 30
0.0
 11
-623.0307870246359
 21
-33.85741422252318
 31
0.0
  0
LINE
  5
E7
330
1F
100
AcDbEntity
  8
躯体
  6
JWW_CENTER2
 62
     2
370
     9
100
AcDbLine
 10
-614.2808082337631
 20
-23.85736768027095
 30
0.0
 11
-608.5047322004536
 21
-23.85736768027095
 31
0.0
  0
LINE
  5
E8
330
1F
100
AcDbEntity
  8
躯体
  6
JWW_CENTER2
 62
     2
370
     9
100
AcDbLine
 10
-614.2808082337631
 20
-23.85736768027095
 30
0.0
 11
-620.0568842670716
 21
-23.85736768027095
 31
0.0
  0
ARC
  5
E9
330
1F
100
AcDbEntity
  8
躯体
  6
Continuous
 62
     2
370
     9
100
AcDbCircle
 10
-621.7808183670129
 20
-2.857418582177388
 30
0.0
 40
1.999999824868206
100
AcDbArc
 50
270.0
 51
329.9994903964416
  0
ARC
  5
EA
330
1F
100
AcDbEntity
  8
躯体
  6
Continuous
 62
     2
370
     9
100
AcDbCircle
 10
-606.7807981005133
 20
-2.857418582177388
 30
0.0
 40
1.999999824868206
100
AcDbArc
 50
210.0005096035584
 51
270.0
  0
LINE
  5
EB
330
1F
100
AcDbEntity
  8
躯体
  6
JWW_CENTER2
 62
     2
370
     9
100
AcDbLine
 10
-14.28082472975094
 20
-34.63787665691666
 30
0.0
 11
-14.28082472975094
 21
5.14251955786699
 31
0.0
  0
CIRCLE
  5
EC
330
1F
100
AcDbEntity
  8
躯体
  6
Continuous
 62
     2
370
     9
100
AcDbCircle
 10
-14.28082472975094
 20
-23.85736768027095
 30
0.0
 40
4.249999652037749
  0
LINE
  5
ED
330
1F
100
AcDbEntity
  8
躯体
  6
JWW_DASHED1
 62
     2
370
     9
100
AcDbLine
 10
-7.530855247329065
 20
-4.711512332648681
 30
0.0
 11
-7.530855247329065
 21
-33.85741422252318
 31
0.0
  0
LINE
  5
EE
330
1F
100
AcDbEntity
  8
躯体
  6
Continuous
 62
     2
370
     9
100
AcDbLine
 10
-5.530845938878166
 20
-4.857427890627832
 30
0.0
 11
-6.780814596501124
 21
-4.857427890627832
 31
0.0
  0
LINE
  5
EF
330
1F
100
AcDbEntity
  8
躯体
  6
JWW_DASHED1
 62
     2
370
     9
100
AcDbLine
 10
-21.03079421217281
 20
-4.711512332648681
 30
0.0
 11
-21.03079421217281
 21
-33.85741422252318
 31
0.0
  0
LINE
  5
F0
330
1F
100
AcDbEntity
  8
躯体
  6
Continuous
 62
     2
370
     9
100
AcDbLine
 10
-23.03080352062371
 20
-4.857427890627832
 30
0.0
 11
-21.78083486300076
 21
-4.857427890627832
 31
0.0
  0
LINE
  5
F1
330
1F
100
AcDbEntity
  8
躯体
  6
Continuous
 62
     2
370
     9
100
AcDbLine
 10
-5.530845938878166
 20
-4.857427890627832
 30
0.0
 11
-5.530845938878166
 21
-33.85741422252318
 31
0.0
  0
LINE
  5
F2
330
1F
100
AcDbEntity
  8
躯体
  6
Continuous
 62
     2
370
     9
100
AcDbLine
 10
-14.28082472975094
 20
-33.85741422252318
 30
0.0
 11
-5.530845938878166
 21
-33.85741422252318
 31
0.0
  0
LINE
  5
F3
330
1F
100
AcDbEntity
  8
躯体
  6
Continuous
 62
     2
370
     9
100
AcDbLine
 10
-14.28082472975094
 20
-33.85741422252318
 30
0.0
 11
-23.03080352062371
 21
-33.85741422252318
 31
0.0
  0
LINE
  5
F4
330
1F
100
AcDbEntity
  8
躯体
  6
Continuous
 62
     2
370
     9
100
AcDbLine
 10
-23.03080352062371
 20
-4.857427890627832
 30
0.0
 11
-23.03080352062371
 21
-33.85741422252318
 31
0.0
  0
LINE
  5
F5
330
1F
100
AcDbEntity
  8
躯体
  6
JWW_CENTER2
 62
     2
370
     9
100
AcDbLine
 10
-14.28082472975094
 20
-23.85736768027095
 30
0.0
 11
-8.504748696441503
 21
-23.85736768027095
 31
0.0
  0
LINE
  5
F6
330
1F
100
AcDbEntity
  8
躯体
  6
JWW_CENTER2
 62
     2
370
     9
100
AcDbLine
 10
-14.28082472975094
 20
-23.85736768027095
 30
0.0
 11
-20.05690076305947
 21
-23.85736768027095
 31
0.0
  0
ARC
  5
F7
330
1F
100
AcDbEntity
  8
躯体
  6
Continuous
 62
     2
370
     9
100
AcDbCircle
 10
-21.78083486300076
 20
-2.857418582177388
 30
0.0
 40
1.999999824868206
100
AcDbArc
 50
270.0
 51
329.9994903964416
  0
ARC
  5
F8
330
1F
100
AcDbEntity
  8
躯体
  6
Continuous
 62
     2
370
     9
100
AcDbCircle
 10
-6.780814596501124
 20
-2.857418582177388
 30
0.0
 40
1.999999824868206
100
AcDbArc
 50
210.0005096035584
 51
270.0
  0
TEXT
  5
F9
330
1F
100
AcDbEntity
  8
寸法
  6
Continuous
 62
     2
370
     9
100
AcDbText
 10
320.4419155506671
 20
-323.9473254647197
 30
0.0
 40
12.192
  1
仕様
 41
1.0625
  7
ＭＳ ゴシック
100
AcDbText
  0
TEXT
  5
FA
330
1F
100
AcDbEntity
  8
寸法
  6
Continuous
 62
     2
370
     9
100
AcDbText
 10
320.4419254482601
 20
-347.9473056695339
 30
0.0
 40
12.192
  1
適用荷重：Ｔ－１４
 41
1.111111111111111
  7
ＭＳ ゴシック
100
AcDbText
  0
TEXT
  5
FB
330
1F
100
AcDbEntity
  8
寸法
  6
Continuous
 62
     2
370
     9
100
AcDbText
 10
320.4419254482602
 20
-395.9473155671268
 30
0.0
 40
12.192
  1
接触圧子：２００×５００ｍｍ
 41
1.116071428571426
  7
ＭＳ ゴシック
100
AcDbText
  0
TEXT
  5
FC
330
1F
100
AcDbEntity
  8
寸法
  6
Continuous
 62
     2
370
     9
100
AcDbText
 10
320.4418957554814
 20
-371.9473353623126
 30
0.0
 40
12.192
  1
破壊荷重：２４２ｋＮ（２４，７００ｋｇｆ）以上
 41
1.119565217391304
  7
ＭＳ ゴシック
100
AcDbText
  0
LINE
  5
FD
330
1F
100
AcDbEntity
  8
0-E
  6
Continuous
 62
     7
370
     9
100
AcDbLine
 10
437.7193798205025
 20
198.7746494774416
 30
0.0
 11
448.7019468601983
 21
203.6102174673065
 31
0.0
  0
LINE
  5
FE
330
1F
100
AcDbEntity
  8
0-E
  6
Continuous
 62
     7
370
     9
100
AcDbLine
 10
437.7193798205025
 20
198.7746494774416
 30
0.0
 11
449.5792694953333
 21
200.602932838928
 31
0.0
  0
LINE
  5
FF
330
1F
100
AcDbEntity
  8
躯体
  6
Continuous
 62
     2
370
     9
100
AcDbLine
 10
375.719274246178
 20
343.1425232105498
 30
0.0
 11
375.719274246178
 21
346.1424836201782
 31
0.0
  0
LINE
  5
100
330
1F
100
AcDbEntity
  8
躯体
  6
Continuous
 62
     2
370
     9
100
AcDbLine
 10
375.719274246178
 20
-0.8575724661816366
 30
0.0
 11
375.719274246178
 21
-3.857582363774554
 31
0.0
  0
LINE
  5
101
330
1F
100
AcDbEntity
  8
躯体
  6
Continuous
 62
     2
370
     9
100
AcDbLine
 10
-714.280808233763
 20
296.1424176362253
 30
0.0
 11
-714.280808233763
 21
346.1424836201782
 31
0.0
  0
LINE
  5
102
330
1F
100
AcDbEntity
  8
躯体
  6
Continuous
 62
     2
370
     9
100
AcDbLine
 10
-714.280808233763
 20
46.14248362017815
 30
0.0
 11
-714.280808233763
 21
-3.857582363774554
 31
0.0
  0
LINE
  5
103
330
1F
100
AcDbEntity
  8
躯体
  6
Continuous
 62
     2
370
     9
100
AcDbLine
 10
-714.280808233763
 20
296.1424176362253
 30
0.0
 11
-713.2808049345653
 21
296.1424176362253
 31
0.0
  0
LINE
  5
104
330
1F
100
AcDbEntity
  8
躯体
  6
Continuous
 62
     2
370
     9
100
AcDbLine
 10
-714.280808233763
 20
46.14248362017815
 30
0.0
 11
-713.2808049345653
 21
46.14248362017815
 31
0.0
  0
LINE
  5
105
330
1F
100
AcDbEntity
  8
躯体
  6
Continuous
 62
     2
370
     9
100
AcDbLine
 10
115.7192082622254
 20
191.1425166121544
 30
0.0
 11
125.7192412542017
 21
191.1425166121544
 31
0.0
  0
LINE
  5
106
330
1F
100
AcDbEntity
  8
躯体
  6
Continuous
 62
     2
370
     9
100
AcDbLine
 10
125.7192412542017
 20
191.1425166121544
 30
0.0
 11
105.719175270249
 21
151.1424836201782
 31
0.0
  0
LINE
  5
107
330
1F
100
AcDbEntity
  8
躯体
  6
Continuous
 62
     2
370
     9
100
AcDbLine
 10
105.719175270249
 20
151.1424836201782
 30
0.0
 11
115.7192082622254
 21
151.1424836201782
 31
0.0
  0
LINE
  5
108
330
1F
100
AcDbEntity
  8
躯体
  6
Continuous
 62
     2
370
     9
100
AcDbLine
 10
115.7192082622254
 20
-23.85749988383373
 30
0.0
 11
115.7192082622254
 21
151.1424836201782
 31
0.0
  0
LINE
  5
109
330
1F
100
AcDbEntity
  8
躯体
  6
Continuous
 62
     2
370
     9
100
AcDbLine
 10
115.7192082622254
 20
191.1425166121544
 30
0.0
 11
115.7192082622254
 21
366.1424506282017
 31
0.0
  0
LINE
  5
10A
330
1F
100
AcDbEntity
  8
躯体
  6
Continuous
 62
     2
370
     9
100
AcDbLine
 10
-714.280808233763
 20
346.1424836201782
 30
0.0
 11
115.7192082622254
 21
346.1424836201782
 31
0.0
  0
LINE
  5
10B
330
1F
100
AcDbEntity
  8
躯体
  6
Continuous
 62
     2
370
     9
100
AcDbLine
 10
-714.280808233763
 20
343.1425232105498
 30
0.0
 11
115.7192082622254
 21
343.1425232105498
 31
0.0
  0
LINE
  5
10C
330
1F
100
AcDbEntity
  8
躯体
  6
Continuous
 62
     2
370
     9
100
AcDbLine
 10
-714.280808233763
 20
-3.857582363774554
 30
0.0
 11
115.7192082622254
 21
-3.857582363774554
 31
0.0
  0
LINE
  5
10D
330
1F
100
AcDbEntity
  8
躯体
  6
Continuous
 62
     2
370
     9
100
AcDbLine
 10
-714.280808233763
 20
-0.8575724661816366
 30
0.0
 11
115.7192082622254
 21
-0.8575724661816366
 31
0.0
  0
LINE
  5
10E
330
1F
100
AcDbEntity
  8
通り芯
  6
Continuous
 62
     3
370
     9
100
AcDbLine
 10
393.7188387520901
 20
176.6425430057354
 30
0.0
 11
407.7188849408572
 21
175.6425891945025
 31
0.0
  0
LINE
  5
10F
330
1F
100
AcDbEntity
  8
通り芯
  6
Continuous
 62
     3
370
     9
100
AcDbLine
 10
407.7188849408572
 20
166.6425100137592
 30
0.0
 11
407.7188849408572
 21
175.6425891945025
 31
0.0
  0
LINE
  5
110
330
1F
100
AcDbEntity
  8
通り芯
  6
Continuous
 62
     3
370
     9
100
AcDbLine
 10
403.3194048944042
 20
173.7425482844517
 30
0.0
 11
398.1193085578334
 21
173.7425482844517
 31
0.0
  0
LINE
  5
111
330
1F
100
AcDbEntity
  8
通り芯
  6
Continuous
 62
     3
370
     9
100
AcDbLine
 10
398.1193085578334
 20
173.7425482844517
 30
0.0
 11
398.1193085578334
 21
168.5425509238098
 31
0.0
  0
LINE
  5
112
330
1F
100
AcDbEntity
  8
通り芯
  6
Continuous
 62
     3
370
     9
100
AcDbLine
 10
403.3194048944042
 20
173.7425482844517
 30
0.0
 11
403.3194048944042
 21
168.5425509238098
 31
0.0
  0
LINE
  5
113
330
1F
100
AcDbEntity
  8
通り芯
  6
Continuous
 62
     3
370
     9
100
AcDbLine
 10
393.7188387520901
 20
177.1425693993167
 30
0.0
 11
407.7188849408572
 21
175.6425891945025
 31
0.0
  0
LINE
  5
114
330
1F
100
AcDbEntity
  8
通り芯
  6
Continuous
 62
     3
370
     9
100
AcDbLine
 10
417.7193138365496
 20
283.2918778874922
 30
0.0
 11
417.7193138365496
 21
58.99322132076941
 31
0.0
  0
LINE
  5
115
330
1F
100
AcDbEntity
  8
通り芯
  6
Continuous
 62
     3
370
     9
100
AcDbLine
 10
437.7193798205025
 20
271.1425331081426
 30
0.0
 11
437.7193798205025
 21
71.14256610011898
 31
0.0
  0
LINE
  5
116
330
1F
100
AcDbEntity
  8
通り芯
  6
Continuous
 62
     3
370
     9
100
AcDbLine
 10
422.7193798205025
 20
286.1425331081426
 30
0.0
 11
437.7193798205025
 21
271.1425331081426
 31
0.0
  0
LINE
  5
117
330
1F
100
AcDbEntity
  8
通り芯
  6
Continuous
 62
     3
370
     9
100
AcDbLine
 10
417.5001811296242
 20
283.9166139516815
 30
0.0
 11
415.9385389210092
 21
285.86866671245
 31
0.0
  0
LINE
  5
118
330
1F
100
AcDbEntity
  8
通り芯
  6
Continuous
 62
     3
370
     9
100
AcDbLine
 10
435.7193732221071
 20
308.4294874208538
 30
0.0
 11
435.7193732221071
 21
311.7458738756679
 31
0.0
  0
LINE
  5
119
330
1F
100
AcDbEntity
  8
通り芯
  6
Continuous
 62
     3
370
     9
100
AcDbLine
 10
390.7193732221072
 20
317.1425364073402
 30
0.0
 11
390.7193732221072
 21
341.1425166121544
 31
0.0
  0
LINE
  5
11A
330
1F
100
AcDbEntity
  8
通り芯
  6
Continuous
 62
     3
370
     9
100
AcDbLine
 10
395.7193402301309
 20
313.1425232105498
 30
0.0
 11
395.7193402301309
 21
341.1425166121544
 31
0.0
  0
LINE
  5
11B
330
1F
100
AcDbEntity
  8
通り芯
  6
Continuous
 62
     3
370
     9
100
AcDbLine
 10
390.7193732221072
 20
332.1425364073402
 30
0.0
 11
375.7193732221072
 21
332.1425364073402
 31
0.0
  0
LINE
  5
11C
330
1F
100
AcDbEntity
  8
通り芯
  6
Continuous
 62
     3
370
     9
100
AcDbLine
 10
390.7193732221072
 20
328.1425232105498
 30
0.0
 11
375.7193732221072
 21
328.1425232105498
 31
0.0
  0
LINE
  5
11D
330
1F
100
AcDbEntity
  8
通り芯
  6
Continuous
 62
     3
370
     9
100
AcDbLine
 10
395.7193402301309
 20
317.1425364073402
 30
0.0
 11
375.7193732221072
 21
317.1425364073402
 31
0.0
  0
LINE
  5
11E
330
1F
100
AcDbEntity
  8
通り芯
  6
Continuous
 62
     3
370
     9
100
AcDbLine
 10
395.7193402301309
 20
313.1425232105498
 30
0.0
 11
375.7193732221072
 21
313.1425232105498
 31
0.0
  0
LINE
  5
11F
330
1F
100
AcDbEntity
  8
通り芯
  6
Continuous
 62
     3
370
     9
100
AcDbLine
 10
395.7193402301309
 20
341.1425166121544
 30
0.0
 11
390.7193732221072
 21
341.1425166121544
 31
0.0
  0
LINE
  5
120
330
1F
100
AcDbEntity
  8
通り芯
  6
Continuous
 62
     3
370
     9
100
AcDbLine
 10
375.7193732221072
 20
10.14256280092127
 30
0.0
 11
375.7193732221072
 21
332.1425364073402
 31
0.0
  0
LINE
  5
121
330
1F
100
AcDbEntity
  8
通り芯
  6
Continuous
 62
     3
370
     9
100
AcDbLine
 10
-114.2807587457983
 20
-258.8575081318279
 30
0.0
 11
-713.2807059586363
 21
-258.8575081318279
 31
0.0
  0
LINE
  5
122
330
1F
100
AcDbEntity
  8
通り芯
  6
Continuous
 62
     3
370
     9
100
AcDbLine
 10
-114.2807587457983
 20
-238.8574668918573
 30
0.0
 11
-713.2807059586363
 21
-238.8574668918573
 31
0.0
  0
LINE
  5
123
330
1F
100
AcDbEntity
  8
通り芯
  6
Continuous
 62
     3
370
     9
100
AcDbLine
 10
-713.2807059586363
 20
-258.8575081318279
 30
0.0
 11
-713.2807059586363
 21
-238.8574668918573
 31
0.0
  0
LINE
  5
124
330
1F
100
AcDbEntity
  8
通り芯
  6
Continuous
 62
     3
370
     9
100
AcDbLine
 10
-114.2807587457983
 20
-253.8574421478752
 30
0.0
 11
-713.2807059586363
 21
-253.8574421478752
 31
0.0
  0
LINE
  5
125
330
1F
100
AcDbEntity
  8
通り芯
  6
Continuous
 62
     3
370
     9
100
AcDbLine
 10
412.0184982748942
 20
307.9005600559889
 30
0.0
 11
393.7194326076647
 21
309.2729602882525
 31
0.0
  0
LINE
  5
126
330
1F
100
AcDbEntity
  8
通り芯
  6
Continuous
 62
     3
370
     9
100
AcDbLine
 10
415.7194062140833
 20
303.9117311391815
 30
0.0
 11
415.7194062140833
 21
38.37336806908024
 31
0.0
  0
LINE
  5
127
330
1F
100
AcDbEntity
  8
通り芯
  6
Continuous
 62
     3
370
     9
100
AcDbLine
 10
426.1110869573267
 20
305.6642979149416
 30
0.0
 11
434.4474335578333
 21
306.946828003624
 31
0.0
  0
LINE
  5
128
330
1F
100
AcDbEntity
  8
通り芯
  6
Continuous
 62
     3
370
     9
100
AcDbLine
 10
422.7193798205025
 20
301.7109023807355
 30
0.0
 11
422.7193798205025
 21
40.57419682752607
 31
0.0
  0
LINE
  5
129
330
1F
100
AcDbEntity
  8
通り芯
  6
Continuous
 62
     3
370
     9
100
AcDbLine
 10
404.7194194108743
 20
175.1425628009213
 30
0.0
 11
404.7194194108743
 21
167.1425364073402
 31
0.0
  0
LINE
  5
12A
330
1F
100
AcDbEntity
  8
通り芯
  6
Continuous
 62
     3
370
     9
100
AcDbLine
 10
393.7194326076647
 20
175.1425628009213
 30
0.0
 11
393.7194326076647
 21
313.1425232105498
 31
0.0
  0
LINE
  5
12B
330
1F
100
AcDbEntity
  8
通り芯
  6
Continuous
 62
     3
370
     9
100
AcDbLine
 10
391.2194985916171
 20
175.1425628009213
 30
0.0
 11
391.2194985916171
 21
167.1425364073402
 31
0.0
  0
LINE
  5
12C
330
1F
100
AcDbEntity
  8
通り芯
  6
Continuous
 62
     3
370
     9
100
AcDbLine
 10
376.7194260092692
 20
175.1425628009213
 30
0.0
 11
376.7194260092692
 21
167.1425364073402
 31
0.0
  0
LINE
  5
12D
330
1F
100
AcDbEntity
  8
通り芯
  6
Continuous
 62
     3
370
     9
100
AcDbLine
 10
404.7194194108743
 20
175.1425628009213
 30
0.0
 11
376.7194260092692
 21
175.1425628009213
 31
0.0
  0
LINE
  5
12E
330
1F
100
AcDbEntity
  8
通り芯
  6
Continuous
 62
     3
370
     9
100
AcDbLine
 10
-640.2807620449961
 20
56.14261558808357
 30
0.0
 11
-640.2807620449961
 21
286.142483620178
 31
0.0
  0
LINE
  5
12F
330
1F
100
AcDbEntity
  8
通り芯
  6
Continuous
 62
     3
370
     9
100
AcDbLine
 10
-647.2807356514148
 20
286.142483620178
 30
0.0
 11
-640.2807620449961
 21
286.142483620178
 31
0.0
  0
LINE
  5
130
330
1F
100
AcDbEntity
  8
通り芯
  6
Continuous
 62
     3
370
     9
100
AcDbLine
 10
-647.2807356514148
 20
56.14261558808357
 30
0.0
 11
-647.2807356514148
 21
286.142483620178
 31
0.0
  0
LINE
  5
131
330
1F
100
AcDbEntity
  8
通り芯
  6
Continuous
 62
     3
370
     9
100
AcDbLine
 10
-642.7807455490077
 20
58.64259909209522
 30
0.0
 11
-642.7807455490077
 21
283.6425001161663
 31
0.0
  0
LINE
  5
132
330
1F
100
AcDbEntity
  8
通り芯
  6
Continuous
 62
     3
370
     9
100
AcDbLine
 10
-644.7807768913855
 20
283.6425001161663
 30
0.0
 11
-642.7807455490077
 21
283.6425001161663
 31
0.0
  0
LINE
  5
133
330
1F
100
AcDbEntity
  8
通り芯
  6
Continuous
 62
     3
370
     9
100
AcDbLine
 10
-644.7807768913855
 20
58.64259909209522
 30
0.0
 11
-644.7807768913855
 21
283.6425001161663
 31
0.0
  0
LINE
  5
134
330
1F
100
AcDbEntity
  8
通り芯
  6
Continuous
 62
     3
370
     9
100
AcDbLine
 10
-640.2807620449961
 20
286.142483620178
 30
0.0
 11
-642.7807455490077
 21
283.6425001161663
 31
0.0
  0
LINE
  5
135
330
1F
100
AcDbEntity
  8
通り芯
  6
Continuous
 62
     3
370
     9
100
AcDbLine
 10
-647.2807356514148
 20
286.142483620178
 30
0.0
 11
-644.7807768913855
 21
283.6425001161663
 31
0.0
  0
LINE
  5
136
330
1F
100
AcDbEntity
  8
通り芯
  6
Continuous
 62
     3
370
     9
100
AcDbLine
 10
-525.2807537970018
 20
56.14261558808357
 30
0.0
 11
-525.2807537970018
 21
286.142483620178
 31
0.0
  0
LINE
  5
137
330
1F
100
AcDbEntity
  8
通り芯
  6
Continuous
 62
     3
370
     9
100
AcDbLine
 10
-532.2807521474031
 20
286.142483620178
 30
0.0
 11
-525.2807537970018
 21
286.142483620178
 31
0.0
  0
LINE
  5
138
330
1F
100
AcDbEntity
  8
通り芯
  6
Continuous
 62
     3
370
     9
100
AcDbLine
 10
-532.2807521474031
 20
56.14261558808357
 30
0.0
 11
-532.2807521474031
 21
286.142483620178
 31
0.0
  0
LINE
  5
139
330
1F
100
AcDbEntity
  8
通り芯
  6
Continuous
 62
     3
370
     9
100
AcDbLine
 10
-527.7807373010137
 20
58.64259909209522
 30
0.0
 11
-527.7807373010137
 21
283.6425001161663
 31
0.0
  0
LINE
  5
13A
330
1F
100
AcDbEntity
  8
通り芯
  6
Continuous
 62
     3
370
     9
100
AcDbLine
 10
-529.7807686433912
 20
283.6425001161663
 30
0.0
 11
-527.7807373010137
 21
283.6425001161663
 31
0.0
  0
LINE
  5
13B
330
1F
100
AcDbEntity
  8
通り芯
  6
Continuous
 62
     3
370
     9
100
AcDbLine
 10
-529.7807686433912
 20
58.64259909209522
 30
0.0
 11
-529.7807686433912
 21
283.6425001161663
 31
0.0
  0
LINE
  5
13C
330
1F
100
AcDbEntity
  8
通り芯
  6
Continuous
 62
     3
370
     9
100
AcDbLine
 10
-525.2807537970018
 20
286.142483620178
 30
0.0
 11
-527.7807373010137
 21
283.6425001161663
 31
0.0
  0
LINE
  5
13D
330
1F
100
AcDbEntity
  8
通り芯
  6
Continuous
 62
     3
370
     9
100
AcDbLine
 10
-532.2807521474031
 20
286.142483620178
 30
0.0
 11
-529.7807686433912
 21
283.6425001161663
 31
0.0
  0
LINE
  5
13E
330
1F
100
AcDbEntity
  8
通り芯
  6
Continuous
 62
     3
370
     9
100
AcDbLine
 10
-417.2807191554267
 20
56.14261558808357
 30
0.0
 11
-417.2807191554267
 21
286.142483620178
 31
0.0
  0
LINE
  5
13F
330
1F
100
AcDbEntity
  8
通り芯
  6
Continuous
 62
     3
370
     9
100
AcDbLine
 10
-414.7807851393794
 20
58.64259909209522
 30
0.0
 11
-414.7807851393794
 21
283.6425001161663
 31
0.0
  0
LINE
  5
140
330
1F
100
AcDbEntity
  8
通り芯
  6
Continuous
 62
     3
370
     9
100
AcDbLine
 10
-417.2807191554267
 20
286.142483620178
 30
0.0
 11
-414.7807851393794
 21
283.6425001161663
 31
0.0
  0
LINE
  5
141
330
1F
100
AcDbEntity
  8
通り芯
  6
Continuous
 62
     3
370
     9
100
AcDbLine
 10
-713.2808049345653
 20
10.14256280092127
 30
0.0
 11
-713.2808049345653
 21
332.1425364073402
 31
0.0
  0
LINE
  5
142
330
1F
100
AcDbEntity
  8
通り芯
  6
Continuous
 62
     3
370
     9
100
AcDbLine
 10
-709.2808041097659
 20
10.14256280092127
 30
0.0
 11
-709.2808041097659
 21
332.1425364073402
 31
0.0
  0
LINE
  5
143
330
1F
100
AcDbEntity
  8
通り芯
  6
Continuous
 62
     3
370
     9
100
AcDbLine
 10
-701.6915649377326
 20
304.6229721653639
 30
0.0
 11
-701.6915649377326
 21
37.66212704289774
 31
0.0
  0
LINE
  5
144
330
1F
100
AcDbEntity
  8
通り芯
  6
Continuous
 62
     3
370
     9
100
AcDbLine
 10
-707.7807744169871
 20
167.1425364073402
 30
0.0
 11
-707.7807744169871
 21
175.1425628009213
 31
0.0
  0
LINE
  5
145
330
1F
100
AcDbEntity
  8
通り芯
  6
Continuous
 62
     3
370
     9
100
AcDbLine
 10
-703.7807612201965
 20
167.1425364073402
 30
0.0
 11
-703.7807612201965
 21
175.1425628009213
 31
0.0
  0
LINE
  5
146
330
1F
100
AcDbEntity
  8
通り芯
  6
Continuous
 62
     3
370
     9
100
AcDbLine
 10
-709.2808041097659
 20
175.1425628009213
 30
0.0
 11
-703.7807612201965
 21
175.1425628009213
 31
0.0
  0
LINE
  5
147
330
1F
100
AcDbEntity
  8
通り芯
  6
Continuous
 62
     3
370
     9
100
AcDbLine
 10
-706.2705996914805
 20
177.1425199113521
 30
0.0
 11
-705.2705716483005
 21
176.6424935177711
 31
0.0
  0
LINE
  5
148
330
1F
100
AcDbEntity
  8
通り芯
  6
Continuous
 62
     3
370
     9
100
AcDbLine
 10
-705.2705716483005
 20
176.6424935177711
 30
0.0
 11
-702.2629653481528
 21
176.6424935177711
 31
0.0
  0
LINE
  5
149
330
1F
100
AcDbEntity
  8
通り芯
  6
Continuous
 62
     3
370
     9
100
AcDbLine
 10
-702.2629653481528
 20
176.6424935177711
 30
0.0
 11
-705.2705716483005
 21
177.1425199113521
 31
0.0
  0
LINE
  5
14A
330
1F
100
AcDbEntity
  8
通り芯
  6
Continuous
 62
     3
370
     9
100
AcDbLine
 10
-705.2705716483005
 20
177.1425199113521
 30
0.0
 11
-706.2705996914805
 21
177.1425199113521
 31
0.0
  0
LINE
  5
14B
330
1F
100
AcDbEntity
  8
通り芯
  6
Continuous
 62
     3
370
     9
100
AcDbLine
 10
-702.2629653481528
 20
165.6426056904907
 30
0.0
 11
-702.2629653481528
 21
176.6424935177711
 31
0.0
  0
LINE
  5
14C
330
1F
100
AcDbEntity
  8
通り芯
  6
Continuous
 62
     3
370
     9
100
AcDbLine
 10
-706.2705996914805
 20
177.1425199113521
 30
0.0
 11
-706.2705996914805
 21
175.1425628009213
 31
0.0
  0
LINE
  5
14D
330
1F
100
AcDbEntity
  8
通り芯
  6
Continuous
 62
     3
370
     9
100
AcDbLine
 10
-703.2629810193415
 20
305.2729470914619
 30
0.0
 11
-703.2629810193415
 21
176.8087235906173
 31
0.0
  0
LINE
  5
14E
330
1F
100
AcDbEntity
  8
通り芯
  6
Continuous
 62
     3
370
     9
100
AcDbLine
 10
-437.4938803146328
 20
-298.8574668918575
 30
0.0
 11
-390.0675843898017
 21
-298.8574668918575
 31
0.0
  0
LINE
  5
14F
330
1F
100
AcDbEntity
  8
通り芯
  6
Continuous
 62
     3
370
     9
100
AcDbLine
 10
-572.4938803146327
 20
-298.8574668918575
 30
0.0
 11
-525.0676091337839
 21
-298.8574668918575
 31
0.0
  0
LINE
  5
150
330
1F
100
AcDbEntity
  8
通り芯
  6
Continuous
 62
     3
370
     9
100
AcDbLine
 10
-705.8840863165332
 20
-298.8574668918575
 30
0.0
 11
-658.5676041849875
 21
-298.8574668918575
 31
0.0
  0
LINE
  5
151
330
1F
100
AcDbEntity
  8
通り芯
  6
Continuous
 62
     3
370
     9
100
AcDbLine
 10
-707.3802559480788
 20
-297.4642817144925
 30
0.0
 11
-710.1378737954184
 21
-258.8575081318279
 31
0.0
  0
LINE
  5
152
330
1F
100
AcDbEntity
  8
通り芯
  6
Continuous
 62
     3
370
     9
100
AcDbLine
 10
-440.3894211191091
 20
-288.4012538428708
 30
0.0
 11
-438.9764407559335
 21
-297.5855272275837
 31
0.0
  0
LINE
  5
153
330
1F
100
AcDbEntity
  8
通り芯
  6
Continuous
 62
     3
370
     9
100
AcDbLine
 10
-522.17209307329
 20
-288.4012538428708
 30
0.0
 11
-523.585023948501
 21
-297.5855272275837
 31
0.0
  0
LINE
  5
154
330
1F
100
AcDbEntity
  8
通り芯
  6
Continuous
 62
     3
370
     9
100
AcDbLine
 10
-519.2069721906885
 20
-285.8574734902527
 30
0.0
 11
-443.3545420017105
 21
-285.8574734902527
 31
0.0
  0
LINE
  5
155
330
1F
100
AcDbEntity
  8
通り芯
  6
Continuous
 62
     3
370
     9
100
AcDbLine
 10
-575.3893716311447
 20
-288.4012538428708
 30
0.0
 11
-573.9764407559335
 21
-297.5855272275837
 31
0.0
  0
LINE
  5
156
330
1F
100
AcDbEntity
  8
通り芯
  6
Continuous
 62
     3
370
     9
100
AcDbLine
 10
-655.6721128684757
 20
-288.4012538428708
 30
0.0
 11
-657.0850932316515
 21
-297.5855272275837
 31
0.0
  0
LINE
  5
157
330
1F
100
AcDbEntity
  8
通り芯
  6
Continuous
 62
     3
370
     9
100
AcDbLine
 10
-652.707041473839
 20
-285.8574734902527
 30
0.0
 11
-578.354492513746
 21
-285.8574734902527
 31
0.0
  0
LINE
  5
158
330
1F
100
AcDbEntity
  8
通り芯
  6
Continuous
 62
     3
370
     9
100
AcDbLine
 10
-712.9310734892528
 20
-258.8575081318279
 30
0.0
 11
-708.7884359786952
 21
-282.5465307115364
 31
0.0
  0
LINE
  5
159
330
1F
100
AcDbEntity
  8
通り芯
  6
Continuous
 62
     3
370
     9
100
AcDbLine
 10
410.5199037330867
 20
320.1425957928977
 30
0.0
 11
410.5199037330867
 21
334.1426419816646
 31
0.0
  0
LINE
  5
15A
330
1F
100
AcDbEntity
  8
通り芯
  6
Continuous
 62
     3
370
     9
100
AcDbLine
 10
410.5199037330867
 20
320.1425957928977
 30
0.0
 11
412.1198496262454
 21
321.6176340635902
 31
0.0
  0
LINE
  5
15B
330
1F
100
AcDbEntity
  8
通り芯
  6
Continuous
 62
     3
370
     9
100
AcDbLine
 10
410.5199037330867
 20
334.1426419816646
 30
0.0
 11
412.1198496262454
 21
332.6676037109721
 31
0.0
  0
LINE
  5
15C
330
1F
100
AcDbEntity
  8
通り芯
  6
Continuous
 62
     3
370
     9
100
AcDbLine
 10
410.5199037330867
 20
324.3801512194179
 30
0.0
 11
415.7198021177996
 21
324.3801512194179
 31
0.0
  0
LINE
  5
15D
330
1F
100
AcDbEntity
  8
通り芯
  6
Continuous
 62
     3
370
     9
100
AcDbLine
 10
410.5199037330867
 20
329.9050865551444
 30
0.0
 11
415.7198021177996
 21
329.9050865551444
 31
0.0
  0
LINE
  5
15E
330
1F
100
AcDbEntity
  8
通り芯
  6
Continuous
 62
     3
370
     9
100
AcDbLine
 10
409.7199802744722
 20
320.1425957928977
 30
0.0
 11
410.5199037330867
 21
320.1425957928977
 31
0.0
  0
LINE
  5
15F
330
1F
100
AcDbEntity
  8
通り芯
  6
Continuous
 62
     3
370
     9
100
AcDbLine
 10
412.1198496262454
 20
321.6176340635902
 30
0.0
 11
415.7198021177996
 21
321.6176340635902
 31
0.0
  0
LINE
  5
160
330
1F
100
AcDbEntity
  8
通り芯
  6
Continuous
 62
     3
370
     9
100
AcDbLine
 10
415.7198021177996
 20
321.6176340635902
 30
0.0
 11
415.7198021177996
 21
332.6676037109721
 31
0.0
  0
LINE
  5
161
330
1F
100
AcDbEntity
  8
通り芯
  6
Continuous
 62
     3
370
     9
100
AcDbLine
 10
419.71981531459
 20
324.1426089896884
 30
0.0
 11
419.71981531459
 21
330.142529808945
 31
0.0
  0
LINE
  5
162
330
1F
100
AcDbEntity
  8
通り芯
  6
Continuous
 62
     3
370
     9
100
AcDbLine
 10
419.71981531459
 20
324.1426089896884
 30
0.0
 11
420.7198681017525
 21
325.1425628009213
 31
0.0
  0
LINE
  5
163
330
1F
100
AcDbEntity
  8
通り芯
  6
Continuous
 62
     3
370
     9
100
AcDbLine
 10
420.7198681017525
 20
329.1425759977119
 30
0.0
 11
419.71981531459
 21
330.142529808945
 31
0.0
  0
LINE
  5
164
330
1F
100
AcDbEntity
  8
通り芯
  6
Continuous
 62
     3
370
     9
100
AcDbLine
 10
412.1198496262454
 20
332.6676037109721
 30
0.0
 11
415.7198021177996
 21
332.6676037109721
 31
0.0
  0
LINE
  5
165
330
1F
100
AcDbEntity
  8
通り芯
  6
Continuous
 62
     3
370
     9
100
AcDbLine
 10
420.7198681017525
 20
325.1425628009213
 30
0.0
 11
420.7198681017525
 21
329.1425759977119
 31
0.0
  0
LINE
  5
166
330
1F
100
AcDbEntity
  8
通り芯
  6
Continuous
 62
     3
370
     9
100
AcDbLine
 10
415.7198021177996
 20
330.142529808945
 30
0.0
 11
419.71981531459
 21
330.142529808945
 31
0.0
  0
LINE
  5
167
330
1F
100
AcDbEntity
  8
通り芯
  6
Continuous
 62
     3
370
     9
100
AcDbLine
 10
420.7198681017525
 20
329.1425759977119
 30
0.0
 11
415.7198021177996
 21
329.1425759977119
 31
0.0
  0
LINE
  5
168
330
1F
100
AcDbEntity
  8
通り芯
  6
Continuous
 62
     3
370
     9
100
AcDbLine
 10
415.7198021177996
 20
325.1425628009213
 30
0.0
 11
420.7198681017525
 21
325.1425628009213
 31
0.0
  0
LINE
  5
169
330
1F
100
AcDbEntity
  8
通り芯
  6
Continuous
 62
     3
370
     9
100
AcDbLine
 10
415.7198021177996
 20
324.1426089896884
 30
0.0
 11
419.71981531459
 21
324.1426089896884
 31
0.0
  0
LINE
  5
16A
330
1F
100
AcDbEntity
  8
通り芯
  6
Continuous
 62
     3
370
     9
100
AcDbLine
 10
395.7193402301309
 20
322.642628784874
 30
0.0
 11
409.7199802744722
 21
322.642628784874
 31
0.0
  0
LINE
  5
16B
330
1F
100
AcDbEntity
  8
通り芯
  6
Continuous
 62
     3
370
     9
100
AcDbLine
 10
395.7193402301309
 20
331.6426089896884
 30
0.0
 11
409.7199802744722
 21
331.6426089896884
 31
0.0
  0
LINE
  5
16C
330
1F
100
AcDbEntity
  8
通り芯
  6
Continuous
 62
     3
370
     9
100
AcDbLine
 10
395.7193402301309
 20
330.142529808945
 30
0.0
 11
409.7199802744722
 21
330.142529808945
 31
0.0
  0
LINE
  5
16D
330
1F
100
AcDbEntity
  8
通り芯
  6
Continuous
 62
     3
370
     9
100
AcDbLine
 10
409.7199802744722
 20
329.1425759977119
 30
0.0
 11
395.7193402301309
 21
329.1425759977119
 31
0.0
  0
LINE
  5
16E
330
1F
100
AcDbEntity
  8
通り芯
  6
Continuous
 62
     3
370
     9
100
AcDbLine
 10
409.7199802744722
 20
325.1425628009213
 30
0.0
 11
395.7193402301309
 21
325.1425628009213
 31
0.0
  0
LINE
  5
16F
330
1F
100
AcDbEntity
  8
通り芯
  6
Continuous
 62
     3
370
     9
100
AcDbLine
 10
395.7193402301309
 20
324.1426089896884
 30
0.0
 11
409.7199802744722
 21
324.1426089896884
 31
0.0
  0
LINE
  5
170
330
1F
100
AcDbEntity
  8
通り芯
  6
Continuous
 62
     3
370
     9
100
AcDbLine
 10
409.7199802744722
 20
334.1426419816646
 30
0.0
 11
410.5199037330867
 21
334.1426419816646
 31
0.0
  0
LINE
  5
171
330
1F
100
AcDbEntity
  8
通り芯
  6
Continuous
 62
     3
370
     9
100
AcDbLine
 10
434.3261880447421
 20
313.241994019249
 30
0.0
 11
413.4349427955867
 21
314.7342541015971
 31
0.0
  0
LINE
  5
172
330
1F
100
AcDbEntity
  8
通り芯
  6
Continuous
 62
     3
370
     9
100
AcDbLine
 10
-420.7807059586361
 20
-273.6575272671741
 30
0.0
 11
-419.3057666638726
 21
-275.2574731603329
 31
0.0
  0
LINE
  5
173
330
1F
100
AcDbEntity
  8
通り芯
  6
Continuous
 62
     3
370
     9
100
AcDbLine
 10
-416.5432495080449
 20
-273.6575272671741
 30
0.0
 11
-416.5432495080449
 21
-278.8574998838337
 31
0.0
  0
LINE
  5
174
330
1F
100
AcDbEntity
  8
通り芯
  6
Continuous
 62
     3
370
     9
100
AcDbLine
 10
-419.3057666638726
 20
-275.2574731603329
 30
0.0
 11
-419.3057666638726
 21
-278.8574998838337
 31
0.0
  0
LINE
  5
175
330
1F
100
AcDbEntity
  8
通り芯
  6
Continuous
 62
     3
370
     9
100
AcDbLine
 10
-416.7807917377747
 20
-282.8574883366421
 30
0.0
 11
-415.7807389506125
 21
-283.8574421478752
 31
0.0
  0
LINE
  5
176
330
1F
100
AcDbEntity
  8
通り芯
  6
Continuous
 62
     3
370
     9
100
AcDbLine
 10
-415.7807389506125
 20
-283.8574421478752
 30
0.0
 11
-411.780725753822
 21
-283.8574421478752
 31
0.0
  0
LINE
  5
177
330
1F
100
AcDbEntity
  8
通り芯
  6
Continuous
 62
     3
370
     9
100
AcDbLine
 10
-416.7807917377747
 20
-282.8574883366421
 30
0.0
 11
-410.7806729666598
 21
-282.8574883366421
 31
0.0
  0
LINE
  5
178
330
1F
100
AcDbEntity
  8
通り芯
  6
Continuous
 62
     3
370
     9
100
AcDbLine
 10
-419.3057666638726
 20
-278.8574998838337
 30
0.0
 11
-408.2556980405618
 21
-278.8574998838337
 31
0.0
  0
LINE
  5
179
330
1F
100
AcDbEntity
  8
通り芯
  6
Continuous
 62
     3
370
     9
100
AcDbLine
 10
-420.7807059586361
 20
-273.6575272671741
 30
0.0
 11
-406.7807587457983
 21
-273.6575272671741
 31
0.0
  0
LINE
  5
17A
330
1F
100
AcDbEntity
  8
通り芯
  6
Continuous
 62
     3
370
     9
100
AcDbLine
 10
-420.7807059586361
 20
-272.8574800886479
 30
0.0
 11
-420.7807059586361
 21
-273.6575272671741
 31
0.0
  0
LINE
  5
17B
330
1F
100
AcDbEntity
  8
通り芯
  6
Continuous
 62
     3
370
     9
100
AcDbLine
 10
-422.956543294996
 20
-272.8574800886479
 30
0.0
 11
-404.6049214094385
 21
-272.8574800886479
 31
0.0
  0
LINE
  5
17C
330
1F
100
AcDbEntity
  8
通り芯
  6
Continuous
 62
     3
370
     9
100
AcDbLine
 10
-415.7807389506125
 20
-278.8574998838337
 30
0.0
 11
-415.7807389506125
 21
-283.8574421478752
 31
0.0
  0
LINE
  5
17D
330
1F
100
AcDbEntity
  8
通り芯
  6
Continuous
 62
     3
370
     9
100
AcDbLine
 10
-416.7807917377747
 20
-278.8574998838337
 30
0.0
 11
-416.7807917377747
 21
-282.8574883366421
 31
0.0
  0
LINE
  5
17E
330
1F
100
AcDbEntity
  8
通り芯
  6
Continuous
 62
     3
370
     9
100
AcDbLine
 10
-690.7807554466007
 20
-273.6575272671741
 30
0.0
 11
-689.3057666638728
 21
-275.2574731603329
 31
0.0
  0
LINE
  5
17F
330
1F
100
AcDbEntity
  8
通り芯
  6
Continuous
 62
     3
370
     9
100
AcDbLine
 10
-686.543249508045
 20
-273.6575272671741
 30
0.0
 11
-686.543249508045
 21
-278.8574998838337
 31
0.0
  0
LINE
  5
180
330
1F
100
AcDbEntity
  8
通り芯
  6
Continuous
 62
     3
370
     9
100
AcDbLine
 10
-689.3057666638728
 20
-275.2574731603329
 30
0.0
 11
-689.3057666638728
 21
-278.8574998838337
 31
0.0
  0
LINE
  5
181
330
1F
100
AcDbEntity
  8
通り芯
  6
Continuous
 62
     3
370
     9
100
AcDbLine
 10
-686.7807917377746
 20
-282.8574883366421
 30
0.0
 11
-685.7807389506125
 21
-283.8574421478752
 31
0.0
  0
LINE
  5
182
330
1F
100
AcDbEntity
  8
通り芯
  6
Continuous
 62
     3
370
     9
100
AcDbLine
 10
-685.7807389506125
 20
-283.8574421478752
 30
0.0
 11
-681.7807257538219
 21
-283.8574421478752
 31
0.0
  0
LINE
  5
183
330
1F
100
AcDbEntity
  8
通り芯
  6
Continuous
 62
     3
370
     9
100
AcDbLine
 10
-686.7807917377746
 20
-282.8574883366421
 30
0.0
 11
-680.7806729666598
 21
-282.8574883366421
 31
0.0
  0
LINE
  5
184
330
1F
100
AcDbEntity
  8
通り芯
  6
Continuous
 62
     3
370
     9
100
AcDbLine
 10
-689.3057666638728
 20
-278.8574998838337
 30
0.0
 11
-678.2556980405619
 21
-278.8574998838337
 31
0.0
  0
LINE
  5
185
330
1F
100
AcDbEntity
  8
通り芯
  6
Continuous
 62
     3
370
     9
100
AcDbLine
 10
-690.7807554466007
 20
-273.6575272671741
 30
0.0
 11
-676.7807587457984
 21
-273.6575272671741
 31
0.0
  0
LINE
  5
186
330
1F
100
AcDbEntity
  8
通り芯
  6
Continuous
 62
     3
370
     9
100
AcDbLine
 10
-690.7807554466007
 20
-272.8574800886479
 30
0.0
 11
-690.7807554466007
 21
-273.6575272671741
 31
0.0
  0
LINE
  5
187
330
1F
100
AcDbEntity
  8
通り芯
  6
Continuous
 62
     3
370
     9
100
AcDbLine
 10
-685.7807389506125
 20
-278.8574998838337
 30
0.0
 11
-685.7807389506125
 21
-283.8574421478752
 31
0.0
  0
LINE
  5
188
330
1F
100
AcDbEntity
  8
通り芯
  6
Continuous
 62
     3
370
     9
100
AcDbLine
 10
-686.7807917377746
 20
-278.8574998838337
 30
0.0
 11
-686.7807917377746
 21
-282.8574883366421
 31
0.0
  0
LINE
  5
189
330
1F
100
AcDbEntity
  8
通り芯
  6
Continuous
 62
     3
370
     9
100
AcDbLine
 10
-676.7807587457984
 20
-273.6575272671741
 30
0.0
 11
-678.2556980405619
 21
-275.2574731603329
 31
0.0
  0
LINE
  5
18A
330
1F
100
AcDbEntity
  8
通り芯
  6
Continuous
 62
     3
370
     9
100
AcDbLine
 10
-681.0182151963896
 20
-273.6575272671741
 30
0.0
 11
-681.0182151963896
 21
-278.8574998838337
 31
0.0
  0
LINE
  5
18B
330
1F
100
AcDbEntity
  8
通り芯
  6
Continuous
 62
     3
370
     9
100
AcDbLine
 10
-678.2556980405619
 20
-275.2574731603329
 30
0.0
 11
-678.2556980405619
 21
-278.8574998838337
 31
0.0
  0
LINE
  5
18C
330
1F
100
AcDbEntity
  8
通り芯
  6
Continuous
 62
     3
370
     9
100
AcDbLine
 10
-680.7806729666598
 20
-282.8574883366421
 30
0.0
 11
-681.7807257538219
 21
-283.8574421478752
 31
0.0
  0
LINE
  5
18D
330
1F
100
AcDbEntity
  8
通り芯
  6
Continuous
 62
     3
370
     9
100
AcDbLine
 10
-676.7807587457984
 20
-272.8574800886479
 30
0.0
 11
-676.7807587457984
 21
-273.6575272671741
 31
0.0
  0
LINE
  5
18E
330
1F
100
AcDbEntity
  8
通り芯
  6
Continuous
 62
     3
370
     9
100
AcDbLine
 10
-674.6049214094386
 20
-272.8574800886479
 30
0.0
 11
-692.9565432949961
 21
-272.8574800886479
 31
0.0
  0
LINE
  5
18F
330
1F
100
AcDbEntity
  8
通り芯
  6
Continuous
 62
     3
370
     9
100
AcDbLine
 10
-681.7807257538219
 20
-278.8574998838337
 30
0.0
 11
-681.7807257538219
 21
-283.8574421478752
 31
0.0
  0
LINE
  5
190
330
1F
100
AcDbEntity
  8
通り芯
  6
Continuous
 62
     3
370
     9
100
AcDbLine
 10
-680.7806729666598
 20
-278.8574998838337
 30
0.0
 11
-680.7806729666598
 21
-282.8574883366421
 31
0.0
  0
LINE
  5
191
330
1F
100
AcDbEntity
  8
通り芯
  6
Continuous
 62
     3
370
     9
100
AcDbLine
 10
408.4058768644213
 20
337.3068034575936
 30
0.0
 11
395.7193402301309
 21
338.8924968169686
 31
0.0
  0
LINE
  5
192
330
1F
100
AcDbEntity
  8
通り芯
  6
Continuous
 62
     3
370
     9
100
AcDbLine
 10
409.7199802744722
 20
335.8183044605498
 30
0.0
 11
409.7199802744722
 21
318.724072777695
 31
0.0
  0
LINE
  5
193
330
1F
100
AcDbEntity
  8
通り芯
  6
Continuous
 62
     3
370
     9
100
AcDbLine
 10
-696.2807488482055
 20
-253.8574421478752
 30
0.0
 11
-696.2807488482055
 21
-258.8575081318279
 31
0.0
  0
LINE
  5
194
330
1F
100
AcDbEntity
  8
通り芯
  6
Continuous
 62
     3
370
     9
100
AcDbLine
 10
-671.2807653441936
 20
-253.8574421478752
 30
0.0
 11
-671.2807653441936
 21
-258.8575081318279
 31
0.0
  0
LINE
  5
195
330
1F
100
AcDbEntity
  8
通り芯
  6
Continuous
 62
     3
370
     9
100
AcDbLine
 10
-561.2807983361699
 20
-253.8574421478752
 30
0.0
 11
-561.2807983361699
 21
-258.8575081318279
 31
0.0
  0
LINE
  5
196
330
1F
100
AcDbEntity
  8
通り芯
  6
Continuous
 62
     3
370
     9
100
AcDbLine
 10
-536.2807653441936
 20
-253.8574421478752
 30
0.0
 11
-536.2807653441936
 21
-258.8575081318279
 31
0.0
  0
LINE
  5
197
330
1F
100
AcDbEntity
  8
通り芯
  6
Continuous
 62
     3
370
     9
100
AcDbLine
 10
-426.2807983361699
 20
-253.8574421478752
 30
0.0
 11
-426.2807983361699
 21
-258.8575081318279
 31
0.0
  0
LINE
  5
198
330
1F
100
AcDbEntity
  8
通り芯
  6
Continuous
 62
     3
370
     9
100
AcDbLine
 10
-424.4449928040754
 20
-271.5435003985085
 30
0.0
 11
-426.0307356514149
 21
-258.8575081318279
 31
0.0
  0
LINE
  5
199
330
1F
100
AcDbEntity
  8
通り芯
  6
Continuous
 62
     3
370
     9
100
AcDbLine
 10
-694.4449928040755
 20
-271.5435003985085
 30
0.0
 11
-696.0307356514148
 21
-258.8575081318279
 31
0.0
  0
LINE
  5
19A
330
1F
100
AcDbEntity
  8
通り芯
  6
Continuous
 62
     3
370
     9
100
AcDbLine
 10
-673.1164719003592
 20
-271.5435003985085
 30
0.0
 11
-671.5307785409842
 21
-258.8575081318279
 31
0.0
  0
LINE
  5
19B
330
1F
100
AcDbEntity
  8
通り芯
  6
Continuous
 62
     3
370
     9
100
AcDbLine
 10
-551.7268993444047
 20
-272.8574800886479
 30
0.0
 11
-545.8345653600297
 21
-272.8574800886479
 31
0.0
  0
LINE
  5
19C
330
1F
100
AcDbEntity
  8
通り芯
  6
Continuous
 62
     3
370
     9
100
AcDbLine
 10
-553.2122805996835
 20
-271.56636383812
 30
0.0
 11
-554.9994889506125
 21
-258.8575081318279
 31
0.0
  0
LINE
  5
19D
330
1F
100
AcDbEntity
  8
通り芯
  6
Continuous
 62
     3
370
     9
100
AcDbLine
 10
-544.3492335927156
 20
-271.56636383812
 30
0.0
 11
-542.5620252417865
 21
-258.8575081318279
 31
0.0
  0
LINE
  5
19E
330
1F
100
AcDbEntity
  8
通り芯
  6
Continuous
 62
     3
370
     9
100
AcDbLine
 10
-709.2808041097659
 20
317.1425364073402
 30
0.0
 11
-118.2807224546243
 21
317.1425364073402
 31
0.0
  0
LINE
  5
19F
330
1F
100
AcDbEntity
  8
通り芯
  6
Continuous
 62
     3
370
     9
100
AcDbLine
 10
-709.2808041097659
 20
313.1425232105498
 30
0.0
 11
-118.2807224546243
 21
313.1425232105498
 31
0.0
  0
LINE
  5
1A0
330
1F
100
AcDbEntity
  8
通り芯
  6
Continuous
 62
     3
370
     9
100
AcDbLine
 10
-699.2629678225509
 20
309.2729602882525
 30
0.0
 11
-128.2985216258659
 21
309.2729602882525
 31
0.0
  0
LINE
  5
1A1
330
1F
100
AcDbEntity
  8
通り芯
  6
Continuous
 62
     3
370
     9
100
AcDbLine
 10
-698.6915797841219
 20
307.6229325749922
 30
0.0
 11
-128.8699096642949
 21
307.6229325749922
 31
0.0
  0
LINE
  5
1A2
330
1F
100
AcDbEntity
  8
通り芯
  6
Continuous
 62
     3
370
     9
100
AcDbLine
 10
-417.2807191554267
 20
286.142483620178
 30
0.0
 11
-410.2807455490078
 21
286.142483620178
 31
0.0
  0
LINE
  5
1A3
330
1F
100
AcDbEntity
  8
通り芯
  6
Continuous
 62
     3
370
     9
100
AcDbLine
 10
-414.7807851393794
 20
283.6425001161663
 30
0.0
 11
-412.7807290530196
 21
283.6425001161663
 31
0.0
  0
LINE
  5
1A4
330
1F
100
AcDbEntity
  8
通り芯
  6
Continuous
 62
     3
370
     9
100
AcDbLine
 10
-709.2808041097659
 20
328.1425232105498
 30
0.0
 11
-118.2807224546243
 21
328.1425232105498
 31
0.0
  0
LINE
  5
1A5
330
1F
100
AcDbEntity
  8
通り芯
  6
Continuous
 62
     3
370
     9
100
AcDbLine
 10
-713.2808049345653
 20
332.1425364073402
 30
0.0
 11
-114.2806597698692
 21
332.1425364073402
 31
0.0
  0
LINE
  5
1A6
330
1F
100
AcDbEntity
  8
通り芯
  6
Continuous
 62
     3
370
     9
100
AcDbLine
 10
-696.2807488482055
 20
341.1425166121544
 30
0.0
 11
-671.2807406002113
 21
341.1425166121544
 31
0.0
  0
LINE
  5
1A7
330
1F
100
AcDbEntity
  8
通り芯
  6
Continuous
 62
     3
370
     9
100
AcDbLine
 10
-671.2807406002113
 20
341.1425166121544
 30
0.0
 11
-671.2807406002113
 21
332.1425364073402
 31
0.0
  0
LINE
  5
1A8
330
1F
100
AcDbEntity
  8
通り芯
  6
Continuous
 62
     3
370
     9
100
AcDbLine
 10
-671.2807406002113
 20
328.1425232105498
 30
0.0
 11
-671.2807406002113
 21
317.1425364073402
 31
0.0
  0
LINE
  5
1A9
330
1F
100
AcDbEntity
  8
通り芯
  6
Continuous
 62
     3
370
     9
100
AcDbLine
 10
-696.2807488482055
 20
341.1425166121544
 30
0.0
 11
-696.2807488482055
 21
332.1425364073402
 31
0.0
  0
LINE
  5
1AA
330
1F
100
AcDbEntity
  8
通り芯
  6
Continuous
 62
     3
370
     9
100
AcDbLine
 10
-696.2807488482055
 20
328.1425232105498
 30
0.0
 11
-696.2807488482055
 21
317.1425364073402
 31
0.0
  0
LINE
  5
1AB
330
1F
100
AcDbEntity
  8
通り芯
  6
Continuous
 62
     3
370
     9
100
AcDbLine
 10
-561.2807735921878
 20
341.1425166121544
 30
0.0
 11
-536.2807158562291
 21
341.1425166121544
 31
0.0
  0
LINE
  5
1AC
330
1F
100
AcDbEntity
  8
通り芯
  6
Continuous
 62
     3
370
     9
100
AcDbLine
 10
-536.2807158562291
 20
341.1425166121544
 30
0.0
 11
-536.2807158562291
 21
332.1425364073402
 31
0.0
  0
LINE
  5
1AD
330
1F
100
AcDbEntity
  8
通り芯
  6
Continuous
 62
     3
370
     9
100
AcDbLine
 10
-536.2807158562291
 20
328.1425232105498
 30
0.0
 11
-536.2807158562291
 21
317.1425364073402
 31
0.0
  0
LINE
  5
1AE
330
1F
100
AcDbEntity
  8
通り芯
  6
Continuous
 62
     3
370
     9
100
AcDbLine
 10
-561.2807735921878
 20
341.1425166121544
 30
0.0
 11
-561.2807735921878
 21
332.1425364073402
 31
0.0
  0
LINE
  5
1AF
330
1F
100
AcDbEntity
  8
通り芯
  6
Continuous
 62
     3
370
     9
100
AcDbLine
 10
-561.2807735921878
 20
328.1425232105498
 30
0.0
 11
-561.2807735921878
 21
317.1425364073402
 31
0.0
  0
LINE
  5
1B0
330
1F
100
AcDbEntity
  8
通り芯
  6
Continuous
 62
     3
370
     9
100
AcDbLine
 10
-426.2807983361699
 20
341.1425166121544
 30
0.0
 11
-426.2807983361699
 21
332.1425364073402
 31
0.0
  0
LINE
  5
1B1
330
1F
100
AcDbEntity
  8
通り芯
  6
Continuous
 62
     3
370
     9
100
AcDbLine
 10
-426.2807983361699
 20
328.1425232105498
 30
0.0
 11
-426.2807983361699
 21
317.1425364073402
 31
0.0
  0
LINE
  5
1B2
330
1F
100
AcDbEntity
  8
通り芯
  6
Continuous
 62
     3
370
     9
100
AcDbLine
 10
-426.2807983361699
 20
341.1425166121544
 30
0.0
 11
-401.2807653441936
 21
341.1425166121544
 31
0.0
  0
LINE
  5
1B3
330
1F
100
AcDbEntity
  8
通り芯
  6
Continuous
 62
     3
370
     9
100
AcDbLine
 10
-187.2807521474031
 20
56.14261558808357
 30
0.0
 11
-187.2807521474031
 21
286.142483620178
 31
0.0
  0
LINE
  5
1B4
330
1F
100
AcDbEntity
  8
通り芯
  6
Continuous
 62
     3
370
     9
100
AcDbLine
 10
-180.2807290530196
 20
286.142483620178
 30
0.0
 11
-187.2807521474031
 21
286.142483620178
 31
0.0
  0
LINE
  5
1B5
330
1F
100
AcDbEntity
  8
通り芯
  6
Continuous
 62
     3
370
     9
100
AcDbLine
 10
-180.2807290530196
 20
56.14261558808357
 30
0.0
 11
-180.2807290530196
 21
286.142483620178
 31
0.0
  0
LINE
  5
1B6
330
1F
100
AcDbEntity
  8
通り芯
  6
Continuous
 62
     3
370
     9
100
AcDbLine
 10
-184.7808181313558
 20
58.64259909209522
 30
0.0
 11
-184.7808181313558
 21
283.6425001161663
 31
0.0
  0
LINE
  5
1B7
330
1F
100
AcDbEntity
  8
通り芯
  6
Continuous
 62
     3
370
     9
100
AcDbLine
 10
-182.7807125570314
 20
283.6425001161663
 30
0.0
 11
-184.7808181313558
 21
283.6425001161663
 31
0.0
  0
LINE
  5
1B8
330
1F
100
AcDbEntity
  8
通り芯
  6
Continuous
 62
     3
370
     9
100
AcDbLine
 10
-182.7807125570314
 20
58.64259909209522
 30
0.0
 11
-182.7807125570314
 21
283.6425001161663
 31
0.0
  0
LINE
  5
1B9
330
1F
100
AcDbEntity
  8
通り芯
  6
Continuous
 62
     3
370
     9
100
AcDbLine
 10
-187.2807521474031
 20
286.142483620178
 30
0.0
 11
-184.7808181313558
 21
283.6425001161663
 31
0.0
  0
LINE
  5
1BA
330
1F
100
AcDbEntity
  8
通り芯
  6
Continuous
 62
     3
370
     9
100
AcDbLine
 10
-180.2807290530196
 20
286.142483620178
 30
0.0
 11
-182.7807125570314
 21
283.6425001161663
 31
0.0
  0
LINE
  5
1BB
330
1F
100
AcDbEntity
  8
通り芯
  6
Continuous
 62
     3
370
     9
100
AcDbLine
 10
-302.2807356514148
 20
56.14261558808357
 30
0.0
 11
-302.2807356514148
 21
286.142483620178
 31
0.0
  0
LINE
  5
1BC
330
1F
100
AcDbEntity
  8
通り芯
  6
Continuous
 62
     3
370
     9
100
AcDbLine
 10
-295.280762044996
 20
286.142483620178
 30
0.0
 11
-302.2807356514148
 21
286.142483620178
 31
0.0
  0
LINE
  5
1BD
330
1F
100
AcDbEntity
  8
通り芯
  6
Continuous
 62
     3
370
     9
100
AcDbLine
 10
-295.280762044996
 20
56.14261558808357
 30
0.0
 11
-295.280762044996
 21
286.142483620178
 31
0.0
  0
LINE
  5
1BE
330
1F
100
AcDbEntity
  8
通り芯
  6
Continuous
 62
     3
370
     9
100
AcDbLine
 10
-299.7807521474031
 20
58.64259909209522
 30
0.0
 11
-299.7807521474031
 21
283.6425001161663
 31
0.0
  0
LINE
  5
1BF
330
1F
100
AcDbEntity
  8
通り芯
  6
Continuous
 62
     3
370
     9
100
AcDbLine
 10
-297.7807455490077
 20
283.6425001161663
 30
0.0
 11
-299.7807521474031
 21
283.6425001161663
 31
0.0
  0
LINE
  5
1C0
330
1F
100
AcDbEntity
  8
通り芯
  6
Continuous
 62
     3
370
     9
100
AcDbLine
 10
-297.7807455490077
 20
58.64259909209522
 30
0.0
 11
-297.7807455490077
 21
283.6425001161663
 31
0.0
  0
LINE
  5
1C1
330
1F
100
AcDbEntity
  8
通り芯
  6
Continuous
 62
     3
370
     9
100
AcDbLine
 10
-302.2807356514148
 20
286.142483620178
 30
0.0
 11
-299.7807521474031
 21
283.6425001161663
 31
0.0
  0
LINE
  5
1C2
330
1F
100
AcDbEntity
  8
通り芯
  6
Continuous
 62
     3
370
     9
100
AcDbLine
 10
-295.280762044996
 20
286.142483620178
 30
0.0
 11
-297.7807455490077
 21
283.6425001161663
 31
0.0
  0
LINE
  5
1C3
330
1F
100
AcDbEntity
  8
通り芯
  6
Continuous
 62
     3
370
     9
100
AcDbLine
 10
-410.2807455490078
 20
56.14261558808357
 30
0.0
 11
-410.2807455490078
 21
286.142483620178
 31
0.0
  0
LINE
  5
1C4
330
1F
100
AcDbEntity
  8
通り芯
  6
Continuous
 62
     3
370
     9
100
AcDbLine
 10
-412.7807290530196
 20
58.64259909209522
 30
0.0
 11
-412.7807290530196
 21
283.6425001161663
 31
0.0
  0
LINE
  5
1C5
330
1F
100
AcDbEntity
  8
通り芯
  6
Continuous
 62
     3
370
     9
100
AcDbLine
 10
-410.2807455490078
 20
286.142483620178
 30
0.0
 11
-412.7807290530196
 21
283.6425001161663
 31
0.0
  0
LINE
  5
1C6
330
1F
100
AcDbEntity
  8
通り芯
  6
Continuous
 62
     3
370
     9
100
AcDbLine
 10
-114.2806597698692
 20
10.14256280092127
 30
0.0
 11
-114.2806597698692
 21
332.1425364073402
 31
0.0
  0
LINE
  5
1C7
330
1F
100
AcDbEntity
  8
通り芯
  6
Continuous
 62
     3
370
     9
100
AcDbLine
 10
-118.2807224546243
 20
10.14256280092127
 30
0.0
 11
-118.2807224546243
 21
332.1425364073402
 31
0.0
  0
LINE
  5
1C8
330
1F
100
AcDbEntity
  8
通り芯
  6
Continuous
 62
     3
370
     9
100
AcDbLine
 10
-125.8699492546665
 20
304.6229721653639
 30
0.0
 11
-125.8699492546665
 21
37.66212704289774
 31
0.0
  0
LINE
  5
1C9
330
1F
100
AcDbEntity
  8
通り芯
  6
Continuous
 62
     3
370
     9
100
AcDbLine
 10
-119.7807521474031
 20
167.1425364073402
 30
0.0
 11
-119.7807521474031
 21
175.1425628009213
 31
0.0
  0
LINE
  5
1CA
330
1F
100
AcDbEntity
  8
通り芯
  6
Continuous
 62
     3
370
     9
100
AcDbLine
 10
-123.780715856229
 20
167.1425364073402
 30
0.0
 11
-123.780715856229
 21
175.1425628009213
 31
0.0
  0
LINE
  5
1CB
330
1F
100
AcDbEntity
  8
通り芯
  6
Continuous
 62
     3
370
     9
100
AcDbLine
 10
-118.2807224546243
 20
175.1425628009213
 30
0.0
 11
-123.780715856229
 21
175.1425628009213
 31
0.0
  0
LINE
  5
1CC
330
1F
100
AcDbEntity
  8
通り芯
  6
Continuous
 62
     3
370
     9
100
AcDbLine
 10
-121.2909268729098
 20
177.1425199113521
 30
0.0
 11
-122.2909301721075
 21
176.6424935177711
 31
0.0
  0
LINE
  5
1CD
330
1F
100
AcDbEntity
  8
通り芯
  6
Continuous
 62
     3
370
     9
100
AcDbLine
 10
-122.2909301721075
 20
176.6424935177711
 30
0.0
 11
-125.2985612162376
 21
176.6424935177711
 31
0.0
  0
LINE
  5
1CE
330
1F
100
AcDbEntity
  8
通り芯
  6
Continuous
 62
     3
370
     9
100
AcDbLine
 10
-125.2985612162376
 20
176.6424935177711
 30
0.0
 11
-122.2909301721075
 21
177.1425199113521
 31
0.0
  0
LINE
  5
1CF
330
1F
100
AcDbEntity
  8
通り芯
  6
Continuous
 62
     3
370
     9
100
AcDbLine
 10
-122.2909301721075
 20
177.1425199113521
 30
0.0
 11
-121.2909268729098
 21
177.1425199113521
 31
0.0
  0
LINE
  5
1D0
330
1F
100
AcDbEntity
  8
通り芯
  6
Continuous
 62
     3
370
     9
100
AcDbLine
 10
-125.2985612162376
 20
165.6426056904907
 30
0.0
 11
-125.2985612162376
 21
176.6424935177711
 31
0.0
  0
LINE
  5
1D1
330
1F
100
AcDbEntity
  8
通り芯
  6
Continuous
 62
     3
370
     9
100
AcDbLine
 10
-121.2909268729098
 20
177.1425199113521
 30
0.0
 11
-121.2909268729098
 21
175.1425628009213
 31
0.0
  0
LINE
  5
1D2
330
1F
100
AcDbEntity
  8
通り芯
  6
Continuous
 62
     3
370
     9
100
AcDbLine
 10
-124.2985579170398
 20
305.2729470914619
 30
0.0
 11
-124.2985579170398
 21
176.8087235906173
 31
0.0
  0
LINE
  5
1D3
330
1F
100
AcDbEntity
  8
通り芯
  6
Continuous
 62
     3
370
     9
100
AcDbLine
 10
-131.280715856229
 20
341.1425166121544
 30
0.0
 11
-156.2807983361699
 21
341.1425166121544
 31
0.0
  0
LINE
  5
1D4
330
1F
100
AcDbEntity
  8
通り芯
  6
Continuous
 62
     3
370
     9
100
AcDbLine
 10
-156.2807983361699
 20
341.1425166121544
 30
0.0
 11
-156.2807983361699
 21
332.1425364073402
 31
0.0
  0
LINE
  5
1D5
330
1F
100
AcDbEntity
  8
通り芯
  6
Continuous
 62
     3
370
     9
100
AcDbLine
 10
-156.2807983361699
 20
328.1425232105498
 30
0.0
 11
-156.2807983361699
 21
317.1425364073402
 31
0.0
  0
LINE
  5
1D6
330
1F
100
AcDbEntity
  8
通り芯
  6
Continuous
 62
     3
370
     9
100
AcDbLine
 10
-131.280715856229
 20
341.1425166121544
 30
0.0
 11
-131.280715856229
 21
332.1425364073402
 31
0.0
  0
LINE
  5
1D7
330
1F
100
AcDbEntity
  8
通り芯
  6
Continuous
 62
     3
370
     9
100
AcDbLine
 10
-131.280715856229
 20
328.1425232105498
 30
0.0
 11
-131.280715856229
 21
317.1425364073402
 31
0.0
  0
LINE
  5
1D8
330
1F
100
AcDbEntity
  8
通り芯
  6
Continuous
 62
     3
370
     9
100
AcDbLine
 10
-266.2807158562291
 20
341.1425166121544
 30
0.0
 11
-291.2807983361699
 21
341.1425166121544
 31
0.0
  0
LINE
  5
1D9
330
1F
100
AcDbEntity
  8
通り芯
  6
Continuous
 62
     3
370
     9
100
AcDbLine
 10
-291.2807983361699
 20
341.1425166121544
 30
0.0
 11
-291.2807983361699
 21
332.1425364073402
 31
0.0
  0
LINE
  5
1DA
330
1F
100
AcDbEntity
  8
通り芯
  6
Continuous
 62
     3
370
     9
100
AcDbLine
 10
-291.2807983361699
 20
328.1425232105498
 30
0.0
 11
-291.2807983361699
 21
317.1425364073402
 31
0.0
  0
LINE
  5
1DB
330
1F
100
AcDbEntity
  8
通り芯
  6
Continuous
 62
     3
370
     9
100
AcDbLine
 10
-266.2807158562291
 20
341.1425166121544
 30
0.0
 11
-266.2807158562291
 21
332.1425364073402
 31
0.0
  0
LINE
  5
1DC
330
1F
100
AcDbEntity
  8
通り芯
  6
Continuous
 62
     3
370
     9
100
AcDbLine
 10
-266.2807158562291
 20
328.1425232105498
 30
0.0
 11
-266.2807158562291
 21
317.1425364073402
 31
0.0
  0
LINE
  5
1DD
330
1F
100
AcDbEntity
  8
通り芯
  6
Continuous
 62
     3
370
     9
100
AcDbLine
 10
-401.2807653441936
 20
341.1425166121544
 30
0.0
 11
-401.2807653441936
 21
332.1425364073402
 31
0.0
  0
LINE
  5
1DE
330
1F
100
AcDbEntity
  8
通り芯
  6
Continuous
 62
     3
370
     9
100
AcDbLine
 10
-401.2807653441936
 20
328.1425232105498
 30
0.0
 11
-401.2807653441936
 21
317.1425364073402
 31
0.0
  0
LINE
  5
1DF
330
1F
100
AcDbEntity
  8
通り芯
  6
JWW_CENTER1
 62
     3
370
     9
100
AcDbLine
 10
-683.7807323522173
 20
-268.8574916358396
 30
0.0
 11
-683.7807323522173
 21
-287.8574306006833
 31
0.0
  0
LINE
  5
1E0
330
1F
100
AcDbEntity
  8
通り芯
  6
JWW_CENTER1
 62
     3
370
     9
100
AcDbLine
 10
-413.7807323522172
 20
-268.8574916358396
 30
0.0
 11
-413.7807323522172
 21
-287.8574306006833
 31
0.0
  0
LINE
  5
1E1
330
1F
100
AcDbEntity
  8
通り芯
  6
JWW_CENTER1
 62
     3
370
     9
100
AcDbLine
 10
355.7193072381542
 20
171.1425496041309
 30
0.0
 11
457.7193468285258
 21
171.1425496041309
 31
0.0
  0
LINE
  5
1E2
330
1F
100
AcDbEntity
  8
通り芯
  6
Continuous
 62
     3
370
     9
100
AcDbLine
 10
-647.2807356514148
 20
56.14261558808357
 30
0.0
 11
-640.2807620449961
 21
56.14261558808357
 31
0.0
  0
LINE
  5
1E3
330
1F
100
AcDbEntity
  8
通り芯
  6
Continuous
 62
     3
370
     9
100
AcDbLine
 10
-644.7807768913855
 20
58.64259909209522
 30
0.0
 11
-642.7807455490077
 21
58.64259909209522
 31
0.0
  0
LINE
  5
1E4
330
1F
100
AcDbEntity
  8
通り芯
  6
Continuous
 62
     3
370
     9
100
AcDbLine
 10
-640.2807620449961
 20
56.14261558808357
 30
0.0
 11
-642.7807455490077
 21
58.64259909209522
 31
0.0
  0
LINE
  5
1E5
330
1F
100
AcDbEntity
  8
通り芯
  6
Continuous
 62
     3
370
     9
100
AcDbLine
 10
-647.2807356514148
 20
56.14261558808357
 30
0.0
 11
-644.7807768913855
 21
58.64259909209522
 31
0.0
  0
LINE
  5
1E6
330
1F
100
AcDbEntity
  8
通り芯
  6
Continuous
 62
     3
370
     9
100
AcDbLine
 10
-532.2807521474031
 20
56.14261558808357
 30
0.0
 11
-525.2807785409841
 21
56.14261558808357
 31
0.0
  0
LINE
  5
1E7
330
1F
100
AcDbEntity
  8
通り芯
  6
Continuous
 62
     3
370
     9
100
AcDbLine
 10
-529.7807686433912
 20
58.64259909209522
 30
0.0
 11
-527.7807373010137
 21
58.64259909209522
 31
0.0
  0
LINE
  5
1E8
330
1F
100
AcDbEntity
  8
通り芯
  6
Continuous
 62
     3
370
     9
100
AcDbLine
 10
-525.2807785409841
 20
56.14261558808357
 30
0.0
 11
-527.7807373010137
 21
58.64259909209522
 31
0.0
  0
LINE
  5
1E9
330
1F
100
AcDbEntity
  8
通り芯
  6
Continuous
 62
     3
370
     9
100
AcDbLine
 10
-532.2807521474031
 20
56.14261558808357
 30
0.0
 11
-529.7807686433912
 21
58.64259909209522
 31
0.0
  0
LINE
  5
1EA
330
1F
100
AcDbEntity
  8
通り芯
  6
Continuous
 62
     3
370
     9
100
AcDbLine
 10
-417.2807191554267
 20
56.14261558808357
 30
0.0
 11
-414.7807851393794
 21
58.64259909209522
 31
0.0
  0
LINE
  5
1EB
330
1F
100
AcDbEntity
  8
通り芯
  6
Continuous
 62
     3
370
     9
100
AcDbLine
 10
-709.2808041097659
 20
167.1425364073402
 30
0.0
 11
-703.7807612201965
 21
167.1425364073402
 31
0.0
  0
LINE
  5
1EC
330
1F
100
AcDbEntity
  8
通り芯
  6
Continuous
 62
     3
370
     9
100
AcDbLine
 10
-706.2705996914805
 20
165.1425792969096
 30
0.0
 11
-705.2705716483005
 21
165.6426056904907
 31
0.0
  0
LINE
  5
1ED
330
1F
100
AcDbEntity
  8
通り芯
  6
Continuous
 62
     3
370
     9
100
AcDbLine
 10
-705.2705716483005
 20
165.6426056904907
 30
0.0
 11
-702.2629653481528
 21
165.6426056904907
 31
0.0
  0
LINE
  5
1EE
330
1F
100
AcDbEntity
  8
通り芯
  6
Continuous
 62
     3
370
     9
100
AcDbLine
 10
-702.2629653481528
 20
165.6426056904907
 30
0.0
 11
-705.2705716483005
 21
165.1425792969096
 31
0.0
  0
LINE
  5
1EF
330
1F
100
AcDbEntity
  8
通り芯
  6
Continuous
 62
     3
370
     9
100
AcDbLine
 10
-705.2705716483005
 20
165.1425792969096
 30
0.0
 11
-706.2705996914805
 21
165.1425792969096
 31
0.0
  0
LINE
  5
1F0
330
1F
100
AcDbEntity
  8
通り芯
  6
Continuous
 62
     3
370
     9
100
AcDbLine
 10
-706.2705996914805
 20
165.1425792969096
 30
0.0
 11
-706.2705996914805
 21
167.1425364073402
 31
0.0
  0
LINE
  5
1F1
330
1F
100
AcDbEntity
  8
通り芯
  6
Continuous
 62
     3
370
     9
100
AcDbLine
 10
-703.2629810193415
 20
37.01215211679983
 30
0.0
 11
-703.2629810193415
 21
165.4763756176444
 31
0.0
  0
LINE
  5
1F2
330
1F
100
AcDbEntity
  8
通り芯
  6
Continuous
 62
     3
370
     9
100
AcDbLine
 10
-709.2808041097659
 20
25.14256280092127
 30
0.0
 11
-118.2807224546243
 21
25.14256280092127
 31
0.0
  0
LINE
  5
1F3
330
1F
100
AcDbEntity
  8
通り芯
  6
Continuous
 62
     3
370
     9
100
AcDbLine
 10
-709.2808041097659
 20
29.1425759977119
 30
0.0
 11
-118.2807224546243
 21
29.1425759977119
 31
0.0
  0
LINE
  5
1F4
330
1F
100
AcDbEntity
  8
通り芯
  6
Continuous
 62
     3
370
     9
100
AcDbLine
 10
-699.2629678225509
 20
33.01213892000919
 30
0.0
 11
-128.2985216258659
 21
33.01213892000919
 31
0.0
  0
LINE
  5
1F5
330
1F
100
AcDbEntity
  8
通り芯
  6
Continuous
 62
     3
370
     9
100
AcDbLine
 10
-698.6915797841219
 20
34.66216663326941
 30
0.0
 11
-128.8699096642949
 21
34.66216663326941
 31
0.0
  0
LINE
  5
1F6
330
1F
100
AcDbEntity
  8
通り芯
  6
Continuous
 62
     3
370
     9
100
AcDbLine
 10
-417.2807191554267
 20
56.14261558808357
 30
0.0
 11
-410.2807455490078
 21
56.14261558808357
 31
0.0
  0
LINE
  5
1F7
330
1F
100
AcDbEntity
  8
通り芯
  6
Continuous
 62
     3
370
     9
100
AcDbLine
 10
-414.7807851393794
 20
58.64259909209522
 30
0.0
 11
-412.7807290530196
 21
58.64259909209522
 31
0.0
  0
LINE
  5
1F8
330
1F
100
AcDbEntity
  8
通り芯
  6
Continuous
 62
     3
370
     9
100
AcDbLine
 10
-709.2808041097659
 20
14.1425759977119
 30
0.0
 11
-118.2807224546243
 21
14.1425759977119
 31
0.0
  0
LINE
  5
1F9
330
1F
100
AcDbEntity
  8
通り芯
  6
Continuous
 62
     3
370
     9
100
AcDbLine
 10
-713.2808049345653
 20
10.14256280092127
 30
0.0
 11
-114.2806597698692
 21
10.14256280092127
 31
0.0
  0
LINE
  5
1FA
330
1F
100
AcDbEntity
  8
通り芯
  6
Continuous
 62
     3
370
     9
100
AcDbLine
 10
-696.2807488482055
 20
1.142582596107104
 30
0.0
 11
-671.2807406002113
 21
1.142582596107104
 31
0.0
  0
LINE
  5
1FB
330
1F
100
AcDbEntity
  8
通り芯
  6
Continuous
 62
     3
370
     9
100
AcDbLine
 10
-671.2807406002113
 20
1.142582596107104
 30
0.0
 11
-671.2807406002113
 21
10.14256280092127
 31
0.0
  0
LINE
  5
1FC
330
1F
100
AcDbEntity
  8
通り芯
  6
Continuous
 62
     3
370
     9
100
AcDbLine
 10
-671.2807406002113
 20
14.1425759977119
 30
0.0
 11
-671.2807406002113
 21
25.14256280092127
 31
0.0
  0
LINE
  5
1FD
330
1F
100
AcDbEntity
  8
通り芯
  6
Continuous
 62
     3
370
     9
100
AcDbLine
 10
-696.2807488482055
 20
1.142582596107104
 30
0.0
 11
-696.2807488482055
 21
10.14256280092127
 31
0.0
  0
LINE
  5
1FE
330
1F
100
AcDbEntity
  8
通り芯
  6
Continuous
 62
     3
370
     9
100
AcDbLine
 10
-696.2807488482055
 20
14.1425759977119
 30
0.0
 11
-696.2807488482055
 21
25.14256280092127
 31
0.0
  0
LINE
  5
1FF
330
1F
100
AcDbEntity
  8
通り芯
  6
Continuous
 62
     3
370
     9
100
AcDbLine
 10
-561.2807735921878
 20
1.142582596107104
 30
0.0
 11
-536.2807158562291
 21
1.142582596107104
 31
0.0
  0
LINE
  5
200
330
1F
100
AcDbEntity
  8
通り芯
  6
Continuous
 62
     3
370
     9
100
AcDbLine
 10
-536.2807158562291
 20
1.142582596107104
 30
0.0
 11
-536.2807158562291
 21
10.14256280092127
 31
0.0
  0
LINE
  5
201
330
1F
100
AcDbEntity
  8
通り芯
  6
Continuous
 62
     3
370
     9
100
AcDbLine
 10
-536.2807158562291
 20
14.1425759977119
 30
0.0
 11
-536.2807158562291
 21
25.14256280092127
 31
0.0
  0
LINE
  5
202
330
1F
100
AcDbEntity
  8
通り芯
  6
Continuous
 62
     3
370
     9
100
AcDbLine
 10
-561.2807735921878
 20
1.142582596107104
 30
0.0
 11
-561.2807735921878
 21
10.14256280092127
 31
0.0
  0
LINE
  5
203
330
1F
100
AcDbEntity
  8
通り芯
  6
Continuous
 62
     3
370
     9
100
AcDbLine
 10
-561.2807735921878
 20
14.1425759977119
 30
0.0
 11
-561.2807735921878
 21
25.14256280092127
 31
0.0
  0
LINE
  5
204
330
1F
100
AcDbEntity
  8
通り芯
  6
Continuous
 62
     3
370
     9
100
AcDbLine
 10
-426.2807983361699
 20
1.142582596107104
 30
0.0
 11
-426.2807983361699
 21
10.14256280092127
 31
0.0
  0
LINE
  5
205
330
1F
100
AcDbEntity
  8
通り芯
  6
Continuous
 62
     3
370
     9
100
AcDbLine
 10
-426.2807983361699
 20
14.1425759977119
 30
0.0
 11
-426.2807983361699
 21
25.14256280092127
 31
0.0
  0
LINE
  5
206
330
1F
100
AcDbEntity
  8
通り芯
  6
Continuous
 62
     3
370
     9
100
AcDbLine
 10
-426.2807983361699
 20
1.142582596107104
 30
0.0
 11
-401.2807653441936
 21
1.142582596107104
 31
0.0
  0
LINE
  5
207
330
1F
100
AcDbEntity
  8
通り芯
  6
Continuous
 62
     3
370
     9
100
AcDbLine
 10
-180.2807290530196
 20
56.14261558808357
 30
0.0
 11
-187.2807521474031
 21
56.14261558808357
 31
0.0
  0
LINE
  5
208
330
1F
100
AcDbEntity
  8
通り芯
  6
Continuous
 62
     3
370
     9
100
AcDbLine
 10
-182.7807125570314
 20
58.64259909209522
 30
0.0
 11
-184.7808181313558
 21
58.64259909209522
 31
0.0
  0
LINE
  5
209
330
1F
100
AcDbEntity
  8
通り芯
  6
Continuous
 62
     3
370
     9
100
AcDbLine
 10
-187.2807521474031
 20
56.14261558808357
 30
0.0
 11
-184.7808181313558
 21
58.64259909209522
 31
0.0
  0
LINE
  5
20A
330
1F
100
AcDbEntity
  8
通り芯
  6
Continuous
 62
     3
370
     9
100
AcDbLine
 10
-180.2807290530196
 20
56.14261558808357
 30
0.0
 11
-182.7807125570314
 21
58.64259909209522
 31
0.0
  0
LINE
  5
20B
330
1F
100
AcDbEntity
  8
通り芯
  6
Continuous
 62
     3
370
     9
100
AcDbLine
 10
-295.280762044996
 20
56.14261558808357
 30
0.0
 11
-302.2807356514148
 21
56.14261558808357
 31
0.0
  0
LINE
  5
20C
330
1F
100
AcDbEntity
  8
通り芯
  6
Continuous
 62
     3
370
     9
100
AcDbLine
 10
-297.7807455490077
 20
58.64259909209522
 30
0.0
 11
-299.7807521474031
 21
58.64259909209522
 31
0.0
  0
LINE
  5
20D
330
1F
100
AcDbEntity
  8
通り芯
  6
Continuous
 62
     3
370
     9
100
AcDbLine
 10
-302.2807356514148
 20
56.14261558808357
 30
0.0
 11
-299.7807521474031
 21
58.64259909209522
 31
0.0
  0
LINE
  5
20E
330
1F
100
AcDbEntity
  8
通り芯
  6
Continuous
 62
     3
370
     9
100
AcDbLine
 10
-295.280762044996
 20
56.14261558808357
 30
0.0
 11
-297.7807455490077
 21
58.64259909209522
 31
0.0
  0
LINE
  5
20F
330
1F
100
AcDbEntity
  8
通り芯
  6
Continuous
 62
     3
370
     9
100
AcDbLine
 10
-410.2807455490078
 20
56.14261558808357
 30
0.0
 11
-412.7807290530196
 21
58.64259909209522
 31
0.0
  0
LINE
  5
210
330
1F
100
AcDbEntity
  8
通り芯
  6
Continuous
 62
     3
370
     9
100
AcDbLine
 10
-118.2807224546243
 20
167.1425364073402
 30
0.0
 11
-123.780715856229
 21
167.1425364073402
 31
0.0
  0
LINE
  5
211
330
1F
100
AcDbEntity
  8
通り芯
  6
Continuous
 62
     3
370
     9
100
AcDbLine
 10
-121.2909268729098
 20
165.1425792969096
 30
0.0
 11
-122.2909301721075
 21
165.6426056904907
 31
0.0
  0
LINE
  5
212
330
1F
100
AcDbEntity
  8
通り芯
  6
Continuous
 62
     3
370
     9
100
AcDbLine
 10
-122.2909301721075
 20
165.6426056904907
 30
0.0
 11
-125.2985612162376
 21
165.6426056904907
 31
0.0
  0
LINE
  5
213
330
1F
100
AcDbEntity
  8
通り芯
  6
Continuous
 62
     3
370
     9
100
AcDbLine
 10
-125.2985612162376
 20
165.6426056904907
 30
0.0
 11
-122.2909301721075
 21
165.1425792969096
 31
0.0
  0
LINE
  5
214
330
1F
100
AcDbEntity
  8
通り芯
  6
Continuous
 62
     3
370
     9
100
AcDbLine
 10
-122.2909301721075
 20
165.1425792969096
 30
0.0
 11
-121.2909268729098
 21
165.1425792969096
 31
0.0
  0
LINE
  5
215
330
1F
100
AcDbEntity
  8
通り芯
  6
Continuous
 62
     3
370
     9
100
AcDbLine
 10
-121.2909268729098
 20
165.1425792969096
 30
0.0
 11
-121.2909268729098
 21
167.1425364073402
 31
0.0
  0
LINE
  5
216
330
1F
100
AcDbEntity
  8
通り芯
  6
Continuous
 62
     3
370
     9
100
AcDbLine
 10
-124.2985579170398
 20
37.01215211679983
 30
0.0
 11
-124.2985579170398
 21
165.4763756176444
 31
0.0
  0
LINE
  5
217
330
1F
100
AcDbEntity
  8
通り芯
  6
Continuous
 62
     3
370
     9
100
AcDbLine
 10
-131.280715856229
 20
1.142582596107104
 30
0.0
 11
-156.2807983361699
 21
1.142582596107104
 31
0.0
  0
LINE
  5
218
330
1F
100
AcDbEntity
  8
通り芯
  6
Continuous
 62
     3
370
     9
100
AcDbLine
 10
-156.2807983361699
 20
1.142582596107104
 30
0.0
 11
-156.2807983361699
 21
10.14256280092127
 31
0.0
  0
LINE
  5
219
330
1F
100
AcDbEntity
  8
通り芯
  6
Continuous
 62
     3
370
     9
100
AcDbLine
 10
-156.2807983361699
 20
14.1425759977119
 30
0.0
 11
-156.2807983361699
 21
25.14256280092127
 31
0.0
  0
LINE
  5
21A
330
1F
100
AcDbEntity
  8
通り芯
  6
Continuous
 62
     3
370
     9
100
AcDbLine
 10
-131.280715856229
 20
1.142582596107104
 30
0.0
 11
-131.280715856229
 21
10.14256280092127
 31
0.0
  0
LINE
  5
21B
330
1F
100
AcDbEntity
  8
通り芯
  6
Continuous
 62
     3
370
     9
100
AcDbLine
 10
-131.280715856229
 20
14.1425759977119
 30
0.0
 11
-131.280715856229
 21
25.14256280092127
 31
0.0
  0
LINE
  5
21C
330
1F
100
AcDbEntity
  8
通り芯
  6
Continuous
 62
     3
370
     9
100
AcDbLine
 10
-266.2807158562291
 20
1.142582596107104
 30
0.0
 11
-291.2807983361699
 21
1.142582596107104
 31
0.0
  0
LINE
  5
21D
330
1F
100
AcDbEntity
  8
通り芯
  6
Continuous
 62
     3
370
     9
100
AcDbLine
 10
-291.2807983361699
 20
1.142582596107104
 30
0.0
 11
-291.2807983361699
 21
10.14256280092127
 31
0.0
  0
LINE
  5
21E
330
1F
100
AcDbEntity
  8
通り芯
  6
Continuous
 62
     3
370
     9
100
AcDbLine
 10
-291.2807983361699
 20
14.1425759977119
 30
0.0
 11
-291.2807983361699
 21
25.14256280092127
 31
0.0
  0
LINE
  5
21F
330
1F
100
AcDbEntity
  8
通り芯
  6
Continuous
 62
     3
370
     9
100
AcDbLine
 10
-266.2807158562291
 20
1.142582596107104
 30
0.0
 11
-266.2807158562291
 21
10.14256280092127
 31
0.0
  0
LINE
  5
220
330
1F
100
AcDbEntity
  8
通り芯
  6
Continuous
 62
     3
370
     9
100
AcDbLine
 10
-266.2807158562291
 20
14.1425759977119
 30
0.0
 11
-266.2807158562291
 21
25.14256280092127
 31
0.0
  0
LINE
  5
221
330
1F
100
AcDbEntity
  8
通り芯
  6
Continuous
 62
     3
370
     9
100
AcDbLine
 10
-401.2807653441936
 20
1.142582596107104
 30
0.0
 11
-401.2807653441936
 21
10.14256280092127
 31
0.0
  0
LINE
  5
222
330
1F
100
AcDbEntity
  8
通り芯
  6
Continuous
 62
     3
370
     9
100
AcDbLine
 10
-401.2807653441936
 20
14.1425759977119
 30
0.0
 11
-401.2807653441936
 21
25.14256280092127
 31
0.0
  0
LINE
  5
223
330
1F
100
AcDbEntity
  8
通り芯
  6
Continuous
 62
     3
370
     9
100
AcDbLine
 10
393.7188387520901
 20
165.6425562025261
 30
0.0
 11
407.7188849408572
 21
166.6425100137592
 31
0.0
  0
LINE
  5
224
330
1F
100
AcDbEntity
  8
通り芯
  6
Continuous
 62
     3
370
     9
100
AcDbLine
 10
403.3194048944042
 20
168.5425509238098
 30
0.0
 11
398.1193085578334
 21
168.5425509238098
 31
0.0
  0
LINE
  5
225
330
1F
100
AcDbEntity
  8
通り芯
  6
Continuous
 62
     3
370
     9
100
AcDbLine
 10
393.7188387520901
 20
165.142529808945
 30
0.0
 11
407.7188849408572
 21
166.6425100137592
 31
0.0
  0
LINE
  5
226
330
1F
100
AcDbEntity
  8
通り芯
  6
Continuous
 62
     3
370
     9
100
AcDbLine
 10
422.7193798205025
 20
56.14256610011898
 30
0.0
 11
437.7193798205025
 21
71.14256610011898
 31
0.0
  0
LINE
  5
227
330
1F
100
AcDbEntity
  8
通り芯
  6
Continuous
 62
     3
370
     9
100
AcDbLine
 10
417.5001811296242
 20
58.36848525658024
 30
0.0
 11
415.9385389210092
 21
56.41643249581148
 31
0.0
  0
LINE
  5
228
330
1F
100
AcDbEntity
  8
通り芯
  6
Continuous
 62
     3
370
     9
100
AcDbLine
 10
435.7193732221071
 20
33.85561178740772
 30
0.0
 11
435.7193732221071
 21
30.53922533259356
 31
0.0
  0
LINE
  5
229
330
1F
100
AcDbEntity
  8
通り芯
  6
Continuous
 62
     3
370
     9
100
AcDbLine
 10
390.7193732221072
 20
25.14256280092127
 30
0.0
 11
390.7193732221072
 21
1.142582596107104
 31
0.0
  0
LINE
  5
22A
330
1F
100
AcDbEntity
  8
通り芯
  6
Continuous
 62
     3
370
     9
100
AcDbLine
 10
395.7193402301309
 20
29.1425759977119
 30
0.0
 11
395.7193402301309
 21
1.142582596107104
 31
0.0
  0
LINE
  5
22B
330
1F
100
AcDbEntity
  8
通り芯
  6
Continuous
 62
     3
370
     9
100
AcDbLine
 10
390.7193732221072
 20
10.14256280092127
 30
0.0
 11
375.7193732221072
 21
10.14256280092127
 31
0.0
  0
LINE
  5
22C
330
1F
100
AcDbEntity
  8
通り芯
  6
Continuous
 62
     3
370
     9
100
AcDbLine
 10
390.7193732221072
 20
14.1425759977119
 30
0.0
 11
375.7193732221072
 21
14.1425759977119
 31
0.0
  0
LINE
  5
22D
330
1F
100
AcDbEntity
  8
通り芯
  6
Continuous
 62
     3
370
     9
100
AcDbLine
 10
395.7193402301309
 20
25.14256280092127
 30
0.0
 11
375.7193732221072
 21
25.14256280092127
 31
0.0
  0
LINE
  5
22E
330
1F
100
AcDbEntity
  8
通り芯
  6
Continuous
 62
     3
370
     9
100
AcDbLine
 10
395.7193402301309
 20
29.1425759977119
 30
0.0
 11
375.7193732221072
 21
29.1425759977119
 31
0.0
  0
LINE
  5
22F
330
1F
100
AcDbEntity
  8
通り芯
  6
Continuous
 62
     3
370
     9
100
AcDbLine
 10
395.7193402301309
 20
1.142582596107104
 30
0.0
 11
390.7193732221072
 21
1.142582596107104
 31
0.0
  0
LINE
  5
230
330
1F
100
AcDbEntity
  8
通り芯
  6
Continuous
 62
     3
370
     9
100
AcDbLine
 10
412.0184982748942
 20
34.38453915227274
 30
0.0
 11
393.7194326076647
 21
33.01213892000919
 31
0.0
  0
LINE
  5
231
330
1F
100
AcDbEntity
  8
通り芯
  6
Continuous
 62
     3
370
     9
100
AcDbLine
 10
426.1110869573267
 20
36.62080129332003
 30
0.0
 11
434.4474335578333
 21
35.33827120463752
 31
0.0
  0
LINE
  5
232
330
1F
100
AcDbEntity
  8
通り芯
  6
Continuous
 62
     3
370
     9
100
AcDbLine
 10
393.7194326076647
 20
167.1425364073402
 30
0.0
 11
393.7194326076647
 21
29.1425759977119
 31
0.0
  0
LINE
  5
233
330
1F
100
AcDbEntity
  8
通り芯
  6
Continuous
 62
     3
370
     9
100
AcDbLine
 10
404.7194194108743
 20
167.1425364073402
 30
0.0
 11
376.7194260092692
 21
167.1425364073402
 31
0.0
  0
LINE
  5
234
330
1F
100
AcDbEntity
  8
通り芯
  6
Continuous
 62
     3
370
     9
100
AcDbLine
 10
410.5199037330867
 20
22.14250341536399
 30
0.0
 11
410.5199037330867
 21
8.142457226597116
 31
0.0
  0
LINE
  5
235
330
1F
100
AcDbEntity
  8
通り芯
  6
Continuous
 62
     3
370
     9
100
AcDbLine
 10
410.5199037330867
 20
22.14250341536399
 30
0.0
 11
412.1198496262454
 21
20.66746514467127
 31
0.0
  0
LINE
  5
236
330
1F
100
AcDbEntity
  8
通り芯
  6
Continuous
 62
     3
370
     9
100
AcDbLine
 10
410.5199037330867
 20
8.142457226597116
 30
0.0
 11
412.1198496262454
 21
9.61749549728961
 31
0.0
  0
LINE
  5
237
330
1F
100
AcDbEntity
  8
通り芯
  6
Continuous
 62
     3
370
     9
100
AcDbLine
 10
410.5199037330867
 20
17.90494798884356
 30
0.0
 11
415.7198021177996
 21
17.90494798884356
 31
0.0
  0
LINE
  5
238
330
1F
100
AcDbEntity
  8
通り芯
  6
Continuous
 62
     3
370
     9
100
AcDbLine
 10
410.5199037330867
 20
12.38001265311732
 30
0.0
 11
415.7198021177996
 21
12.38001265311732
 31
0.0
  0
LINE
  5
239
330
1F
100
AcDbEntity
  8
通り芯
  6
Continuous
 62
     3
370
     9
100
AcDbLine
 10
409.7199802744722
 20
22.14250341536399
 30
0.0
 11
410.5199037330867
 21
22.14250341536399
 31
0.0
  0
LINE
  5
23A
330
1F
100
AcDbEntity
  8
通り芯
  6
Continuous
 62
     3
370
     9
100
AcDbLine
 10
412.1198496262454
 20
20.66746514467127
 30
0.0
 11
415.7198021177996
 21
20.66746514467127
 31
0.0
  0
LINE
  5
23B
330
1F
100
AcDbEntity
  8
通り芯
  6
Continuous
 62
     3
370
     9
100
AcDbLine
 10
415.7198021177996
 20
20.66746514467127
 30
0.0
 11
415.7198021177996
 21
9.61749549728961
 31
0.0
  0
LINE
  5
23C
330
1F
100
AcDbEntity
  8
通り芯
  6
Continuous
 62
     3
370
     9
100
AcDbLine
 10
419.71981531459
 20
18.14249021857336
 30
0.0
 11
419.71981531459
 21
12.1425693993167
 31
0.0
  0
LINE
  5
23D
330
1F
100
AcDbEntity
  8
通り芯
  6
Continuous
 62
     3
370
     9
100
AcDbLine
 10
419.71981531459
 20
18.14249021857336
 30
0.0
 11
420.7198681017525
 21
17.14253640734023
 31
0.0
  0
LINE
  5
23E
330
1F
100
AcDbEntity
  8
通り芯
  6
Continuous
 62
     3
370
     9
100
AcDbLine
 10
420.7198681017525
 20
13.14252321054983
 30
0.0
 11
419.71981531459
 21
12.1425693993167
 31
0.0
  0
LINE
  5
23F
330
1F
100
AcDbEntity
  8
通り芯
  6
Continuous
 62
     3
370
     9
100
AcDbLine
 10
412.1198496262454
 20
9.61749549728961
 30
0.0
 11
415.7198021177996
 21
9.61749549728961
 31
0.0
  0
LINE
  5
240
330
1F
100
AcDbEntity
  8
通り芯
  6
Continuous
 62
     3
370
     9
100
AcDbLine
 10
420.7198681017525
 20
17.14253640734023
 30
0.0
 11
420.7198681017525
 21
13.14252321054983
 31
0.0
  0
LINE
  5
241
330
1F
100
AcDbEntity
  8
通り芯
  6
Continuous
 62
     3
370
     9
100
AcDbLine
 10
415.7198021177996
 20
12.1425693993167
 30
0.0
 11
419.71981531459
 21
12.1425693993167
 31
0.0
  0
LINE
  5
242
330
1F
100
AcDbEntity
  8
通り芯
  6
Continuous
 62
     3
370
     9
100
AcDbLine
 10
420.7198681017525
 20
13.14252321054983
 30
0.0
 11
415.7198021177996
 21
13.14252321054983
 31
0.0
  0
LINE
  5
243
330
1F
100
AcDbEntity
  8
通り芯
  6
Continuous
 62
     3
370
     9
100
AcDbLine
 10
415.7198021177996
 20
17.14253640734023
 30
0.0
 11
420.7198681017525
 21
17.14253640734023
 31
0.0
  0
LINE
  5
244
330
1F
100
AcDbEntity
  8
通り芯
  6
Continuous
 62
     3
370
     9
100
AcDbLine
 10
415.7198021177996
 20
18.14249021857336
 30
0.0
 11
419.71981531459
 21
18.14249021857336
 31
0.0
  0
LINE
  5
245
330
1F
100
AcDbEntity
  8
通り芯
  6
Continuous
 62
     3
370
     9
100
AcDbLine
 10
395.7193402301309
 20
19.64247042338752
 30
0.0
 11
409.7199802744722
 21
19.64247042338752
 31
0.0
  0
LINE
  5
246
330
1F
100
AcDbEntity
  8
通り芯
  6
Continuous
 62
     3
370
     9
100
AcDbLine
 10
395.7193402301309
 20
10.64249021857336
 30
0.0
 11
409.7199802744722
 21
10.64249021857336
 31
0.0
  0
LINE
  5
247
330
1F
100
AcDbEntity
  8
通り芯
  6
Continuous
 62
     3
370
     9
100
AcDbLine
 10
395.7193402301309
 20
12.1425693993167
 30
0.0
 11
409.7199802744722
 21
12.1425693993167
 31
0.0
  0
LINE
  5
248
330
1F
100
AcDbEntity
  8
通り芯
  6
Continuous
 62
     3
370
     9
100
AcDbLine
 10
409.7199802744722
 20
13.14252321054983
 30
0.0
 11
395.7193402301309
 21
13.14252321054983
 31
0.0
  0
LINE
  5
249
330
1F
100
AcDbEntity
  8
通り芯
  6
Continuous
 62
     3
370
     9
100
AcDbLine
 10
409.7199802744722
 20
17.14253640734023
 30
0.0
 11
395.7193402301309
 21
17.14253640734023
 31
0.0
  0
LINE
  5
24A
330
1F
100
AcDbEntity
  8
通り芯
  6
Continuous
 62
     3
370
     9
100
AcDbLine
 10
395.7193402301309
 20
18.14249021857336
 30
0.0
 11
409.7199802744722
 21
18.14249021857336
 31
0.0
  0
LINE
  5
24B
330
1F
100
AcDbEntity
  8
通り芯
  6
Continuous
 62
     3
370
     9
100
AcDbLine
 10
409.7199802744722
 20
8.142457226597116
 30
0.0
 11
410.5199037330867
 21
8.142457226597116
 31
0.0
  0
LINE
  5
24C
330
1F
100
AcDbEntity
  8
通り芯
  6
Continuous
 62
     3
370
     9
100
AcDbLine
 10
434.3261880447421
 20
29.04310518901252
 30
0.0
 11
413.4349427955867
 21
27.55084510666461
 31
0.0
  0
LINE
  5
24D
330
1F
100
AcDbEntity
  8
通り芯
  6
Continuous
 62
     3
370
     9
100
AcDbLine
 10
408.4058768644213
 20
4.97829575066794
 30
0.0
 11
395.7193402301309
 21
3.39260239129294
 31
0.0
  0
LINE
  5
24E
330
1F
100
AcDbEntity
  8
通り芯
  6
Continuous
 62
     3
370
     9
100
AcDbLine
 10
409.7199802744722
 20
6.466794747711901
 30
0.0
 11
409.7199802744722
 21
23.5610264305667
 31
0.0
  0
LINE
  5
24F
330
1F
100
AcDbEntity
  8
通り芯
  6
Continuous
 62
     3
370
     9
100
AcDbLine
 10
-114.2807587457983
 20
-258.8575081318279
 30
0.0
 11
-114.2807587457983
 21
-238.8574668918573
 31
0.0
  0
LINE
  5
250
330
1F
100
AcDbEntity
  8
通り芯
  6
Continuous
 62
     3
370
     9
100
AcDbLine
 10
-255.0675843898017
 20
-298.8574668918575
 30
0.0
 11
-302.4938803146327
 21
-298.8574668918575
 31
0.0
  0
LINE
  5
251
330
1F
100
AcDbEntity
  8
通り芯
  6
Continuous
 62
     3
370
     9
100
AcDbLine
 10
-121.6774278758659
 20
-298.8574668918575
 30
0.0
 11
-168.9938605194469
 21
-298.8574668918575
 31
0.0
  0
LINE
  5
252
330
1F
100
AcDbEntity
  8
通り芯
  6
Continuous
 62
     3
370
     9
100
AcDbLine
 10
-120.1812087563558
 20
-297.4642817144925
 30
0.0
 11
-117.4235414210517
 21
-258.8575081318279
 31
0.0
  0
LINE
  5
253
330
1F
100
AcDbEntity
  8
通り芯
  6
Continuous
 62
     3
370
     9
100
AcDbLine
 10
-387.1720435853254
 20
-288.4012538428708
 30
0.0
 11
-388.585023948501
 21
-297.5855272275837
 31
0.0
  0
LINE
  5
254
330
1F
100
AcDbEntity
  8
通り芯
  6
Continuous
 62
     3
370
     9
100
AcDbLine
 10
-305.3893716311446
 20
-288.4012538428708
 30
0.0
 11
-303.9764407559335
 21
-297.5855272275837
 31
0.0
  0
LINE
  5
255
330
1F
100
AcDbEntity
  8
通り芯
  6
Continuous
 62
     3
370
     9
100
AcDbLine
 10
-308.354492513746
 20
-285.8574734902527
 30
0.0
 11
-384.206922702724
 21
-285.8574734902527
 31
0.0
  0
LINE
  5
256
330
1F
100
AcDbEntity
  8
通り芯
  6
Continuous
 62
     3
370
     9
100
AcDbLine
 10
-252.1720930732898
 20
-288.4012538428708
 30
0.0
 11
-253.585023948501
 21
-297.5855272275837
 31
0.0
  0
LINE
  5
257
330
1F
100
AcDbEntity
  8
通り芯
  6
Continuous
 62
     3
370
     9
100
AcDbLine
 10
-171.8894013239233
 20
-288.4012538428708
 30
0.0
 11
-170.4763714727831
 21
-297.5855272275837
 31
0.0
  0
LINE
  5
258
330
1F
100
AcDbEntity
  8
通り芯
  6
Continuous
 62
     3
370
     9
100
AcDbLine
 10
-174.8544232305956
 20
-285.8574734902527
 30
0.0
 11
-249.2069721906885
 21
-285.8574734902527
 31
0.0
  0
LINE
  5
259
330
1F
100
AcDbEntity
  8
通り芯
  6
Continuous
 62
     3
370
     9
100
AcDbLine
 10
-114.6303912151817
 20
-258.8575081318279
 30
0.0
 11
-118.7730287257392
 21
-282.5465307115364
 31
0.0
  0
LINE
  5
25A
330
1F
100
AcDbEntity
  8
通り芯
  6
Continuous
 62
     3
370
     9
100
AcDbLine
 10
-406.7807587457983
 20
-273.6575272671741
 30
0.0
 11
-408.2556980405618
 21
-275.2574731603329
 31
0.0
  0
LINE
  5
25B
330
1F
100
AcDbEntity
  8
通り芯
  6
Continuous
 62
     3
370
     9
100
AcDbLine
 10
-411.0182151963895
 20
-273.6575272671741
 30
0.0
 11
-411.0182151963895
 21
-278.8574998838337
 31
0.0
  0
LINE
  5
25C
330
1F
100
AcDbEntity
  8
通り芯
  6
Continuous
 62
     3
370
     9
100
AcDbLine
 10
-408.2556980405618
 20
-275.2574731603329
 30
0.0
 11
-408.2556980405618
 21
-278.8574998838337
 31
0.0
  0
LINE
  5
25D
330
1F
100
AcDbEntity
  8
通り芯
  6
Continuous
 62
     3
370
     9
100
AcDbLine
 10
-410.7806729666598
 20
-282.8574883366421
 30
0.0
 11
-411.780725753822
 21
-283.8574421478752
 31
0.0
  0
LINE
  5
25E
330
1F
100
AcDbEntity
  8
通り芯
  6
Continuous
 62
     3
370
     9
100
AcDbLine
 10
-406.7807587457983
 20
-272.8574800886479
 30
0.0
 11
-406.7807587457983
 21
-273.6575272671741
 31
0.0
  0
LINE
  5
25F
330
1F
100
AcDbEntity
  8
通り芯
  6
Continuous
 62
     3
370
     9
100
AcDbLine
 10
-411.780725753822
 20
-278.8574998838337
 30
0.0
 11
-411.780725753822
 21
-283.8574421478752
 31
0.0
  0
LINE
  5
260
330
1F
100
AcDbEntity
  8
通り芯
  6
Continuous
 62
     3
370
     9
100
AcDbLine
 10
-410.7806729666598
 20
-278.8574998838337
 30
0.0
 11
-410.7806729666598
 21
-282.8574883366421
 31
0.0
  0
LINE
  5
261
330
1F
100
AcDbEntity
  8
通り芯
  6
Continuous
 62
     3
370
     9
100
AcDbLine
 10
-136.7807587457983
 20
-273.6575272671741
 30
0.0
 11
-138.2556980405618
 21
-275.2574731603329
 31
0.0
  0
LINE
  5
262
330
1F
100
AcDbEntity
  8
通り芯
  6
Continuous
 62
     3
370
     9
100
AcDbLine
 10
-141.0182151963895
 20
-273.6575272671741
 30
0.0
 11
-141.0182151963895
 21
-278.8574998838337
 31
0.0
  0
LINE
  5
263
330
1F
100
AcDbEntity
  8
通り芯
  6
Continuous
 62
     3
370
     9
100
AcDbLine
 10
-138.2556980405618
 20
-275.2574731603329
 30
0.0
 11
-138.2556980405618
 21
-278.8574998838337
 31
0.0
  0
LINE
  5
264
330
1F
100
AcDbEntity
  8
通り芯
  6
Continuous
 62
     3
370
     9
100
AcDbLine
 10
-140.7806729666598
 20
-282.8574883366421
 30
0.0
 11
-141.7807257538219
 21
-283.8574421478752
 31
0.0
  0
LINE
  5
265
330
1F
100
AcDbEntity
  8
通り芯
  6
Continuous
 62
     3
370
     9
100
AcDbLine
 10
-141.7807257538219
 20
-283.8574421478752
 30
0.0
 11
-145.7807389506125
 21
-283.8574421478752
 31
0.0
  0
LINE
  5
266
330
1F
100
AcDbEntity
  8
通り芯
  6
Continuous
 62
     3
370
     9
100
AcDbLine
 10
-140.7806729666598
 20
-282.8574883366421
 30
0.0
 11
-146.7807917377746
 21
-282.8574883366421
 31
0.0
  0
LINE
  5
267
330
1F
100
AcDbEntity
  8
通り芯
  6
Continuous
 62
     3
370
     9
100
AcDbLine
 10
-138.2556980405618
 20
-278.8574998838337
 30
0.0
 11
-149.3057666638726
 21
-278.8574998838337
 31
0.0
  0
LINE
  5
268
330
1F
100
AcDbEntity
  8
通り芯
  6
Continuous
 62
     3
370
     9
100
AcDbLine
 10
-136.7807587457983
 20
-273.6575272671741
 30
0.0
 11
-150.7806564706716
 21
-273.6575272671741
 31
0.0
  0
LINE
  5
269
330
1F
100
AcDbEntity
  8
通り芯
  6
Continuous
 62
     3
370
     9
100
AcDbLine
 10
-136.7807587457983
 20
-272.8574800886479
 30
0.0
 11
-136.7807587457983
 21
-273.6575272671741
 31
0.0
  0
LINE
  5
26A
330
1F
100
AcDbEntity
  8
通り芯
  6
Continuous
 62
     3
370
     9
100
AcDbLine
 10
-141.7807257538219
 20
-278.8574998838337
 30
0.0
 11
-141.7807257538219
 21
-283.8574421478752
 31
0.0
  0
LINE
  5
26B
330
1F
100
AcDbEntity
  8
通り芯
  6
Continuous
 62
     3
370
     9
100
AcDbLine
 10
-140.7806729666598
 20
-278.8574998838337
 30
0.0
 11
-140.7806729666598
 21
-282.8574883366421
 31
0.0
  0
LINE
  5
26C
330
1F
100
AcDbEntity
  8
通り芯
  6
Continuous
 62
     3
370
     9
100
AcDbLine
 10
-150.7806564706716
 20
-273.6575272671741
 30
0.0
 11
-149.3057666638726
 21
-275.2574731603329
 31
0.0
  0
LINE
  5
26D
330
1F
100
AcDbEntity
  8
通り芯
  6
Continuous
 62
     3
370
     9
100
AcDbLine
 10
-146.5432495080449
 20
-273.6575272671741
 30
0.0
 11
-146.5432495080449
 21
-278.8574998838337
 31
0.0
  0
LINE
  5
26E
330
1F
100
AcDbEntity
  8
通り芯
  6
Continuous
 62
     3
370
     9
100
AcDbLine
 10
-149.3057666638726
 20
-275.2574731603329
 30
0.0
 11
-149.3057666638726
 21
-278.8574998838337
 31
0.0
  0
LINE
  5
26F
330
1F
100
AcDbEntity
  8
通り芯
  6
Continuous
 62
     3
370
     9
100
AcDbLine
 10
-146.7807917377746
 20
-282.8574883366421
 30
0.0
 11
-145.7807389506125
 21
-283.8574421478752
 31
0.0
  0
LINE
  5
270
330
1F
100
AcDbEntity
  8
通り芯
  6
Continuous
 62
     3
370
     9
100
AcDbLine
 10
-150.7806564706716
 20
-272.8574800886479
 30
0.0
 11
-150.7806564706716
 21
-273.6575272671741
 31
0.0
  0
LINE
  5
271
330
1F
100
AcDbEntity
  8
通り芯
  6
Continuous
 62
     3
370
     9
100
AcDbLine
 10
-152.9564938070314
 20
-272.8574800886479
 30
0.0
 11
-134.604871921474
 21
-272.8574800886479
 31
0.0
  0
LINE
  5
272
330
1F
100
AcDbEntity
  8
通り芯
  6
Continuous
 62
     3
370
     9
100
AcDbLine
 10
-145.7807389506125
 20
-278.8574998838337
 30
0.0
 11
-145.7807389506125
 21
-283.8574421478752
 31
0.0
  0
LINE
  5
273
330
1F
100
AcDbEntity
  8
通り芯
  6
Continuous
 62
     3
370
     9
100
AcDbLine
 10
-146.7807917377746
 20
-278.8574998838337
 30
0.0
 11
-146.7807917377746
 21
-282.8574883366421
 31
0.0
  0
LINE
  5
274
330
1F
100
AcDbEntity
  8
通り芯
  6
Continuous
 62
     3
370
     9
100
AcDbLine
 10
-131.280715856229
 20
-253.8574421478752
 30
0.0
 11
-131.280715856229
 21
-258.8575081318279
 31
0.0
  0
LINE
  5
275
330
1F
100
AcDbEntity
  8
通り芯
  6
Continuous
 62
     3
370
     9
100
AcDbLine
 10
-156.2806993602409
 20
-253.8574421478752
 30
0.0
 11
-156.2806993602409
 21
-258.8575081318279
 31
0.0
  0
LINE
  5
276
330
1F
100
AcDbEntity
  8
通り芯
  6
Continuous
 62
     3
370
     9
100
AcDbLine
 10
-266.2806663682645
 20
-253.8574421478752
 30
0.0
 11
-266.2806663682645
 21
-258.8575081318279
 31
0.0
  0
LINE
  5
277
330
1F
100
AcDbEntity
  8
通り芯
  6
Continuous
 62
     3
370
     9
100
AcDbLine
 10
-291.2806993602409
 20
-253.8574421478752
 30
0.0
 11
-291.2806993602409
 21
-258.8575081318279
 31
0.0
  0
LINE
  5
278
330
1F
100
AcDbEntity
  8
通り芯
  6
Continuous
 62
     3
370
     9
100
AcDbLine
 10
-401.2806663682645
 20
-253.8574421478752
 30
0.0
 11
-401.2806663682645
 21
-258.8575081318279
 31
0.0
  0
LINE
  5
279
330
1F
100
AcDbEntity
  8
通り芯
  6
Continuous
 62
     3
370
     9
100
AcDbLine
 10
-403.1164719003591
 20
-271.5435003985085
 30
0.0
 11
-401.5307290530196
 21
-258.8575081318279
 31
0.0
  0
LINE
  5
27A
330
1F
100
AcDbEntity
  8
通り芯
  6
Continuous
 62
     3
370
     9
100
AcDbLine
 10
-133.1164719003591
 20
-271.5435003985085
 30
0.0
 11
-131.5307290530196
 21
-258.8575081318279
 31
0.0
  0
LINE
  5
27B
330
1F
100
AcDbEntity
  8
通り芯
  6
Continuous
 62
     3
370
     9
100
AcDbLine
 10
-154.4449928040754
 20
-271.5435003985085
 30
0.0
 11
-156.0306861634504
 21
-258.8575081318279
 31
0.0
  0
LINE
  5
27C
330
1F
100
AcDbEntity
  8
通り芯
  6
Continuous
 62
     3
370
     9
100
AcDbLine
 10
-275.8345653600297
 20
-272.8574800886479
 30
0.0
 11
-281.7268993444047
 21
-272.8574800886479
 31
0.0
  0
LINE
  5
27D
330
1F
100
AcDbEntity
  8
通り芯
  6
Continuous
 62
     3
370
     9
100
AcDbLine
 10
-274.349184104751
 20
-271.56636383812
 30
0.0
 11
-272.5619757538219
 21
-258.8575081318279
 31
0.0
  0
LINE
  5
27E
330
1F
100
AcDbEntity
  8
通り芯
  6
Continuous
 62
     3
370
     9
100
AcDbLine
 10
-283.2122311117189
 20
-271.56636383812
 30
0.0
 11
-284.999439462648
 21
-258.8575081318279
 31
0.0
  0
LINE
  5
27F
330
1F
100
AcDbEntity
  8
通り芯
  6
JWW_CENTER1
 62
     3
370
     9
100
AcDbLine
 10
-143.7807323522172
 20
-268.8574916358396
 30
0.0
 11
-143.7807323522172
 21
-287.8574306006833
 31
0.0
  0
LINE
  5
280
330
1F
100
AcDbEntity
  8
通り芯
  6
JWW_CENTER1
 62
     3
370
     9
100
AcDbLine
 10
386.7191620734584
 20
327.1426683752456
 30
0.0
 11
424.7199802744721
 21
327.1426683752456
 31
0.0
  0
LINE
  5
281
330
1F
100
AcDbEntity
  8
通り芯
  6
JWW_CENTER1
 62
     3
370
     9
100
AcDbLine
 10
386.7191620734584
 20
15.14243083301585
 30
0.0
 11
424.7199802744721
 21
15.14243083301585
 31
0.0
  0
LINE
  5
282
330
1F
100
AcDbEntity
  8
通り芯
  6
JWW_CENTER1
 62
     3
370
     9
100
AcDbLine
 10
-733.2808090585623
 20
171.1425496041309
 30
0.0
 11
135.719175270249
 21
171.1425496041309
 31
0.0
  0
LINE
  5
283
330
1F
100
AcDbEntity
  8
通り芯
  6
JWW_PHANTOM2
 62
     3
370
     9
100
AcDbLine
 10
-113.2806564706716
 20
10.14256280092127
 30
0.0
 11
115.7192082622254
 21
10.14256280092127
 31
0.0
  0
LINE
  5
284
330
1F
100
AcDbEntity
  8
通り芯
  6
JWW_PHANTOM2
 62
     3
370
     9
100
AcDbLine
 10
-113.2806564706716
 20
10.14256280092127
 30
0.0
 11
-113.2806564706716
 21
332.1425364073402
 31
0.0
  0
LINE
  5
285
330
1F
100
AcDbEntity
  8
通り芯
  6
JWW_PHANTOM2
 62
     3
370
     9
100
AcDbLine
 10
-113.2806564706716
 20
332.1425364073402
 30
0.0
 11
115.7192082622254
 21
332.1425364073402
 31
0.0
  0
LINE
  5
286
330
1F
100
AcDbEntity
  8
0-E
  6
Continuous
 62
     7
370
     9
100
AcDbLine
 10
554.221570487732
 20
232.7616968275261
 30
0.0
 11
437.7193798205025
 21
198.7746494774416
 31
0.0
  0
LINE
  5
287
330
1F
100
AcDbEntity
  8
0-E
  6
Continuous
 62
     7
370
     9
100
AcDbLine
 10
554.221570487732
 20
232.7616968275261
 30
0.0
 11
699.2327877596916
 21
232.7616968275261
 31
0.0
  0
LINE
  5
288
330
1F
100
AcDbEntity
  8
0-E
  6
Continuous
 62
     7
370
     9
100
AcDbLine
 10
375.7193732221072
 20
10.14256280092127
 30
0.0
 11
347.6370318475292
 21
-94.66210820309038
 31
0.0
  0
LINE
  5
289
330
1F
100
AcDbEntity
  8
0-E
  6
Continuous
 62
     7
370
     9
100
AcDbLine
 10
375.7193732221072
 20
10.14256280092127
 30
0.0
 11
374.1530791448267
 21
-1.754789263056637
 31
0.0
  0
LINE
  5
28A
330
1F
100
AcDbEntity
  8
0-E
  6
Continuous
 62
     7
370
     9
100
AcDbLine
 10
375.7193732221072
 20
10.14256280092127
 30
0.0
 11
371.1271870417863
 21
-0.9439784522458012
 31
0.0
  0
LINE
  5
28B
330
1F
100
AcDbEntity
  8
0-E
  6
Continuous
 62
     7
370
     9
100
AcDbLine
 10
347.6370318475292
 20
-94.66210820309038
 30
0.0
 11
136.8964939463469
 21
-94.66210820309038
 31
0.0
  0
LINE
  5
28C
330
1F
100
AcDbEntity
  8
躯体
  6
JWW_DASHED3
 62
     2
370
     9
100
AcDbLine
 10
-713.2808049345653
 20
296.1424176362253
 30
0.0
 11
-114.2806597698692
 21
296.1424176362253
 31
0.0
  0
LINE
  5
28D
330
1F
100
AcDbEntity
  8
躯体
  6
Continuous
 62
     2
370
     9
100
AcDbLine
 10
-114.2806597698692
 20
296.1424176362253
 30
0.0
 11
115.7192082622254
 21
296.1424176362253
 31
0.0
  0
LINE
  5
28E
330
1F
100
AcDbEntity
  8
躯体
  6
JWW_DASHED3
 62
     2
370
     9
100
AcDbLine
 10
-713.2808049345653
 20
46.14248362017815
 30
0.0
 11
-114.2806597698692
 21
46.14248362017815
 31
0.0
  0
LINE
  5
28F
330
1F
100
AcDbEntity
  8
躯体
  6
Continuous
 62
     2
370
     9
100
AcDbLine
 10
-114.2806597698692
 20
46.14248362017815
 30
0.0
 11
115.7192082622254
 21
46.14248362017815
 31
0.0
  0
ARC
  5
290
330
1F
100
AcDbEntity
  8
通り芯
  6
Continuous
 62
     3
370
     9
100
AcDbCircle
 10
411.7194919932221
 20
303.9117311391815
 30
0.0
 40
4.000000051549963
100
AcDbArc
 50
0.0
 51
85.71116638183594
  0
CIRCLE
  5
291
330
1F
100
AcDbEntity
  8
通り芯
  6
Continuous
 62
     3
370
     9
100
AcDbCircle
 10
400.7194062140834
 20
171.1425496041309
 30
0.0
 40
2.000000025774982
  0
ARC
  5
292
330
1F
100
AcDbEntity
  8
通り芯
  6
Continuous
 62
     3
370
     9
100
AcDbCircle
 10
416.7191620734583
 20
283.2918778874922
 30
0.0
 40
1.000000012887491
100
AcDbArc
 50
0.0
 51
38.66105651855469
  0
ARC
  5
293
330
1F
100
AcDbEntity
  8
通り芯
  6
Continuous
 62
     3
370
     9
100
AcDbCircle
 10
416.7194590012454
 20
286.4934027766392
 30
0.0
 40
1.000000012887491
100
AcDbArc
 50
180.0
 51
218.6610565185547
  0
ARC
  5
294
330
1F
100
AcDbEntity
  8
通り芯
  6
Continuous
 62
     3
370
     9
100
AcDbCircle
 10
434.2192940413638
 20
311.7458738756679
 30
0.0
 40
1.500000019331236
100
AcDbArc
 50
0.0
 51
85.91419982910156
  0
ARC
  5
295
330
1F
100
AcDbEntity
  8
通り芯
  6
Continuous
 62
     3
370
     9
100
AcDbCircle
 10
434.2192940413638
 20
308.4294874208538
 30
0.0
 40
1.500000019331236
100
AcDbArc
 50
278.7463684082031
 51
0.0
  0
ARC
  5
296
330
1F
100
AcDbEntity
  8
通り芯
  6
Continuous
 62
     3
370
     9
100
AcDbCircle
 10
426.7194919932221
 20
301.7109023807355
 30
0.0
 40
4.000000051549963
100
AcDbArc
 50
98.74600219726562
 51
180.0
  0
ARC
  5
297
330
1F
100
AcDbEntity
  8
通り芯
  6
Continuous
 62
     3
370
     9
100
AcDbCircle
 10
-699.2629678225509
 20
305.2729470914619
 30
0.0
 40
4.000000051549963
100
AcDbArc
 50
90.0
 51
180.0
  0
ARC
  5
298
330
1F
100
AcDbEntity
  8
通り芯
  6
Continuous
 62
     3
370
     9
100
AcDbCircle
 10
-698.6915797841219
 20
304.6229721653639
 30
0.0
 40
3.000000038662472
100
AcDbArc
 50
90.0
 51
180.0
  0
ARC
  5
299
330
1F
100
AcDbEntity
  8
通り芯
  6
Continuous
 62
     3
370
     9
100
AcDbCircle
 10
-437.4938803146328
 20
-297.3574866870431
 30
0.0
 40
1.500000019331236
100
AcDbArc
 50
188.7459106445312
 51
270.0
  0
ARC
  5
29A
330
1F
100
AcDbEntity
  8
通り芯
  6
Continuous
 62
     3
370
     9
100
AcDbCircle
 10
-525.0676091337839
 20
-297.3574866870431
 30
0.0
 40
1.500000019331236
100
AcDbArc
 50
270.0
 51
351.2540893554688
  0
ARC
  5
29B
330
1F
100
AcDbEntity
  8
通り芯
  6
Continuous
 62
     3
370
     9
100
AcDbCircle
 10
-572.4938803146327
 20
-297.3574866870431
 30
0.0
 40
1.500000019331236
100
AcDbArc
 50
188.7460174560547
 51
270.0
  0
ARC
  5
29C
330
1F
100
AcDbEntity
  8
通り芯
  6
Continuous
 62
     3
370
     9
100
AcDbCircle
 10
-658.5676041849875
 20
-297.3574866870431
 30
0.0
 40
1.500000019331236
100
AcDbArc
 50
270.0
 51
351.2539978027344
  0
ARC
  5
29D
330
1F
100
AcDbEntity
  8
通り芯
  6
Continuous
 62
     3
370
     9
100
AcDbCircle
 10
-705.8840863165332
 20
-297.3574866870431
 30
0.0
 40
1.500000019331236
100
AcDbArc
 50
184.0851135253906
 51
270.0
  0
ARC
  5
29E
330
1F
100
AcDbEntity
  8
通り芯
  6
Continuous
 62
     3
370
     9
100
AcDbCircle
 10
-443.3545420017105
 20
-288.8574833878456
 30
0.0
 40
3.000000038662472
100
AcDbArc
 50
8.746337890625
 51
90.0
  0
ARC
  5
29F
330
1F
100
AcDbEntity
  8
通り芯
  6
Continuous
 62
     3
370
     9
100
AcDbCircle
 10
-519.2069721906885
 20
-288.8574833878456
 30
0.0
 40
3.000000038662472
100
AcDbArc
 50
90.0
 51
171.253662109375
  0
ARC
  5
2A0
330
1F
100
AcDbEntity
  8
通り芯
  6
Continuous
 62
     3
370
     9
100
AcDbCircle
 10
-578.354492513746
 20
-288.8574833878456
 30
0.0
 40
3.000000038662472
100
AcDbArc
 50
8.746292114257812
 51
90.0
  0
ARC
  5
2A1
330
1F
100
AcDbEntity
  8
通り芯
  6
Continuous
 62
     3
370
     9
100
AcDbCircle
 10
-652.707041473839
 20
-288.8574833878456
 30
0.0
 40
3.000000038662472
100
AcDbArc
 50
90.0
 51
171.2537078857422
  0
ARC
  5
2A2
330
1F
100
AcDbEntity
  8
通り芯
  6
Continuous
 62
     3
370
     9
100
AcDbCircle
 10
-704.848154755089
 20
-281.8575097814266
 30
0.0
 40
4.000000051549963
100
AcDbArc
 50
189.9193572998047
 51
208.6634521484375
  0
ARC
  5
2A3
330
1F
100
AcDbEntity
  8
通り芯
  6
Continuous
 62
     3
370
     9
100
AcDbCircle
 10
413.7198944953333
 20
318.724072777695
 30
0.0
 40
4.000000051549963
100
AcDbArc
 50
180.0
 51
265.9141693115234
  0
ARC
  5
2A4
330
1F
100
AcDbEntity
  8
通り芯
  6
Continuous
 62
     3
370
     9
100
AcDbCircle
 10
408.2198021177996
 20
335.8183044605498
 30
0.0
 40
1.500000019331236
100
AcDbArc
 50
0.0
 51
82.87332153320312
  0
ARC
  5
2A5
330
1F
100
AcDbEntity
  8
通り芯
  6
Continuous
 62
     3
370
     9
100
AcDbCircle
 10
-422.956543294996
 20
-271.3574751398514
 30
0.0
 40
1.500000019331236
100
AcDbArc
 50
187.1250152587891
 51
270.0
  0
ARC
  5
2A6
330
1F
100
AcDbEntity
  8
通り芯
  6
Continuous
 62
     3
370
     9
100
AcDbCircle
 10
-692.9565432949961
 20
-271.3574751398514
 30
0.0
 40
1.500000019331236
100
AcDbArc
 50
187.1250152587891
 51
270.0
  0
ARC
  5
2A7
330
1F
100
AcDbEntity
  8
通り芯
  6
Continuous
 62
     3
370
     9
100
AcDbCircle
 10
-674.6049214094386
 20
-271.3574751398514
 30
0.0
 40
1.500000019331236
100
AcDbArc
 50
270.0
 51
352.8749847412109
  0
ARC
  5
2A8
330
1F
100
AcDbEntity
  8
通り芯
  6
Continuous
 62
     3
370
     9
100
AcDbCircle
 10
-551.7268993444047
 20
-271.3574751398514
 30
0.0
 40
1.500000019331236
100
AcDbArc
 50
188.004867553711
 51
270.0
  0
ARC
  5
2A9
330
1F
100
AcDbEntity
  8
通り芯
  6
Continuous
 62
     3
370
     9
100
AcDbCircle
 10
-545.8345653600297
 20
-271.3574751398514
 30
0.0
 40
1.500000019331236
100
AcDbArc
 50
270.0
 51
351.9951324462891
  0
ARC
  5
2AA
330
1F
100
AcDbEntity
  8
通り芯
  6
Continuous
 62
     3
370
     9
100
AcDbCircle
 10
-128.2985711138303
 20
305.2729470914619
 30
0.0
 40
4.000000051549963
100
AcDbArc
 50
0.0
 51
90.0
  0
ARC
  5
2AB
330
1F
100
AcDbEntity
  8
通り芯
  6
Continuous
 62
     3
370
     9
100
AcDbCircle
 10
-128.8699096642949
 20
304.6229721653639
 30
0.0
 40
3.000000038662472
100
AcDbArc
 50
0.0
 51
90.0
  0
ARC
  5
2AC
330
1F
100
AcDbEntity
  8
通り芯
  6
Continuous
 62
     3
370
     9
100
AcDbCircle
 10
-699.2629678225509
 20
37.01215211679983
 30
0.0
 40
4.000000051549963
100
AcDbArc
 50
180.0
 51
270.0
  0
ARC
  5
2AD
330
1F
100
AcDbEntity
  8
通り芯
  6
Continuous
 62
     3
370
     9
100
AcDbCircle
 10
-698.6915797841219
 20
37.66212704289774
 30
0.0
 40
3.000000038662472
100
AcDbArc
 50
180.0
 51
270.0
  0
ARC
  5
2AE
330
1F
100
AcDbEntity
  8
通り芯
  6
Continuous
 62
     3
370
     9
100
AcDbCircle
 10
-128.2985711138303
 20
37.01215211679983
 30
0.0
 40
4.000000051549963
100
AcDbArc
 50
270.0
 51
0.0
  0
ARC
  5
2AF
330
1F
100
AcDbEntity
  8
通り芯
  6
Continuous
 62
     3
370
     9
100
AcDbCircle
 10
-128.8699096642949
 20
37.66212704289774
 30
0.0
 40
3.000000038662472
100
AcDbArc
 50
270.0
 51
0.0
  0
ARC
  5
2B0
330
1F
100
AcDbEntity
  8
通り芯
  6
Continuous
 62
     3
370
     9
100
AcDbCircle
 10
411.7194919932221
 20
38.37336806908024
 30
0.0
 40
4.000000051549963
100
AcDbArc
 50
274.2888336181641
 51
0.0
  0
ARC
  5
2B1
330
1F
100
AcDbEntity
  8
通り芯
  6
Continuous
 62
     3
370
     9
100
AcDbCircle
 10
416.7191620734583
 20
58.99322132076941
 30
0.0
 40
1.000000012887491
100
AcDbArc
 50
321.3389434814453
 51
0.0000000000000127
  0
ARC
  5
2B2
330
1F
100
AcDbEntity
  8
通り芯
  6
Continuous
 62
     3
370
     9
100
AcDbCircle
 10
416.7194590012454
 20
55.79169643162231
 30
0.0
 40
1.000000012887491
100
AcDbArc
 50
141.3389434814453
 51
180.0
  0
ARC
  5
2B3
330
1F
100
AcDbEntity
  8
通り芯
  6
Continuous
 62
     3
370
     9
100
AcDbCircle
 10
434.2192940413638
 20
30.53922533259356
 30
0.0
 40
1.500000019331236
100
AcDbArc
 50
274.0858001708984
 51
0.0000000000000254
  0
ARC
  5
2B4
330
1F
100
AcDbEntity
  8
通り芯
  6
Continuous
 62
     3
370
     9
100
AcDbCircle
 10
434.2192940413638
 20
33.85561178740772
 30
0.0
 40
1.500000019331236
100
AcDbArc
 50
0.0
 51
81.25363159179688
  0
ARC
  5
2B5
330
1F
100
AcDbEntity
  8
通り芯
  6
Continuous
 62
     3
370
     9
100
AcDbCircle
 10
426.7194919932221
 20
40.57419682752607
 30
0.0
 40
4.000000051549963
100
AcDbArc
 50
180.0
 51
261.2539978027344
  0
ARC
  5
2B6
330
1F
100
AcDbEntity
  8
通り芯
  6
Continuous
 62
     3
370
     9
100
AcDbCircle
 10
413.7198944953333
 20
23.5610264305667
 30
0.0
 40
4.000000051549963
100
AcDbArc
 50
94.08583068847656
 51
180.0
  0
ARC
  5
2B7
330
1F
100
AcDbEntity
  8
通り芯
  6
Continuous
 62
     3
370
     9
100
AcDbCircle
 10
408.2198021177996
 20
6.466794747711901
 30
0.0
 40
1.500000019331236
100
AcDbArc
 50
277.1266784667969
 51
0.0000000000000127
  0
ARC
  5
2B8
330
1F
100
AcDbEntity
  8
通り芯
  6
Continuous
 62
     3
370
     9
100
AcDbCircle
 10
-390.0675843898017
 20
-297.3574866870431
 30
0.0
 40
1.500000019331236
100
AcDbArc
 50
270.0
 51
351.2540893554688
  0
ARC
  5
2B9
330
1F
100
AcDbEntity
  8
通り芯
  6
Continuous
 62
     3
370
     9
100
AcDbCircle
 10
-302.4938803146327
 20
-297.3574866870431
 30
0.0
 40
1.500000019331236
100
AcDbArc
 50
188.7459106445312
 51
270.0
  0
ARC
  5
2BA
330
1F
100
AcDbEntity
  8
通り芯
  6
Continuous
 62
     3
370
     9
100
AcDbCircle
 10
-255.0675843898017
 20
-297.3574866870431
 30
0.0
 40
1.500000019331236
100
AcDbArc
 50
270.0
 51
351.2539825439453
  0
ARC
  5
2BB
330
1F
100
AcDbEntity
  8
通り芯
  6
Continuous
 62
     3
370
     9
100
AcDbCircle
 10
-168.9938605194469
 20
-297.3574866870431
 30
0.0
 40
1.500000019331236
100
AcDbArc
 50
188.7460021972657
 51
270.0
  0
ARC
  5
2BC
330
1F
100
AcDbEntity
  8
通り芯
  6
Continuous
 62
     3
370
     9
100
AcDbCircle
 10
-121.6774278758659
 20
-297.3574866870431
 30
0.0
 40
1.500000019331236
100
AcDbArc
 50
270.0
 51
355.9148864746094
  0
ARC
  5
2BD
330
1F
100
AcDbEntity
  8
通り芯
  6
Continuous
 62
     3
370
     9
100
AcDbCircle
 10
-384.206922702724
 20
-288.8574833878456
 30
0.0
 40
3.000000038662472
100
AcDbArc
 50
90.0
 51
171.253662109375
  0
ARC
  5
2BE
330
1F
100
AcDbEntity
  8
通り芯
  6
Continuous
 62
     3
370
     9
100
AcDbCircle
 10
-308.354492513746
 20
-288.8574833878456
 30
0.0
 40
3.000000038662472
100
AcDbArc
 50
8.746337890625
 51
90.0
  0
ARC
  5
2BF
330
1F
100
AcDbEntity
  8
通り芯
  6
Continuous
 62
     3
370
     9
100
AcDbCircle
 10
-249.2069721906885
 20
-288.8574833878456
 30
0.0
 40
3.000000038662472
100
AcDbArc
 50
90.0
 51
171.2537078857422
  0
ARC
  5
2C0
330
1F
100
AcDbEntity
  8
通り芯
  6
Continuous
 62
     3
370
     9
100
AcDbCircle
 10
-174.8544232305956
 20
-288.8574833878456
 30
0.0
 40
3.000000038662472
100
AcDbArc
 50
8.746292114257812
 51
90.0
  0
ARC
  5
2C1
330
1F
100
AcDbEntity
  8
通り芯
  6
Continuous
 62
     3
370
     9
100
AcDbCircle
 10
-122.7133099493456
 20
-281.8575097814266
 30
0.0
 40
4.000000051549963
100
AcDbArc
 50
331.3365478515625
 51
350.0806427001953
  0
ARC
  5
2C2
330
1F
100
AcDbEntity
  8
通り芯
  6
Continuous
 62
     3
370
     9
100
AcDbCircle
 10
-404.6049214094385
 20
-271.3574751398514
 30
0.0
 40
1.500000019331236
100
AcDbArc
 50
270.0
 51
352.8749847412109
  0
ARC
  5
2C3
330
1F
100
AcDbEntity
  8
通り芯
  6
Continuous
 62
     3
370
     9
100
AcDbCircle
 10
-134.604871921474
 20
-271.3574751398514
 30
0.0
 40
1.500000019331236
100
AcDbArc
 50
270.0
 51
352.8749847412109
  0
ARC
  5
2C4
330
1F
100
AcDbEntity
  8
通り芯
  6
Continuous
 62
     3
370
     9
100
AcDbCircle
 10
-152.9564938070314
 20
-271.3574751398514
 30
0.0
 40
1.500000019331236
100
AcDbArc
 50
187.1250152587891
 51
270.0
  0
ARC
  5
2C5
330
1F
100
AcDbEntity
  8
通り芯
  6
Continuous
 62
     3
370
     9
100
AcDbCircle
 10
-275.8345653600297
 20
-271.3574751398514
 30
0.0
 40
1.500000019331236
100
AcDbArc
 50
270.0
 51
351.9951324462891
  0
ARC
  5
2C6
330
1F
100
AcDbEntity
  8
通り芯
  6
Continuous
 62
     3
370
     9
100
AcDbCircle
 10
-281.7268993444047
 20
-271.3574751398514
 30
0.0
 40
1.500000019331236
100
AcDbArc
 50
188.004867553711
 51
270.0
  0
TEXT
  5
2C7
330
1F
100
AcDbEntity
  8
0-E
  6
Continuous
 62
     7
370
     9
100
AcDbText
 10
561.6142937774279
 20
218.1987315350851
 30
0.0
 40
9.144
  1
樹脂系塗装
 41
1.133333333333333
  7
ＭＳ ゴシック
100
AcDbText
  0
TEXT
  5
2C8
330
1F
100
AcDbEntity
  8
0-E
  6
Continuous
 62
     7
370
     9
100
AcDbText
 10
562.5957060979516
 20
240.2764507337761
 30
0.0
 40
9.144
  1
蓋本体：ＦＣＤ５００
 41
1.15
  7
ＭＳ ゴシック
100
AcDbText
  0
TEXT
  5
2C9
330
1F
100
AcDbEntity
  8
0-E
  6
Continuous
 62
     7
370
     9
100
AcDbText
 10
138.4492250221492
 20
-88.62140280824246
 30
0.0
 40
9.144
  1
排水口グレーチング（Ｐ＝１５）
 41
1.155555555555555
  7
ＭＳ ゴシック
100
AcDbText
  0
TEXT
  5
2CA
330
1F
100
AcDbEntity
  8
0-E
  6
Continuous
 62
     7
370
     9
100
AcDbText
 10
136.8964807495565
 20
-107.6084501583268
 30
0.0
 40
9.144
  1
ＳＵＳ３０４
 41
1.138888888888889
  7
ＭＳ ゴシック
100
AcDbText
  0
LINE
  5
2CB
330
1F
100
AcDbEntity
  8
0-F
  6
Continuous
 62
     7
370
     9
100
AcDbLine
 10
-709.2807917377746
 20
-78.85758236377455
 30
0.0
 11
-118.2807719425888
 21
-78.85758236377455
 31
0.0
  0
LINE
  5
2CC
330
1F
100
AcDbEntity
  8
0-F
  6
Continuous
 62
     7
370
     9
100
AcDbLine
 10
-709.2807917377746
 20
-78.85758236377455
 30
0.0
 11
-697.3834891617613
 21
-77.29128828649414
 31
0.0
  0
LINE
  5
2CD
330
1F
100
AcDbEntity
  8
0-F
  6
Continuous
 62
     7
370
     9
100
AcDbLine
 10
-709.2807917377746
 20
-78.85758236377455
 30
0.0
 11
-697.3834891617613
 21
-80.42387644105497
 31
0.0
  0
LINE
  5
2CE
330
1F
100
AcDbEntity
  8
0-F
  6
Continuous
 62
     7
370
     9
100
AcDbLine
 10
-118.2807719425888
 20
-78.85758236377455
 30
0.0
 11
-130.1780745186023
 21
-77.29128828649414
 31
0.0
  0
LINE
  5
2CF
330
1F
100
AcDbEntity
  8
0-F
  6
Continuous
 62
     7
370
     9
100
AcDbLine
 10
-118.2807719425888
 20
-78.85758236377455
 30
0.0
 11
-130.1780745186023
 21
-80.42387644105497
 31
0.0
  0
LINE
  5
2D0
330
1F
100
AcDbEntity
  8
0-F
  6
Continuous
 62
     7
370
     9
100
AcDbLine
 10
-713.2808049345653
 20
-118.8575658677864
 30
0.0
 11
-701.3835023585517
 21
-117.291271790506
 31
0.0
  0
LINE
  5
2D1
330
1F
100
AcDbEntity
  8
0-F
  6
Continuous
 62
     7
370
     9
100
AcDbLine
 10
-713.2808049345653
 20
-118.8575658677864
 30
0.0
 11
-701.3835023585517
 21
-120.4238599450669
 31
0.0
  0
LINE
  5
2D2
330
1F
100
AcDbEntity
  8
0-F
  6
Continuous
 62
     7
370
     9
100
AcDbLine
 10
-114.2807587457983
 20
-118.8575658677864
 30
0.0
 11
-126.1780613218118
 21
-117.291271790506
 31
0.0
  0
LINE
  5
2D3
330
1F
100
AcDbEntity
  8
0-F
  6
Continuous
 62
     7
370
     9
100
AcDbLine
 10
-114.2807587457983
 20
-118.8575658677864
 30
0.0
 11
-126.1780613218118
 21
-120.4238599450669
 31
0.0
  0
LINE
  5
2D4
330
1F
100
AcDbEntity
  8
0-F
  6
Continuous
 62
     7
370
     9
100
AcDbLine
 10
-113.2808049345652
 20
-118.8575658677864
 30
0.0
 11
-101.3835023585517
 21
-117.291271790506
 31
0.0
  0
LINE
  5
2D5
330
1F
100
AcDbEntity
  8
0-F
  6
Continuous
 62
     7
370
     9
100
AcDbLine
 10
-113.2808049345652
 20
-118.8575658677864
 30
0.0
 11
-101.3835023585517
 21
-120.4238599450669
 31
0.0
  0
LINE
  5
2D6
330
1F
100
AcDbEntity
  8
0-F
  6
Continuous
 62
     7
370
     9
100
AcDbLine
 10
371.7192610493876
 20
1.142384644248978
 30
0.0
 11
274.5192570903505
 21
1.142384644248978
 31
0.0
  0
LINE
  5
2D7
330
1F
100
AcDbEntity
  8
0-F
  6
Continuous
 62
     7
370
     9
100
AcDbLine
 10
371.7192610493876
 20
29.14252650974731
 30
0.0
 11
314.5192900823267
 21
29.14252650974731
 31
0.0
  0
LINE
  5
2D8
330
1F
100
AcDbEntity
  8
0-F
  6
Continuous
 62
     7
370
     9
100
AcDbLine
 10
315.719274246178
 20
1.142384644248978
 30
0.0
 11
314.1529801688976
 21
13.03973670822711
 31
0.0
  0
LINE
  5
2D9
330
1F
100
AcDbEntity
  8
0-F
  6
Continuous
 62
     7
370
     9
100
AcDbLine
 10
315.719274246178
 20
1.142384644248978
 30
0.0
 11
317.2855683234584
 21
13.03973670822711
 31
0.0
  0
LINE
  5
2DA
330
1F
100
AcDbEntity
  8
0-F
  6
Continuous
 62
     7
370
     9
100
AcDbLine
 10
317.2855683234584
 20
41.03987857372545
 30
0.0
 11
314.1529801688976
 21
17.24517444576941
 31
0.0
  0
LINE
  5
2DB
330
1F
100
AcDbEntity
  8
0-F
  6
Continuous
 62
     7
370
     9
100
AcDbLine
 10
314.1529801688976
 20
41.03987857372545
 30
0.0
 11
317.2855683234584
 21
17.24517444576941
 31
0.0
  0
LINE
  5
2DC
330
1F
100
AcDbEntity
  8
0-F
  6
Continuous
 62
     7
370
     9
100
AcDbLine
 10
371.7192610493876
 20
313.1425232105498
 30
0.0
 11
314.5192900823267
 21
313.1425232105498
 31
0.0
  0
LINE
  5
2DD
330
1F
100
AcDbEntity
  8
0-F
  6
Continuous
 62
     7
370
     9
100
AcDbLine
 10
315.719274246178
 20
313.1425232105498
 30
0.0
 11
314.1529801688976
 21
301.2452206345362
 31
0.0
  0
LINE
  5
2DE
330
1F
100
AcDbEntity
  8
0-F
  6
Continuous
 62
     7
370
     9
100
AcDbLine
 10
315.719274246178
 20
313.1425232105498
 30
0.0
 11
317.2855683234584
 21
301.2452206345362
 31
0.0
  0
LINE
  5
2DF
330
1F
100
AcDbEntity
  8
0-F
  6
Continuous
 62
     7
370
     9
100
AcDbLine
 10
371.7192610493876
 20
341.1425166121544
 30
0.0
 11
274.5192570903505
 21
341.1425166121544
 31
0.0
  0
LINE
  5
2E0
330
1F
100
AcDbEntity
  8
0-F
  6
Continuous
 62
     7
370
     9
100
AcDbLine
 10
371.7192610493876
 20
-3.857582363774554
 30
0.0
 11
234.5192240983739
 21
-3.857582363774554
 31
0.0
  0
LINE
  5
2E1
330
1F
100
AcDbEntity
  8
0-F
  6
Continuous
 62
     7
370
     9
100
AcDbLine
 10
371.7192610493876
 20
-0.8575724661816366
 30
0.0
 11
274.5192570903505
 21
-0.8575724661816366
 31
0.0
  0
LINE
  5
2E2
330
1F
100
AcDbEntity
  8
0-F
  6
Continuous
 62
     7
370
     9
100
AcDbLine
 10
275.7192412542017
 20
-27.58706135448415
 30
0.0
 11
275.7192412542017
 21
369.8719626108875
 31
0.0
  0
LINE
  5
2E3
330
1F
100
AcDbEntity
  8
0-F
  6
Continuous
 62
     7
370
     9
100
AcDbLine
 10
275.7192412542017
 20
341.1425166121544
 30
0.0
 11
274.1529471769213
 21
329.2452140361409
 31
0.0
  0
LINE
  5
2E4
330
1F
100
AcDbEntity
  8
0-F
  6
Continuous
 62
     7
370
     9
100
AcDbLine
 10
275.7192412542017
 20
341.1425166121544
 30
0.0
 11
277.2855353314822
 21
329.2452140361409
 31
0.0
  0
LINE
  5
2E5
330
1F
100
AcDbEntity
  8
0-F
  6
Continuous
 62
     7
370
     9
100
AcDbLine
 10
371.7192610493876
 20
343.1425232105498
 30
0.0
 11
274.5192570903505
 21
343.1425232105498
 31
0.0
  0
LINE
  5
2E6
330
1F
100
AcDbEntity
  8
0-F
  6
Continuous
 62
     7
370
     9
100
AcDbLine
 10
371.7192610493876
 20
346.1424836201782
 30
0.0
 11
234.5192240983739
 21
346.1424836201782
 31
0.0
  0
LINE
  5
2E7
330
1F
100
AcDbEntity
  8
0-F
  6
Continuous
 62
     7
370
     9
100
AcDbLine
 10
275.7192412542017
 20
346.1424836201782
 30
0.0
 11
274.1529471769213
 21
358.0397861961917
 31
0.0
  0
LINE
  5
2E8
330
1F
100
AcDbEntity
  8
0-F
  6
Continuous
 62
     7
370
     9
100
AcDbLine
 10
275.7192412542017
 20
346.1424836201782
 30
0.0
 11
277.2855353314822
 21
358.0397861961917
 31
0.0
  0
LINE
  5
2E9
330
1F
100
AcDbEntity
  8
0-F
  6
Continuous
 62
     7
370
     9
100
AcDbLine
 10
235.7192082622254
 20
-3.857582363774554
 30
0.0
 11
235.7192082622254
 21
346.1424836201782
 31
0.0
  0
LINE
  5
2EA
330
1F
100
AcDbEntity
  8
0-F
  6
Continuous
 62
     7
370
     9
100
AcDbLine
 10
235.7192082622254
 20
-3.857582363774554
 30
0.0
 11
234.152914184945
 21
8.039769700203351
 31
0.0
  0
LINE
  5
2EB
330
1F
100
AcDbEntity
  8
0-F
  6
Continuous
 62
     7
370
     9
100
AcDbLine
 10
235.7192082622254
 20
-3.857582363774554
 30
0.0
 11
237.2855023395058
 21
8.039769700203351
 31
0.0
  0
LINE
  5
2EC
330
1F
100
AcDbEntity
  8
0-F
  6
Continuous
 62
     7
370
     9
100
AcDbLine
 10
235.7192082622254
 20
346.1424836201782
 30
0.0
 11
234.152914184945
 21
334.2451810441646
 31
0.0
  0
LINE
  5
2ED
330
1F
100
AcDbEntity
  8
0-F
  6
Continuous
 62
     7
370
     9
100
AcDbLine
 10
235.7192082622254
 20
346.1424836201782
 30
0.0
 11
237.2855023395058
 21
334.2451810441646
 31
0.0
  0
LINE
  5
2EE
330
1F
100
AcDbEntity
  8
0-F
  6
Continuous
 62
     7
370
     9
100
AcDbLine
 10
275.7192412542017
 20
1.142434132213566
 30
0.0
 11
274.1529471769213
 21
13.03973670822711
 31
0.0
  0
LINE
  5
2EF
330
1F
100
AcDbEntity
  8
0-F
  6
Continuous
 62
     7
370
     9
100
AcDbLine
 10
275.7192412542017
 20
1.142434132213566
 30
0.0
 11
277.2855353314822
 21
13.03973670822711
 31
0.0
  0
LINE
  5
2F0
330
1F
100
AcDbEntity
  8
0-F
  6
Continuous
 62
     7
370
     9
100
AcDbLine
 10
275.7192412542017
 20
-3.857582363774554
 30
0.0
 11
274.1529471769213
 21
-15.7548849397881
 31
0.0
  0
LINE
  5
2F1
330
1F
100
AcDbEntity
  8
0-F
  6
Continuous
 62
     7
370
     9
100
AcDbLine
 10
275.7192412542017
 20
-3.857582363774554
 30
0.0
 11
277.2855353314822
 21
-15.7548849397881
 31
0.0
  0
LINE
  5
2F2
330
1F
100
AcDbEntity
  8
0-F
  6
Continuous
 62
     7
370
     9
100
AcDbLine
 10
375.7190762943201
 20
112.8683433910819
 30
0.0
 11
464.7516855637454
 21
112.8683433910819
 31
0.0
  0
LINE
  5
2F3
330
1F
100
AcDbEntity
  8
0-F
  6
Continuous
 62
     7
370
     9
100
AcDbLine
 10
375.7190762943201
 20
112.8683433910819
 30
0.0
 11
387.6163788703334
 21
114.4346374683623
 31
0.0
  0
LINE
  5
2F4
330
1F
100
AcDbEntity
  8
0-F
  6
Continuous
 62
     7
370
     9
100
AcDbLine
 10
375.7190762943201
 20
112.8683433910819
 30
0.0
 11
387.6163788703334
 21
111.3020493138015
 31
0.0
  0
LINE
  5
2F5
330
1F
100
AcDbEntity
  8
0-F
  6
Continuous
 62
     7
370
     9
100
AcDbLine
 10
415.7192082622254
 20
112.8683433910819
 30
0.0
 11
403.8219056862117
 21
114.4346374683623
 31
0.0
  0
LINE
  5
2F6
330
1F
100
AcDbEntity
  8
0-F
  6
Continuous
 62
     7
370
     9
100
AcDbLine
 10
415.7192082622254
 20
112.8683433910819
 30
0.0
 11
403.8219056862117
 21
111.3020493138015
 31
0.0
  0
LINE
  5
2F7
330
1F
100
AcDbEntity
  8
0-F
  6
Continuous
 62
     7
370
     9
100
AcDbLine
 10
437.7193798205025
 20
112.8683433910819
 30
0.0
 11
449.6166823965158
 21
114.4346374683623
 31
0.0
  0
LINE
  5
2F8
330
1F
100
AcDbEntity
  8
0-F
  6
Continuous
 62
     7
370
     9
100
AcDbLine
 10
437.7193798205025
 20
112.8683433910819
 30
0.0
 11
449.6166823965158
 21
111.3020493138015
 31
0.0
  0
LINE
  5
2F9
330
1F
100
AcDbEntity
  8
0-F
  6
Continuous
 62
     7
370
     9
100
AcDbLine
 10
-713.2808049345653
 20
-7.85749658463601
 30
0.0
 11
-713.2808049345653
 21
-120.0575500316377
 31
0.0
  0
LINE
  5
2FA
330
1F
100
AcDbEntity
  8
0-F
  6
Continuous
 62
     7
370
     9
100
AcDbLine
 10
-709.2807917377746
 20
-7.85749658463601
 30
0.0
 11
-709.2807917377746
 21
-80.05756652762602
 31
0.0
  0
LINE
  5
2FB
330
1F
100
AcDbEntity
  8
0-F
  6
Continuous
 62
     7
370
     9
100
AcDbLine
 10
-118.2807719425888
 20
-7.85749658463601
 30
0.0
 11
-118.2807719425888
 21
-80.05756652762602
 31
0.0
  0
LINE
  5
2FC
330
1F
100
AcDbEntity
  8
0-F
  6
Continuous
 62
     7
370
     9
100
AcDbLine
 10
-114.2807587457983
 20
-7.85749658463601
 30
0.0
 11
-114.2807587457983
 21
-120.0575500316377
 31
0.0
  0
LINE
  5
2FD
330
1F
100
AcDbEntity
  8
0-F
  6
Continuous
 62
     7
370
     9
100
AcDbLine
 10
-113.2808049345652
 20
-7.85749658463601
 30
0.0
 11
-113.2808049345652
 21
-120.0575500316377
 31
0.0
  0
LINE
  5
2FE
330
1F
100
AcDbEntity
  8
0-F
  6
Continuous
 62
     7
370
     9
100
AcDbLine
 10
-713.2808049345653
 20
-118.8575658677864
 30
0.0
 11
115.7192082622254
 21
-118.8575658677864
 31
0.0
  0
LINE
  5
2FF
330
1F
100
AcDbEntity
  8
0-F
  6
Continuous
 62
     7
370
     9
100
AcDbLine
 10
442.2306036908571
 20
137.5723888672221
 30
0.0
 11
419.8309652829179
 21
112.8683433910819
 31
0.0
  0
LINE
  5
300
330
1F
100
AcDbEntity
  8
0-F
  6
Continuous
 62
     7
370
     9
100
AcDbLine
 10
315.719274246178
 20
1.142384644248978
 30
0.0
 11
315.719274246178
 21
368.3046787743167
 31
0.0
  0
LINE
  5
301
330
1F
100
AcDbEntity
  8
0-F
  6
Continuous
 62
     7
370
     9
100
AcDbLine
 10
371.7192610493876
 20
317.1425364073402
 30
0.0
 11
314.5192900823267
 21
317.1425364073402
 31
0.0
  0
LINE
  5
302
330
1F
100
AcDbEntity
  8
0-F
  6
Continuous
 62
     7
370
     9
100
AcDbLine
 10
371.7192610493876
 20
328.1425232105498
 30
0.0
 11
314.5192900823267
 21
328.1425232105498
 31
0.0
  0
LINE
  5
303
330
1F
100
AcDbEntity
  8
0-F
  6
Continuous
 62
     7
370
     9
100
AcDbLine
 10
371.7192610493876
 20
332.1425364073402
 30
0.0
 11
314.5192900823267
 21
332.1425364073402
 31
0.0
  0
LINE
  5
304
330
1F
100
AcDbEntity
  8
0-F
  6
Continuous
 62
     7
370
     9
100
AcDbLine
 10
315.719274246178
 20
341.1425166121544
 30
0.0
 11
314.1529801688976
 21
353.0398191881679
 31
0.0
  0
LINE
  5
305
330
1F
100
AcDbEntity
  8
0-F
  6
Continuous
 62
     7
370
     9
100
AcDbLine
 10
315.719274246178
 20
341.1425166121544
 30
0.0
 11
317.2855683234584
 21
353.0398191881679
 31
0.0
  0
LINE
  5
306
330
1F
100
AcDbEntity
  8
0-F
  6
Continuous
 62
     7
370
     9
100
AcDbLine
 10
442.2306036908571
 20
137.5723888672221
 30
0.0
 11
454.7936183656884
 21
137.5723888672221
 31
0.0
  0
TEXT
  5
307
330
1F
100
AcDbEntity
  8
0-F
  6
Continuous
 62
     2
370
     9
100
AcDbText
 10
-426.7808313281463
 20
-74.60157576537935
 30
0.0
 40
12.192
  1
591
 41
1.083333333333333
  7
ＭＳ ゴシック
100
AcDbText
  0
TEXT
  5
308
330
1F
100
AcDbEntity
  8
0-F
  6
Continuous
 62
     2
370
     9
100
AcDbText
 10
-426.7808313281463
 20
-114.6015592693912
 30
0.0
 40
12.192
  1
599
 41
1.083333333333333
  7
ＭＳ ゴシック
100
AcDbText
  0
TEXT
  5
309
330
1F
100
AcDbEntity
  8
0-F
  6
Continuous
 62
     2
370
     9
100
AcDbText
 10
-95.85194718277036
 20
-114.6015592693912
 30
0.0
 40
12.192
  1
1
  7
ＭＳ ゴシック
100
AcDbText
  0
TEXT
  5
30A
330
1F
100
AcDbEntity
  8
0-F
  6
Continuous
 62
     2
370
     9
100
AcDbText
 10
84.74626828122881
 20
-114.6015592693912
 30
0.0
 40
12.192
  1
599
 41
1.083333333333333
  7
ＭＳ ゴシック
100
AcDbText
  0
TEXT
  5
30B
330
1F
100
AcDbEntity
  8
0-F
  6
Continuous
 62
     2
370
     9
100
AcDbText
 10
311.4632680193298
 20
6.642529710332143
 30
0.0
 40
12.192
  1
28
 50
90.00000250447789
 41
1.062500000000001
  7
ＭＳ ゴシック
100
AcDbText
  0
TEXT
  5
30C
330
1F
100
AcDbEntity
  8
0-F
  6
Continuous
 62
     2
370
     9
100
AcDbText
 10
271.4632348306524
 20
336.225801458643
 30
0.0
 40
12.192
  1
2
 50
90.00000250448173
 41
1.000000000000001
  7
ＭＳ ゴシック
100
AcDbText
  0
TEXT
  5
30D
330
1F
100
AcDbEntity
  8
0-F
  6
Continuous
 62
     2
370
     9
100
AcDbText
 10
271.4632348306524
 20
-1.663842030060487
 30
0.0
 40
12.192
  1
2
 50
90.00000250448173
 41
1.000000000000001
  7
ＭＳ ゴシック
100
AcDbText
  0
TEXT
  5
30E
330
1F
100
AcDbEntity
  8
0-F
  6
Continuous
 62
     2
370
     9
100
AcDbText
 10
385.2193831197001
 20
117.1243499894771
 30
0.0
 40
12.192
  1
40
 41
1.0625
  7
ＭＳ ゴシック
100
AcDbText
  0
TEXT
  5
30F
330
1F
100
AcDbEntity
  8
0-F
  6
Continuous
 62
     2
370
     9
100
AcDbText
 10
444.8646632875631
 20
141.8567520692913
 30
0.0
 40
12.192
  1
7
  7
ＭＳ ゴシック
100
AcDbText
  0
TEXT
  5
310
330
1F
100
AcDbEntity
  8
0-F
  6
Continuous
 62
     2
370
     9
100
AcDbText
 10
311.4632678226282
 20
311.142529710332
 30
0.0
 40
12.192
  1
4
 50
90.00000250447522
 41
1.000000000000001
  7
ＭＳ ゴシック
100
AcDbText
  0
TEXT
  5
311
330
1F
100
AcDbEntity
  8
0-F
  6
Continuous
 62
     2
370
     9
100
AcDbText
 10
293.5985087287894
 20
314.1425791982969
 30
0.0
 40
12.192
  1
11
 50
90.00000250448097
 41
1.062499999999987
  7
ＭＳ ゴシック
100
AcDbText
  0
TEXT
  5
312
330
1F
100
AcDbEntity
  8
0-F
  6
Continuous
 62
     2
370
     9
100
AcDbText
 10
311.4632678226282
 20
326.142529710332
 30
0.0
 40
12.192
  1
4
 50
90.00000250447522
 41
1.000000000000001
  7
ＭＳ ゴシック
100
AcDbText
  0
TEXT
  5
313
330
1F
100
AcDbEntity
  8
0-F
  6
Continuous
 62
     2
370
     9
100
AcDbText
 10
271.4632348306524
 20
-25.59181724648754
 30
0.0
 40
12.192
  1
3
 50
90.00000250448173
 41
1.000000000000001
  7
ＭＳ ゴシック
100
AcDbText
  0
TEXT
  5
314
330
1F
100
AcDbEntity
  8
0-F
  6
Continuous
 62
     2
370
     9
100
AcDbText
 10
311.4632678226282
 20
354.8451532322915
 30
0.0
 40
12.192
  1
9
 50
90.00000250447522
 41
1.000000000000001
  7
ＭＳ ゴシック
100
AcDbText
  0
TEXT
  5
315
330
1F
100
AcDbEntity
  8
0-F
  6
Continuous
 62
     2
370
     9
100
AcDbText
 10
271.4632348306524
 20
359.8766935616837
 30
0.0
 40
12.192
  1
3
 50
90.00000250448173
 41
1.000000000000001
  7
ＭＳ ゴシック
100
AcDbText
  0
TEXT
  5
316
330
1F
100
AcDbEntity
  8
0-F
  6
Continuous
 62
     2
370
     9
100
AcDbText
 10
231.4632022320784
 20
158.142450529589
 30
0.0
 40
12.192
  1
350
 50
90.00000250447873
 41
1.083333333333334
  7
ＭＳ ゴシック
100
AcDbText
  0
TEXT
  5
317
330
1F
100
AcDbEntity
  8
0-F
  6
Continuous
 62
     2
370
     9
100
AcDbText
 10
271.4632352240545
 20
158.142450529589
 30
0.0
 40
12.192
  1
340
 50
90.00000250447873
 41
1.083333333333334
  7
ＭＳ ゴシック
100
AcDbText
  0
TEXT
  5
318
330
1F
100
AcDbEntity
  8
0-F
  6
Continuous
 62
     2
370
     9
100
AcDbText
 10
311.463268216031
 20
158.1425000175533
 30
0.0
 40
12.192
  1
284
 50
90.00000250447873
 41
1.083333333333334
  7
ＭＳ ゴシック
100
AcDbText
  0
TEXT
  5
319
330
1F
100
AcDbEntity
  8
0-F
  6
Continuous
 62
     2
370
     9
100
AcDbText
 10
447.830566080004
 20
117.1243499894771
 30
0.0
 40
12.192
  1
15
 41
1.0625
  7
ＭＳ ゴシック
100
AcDbText
  0
LWPOLYLINE
  5
31A
330
1F
100
AcDbEntity
  8
0-F
  6
Continuous
 62
     7
370
     9
100
AcDbPolyline
 90
        4
 70
     1
 43
0.4
 10
275.9192412542017
 20
343.1425232105498
 42
0.4142135623731
 10
275.7192412542017
 20
343.3425232105498
 42
0.4142135623731
 10
275.5192412542017
 20
343.1425232105498
 42
0.4142135623731
 10
275.7192412542017
 20
342.9425232105498
 42
0.4142135623731
  0
LWPOLYLINE
  5
31B
330
1F
100
AcDbEntity
  8
0-F
  6
Continuous
 62
     7
370
     9
100
AcDbPolyline
 90
        4
 70
     1
 43
0.4
 10
275.9192412542017
 20
-0.8575724661816366
 42
0.4142135623731
 10
275.7192412542017
 20
-0.6575724661816367
 42
0.4142135623731
 10
275.5192412542017
 20
-0.8575724661816366
 42
0.4142135623731
 10
275.7192412542017
 20
-1.057572466181637
 42
0.4142135623731
  0
LWPOLYLINE
  5
31C
330
1F
100
AcDbEntity
  8
0-F
  6
Continuous
 62
     7
370
     9
100
AcDbPolyline
 90
        4
 70
     1
 43
0.4
 10
422.9193798205025
 20
112.8683433910819
 42
0.4142135623731
 10
422.7193798205025
 20
113.0683433910819
 42
0.4142135623731
 10
422.5193798205025
 20
112.8683433910819
 42
0.4142135623731
 10
422.7193798205025
 20
112.6683433910819
 42
0.4142135623731
  0
LWPOLYLINE
  5
31D
330
1F
100
AcDbEntity
  8
0-F
  6
Continuous
 62
     7
370
     9
100
AcDbPolyline
 90
        4
 70
     1
 43
0.4
 10
315.919274246178
 20
317.1425364073402
 42
0.4142135623731
 10
315.719274246178
 20
317.3425364073402
 42
0.4142135623731
 10
315.519274246178
 20
317.1425364073402
 42
0.4142135623731
 10
315.719274246178
 20
316.9425364073402
 42
0.4142135623731
  0
LWPOLYLINE
  5
31E
330
1F
100
AcDbEntity
  8
0-F
  6
Continuous
 62
     7
370
     9
100
AcDbPolyline
 90
        4
 70
     1
 43
0.4
 10
315.919274246178
 20
328.1425232105498
 42
0.4142135623731
 10
315.719274246178
 20
328.3425232105498
 42
0.4142135623731
 10
315.519274246178
 20
328.1425232105498
 42
0.4142135623731
 10
315.719274246178
 20
327.9425232105498
 42
0.4142135623731
  0
LWPOLYLINE
  5
31F
330
1F
100
AcDbEntity
  8
0-F
  6
Continuous
 62
     7
370
     9
100
AcDbPolyline
 90
        4
 70
     1
 43
0.4
 10
315.919274246178
 20
332.1425364073402
 42
0.4142135623731
 10
315.719274246178
 20
332.3425364073402
 42
0.4142135623731
 10
315.519274246178
 20
332.1425364073402
 42
0.4142135623731
 10
315.719274246178
 20
331.9425364073402
 42
0.4142135623731
  0
TEXT
  5
320
330
1F
100
AcDbEntity
  8
寸法
  6
Continuous
 62
     2
370
     9
100
AcDbText
 10
320.442133297711
 20
-419.9473452599053
 30
0.0
 40
12.192
  1
蓋 質 量：１５．０ｋｇ
 41
1.113636363636363
  7
ＭＳ ゴシック
100
AcDbText
  0
LINE
  5
321
330
1F
100
AcDbEntity
  8
躯体
  6
Continuous
 62
     2
370
     9
100
AcDbLine
 10
438.7192742461779
 20
343.1425232105498
 30
0.0
 11
375.719274246178
 21
343.1425232105498
 31
0.0
  0
LINE
  5
322
330
1F
100
AcDbEntity
  8
躯体
  6
Continuous
 62
     2
370
     9
100
AcDbLine
 10
441.7192346558062
 20
296.1424176362253
 30
0.0
 11
438.7192742461779
 21
296.1424176362253
 31
0.0
  0
LINE
  5
323
330
1F
100
AcDbEntity
  8
躯体
  6
Continuous
 62
     2
370
     9
100
AcDbLine
 10
438.7192742461779
 20
-0.8575724661816366
 30
0.0
 11
375.719274246178
 21
-0.8575724661816366
 31
0.0
  0
LINE
  5
324
330
1F
100
AcDbEntity
  8
躯体
  6
Continuous
 62
     2
370
     9
100
AcDbLine
 10
441.7192346558062
 20
46.14248362017815
 30
0.0
 11
438.7192742461779
 21
46.14248362017815
 31
0.0
  0
LINE
  5
325
330
1F
100
AcDbEntity
  8
躯体
  6
Continuous
 62
     2
370
     9
100
AcDbLine
 10
438.7192742461779
 20
-0.8575724661816366
 30
0.0
 11
438.7192742461779
 21
46.14248362017815
 31
0.0
  0
LINE
  5
326
330
1F
100
AcDbEntity
  8
躯体
  6
Continuous
 62
     2
370
     9
100
AcDbLine
 10
438.7192742461779
 20
343.1425232105498
 30
0.0
 11
438.7192742461779
 21
296.1424176362253
 31
0.0
  0
LINE
  5
327
330
1F
100
AcDbEntity
  8
躯体
  6
Continuous
 62
     2
370
     9
100
AcDbLine
 10
438.7192742461779
 20
-3.857582363774554
 30
0.0
 11
375.719274246178
 21
-3.857582363774554
 31
0.0
  0
LINE
  5
328
330
1F
100
AcDbEntity
  8
躯体
  6
Continuous
 62
     2
370
     9
100
AcDbLine
 10
438.7192742461779
 20
346.1424836201782
 30
0.0
 11
375.719274246178
 21
346.1424836201782
 31
0.0
  0
ARC
  5
329
330
1F
100
AcDbEntity
  8
躯体
  6
Continuous
 62
     2
370
     9
100
AcDbCircle
 10
438.7192742461779
 20
343.1425232105498
 30
0.0
 40
3.000000038662472
100
AcDbArc
 50
0.0
 51
90.0
  0
ARC
  5
32A
330
1F
100
AcDbEntity
  8
躯体
  6
Continuous
 62
     2
370
     9
100
AcDbCircle
 10
438.7192742461779
 20
-0.8575724661816366
 30
0.0
 40
3.000000038662472
100
AcDbArc
 50
270.0
 51
0.0
  0
LINE
  5
32B
330
1F
100
AcDbEntity
  8
躯体
  6
Continuous
 62
     2
370
     9
100
AcDbLine
 10
441.7192346558062
 20
343.1425232105498
 30
0.0
 11
441.7192346558062
 21
296.1424176362253
 31
0.0
  0
LINE
  5
32C
330
1F
100
AcDbEntity
  8
躯体
  6
Continuous
 62
     2
370
     9
100
AcDbLine
 10
441.7192346558062
 20
-0.8575724661816366
 30
0.0
 11
441.7192346558062
 21
46.14248362017815
 31
0.0
  0
LINE
  5
32D
330
1F
100
AcDbEntity
  8
その他
  6
Continuous
 62
     7
370
     9
100
AcDbLine
 10
529.7190894911104
 20
296.1424176362253
 30
0.0
 11
529.7190894911104
 21
346.1424836201778
 31
0.0
  0
LINE
  5
32E
330
1F
100
AcDbEntity
  8
その他
  6
Continuous
 62
     7
370
     9
100
AcDbLine
 10
450.2189641216001
 20
346.1424836201778
 30
0.0
 11
530.9190736549616
 21
346.1424836201778
 31
0.0
  0
LINE
  5
32F
330
1F
100
AcDbEntity
  8
その他
  6
Continuous
 62
     7
370
     9
100
AcDbLine
 10
446.7192610493877
 20
296.1424176362253
 30
0.0
 11
530.9190736549616
 21
296.1424176362253
 31
0.0
  0
LINE
  5
330
330
1F
100
AcDbEntity
  8
その他
  6
Continuous
 62
     7
370
     9
100
AcDbLine
 10
531.2853835683908
 20
308.0397202122386
 30
0.0
 11
528.15279541383
 21
284.2451150602118
 31
0.0
  0
LINE
  5
331
330
1F
100
AcDbEntity
  8
その他
  6
Continuous
 62
     7
370
     9
100
AcDbLine
 10
528.15279541383
 20
308.0397202122386
 30
0.0
 11
531.2853835683908
 21
284.2451150602118
 31
0.0
  0
LINE
  5
332
330
1F
100
AcDbEntity
  8
その他
  6
Continuous
 62
     7
370
     9
100
AcDbLine
 10
529.7190894911104
 20
346.1424836201778
 30
0.0
 11
528.15279541383
 21
334.2451810441645
 31
0.0
  0
LINE
  5
333
330
1F
100
AcDbEntity
  8
その他
  6
Continuous
 62
     7
370
     9
100
AcDbLine
 10
529.7190894911104
 20
346.1424836201778
 30
0.0
 11
531.2853835683908
 21
334.2451810441645
 31
0.0
  0
TEXT
  5
334
330
1F
100
AcDbEntity
  8
その他
  6
Continuous
 62
     2
370
     9
100
AcDbText
 10
525.463082892715
 20
312.6424506282016
 30
0.0
 40
12.192
  1
50
 50
90.0
 41
1.0625
  7
ＭＳ ゴシック
100
AcDbText
  0
LINE
  5
335
330
1F
100
AcDbEntity
  8
その他
  6
Continuous
 62
     7
370
     9
100
AcDbLine
 10
529.7190894911104
 20
376.1424307151871
 30
0.0
 11
529.7190894911104
 21
346.1424836201778
 31
0.0
  0
LINE
  5
336
330
1F
100
AcDbEntity
  8
その他
  6
Continuous
 62
     7
370
     9
100
AcDbLine
 10
529.7190894911104
 20
376.1424307151871
 30
0.0
 11
531.0243514133111
 21
366.2279821014489
 31
0.0
  0
LINE
  5
337
330
1F
100
AcDbEntity
  8
その他
  6
Continuous
 62
     7
370
     9
100
AcDbLine
 10
529.7190894911104
 20
376.1424307151871
 30
0.0
 11
528.41382756891
 21
366.2279821014489
 31
0.0
  0
LINE
  5
338
330
1F
100
AcDbEntity
  8
その他
  6
Continuous
 62
     7
370
     9
100
AcDbLine
 10
529.7190894911104
 20
346.1424836201778
 30
0.0
 11
531.0243514133111
 21
356.056932233916
 31
0.0
  0
LINE
  5
339
330
1F
100
AcDbEntity
  8
その他
  6
Continuous
 62
     7
370
     9
100
AcDbLine
 10
529.7190894911104
 20
346.1424836201778
 30
0.0
 11
528.41382756891
 21
356.056932233916
 31
0.0
  0
LINE
  5
33A
330
1F
100
AcDbEntity
  8
その他
  6
Continuous
 62
     7
370
     9
100
AcDbLine
 10
530.9190894911106
 20
376.1424307151871
 30
0.0
 11
450.2189641216001
 21
376.1424307151871
 31
0.0
  0
TEXT
  5
33B
330
1F
100
AcDbEntity
  8
その他
  6
Continuous
 62
     2
370
   211
100
AcDbText
 10
525.0630894911108
 20
352.6424571676824
 30
0.0
 40
12.192
  1
30
 50
90.0
 41
1.0625
  7
ＭＳ ゴシック
100
AcDbText
  0
LINE
  5
33C
330
1F
100
AcDbEntity
  8
その他
  6
Continuous
 62
     7
370
     9
100
AcDbLine
 10
529.7190894911104
 20
46.14248362017815
 30
0.0
 11
529.7190894911104
 21
296.1424176362253
 31
0.0
  0
TEXT
  5
33D
330
1F
100
AcDbEntity
  8
その他
  6
Continuous
 62
     2
370
   211
100
AcDbText
 10
523.4630894911104
 20
158.1424506282017
 30
0.0
 40
12.192
  1
250
 50
90.0
 41
1.083333333333333
  7
ＭＳ ゴシック
100
AcDbText
  0
LINE
  5
33E
330
1F
100
AcDbEntity
  8
躯体
  6
JWW_CENTER2
 62
     2
370
     9
100
AcDbLine
 10
446.218982738501
 20
366.1423841729355
 30
0.0
 11
440.2190043600286
 21
366.1423841729355
 31
0.0
  0
LINE
  5
33F
330
1F
100
AcDbEntity
  8
躯体
  6
Continuous
 62
     2
370
     9
100
AcDbLine
 10
442.2189641216002
 20
333.8926334980137
 30
0.0
 11
442.2189641216002
 21
320.3925889588453
 31
0.0
  0
LINE
  5
340
330
1F
100
AcDbEntity
  8
躯体
  6
Continuous
 62
     2
370
     9
100
AcDbLine
 10
441.7192346558064
 20
337.1424833845211
 30
0.0
 11
441.7192346558064
 21
317.1424174005687
 31
0.0
  0
LINE
  5
341
330
1F
100
AcDbEntity
  8
躯体
  6
Continuous
 62
     2
370
     9
100
AcDbLine
 10
446.7189604100028
 20
324.3923794597957
 30
0.0
 11
446.7189604100028
 21
329.8923976053828
 31
0.0
  0
LINE
  5
342
330
1F
100
AcDbEntity
  8
躯体
  6
Continuous
 62
     2
370
     9
100
AcDbLine
 10
446.7189604100028
 20
324.3923794597957
 30
0.0
 11
446.219230944209
 21
324.3923794597957
 31
0.0
  0
LINE
  5
343
330
1F
100
AcDbEntity
  8
躯体
  6
Continuous
 62
     2
370
     9
100
AcDbLine
 10
446.7189604100028
 20
324.3923794597957
 30
0.0
 11
448.2188416388882
 21
326.1424718373295
 31
0.0
  0
LINE
  5
344
330
1F
100
AcDbEntity
  8
躯体
  6
Continuous
 62
     2
370
     9
100
AcDbLine
 10
448.2188416388882
 20
326.1424718373295
 30
0.0
 11
448.2188416388882
 21
328.1422557398845
 31
0.0
  0
LINE
  5
345
330
1F
100
AcDbEntity
  8
躯体
  6
Continuous
 62
     2
370
     9
100
AcDbLine
 10
448.2188416388882
 20
328.1422557398845
 30
0.0
 11
446.7189604100028
 21
329.8923976053828
 31
0.0
  0
LINE
  5
346
330
1F
100
AcDbEntity
  8
躯体
  6
Continuous
 62
     2
370
     9
100
AcDbLine
 10
446.7189604100028
 20
329.8923976053828
 30
0.0
 11
446.219230944209
 21
329.8923976053828
 31
0.0
  0
LINE
  5
347
330
1F
100
AcDbEntity
  8
躯体
  6
Continuous
 62
     2
370
     9
100
AcDbLine
 10
442.0187976770795
 20
323.1423134758433
 30
0.0
 11
442.0187976770795
 21
327.1424503925449
 31
0.0
  0
LINE
  5
348
330
1F
100
AcDbEntity
  8
躯体
  6
Continuous
 62
     2
370
     9
100
AcDbLine
 10
442.0187976770795
 20
331.1421914055308
 30
0.0
 11
442.0187976770795
 21
327.1424503925449
 31
0.0
  0
LINE
  5
349
330
1F
100
AcDbEntity
  8
躯体
  6
Continuous
 62
     2
370
     9
100
AcDbLine
 10
442.2189641216002
 20
331.1421914055308
 30
0.0
 11
442.0187976770795
 21
331.1421914055308
 31
0.0
  0
LINE
  5
34A
330
1F
100
AcDbEntity
  8
躯体
  6
Continuous
 62
     2
370
     9
100
AcDbLine
 10
442.2189641216002
 20
323.1423134758433
 30
0.0
 11
442.0187976770795
 21
323.1423134758433
 31
0.0
  0
LINE
  5
34B
330
1F
100
AcDbEntity
  8
躯体
  6
Continuous
 62
     2
370
     9
100
AcDbLine
 10
441.7192346558064
 20
317.1424174005687
 30
0.0
 11
446.219230944209
 21
317.1424174005687
 31
0.0
  0
LINE
  5
34C
330
1F
100
AcDbEntity
  8
躯体
  6
Continuous
 62
     2
370
     9
100
AcDbLine
 10
444.2192676477827
 20
318.3924586405391
 30
0.0
 11
444.2192676477827
 21
317.1424174005687
 31
0.0
  0
LINE
  5
34D
330
1F
100
AcDbEntity
  8
躯体
  6
Continuous
 62
     2
370
     9
100
AcDbLine
 10
442.2189641216002
 20
320.3925889588453
 30
0.0
 11
442.2189641216002
 21
317.1424174005687
 31
0.0
  0
LINE
  5
34E
330
1F
100
AcDbEntity
  8
躯体
  6
Continuous
 62
     2
370
     9
100
AcDbLine
 10
444.2192676477827
 20
335.8924421445507
 30
0.0
 11
444.2192676477827
 21
337.1424833845211
 31
0.0
  0
LINE
  5
34F
330
1F
100
AcDbEntity
  8
躯体
  6
Continuous
 62
     2
370
     9
100
AcDbLine
 10
442.2189641216002
 20
333.8926334980137
 30
0.0
 11
442.2189641216002
 21
337.1424833845211
 31
0.0
  0
LINE
  5
350
330
1F
100
AcDbEntity
  8
躯体
  6
JWW_CENTER2
 62
     2
370
     9
100
AcDbLine
 10
449.7670354931425
 20
327.1424503925449
 30
0.0
 11
440.6826597508231
 21
327.1424503925449
 31
0.0
  0
LINE
  5
351
330
1F
100
AcDbEntity
  8
躯体
  6
JWW_DASHED1
 62
     2
370
     9
100
AcDbLine
 10
444.2189734300506
 20
370.3924163401124
 30
0.0
 11
442.2189641216002
 21
370.3924163401124
 31
0.0
  0
LINE
  5
352
330
1F
100
AcDbEntity
  8
躯体
  6
JWW_DASHED1
 62
     2
370
     9
100
AcDbLine
 10
444.2189734300506
 20
361.8924510995156
 30
0.0
 11
442.2189641216002
 21
361.8924510995156
 31
0.0
  0
LINE
  5
353
330
1F
100
AcDbEntity
  8
躯体
  6
Continuous
 62
     2
370
     9
100
AcDbLine
 10
444.2189734300506
 20
343.1424257663911
 30
0.0
 11
442.2189641216002
 21
343.1424257663911
 31
0.0
  0
LINE
  5
354
330
1F
100
AcDbEntity
  8
躯体
  6
JWW_DASHED1
 62
     2
370
     9
100
AcDbLine
 10
444.2189734300506
 20
376.1374264804316
 30
0.0
 11
444.2189734300506
 21
347.1474486180476
 31
0.0
  0
LINE
  5
355
330
1F
100
AcDbEntity
  8
躯体
  6
Continuous
 62
     2
370
     9
100
AcDbLine
 10
445.0189573346794
 20
376.1424307151873
 30
0.0
 11
442.2189641216002
 21
376.1424307151873
 31
0.0
  0
LINE
  5
356
330
1F
100
AcDbEntity
  8
躯体
  6
Continuous
 62
     2
370
     9
100
AcDbLine
 10
445.0189573346794
 20
347.1424443832919
 30
0.0
 11
442.2189641216002
 21
347.1424443832919
 31
0.0
  0
LINE
  5
357
330
1F
100
AcDbEntity
  8
躯体
  6
Continuous
 62
     2
370
     9
100
AcDbLine
 10
448.0189712973548
 20
350.1424583459674
 30
0.0
 11
448.0189712973548
 21
373.1424662993903
 31
0.0
  0
ARC
  5
358
330
1F
100
AcDbEntity
  8
躯体
  6
Continuous
 62
     2
370
     9
100
AcDbCircle
 10
445.0189573346794
 20
373.1424662993903
 30
0.0
 40
3.000000414701042
100
AcDbArc
 50
0.0
 51
90.0
  0
ARC
  5
359
330
1F
100
AcDbEntity
  8
躯体
  6
Continuous
 62
     2
370
     9
100
AcDbCircle
 10
445.0189573346794
 20
350.1424583459674
 30
0.0
 40
3.000000414701042
100
AcDbArc
 50
270.0
 51
0.0
  0
LINE
  5
35A
330
1F
100
AcDbEntity
  8
躯体
  6
Continuous
 62
     2
370
     9
100
AcDbLine
 10
442.2189641216002
 20
376.1424307151873
 30
0.0
 11
442.2189641216002
 21
317.1424038502927
 31
0.0
  0
LINE
  5
35B
330
1F
100
AcDbEntity
  8
躯体
  6
Continuous
 62
     2
370
     9
100
AcDbLine
 10
444.2189734300506
 20
347.1474486180476
 30
0.0
 11
444.2189734300506
 21
317.1424038502927
 31
0.0
  0
LINE
  5
35C
330
1F
100
AcDbEntity
  8
躯体
  6
Continuous
 62
     2
370
     9
100
AcDbLine
 10
442.2189641216002
 20
317.1424038502927
 30
0.0
 11
444.2189734300506
 21
317.1424038502927
 31
0.0
  0
LINE
  5
35D
330
1F
100
AcDbEntity
  8
躯体
  6
JWW_DASHED1
 62
     2
370
     9
100
AcDbLine
 10
444.0189526804539
 20
324.8924275338185
 30
0.0
 11
442.2189641216002
 21
323.1425308694014
 31
0.0
  0
LINE
  5
35E
330
1F
100
AcDbEntity
  8
躯体
  6
JWW_DASHED1
 62
     2
370
     9
100
AcDbLine
 10
446.218982738501
 20
324.8924275338185
 30
0.0
 11
444.2189734300506
 21
324.8924275338185
 31
0.0
  0
LINE
  5
35F
330
1F
100
AcDbEntity
  8
躯体
  6
JWW_DASHED1
 62
     2
370
     9
100
AcDbLine
 10
444.0189526804539
 20
329.3924237043929
 30
0.0
 11
444.0189526804539
 21
324.8924275338185
 31
0.0
  0
LINE
  5
360
330
1F
100
AcDbEntity
  8
躯体
  6
JWW_DASHED1
 62
     2
370
     9
100
AcDbLine
 10
444.0189526804539
 20
324.8924275338185
 30
0.0
 11
444.2190229769295
 21
324.8924275338185
 31
0.0
  0
LINE
  5
361
330
1F
100
AcDbEntity
  8
躯体
  6
JWW_DASHED1
 62
     2
370
     9
100
AcDbLine
 10
444.0189526804539
 20
329.3924237043929
 30
0.0
 11
444.2190229769295
 21
329.3924237043929
 31
0.0
  0
LINE
  5
362
330
1F
100
AcDbEntity
  8
躯体
  6
JWW_DASHED1
 62
     2
370
     9
100
AcDbLine
 10
444.0189526804539
 20
329.3924237043929
 30
0.0
 11
442.2189641216002
 21
331.1423699156884
 31
0.0
  0
LINE
  5
363
330
1F
100
AcDbEntity
  8
躯体
  6
JWW_DASHED1
 62
     2
370
     9
100
AcDbLine
 10
446.218982738501
 20
329.3924237043929
 30
0.0
 11
444.2189734300506
 21
329.3924237043929
 31
0.0
  0
LINE
  5
364
330
1F
100
AcDbEntity
  8
躯体
  6
Continuous
 62
     2
370
     9
100
AcDbLine
 10
446.219230944209
 20
337.1424833845211
 30
0.0
 11
446.219230944209
 21
317.1424174005687
 31
0.0
  0
LINE
  5
365
330
1F
100
AcDbEntity
  8
躯体
  6
Continuous
 62
     2
370
     9
100
AcDbLine
 10
441.7192346558064
 20
337.1424833845211
 30
0.0
 11
442.2189641216002
 21
337.1424833845211
 31
0.0
  0
LINE
  5
366
330
1F
100
AcDbEntity
  8
躯体
  6
Continuous
 62
     2
370
     9
100
AcDbLine
 10
444.2189734300506
 20
337.1424833845211
 30
0.0
 11
446.219230944209
 21
337.1424833845211
 31
0.0
  0
LINE
  5
367
330
1F
100
AcDbEntity
  8
ハッチ
  6
Continuous
 62
     6
370
     9
100
AcDbLine
 10
435.7190762943198
 20
299.6424176362253
 30
0.0
 11
438.7190762943198
 21
299.6424176362253
 31
0.0
  0
LINE
  5
368
330
1F
100
AcDbEntity
  8
ハッチ
  6
Continuous
 62
     6
370
     9
100
AcDbLine
 10
435.7190762943198
 20
337.3269958181801
 30
0.0
 11
438.0344981123651
 21
339.6424176362251
 31
0.0
  0
LINE
  5
369
330
1F
100
AcDbEntity
  8
ハッチ
  6
Continuous
 62
     6
370
     9
100
AcDbLine
 10
435.7190762943203
 20
331.6701415686872
 30
0.0
 11
438.7190762943203
 21
334.6701415686874
 31
0.0
  0
LINE
  5
36A
330
1F
100
AcDbEntity
  8
ハッチ
  6
Continuous
 62
     6
370
     9
100
AcDbLine
 10
435.7190762943194
 20
326.013287319193
 30
0.0
 11
438.7190762943194
 21
329.013287319193
 31
0.0
  0
LINE
  5
36B
330
1F
100
AcDbEntity
  8
ハッチ
  6
Continuous
 62
     6
370
     9
100
AcDbLine
 10
435.7190762943198
 20
320.3564330697003
 30
0.0
 11
438.7190762943198
 21
323.3564330697003
 31
0.0
  0
LINE
  5
36C
330
1F
100
AcDbEntity
  8
ハッチ
  6
Continuous
 62
     6
370
     9
100
AcDbLine
 10
435.7190762943194
 20
314.6995788202063
 30
0.0
 11
438.7190762943198
 21
317.6995788202065
 31
0.0
  0
LINE
  5
36D
330
1F
100
AcDbEntity
  8
ハッチ
  6
Continuous
 62
     6
370
     9
100
AcDbLine
 10
435.7190762943198
 20
309.0427245707134
 30
0.0
 11
438.719076294318
 21
312.0427245707116
 31
0.0
  0
LINE
  5
36E
330
1F
100
AcDbEntity
  8
ハッチ
  6
Continuous
 62
     6
370
     9
100
AcDbLine
 10
435.7190762943189
 20
303.3858703212262
 30
0.0
 11
438.7190762943189
 21
306.3858703212264
 31
0.0
  0
LINE
  5
36F
330
1F
100
AcDbEntity
  8
ハッチ
  6
Continuous
 62
     6
370
     9
100
AcDbLine
 10
437.6324778588116
 20
299.6424176362258
 30
0.0
 11
438.7190762943194
 21
300.7290160717336
 31
0.0
  0
LINE
  5
370
330
1F
100
AcDbEntity
  8
ハッチ
  6
Continuous
 62
     6
370
     9
100
AcDbLine
 10
435.7190762943198
 20
339.6424176362253
 30
0.0
 11
435.7190762943198
 21
299.6424176362253
 31
0.0
  0
LINE
  5
371
330
1F
100
AcDbEntity
  8
ハッチ
  6
Continuous
 62
     6
370
     9
100
AcDbLine
 10
438.7190762943198
 20
339.6424176362253
 30
0.0
 11
435.7190762943198
 21
339.6424176362253
 31
0.0
  0
LINE
  5
372
330
1F
100
AcDbEntity
  8
ハッチ
  6
Continuous
 62
     6
370
     9
100
AcDbLine
 10
438.7190762943198
 20
299.6424176362253
 30
0.0
 11
438.7190762943198
 21
339.6424176362253
 31
0.0
  0
LINE
  5
373
330
1F
100
AcDbEntity
  8
寸法
  6
Continuous
 62
     7
370
     9
100
AcDbLine
 10
367.7245925527659
 20
417.8220391522729
 30
0.0
 11
401.1208525823267
 21
346.142483620178
 31
0.0
  0
LINE
  5
374
330
1F
100
AcDbEntity
  8
寸法
  6
Continuous
 62
     7
370
     9
100
AcDbLine
 10
401.1208525823267
 20
346.142483620178
 30
0.0
 11
394.6765298416171
 21
356.2652467641816
 31
0.0
  0
LINE
  5
375
330
1F
100
AcDbEntity
  8
寸法
  6
Continuous
 62
     7
370
     9
100
AcDbLine
 10
401.1208525823267
 20
346.142483620178
 30
0.0
 11
397.516149246178
 21
357.588258007847
 31
0.0
  0
LINE
  5
376
330
1F
100
AcDbEntity
  8
寸法
  6
Continuous
 62
     7
370
     9
100
AcDbLine
 10
444.2189734300507
 20
376.1424307151871
 30
0.0
 11
448.2505599482095
 21
387.4448879575858
 31
0.0
  0
LINE
  5
377
330
1F
100
AcDbEntity
  8
寸法
  6
Continuous
 62
     7
370
     9
100
AcDbLine
 10
444.2189734300507
 20
376.1424307151871
 30
0.0
 11
451.0385139178041
 21
386.0164673494779
 31
0.0
  0
LINE
  5
378
330
1F
100
AcDbEntity
  8
寸法
  6
Continuous
 62
     7
370
     9
100
AcDbLine
 10
465.5761730415574
 20
417.8220391522729
 30
0.0
 11
444.2189734300507
 21
376.1424307151871
 31
0.0
  0
TEXT
  5
379
330
1F
100
AcDbEntity
  8
寸法
  6
Continuous
 62
     7
370
     9
100
AcDbText
 10
469.1836156368153
 20
404.6945712468674
 30
0.0
 40
9.144
  1
ＳＥＣＣ
 41
1.124999999999999
  7
ＭＳ ゴシック
100
AcDbText
  0
LINE
  5
37A
330
1F
100
AcDbEntity
  8
寸法
  6
Continuous
 62
     7
370
     9
100
AcDbLine
 10
465.5761730415574
 20
417.8220391522729
 30
0.0
 11
630.8297713156575
 21
417.8220391522729
 31
0.0
  0
TEXT
  5
37B
330
1F
100
AcDbEntity
  8
寸法
  6
Continuous
 62
     7
370
     9
100
AcDbText
 10
469.375619041587
 20
424.9631589263437
 30
0.0
 40
9.144
  1
回転アンカー：ｔ＝２.０
 41
1.152173913043478
  7
ＭＳ ゴシック
100
AcDbText
  0
TEXT
  5
37C
330
1F
100
AcDbEntity
  8
寸法
  6
Continuous
 62
     7
370
     9
100
AcDbText
 10
469.3756190415872
 20
449.5577089284567
 30
0.0
 40
9.144
  1
境界部・壁際用として使用できます
 41
1.156249999999998
  7
ＭＳ ゴシック
100
AcDbText
  0
TEXT
  5
37D
330
1F
100
AcDbEntity
  8
寸法
  6
Continuous
 62
     7
370
     9
100
AcDbText
 10
469.3756190415872
 20
464.7382759230251
 30
0.0
 40
9.144
  1
アンカーを回転・変形させることで
 41
1.156249999999998
  7
ＭＳ ゴシック
100
AcDbText
  0
TEXT
  5
37E
330
1F
100
AcDbEntity
  8
寸法
  6
Continuous
 62
     7
370
     9
100
AcDbText
 10
455.3756190415867
 20
464.7382759230251
 30
0.0
 40
9.144
  1
※
  7
ＭＳ ゴシック
100
AcDbText
  0
TEXT
  5
37F
330
1F
100
AcDbEntity
  8
寸法
  6
Continuous
 62
     7
370
     9
100
AcDbText
 10
174.8058038243817
 20
403.7636036581849
 30
0.0
 40
9.144
  1
ＳＵＳ３０４
 41
1.138888888888889
  7
ＭＳ ゴシック
100
AcDbText
  0
LINE
  5
380
330
1F
100
AcDbEntity
  8
寸法
  6
Continuous
 62
     7
370
     9
100
AcDbLine
 10
174.2659589319687
 20
417.8220391522729
 30
0.0
 11
367.7245925527659
 21
417.8220391522729
 31
0.0
  0
TEXT
  5
381
330
1F
100
AcDbEntity
  8
寸法
  6
Continuous
 62
     7
370
     9
100
AcDbText
 10
175.1931098315608
 20
423.5486939242322
 30
0.0
 40
9.144
  1
受枠：ＴＬ６０Ｐ，ｔ＝３．０
 41
1.154761904761905
  7
ＭＳ ゴシック
100
AcDbText
  0
TEXT
  5
382
330
1F
100
AcDbEntity
  8
F-5ﾚｲﾔ
  6
Continuous
 62
     2
370
     9
100
AcDbText
 10
-309.3628001271063
 20
-548.1112208411942
 30
0.0
 40
12.192
  1
　　　　　　　　　　　　ＳＥＭ－１４－３５６０（Ｐ＝１５）＋ＴＬ６０Ｐ
 41
0.7742857142857144
  7
ＭＳ ゴシック
100
AcDbText
  0
ENDSEC
  0
SECTION
  2
OBJECTS
  0
DICTIONARY
  5
C
330
0
100
AcDbDictionary
281
     1
  3
ACAD_GROUP
350
D
  3
ACAD_LAYOUT
350
1A
  3
ACAD_MLEADERSTYLE
350
384
  3
ACAD_MLINESTYLE
350
17
  3
ACAD_PLOTSETTINGS
350
19
  3
ACAD_PLOTSTYLENAME
350
E
  3
ACAD_TABLESTYLE
350
383
  3
ACAD_VISUALSTYLE
350
2A
  0
DICTIONARY
  5
D
102
{ACAD_REACTORS
330
C
102
}
330
C
100
AcDbDictionary
281
     1
  0
DICTIONARY
  5
1A
102
{ACAD_REACTORS
330
C
102
}
330
C
100
AcDbDictionary
281
     1
  3
Layout1
350
1E
  3
Layout2
350
26
  3
Model
350
22
  0
DICTIONARY
  5
384
102
{ACAD_REACTORS
330
C
102
}
330
C
100
AcDbDictionary
281
     1
  0
DICTIONARY
  5
17
102
{ACAD_REACTORS
330
C
102
}
330
C
100
AcDbDictionary
281
     1
  3
Standard
350
18
  0
DICTIONARY
  5
19
102
{ACAD_REACTORS
330
C
102
}
330
C
100
AcDbDictionary
281
     1
  0
ACDBDICTIONARYWDFLT
  5
E
102
{ACAD_REACTORS
330
C
102
}
330
C
100
AcDbDictionary
281
     1
  3
Normal
350
F
100
AcDbDictionaryWithDefault
340
F
  0
DICTIONARY
  5
383
102
{ACAD_REACTORS
330
C
102
}
330
C
100
AcDbDictionary
281
     1
  0
DICTIONARY
  5
2A
102
{ACAD_REACTORS
330
C
102
}
330
C
100
AcDbDictionary
281
     1
  3
2dWireframe
350
2F
  3
3D Hidden
350
31
  3
3dWireframe
350
30
  3
Basic
350
32
  3
Brighten
350
36
  3
ColorChange
350
3A
  3
Conceptual
350
34
  3
Dim
350
35
  3
Facepattern
350
39
  3
Flat
350
2B
  3
FlatWithEdges
350
2C
  3
Gouraud
350
2D
  3
GouraudWithEdges
350
2E
  3
Linepattern
350
38
  3
Realistic
350
33
  3
Thicken
350
37
  0
LAYOUT
  5
1E
102
{ACAD_REACTORS
330
1A
102
}
330
1A
100
AcDbPlotSettings
  1

  2
none_device
  4

  6

 40
0.0
 41
0.0
 42
0.0
 43
0.0
 44
0.0
 45
0.0
 46
0.0
 47
0.0
 48
0.0
 49
0.0
140
0.0
141
0.0
142
1.0
143
1.0
 70
   688
 72
     0
 73
     0
 74
     5
  7

 75
    16
 76
     0
 77
     5
 78
   300
147
1.0
148
0.0
149
0.0
100
AcDbLayout
  1
Layout1
 70
     1
 71
     1
 10
0.0
 20
0.0
 11
420.0
 21
297.0
 12
0.0
 22
0.0
 32
0.0
 14
1.000000000000000E+20
 24
1.000000000000000E+20
 34
1.000000000000000E+20
 15
-1.000000000000000E+20
 25
-1.000000000000000E+20
 35
-1.000000000000000E+20
146
0.0
 13
0.0
 23
0.0
 33
0.0
 16
1.0
 26
0.0
 36
0.0
 17
0.0
 27
1.0
 37
0.0
 76
     0
330
1B
  0
LAYOUT
  5
26
102
{ACAD_REACTORS
330
1A
102
}
330
1A
100
AcDbPlotSettings
  1

  2
none_device
  4

  6

 40
0.0
 41
0.0
 42
0.0
 43
0.0
 44
0.0
 45
0.0
 46
0.0
 47
0.0
 48
0.0
 49
0.0
140
0.0
141
0.0
142
1.0
143
1.0
 70
   688
 72
     0
 73
     0
 74
     5
  7

 75
    16
 76
     0
 77
     5
 78
   300
147
1.0
148
0.0
149
0.0
100
AcDbLayout
  1
Layout2
 70
     1
 71
     2
 10
0.0
 20
0.0
 11
0.0
 21
0.0
 12
0.0
 22
0.0
 32
0.0
 14
0.0
 24
0.0
 34
0.0
 15
0.0
 25
0.0
 35
0.0
146
0.0
 13
0.0
 23
0.0
 33
0.0
 16
1.0
 26
0.0
 36
0.0
 17
0.0
 27
1.0
 37
0.0
 76
     0
330
23
  0
LAYOUT
  5
22
102
{ACAD_REACTORS
330
1A
102
}
330
1A
100
AcDbPlotSettings
  1

  2
none_device
  4

  6

 40
0.0
 41
0.0
 42
0.0
 43
0.0
 44
0.0
 45
0.0
 46
0.0
 47
0.0
 48
0.0
 49
0.0
140
0.0
141
0.0
142
1.0
143
1.0
 70
  1712
 72
     0
 73
     0
 74
     0
  7

 75
     0
 76
     0
 77
     5
 78
   300
147
1.0
148
0.0
149
0.0
100
AcDbLayout
  1
Model
 70
     1
 71
     0
 10
-840.0
 20
-594.0
 11
840.0
 21
594.0
 12
0.0
 22
0.0
 32
0.0
 14
-840.0
 24
-594.0
 34
0.0
 15
840.0
 25
594.0
 35
0.0
146
0.0
 13
0.0
 23
0.0
 33
0.0
 16
1.0
 26
0.0
 36
0.0
 17
0.0
 27
1.0
 37
0.0
 76
     0
330
1F
331
29
  0
MLINESTYLE
  5
18
102
{ACAD_REACTORS
330
17
102
}
330
17
100
AcDbMlineStyle
  2
Standard
 70
     0
  3

 62
   256
 51
90.0
 52
90.0
 71
     2
 49
0.5
 62
   256
  6
BYLAYER
 49
-0.5
 62
   256
  6
BYLAYER
  0
ACDBPLACEHOLDER
  5
F
102
{ACAD_REACTORS
330
E
102
}
330
E
  0
VISUALSTYLE
  5
2F
102
{ACAD_REACTORS
330
2A
102
}
330
2A
100
AcDbVisualStyle
  2
2dWireframe
 70
     4
 71
     0
 72
     2
 73
     0
 90
        0
 40
-0.6
 41
-30.0
 62
     5
 63
     7
421
 16777215
 74
     1
 91
        4
 64
     7
 65
   257
 75
     1
175
     1
 42
1.0
 92
        0
 66
   257
 43
1.0
 76
     1
 77
     6
 78
     2
 67
     7
 79
     5
170
     0
171
     0
290
     0
174
     0
 93
        1
 44
0.0
173
     0
291
     0
 45
0.0
1001
ACAD
1000
AcDbSavedByObjectVersion
1070
     0
  0
VISUALSTYLE
  5
31
102
{ACAD_REACTORS
330
2A
102
}
330
2A
100
AcDbVisualStyle
  2
3D Hidden
 70
     6
 71
     1
 72
     2
 73
     2
 90
        0
 40
-0.6
 41
-30.0
 62
     5
 63
     7
421
 16777215
 74
     2
 91
        2
 64
     7
 65
   257
 75
     2
175
     1
 42
40.0
 92
        0
 66
   257
 43
1.0
 76
     1
 77
     6
 78
     2
 67
     7
 79
     3
170
     0
171
     0
290
     0
174
     0
 93
        1
 44
0.0
173
     0
291
     0
 45
0.0
1001
ACAD
1000
AcDbSavedByObjectVersion
1070
     0
  0
VISUALSTYLE
  5
30
102
{ACAD_REACTORS
330
2A
102
}
330
2A
100
AcDbVisualStyle
  2
3dWireframe
 70
     5
 71
     0
 72
     2
 73
     0
 90
        0
 40
-0.6
 41
-30.0
 62
     5
 63
     7
421
 16777215
 74
     1
 91
        4
 64
     7
 65
   257
 75
     1
175
     1
 42
1.0
 92
        0
 66
   257
 43
1.0
 76
     1
 77
     6
 78
     2
 67
     7
 79
     5
170
     0
171
     0
290
     0
174
     0
 93
        1
 44
0.0
173
     0
291
     0
 45
0.0
1001
ACAD
1000
AcDbSavedByObjectVersion
1070
     0
  0
VISUALSTYLE
  5
32
102
{ACAD_REACTORS
330
2A
102
}
330
2A
100
AcDbVisualStyle
  2
Basic
 70
     7
 71
     1
 72
     0
 73
     1
 90
        0
 40
-0.6
 41
-30.0
 62
     5
 63
     7
421
 16777215
 74
     0
 91
        4
 64
     7
 65
   257
 75
     1
175
     1
 42
1.0
 92
        8
 66
     7
 43
1.0
 76
     1
 77
     6
 78
     2
 67
     7
 79
     5
170
     0
171
     0
290
     0
174
     0
 93
        1
 44
0.0
173
     0
291
     1
 45
0.0
1001
ACAD
1000
AcDbSavedByObjectVersion
1070
     0
  0
VISUALSTYLE
  5
36
102
{ACAD_REACTORS
330
2A
102
}
330
2A
100
AcDbVisualStyle
  2
Brighten
 70
    12
 71
     2
 72
     2
 73
     0
 90
        0
 40
-0.6
 41
-30.0
 62
     5
 63
     7
421
 16777215
 74
     1
 91
        4
 64
     7
 65
   257
 75
     1
175
     1
 42
1.0
 92
        8
 66
     7
 43
1.0
 76
     1
 77
     6
 78
     2
 67
     7
 79
     5
170
     0
171
     0
290
     0
174
     0
 93
        1
 44
50.0
173
     0
291
     1
 45
0.0
1001
ACAD
1000
AcDbSavedByObjectVersion
1070
     0
  0
VISUALSTYLE
  5
3A
102
{ACAD_REACTORS
330
2A
102
}
330
2A
100
AcDbVisualStyle
  2
ColorChange
 70
    16
 71
     2
 72
     2
 73
     3
 90
        0
 40
-0.6
 41
-30.0
 62
     5
 63
     8
421
  8421504
 74
     1
 91
        4
 64
     7
 65
   257
 75
     1
175
     1
 42
1.0
 92
        8
 66
     8
424
  8421504
 43
1.0
 76
     1
 77
     6
 78
     2
 67
     7
 79
     5
170
     0
171
     0
290
     0
174
     0
 93
        1
 44
0.0
173
     0
291
     1
 45
0.0
1001
ACAD
1000
AcDbSavedByObjectVersion
1070
     0
  0
VISUALSTYLE
  5
34
102
{ACAD_REACTORS
330
2A
102
}
330
2A
100
AcDbVisualStyle
  2
Conceptual
 70
     9
 71
     3
 72
     2
 73
     0
 90
        0
 40
-0.6
 41
-30.0
 62
     5
 63
     7
421
 16777215
 74
     2
 91
        2
 64
     7
 65
   257
 75
     1
175
     1
 42
40.0
 92
        8
 66
     7
 43
1.0
 76
     1
 77
     6
 78
     2
 67
     7
 79
     3
170
     0
171
     0
290
     0
174
     0
 93
        1
 44
0.0
173
     0
291
     0
 45
0.0
1001
ACAD
1000
AcDbSavedByObjectVersion
1070
     0
  0
VISUALSTYLE
  5
35
102
{ACAD_REACTORS
330
2A
102
}
330
2A
100
AcDbVisualStyle
  2
Dim
 70
    11
 71
     2
 72
     2
 73
     0
 90
        0
 40
-0.6
 41
-30.0
 62
     5
 63
     7
421
 16777215
 74
     1
 91
        4
 64
     7
 65
   257
 75
     1
175
     1
 42
1.0
 92
        8
 66
     7
 43
1.0
 76
     1
 77
     6
 78
     2
 67
     7
 79
     5
170
     0
171
     0
290
     0
174
     0
 93
        1
 44
-50.0
173
     0
291
     1
 45
0.0
1001
ACAD
1000
AcDbSavedByObjectVersion
1070
     0
  0
VISUALSTYLE
  5
39
102
{ACAD_REACTORS
330
2A
102
}
330
2A
100
AcDbVisualStyle
  2
Facepattern
 70
    15
 71
     2
 72
     2
 73
     0
 90
        0
 40
-0.6
 41
-30.0
 62
     5
 63
     7
421
 16777215
 74
     1
 91
        4
 64
     7
 65
   257
 75
     1
175
     1
 42
1.0
 92
        8
 66
     7
 43
1.0
 76
     1
 77
     6
 78
     2
 67
     7
 79
     5
170
     0
171
     0
290
     0
174
     0
 93
        1
 44
0.0
173
     0
291
     1
 45
0.0
1001
ACAD
1000
AcDbSavedByObjectVersion
1070
     0
  0
VISUALSTYLE
  5
2B
102
{ACAD_REACTORS
330
2A
102
}
330
2A
100
AcDbVisualStyle
  2
Flat
 70
     0
 71
     2
 72
     1
 73
     1
 90
        2
 40
-0.6
 41
30.0
 62
     5
 63
     7
421
 16777215
 74
     0
 91
        4
 64
     7
 65
   257
 75
     1
175
     1
 42
1.0
 92
        8
 66
     7
 43
1.0
 76
     1
 77
     6
 78
     2
 67
     7
 79
     5
170
     0
171
     0
290
     0
174
     0
 93
       13
 44
0.0
173
     0
291
     1
 45
0.0
1001
ACAD
1000
AcDbSavedByObjectVersion
1070
     0
  0
VISUALSTYLE
  5
2C
102
{ACAD_REACTORS
330
2A
102
}
330
2A
100
AcDbVisualStyle
  2
FlatWithEdges
 70
     1
 71
     2
 72
     1
 73
     1
 90
        2
 40
-0.6
 41
30.0
 62
     5
 63
     7
421
 16777215
 74
     1
 91
        4
 64
     7
 65
   257
 75
     1
175
     1
 42
1.0
 92
        0
 66
   257
 43
1.0
 76
     1
 77
     6
 78
     2
 67
     7
 79
     5
170
     0
171
     0
290
     0
174
     0
 93
       13
 44
0.0
173
     0
291
     1
 45
0.0
1001
ACAD
1000
AcDbSavedByObjectVersion
1070
     0
  0
VISUALSTYLE
  5
2D
102
{ACAD_REACTORS
330
2A
102
}
330
2A
100
AcDbVisualStyle
  2
Gouraud
 70
     2
 71
     2
 72
     2
 73
     1
 90
        2
 40
-0.6
 41
30.0
 62
     5
 63
     7
421
 16777215
 74
     0
 91
        4
 64
     7
 65
   257
 75
     1
175
     1
 42
1.0
 92
        0
 66
     7
 43
1.0
 76
     1
 77
     6
 78
     2
 67
     7
 79
     5
170
     0
171
     0
290
     0
174
     0
 93
       13
 44
0.0
173
     0
291
     1
 45
0.0
1001
ACAD
1000
AcDbSavedByObjectVersion
1070
     0
  0
VISUALSTYLE
  5
2E
102
{ACAD_REACTORS
330
2A
102
}
330
2A
100
AcDbVisualStyle
  2
GouraudWithEdges
 70
     3
 71
     2
 72
     2
 73
     1
 90
        2
 40
-0.6
 41
30.0
 62
     5
 63
     7
421
 16777215
 74
     1
 91
        4
 64
     7
 65
   257
 75
     1
175
     1
 42
1.0
 92
        0
 66
   257
 43
1.0
 76
     1
 77
     6
 78
     2
 67
     7
 79
     5
170
     0
171
     0
290
     0
174
     0
 93
       13
 44
0.0
173
     0
291
     1
 45
0.0
1001
ACAD
1000
AcDbSavedByObjectVersion
1070
     0
  0
VISUALSTYLE
  5
38
102
{ACAD_REACTORS
330
2A
102
}
330
2A
100
AcDbVisualStyle
  2
Linepattern
 70
    14
 71
     2
 72
     2
 73
     0
 90
        0
 40
-0.6
 41
-30.0
 62
     5
 63
     7
421
 16777215
 74
     1
 91
        4
 64
     7
 65
   257
 75
     7
175
     7
 42
1.0
 92
        8
 66
     7
 43
1.0
 76
     1
 77
     6
 78
     2
 67
     7
 79
     5
170
     0
171
     0
290
     0
174
     0
 93
        1
 44
0.0
173
     0
291
     1
 45
0.0
1001
ACAD
1000
AcDbSavedByObjectVersion
1070
     0
  0
VISUALSTYLE
  5
33
102
{ACAD_REACTORS
330
2A
102
}
330
2A
100
AcDbVisualStyle
  2
Realistic
 70
     8
 71
     2
 72
     2
 73
     0
 90
        0
 40
-0.6
 41
-30.0
 62
     5
 63
     7
421
 16777215
 74
     1
 91
        0
 64
     7
 65
   257
 75
     1
175
     1
 42
1.0
 92
        8
 66
     8
424
  7895160
 43
1.0
 76
     1
 77
     6
 78
     2
 67
     7
 79
     5
170
     0
171
     0
290
     0
174
     0
 93
       13
 44
0.0
173
     0
291
     0
 45
0.0
1001
ACAD
1000
AcDbSavedByObjectVersion
1070
     0
  0
VISUALSTYLE
  5
37
102
{ACAD_REACTORS
330
2A
102
}
330
2A
100
AcDbVisualStyle
  2
Thicken
 70
    13
 71
     2
 72
     2
 73
     0
 90
        0
 40
-0.6
 41
-30.0
 62
     5
 63
     7
421
 16777215
 74
     1
 91
        4
 64
     7
 65
   257
 75
     1
175
     1
 42
1.0
 92
       12
 66
     7
 43
1.0
 76
     1
 77
     6
 78
     2
 67
     7
 79
     5
170
     0
171
     0
290
     0
174
     0
 93
        1
 44
0.0
173
     0
291
     1
 45
0.0
1001
ACAD
1000
AcDbSavedByObjectVersion
1070
     0
  0
ENDSEC
  0
EOF
