  0
SECTION
  2
HEADER
  9
$ACADVER
  1
AC1018
  9
$ACADMAINTVER
 70
     0
  9
$DWGCODEPAGE
  3
ANSI_932
  9
$INSBASE
 10
0.0
 20
0.0
 30
0.0
  9
$EXTMIN
 10
-840.0
 20
-594.0
 30
0.0
  9
$EXTMAX
 10
840.0
 20
594.0
 30
0.0
  9
$LIMMIN
 10
-840.0
 20
-594.0
  9
$LIMMAX
 10
840.0
 20
594.0
  9
$ORTHOMODE
 70
     0
  9
$REGENMODE
 70
     1
  9
$FILLMODE
 70
     1
  9
$QTEXTMODE
 70
     0
  9
$MIRRTEXT
 70
     1
  9
$LTSCALE
 40
4.0
  9
$ATTMODE
 70
     1
  9
$TEXTSIZE
 40
2.5
  9
$TRACEWID
 40
1.0
  9
$TEXTSTYLE
  7
Standard
  9
$CLAYER
  8
0
  9
$CELTYPE
  6
ByLayer
  9
$CECOLOR
 62
   256
  9
$CELTSCALE
 40
1.0
  9
$DISPSILH
 70
     0
  9
$DIMSCALE
 40
1.0
  9
$DIMASZ
 40
2.5
  9
$DIMEXO
 40
0.625
  9
$DIMDLI
 40
3.75
  9
$DIMRND
 40
0.0
  9
$DIMDLE
 40
0.0
  9
$DIMEXE
 40
1.25
  9
$DIMTP
 40
0.0
  9
$DIMTM
 40
0.0
  9
$DIMTXT
 40
2.5
  9
$DIMCEN
 40
2.5
  9
$DIMTSZ
 40
0.0
  9
$DIMTOL
 70
     0
  9
$DIMLIM
 70
     0
  9
$DIMTIH
 70
     0
  9
$DIMTOH
 70
     0
  9
$DIMSE1
 70
     0
  9
$DIMSE2
 70
     0
  9
$DIMTAD
 70
     1
  9
$DIMZIN
 70
     8
  9
$DIMBLK
  1

  9
$DIMASO
 70
     1
  9
$DIMSHO
 70
     1
  9
$DIMPOST
  1

  9
$DIMAPOST
  1

  9
$DIMALT
 70
     0
  9
$DIMALTD
 70
     3
  9
$DIMALTF
 40
0.03937007874016
  9
$DIMLFAC
 40
1.0
  9
$DIMTOFL
 70
     1
  9
$DIMTVP
 40
0.0
  9
$DIMTIX
 70
     0
  9
$DIMSOXD
 70
     0
  9
$DIMSAH
 70
     0
  9
$DIMBLK1
  1

  9
$DIMBLK2
  1

  9
$DIMSTYLE
  2
ISO-25
  9
$DIMCLRD
 70
     0
  9
$DIMCLRE
 70
     0
  9
$DIMCLRT
 70
     0
  9
$DIMTFAC
 40
1.0
  9
$DIMGAP
 40
0.625
  9
$DIMJUST
 70
     0
  9
$DIMSD1
 70
     0
  9
$DIMSD2
 70
     0
  9
$DIMTOLJ
 70
     0
  9
$DIMTZIN
 70
     8
  9
$DIMALTZ
 70
     0
  9
$DIMALTTZ
 70
     0
  9
$DIMUPT
 70
     0
  9
$DIMDEC
 70
     2
  9
$DIMTDEC
 70
     2
  9
$DIMALTU
 70
     2
  9
$DIMALTTD
 70
     3
  9
$DIMTXSTY
  7
Standard
  9
$DIMAUNIT
 70
     0
  9
$DIMADEC
 70
     0
  9
$DIMALTRND
 40
0.0
  9
$DIMAZIN
 70
     0
  9
$DIMDSEP
 70
    44
  9
$DIMATFIT
 70
     3
  9
$DIMFRAC
 70
     0
  9
$DIMLDRBLK
  1

  9
$DIMLUNIT
 70
     2
  9
$DIMLWD
 70
    -2
  9
$DIMLWE
 70
    -2
  9
$DIMTMOVE
 70
     0
  9
$LUNITS
 70
     2
  9
$LUPREC
 70
     4
  9
$SKETCHINC
 40
1.0
  9
$FILLETRAD
 40
10.0
  9
$AUNITS
 70
     0
  9
$AUPREC
 70
     0
  9
$MENU
  1
.
  9
$ELEVATION
 40
0.0
  9
$PELEVATION
 40
0.0
  9
$THICKNESS
 40
0.0
  9
$LIMCHECK
 70
     0
  9
$CHAMFERA
 40
10.0
  9
$CHAMFERB
 40
10.0
  9
$CHAMFERC
 40
20.0
  9
$CHAMFERD
 40
0.0
  9
$SKPOLY
 70
     0
  9
$TDCREATE
 40
2457520.72449493
  9
$TDUCREATE
 40
2457520.34949493
  9
$TDUPDATE
 40
2457520.724494942
  9
$TDUUPDATE
 40
2457520.349494942
  9
$TDINDWG
 40
0.0000000116
  9
$TDUSRTIMER
 40
0.0000000116
  9
$USRTIMER
 70
     1
  9
$ANGBASE
 50
0.0
  9
$ANGDIR
 70
     0
  9
$PDMODE
 70
     0
  9
$PDSIZE
 40
0.0
  9
$PLINEWID
 40
0.0
  9
$SPLFRAME
 70
     0
  9
$SPLINETYPE
 70
     6
  9
$SPLINESEGS
 70
     8
  9
$HANDSEED
  5
3AA
  9
$SURFTAB1
 70
     6
  9
$SURFTAB2
 70
     6
  9
$SURFTYPE
 70
     6
  9
$SURFU
 70
     6
  9
$SURFV
 70
     6
  9
$UCSBASE
  2

  9
$UCSNAME
  2

  9
$UCSORG
 10
0.0
 20
0.0
 30
0.0
  9
$UCSXDIR
 10
1.0
 20
0.0
 30
0.0
  9
$UCSYDIR
 10
0.0
 20
1.0
 30
0.0
  9
$UCSORTHOREF
  2

  9
$UCSORTHOVIEW
 70
     0
  9
$UCSORGTOP
 10
0.0
 20
0.0
 30
0.0
  9
$UCSORGBOTTOM
 10
0.0
 20
0.0
 30
0.0
  9
$UCSORGLEFT
 10
0.0
 20
0.0
 30
0.0
  9
$UCSORGRIGHT
 10
0.0
 20
0.0
 30
0.0
  9
$UCSORGFRONT
 10
0.0
 20
0.0
 30
0.0
  9
$UCSORGBACK
 10
0.0
 20
0.0
 30
0.0
  9
$PUCSBASE
  2

  9
$PUCSNAME
  2

  9
$PUCSORG
 10
0.0
 20
0.0
 30
0.0
  9
$PUCSXDIR
 10
1.0
 20
0.0
 30
0.0
  9
$PUCSYDIR
 10
0.0
 20
1.0
 30
0.0
  9
$PUCSORTHOREF
  2

  9
$PUCSORTHOVIEW
 70
     0
  9
$PUCSORGTOP
 10
0.0
 20
0.0
 30
0.0
  9
$PUCSORGBOTTOM
 10
0.0
 20
0.0
 30
0.0
  9
$PUCSORGLEFT
 10
0.0
 20
0.0
 30
0.0
  9
$PUCSORGRIGHT
 10
0.0
 20
0.0
 30
0.0
  9
$PUCSORGFRONT
 10
0.0
 20
0.0
 30
0.0
  9
$PUCSORGBACK
 10
0.0
 20
0.0
 30
0.0
  9
$USERI1
 70
     0
  9
$USERI2
 70
     0
  9
$USERI3
 70
     0
  9
$USERI4
 70
     0
  9
$USERI5
 70
     0
  9
$USERR1
 40
0.0
  9
$USERR2
 40
0.0
  9
$USERR3
 40
0.0
  9
$USERR4
 40
0.0
  9
$USERR5
 40
0.0
  9
$WORLDVIEW
 70
     1
  9
$SHADEDGE
 70
     3
  9
$SHADEDIF
 70
    70
  9
$TILEMODE
 70
     1
  9
$MAXACTVP
 70
    64
  9
$PINSBASE
 10
0.0
 20
0.0
 30
0.0
  9
$PLIMCHECK
 70
     0
  9
$PEXTMIN
 10
1.000000000000000E+20
 20
1.000000000000000E+20
 30
1.000000000000000E+20
  9
$PEXTMAX
 10
-1.000000000000000E+20
 20
-1.000000000000000E+20
 30
-1.000000000000000E+20
  9
$PLIMMIN
 10
0.0
 20
0.0
  9
$PLIMMAX
 10
420.0
 20
297.0
  9
$UNITMODE
 70
     0
  9
$VISRETAIN
 70
     1
  9
$PLINEGEN
 70
     0
  9
$PSLTSCALE
 70
     1
  9
$TREEDEPTH
 70
  3020
  9
$CMLSTYLE
  2
Standard
  9
$CMLJUST
 70
     0
  9
$CMLSCALE
 40
20.0
  9
$PROXYGRAPHICS
 70
     1
  9
$MEASUREMENT
 70
     1
  9
$CELWEIGHT
370
    -1
  9
$ENDCAPS
280
     0
  9
$JOINSTYLE
280
     0
  9
$LWDISPLAY
290
     0
  9
$INSUNITS
 70
     4
  9
$HYPERLINKBASE
  1

  9
$STYLESHEET
  1

  9
$XEDIT
290
     1
  9
$CEPSNTYPE
380
     0
  9
$PSTYLEMODE
290
     1
  9
$FINGERPRINTGUID
  2
{888D2F49-C09B-40E3-85BE-C90440D8DC95}
  9
$VERSIONGUID
  2
{FAEB1C32-E019-11D5-929B-00C0DF256EC4}
  9
$EXTNAMES
290
     1
  9
$PSVPSCALE
 40
0.0
  9
$OLESTARTUP
290
     0
  9
$SORTENTS
280
   127
  9
$INDEXCTL
280
     0
  9
$HIDETEXT
280
     1
  9
$XCLIPFRAME
290
     0
  9
$HALOGAP
280
     0
  9
$OBSCOLOR
 70
   257
  9
$OBSLTYPE
280
     0
  9
$INTERSECTIONDISPLAY
280
     0
  9
$INTERSECTIONCOLOR
 70
   257
  9
$DIMASSOC
280
     2
  9
$PROJECTNAME
  1

  0
ENDSEC
  0
SECTION
  2
CLASSES
  0
CLASS
  1
ACDBDICTIONARYWDFLT
  2
AcDbDictionaryWithDefault
  3
ObjectDBX Classes
 90
        0
 91
        4
280
     0
281
     0
  0
CLASS
  1
VISUALSTYLE
  2
AcDbVisualStyle
  3
ObjectDBX Classes
 90
     4095
 91
        4
280
     0
281
     0
  0
ENDSEC
  0
SECTION
  2
TABLES
  0
TABLE
  2
VPORT
  5
8
330
0
100
AcDbSymbolTable
 70
     1
  0
VPORT
  5
29
330
8
100
AcDbSymbolTableRecord
100
AcDbViewportTableRecord
  2
*Active
 70
     0
 10
0.0
 20
0.0
 11
1.0
 21
1.0
 12
0.0
 22
0.0
 13
0.0
 23
0.0
 14
10.0
 24
10.0
 15
10.0
 25
10.0
 16
0.0
 26
0.0
 36
1.0
 17
0.0
 27
0.0
 37
0.0
 40
1306.8
 41
1.414141414141414
 42
50.0
 43
0.0
 44
0.0
 50
0.0
 51
0.0
 71
     0
 72
 10000
 73
     1
 74
     3
 75
     0
 76
     0
 77
     0
 78
     0
281
     0
 65
     1
110
0.0
120
0.0
130
0.0
111
1.0
121
0.0
131
0.0
112
0.0
122
1.0
132
0.0
 79
     0
146
0.0
  0
ENDTAB
  0
TABLE
  2
LTYPE
  5
5
330
0
100
AcDbSymbolTable
 70
     6
  0
LTYPE
  5
14
330
5
100
AcDbSymbolTableRecord
100
AcDbLinetypeTableRecord
  2
ByBlock
 70
     0
  3

 72
    65
 73
     0
 40
0.0
  0
LTYPE
  5
15
330
5
100
AcDbSymbolTableRecord
100
AcDbLinetypeTableRecord
  2
ByLayer
 70
     0
  3

 72
    65
 73
     0
 40
0.0
  0
LTYPE
  5
16
330
5
100
AcDbSymbolTableRecord
100
AcDbLinetypeTableRecord
  2
Continuous
 70
     0
  3
Solid line
 72
    65
 73
     0
 40
0.0
  0
LTYPE
  5
3C
330
5
100
AcDbSymbolTableRecord
100
AcDbLinetypeTableRecord
  2
JWW_CENTER2
 70
     0
  3
-------------  --  -------------
 72
    65
 73
     4
 40
13.54666666666667
 49
11.00666666666667
 74
     0
 49
-0.8466666666666667
 74
     0
 49
0.8466666666666667
 74
     0
 49
-0.8466666666666667
 74
     0
  0
LTYPE
  5
3D
330
5
100
AcDbSymbolTableRecord
100
AcDbLinetypeTableRecord
  2
JWW_DASHED1
 70
     0
  3
-  --  --  --  --  --  --  --  -
 72
    65
 73
     2
 40
1.693333333333333
 49
0.8466666666666667
 74
     0
 49
-0.8466666666666667
 74
     0
  0
LTYPE
  5
3E
330
5
100
AcDbSymbolTableRecord
100
AcDbLinetypeTableRecord
  2
JWW_CENTER1
 70
     0
  3
-----  --  ----------  --  -----
 72
    65
 73
     4
 40
6.773333333333333
 49
4.233333333333333
 74
     0
 49
-0.8466666666666667
 74
     0
 49
0.8466666666666667
 74
     0
 49
-0.8466666666666667
 74
     0
  0
LTYPE
  5
3F
330
5
100
AcDbSymbolTableRecord
100
AcDbLinetypeTableRecord
  2
JWW_PHANTOM2
 70
     0
  3
------------  -  -  ------------
 72
    65
 73
     6
 40
13.54666666666667
 49
10.16
 74
     0
 49
-0.8466666666666667
 74
     0
 49
0.4233333333333333
 74
     0
 49
-0.8466666666666667
 74
     0
 49
0.4233333333333333
 74
     0
 49
-0.8466666666666667
 74
     0
  0
LTYPE
  5
40
330
5
100
AcDbSymbolTableRecord
100
AcDbLinetypeTableRecord
  2
JWW_DASHED3
 70
     0
  3
---  ------  ------  ------  ---
 72
    65
 73
     2
 40
3.386666666666667
 49
2.54
 74
     0
 49
-0.8466666666666667
 74
     0
  0
ENDTAB
  0
TABLE
  2
LAYER
  5
2
330
0
100
AcDbSymbolTable
 70
     9
  0
LAYER
  5
10
330
2
100
AcDbSymbolTableRecord
100
AcDbLayerTableRecord
  2
0
 70
     0
 62
     7
  6
Continuous
370
    -3
390
F
  0
LAYER
  5
41
330
2
100
AcDbSymbolTableRecord
100
AcDbLayerTableRecord
  2
F-5ﾚｲﾔ
 70
     0
 62
     7
  6
Continuous
370
    -3
390
F
  0
LAYER
  5
42
330
2
100
AcDbSymbolTableRecord
100
AcDbLayerTableRecord
  2
0-E
 70
     0
 62
     7
  6
Continuous
370
    -3
390
F
  0
LAYER
  5
43
330
2
100
AcDbSymbolTableRecord
100
AcDbLayerTableRecord
  2
0-F
 70
     0
 62
     7
  6
Continuous
370
    -3
390
F
  0
LAYER
  5
44
330
2
100
AcDbSymbolTableRecord
100
AcDbLayerTableRecord
  2
躯体
 70
     0
 62
     7
  6
Continuous
370
    -3
390
F
  0
LAYER
  5
45
330
2
100
AcDbSymbolTableRecord
100
AcDbLayerTableRecord
  2
通り芯
 70
     0
 62
     7
  6
Continuous
370
    -3
390
F
  0
LAYER
  5
46
330
2
100
AcDbSymbolTableRecord
100
AcDbLayerTableRecord
  2
寸法
 70
     0
 62
     7
  6
Continuous
370
    -3
390
F
  0
LAYER
  5
47
330
2
100
AcDbSymbolTableRecord
100
AcDbLayerTableRecord
  2
ハッチ
 70
     0
 62
     7
  6
Continuous
370
    -3
390
F
  0
LAYER
  5
48
330
2
100
AcDbSymbolTableRecord
100
AcDbLayerTableRecord
  2
その他
 70
     0
 62
     7
  6
Continuous
370
    -3
390
F
  0
ENDTAB
  0
TABLE
  2
STYLE
  5
3
330
0
100
AcDbSymbolTable
 70
     2
  0
STYLE
  5
11
330
3
100
AcDbSymbolTableRecord
100
AcDbTextStyleTableRecord
  2
Standard
 70
     0
 40
0.0
 41
1.0
 50
0.0
 71
     0
 42
2.5
  3
txt
  4

1001
ACAD
1000

1071
        0
  0
STYLE
  5
3B
330
3
100
AcDbSymbolTableRecord
100
AcDbTextStyleTableRecord
  2
ＭＳ ゴシック
 70
     0
 40
1.0
 41
1.0
 50
0.0
 71
     0
 42
10.0
  3

  4

1001
ACAD
1000
MS Gothic
1071
    32817
  0
ENDTAB
  0
TABLE
  2
VIEW
  5
6
330
0
100
AcDbSymbolTable
 70
     0
  0
ENDTAB
  0
TABLE
  2
UCS
  5
7
330
0
100
AcDbSymbolTable
 70
     0
  0
ENDTAB
  0
TABLE
  2
APPID
  5
9
330
0
100
AcDbSymbolTable
 70
     1
  0
APPID
  5
12
330
9
100
AcDbSymbolTableRecord
100
AcDbRegAppTableRecord
  2
ACAD
 70
     0
  0
ENDTAB
  0
TABLE
  2
DIMSTYLE
  5
A
330
0
100
AcDbSymbolTable
 70
     1
100
AcDbDimStyleTable
  0
DIMSTYLE
105
27
330
A
100
AcDbSymbolTableRecord
100
AcDbDimStyleTableRecord
  2
ISO-25
 70
     0
 41
2.5
 42
0.625
 43
3.75
 44
1.25
 73
     0
 74
     0
 77
     1
 78
     8
140
2.5
141
2.5
143
0.03937007874016
147
0.625
171
     3
172
     1
271
     2
272
     2
274
     3
278
    44
283
     0
284
     8
340
11
  0
ENDTAB
  0
TABLE
  2
BLOCK_RECORD
  5
1
330
0
100
AcDbSymbolTable
 70
     1
  0
BLOCK_RECORD
  5
1F
330
1
100
AcDbSymbolTableRecord
100
AcDbBlockTableRecord
  2
*Model_Space
340
22
  0
BLOCK_RECORD
  5
1B
330
1
100
AcDbSymbolTableRecord
100
AcDbBlockTableRecord
  2
*Paper_Space
340
1E
  0
BLOCK_RECORD
  5
23
330
1
100
AcDbSymbolTableRecord
100
AcDbBlockTableRecord
  2
*Paper_Space0
340
26
  0
ENDTAB
  0
ENDSEC
  0
SECTION
  2
BLOCKS
  0
BLOCK
  5
20
330
1F
100
AcDbEntity
  8
0
100
AcDbBlockBegin
  2
*Model_Space
 70
     0
 10
0.0
 20
0.0
 30
0.0
  3
*Model_Space
  1

  0
ENDBLK
  5
21
330
1F
100
AcDbEntity
  8
0
100
AcDbBlockEnd
  0
BLOCK
  5
1C
330
1B
100
AcDbEntity
 67
     1
  8
0
100
AcDbBlockBegin
  2
*Paper_Space
 70
     0
 10
0.0
 20
0.0
 30
0.0
  3
*Paper_Space
  1

  0
ENDBLK
  5
1D
330
1B
100
AcDbEntity
 67
     1
  8
0
100
AcDbBlockEnd
  0
BLOCK
  5
24
330
23
100
AcDbEntity
  8
0
100
AcDbBlockBegin
  2
*Paper_Space0
 70
     0
 10
0.0
 20
0.0
 30
0.0
  3
*Paper_Space0
  1

  0
ENDBLK
  5
25
330
23
100
AcDbEntity
  8
0
100
AcDbBlockEnd
  0
ENDSEC
  0
SECTION
  2
ENTITIES
  0
TEXT
  5
49
330
1F
100
AcDbEntity
  8
F-5ﾚｲﾔ
  6
Continuous
 62
     2
370
     9
100
AcDbText
 10
-309.3628001271063
 20
-548.1112208411942
 30
0.0
 40
12.192
  1
　　　　　　　　　　　　ＳＥＭ－１４－４０６０（Ｐ＝１０）＋ＴＬ６０Ｐ
 41
0.7742857142857144
  7
ＭＳ ゴシック
100
AcDbText
  0
LINE
  5
4A
330
1F
100
AcDbEntity
  8
0-E
  6
Continuous
 62
     7
370
     9
100
AcDbLine
 10
197.6625034125857
 20
444.9083868770176
 30
0.0
 11
392.8862694364333
 21
444.9083868770176
 31
0.0
  0
TEXT
  5
4B
330
1F
100
AcDbEntity
  8
0-E
  6
Continuous
 62
     7
370
     9
100
AcDbText
 10
200.2751874539665
 20
452.5204341215278
 30
0.0
 40
9.144
  1
受枠：ＴＬ６０Ｐ，ｔ＝３．０
 41
1.154761904761905
  7
ＭＳ ゴシック
100
AcDbText
  0
TEXT
  5
4C
330
1F
100
AcDbEntity
  8
0-E
  6
Continuous
 62
     7
370
     9
100
AcDbText
 10
199.8878814467874
 20
430.8499513829298
 30
0.0
 40
9.144
  1
ＳＵＳ３０４
 41
1.138888888888889
  7
ＭＳ ゴシック
100
AcDbText
  0
LINE
  5
4D
330
1F
100
AcDbEntity
  8
0-F
  6
Continuous
 62
     7
370
     9
100
AcDbLine
 10
553.881010515403
 20
-26.77125113501779
 30
0.0
 11
552.3147164381226
 21
-14.87389907103977
 31
0.0
  0
LINE
  5
4E
330
1F
100
AcDbEntity
  8
0-F
  6
Continuous
 62
     7
370
     9
100
AcDbLine
 10
553.881010515403
 20
-26.77125113501779
 30
0.0
 11
555.4473045926834
 21
-14.87389907103977
 31
0.0
  0
TEXT
  5
4F
330
1F
100
AcDbEntity
  8
0-F
  6
Continuous
 62
     2
370
     9
100
AcDbText
 10
549.6250039170076
 20
-10.27116865507696
 30
0.0
 40
12.192
  1
50
 50
90.0
 41
1.0625
  7
ＭＳ ゴシック
100
AcDbText
  0
LINE
  5
50
330
1F
100
AcDbEntity
  8
0-F
  6
Continuous
 62
     7
370
     9
100
AcDbLine
 10
553.881010515403
 20
23.22886433689939
 30
0.0
 11
552.3147164381226
 21
11.33151227292137
 31
0.0
  0
LINE
  5
51
330
1F
100
AcDbEntity
  8
0-F
  6
Continuous
 62
     7
370
     9
100
AcDbLine
 10
553.881010515403
 20
23.22886433689939
 30
0.0
 11
555.4473045926834
 21
11.33151227292137
 31
0.0
  0
LINE
  5
52
330
1F
100
AcDbEntity
  8
0-F
  6
Continuous
 62
     7
370
     9
100
AcDbLine
 10
552.3147164381226
 20
35.12621640087741
 30
0.0
 11
553.881010515403
 21
23.22886433689939
 31
0.0
  0
LINE
  5
53
330
1F
100
AcDbEntity
  8
0-F
  6
Continuous
 62
     7
370
     9
100
AcDbLine
 10
555.4473045926834
 20
35.12621640087741
 30
0.0
 11
553.881010515403
 21
23.22886433689939
 31
0.0
  0
LINE
  5
54
330
1F
100
AcDbEntity
  8
0-F
  6
Continuous
 62
     7
370
     9
100
AcDbLine
 10
552.3147164381226
 20
335.1261669129129
 30
0.0
 11
555.4473045926834
 21
311.3315617608858
 31
0.0
  0
LINE
  5
55
330
1F
100
AcDbEntity
  8
0-F
  6
Continuous
 62
     7
370
     9
100
AcDbLine
 10
555.4473045926834
 20
335.1261669129129
 30
0.0
 11
552.3147164381226
 21
311.3315617608858
 31
0.0
  0
LINE
  5
56
330
1F
100
AcDbEntity
  8
躯体
  6
JWW_CENTER2
 62
     2
370
     9
100
AcDbLine
 10
10.88085215391629
 20
-57.55169389205366
 30
0.0
 11
10.88085215391629
 21
-17.77129767727001
 31
0.0
  0
CIRCLE
  5
57
330
1F
100
AcDbEntity
  8
躯体
  6
Continuous
 62
     2
370
     9
100
AcDbCircle
 10
10.88085215391629
 20
-46.77118491540796
 30
0.0
 40
4.249999652037749
  0
LINE
  5
58
330
1F
100
AcDbEntity
  8
躯体
  6
JWW_DASHED1
 62
     2
370
     9
100
AcDbLine
 10
17.63082163633817
 20
-27.62532956778568
 30
0.0
 11
17.63082163633817
 21
-56.77123145766018
 31
0.0
  0
LINE
  5
59
330
1F
100
AcDbEntity
  8
躯体
  6
Continuous
 62
     2
370
     9
100
AcDbLine
 10
19.63083094478907
 20
-27.77124512576484
 30
0.0
 11
18.38086228716611
 21
-27.77124512576484
 31
0.0
  0
LINE
  5
5A
330
1F
100
AcDbEntity
  8
躯体
  6
JWW_DASHED1
 62
     2
370
     9
100
AcDbLine
 10
4.130882671494419
 20
-27.62532956778568
 30
0.0
 11
4.130882671494419
 21
-56.77123145766018
 31
0.0
  0
LINE
  5
5B
330
1F
100
AcDbEntity
  8
躯体
  6
Continuous
 62
     2
370
     9
100
AcDbLine
 10
2.13087336304352
 20
-27.77124512576484
 30
0.0
 11
3.380842020666478
 21
-27.77124512576484
 31
0.0
  0
LINE
  5
5C
330
1F
100
AcDbEntity
  8
躯体
  6
Continuous
 62
     2
370
     9
100
AcDbLine
 10
19.63083094478907
 20
-27.77124512576484
 30
0.0
 11
19.63083094478907
 21
-56.77123145766018
 31
0.0
  0
LINE
  5
5D
330
1F
100
AcDbEntity
  8
躯体
  6
Continuous
 62
     2
370
     9
100
AcDbLine
 10
10.88085215391629
 20
-56.77123145766018
 30
0.0
 11
19.63083094478907
 21
-56.77123145766018
 31
0.0
  0
LINE
  5
5E
330
1F
100
AcDbEntity
  8
躯体
  6
Continuous
 62
     2
370
     9
100
AcDbLine
 10
10.88085215391629
 20
-56.77123145766018
 30
0.0
 11
2.13087336304352
 21
-56.77123145766018
 31
0.0
  0
LINE
  5
5F
330
1F
100
AcDbEntity
  8
躯体
  6
Continuous
 62
     2
370
     9
100
AcDbLine
 10
2.13087336304352
 20
-27.77124512576484
 30
0.0
 11
2.13087336304352
 21
-56.77123145766018
 31
0.0
  0
LINE
  5
60
330
1F
100
AcDbEntity
  8
躯体
  6
JWW_CENTER2
 62
     2
370
     9
100
AcDbLine
 10
10.88085215391629
 20
-46.77118491540796
 30
0.0
 11
16.65692818722573
 21
-46.77118491540796
 31
0.0
  0
LINE
  5
61
330
1F
100
AcDbEntity
  8
躯体
  6
JWW_CENTER2
 62
     2
370
     9
100
AcDbLine
 10
10.88085215391629
 20
-46.77118491540796
 30
0.0
 11
5.104776120607767
 21
-46.77118491540796
 31
0.0
  0
ARC
  5
62
330
1F
100
AcDbEntity
  8
躯体
  6
Continuous
 62
     2
370
     9
100
AcDbCircle
 10
3.380842020666478
 20
-25.77123581731439
 30
0.0
 40
1.999999824868206
100
AcDbArc
 50
270.0
 51
329.9994903964416
  0
ARC
  5
63
330
1F
100
AcDbEntity
  8
躯体
  6
Continuous
 62
     2
370
     9
100
AcDbCircle
 10
18.38086228716611
 20
-25.77123581731439
 30
0.0
 40
1.999999824868206
100
AcDbArc
 50
210.0005096035584
 51
270.0
  0
LINE
  5
64
330
1F
100
AcDbEntity
  8
躯体
  6
JWW_CENTER2
 62
     2
370
     9
100
AcDbLine
 10
-589.1191313500956
 20
-57.55169389205366
 30
0.0
 11
-589.1191313500956
 21
-17.77129767727001
 31
0.0
  0
CIRCLE
  5
65
330
1F
100
AcDbEntity
  8
躯体
  6
Continuous
 62
     2
370
     9
100
AcDbCircle
 10
-589.1191313500956
 20
-46.77118491540796
 30
0.0
 40
4.249999652037749
  0
LINE
  5
66
330
1F
100
AcDbEntity
  8
躯体
  6
JWW_DASHED1
 62
     2
370
     9
100
AcDbLine
 10
-582.3691618676737
 20
-27.62532956778568
 30
0.0
 11
-582.3691618676737
 21
-56.77123145766018
 31
0.0
  0
LINE
  5
67
330
1F
100
AcDbEntity
  8
躯体
  6
Continuous
 62
     2
370
     9
100
AcDbLine
 10
-580.3691525592228
 20
-27.77124512576484
 30
0.0
 11
-581.6191212168458
 21
-27.77124512576484
 31
0.0
  0
LINE
  5
68
330
1F
100
AcDbEntity
  8
躯体
  6
JWW_DASHED1
 62
     2
370
     9
100
AcDbLine
 10
-595.8691008325175
 20
-27.62532956778568
 30
0.0
 11
-595.8691008325175
 21
-56.77123145766018
 31
0.0
  0
LINE
  5
69
330
1F
100
AcDbEntity
  8
躯体
  6
Continuous
 62
     2
370
     9
100
AcDbLine
 10
-597.8691101409684
 20
-27.77124512576484
 30
0.0
 11
-596.6191414833454
 21
-27.77124512576484
 31
0.0
  0
LINE
  5
6A
330
1F
100
AcDbEntity
  8
躯体
  6
Continuous
 62
     2
370
     9
100
AcDbLine
 10
-580.3691525592228
 20
-27.77124512576484
 30
0.0
 11
-580.3691525592228
 21
-56.77123145766018
 31
0.0
  0
LINE
  5
6B
330
1F
100
AcDbEntity
  8
躯体
  6
Continuous
 62
     2
370
     9
100
AcDbLine
 10
-589.1191313500956
 20
-56.77123145766018
 30
0.0
 11
-580.3691525592228
 21
-56.77123145766018
 31
0.0
  0
LINE
  5
6C
330
1F
100
AcDbEntity
  8
躯体
  6
Continuous
 62
     2
370
     9
100
AcDbLine
 10
-589.1191313500956
 20
-56.77123145766018
 30
0.0
 11
-597.8691101409684
 21
-56.77123145766018
 31
0.0
  0
LINE
  5
6D
330
1F
100
AcDbEntity
  8
躯体
  6
Continuous
 62
     2
370
     9
100
AcDbLine
 10
-597.8691101409684
 20
-27.77124512576484
 30
0.0
 11
-597.8691101409684
 21
-56.77123145766018
 31
0.0
  0
LINE
  5
6E
330
1F
100
AcDbEntity
  8
躯体
  6
JWW_CENTER2
 62
     2
370
     9
100
AcDbLine
 10
-589.1191313500956
 20
-46.77118491540796
 30
0.0
 11
-583.3430553167861
 21
-46.77118491540796
 31
0.0
  0
LINE
  5
6F
330
1F
100
AcDbEntity
  8
躯体
  6
JWW_CENTER2
 62
     2
370
     9
100
AcDbLine
 10
-589.1191313500956
 20
-46.77118491540796
 30
0.0
 11
-594.8952073834041
 21
-46.77118491540796
 31
0.0
  0
ARC
  5
70
330
1F
100
AcDbEntity
  8
躯体
  6
Continuous
 62
     2
370
     9
100
AcDbCircle
 10
-596.6191414833454
 20
-25.77123581731439
 30
0.0
 40
1.999999824868206
100
AcDbArc
 50
270.0
 51
329.9994903964416
  0
ARC
  5
71
330
1F
100
AcDbEntity
  8
躯体
  6
Continuous
 62
     2
370
     9
100
AcDbCircle
 10
-581.6191212168458
 20
-25.77123581731439
 30
0.0
 40
1.999999824868206
100
AcDbArc
 50
210.0005096035584
 51
270.0
  0
TEXT
  5
72
330
1F
100
AcDbEntity
  8
0-F
  6
Continuous
 62
     2
370
     9
100
AcDbText
 10
-401.619154444479
 20
-82.31541213586237
 30
0.0
 40
12.192
  1
591
 41
1.083333333333333
  7
ＭＳ ゴシック
100
AcDbText
  0
LINE
  5
73
330
1F
100
AcDbEntity
  8
0-F
  6
Continuous
 62
     7
370
     9
100
AcDbLine
 10
-93.11909505892152
 20
-30.77116535587925
 30
0.0
 11
-93.11909505892152
 21
-87.77140289810893
 31
0.0
  0
LINE
  5
74
330
1F
100
AcDbEntity
  8
0-F
  6
Continuous
 62
     7
370
     9
100
AcDbLine
 10
-684.1191148541074
 20
-30.77116535587925
 30
0.0
 11
-684.1191148541074
 21
-87.77140289810893
 31
0.0
  0
LINE
  5
75
330
1F
100
AcDbEntity
  8
0-F
  6
Continuous
 62
     7
370
     9
100
AcDbLine
 10
-93.11909505892152
 20
-86.57141873425758
 30
0.0
 11
-105.0163976349351
 21
-88.137712811538
 31
0.0
  0
LINE
  5
76
330
1F
100
AcDbEntity
  8
0-F
  6
Continuous
 62
     7
370
     9
100
AcDbLine
 10
-93.11909505892152
 20
-86.57141873425758
 30
0.0
 11
-105.0163976349351
 21
-85.00512465697716
 31
0.0
  0
LINE
  5
77
330
1F
100
AcDbEntity
  8
0-F
  6
Continuous
 62
     7
370
     9
100
AcDbLine
 10
-684.1191148541074
 20
-86.57141873425758
 30
0.0
 11
-672.2218122780939
 21
-88.137712811538
 31
0.0
  0
LINE
  5
78
330
1F
100
AcDbEntity
  8
0-F
  6
Continuous
 62
     7
370
     9
100
AcDbLine
 10
-684.1191148541074
 20
-86.57141873425758
 30
0.0
 11
-672.2218122780939
 21
-85.00512465697716
 31
0.0
  0
LINE
  5
79
330
1F
100
AcDbEntity
  8
0-F
  6
Continuous
 62
     7
370
     9
100
AcDbLine
 10
-684.1191148541074
 20
-86.57141873425758
 30
0.0
 11
-93.11909505892152
 21
-86.57141873425758
 31
0.0
  0
TEXT
  5
7A
330
1F
100
AcDbEntity
  8
0-F
  6
Continuous
 62
     2
370
     9
100
AcDbText
 10
109.9079451648961
 20
-122.3154451278385
 30
0.0
 40
12.192
  1
599
 41
1.083333333333333
  7
ＭＳ ゴシック
100
AcDbText
  0
TEXT
  5
7B
330
1F
100
AcDbEntity
  8
0-F
  6
Continuous
 62
     2
370
     9
100
AcDbText
 10
-70.69027029910308
 20
-122.3154451278385
 30
0.0
 40
12.192
  1
1
  7
ＭＳ ゴシック
100
AcDbText
  0
TEXT
  5
7C
330
1F
100
AcDbEntity
  8
0-F
  6
Continuous
 62
     2
370
     9
100
AcDbText
 10
-401.619154444479
 20
-122.3154451278385
 30
0.0
 40
12.192
  1
599
 41
1.083333333333333
  7
ＭＳ ゴシック
100
AcDbText
  0
LINE
  5
7D
330
1F
100
AcDbEntity
  8
0-F
  6
Continuous
 62
     7
370
     9
100
AcDbLine
 10
-688.119128050898
 20
-126.5714517262338
 30
0.0
 11
140.8808851458926
 21
-126.5714517262338
 31
0.0
  0
LINE
  5
7E
330
1F
100
AcDbEntity
  8
0-F
  6
Continuous
 62
     7
370
     9
100
AcDbLine
 10
-88.11912805089787
 20
-30.77116535587925
 30
0.0
 11
-88.11912805089787
 21
-127.7714358900851
 31
0.0
  0
LINE
  5
7F
330
1F
100
AcDbEntity
  8
0-F
  6
Continuous
 62
     7
370
     9
100
AcDbLine
 10
-89.119081862131
 20
-30.77116535587925
 30
0.0
 11
-89.119081862131
 21
-127.7714358900851
 31
0.0
  0
LINE
  5
80
330
1F
100
AcDbEntity
  8
0-F
  6
Continuous
 62
     7
370
     9
100
AcDbLine
 10
-688.119128050898
 20
-30.77116535587925
 30
0.0
 11
-688.119128050898
 21
-127.7714358900851
 31
0.0
  0
LINE
  5
81
330
1F
100
AcDbEntity
  8
0-F
  6
Continuous
 62
     7
370
     9
100
AcDbLine
 10
-88.11912805089787
 20
-126.5714517262338
 30
0.0
 11
-76.22182547488444
 21
-128.1377458035142
 31
0.0
  0
LINE
  5
82
330
1F
100
AcDbEntity
  8
0-F
  6
Continuous
 62
     7
370
     9
100
AcDbLine
 10
-88.11912805089787
 20
-126.5714517262338
 30
0.0
 11
-76.22182547488444
 21
-125.0051576489534
 31
0.0
  0
LINE
  5
83
330
1F
100
AcDbEntity
  8
0-F
  6
Continuous
 62
     7
370
     9
100
AcDbLine
 10
-89.119081862131
 20
-126.5714517262338
 30
0.0
 11
-101.0163844381445
 21
-128.1377458035142
 31
0.0
  0
LINE
  5
84
330
1F
100
AcDbEntity
  8
0-F
  6
Continuous
 62
     7
370
     9
100
AcDbLine
 10
-89.119081862131
 20
-126.5714517262338
 30
0.0
 11
-101.0163844381445
 21
-125.0051576489534
 31
0.0
  0
LINE
  5
85
330
1F
100
AcDbEntity
  8
0-F
  6
Continuous
 62
     7
370
     9
100
AcDbLine
 10
-688.119128050898
 20
-126.5714517262338
 30
0.0
 11
-676.2218254748844
 21
-128.1377458035142
 31
0.0
  0
LINE
  5
86
330
1F
100
AcDbEntity
  8
0-F
  6
Continuous
 62
     7
370
     9
100
AcDbLine
 10
-688.119128050898
 20
-126.5714517262338
 30
0.0
 11
-676.2218254748844
 21
-125.0051576489534
 31
0.0
  0
LINE
  5
87
330
1F
100
AcDbEntity
  8
躯体
  6
Continuous
 62
     2
370
     9
100
AcDbLine
 10
-689.1191313500956
 20
323.2287653609703
 30
0.0
 11
-689.1191313500956
 21
373.228831344923
 31
0.0
  0
LINE
  5
88
330
1F
100
AcDbEntity
  8
躯体
  6
Continuous
 62
     2
370
     9
100
AcDbLine
 10
-689.1191313500956
 20
23.22881484893492
 30
0.0
 11
-689.1191313500956
 21
-26.77125113501779
 31
0.0
  0
LINE
  5
89
330
1F
100
AcDbEntity
  8
躯体
  6
Continuous
 62
     2
370
     9
100
AcDbLine
 10
-689.1191313500956
 20
323.2287653609703
 30
0.0
 11
-688.119128050898
 21
323.2287653609703
 31
0.0
  0
LINE
  5
8A
330
1F
100
AcDbEntity
  8
躯体
  6
Continuous
 62
     2
370
     9
100
AcDbLine
 10
-689.1191313500956
 20
23.22881484893492
 30
0.0
 11
-688.119128050898
 21
23.22881484893492
 31
0.0
  0
LINE
  5
8B
330
1F
100
AcDbEntity
  8
躯体
  6
Continuous
 62
     2
370
     9
100
AcDbLine
 10
140.8808851458927
 20
193.228831344923
 30
0.0
 11
150.8809181378689
 21
193.228831344923
 31
0.0
  0
LINE
  5
8C
330
1F
100
AcDbEntity
  8
躯体
  6
Continuous
 62
     2
370
     9
100
AcDbLine
 10
150.8809181378689
 20
193.228831344923
 30
0.0
 11
130.8808521539162
 21
153.2287983529467
 31
0.0
  0
LINE
  5
8D
330
1F
100
AcDbEntity
  8
躯体
  6
Continuous
 62
     2
370
     9
100
AcDbLine
 10
130.8808521539162
 20
153.2287983529467
 30
0.0
 11
140.8808851458927
 21
153.2287983529467
 31
0.0
  0
LINE
  5
8E
330
1F
100
AcDbEntity
  8
躯体
  6
Continuous
 62
     2
370
     9
100
AcDbLine
 10
140.8808851458927
 20
-46.77116865507696
 30
0.0
 11
140.8808851458927
 21
153.2287983529467
 31
0.0
  0
LINE
  5
8F
330
1F
100
AcDbEntity
  8
躯体
  6
Continuous
 62
     2
370
     9
100
AcDbLine
 10
140.8808851458927
 20
193.228831344923
 30
0.0
 11
140.8808851458927
 21
393.2287983529467
 31
0.0
  0
LINE
  5
90
330
1F
100
AcDbEntity
  8
躯体
  6
Continuous
 62
     2
370
     9
100
AcDbLine
 10
-689.1191313500956
 20
373.228831344923
 30
0.0
 11
140.8808851458927
 21
373.228831344923
 31
0.0
  0
LINE
  5
91
330
1F
100
AcDbEntity
  8
躯体
  6
Continuous
 62
     2
370
     9
100
AcDbLine
 10
-689.1191313500956
 20
370.2288709352947
 30
0.0
 11
140.8808851458927
 21
370.2288709352947
 31
0.0
  0
LINE
  5
92
330
1F
100
AcDbEntity
  8
躯体
  6
Continuous
 62
     2
370
     9
100
AcDbLine
 10
-689.1191313500956
 20
-26.77125113501779
 30
0.0
 11
140.8808851458927
 21
-26.77125113501779
 31
0.0
  0
LINE
  5
93
330
1F
100
AcDbEntity
  8
躯体
  6
Continuous
 62
     2
370
     9
100
AcDbLine
 10
-689.1191313500956
 20
-23.77124123742499
 30
0.0
 11
140.8808851458927
 21
-23.77124123742499
 31
0.0
  0
LINE
  5
94
330
1F
100
AcDbEntity
  8
0-E
  6
Continuous
 62
     7
370
     9
100
AcDbLine
 10
392.8862694364333
 20
444.9083868770176
 30
0.0
 11
426.2825294659939
 21
373.228831344923
 31
0.0
  0
LINE
  5
95
330
1F
100
AcDbEntity
  8
0-E
  6
Continuous
 62
     7
370
     9
100
AcDbLine
 10
372.7987087311967
 20
-117.5757769743337
 30
0.0
 11
162.0581708300141
 21
-117.5757769743337
 31
0.0
  0
LINE
  5
96
330
1F
100
AcDbEntity
  8
通り芯
  6
Continuous
 62
     3
370
     9
100
AcDbLine
 10
-89.11927981398912
 20
-281.7712758790001
 30
0.0
 11
-688.1190290749689
 21
-281.7712758790001
 31
0.0
  0
LINE
  5
97
330
1F
100
AcDbEntity
  8
通り芯
  6
Continuous
 62
     3
370
     9
100
AcDbLine
 10
-89.11927981398912
 20
-261.771259383012
 30
0.0
 11
-688.1190290749689
 21
-261.771259383012
 31
0.0
  0
LINE
  5
98
330
1F
100
AcDbEntity
  8
通り芯
  6
Continuous
 62
     3
370
     9
100
AcDbLine
 10
-688.1190290749689
 20
-281.7712758790001
 30
0.0
 11
-688.1190290749689
 21
-261.771259383012
 31
0.0
  0
LINE
  5
99
330
1F
100
AcDbEntity
  8
通り芯
  6
Continuous
 62
     3
370
     9
100
AcDbLine
 10
-89.11927981398912
 20
-276.771259383012
 30
0.0
 11
-688.1190290749689
 21
-276.771259383012
 31
0.0
  0
LINE
  5
9A
330
1F
100
AcDbEntity
  8
通り芯
  6
Continuous
 62
     3
370
     9
100
AcDbLine
 10
-412.33225291893
 20
-321.771259383012
 30
0.0
 11
-364.906055970028
 21
-321.771259383012
 31
0.0
  0
LINE
  5
9B
330
1F
100
AcDbEntity
  8
通り芯
  6
Continuous
 62
     3
370
     9
100
AcDbLine
 10
-547.3322034309655
 20
-321.771259383012
 30
0.0
 11
-499.905956994099
 21
-321.771259383012
 31
0.0
  0
LINE
  5
9C
330
1F
100
AcDbEntity
  8
通り芯
  6
Continuous
 62
     3
370
     9
100
AcDbLine
 10
-680.7224094328659
 20
-321.771259383012
 30
0.0
 11
-633.4059273013203
 21
-321.771259383012
 31
0.0
  0
LINE
  5
9D
330
1F
100
AcDbEntity
  8
通り芯
  6
Continuous
 62
     3
370
     9
100
AcDbLine
 10
-682.2185790644115
 20
-320.3781731815761
 30
0.0
 11
-684.9762463997155
 21
-281.7712758790001
 31
0.0
  0
LINE
  5
9E
330
1F
100
AcDbEntity
  8
通り芯
  6
Continuous
 62
     3
370
     9
100
AcDbLine
 10
-415.2277442354418
 20
-311.3151453099545
 30
0.0
 11
-413.8148628481952
 21
-320.4993197187383
 31
0.0
  0
LINE
  5
9F
330
1F
100
AcDbEntity
  8
通り芯
  6
Continuous
 62
     3
370
     9
100
AcDbLine
 10
-497.0104409336049
 20
-311.3151453099545
 30
0.0
 11
-498.4233965527983
 21
-320.4993197187383
 31
0.0
  0
LINE
  5
A0
330
1F
100
AcDbEntity
  8
通り芯
  6
Continuous
 62
     3
370
     9
100
AcDbLine
 10
-494.0453447949858
 20
-308.7712659814072
 30
0.0
 11
-418.1928651180432
 21
-308.7712659814072
 31
0.0
  0
LINE
  5
A1
330
1F
100
AcDbEntity
  8
通り芯
  6
Continuous
 62
     3
370
     9
100
AcDbLine
 10
-550.2276947474774
 20
-311.3151453099545
 30
0.0
 11
-548.8147143843017
 21
-320.4993197187383
 31
0.0
  0
LINE
  5
A2
330
1F
100
AcDbEntity
  8
通り芯
  6
Continuous
 62
     3
370
     9
100
AcDbLine
 10
-630.5104359848084
 20
-311.3151453099545
 30
0.0
 11
-631.9233668600195
 21
-320.4993197187383
 31
0.0
  0
LINE
  5
A3
330
1F
100
AcDbEntity
  8
通り芯
  6
Continuous
 62
     3
370
     9
100
AcDbLine
 10
-627.545315102207
 20
-308.7712659814072
 30
0.0
 11
-553.1927661421142
 21
-308.7712659814072
 31
0.0
  0
LINE
  5
A4
330
1F
100
AcDbEntity
  8
通り芯
  6
Continuous
 62
     3
370
     9
100
AcDbLine
 10
-687.76944609355
 20
-281.7712758790001
 30
0.0
 11
-683.626759095028
 21
-305.460323202691
 31
0.0
  0
LINE
  5
A5
330
1F
100
AcDbEntity
  8
通り芯
  6
Continuous
 62
     3
370
     9
100
AcDbLine
 10
-395.6191280508979
 20
-296.5712950143463
 30
0.0
 11
-394.1440897802054
 21
-298.1712903954697
 31
0.0
  0
LINE
  5
A6
330
1F
100
AcDbEntity
  8
通り芯
  6
Continuous
 62
     3
370
     9
100
AcDbLine
 10
-391.3816716003067
 20
-296.5712950143463
 30
0.0
 11
-391.3816716003067
 21
-301.7712923749883
 31
0.0
  0
LINE
  5
A7
330
1F
100
AcDbEntity
  8
通り芯
  6
Continuous
 62
     3
370
     9
100
AcDbLine
 10
-394.1440897802054
 20
-298.1712903954697
 30
0.0
 11
-394.1440897802054
 21
-301.7712923749883
 31
0.0
  0
LINE
  5
A8
330
1F
100
AcDbEntity
  8
通り芯
  6
Continuous
 62
     3
370
     9
100
AcDbLine
 10
-391.6191148541074
 20
-305.7713055717788
 30
0.0
 11
-390.6191610428743
 21
-306.771259383012
 31
0.0
  0
LINE
  5
A9
330
1F
100
AcDbEntity
  8
通り芯
  6
Continuous
 62
     3
370
     9
100
AcDbLine
 10
-390.6191610428743
 20
-306.771259383012
 30
0.0
 11
-386.6191478460838
 21
-306.771259383012
 31
0.0
  0
LINE
  5
AA
330
1F
100
AcDbEntity
  8
通り芯
  6
Continuous
 62
     3
370
     9
100
AcDbLine
 10
-391.6191148541074
 20
-305.7713055717788
 30
0.0
 11
-385.6191940348506
 21
-305.7713055717788
 31
0.0
  0
LINE
  5
AB
330
1F
100
AcDbEntity
  8
通り芯
  6
Continuous
 62
     3
370
     9
100
AcDbLine
 10
-394.1440897802054
 20
-301.7712923749883
 30
0.0
 11
-383.0942191087527
 21
-301.7712923749883
 31
0.0
  0
LINE
  5
AC
330
1F
100
AcDbEntity
  8
通り芯
  6
Continuous
 62
     3
370
     9
100
AcDbLine
 10
-395.6191280508979
 20
-296.5712950143463
 30
0.0
 11
-381.6191808380601
 21
-296.5712950143463
 31
0.0
  0
LINE
  5
AD
330
1F
100
AcDbEntity
  8
通り芯
  6
Continuous
 62
     3
370
     9
100
AcDbLine
 10
-395.6191280508979
 20
-295.7712725798025
 30
0.0
 11
-395.6191280508979
 21
-296.5712950143463
 31
0.0
  0
LINE
  5
AE
330
1F
100
AcDbEntity
  8
通り芯
  6
Continuous
 62
     3
370
     9
100
AcDbLine
 10
-397.7949158992932
 20
-295.7712725798025
 30
0.0
 11
-379.4433929896649
 21
-295.7712725798025
 31
0.0
  0
LINE
  5
AF
330
1F
100
AcDbEntity
  8
通り芯
  6
Continuous
 62
     3
370
     9
100
AcDbLine
 10
-390.6191610428743
 20
-301.7712923749883
 30
0.0
 11
-390.6191610428743
 21
-306.771259383012
 31
0.0
  0
LINE
  5
B0
330
1F
100
AcDbEntity
  8
通り芯
  6
Continuous
 62
     3
370
     9
100
AcDbLine
 10
-391.6191148541074
 20
-301.7712923749883
 30
0.0
 11
-391.6191148541074
 21
-305.7713055717788
 31
0.0
  0
LINE
  5
B1
330
1F
100
AcDbEntity
  8
通り芯
  6
Continuous
 62
     3
370
     9
100
AcDbLine
 10
-665.619128050898
 20
-296.5712950143463
 30
0.0
 11
-664.1441392681699
 21
-298.1712903954697
 31
0.0
  0
LINE
  5
B2
330
1F
100
AcDbEntity
  8
通り芯
  6
Continuous
 62
     3
370
     9
100
AcDbLine
 10
-661.3816221123421
 20
-296.5712950143463
 30
0.0
 11
-661.3816221123421
 21
-301.7712923749883
 31
0.0
  0
LINE
  5
B3
330
1F
100
AcDbEntity
  8
通り芯
  6
Continuous
 62
     3
370
     9
100
AcDbLine
 10
-664.1441392681699
 20
-298.1712903954697
 30
0.0
 11
-664.1441392681699
 21
-301.7712923749883
 31
0.0
  0
LINE
  5
B4
330
1F
100
AcDbEntity
  8
通り芯
  6
Continuous
 62
     3
370
     9
100
AcDbLine
 10
-661.6191148541074
 20
-305.7713055717788
 30
0.0
 11
-660.6191115549098
 21
-306.771259383012
 31
0.0
  0
LINE
  5
B5
330
1F
100
AcDbEntity
  8
通り芯
  6
Continuous
 62
     3
370
     9
100
AcDbLine
 10
-660.6191115549098
 20
-306.771259383012
 30
0.0
 11
-656.6190488701546
 21
-306.771259383012
 31
0.0
  0
LINE
  5
B6
330
1F
100
AcDbEntity
  8
通り芯
  6
Continuous
 62
     3
370
     9
100
AcDbLine
 10
-661.6191148541074
 20
-305.7713055717788
 30
0.0
 11
-655.619045570957
 21
-305.7713055717788
 31
0.0
  0
LINE
  5
B7
330
1F
100
AcDbEntity
  8
通り芯
  6
Continuous
 62
     3
370
     9
100
AcDbLine
 10
-664.1441392681699
 20
-301.7712923749883
 30
0.0
 11
-653.0940706448591
 21
-301.7712923749883
 31
0.0
  0
LINE
  5
B8
330
1F
100
AcDbEntity
  8
通り芯
  6
Continuous
 62
     3
370
     9
100
AcDbLine
 10
-665.619128050898
 20
-296.5712950143463
 30
0.0
 11
-651.6190818621311
 21
-296.5712950143463
 31
0.0
  0
LINE
  5
B9
330
1F
100
AcDbEntity
  8
通り芯
  6
Continuous
 62
     3
370
     9
100
AcDbLine
 10
-665.619128050898
 20
-295.7712725798025
 30
0.0
 11
-665.619128050898
 21
-296.5712950143463
 31
0.0
  0
LINE
  5
BA
330
1F
100
AcDbEntity
  8
通り芯
  6
Continuous
 62
     3
370
     9
100
AcDbLine
 10
-667.7949158992932
 20
-295.7712725798025
 30
0.0
 11
-649.4432940137358
 21
-295.7712725798025
 31
0.0
  0
LINE
  5
BB
330
1F
100
AcDbEntity
  8
通り芯
  6
Continuous
 62
     3
370
     9
100
AcDbLine
 10
-660.6191115549098
 20
-301.7712923749883
 30
0.0
 11
-660.6191115549098
 21
-306.771259383012
 31
0.0
  0
LINE
  5
BC
330
1F
100
AcDbEntity
  8
通り芯
  6
Continuous
 62
     3
370
     9
100
AcDbLine
 10
-661.6191148541074
 20
-301.7712923749883
 30
0.0
 11
-661.6191148541074
 21
-305.7713055717788
 31
0.0
  0
LINE
  5
BD
330
1F
100
AcDbEntity
  8
通り芯
  6
Continuous
 62
     3
370
     9
100
AcDbLine
 10
-651.6190818621311
 20
-296.5712950143463
 30
0.0
 11
-653.0940706448591
 21
-298.1712903954697
 31
0.0
  0
LINE
  5
BE
330
1F
100
AcDbEntity
  8
通り芯
  6
Continuous
 62
     3
370
     9
100
AcDbLine
 10
-655.8565383127223
 20
-296.5712950143463
 30
0.0
 11
-655.8565383127223
 21
-301.7712923749883
 31
0.0
  0
LINE
  5
BF
330
1F
100
AcDbEntity
  8
通り芯
  6
Continuous
 62
     3
370
     9
100
AcDbLine
 10
-653.0940706448591
 20
-298.1712903954697
 30
0.0
 11
-653.0940706448591
 21
-301.7712923749883
 31
0.0
  0
LINE
  5
C0
330
1F
100
AcDbEntity
  8
通り芯
  6
Continuous
 62
     3
370
     9
100
AcDbLine
 10
-655.619045570957
 20
-305.7713055717788
 30
0.0
 11
-656.6190488701546
 21
-306.771259383012
 31
0.0
  0
LINE
  5
C1
330
1F
100
AcDbEntity
  8
通り芯
  6
Continuous
 62
     3
370
     9
100
AcDbLine
 10
-651.6190818621311
 20
-295.7712725798025
 30
0.0
 11
-651.6190818621311
 21
-296.5712950143463
 31
0.0
  0
LINE
  5
C2
330
1F
100
AcDbEntity
  8
通り芯
  6
Continuous
 62
     3
370
     9
100
AcDbLine
 10
-656.6190488701546
 20
-301.7712923749883
 30
0.0
 11
-656.6190488701546
 21
-306.771259383012
 31
0.0
  0
LINE
  5
C3
330
1F
100
AcDbEntity
  8
通り芯
  6
Continuous
 62
     3
370
     9
100
AcDbLine
 10
-655.619045570957
 20
-301.7712923749883
 30
0.0
 11
-655.619045570957
 21
-305.7713055717788
 31
0.0
  0
LINE
  5
C4
330
1F
100
AcDbEntity
  8
通り芯
  6
Continuous
 62
     3
370
     9
100
AcDbLine
 10
-671.1191214525027
 20
-276.771259383012
 30
0.0
 11
-671.1191214525027
 21
-281.7712758790001
 31
0.0
  0
LINE
  5
C5
330
1F
100
AcDbEntity
  8
通り芯
  6
Continuous
 62
     3
370
     9
100
AcDbLine
 10
-646.1190884605263
 20
-276.771259383012
 30
0.0
 11
-646.1190884605263
 21
-281.7712758790001
 31
0.0
  0
LINE
  5
C6
330
1F
100
AcDbEntity
  8
通り芯
  6
Continuous
 62
     3
370
     9
100
AcDbLine
 10
-536.1191214525027
 20
-276.771259383012
 30
0.0
 11
-536.1191214525027
 21
-281.7712758790001
 31
0.0
  0
LINE
  5
C7
330
1F
100
AcDbEntity
  8
通り芯
  6
Continuous
 62
     3
370
     9
100
AcDbLine
 10
-511.1190884605263
 20
-276.771259383012
 30
0.0
 11
-511.1190884605263
 21
-281.7712758790001
 31
0.0
  0
LINE
  5
C8
330
1F
100
AcDbEntity
  8
通り芯
  6
Continuous
 62
     3
370
     9
100
AcDbLine
 10
-401.1191214525027
 20
-276.771259383012
 30
0.0
 11
-401.1191214525027
 21
-281.7712758790001
 31
0.0
  0
LINE
  5
C9
330
1F
100
AcDbEntity
  8
通り芯
  6
Continuous
 62
     3
370
     9
100
AcDbLine
 10
-399.2833159204081
 20
-294.4573671216099
 30
0.0
 11
-400.8691082557121
 21
-281.7712758790001
 31
0.0
  0
LINE
  5
CA
330
1F
100
AcDbEntity
  8
通り芯
  6
Continuous
 62
     3
370
     9
100
AcDbLine
 10
-669.2833159204081
 20
-294.4573671216099
 30
0.0
 11
-670.8691082557121
 21
-281.7712758790001
 31
0.0
  0
LINE
  5
CB
330
1F
100
AcDbEntity
  8
通り芯
  6
Continuous
 62
     3
370
     9
100
AcDbLine
 10
-647.9548445046564
 20
-294.4573671216099
 30
0.0
 11
-646.3691016573168
 21
-281.7712758790001
 31
0.0
  0
LINE
  5
CC
330
1F
100
AcDbEntity
  8
通り芯
  6
Continuous
 62
     3
370
     9
100
AcDbLine
 10
-526.5652719487019
 20
-295.7712725798025
 30
0.0
 11
-520.672937964327
 21
-295.7712725798025
 31
0.0
  0
LINE
  5
CD
330
1F
100
AcDbEntity
  8
通り芯
  6
Continuous
 62
     3
370
     9
100
AcDbLine
 10
-528.0506037160162
 20
-294.4801315852924
 30
0.0
 11
-529.8378615549098
 21
-281.7712758790001
 31
0.0
  0
LINE
  5
CE
330
1F
100
AcDbEntity
  8
通り芯
  6
Continuous
 62
     3
370
     9
100
AcDbLine
 10
-519.1876061970129
 20
-294.4801315852924
 30
0.0
 11
-517.4003978460837
 21
-281.7712758790001
 31
0.0
  0
LINE
  5
CF
330
1F
100
AcDbEntity
  8
通り芯
  6
JWW_CENTER1
 62
     3
370
     9
100
AcDbLine
 10
-658.61905546855
 20
-291.771259383012
 30
0.0
 11
-658.61905546855
 21
-310.771223091838
 31
0.0
  0
LINE
  5
D0
330
1F
100
AcDbEntity
  8
通り芯
  6
JWW_CENTER1
 62
     3
370
     9
100
AcDbLine
 10
-388.619154444479
 20
-291.771259383012
 30
0.0
 11
-388.619154444479
 21
-310.771223091838
 31
0.0
  0
LINE
  5
D1
330
1F
100
AcDbEntity
  8
通り芯
  6
Continuous
 62
     3
370
     9
100
AcDbLine
 10
-89.11927981398912
 20
-281.7712758790001
 30
0.0
 11
-89.11927981398912
 21
-261.771259383012
 31
0.0
  0
LINE
  5
D2
330
1F
100
AcDbEntity
  8
通り芯
  6
Continuous
 62
     3
370
     9
100
AcDbLine
 10
-229.9061054579926
 20
-321.771259383012
 30
0.0
 11
-277.3323518948591
 21
-321.771259383012
 31
0.0
  0
LINE
  5
D3
330
1F
100
AcDbEntity
  8
通り芯
  6
Continuous
 62
     3
370
     9
100
AcDbLine
 10
-96.51589945609214
 20
-321.771259383012
 30
0.0
 11
-143.8323815876378
 21
-321.771259383012
 31
0.0
  0
LINE
  5
D4
330
1F
100
AcDbEntity
  8
通り芯
  6
Continuous
 62
     3
370
     9
100
AcDbLine
 10
-95.0197793125111
 20
-320.3781731815761
 30
0.0
 11
-92.26206248924257
 21
-281.7712758790001
 31
0.0
  0
LINE
  5
D5
330
1F
100
AcDbEntity
  8
通り芯
  6
Continuous
 62
     3
370
     9
100
AcDbLine
 10
-362.0105646535162
 20
-311.3151453099545
 30
0.0
 11
-363.4234460407628
 21
-320.4993197187383
 31
0.0
  0
LINE
  5
D6
330
1F
100
AcDbEntity
  8
通り芯
  6
Continuous
 62
     3
370
     9
100
AcDbLine
 10
-280.2278432113709
 20
-311.3151453099545
 30
0.0
 11
-278.8149123361598
 21
-320.4993197187383
 31
0.0
  0
LINE
  5
D7
330
1F
100
AcDbEntity
  8
通り芯
  6
Continuous
 62
     3
370
     9
100
AcDbLine
 10
-283.1929640939723
 20
-308.7712659814072
 30
0.0
 11
-359.0454437709149
 21
-308.7712659814072
 31
0.0
  0
LINE
  5
D8
330
1F
100
AcDbEntity
  8
通り芯
  6
Continuous
 62
     3
370
     9
100
AcDbLine
 10
-227.0106141414807
 20
-311.3151453099545
 30
0.0
 11
-228.4235945046564
 21
-320.4993197187383
 31
0.0
  0
LINE
  5
D9
330
1F
100
AcDbEntity
  8
通り芯
  6
Continuous
 62
     3
370
     9
100
AcDbLine
 10
-146.7278729041496
 20
-311.3151453099545
 30
0.0
 11
-145.3149420289385
 21
-320.4993197187383
 31
0.0
  0
LINE
  5
DA
330
1F
100
AcDbEntity
  8
通り芯
  6
Continuous
 62
     3
370
     9
100
AcDbLine
 10
-149.692993786751
 20
-308.7712659814072
 30
0.0
 11
-224.0455427468439
 21
-308.7712659814072
 31
0.0
  0
LINE
  5
DB
330
1F
100
AcDbEntity
  8
通り芯
  6
Continuous
 62
     3
370
     9
100
AcDbLine
 10
-89.46886279540809
 20
-281.7712758790001
 30
0.0
 11
-93.61154979393007
 21
-305.460323202691
 31
0.0
  0
LINE
  5
DC
330
1F
100
AcDbEntity
  8
通り芯
  6
Continuous
 62
     3
370
     9
100
AcDbLine
 10
-381.6191808380601
 20
-296.5712950143463
 30
0.0
 11
-383.0942191087527
 21
-298.1712903954697
 31
0.0
  0
LINE
  5
DD
330
1F
100
AcDbEntity
  8
通り芯
  6
Continuous
 62
     3
370
     9
100
AcDbLine
 10
-385.8566372886513
 20
-296.5712950143463
 30
0.0
 11
-385.8566372886513
 21
-301.7712923749883
 31
0.0
  0
LINE
  5
DE
330
1F
100
AcDbEntity
  8
通り芯
  6
Continuous
 62
     3
370
     9
100
AcDbLine
 10
-383.0942191087527
 20
-298.1712903954697
 30
0.0
 11
-383.0942191087527
 21
-301.7712923749883
 31
0.0
  0
LINE
  5
DF
330
1F
100
AcDbEntity
  8
通り芯
  6
Continuous
 62
     3
370
     9
100
AcDbLine
 10
-385.6191940348506
 20
-305.7713055717788
 30
0.0
 11
-386.6191478460838
 21
-306.771259383012
 31
0.0
  0
LINE
  5
E0
330
1F
100
AcDbEntity
  8
通り芯
  6
Continuous
 62
     3
370
     9
100
AcDbLine
 10
-381.6191808380601
 20
-295.7712725798025
 30
0.0
 11
-381.6191808380601
 21
-296.5712950143463
 31
0.0
  0
LINE
  5
E1
330
1F
100
AcDbEntity
  8
通り芯
  6
Continuous
 62
     3
370
     9
100
AcDbLine
 10
-386.6191478460838
 20
-301.7712923749883
 30
0.0
 11
-386.6191478460838
 21
-306.771259383012
 31
0.0
  0
LINE
  5
E2
330
1F
100
AcDbEntity
  8
通り芯
  6
Continuous
 62
     3
370
     9
100
AcDbLine
 10
-385.6191940348506
 20
-301.7712923749883
 30
0.0
 11
-385.6191940348506
 21
-305.7713055717788
 31
0.0
  0
LINE
  5
E3
330
1F
100
AcDbEntity
  8
通り芯
  6
Continuous
 62
     3
370
     9
100
AcDbLine
 10
-111.6191808380601
 20
-296.5712950143463
 30
0.0
 11
-113.0941696207881
 21
-298.1712903954697
 31
0.0
  0
LINE
  5
E4
330
1F
100
AcDbEntity
  8
通り芯
  6
Continuous
 62
     3
370
     9
100
AcDbLine
 10
-115.8566867766158
 20
-296.5712950143463
 30
0.0
 11
-115.8566867766158
 21
-301.7712923749883
 31
0.0
  0
LINE
  5
E5
330
1F
100
AcDbEntity
  8
通り芯
  6
Continuous
 62
     3
370
     9
100
AcDbLine
 10
-113.0941696207881
 20
-298.1712903954697
 30
0.0
 11
-113.0941696207881
 21
-301.7712923749883
 31
0.0
  0
LINE
  5
E6
330
1F
100
AcDbEntity
  8
通り芯
  6
Continuous
 62
     3
370
     9
100
AcDbLine
 10
-115.6191940348506
 20
-305.7713055717788
 30
0.0
 11
-116.6191973340483
 21
-306.771259383012
 31
0.0
  0
LINE
  5
E7
330
1F
100
AcDbEntity
  8
通り芯
  6
Continuous
 62
     3
370
     9
100
AcDbLine
 10
-116.6191973340483
 20
-306.771259383012
 30
0.0
 11
-120.6192600188033
 21
-306.771259383012
 31
0.0
  0
LINE
  5
E8
330
1F
100
AcDbEntity
  8
通り芯
  6
Continuous
 62
     3
370
     9
100
AcDbLine
 10
-115.6191940348506
 20
-305.7713055717788
 30
0.0
 11
-121.619263318001
 21
-305.7713055717788
 31
0.0
  0
LINE
  5
E9
330
1F
100
AcDbEntity
  8
通り芯
  6
Continuous
 62
     3
370
     9
100
AcDbLine
 10
-113.0941696207881
 20
-301.7712923749883
 30
0.0
 11
-124.1441887561344
 21
-301.7712923749883
 31
0.0
  0
LINE
  5
EA
330
1F
100
AcDbEntity
  8
通り芯
  6
Continuous
 62
     3
370
     9
100
AcDbLine
 10
-111.6191808380601
 20
-296.5712950143463
 30
0.0
 11
-125.6192270268269
 21
-296.5712950143463
 31
0.0
  0
LINE
  5
EB
330
1F
100
AcDbEntity
  8
通り芯
  6
Continuous
 62
     3
370
     9
100
AcDbLine
 10
-111.6191808380601
 20
-295.7712725798025
 30
0.0
 11
-111.6191808380601
 21
-296.5712950143463
 31
0.0
  0
LINE
  5
EC
330
1F
100
AcDbEntity
  8
通り芯
  6
Continuous
 62
     3
370
     9
100
AcDbLine
 10
-109.4433929896649
 20
-295.7712725798025
 30
0.0
 11
-127.7950148752223
 21
-295.7712725798025
 31
0.0
  0
LINE
  5
ED
330
1F
100
AcDbEntity
  8
通り芯
  6
Continuous
 62
     3
370
     9
100
AcDbLine
 10
-116.6191973340483
 20
-301.7712923749883
 30
0.0
 11
-116.6191973340483
 21
-306.771259383012
 31
0.0
  0
LINE
  5
EE
330
1F
100
AcDbEntity
  8
通り芯
  6
Continuous
 62
     3
370
     9
100
AcDbLine
 10
-115.6191940348506
 20
-301.7712923749883
 30
0.0
 11
-115.6191940348506
 21
-305.7713055717788
 31
0.0
  0
LINE
  5
EF
330
1F
100
AcDbEntity
  8
通り芯
  6
Continuous
 62
     3
370
     9
100
AcDbLine
 10
-125.6192270268269
 20
-296.5712950143463
 30
0.0
 11
-124.1441887561344
 21
-298.1712903954697
 31
0.0
  0
LINE
  5
F0
330
1F
100
AcDbEntity
  8
通り芯
  6
Continuous
 62
     3
370
     9
100
AcDbLine
 10
-121.3817705762358
 20
-296.5712950143463
 30
0.0
 11
-121.3817705762358
 21
-301.7712923749883
 31
0.0
  0
LINE
  5
F1
330
1F
100
AcDbEntity
  8
通り芯
  6
Continuous
 62
     3
370
     9
100
AcDbLine
 10
-124.1441887561344
 20
-298.1712903954697
 30
0.0
 11
-124.1441887561344
 21
-301.7712923749883
 31
0.0
  0
LINE
  5
F2
330
1F
100
AcDbEntity
  8
通り芯
  6
Continuous
 62
     3
370
     9
100
AcDbLine
 10
-121.619263318001
 20
-305.7713055717788
 30
0.0
 11
-120.6192600188033
 21
-306.771259383012
 31
0.0
  0
LINE
  5
F3
330
1F
100
AcDbEntity
  8
通り芯
  6
Continuous
 62
     3
370
     9
100
AcDbLine
 10
-125.6192270268269
 20
-295.7712725798025
 30
0.0
 11
-125.6192270268269
 21
-296.5712950143463
 31
0.0
  0
LINE
  5
F4
330
1F
100
AcDbEntity
  8
通り芯
  6
Continuous
 62
     3
370
     9
100
AcDbLine
 10
-120.6192600188033
 20
-301.7712923749883
 30
0.0
 11
-120.6192600188033
 21
-306.771259383012
 31
0.0
  0
LINE
  5
F5
330
1F
100
AcDbEntity
  8
通り芯
  6
Continuous
 62
     3
370
     9
100
AcDbLine
 10
-121.619263318001
 20
-301.7712923749883
 30
0.0
 11
-121.619263318001
 21
-305.7713055717788
 31
0.0
  0
LINE
  5
F6
330
1F
100
AcDbEntity
  8
通り芯
  6
Continuous
 62
     3
370
     9
100
AcDbLine
 10
-106.1191874364554
 20
-276.771259383012
 30
0.0
 11
-106.1191874364554
 21
-281.7712758790001
 31
0.0
  0
LINE
  5
F7
330
1F
100
AcDbEntity
  8
通り芯
  6
Continuous
 62
     3
370
     9
100
AcDbLine
 10
-131.1192204284317
 20
-276.771259383012
 30
0.0
 11
-131.1192204284317
 21
-281.7712758790001
 31
0.0
  0
LINE
  5
F8
330
1F
100
AcDbEntity
  8
通り芯
  6
Continuous
 62
     3
370
     9
100
AcDbLine
 10
-241.1191874364554
 20
-276.771259383012
 30
0.0
 11
-241.1191874364554
 21
-281.7712758790001
 31
0.0
  0
LINE
  5
F9
330
1F
100
AcDbEntity
  8
通り芯
  6
Continuous
 62
     3
370
     9
100
AcDbLine
 10
-266.1192204284317
 20
-276.771259383012
 30
0.0
 11
-266.1192204284317
 21
-281.7712758790001
 31
0.0
  0
LINE
  5
FA
330
1F
100
AcDbEntity
  8
通り芯
  6
Continuous
 62
     3
370
     9
100
AcDbLine
 10
-376.1191874364554
 20
-276.771259383012
 30
0.0
 11
-376.1191874364554
 21
-281.7712758790001
 31
0.0
  0
LINE
  5
FB
330
1F
100
AcDbEntity
  8
通り芯
  6
Continuous
 62
     3
370
     9
100
AcDbLine
 10
-377.95499296855
 20
-294.4573671216099
 30
0.0
 11
-376.3692006332459
 21
-281.7712758790001
 31
0.0
  0
LINE
  5
FC
330
1F
100
AcDbEntity
  8
通り芯
  6
Continuous
 62
     3
370
     9
100
AcDbLine
 10
-107.95499296855
 20
-294.4573671216099
 30
0.0
 11
-106.3692006332459
 21
-281.7712758790001
 31
0.0
  0
LINE
  5
FD
330
1F
100
AcDbEntity
  8
通り芯
  6
Continuous
 62
     3
370
     9
100
AcDbLine
 10
-129.2834643843016
 20
-294.4573671216099
 30
0.0
 11
-130.8691577436766
 21
-281.7712758790001
 31
0.0
  0
LINE
  5
FE
330
1F
100
AcDbEntity
  8
通り芯
  6
Continuous
 62
     3
370
     9
100
AcDbLine
 10
-250.673036940256
 20
-295.7712725798025
 30
0.0
 11
-256.565370924631
 21
-295.7712725798025
 31
0.0
  0
LINE
  5
FF
330
1F
100
AcDbEntity
  8
通り芯
  6
Continuous
 62
     3
370
     9
100
AcDbLine
 10
-249.1877051729418
 20
-294.4801315852924
 30
0.0
 11
-247.4004473340483
 21
-281.7712758790001
 31
0.0
  0
LINE
  5
100
330
1F
100
AcDbEntity
  8
通り芯
  6
Continuous
 62
     3
370
     9
100
AcDbLine
 10
-258.0507026919453
 20
-294.4801315852924
 30
0.0
 11
-259.8379110428743
 21
-281.7712758790001
 31
0.0
  0
LINE
  5
101
330
1F
100
AcDbEntity
  8
通り芯
  6
JWW_CENTER1
 62
     3
370
     9
100
AcDbLine
 10
-118.6192534204081
 20
-291.771259383012
 30
0.0
 11
-118.6192534204081
 21
-310.771223091838
 31
0.0
  0
LINE
  5
102
330
1F
100
AcDbEntity
  8
通り芯
  6
JWW_CENTER1
 62
     3
370
     9
100
AcDbLine
 10
-708.1191321748951
 20
173.2288643368994
 30
0.0
 11
160.8808521539162
 21
173.2288643368994
 31
0.0
  0
LINE
  5
103
330
1F
100
AcDbEntity
  8
0-E
  6
Continuous
 62
     7
370
     9
100
AcDbLine
 10
579.3832473713994
 20
234.8480115602947
 30
0.0
 11
725.9315608215684
 21
234.8480115602947
 31
0.0
  0
LINE
  5
104
330
1F
100
AcDbEntity
  8
通り芯
  6
Continuous
 62
     3
370
     9
100
AcDbLine
 10
-615.1190851613287
 20
33.22889732887575
 30
0.0
 11
-615.1190851613287
 21
313.228831344923
 31
0.0
  0
LINE
  5
105
330
1F
100
AcDbEntity
  8
通り芯
  6
Continuous
 62
     3
370
     9
100
AcDbLine
 10
-622.1190587677476
 20
313.228831344923
 30
0.0
 11
-615.1190851613287
 21
313.228831344923
 31
0.0
  0
LINE
  5
106
330
1F
100
AcDbEntity
  8
通り芯
  6
Continuous
 62
     3
370
     9
100
AcDbLine
 10
-622.1190587677476
 20
33.22889732887575
 30
0.0
 11
-622.1190587677476
 21
313.228831344923
 31
0.0
  0
LINE
  5
107
330
1F
100
AcDbEntity
  8
通り芯
  6
Continuous
 62
     3
370
     9
100
AcDbLine
 10
-617.6190439213583
 20
35.7289303208521
 30
0.0
 11
-617.6190439213583
 21
310.7287983529467
 31
0.0
  0
LINE
  5
108
330
1F
100
AcDbEntity
  8
通り芯
  6
Continuous
 62
     3
370
     9
100
AcDbLine
 10
-619.6190752637358
 20
310.7287983529467
 30
0.0
 11
-617.6190439213583
 21
310.7287983529467
 31
0.0
  0
LINE
  5
109
330
1F
100
AcDbEntity
  8
通り芯
  6
Continuous
 62
     3
370
     9
100
AcDbLine
 10
-619.6190752637358
 20
35.7289303208521
 30
0.0
 11
-619.6190752637358
 21
310.7287983529467
 31
0.0
  0
LINE
  5
10A
330
1F
100
AcDbEntity
  8
通り芯
  6
Continuous
 62
     3
370
     9
100
AcDbLine
 10
-615.1190851613287
 20
313.228831344923
 30
0.0
 11
-617.6190439213583
 21
310.7287983529467
 31
0.0
  0
LINE
  5
10B
330
1F
100
AcDbEntity
  8
通り芯
  6
Continuous
 62
     3
370
     9
100
AcDbLine
 10
-622.1190587677476
 20
313.228831344923
 30
0.0
 11
-619.6190752637358
 21
310.7287983529467
 31
0.0
  0
LINE
  5
10C
330
1F
100
AcDbEntity
  8
通り芯
  6
Continuous
 62
     3
370
     9
100
AcDbLine
 10
-500.1189531934233
 20
33.22889732887575
 30
0.0
 11
-500.1189531934233
 21
313.228831344923
 31
0.0
  0
LINE
  5
10D
330
1F
100
AcDbEntity
  8
通り芯
  6
Continuous
 62
     3
370
     9
100
AcDbLine
 10
-507.1189267998422
 20
313.228831344923
 30
0.0
 11
-500.1189531934233
 21
313.228831344923
 31
0.0
  0
LINE
  5
10E
330
1F
100
AcDbEntity
  8
通り芯
  6
Continuous
 62
     3
370
     9
100
AcDbLine
 10
-507.1189267998422
 20
33.22889732887575
 30
0.0
 11
-507.1189267998422
 21
313.228831344923
 31
0.0
  0
LINE
  5
10F
330
1F
100
AcDbEntity
  8
通り芯
  6
Continuous
 62
     3
370
     9
100
AcDbLine
 10
-502.6189366974351
 20
35.7289303208521
 30
0.0
 11
-502.6189366974351
 21
310.7287983529467
 31
0.0
  0
LINE
  5
110
330
1F
100
AcDbEntity
  8
通り芯
  6
Continuous
 62
     3
370
     9
100
AcDbLine
 10
-504.6189927837949
 20
310.7287983529467
 30
0.0
 11
-502.6189366974351
 21
310.7287983529467
 31
0.0
  0
LINE
  5
111
330
1F
100
AcDbEntity
  8
通り芯
  6
Continuous
 62
     3
370
     9
100
AcDbLine
 10
-504.6189927837949
 20
35.7289303208521
 30
0.0
 11
-504.6189927837949
 21
310.7287983529467
 31
0.0
  0
LINE
  5
112
330
1F
100
AcDbEntity
  8
通り芯
  6
Continuous
 62
     3
370
     9
100
AcDbLine
 10
-500.1189531934233
 20
313.228831344923
 30
0.0
 11
-502.6189366974351
 21
310.7287983529467
 31
0.0
  0
LINE
  5
113
330
1F
100
AcDbEntity
  8
通り芯
  6
Continuous
 62
     3
370
     9
100
AcDbLine
 10
-507.1189267998422
 20
313.228831344923
 30
0.0
 11
-504.6189927837949
 21
310.7287983529467
 31
0.0
  0
LINE
  5
114
330
1F
100
AcDbEntity
  8
通り芯
  6
Continuous
 62
     3
370
     9
100
AcDbLine
 10
-392.1189432958304
 20
33.22889732887575
 30
0.0
 11
-392.1189432958304
 21
313.228831344923
 31
0.0
  0
LINE
  5
115
330
1F
100
AcDbEntity
  8
通り芯
  6
Continuous
 62
     3
370
     9
100
AcDbLine
 10
-389.6189597918186
 20
35.7289303208521
 30
0.0
 11
-389.6189597918186
 21
310.7287983529467
 31
0.0
  0
LINE
  5
116
330
1F
100
AcDbEntity
  8
通り芯
  6
Continuous
 62
     3
370
     9
100
AcDbLine
 10
-392.1189432958304
 20
313.228831344923
 30
0.0
 11
-389.6189597918186
 21
310.7287983529467
 31
0.0
  0
LINE
  5
117
330
1F
100
AcDbEntity
  8
通り芯
  6
Continuous
 62
     3
370
     9
100
AcDbLine
 10
-389.6189597918186
 20
310.7287983529467
 30
0.0
 11
-387.6189531934233
 21
310.7287983529467
 31
0.0
  0
LINE
  5
118
330
1F
100
AcDbEntity
  8
通り芯
  6
Continuous
 62
     3
370
     9
100
AcDbLine
 10
-684.1191148541074
 20
340.2288709352947
 30
0.0
 11
-93.11874864316985
 21
340.2288709352947
 31
0.0
  0
LINE
  5
119
330
1F
100
AcDbEntity
  8
通り芯
  6
Continuous
 62
     3
370
     9
100
AcDbLine
 10
-684.1191148541074
 20
344.2287851561562
 30
0.0
 11
-93.11874864316985
 21
344.2287851561562
 31
0.0
  0
LINE
  5
11A
330
1F
100
AcDbEntity
  8
通り芯
  6
Continuous
 62
     3
370
     9
100
AcDbLine
 10
-674.1012909388836
 20
336.3593080129974
 30
0.0
 11
-103.136597302376
 21
336.3593080129974
 31
0.0
  0
LINE
  5
11B
330
1F
100
AcDbEntity
  8
通り芯
  6
Continuous
 62
     3
370
     9
100
AcDbLine
 10
-673.5298781564723
 20
334.7091813238081
 30
0.0
 11
-103.7079853408051
 21
334.7091813238081
 31
0.0
  0
LINE
  5
11C
330
1F
100
AcDbEntity
  8
通り芯
  6
Continuous
 62
     3
370
     9
100
AcDbLine
 10
-676.5298880540652
 20
331.7092209141798
 30
0.0
 11
-676.5298880540652
 21
14.74850775961897
 31
0.0
  0
LINE
  5
11D
330
1F
100
AcDbEntity
  8
通り芯
  6
Continuous
 62
     3
370
     9
100
AcDbLine
 10
-682.6190851613287
 20
169.2288511401089
 30
0.0
 11
-682.6190851613287
 21
177.2288775336899
 31
0.0
  0
LINE
  5
11E
330
1F
100
AcDbEntity
  8
通り芯
  6
Continuous
 62
     3
370
     9
100
AcDbLine
 10
-678.6190719645382
 20
169.2288511401089
 30
0.0
 11
-678.6190719645382
 21
177.2288775336899
 31
0.0
  0
LINE
  5
11F
330
1F
100
AcDbEntity
  8
通り芯
  6
Continuous
 62
     3
370
     9
100
AcDbLine
 10
-684.1191148541074
 20
177.2288775336899
 30
0.0
 11
-678.6190719645382
 21
177.2288775336899
 31
0.0
  0
LINE
  5
120
330
1F
100
AcDbEntity
  8
通り芯
  6
Continuous
 62
     3
370
     9
100
AcDbLine
 10
-681.1089104358219
 20
179.2288346441206
 30
0.0
 11
-680.1089071366243
 21
178.7288082505396
 31
0.0
  0
LINE
  5
121
330
1F
100
AcDbEntity
  8
通り芯
  6
Continuous
 62
     3
370
     9
100
AcDbLine
 10
-680.1089071366243
 20
178.7288082505396
 30
0.0
 11
-677.1012760924942
 21
178.7288082505396
 31
0.0
  0
LINE
  5
122
330
1F
100
AcDbEntity
  8
通り芯
  6
Continuous
 62
     3
370
     9
100
AcDbLine
 10
-677.1012760924942
 20
178.7288082505396
 30
0.0
 11
-680.1089071366243
 21
179.2288346441206
 31
0.0
  0
LINE
  5
123
330
1F
100
AcDbEntity
  8
通り芯
  6
Continuous
 62
     3
370
     9
100
AcDbLine
 10
-680.1089071366243
 20
179.2288346441206
 30
0.0
 11
-681.1089104358219
 21
179.2288346441206
 31
0.0
  0
LINE
  5
124
330
1F
100
AcDbEntity
  8
通り芯
  6
Continuous
 62
     3
370
     9
100
AcDbLine
 10
-677.1012760924942
 20
167.7289204232592
 30
0.0
 11
-677.1012760924942
 21
178.7288082505396
 31
0.0
  0
LINE
  5
125
330
1F
100
AcDbEntity
  8
通り芯
  6
Continuous
 62
     3
370
     9
100
AcDbLine
 10
-681.1089104358219
 20
179.2288346441206
 30
0.0
 11
-681.1089104358219
 21
177.2288775336899
 31
0.0
  0
LINE
  5
126
330
1F
100
AcDbEntity
  8
通り芯
  6
Continuous
 62
     3
370
     9
100
AcDbLine
 10
-678.1012793916918
 20
332.3592948162069
 30
0.0
 11
-678.1012793916918
 21
178.8950383233858
 31
0.0
  0
LINE
  5
127
330
1F
100
AcDbEntity
  8
通り芯
  6
Continuous
 62
     3
370
     9
100
AcDbLine
 10
-684.1191148541074
 20
350.228804951342
 30
0.0
 11
-93.11874864316985
 21
350.228804951342
 31
0.0
  0
LINE
  5
128
330
1F
100
AcDbEntity
  8
通り芯
  6
Continuous
 62
     3
370
     9
100
AcDbLine
 10
-684.1191148541074
 20
354.2288181481325
 30
0.0
 11
-93.11874864316985
 21
354.2288181481325
 31
0.0
  0
LINE
  5
129
330
1F
100
AcDbEntity
  8
通り芯
  6
Continuous
 62
     3
370
     9
100
AcDbLine
 10
-684.1191148541074
 20
360.2287389673893
 30
0.0
 11
-93.11874864316985
 21
360.2287389673893
 31
0.0
  0
LINE
  5
12A
330
1F
100
AcDbEntity
  8
通り芯
  6
Continuous
 62
     3
370
     9
100
AcDbLine
 10
-684.1191148541074
 20
-17.77102349038103
 30
0.0
 11
-684.1191148541074
 21
364.2287521641798
 31
0.0
  0
LINE
  5
12B
330
1F
100
AcDbEntity
  8
通り芯
  6
Continuous
 62
     3
370
     9
100
AcDbLine
 10
-688.119128050898
 20
-17.77102349038103
 30
0.0
 11
-688.119128050898
 21
364.2287521641798
 31
0.0
  0
LINE
  5
12C
330
1F
100
AcDbEntity
  8
通り芯
  6
Continuous
 62
     3
370
     9
100
AcDbLine
 10
-688.119128050898
 20
364.2287521641798
 30
0.0
 11
-89.11873544637933
 21
364.2287521641798
 31
0.0
  0
LINE
  5
12D
330
1F
100
AcDbEntity
  8
通り芯
  6
Continuous
 62
     3
370
     9
100
AcDbLine
 10
-392.1189432958304
 20
313.228831344923
 30
0.0
 11
-385.1189202014469
 21
313.228831344923
 31
0.0
  0
LINE
  5
12E
330
1F
100
AcDbEntity
  8
通り芯
  6
Continuous
 62
     3
370
     9
100
AcDbLine
 10
-671.1189729886091
 20
368.2287653609703
 30
0.0
 11
-646.1189399966328
 21
368.2287653609703
 31
0.0
  0
LINE
  5
12F
330
1F
100
AcDbEntity
  8
通り芯
  6
Continuous
 62
     3
370
     9
100
AcDbLine
 10
-536.118972988609
 20
368.2287653609703
 30
0.0
 11
-511.1189399966327
 21
368.2287653609703
 31
0.0
  0
LINE
  5
130
330
1F
100
AcDbEntity
  8
通り芯
  6
Continuous
 62
     3
370
     9
100
AcDbLine
 10
-401.1189729886091
 20
368.2287653609703
 30
0.0
 11
-376.1189399966327
 21
368.2287653609703
 31
0.0
  0
LINE
  5
131
330
1F
100
AcDbEntity
  8
通り芯
  6
Continuous
 62
     3
370
     9
100
AcDbLine
 10
-671.1189729886091
 20
368.2287653609703
 30
0.0
 11
-671.1189729886091
 21
364.2287521641798
 31
0.0
  0
LINE
  5
132
330
1F
100
AcDbEntity
  8
通り芯
  6
Continuous
 62
     3
370
     9
100
AcDbLine
 10
-671.1189729886091
 20
360.2287389673893
 30
0.0
 11
-671.1189729886091
 21
354.2288181481325
 31
0.0
  0
LINE
  5
133
330
1F
100
AcDbEntity
  8
通り芯
  6
Continuous
 62
     3
370
     9
100
AcDbLine
 10
-671.1189729886091
 20
350.228804951342
 30
0.0
 11
-671.1189729886091
 21
344.2287851561562
 31
0.0
  0
LINE
  5
134
330
1F
100
AcDbEntity
  8
通り芯
  6
Continuous
 62
     3
370
     9
100
AcDbLine
 10
-646.1189399966328
 20
368.2287653609703
 30
0.0
 11
-646.1189399966328
 21
364.2287521641798
 31
0.0
  0
LINE
  5
135
330
1F
100
AcDbEntity
  8
通り芯
  6
Continuous
 62
     3
370
     9
100
AcDbLine
 10
-646.1189399966328
 20
360.2287389673893
 30
0.0
 11
-646.1189399966328
 21
354.2288181481325
 31
0.0
  0
LINE
  5
136
330
1F
100
AcDbEntity
  8
通り芯
  6
Continuous
 62
     3
370
     9
100
AcDbLine
 10
-646.1189399966328
 20
350.228804951342
 30
0.0
 11
-646.1189399966328
 21
344.2287851561562
 31
0.0
  0
LINE
  5
137
330
1F
100
AcDbEntity
  8
通り芯
  6
Continuous
 62
     3
370
     9
100
AcDbLine
 10
-536.118972988609
 20
368.2287653609703
 30
0.0
 11
-536.118972988609
 21
364.2287521641798
 31
0.0
  0
LINE
  5
138
330
1F
100
AcDbEntity
  8
通り芯
  6
Continuous
 62
     3
370
     9
100
AcDbLine
 10
-511.1189399966327
 20
368.2287653609703
 30
0.0
 11
-511.1189399966327
 21
364.2287521641798
 31
0.0
  0
LINE
  5
139
330
1F
100
AcDbEntity
  8
通り芯
  6
Continuous
 62
     3
370
     9
100
AcDbLine
 10
-536.118972988609
 20
350.228804951342
 30
0.0
 11
-536.118972988609
 21
344.2287851561562
 31
0.0
  0
LINE
  5
13A
330
1F
100
AcDbEntity
  8
通り芯
  6
Continuous
 62
     3
370
     9
100
AcDbLine
 10
-511.1189399966327
 20
350.228804951342
 30
0.0
 11
-511.1189399966327
 21
344.2287851561562
 31
0.0
  0
LINE
  5
13B
330
1F
100
AcDbEntity
  8
通り芯
  6
Continuous
 62
     3
370
     9
100
AcDbLine
 10
-536.118972988609
 20
360.2287389673893
 30
0.0
 11
-536.118972988609
 21
354.2288181481325
 31
0.0
  0
LINE
  5
13C
330
1F
100
AcDbEntity
  8
通り芯
  6
Continuous
 62
     3
370
     9
100
AcDbLine
 10
-511.1189399966327
 20
360.2287389673893
 30
0.0
 11
-511.1189399966327
 21
354.2288181481325
 31
0.0
  0
LINE
  5
13D
330
1F
100
AcDbEntity
  8
通り芯
  6
Continuous
 62
     3
370
     9
100
AcDbLine
 10
-401.1189729886091
 20
368.2287653609703
 30
0.0
 11
-401.1189729886091
 21
364.2287521641798
 31
0.0
  0
LINE
  5
13E
330
1F
100
AcDbEntity
  8
通り芯
  6
Continuous
 62
     3
370
     9
100
AcDbLine
 10
-401.1189729886091
 20
350.228804951342
 30
0.0
 11
-401.1189729886091
 21
344.2287851561562
 31
0.0
  0
LINE
  5
13F
330
1F
100
AcDbEntity
  8
通り芯
  6
Continuous
 62
     3
370
     9
100
AcDbLine
 10
-401.1189729886091
 20
360.2287389673893
 30
0.0
 11
-401.1189729886091
 21
354.2288181481325
 31
0.0
  0
LINE
  5
140
330
1F
100
AcDbEntity
  8
通り芯
  6
Continuous
 62
     3
370
     9
100
AcDbLine
 10
-162.1188278239131
 20
33.22889732887575
 30
0.0
 11
-162.1188278239131
 21
313.228831344923
 31
0.0
  0
LINE
  5
141
330
1F
100
AcDbEntity
  8
通り芯
  6
Continuous
 62
     3
370
     9
100
AcDbLine
 10
-155.1188542174942
 20
313.228831344923
 30
0.0
 11
-162.1188278239131
 21
313.228831344923
 31
0.0
  0
LINE
  5
142
330
1F
100
AcDbEntity
  8
通り芯
  6
Continuous
 62
     3
370
     9
100
AcDbLine
 10
-155.1188542174942
 20
33.22889732887575
 30
0.0
 11
-155.1188542174942
 21
313.228831344923
 31
0.0
  0
LINE
  5
143
330
1F
100
AcDbEntity
  8
通り芯
  6
Continuous
 62
     3
370
     9
100
AcDbLine
 10
-159.6188938078658
 20
35.7289303208521
 30
0.0
 11
-159.6188938078658
 21
310.7287983529467
 31
0.0
  0
LINE
  5
144
330
1F
100
AcDbEntity
  8
通り芯
  6
Continuous
 62
     3
370
     9
100
AcDbLine
 10
-157.618837721506
 20
310.7287983529467
 30
0.0
 11
-159.6188938078658
 21
310.7287983529467
 31
0.0
  0
LINE
  5
145
330
1F
100
AcDbEntity
  8
通り芯
  6
Continuous
 62
     3
370
     9
100
AcDbLine
 10
-157.618837721506
 20
35.7289303208521
 30
0.0
 11
-157.618837721506
 21
310.7287983529467
 31
0.0
  0
LINE
  5
146
330
1F
100
AcDbEntity
  8
通り芯
  6
Continuous
 62
     3
370
     9
100
AcDbLine
 10
-162.1188278239131
 20
313.228831344923
 30
0.0
 11
-159.6188938078658
 21
310.7287983529467
 31
0.0
  0
LINE
  5
147
330
1F
100
AcDbEntity
  8
通り芯
  6
Continuous
 62
     3
370
     9
100
AcDbLine
 10
-155.1188542174942
 20
313.228831344923
 30
0.0
 11
-157.618837721506
 21
310.7287983529467
 31
0.0
  0
LINE
  5
148
330
1F
100
AcDbEntity
  8
通り芯
  6
Continuous
 62
     3
370
     9
100
AcDbLine
 10
-277.1189597918185
 20
33.22889732887575
 30
0.0
 11
-277.1189597918185
 21
313.228831344923
 31
0.0
  0
LINE
  5
149
330
1F
100
AcDbEntity
  8
通り芯
  6
Continuous
 62
     3
370
     9
100
AcDbLine
 10
-270.1189366974351
 20
313.228831344923
 30
0.0
 11
-277.1189597918185
 21
313.228831344923
 31
0.0
  0
LINE
  5
14A
330
1F
100
AcDbEntity
  8
通り芯
  6
Continuous
 62
     3
370
     9
100
AcDbLine
 10
-270.1189366974351
 20
33.22889732887575
 30
0.0
 11
-270.1189366974351
 21
313.228831344923
 31
0.0
  0
LINE
  5
14B
330
1F
100
AcDbEntity
  8
通り芯
  6
Continuous
 62
     3
370
     9
100
AcDbLine
 10
-274.6189762878067
 20
35.7289303208521
 30
0.0
 11
-274.6189762878067
 21
310.7287983529467
 31
0.0
  0
LINE
  5
14C
330
1F
100
AcDbEntity
  8
通り芯
  6
Continuous
 62
     3
370
     9
100
AcDbLine
 10
-272.6189202014469
 20
310.7287983529467
 30
0.0
 11
-274.6189762878067
 21
310.7287983529467
 31
0.0
  0
LINE
  5
14D
330
1F
100
AcDbEntity
  8
通り芯
  6
Continuous
 62
     3
370
     9
100
AcDbLine
 10
-272.6189202014469
 20
35.7289303208521
 30
0.0
 11
-272.6189202014469
 21
310.7287983529467
 31
0.0
  0
LINE
  5
14E
330
1F
100
AcDbEntity
  8
通り芯
  6
Continuous
 62
     3
370
     9
100
AcDbLine
 10
-277.1189597918185
 20
313.228831344923
 30
0.0
 11
-274.6189762878067
 21
310.7287983529467
 31
0.0
  0
LINE
  5
14F
330
1F
100
AcDbEntity
  8
通り芯
  6
Continuous
 62
     3
370
     9
100
AcDbLine
 10
-270.1189366974351
 20
313.228831344923
 30
0.0
 11
-272.6189202014469
 21
310.7287983529467
 31
0.0
  0
LINE
  5
150
330
1F
100
AcDbEntity
  8
通り芯
  6
Continuous
 62
     3
370
     9
100
AcDbLine
 10
-385.1189202014469
 20
33.22889732887575
 30
0.0
 11
-385.1189202014469
 21
313.228831344923
 31
0.0
  0
LINE
  5
151
330
1F
100
AcDbEntity
  8
通り芯
  6
Continuous
 62
     3
370
     9
100
AcDbLine
 10
-387.6189531934233
 20
35.7289303208521
 30
0.0
 11
-387.6189531934233
 21
310.7287983529467
 31
0.0
  0
LINE
  5
152
330
1F
100
AcDbEntity
  8
通り芯
  6
Continuous
 62
     3
370
     9
100
AcDbLine
 10
-385.1189202014469
 20
313.228831344923
 30
0.0
 11
-387.6189531934233
 21
310.7287983529467
 31
0.0
  0
LINE
  5
153
330
1F
100
AcDbEntity
  8
通り芯
  6
Continuous
 62
     3
370
     9
100
AcDbLine
 10
-100.7080249311766
 20
331.7092209141798
 30
0.0
 11
-100.7080249311766
 21
14.74850775961897
 31
0.0
  0
LINE
  5
154
330
1F
100
AcDbEntity
  8
通り芯
  6
Continuous
 62
     3
370
     9
100
AcDbLine
 10
-94.61882782391308
 20
169.2288511401089
 30
0.0
 11
-94.61882782391308
 21
177.2288775336899
 31
0.0
  0
LINE
  5
155
330
1F
100
AcDbEntity
  8
通り芯
  6
Continuous
 62
     3
370
     9
100
AcDbLine
 10
-98.61879153273912
 20
169.2288511401089
 30
0.0
 11
-98.61879153273912
 21
177.2288775336899
 31
0.0
  0
LINE
  5
156
330
1F
100
AcDbEntity
  8
通り芯
  6
Continuous
 62
     3
370
     9
100
AcDbLine
 10
-93.11874864316985
 20
177.2288775336899
 30
0.0
 11
-98.61879153273912
 21
177.2288775336899
 31
0.0
  0
LINE
  5
157
330
1F
100
AcDbEntity
  8
通り芯
  6
Continuous
 62
     3
370
     9
100
AcDbLine
 10
-96.12900254941985
 20
179.2288346441206
 30
0.0
 11
-97.12905533658204
 21
178.7288082505396
 31
0.0
  0
LINE
  5
158
330
1F
100
AcDbEntity
  8
通り芯
  6
Continuous
 62
     3
370
     9
100
AcDbLine
 10
-97.12905533658204
 20
178.7288082505396
 30
0.0
 11
-100.1366368927476
 21
178.7288082505396
 31
0.0
  0
LINE
  5
159
330
1F
100
AcDbEntity
  8
通り芯
  6
Continuous
 62
     3
370
     9
100
AcDbLine
 10
-100.1366368927476
 20
178.7288082505396
 30
0.0
 11
-97.12905533658204
 21
179.2288346441206
 31
0.0
  0
LINE
  5
15A
330
1F
100
AcDbEntity
  8
通り芯
  6
Continuous
 62
     3
370
     9
100
AcDbLine
 10
-97.12905533658204
 20
179.2288346441206
 30
0.0
 11
-96.12900254941985
 21
179.2288346441206
 31
0.0
  0
LINE
  5
15B
330
1F
100
AcDbEntity
  8
通り芯
  6
Continuous
 62
     3
370
     9
100
AcDbLine
 10
-100.1366368927476
 20
167.7289204232592
 30
0.0
 11
-100.1366368927476
 21
178.7288082505396
 31
0.0
  0
LINE
  5
15C
330
1F
100
AcDbEntity
  8
通り芯
  6
Continuous
 62
     3
370
     9
100
AcDbLine
 10
-96.12900254941985
 20
179.2288346441206
 30
0.0
 11
-96.12900254941985
 21
177.2288775336899
 31
0.0
  0
LINE
  5
15D
330
1F
100
AcDbEntity
  8
通り芯
  6
Continuous
 62
     3
370
     9
100
AcDbLine
 10
-99.13668308151443
 20
332.3592948162069
 30
0.0
 11
-99.13668308151443
 21
178.8950383233858
 31
0.0
  0
LINE
  5
15E
330
1F
100
AcDbEntity
  8
通り芯
  6
Continuous
 62
     3
370
     9
100
AcDbLine
 10
-93.11874864316985
 20
-17.77102349038103
 30
0.0
 11
-93.11874864316985
 21
364.2287521641798
 31
0.0
  0
LINE
  5
15F
330
1F
100
AcDbEntity
  8
通り芯
  6
Continuous
 62
     3
370
     9
100
AcDbLine
 10
-89.11873544637933
 20
-17.77102349038103
 30
0.0
 11
-89.11873544637933
 21
364.2287521641798
 31
0.0
  0
LINE
  5
160
330
1F
100
AcDbEntity
  8
通り芯
  6
Continuous
 62
     3
370
     9
100
AcDbLine
 10
-106.1190389725617
 20
368.2287653609703
 30
0.0
 11
-131.1190224765736
 21
368.2287653609703
 31
0.0
  0
LINE
  5
161
330
1F
100
AcDbEntity
  8
通り芯
  6
Continuous
 62
     3
370
     9
100
AcDbLine
 10
-241.1189399966328
 20
368.2287653609703
 30
0.0
 11
-266.1189729886091
 21
368.2287653609703
 31
0.0
  0
LINE
  5
162
330
1F
100
AcDbEntity
  8
通り芯
  6
Continuous
 62
     3
370
     9
100
AcDbLine
 10
-106.1190389725617
 20
368.2287653609703
 30
0.0
 11
-106.1190389725617
 21
364.2287521641798
 31
0.0
  0
LINE
  5
163
330
1F
100
AcDbEntity
  8
通り芯
  6
Continuous
 62
     3
370
     9
100
AcDbLine
 10
-106.1190389725617
 20
360.2287389673893
 30
0.0
 11
-106.1190389725617
 21
354.2288181481325
 31
0.0
  0
LINE
  5
164
330
1F
100
AcDbEntity
  8
通り芯
  6
Continuous
 62
     3
370
     9
100
AcDbLine
 10
-106.1190389725617
 20
350.228804951342
 30
0.0
 11
-106.1190389725617
 21
344.2287851561562
 31
0.0
  0
LINE
  5
165
330
1F
100
AcDbEntity
  8
通り芯
  6
Continuous
 62
     3
370
     9
100
AcDbLine
 10
-131.1190224765736
 20
368.2287653609703
 30
0.0
 11
-131.1190224765736
 21
364.2287521641798
 31
0.0
  0
LINE
  5
166
330
1F
100
AcDbEntity
  8
通り芯
  6
Continuous
 62
     3
370
     9
100
AcDbLine
 10
-131.1190224765736
 20
360.2287389673893
 30
0.0
 11
-131.1190224765736
 21
354.2288181481325
 31
0.0
  0
LINE
  5
167
330
1F
100
AcDbEntity
  8
通り芯
  6
Continuous
 62
     3
370
     9
100
AcDbLine
 10
-131.1190224765736
 20
350.228804951342
 30
0.0
 11
-131.1190224765736
 21
344.2287851561562
 31
0.0
  0
LINE
  5
168
330
1F
100
AcDbEntity
  8
通り芯
  6
Continuous
 62
     3
370
     9
100
AcDbLine
 10
-241.1189399966328
 20
368.2287653609703
 30
0.0
 11
-241.1189399966328
 21
364.2287521641798
 31
0.0
  0
LINE
  5
169
330
1F
100
AcDbEntity
  8
通り芯
  6
Continuous
 62
     3
370
     9
100
AcDbLine
 10
-266.1189729886091
 20
368.2287653609703
 30
0.0
 11
-266.1189729886091
 21
364.2287521641798
 31
0.0
  0
LINE
  5
16A
330
1F
100
AcDbEntity
  8
通り芯
  6
Continuous
 62
     3
370
     9
100
AcDbLine
 10
-241.1189399966328
 20
350.228804951342
 30
0.0
 11
-241.1189399966328
 21
344.2287851561562
 31
0.0
  0
LINE
  5
16B
330
1F
100
AcDbEntity
  8
通り芯
  6
Continuous
 62
     3
370
     9
100
AcDbLine
 10
-266.1189729886091
 20
350.228804951342
 30
0.0
 11
-266.1189729886091
 21
344.2287851561562
 31
0.0
  0
LINE
  5
16C
330
1F
100
AcDbEntity
  8
通り芯
  6
Continuous
 62
     3
370
     9
100
AcDbLine
 10
-241.1189399966328
 20
360.2287389673893
 30
0.0
 11
-241.1189399966328
 21
354.2288181481325
 31
0.0
  0
LINE
  5
16D
330
1F
100
AcDbEntity
  8
通り芯
  6
Continuous
 62
     3
370
     9
100
AcDbLine
 10
-266.1189729886091
 20
360.2287389673893
 30
0.0
 11
-266.1189729886091
 21
354.2288181481325
 31
0.0
  0
LINE
  5
16E
330
1F
100
AcDbEntity
  8
通り芯
  6
Continuous
 62
     3
370
     9
100
AcDbLine
 10
-376.1189399966327
 20
368.2287653609703
 30
0.0
 11
-376.1189399966327
 21
364.2287521641798
 31
0.0
  0
LINE
  5
16F
330
1F
100
AcDbEntity
  8
通り芯
  6
Continuous
 62
     3
370
     9
100
AcDbLine
 10
-376.1189399966327
 20
350.228804951342
 30
0.0
 11
-376.1189399966327
 21
344.2287851561562
 31
0.0
  0
LINE
  5
170
330
1F
100
AcDbEntity
  8
通り芯
  6
Continuous
 62
     3
370
     9
100
AcDbLine
 10
-376.1189399966327
 20
360.2287389673893
 30
0.0
 11
-376.1189399966327
 21
354.2288181481325
 31
0.0
  0
LINE
  5
171
330
1F
100
AcDbEntity
  8
通り芯
  6
Continuous
 62
     3
370
     9
100
AcDbLine
 10
-622.1190587677476
 20
33.22889732887575
 30
0.0
 11
-615.1190851613287
 21
33.22889732887575
 31
0.0
  0
LINE
  5
172
330
1F
100
AcDbEntity
  8
通り芯
  6
Continuous
 62
     3
370
     9
100
AcDbLine
 10
-619.6190752637358
 20
35.7289303208521
 30
0.0
 11
-617.619019177376
 21
35.7289303208521
 31
0.0
  0
LINE
  5
173
330
1F
100
AcDbEntity
  8
通り芯
  6
Continuous
 62
     3
370
     9
100
AcDbLine
 10
-615.1190851613287
 20
33.22889732887575
 30
0.0
 11
-617.619019177376
 21
35.7289303208521
 31
0.0
  0
LINE
  5
174
330
1F
100
AcDbEntity
  8
通り芯
  6
Continuous
 62
     3
370
     9
100
AcDbLine
 10
-622.1190587677476
 20
33.22889732887575
 30
0.0
 11
-619.6190752637358
 21
35.7289303208521
 31
0.0
  0
LINE
  5
175
330
1F
100
AcDbEntity
  8
通り芯
  6
Continuous
 62
     3
370
     9
100
AcDbLine
 10
-507.1189267998422
 20
33.22889732887575
 30
0.0
 11
-500.1189531934233
 21
33.22889732887575
 31
0.0
  0
LINE
  5
176
330
1F
100
AcDbEntity
  8
通り芯
  6
Continuous
 62
     3
370
     9
100
AcDbLine
 10
-504.6189927837949
 20
35.7289303208521
 30
0.0
 11
-502.6189366974351
 21
35.7289303208521
 31
0.0
  0
LINE
  5
177
330
1F
100
AcDbEntity
  8
通り芯
  6
Continuous
 62
     3
370
     9
100
AcDbLine
 10
-500.1189531934233
 20
33.22889732887575
 30
0.0
 11
-502.6189366974351
 21
35.7289303208521
 31
0.0
  0
LINE
  5
178
330
1F
100
AcDbEntity
  8
通り芯
  6
Continuous
 62
     3
370
     9
100
AcDbLine
 10
-507.1189267998422
 20
33.22889732887575
 30
0.0
 11
-504.6189927837949
 21
35.7289303208521
 31
0.0
  0
LINE
  5
179
330
1F
100
AcDbEntity
  8
通り芯
  6
Continuous
 62
     3
370
     9
100
AcDbLine
 10
-392.1189432958304
 20
33.22889732887575
 30
0.0
 11
-389.6189597918186
 21
35.7289303208521
 31
0.0
  0
LINE
  5
17A
330
1F
100
AcDbEntity
  8
通り芯
  6
Continuous
 62
     3
370
     9
100
AcDbLine
 10
-389.6189597918186
 20
35.7289303208521
 30
0.0
 11
-387.6189531934233
 21
35.7289303208521
 31
0.0
  0
LINE
  5
17B
330
1F
100
AcDbEntity
  8
通り芯
  6
Continuous
 62
     3
370
     9
100
AcDbLine
 10
-684.1191148541074
 20
6.228857738504075
 30
0.0
 11
-93.11874864316985
 21
6.228857738504075
 31
0.0
  0
LINE
  5
17C
330
1F
100
AcDbEntity
  8
通り芯
  6
Continuous
 62
     3
370
     9
100
AcDbLine
 10
-684.1191148541074
 20
2.22894351764262
 30
0.0
 11
-93.11874864316985
 21
2.22894351764262
 31
0.0
  0
LINE
  5
17D
330
1F
100
AcDbEntity
  8
通り芯
  6
Continuous
 62
     3
370
     9
100
AcDbLine
 10
-674.1013156828659
 20
10.09842066080137
 30
0.0
 11
-103.136597302376
 21
10.09842066080137
 31
0.0
  0
LINE
  5
17E
330
1F
100
AcDbEntity
  8
通り芯
  6
Continuous
 62
     3
370
     9
100
AcDbLine
 10
-673.5298781564723
 20
11.74854734999064
 30
0.0
 11
-103.7079853408051
 21
11.74854734999064
 31
0.0
  0
LINE
  5
17F
330
1F
100
AcDbEntity
  8
通り芯
  6
Continuous
 62
     3
370
     9
100
AcDbLine
 10
-684.1191148541074
 20
169.2288511401089
 30
0.0
 11
-678.6190719645382
 21
169.2288511401089
 31
0.0
  0
LINE
  5
180
330
1F
100
AcDbEntity
  8
通り芯
  6
Continuous
 62
     3
370
     9
100
AcDbLine
 10
-681.1089104358219
 20
167.2288940296781
 30
0.0
 11
-680.1089071366243
 21
167.7289204232592
 31
0.0
  0
LINE
  5
181
330
1F
100
AcDbEntity
  8
通り芯
  6
Continuous
 62
     3
370
     9
100
AcDbLine
 10
-680.1089071366243
 20
167.7289204232592
 30
0.0
 11
-677.1012760924942
 21
167.7289204232592
 31
0.0
  0
LINE
  5
182
330
1F
100
AcDbEntity
  8
通り芯
  6
Continuous
 62
     3
370
     9
100
AcDbLine
 10
-677.1012760924942
 20
167.7289204232592
 30
0.0
 11
-680.1089071366243
 21
167.2288940296781
 31
0.0
  0
LINE
  5
183
330
1F
100
AcDbEntity
  8
通り芯
  6
Continuous
 62
     3
370
     9
100
AcDbLine
 10
-680.1089071366243
 20
167.2288940296781
 30
0.0
 11
-681.1089104358219
 21
167.2288940296781
 31
0.0
  0
LINE
  5
184
330
1F
100
AcDbEntity
  8
通り芯
  6
Continuous
 62
     3
370
     9
100
AcDbLine
 10
-681.1089104358219
 20
167.2288940296781
 30
0.0
 11
-681.1089104358219
 21
169.2288511401089
 31
0.0
  0
LINE
  5
185
330
1F
100
AcDbEntity
  8
通り芯
  6
Continuous
 62
     3
370
     9
100
AcDbLine
 10
-678.1012793916918
 20
14.098433857592
 30
0.0
 11
-678.1012793916918
 21
167.5626903504129
 31
0.0
  0
LINE
  5
186
330
1F
100
AcDbEntity
  8
通り芯
  6
Continuous
 62
     3
370
     9
100
AcDbLine
 10
-684.1191148541074
 20
-3.771076277543216
 30
0.0
 11
-93.11874864316985
 21
-3.771076277543216
 31
0.0
  0
LINE
  5
187
330
1F
100
AcDbEntity
  8
通り芯
  6
Continuous
 62
     3
370
     9
100
AcDbLine
 10
-684.1191148541074
 20
-7.771089474333735
 30
0.0
 11
-93.11874864316985
 21
-7.771089474333735
 31
0.0
  0
LINE
  5
188
330
1F
100
AcDbEntity
  8
通り芯
  6
Continuous
 62
     3
370
     9
100
AcDbLine
 10
-684.1191148541074
 20
-13.77101029359051
 30
0.0
 11
-93.11874864316985
 21
-13.77101029359051
 31
0.0
  0
LINE
  5
189
330
1F
100
AcDbEntity
  8
通り芯
  6
Continuous
 62
     3
370
     9
100
AcDbLine
 10
-688.119128050898
 20
-17.77102349038103
 30
0.0
 11
-89.11873544637933
 21
-17.77102349038103
 31
0.0
  0
LINE
  5
18A
330
1F
100
AcDbEntity
  8
通り芯
  6
Continuous
 62
     3
370
     9
100
AcDbLine
 10
-392.1189432958304
 20
33.22889732887575
 30
0.0
 11
-385.1189202014469
 21
33.22889732887575
 31
0.0
  0
LINE
  5
18B
330
1F
100
AcDbEntity
  8
通り芯
  6
Continuous
 62
     3
370
     9
100
AcDbLine
 10
-671.1189729886091
 20
-21.77103668717155
 30
0.0
 11
-646.1189399966328
 21
-21.77103668717155
 31
0.0
  0
LINE
  5
18C
330
1F
100
AcDbEntity
  8
通り芯
  6
Continuous
 62
     3
370
     9
100
AcDbLine
 10
-536.118972988609
 20
-21.77103668717155
 30
0.0
 11
-511.1189399966327
 21
-21.77103668717155
 31
0.0
  0
LINE
  5
18D
330
1F
100
AcDbEntity
  8
通り芯
  6
Continuous
 62
     3
370
     9
100
AcDbLine
 10
-401.1189729886091
 20
-21.77103668717155
 30
0.0
 11
-376.1189399966327
 21
-21.77103668717155
 31
0.0
  0
LINE
  5
18E
330
1F
100
AcDbEntity
  8
通り芯
  6
Continuous
 62
     3
370
     9
100
AcDbLine
 10
-671.1189729886091
 20
-21.77103668717155
 30
0.0
 11
-671.1189729886091
 21
-17.77102349038103
 31
0.0
  0
LINE
  5
18F
330
1F
100
AcDbEntity
  8
通り芯
  6
Continuous
 62
     3
370
     9
100
AcDbLine
 10
-671.1189729886091
 20
-13.77101029359051
 30
0.0
 11
-671.1189729886091
 21
-7.771089474333735
 31
0.0
  0
LINE
  5
190
330
1F
100
AcDbEntity
  8
通り芯
  6
Continuous
 62
     3
370
     9
100
AcDbLine
 10
-671.1189729886091
 20
-3.771076277543216
 30
0.0
 11
-671.1189729886091
 21
2.22894351764262
 31
0.0
  0
LINE
  5
191
330
1F
100
AcDbEntity
  8
通り芯
  6
Continuous
 62
     3
370
     9
100
AcDbLine
 10
-646.1189399966328
 20
-21.77103668717155
 30
0.0
 11
-646.1189399966328
 21
-17.77102349038103
 31
0.0
  0
LINE
  5
192
330
1F
100
AcDbEntity
  8
通り芯
  6
Continuous
 62
     3
370
     9
100
AcDbLine
 10
-646.1189399966328
 20
-13.77101029359051
 30
0.0
 11
-646.1189399966328
 21
-7.771089474333735
 31
0.0
  0
LINE
  5
193
330
1F
100
AcDbEntity
  8
通り芯
  6
Continuous
 62
     3
370
     9
100
AcDbLine
 10
-646.1189399966328
 20
-3.771076277543216
 30
0.0
 11
-646.1189399966328
 21
2.22894351764262
 31
0.0
  0
LINE
  5
194
330
1F
100
AcDbEntity
  8
通り芯
  6
Continuous
 62
     3
370
     9
100
AcDbLine
 10
-536.118972988609
 20
-21.77103668717155
 30
0.0
 11
-536.118972988609
 21
-17.77102349038103
 31
0.0
  0
LINE
  5
195
330
1F
100
AcDbEntity
  8
通り芯
  6
Continuous
 62
     3
370
     9
100
AcDbLine
 10
-511.1189399966327
 20
-21.77103668717155
 30
0.0
 11
-511.1189399966327
 21
-17.77102349038103
 31
0.0
  0
LINE
  5
196
330
1F
100
AcDbEntity
  8
通り芯
  6
Continuous
 62
     3
370
     9
100
AcDbLine
 10
-536.118972988609
 20
-3.771076277543216
 30
0.0
 11
-536.118972988609
 21
2.22894351764262
 31
0.0
  0
LINE
  5
197
330
1F
100
AcDbEntity
  8
通り芯
  6
Continuous
 62
     3
370
     9
100
AcDbLine
 10
-511.1189399966327
 20
-3.771076277543216
 30
0.0
 11
-511.1189399966327
 21
2.22894351764262
 31
0.0
  0
LINE
  5
198
330
1F
100
AcDbEntity
  8
通り芯
  6
Continuous
 62
     3
370
     9
100
AcDbLine
 10
-536.118972988609
 20
-13.77101029359051
 30
0.0
 11
-536.118972988609
 21
-7.771089474333735
 31
0.0
  0
LINE
  5
199
330
1F
100
AcDbEntity
  8
通り芯
  6
Continuous
 62
     3
370
     9
100
AcDbLine
 10
-511.1189399966327
 20
-13.77101029359051
 30
0.0
 11
-511.1189399966327
 21
-7.771089474333735
 31
0.0
  0
LINE
  5
19A
330
1F
100
AcDbEntity
  8
通り芯
  6
Continuous
 62
     3
370
     9
100
AcDbLine
 10
-401.1189729886091
 20
-21.77103668717155
 30
0.0
 11
-401.1189729886091
 21
-17.77102349038103
 31
0.0
  0
LINE
  5
19B
330
1F
100
AcDbEntity
  8
通り芯
  6
Continuous
 62
     3
370
     9
100
AcDbLine
 10
-401.1189729886091
 20
-3.771076277543216
 30
0.0
 11
-401.1189729886091
 21
2.22894351764262
 31
0.0
  0
LINE
  5
19C
330
1F
100
AcDbEntity
  8
通り芯
  6
Continuous
 62
     3
370
     9
100
AcDbLine
 10
-401.1189729886091
 20
-13.77101029359051
 30
0.0
 11
-401.1189729886091
 21
-7.771089474333735
 31
0.0
  0
LINE
  5
19D
330
1F
100
AcDbEntity
  8
通り芯
  6
Continuous
 62
     3
370
     9
100
AcDbLine
 10
-155.1188542174942
 20
33.22889732887575
 30
0.0
 11
-162.1188278239131
 21
33.22889732887575
 31
0.0
  0
LINE
  5
19E
330
1F
100
AcDbEntity
  8
通り芯
  6
Continuous
 62
     3
370
     9
100
AcDbLine
 10
-157.618837721506
 20
35.7289303208521
 30
0.0
 11
-159.6188938078658
 21
35.7289303208521
 31
0.0
  0
LINE
  5
19F
330
1F
100
AcDbEntity
  8
通り芯
  6
Continuous
 62
     3
370
     9
100
AcDbLine
 10
-162.1188278239131
 20
33.22889732887575
 30
0.0
 11
-159.6188938078658
 21
35.7289303208521
 31
0.0
  0
LINE
  5
1A0
330
1F
100
AcDbEntity
  8
通り芯
  6
Continuous
 62
     3
370
     9
100
AcDbLine
 10
-155.1188542174942
 20
33.22889732887575
 30
0.0
 11
-157.618837721506
 21
35.7289303208521
 31
0.0
  0
LINE
  5
1A1
330
1F
100
AcDbEntity
  8
通り芯
  6
Continuous
 62
     3
370
     9
100
AcDbLine
 10
-270.1189366974351
 20
33.22889732887575
 30
0.0
 11
-277.1189597918185
 21
33.22889732887575
 31
0.0
  0
LINE
  5
1A2
330
1F
100
AcDbEntity
  8
通り芯
  6
Continuous
 62
     3
370
     9
100
AcDbLine
 10
-272.6189202014469
 20
35.7289303208521
 30
0.0
 11
-274.6189762878067
 21
35.7289303208521
 31
0.0
  0
LINE
  5
1A3
330
1F
100
AcDbEntity
  8
通り芯
  6
Continuous
 62
     3
370
     9
100
AcDbLine
 10
-277.1189597918185
 20
33.22889732887575
 30
0.0
 11
-274.6189762878067
 21
35.7289303208521
 31
0.0
  0
LINE
  5
1A4
330
1F
100
AcDbEntity
  8
通り芯
  6
Continuous
 62
     3
370
     9
100
AcDbLine
 10
-270.1189366974351
 20
33.22889732887575
 30
0.0
 11
-272.6189202014469
 21
35.7289303208521
 31
0.0
  0
LINE
  5
1A5
330
1F
100
AcDbEntity
  8
通り芯
  6
Continuous
 62
     3
370
     9
100
AcDbLine
 10
-385.1189202014469
 20
33.22889732887575
 30
0.0
 11
-387.6189531934233
 21
35.7289303208521
 31
0.0
  0
LINE
  5
1A6
330
1F
100
AcDbEntity
  8
通り芯
  6
Continuous
 62
     3
370
     9
100
AcDbLine
 10
-96.12900254941985
 20
167.2288940296781
 30
0.0
 11
-97.12905533658204
 21
167.7289204232592
 31
0.0
  0
LINE
  5
1A7
330
1F
100
AcDbEntity
  8
通り芯
  6
Continuous
 62
     3
370
     9
100
AcDbLine
 10
-97.12905533658204
 20
167.7289204232592
 30
0.0
 11
-100.1366368927476
 21
167.7289204232592
 31
0.0
  0
LINE
  5
1A8
330
1F
100
AcDbEntity
  8
通り芯
  6
Continuous
 62
     3
370
     9
100
AcDbLine
 10
-100.1366368927476
 20
167.7289204232592
 30
0.0
 11
-97.12905533658204
 21
167.2288940296781
 31
0.0
  0
LINE
  5
1A9
330
1F
100
AcDbEntity
  8
通り芯
  6
Continuous
 62
     3
370
     9
100
AcDbLine
 10
-97.12905533658204
 20
167.2288940296781
 30
0.0
 11
-96.12900254941985
 21
167.2288940296781
 31
0.0
  0
LINE
  5
1AA
330
1F
100
AcDbEntity
  8
通り芯
  6
Continuous
 62
     3
370
     9
100
AcDbLine
 10
-96.12900254941985
 20
167.2288940296781
 30
0.0
 11
-96.12900254941985
 21
169.2288511401089
 31
0.0
  0
LINE
  5
1AB
330
1F
100
AcDbEntity
  8
通り芯
  6
Continuous
 62
     3
370
     9
100
AcDbLine
 10
-99.13668308151443
 20
14.098433857592
 30
0.0
 11
-99.13668308151443
 21
167.5626903504129
 31
0.0
  0
LINE
  5
1AC
330
1F
100
AcDbEntity
  8
通り芯
  6
Continuous
 62
     3
370
     9
100
AcDbLine
 10
-106.1190389725617
 20
-21.77103668717155
 30
0.0
 11
-131.1190224765736
 21
-21.77103668717155
 31
0.0
  0
LINE
  5
1AD
330
1F
100
AcDbEntity
  8
通り芯
  6
Continuous
 62
     3
370
     9
100
AcDbLine
 10
-241.1189399966328
 20
-21.77103668717155
 30
0.0
 11
-266.1189729886091
 21
-21.77103668717155
 31
0.0
  0
LINE
  5
1AE
330
1F
100
AcDbEntity
  8
通り芯
  6
Continuous
 62
     3
370
     9
100
AcDbLine
 10
-106.1190389725617
 20
-21.77103668717155
 30
0.0
 11
-106.1190389725617
 21
-17.77102349038103
 31
0.0
  0
LINE
  5
1AF
330
1F
100
AcDbEntity
  8
通り芯
  6
Continuous
 62
     3
370
     9
100
AcDbLine
 10
-106.1190389725617
 20
-13.77101029359051
 30
0.0
 11
-106.1190389725617
 21
-7.771089474333735
 31
0.0
  0
LINE
  5
1B0
330
1F
100
AcDbEntity
  8
通り芯
  6
Continuous
 62
     3
370
     9
100
AcDbLine
 10
-106.1190389725617
 20
-3.771076277543216
 30
0.0
 11
-106.1190389725617
 21
2.22894351764262
 31
0.0
  0
LINE
  5
1B1
330
1F
100
AcDbEntity
  8
通り芯
  6
Continuous
 62
     3
370
     9
100
AcDbLine
 10
-131.1190224765736
 20
-21.77103668717155
 30
0.0
 11
-131.1190224765736
 21
-17.77102349038103
 31
0.0
  0
LINE
  5
1B2
330
1F
100
AcDbEntity
  8
通り芯
  6
Continuous
 62
     3
370
     9
100
AcDbLine
 10
-131.1190224765736
 20
-13.77101029359051
 30
0.0
 11
-131.1190224765736
 21
-7.771089474333735
 31
0.0
  0
LINE
  5
1B3
330
1F
100
AcDbEntity
  8
通り芯
  6
Continuous
 62
     3
370
     9
100
AcDbLine
 10
-131.1190224765736
 20
-3.771076277543216
 30
0.0
 11
-131.1190224765736
 21
2.22894351764262
 31
0.0
  0
LINE
  5
1B4
330
1F
100
AcDbEntity
  8
通り芯
  6
Continuous
 62
     3
370
     9
100
AcDbLine
 10
-241.1189399966328
 20
-21.77103668717155
 30
0.0
 11
-241.1189399966328
 21
-17.77102349038103
 31
0.0
  0
LINE
  5
1B5
330
1F
100
AcDbEntity
  8
通り芯
  6
Continuous
 62
     3
370
     9
100
AcDbLine
 10
-266.1189729886091
 20
-21.77103668717155
 30
0.0
 11
-266.1189729886091
 21
-17.77102349038103
 31
0.0
  0
LINE
  5
1B6
330
1F
100
AcDbEntity
  8
通り芯
  6
Continuous
 62
     3
370
     9
100
AcDbLine
 10
-241.1189399966328
 20
-3.771076277543216
 30
0.0
 11
-241.1189399966328
 21
2.22894351764262
 31
0.0
  0
LINE
  5
1B7
330
1F
100
AcDbEntity
  8
通り芯
  6
Continuous
 62
     3
370
     9
100
AcDbLine
 10
-266.1189729886091
 20
-3.771076277543216
 30
0.0
 11
-266.1189729886091
 21
2.22894351764262
 31
0.0
  0
LINE
  5
1B8
330
1F
100
AcDbEntity
  8
通り芯
  6
Continuous
 62
     3
370
     9
100
AcDbLine
 10
-241.1189399966328
 20
-13.77101029359051
 30
0.0
 11
-241.1189399966328
 21
-7.771089474333735
 31
0.0
  0
LINE
  5
1B9
330
1F
100
AcDbEntity
  8
通り芯
  6
Continuous
 62
     3
370
     9
100
AcDbLine
 10
-266.1189729886091
 20
-13.77101029359051
 30
0.0
 11
-266.1189729886091
 21
-7.771089474333735
 31
0.0
  0
LINE
  5
1BA
330
1F
100
AcDbEntity
  8
通り芯
  6
Continuous
 62
     3
370
     9
100
AcDbLine
 10
-376.1189399966327
 20
-21.77103668717155
 30
0.0
 11
-376.1189399966327
 21
-17.77102349038103
 31
0.0
  0
LINE
  5
1BB
330
1F
100
AcDbEntity
  8
通り芯
  6
Continuous
 62
     3
370
     9
100
AcDbLine
 10
-376.1189399966327
 20
-3.771076277543216
 30
0.0
 11
-376.1189399966327
 21
2.22894351764262
 31
0.0
  0
LINE
  5
1BC
330
1F
100
AcDbEntity
  8
通り芯
  6
Continuous
 62
     3
370
     9
100
AcDbLine
 10
-376.1189399966327
 20
-13.77101029359051
 30
0.0
 11
-376.1189399966327
 21
-7.771089474333735
 31
0.0
  0
LINE
  5
1BD
330
1F
100
AcDbEntity
  8
通り芯
  6
Continuous
 62
     3
370
     9
100
AcDbLine
 10
-93.11874864316985
 20
169.2288511401089
 30
0.0
 11
-98.61879153273912
 21
169.2288511401089
 31
0.0
  0
LINE
  5
1BE
330
1F
100
AcDbEntity
  8
通り芯
  6
JWW_PHANTOM2
 62
     3
370
     9
100
AcDbLine
 10
-88.11873214718173
 20
364.2287521641798
 30
0.0
 11
140.881281049609
 21
364.2287521641798
 31
0.0
  0
LINE
  5
1BF
330
1F
100
AcDbEntity
  8
通り芯
  6
JWW_PHANTOM2
 62
     3
370
     9
100
AcDbLine
 10
-88.11873214718173
 20
-17.77102349038103
 30
0.0
 11
-88.11873214718173
 21
364.2287521641798
 31
0.0
  0
LINE
  5
1C0
330
1F
100
AcDbEntity
  8
通り芯
  6
JWW_PHANTOM2
 62
     3
370
     9
100
AcDbLine
 10
-88.11873214718173
 20
-17.77102349038103
 30
0.0
 11
140.881281049609
 21
-17.77102349038103
 31
0.0
  0
LINE
  5
1C1
330
1F
100
AcDbEntity
  8
躯体
  6
JWW_DASHED3
 62
     2
370
     9
100
AcDbLine
 10
-688.119128050898
 20
323.2287653609703
 30
0.0
 11
-89.11873544637933
 21
323.2287653609703
 31
0.0
  0
LINE
  5
1C2
330
1F
100
AcDbEntity
  8
躯体
  6
Continuous
 62
     2
370
     9
100
AcDbLine
 10
-89.11873544637933
 20
323.2287653609703
 30
0.0
 11
140.8808851458927
 21
323.2287653609703
 31
0.0
  0
LINE
  5
1C3
330
1F
100
AcDbEntity
  8
躯体
  6
JWW_DASHED3
 62
     2
370
     9
100
AcDbLine
 10
-688.119128050898
 20
23.22881484893492
 30
0.0
 11
-89.11873544637933
 21
23.22881484893492
 31
0.0
  0
LINE
  5
1C4
330
1F
100
AcDbEntity
  8
躯体
  6
Continuous
 62
     2
370
     9
100
AcDbLine
 10
-89.11873544637933
 20
23.22881484893492
 30
0.0
 11
140.8808851458927
 21
23.22881484893492
 31
0.0
  0
ARC
  5
1C5
330
1F
100
AcDbEntity
  8
通り芯
  6
Continuous
 62
     3
370
     9
100
AcDbCircle
 10
-412.33225291893
 20
-320.2712791781978
 30
0.0
 40
1.500000019331236
100
AcDbArc
 50
188.7459106445313
 51
270.0
  0
ARC
  5
1C6
330
1F
100
AcDbEntity
  8
通り芯
  6
Continuous
 62
     3
370
     9
100
AcDbCircle
 10
-499.905956994099
 20
-320.2712791781978
 30
0.0
 40
1.500000019331236
100
AcDbArc
 50
270.0
 51
351.2540893554688
  0
ARC
  5
1C7
330
1F
100
AcDbEntity
  8
通り芯
  6
Continuous
 62
     3
370
     9
100
AcDbCircle
 10
-547.3322034309655
 20
-320.2712791781978
 30
0.0
 40
1.500000019331236
100
AcDbArc
 50
188.7460174560547
 51
270.0
  0
ARC
  5
1C8
330
1F
100
AcDbEntity
  8
通り芯
  6
Continuous
 62
     3
370
     9
100
AcDbCircle
 10
-633.4059273013203
 20
-320.2712791781978
 30
0.0
 40
1.500000019331236
100
AcDbArc
 50
270.0
 51
351.2539978027344
  0
ARC
  5
1C9
330
1F
100
AcDbEntity
  8
通り芯
  6
Continuous
 62
     3
370
     9
100
AcDbCircle
 10
-680.7224094328659
 20
-320.2712791781978
 30
0.0
 40
1.500000019331236
100
AcDbArc
 50
184.0851135253907
 51
270.0
  0
ARC
  5
1CA
330
1F
100
AcDbEntity
  8
通り芯
  6
Continuous
 62
     3
370
     9
100
AcDbCircle
 10
-418.1928651180432
 20
-311.7712758790001
 30
0.0
 40
3.000000038662472
100
AcDbArc
 50
8.746337890625
 51
90.0
  0
ARC
  5
1CB
330
1F
100
AcDbEntity
  8
通り芯
  6
Continuous
 62
     3
370
     9
100
AcDbCircle
 10
-494.0453447949858
 20
-311.7712758790001
 30
0.0
 40
3.000000038662472
100
AcDbArc
 50
90.0
 51
171.253662109375
  0
ARC
  5
1CC
330
1F
100
AcDbEntity
  8
通り芯
  6
Continuous
 62
     3
370
     9
100
AcDbCircle
 10
-553.1927661421142
 20
-311.7712758790001
 30
0.0
 40
3.000000038662472
100
AcDbArc
 50
8.746292114257812
 51
90.0
  0
ARC
  5
1CD
330
1F
100
AcDbEntity
  8
通り芯
  6
Continuous
 62
     3
370
     9
100
AcDbCircle
 10
-627.545315102207
 20
-311.7712758790001
 30
0.0
 40
3.000000038662472
100
AcDbArc
 50
90.0
 51
171.2537078857422
  0
ARC
  5
1CE
330
1F
100
AcDbEntity
  8
通り芯
  6
Continuous
 62
     3
370
     9
100
AcDbCircle
 10
-679.6864778714216
 20
-304.7712527846166
 30
0.0
 40
4.000000051549963
100
AcDbArc
 50
189.9193572998047
 51
208.6634521484375
  0
ARC
  5
1CF
330
1F
100
AcDbEntity
  8
通り芯
  6
Continuous
 62
     3
370
     9
100
AcDbCircle
 10
-397.7949158992932
 20
-294.2712923749883
 30
0.0
 40
1.500000019331236
100
AcDbArc
 50
187.1250152587891
 51
270.0
  0
ARC
  5
1D0
330
1F
100
AcDbEntity
  8
通り芯
  6
Continuous
 62
     3
370
     9
100
AcDbCircle
 10
-667.7949158992932
 20
-294.2712923749883
 30
0.0
 40
1.500000019331236
100
AcDbArc
 50
187.1250152587891
 51
270.0
  0
ARC
  5
1D1
330
1F
100
AcDbEntity
  8
通り芯
  6
Continuous
 62
     3
370
     9
100
AcDbCircle
 10
-649.4432940137358
 20
-294.2712923749883
 30
0.0
 40
1.500000019331236
100
AcDbArc
 50
270.0
 51
352.8749847412109
  0
ARC
  5
1D2
330
1F
100
AcDbEntity
  8
通り芯
  6
Continuous
 62
     3
370
     9
100
AcDbCircle
 10
-526.5652719487019
 20
-294.2712923749883
 30
0.0
 40
1.500000019331236
100
AcDbArc
 50
188.004867553711
 51
270.0
  0
ARC
  5
1D3
330
1F
100
AcDbEntity
  8
通り芯
  6
Continuous
 62
     3
370
     9
100
AcDbCircle
 10
-520.672937964327
 20
-294.2712923749883
 30
0.0
 40
1.500000019331236
100
AcDbArc
 50
270.0
 51
351.9951324462891
  0
ARC
  5
1D4
330
1F
100
AcDbEntity
  8
通り芯
  6
Continuous
 62
     3
370
     9
100
AcDbCircle
 10
-364.906055970028
 20
-320.2712791781978
 30
0.0
 40
1.500000019331236
100
AcDbArc
 50
270.0
 51
351.2540893554688
  0
ARC
  5
1D5
330
1F
100
AcDbEntity
  8
通り芯
  6
Continuous
 62
     3
370
     9
100
AcDbCircle
 10
-277.3323518948591
 20
-320.2712791781978
 30
0.0
 40
1.500000019331236
100
AcDbArc
 50
188.7459106445313
 51
270.0
  0
ARC
  5
1D6
330
1F
100
AcDbEntity
  8
通り芯
  6
Continuous
 62
     3
370
     9
100
AcDbCircle
 10
-229.9061054579926
 20
-320.2712791781978
 30
0.0
 40
1.500000019331236
100
AcDbArc
 50
270.0
 51
351.2539825439453
  0
ARC
  5
1D7
330
1F
100
AcDbEntity
  8
通り芯
  6
Continuous
 62
     3
370
     9
100
AcDbCircle
 10
-143.8323815876378
 20
-320.2712791781978
 30
0.0
 40
1.500000019331236
100
AcDbArc
 50
188.7460021972657
 51
270.0
  0
ARC
  5
1D8
330
1F
100
AcDbEntity
  8
通り芯
  6
Continuous
 62
     3
370
     9
100
AcDbCircle
 10
-96.51589945609214
 20
-320.2712791781978
 30
0.0
 40
1.500000019331236
100
AcDbArc
 50
270.0
 51
355.9148864746094
  0
ARC
  5
1D9
330
1F
100
AcDbEntity
  8
通り芯
  6
Continuous
 62
     3
370
     9
100
AcDbCircle
 10
-359.0454437709149
 20
-311.7712758790001
 30
0.0
 40
3.000000038662472
100
AcDbArc
 50
90.0
 51
171.253662109375
  0
ARC
  5
1DA
330
1F
100
AcDbEntity
  8
通り芯
  6
Continuous
 62
     3
370
     9
100
AcDbCircle
 10
-283.1929640939723
 20
-311.7712758790001
 30
0.0
 40
3.000000038662472
100
AcDbArc
 50
8.746337890625
 51
90.0
  0
ARC
  5
1DB
330
1F
100
AcDbEntity
  8
通り芯
  6
Continuous
 62
     3
370
     9
100
AcDbCircle
 10
-224.0455427468439
 20
-311.7712758790001
 30
0.0
 40
3.000000038662472
100
AcDbArc
 50
90.0
 51
171.2537078857422
  0
ARC
  5
1DC
330
1F
100
AcDbEntity
  8
通り芯
  6
Continuous
 62
     3
370
     9
100
AcDbCircle
 10
-149.692993786751
 20
-311.7712758790001
 30
0.0
 40
3.000000038662472
100
AcDbArc
 50
8.746292114257812
 51
90.0
  0
ARC
  5
1DD
330
1F
100
AcDbEntity
  8
通り芯
  6
Continuous
 62
     3
370
     9
100
AcDbCircle
 10
-97.55178152957194
 20
-304.7712527846166
 30
0.0
 40
4.000000051549963
100
AcDbArc
 50
331.3365478515626
 51
350.0806427001954
  0
ARC
  5
1DE
330
1F
100
AcDbEntity
  8
通り芯
  6
Continuous
 62
     3
370
     9
100
AcDbCircle
 10
-379.4433929896649
 20
-294.2712923749883
 30
0.0
 40
1.500000019331236
100
AcDbArc
 50
270.0
 51
352.8749847412109
  0
ARC
  5
1DF
330
1F
100
AcDbEntity
  8
通り芯
  6
Continuous
 62
     3
370
     9
100
AcDbCircle
 10
-109.4433929896649
 20
-294.2712923749883
 30
0.0
 40
1.500000019331236
100
AcDbArc
 50
270.0
 51
352.8749847412109
  0
ARC
  5
1E0
330
1F
100
AcDbEntity
  8
通り芯
  6
Continuous
 62
     3
370
     9
100
AcDbCircle
 10
-127.7950148752223
 20
-294.2712923749883
 30
0.0
 40
1.500000019331236
100
AcDbArc
 50
187.1250152587891
 51
270.0
  0
ARC
  5
1E1
330
1F
100
AcDbEntity
  8
通り芯
  6
Continuous
 62
     3
370
     9
100
AcDbCircle
 10
-250.673036940256
 20
-294.2712923749883
 30
0.0
 40
1.500000019331236
100
AcDbArc
 50
270.0
 51
351.9951324462891
  0
ARC
  5
1E2
330
1F
100
AcDbEntity
  8
通り芯
  6
Continuous
 62
     3
370
     9
100
AcDbCircle
 10
-256.565370924631
 20
-294.2712923749883
 30
0.0
 40
1.500000019331236
100
AcDbArc
 50
188.004867553711
 51
270.0
  0
ARC
  5
1E3
330
1F
100
AcDbEntity
  8
通り芯
  6
Continuous
 62
     3
370
     9
100
AcDbCircle
 10
-674.1012909388836
 20
332.3592948162069
 30
0.0
 40
4.000000051549963
100
AcDbArc
 50
90.0
 51
180.0
  0
ARC
  5
1E4
330
1F
100
AcDbEntity
  8
通り芯
  6
Continuous
 62
     3
370
     9
100
AcDbCircle
 10
-673.5298781564723
 20
331.7092209141798
 30
0.0
 40
3.000000038662472
100
AcDbArc
 50
90.0
 51
180.0
  0
ARC
  5
1E5
330
1F
100
AcDbEntity
  8
通り芯
  6
Continuous
 62
     3
370
     9
100
AcDbCircle
 10
-103.136597302376
 20
332.3592948162069
 30
0.0
 40
4.000000051549963
100
AcDbArc
 50
0.0
 51
90.0
  0
ARC
  5
1E6
330
1F
100
AcDbEntity
  8
通り芯
  6
Continuous
 62
     3
370
     9
100
AcDbCircle
 10
-103.7079853408051
 20
331.7092209141798
 30
0.0
 40
3.000000038662472
100
AcDbArc
 50
0.0
 51
90.0
  0
ARC
  5
1E7
330
1F
100
AcDbEntity
  8
通り芯
  6
Continuous
 62
     3
370
     9
100
AcDbCircle
 10
-674.1013156828659
 20
14.098433857592
 30
0.0
 40
4.000000051549963
100
AcDbArc
 50
180.0
 51
270.0
  0
ARC
  5
1E8
330
1F
100
AcDbEntity
  8
通り芯
  6
Continuous
 62
     3
370
     9
100
AcDbCircle
 10
-673.5298781564723
 20
14.74850775961897
 30
0.0
 40
3.000000038662472
100
AcDbArc
 50
180.0
 51
270.0
  0
ARC
  5
1E9
330
1F
100
AcDbEntity
  8
通り芯
  6
Continuous
 62
     3
370
     9
100
AcDbCircle
 10
-103.136597302376
 20
14.098433857592
 30
0.0
 40
4.000000051549963
100
AcDbArc
 50
270.0
 51
0.0
  0
ARC
  5
1EA
330
1F
100
AcDbEntity
  8
通り芯
  6
Continuous
 62
     3
370
     9
100
AcDbCircle
 10
-103.7079853408051
 20
14.74850775961897
 30
0.0
 40
3.000000038662472
100
AcDbArc
 50
270.0
 51
0.0
  0
TEXT
  5
1EB
330
1F
100
AcDbEntity
  8
0-E
  6
Continuous
 62
     7
370
     9
100
AcDbText
 10
586.7759706610955
 20
220.2850462678538
 30
0.0
 40
9.144
  1
樹脂系塗装
 41
1.133333333333333
  7
ＭＳ ゴシック
100
AcDbText
  0
TEXT
  5
1EC
330
1F
100
AcDbEntity
  8
0-E
  6
Continuous
 62
     7
370
     9
100
AcDbText
 10
162.0581576332237
 20
-131.473871463354
 30
0.0
 40
9.144
  1
ＳＵＳ３０４
 41
1.138888888888889
  7
ＭＳ ゴシック
100
AcDbText
  0
TEXT
  5
1ED
330
1F
100
AcDbEntity
  8
0-E
  6
Continuous
 62
     7
370
     9
100
AcDbText
 10
587.757382981619
 20
242.3627654665447
 30
0.0
 40
9.144
  1
蓋本体：ＦＣＤ５００
 41
1.15
  7
ＭＳ ゴシック
100
AcDbText
  0
TEXT
  5
1EE
330
1F
100
AcDbEntity
  8
0-E
  6
Continuous
 62
     7
370
     9
100
AcDbText
 10
163.6109019058165
 20
-110.9176597340465
 30
0.0
 40
9.144
  1
排水口グレーチング（Ｐ＝１０）
 41
1.155555555555555
  7
ＭＳ ゴシック
100
AcDbText
  0
LINE
  5
1EF
330
1F
100
AcDbEntity
  8
0-F
  6
Continuous
 62
     7
370
     9
100
AcDbLine
 10
396.8809379330548
 20
-21.77128412699415
 30
0.0
 11
299.6809339740177
 21
-21.77128412699415
 31
0.0
  0
LINE
  5
1F0
330
1F
100
AcDbEntity
  8
0-F
  6
Continuous
 62
     7
370
     9
100
AcDbLine
 10
396.8809379330548
 20
6.228857738504075
 30
0.0
 11
339.6809669659939
 21
6.228857738504075
 31
0.0
  0
LINE
  5
1F1
330
1F
100
AcDbEntity
  8
0-F
  6
Continuous
 62
     7
370
     9
100
AcDbLine
 10
340.8809511298454
 20
-21.77128412699415
 30
0.0
 11
339.314657052565
 21
-9.873932063016127
 31
0.0
  0
LINE
  5
1F2
330
1F
100
AcDbEntity
  8
0-F
  6
Continuous
 62
     7
370
     9
100
AcDbLine
 10
340.8809511298454
 20
-21.77128412699415
 30
0.0
 11
342.4472452071258
 21
-9.873932063016127
 31
0.0
  0
LINE
  5
1F3
330
1F
100
AcDbEntity
  8
0-F
  6
Continuous
 62
     7
370
     9
100
AcDbLine
 10
342.4472452071258
 20
18.12620980248221
 30
0.0
 11
339.314657052565
 21
-5.668494325473944
 31
0.0
  0
LINE
  5
1F4
330
1F
100
AcDbEntity
  8
0-F
  6
Continuous
 62
     7
370
     9
100
AcDbLine
 10
339.314657052565
 20
18.12620980248221
 30
0.0
 11
342.4472452071258
 21
-5.668494325473944
 31
0.0
  0
LINE
  5
1F5
330
1F
100
AcDbEntity
  8
0-F
  6
Continuous
 62
     7
370
     9
100
AcDbLine
 10
396.8809379330548
 20
368.2288643368994
 30
0.0
 11
299.6809339740177
 21
368.2288643368994
 31
0.0
  0
LINE
  5
1F6
330
1F
100
AcDbEntity
  8
0-F
  6
Continuous
 62
     7
370
     9
100
AcDbLine
 10
396.8809379330548
 20
-26.77125113501779
 30
0.0
 11
259.6809009820412
 21
-26.77125113501779
 31
0.0
  0
LINE
  5
1F7
330
1F
100
AcDbEntity
  8
0-F
  6
Continuous
 62
     7
370
     9
100
AcDbLine
 10
396.8809379330548
 20
-23.77124123742499
 30
0.0
 11
299.6809339740177
 21
-23.77124123742499
 31
0.0
  0
LINE
  5
1F8
330
1F
100
AcDbEntity
  8
0-F
  6
Continuous
 62
     7
370
     9
100
AcDbLine
 10
300.8809181378689
 20
-50.50073012572727
 30
0.0
 11
300.8809181378689
 21
396.9583103356325
 31
0.0
  0
LINE
  5
1F9
330
1F
100
AcDbEntity
  8
0-F
  6
Continuous
 62
     7
370
     9
100
AcDbLine
 10
300.8809181378689
 20
368.2288643368994
 30
0.0
 11
299.3146240605885
 21
356.3315617608858
 31
0.0
  0
LINE
  5
1FA
330
1F
100
AcDbEntity
  8
0-F
  6
Continuous
 62
     7
370
     9
100
AcDbLine
 10
300.8809181378689
 20
368.2288643368994
 30
0.0
 11
302.4472122151494
 21
356.3315617608858
 31
0.0
  0
LINE
  5
1FB
330
1F
100
AcDbEntity
  8
0-F
  6
Continuous
 62
     7
370
     9
100
AcDbLine
 10
396.8809379330548
 20
370.2288709352947
 30
0.0
 11
299.6809339740177
 21
370.2288709352947
 31
0.0
  0
LINE
  5
1FC
330
1F
100
AcDbEntity
  8
0-F
  6
Continuous
 62
     7
370
     9
100
AcDbLine
 10
396.8809379330548
 20
373.228831344923
 30
0.0
 11
259.6809009820412
 21
373.228831344923
 31
0.0
  0
LINE
  5
1FD
330
1F
100
AcDbEntity
  8
0-F
  6
Continuous
 62
     7
370
     9
100
AcDbLine
 10
300.8809181378689
 20
373.228831344923
 30
0.0
 11
299.3146240605885
 21
385.1261339209366
 31
0.0
  0
LINE
  5
1FE
330
1F
100
AcDbEntity
  8
0-F
  6
Continuous
 62
     7
370
     9
100
AcDbLine
 10
300.8809181378689
 20
373.228831344923
 30
0.0
 11
302.4472122151494
 21
385.1261339209366
 31
0.0
  0
LINE
  5
1FF
330
1F
100
AcDbEntity
  8
0-F
  6
Continuous
 62
     7
370
     9
100
AcDbLine
 10
260.8808851458927
 20
-26.77125113501779
 30
0.0
 11
260.8808851458927
 21
373.228831344923
 31
0.0
  0
LINE
  5
200
330
1F
100
AcDbEntity
  8
0-F
  6
Continuous
 62
     7
370
     9
100
AcDbLine
 10
260.8808851458927
 20
-26.77125113501779
 30
0.0
 11
259.3145910686123
 21
-14.87389907103977
 31
0.0
  0
LINE
  5
201
330
1F
100
AcDbEntity
  8
0-F
  6
Continuous
 62
     7
370
     9
100
AcDbLine
 10
260.8808851458927
 20
-26.77125113501779
 30
0.0
 11
262.4471792231731
 21
-14.87389907103977
 31
0.0
  0
LINE
  5
202
330
1F
100
AcDbEntity
  8
0-F
  6
Continuous
 62
     7
370
     9
100
AcDbLine
 10
260.8808851458927
 20
373.228831344923
 30
0.0
 11
259.3145910686123
 21
361.3315287689095
 31
0.0
  0
LINE
  5
203
330
1F
100
AcDbEntity
  8
0-F
  6
Continuous
 62
     7
370
     9
100
AcDbLine
 10
260.8808851458927
 20
373.228831344923
 30
0.0
 11
262.4471792231731
 21
361.3315287689095
 31
0.0
  0
LINE
  5
204
330
1F
100
AcDbEntity
  8
0-F
  6
Continuous
 62
     7
370
     9
100
AcDbLine
 10
300.8809181378689
 20
-21.77123463902967
 30
0.0
 11
299.3146240605885
 21
-9.873932063016127
 31
0.0
  0
LINE
  5
205
330
1F
100
AcDbEntity
  8
0-F
  6
Continuous
 62
     7
370
     9
100
AcDbLine
 10
300.8809181378689
 20
-21.77123463902967
 30
0.0
 11
302.4472122151494
 21
-9.873932063016127
 31
0.0
  0
LINE
  5
206
330
1F
100
AcDbEntity
  8
0-F
  6
Continuous
 62
     7
370
     9
100
AcDbLine
 10
300.8809181378689
 20
-26.77125113501779
 30
0.0
 11
299.3146240605885
 21
-38.66855371103134
 31
0.0
  0
LINE
  5
207
330
1F
100
AcDbEntity
  8
0-F
  6
Continuous
 62
     7
370
     9
100
AcDbLine
 10
300.8809181378689
 20
-26.77125113501779
 30
0.0
 11
302.4472122151494
 21
-38.66855371103134
 31
0.0
  0
LINE
  5
208
330
1F
100
AcDbEntity
  8
0-F
  6
Continuous
 62
     7
370
     9
100
AcDbLine
 10
400.8807531779873
 20
115.4748756069586
 30
0.0
 11
492.9130259292542
 21
115.4748756069586
 31
0.0
  0
LINE
  5
209
330
1F
100
AcDbEntity
  8
0-F
  6
Continuous
 62
     7
370
     9
100
AcDbLine
 10
400.8807531779873
 20
115.4748756069586
 30
0.0
 11
412.7780557540008
 21
117.041169684239
 31
0.0
  0
LINE
  5
20A
330
1F
100
AcDbEntity
  8
0-F
  6
Continuous
 62
     7
370
     9
100
AcDbLine
 10
400.8807531779873
 20
115.4748756069586
 30
0.0
 11
412.7780557540008
 21
113.9085815296781
 31
0.0
  0
LINE
  5
20B
330
1F
100
AcDbEntity
  8
0-F
  6
Continuous
 62
     7
370
     9
100
AcDbLine
 10
440.8808851458927
 20
115.4748756069586
 30
0.0
 11
428.9835825698792
 21
117.041169684239
 31
0.0
  0
LINE
  5
20C
330
1F
100
AcDbEntity
  8
0-F
  6
Continuous
 62
     7
370
     9
100
AcDbLine
 10
440.8808851458927
 20
115.4748756069586
 30
0.0
 11
428.9835825698792
 21
113.9085815296781
 31
0.0
  0
LINE
  5
20D
330
1F
100
AcDbEntity
  8
0-F
  6
Continuous
 62
     7
370
     9
100
AcDbLine
 10
465.880720186011
 20
115.4748756069586
 30
0.0
 11
477.7780227620244
 21
117.041169684239
 31
0.0
  0
LINE
  5
20E
330
1F
100
AcDbEntity
  8
0-F
  6
Continuous
 62
     7
370
     9
100
AcDbLine
 10
465.880720186011
 20
115.4748756069586
 30
0.0
 11
477.7780227620244
 21
113.9085815296781
 31
0.0
  0
LINE
  5
20F
330
1F
100
AcDbEntity
  8
0-E
  6
Continuous
 62
     7
370
     9
100
AcDbLine
 10
465.880720186011
 20
201.7360598869416
 30
0.0
 11
476.8632872257069
 21
206.5716278768065
 31
0.0
  0
LINE
  5
210
330
1F
100
AcDbEntity
  8
0-E
  6
Continuous
 62
     7
370
     9
100
AcDbLine
 10
465.880720186011
 20
201.7360598869416
 30
0.0
 11
477.7406098608421
 21
203.5643432484281
 31
0.0
  0
LINE
  5
211
330
1F
100
AcDbEntity
  8
0-E
  6
Continuous
 62
     7
370
     9
100
AcDbLine
 10
426.2825294659939
 20
373.228831344923
 30
0.0
 11
419.8382067252846
 21
383.3515944889265
 31
0.0
  0
LINE
  5
212
330
1F
100
AcDbEntity
  8
0-E
  6
Continuous
 62
     7
370
     9
100
AcDbLine
 10
426.2825294659939
 20
373.228831344923
 30
0.0
 11
422.6778261298454
 21
384.674605732592
 31
0.0
  0
LINE
  5
213
330
1F
100
AcDbEntity
  8
0-F
  6
Continuous
 62
     7
370
     9
100
AcDbLine
 10
451.1902179161629
 20
133.5968238491461
 30
0.0
 11
444.9926421665852
 21
115.4748756069586
 31
0.0
  0
LINE
  5
214
330
1F
100
AcDbEntity
  8
0-F
  6
Continuous
 62
     7
370
     9
100
AcDbLine
 10
340.8809511298454
 20
-21.77128412699415
 30
0.0
 11
340.8809511298454
 21
391.7776132811562
 31
0.0
  0
LINE
  5
215
330
1F
100
AcDbEntity
  8
躯体
  6
Continuous
 62
     2
370
     9
100
AcDbLine
 10
400.8809511298454
 20
370.2288709352947
 30
0.0
 11
400.8809511298454
 21
373.228831344923
 31
0.0
  0
LINE
  5
216
330
1F
100
AcDbEntity
  8
躯体
  6
Continuous
 62
     2
370
     9
100
AcDbLine
 10
400.8809511298454
 20
-23.77124123742499
 30
0.0
 11
400.8809511298454
 21
-26.77125113501779
 31
0.0
  0
LINE
  5
217
330
1F
100
AcDbEntity
  8
0-F
  6
Continuous
 62
     7
370
     9
100
AcDbLine
 10
553.881010515403
 20
373.228831344923
 30
0.0
 11
552.3147164381226
 21
361.3315287689095
 31
0.0
  0
LINE
  5
218
330
1F
100
AcDbEntity
  8
0-F
  6
Continuous
 62
     7
370
     9
100
AcDbLine
 10
553.8811094913319
 20
373.228831344923
 30
0.0
 11
555.4473045926834
 21
361.3315287689095
 31
0.0
  0
LINE
  5
219
330
1F
100
AcDbEntity
  8
0-E
  6
Continuous
 62
     7
370
     9
100
AcDbLine
 10
400.8810501057744
 20
-12.77110597032186
 30
0.0
 11
372.7987087311967
 21
-117.5757769743337
 31
0.0
  0
LINE
  5
21A
330
1F
100
AcDbEntity
  8
0-E
  6
Continuous
 62
     7
370
     9
100
AcDbLine
 10
400.8810501057744
 20
-12.77110597032186
 30
0.0
 11
399.3147560284939
 21
-24.66845803429999
 31
0.0
  0
LINE
  5
21B
330
1F
100
AcDbEntity
  8
0-E
  6
Continuous
 62
     7
370
     9
100
AcDbLine
 10
400.8810501057744
 20
-12.77110597032186
 30
0.0
 11
396.2888639254535
 21
-23.85764722348915
 31
0.0
  0
LINE
  5
21C
330
1F
100
AcDbEntity
  8
0-E
  6
Continuous
 62
     7
370
     9
100
AcDbLine
 10
579.3832473713994
 20
234.8480115602947
 30
0.0
 11
465.880720186011
 21
201.7360598869416
 31
0.0
  0
LINE
  5
21D
330
1F
100
AcDbEntity
  8
通り芯
  6
JWW_CENTER1
 62
     3
370
     9
100
AcDbLine
 10
481.7299336572948
 20
173.2288643368994
 30
0.0
 11
377.982770967261
 21
173.2288643368994
 31
0.0
  0
LINE
  5
21E
330
1F
100
AcDbEntity
  8
通り芯
  6
Continuous
 62
     3
370
     9
100
AcDbLine
 10
418.8808125635448
 20
178.7288577385041
 30
0.0
 11
432.8808587523117
 21
177.7288544393065
 31
0.0
  0
LINE
  5
21F
330
1F
100
AcDbEntity
  8
通り芯
  6
Continuous
 62
     3
370
     9
100
AcDbLine
 10
432.8808587523117
 20
168.7288742344923
 30
0.0
 11
432.8808587523117
 21
177.7288544393065
 31
0.0
  0
LINE
  5
220
330
1F
100
AcDbEntity
  8
通り芯
  6
JWW_CENTER1
 62
     3
370
     9
100
AcDbLine
 10
425.881281049609
 20
180.2288379433184
 30
0.0
 11
425.881281049609
 21
166.2288907304804
 31
0.0
  0
LINE
  5
221
330
1F
100
AcDbEntity
  8
通り芯
  6
Continuous
 62
     3
370
     9
100
AcDbLine
 10
428.4811807540008
 20
175.8288630172203
 30
0.0
 11
423.281183393359
 21
175.8288630172203
 31
0.0
  0
LINE
  5
222
330
1F
100
AcDbEntity
  8
通り芯
  6
Continuous
 62
     3
370
     9
100
AcDbLine
 10
423.281183393359
 20
175.8288630172203
 30
0.0
 11
423.281183393359
 21
170.6288656565785
 31
0.0
  0
LINE
  5
223
330
1F
100
AcDbEntity
  8
通り芯
  6
Continuous
 62
     3
370
     9
100
AcDbLine
 10
428.4811807540008
 20
175.8288630172203
 30
0.0
 11
428.4811807540008
 21
170.6288656565785
 31
0.0
  0
LINE
  5
224
330
1F
100
AcDbEntity
  8
通り芯
  6
Continuous
 62
     3
370
     9
100
AcDbLine
 10
418.8808125635448
 20
179.2288841320852
 30
0.0
 11
432.8808587523117
 21
177.7288544393065
 31
0.0
  0
LINE
  5
225
330
1F
100
AcDbEntity
  8
通り芯
  6
Continuous
 62
     3
370
     9
100
AcDbLine
 10
442.8812876480042
 20
310.3781266363081
 30
0.0
 11
442.8812876480042
 21
36.07960203749064
 31
0.0
  0
LINE
  5
226
330
1F
100
AcDbEntity
  8
通り芯
  6
Continuous
 62
     3
370
     9
100
AcDbLine
 10
447.8812546560279
 20
313.228831344923
 30
0.0
 11
465.8812150656562
 21
298.228831344923
 31
0.0
  0
LINE
  5
227
330
1F
100
AcDbEntity
  8
通り芯
  6
Continuous
 62
     3
370
     9
100
AcDbLine
 10
442.6620559651494
 20
311.0028627004974
 30
0.0
 11
441.1004137565346
 21
312.9549649492305
 31
0.0
  0
LINE
  5
228
330
1F
100
AcDbEntity
  8
通り芯
  6
Continuous
 62
     3
370
     9
100
AcDbLine
 10
460.8811490817035
 20
335.5157361696697
 30
0.0
 11
460.8811490817035
 21
338.8321226244839
 31
0.0
  0
LINE
  5
229
330
1F
100
AcDbEntity
  8
通り芯
  6
Continuous
 62
     3
370
     9
100
AcDbLine
 10
415.8811490817035
 20
344.2287851561562
 30
0.0
 11
415.8811490817035
 21
368.2287653609703
 31
0.0
  0
LINE
  5
22A
330
1F
100
AcDbEntity
  8
通り芯
  6
Continuous
 62
     3
370
     9
100
AcDbLine
 10
420.8812150656562
 20
340.2288709352947
 30
0.0
 11
420.8812150656562
 21
368.2287653609703
 31
0.0
  0
LINE
  5
22B
330
1F
100
AcDbEntity
  8
通り芯
  6
Continuous
 62
     3
370
     9
100
AcDbLine
 10
420.8812150656562
 20
344.2287851561562
 30
0.0
 11
400.8811490817035
 21
344.2287851561562
 31
0.0
  0
LINE
  5
22C
330
1F
100
AcDbEntity
  8
通り芯
  6
Continuous
 62
     3
370
     9
100
AcDbLine
 10
420.8812150656562
 20
340.2288709352947
 30
0.0
 11
400.8811490817035
 21
340.2288709352947
 31
0.0
  0
LINE
  5
22D
330
1F
100
AcDbEntity
  8
通り芯
  6
Continuous
 62
     3
370
     9
100
AcDbLine
 10
420.8812150656562
 20
368.2287653609703
 30
0.0
 11
415.8811490817035
 21
368.2287653609703
 31
0.0
  0
LINE
  5
22E
330
1F
100
AcDbEntity
  8
通り芯
  6
Continuous
 62
     3
370
     9
100
AcDbLine
 10
440.881281049609
 20
330.9979798879974
 30
0.0
 11
440.881281049609
 21
15.45974878580137
 31
0.0
  0
LINE
  5
22F
330
1F
100
AcDbEntity
  8
通り芯
  6
Continuous
 62
     3
370
     9
100
AcDbLine
 10
451.2729617928521
 20
332.7506456396866
 30
0.0
 11
459.609308393359
 21
334.033175728369
 31
0.0
  0
LINE
  5
230
330
1F
100
AcDbEntity
  8
通り芯
  6
Continuous
 62
     3
370
     9
100
AcDbLine
 10
447.8812546560279
 20
328.7971511295515
 30
0.0
 11
447.8812546560279
 21
17.66057754424742
 31
0.0
  0
LINE
  5
231
330
1F
100
AcDbEntity
  8
通り芯
  6
Continuous
 62
     3
370
     9
100
AcDbLine
 10
429.8812942463994
 20
177.2288775336899
 30
0.0
 11
429.8812942463994
 21
169.2288511401089
 31
0.0
  0
LINE
  5
232
330
1F
100
AcDbEntity
  8
通り芯
  6
Continuous
 62
     3
370
     9
100
AcDbLine
 10
418.881208467261
 20
177.2288775336899
 30
0.0
 11
418.881208467261
 21
340.2288709352947
 31
0.0
  0
LINE
  5
233
330
1F
100
AcDbEntity
  8
通り芯
  6
Continuous
 62
     3
370
     9
100
AcDbLine
 10
416.3813734271427
 20
177.2288775336899
 30
0.0
 11
416.3813734271427
 21
169.2288511401089
 31
0.0
  0
LINE
  5
234
330
1F
100
AcDbEntity
  8
通り芯
  6
Continuous
 62
     3
370
     9
100
AcDbLine
 10
401.8813008447948
 20
177.2288775336899
 30
0.0
 11
401.8813008447948
 21
169.2288511401089
 31
0.0
  0
LINE
  5
235
330
1F
100
AcDbEntity
  8
通り芯
  6
Continuous
 62
     3
370
     9
100
AcDbLine
 10
429.8812942463994
 20
177.2288775336899
 30
0.0
 11
401.8813008447948
 21
177.2288775336899
 31
0.0
  0
LINE
  5
236
330
1F
100
AcDbEntity
  8
通り芯
  6
Continuous
 62
     3
370
     9
100
AcDbLine
 10
415.8811490817035
 20
350.228804951342
 30
0.0
 11
400.8811490817035
 21
350.228804951342
 31
0.0
  0
LINE
  5
237
330
1F
100
AcDbEntity
  8
通り芯
  6
Continuous
 62
     3
370
     9
100
AcDbLine
 10
415.8811490817035
 20
354.2288181481325
 30
0.0
 11
400.8811490817035
 21
354.2288181481325
 31
0.0
  0
LINE
  5
238
330
1F
100
AcDbEntity
  8
通り芯
  6
Continuous
 62
     3
370
     9
100
AcDbLine
 10
415.8811490817035
 20
360.2287389673893
 30
0.0
 11
400.8811490817035
 21
360.2287389673893
 31
0.0
  0
LINE
  5
239
330
1F
100
AcDbEntity
  8
通り芯
  6
Continuous
 62
     3
370
     9
100
AcDbLine
 10
415.8811490817035
 20
364.2287521641798
 30
0.0
 11
400.8811490817035
 21
364.2287521641798
 31
0.0
  0
LINE
  5
23A
330
1F
100
AcDbEntity
  8
通り芯
  6
Continuous
 62
     3
370
     9
100
AcDbLine
 10
400.8811490817035
 20
-17.77102349038103
 30
0.0
 11
400.8811490817035
 21
364.2287521641798
 31
0.0
  0
LINE
  5
23B
330
1F
100
AcDbEntity
  8
通り芯
  6
Continuous
 62
     3
370
     9
100
AcDbLine
 10
435.6816795926833
 20
347.2288445417136
 30
0.0
 11
435.6816795926833
 21
361.2289897064095
 31
0.0
  0
LINE
  5
23C
330
1F
100
AcDbEntity
  8
通り芯
  6
Continuous
 62
     3
370
     9
100
AcDbLine
 10
435.6816795926833
 20
347.2288445417136
 30
0.0
 11
437.281724461771
 21
348.7038828124062
 31
0.0
  0
LINE
  5
23D
330
1F
100
AcDbEntity
  8
通り芯
  6
Continuous
 62
     3
370
     9
100
AcDbLine
 10
435.6816795926833
 20
361.2289897064095
 30
0.0
 11
437.281724461771
 21
359.7538524597879
 31
0.0
  0
LINE
  5
23E
330
1F
100
AcDbEntity
  8
通り芯
  6
Continuous
 62
     3
370
     9
100
AcDbLine
 10
435.6816795926833
 20
351.4663999682339
 30
0.0
 11
440.8817759292542
 21
351.4663999682339
 31
0.0
  0
LINE
  5
23F
330
1F
100
AcDbEntity
  8
通り芯
  6
Continuous
 62
     3
370
     9
100
AcDbLine
 10
435.6816795926833
 20
356.9914342798893
 30
0.0
 11
440.8817759292542
 21
356.9914342798893
 31
0.0
  0
LINE
  5
240
330
1F
100
AcDbEntity
  8
通り芯
  6
Continuous
 62
     3
370
     9
100
AcDbLine
 10
434.8817561340683
 20
347.2288445417136
 30
0.0
 11
435.6816795926833
 21
347.2288445417136
 31
0.0
  0
LINE
  5
241
330
1F
100
AcDbEntity
  8
通り芯
  6
Continuous
 62
     3
370
     9
100
AcDbLine
 10
437.281724461771
 20
348.7038828124062
 30
0.0
 11
440.8817759292542
 21
348.7038828124062
 31
0.0
  0
LINE
  5
242
330
1F
100
AcDbEntity
  8
通り芯
  6
Continuous
 62
     3
370
     9
100
AcDbLine
 10
440.8817759292542
 20
348.7038828124062
 30
0.0
 11
440.8817759292542
 21
359.7538524597879
 31
0.0
  0
LINE
  5
243
330
1F
100
AcDbEntity
  8
通り芯
  6
Continuous
 62
     3
370
     9
100
AcDbLine
 10
444.8817891260448
 20
351.2288577385042
 30
0.0
 11
444.8817891260448
 21
357.2287785577608
 31
0.0
  0
LINE
  5
244
330
1F
100
AcDbEntity
  8
通り芯
  6
Continuous
 62
     3
370
     9
100
AcDbLine
 10
444.8817891260448
 20
351.2288577385042
 30
0.0
 11
445.8817429372779
 21
352.2289105256663
 31
0.0
  0
LINE
  5
245
330
1F
100
AcDbEntity
  8
通り芯
  6
Continuous
 62
     3
370
     9
100
AcDbLine
 10
445.8817429372779
 20
356.2288247465278
 30
0.0
 11
444.8817891260448
 21
357.2287785577608
 31
0.0
  0
LINE
  5
246
330
1F
100
AcDbEntity
  8
通り芯
  6
Continuous
 62
     3
370
     9
100
AcDbLine
 10
437.281724461771
 20
359.7538524597879
 30
0.0
 11
440.8817759292542
 21
359.7538524597879
 31
0.0
  0
LINE
  5
247
330
1F
100
AcDbEntity
  8
通り芯
  6
Continuous
 62
     3
370
     9
100
AcDbLine
 10
445.8817429372779
 20
352.2289105256663
 30
0.0
 11
445.8817429372779
 21
356.2288247465278
 31
0.0
  0
LINE
  5
248
330
1F
100
AcDbEntity
  8
通り芯
  6
Continuous
 62
     3
370
     9
100
AcDbLine
 10
440.8817759292542
 20
357.2287785577608
 30
0.0
 11
444.8817891260448
 21
357.2287785577608
 31
0.0
  0
LINE
  5
249
330
1F
100
AcDbEntity
  8
通り芯
  6
Continuous
 62
     3
370
     9
100
AcDbLine
 10
445.8817429372779
 20
356.2288247465278
 30
0.0
 11
440.8817759292542
 21
356.2288247465278
 31
0.0
  0
LINE
  5
24A
330
1F
100
AcDbEntity
  8
通り芯
  6
Continuous
 62
     3
370
     9
100
AcDbLine
 10
440.8817759292542
 20
352.2289105256663
 30
0.0
 11
445.8817429372779
 21
352.2289105256663
 31
0.0
  0
LINE
  5
24B
330
1F
100
AcDbEntity
  8
通り芯
  6
Continuous
 62
     3
370
     9
100
AcDbLine
 10
440.8817759292542
 20
351.2288577385042
 30
0.0
 11
444.8817891260448
 21
351.2288577385042
 31
0.0
  0
LINE
  5
24C
330
1F
100
AcDbEntity
  8
通り芯
  6
Continuous
 62
     3
370
     9
100
AcDbLine
 10
420.8812150656562
 20
349.728976509619
 30
0.0
 11
434.8817561340683
 21
349.728976509619
 31
0.0
  0
LINE
  5
24D
330
1F
100
AcDbEntity
  8
通り芯
  6
Continuous
 62
     3
370
     9
100
AcDbLine
 10
420.8812150656562
 20
358.7289567144331
 30
0.0
 11
434.8817561340683
 21
358.7289567144331
 31
0.0
  0
LINE
  5
24E
330
1F
100
AcDbEntity
  8
通り芯
  6
Continuous
 62
     3
370
     9
100
AcDbLine
 10
420.8812150656562
 20
357.2287785577608
 30
0.0
 11
434.8817561340683
 21
357.2287785577608
 31
0.0
  0
LINE
  5
24F
330
1F
100
AcDbEntity
  8
通り芯
  6
Continuous
 62
     3
370
     9
100
AcDbLine
 10
434.8817561340683
 20
356.2288247465278
 30
0.0
 11
420.8812150656562
 21
356.2288247465278
 31
0.0
  0
LINE
  5
250
330
1F
100
AcDbEntity
  8
通り芯
  6
Continuous
 62
     3
370
     9
100
AcDbLine
 10
434.8817561340683
 20
352.2289105256663
 30
0.0
 11
420.8812150656562
 21
352.2289105256663
 31
0.0
  0
LINE
  5
251
330
1F
100
AcDbEntity
  8
通り芯
  6
Continuous
 62
     3
370
     9
100
AcDbLine
 10
420.8812150656562
 20
351.2288577385042
 30
0.0
 11
434.8817561340683
 21
351.2288577385042
 31
0.0
  0
LINE
  5
252
330
1F
100
AcDbEntity
  8
通り芯
  6
Continuous
 62
     3
370
     9
100
AcDbLine
 10
434.8817561340683
 20
361.2289897064095
 30
0.0
 11
435.6816795926833
 21
361.2289897064095
 31
0.0
  0
LINE
  5
253
330
1F
100
AcDbEntity
  8
通り芯
  6
Continuous
 62
     3
370
     9
100
AcDbLine
 10
459.4881618561967
 20
340.328341743994
 30
0.0
 11
438.5967186551833
 21
341.820601826342
 31
0.0
  0
LINE
  5
254
330
1F
100
AcDbEntity
  8
通り芯
  6
Continuous
 62
     3
370
     9
100
AcDbLine
 10
433.5677516999467
 20
364.3930522064095
 30
0.0
 11
420.8812150656562
 21
365.9788445417136
 31
0.0
  0
LINE
  5
255
330
1F
100
AcDbEntity
  8
通り芯
  6
Continuous
 62
     3
370
     9
100
AcDbLine
 10
434.8817561340683
 20
362.9046521852947
 30
0.0
 11
434.8817561340683
 21
345.8103215265108
 31
0.0
  0
LINE
  5
256
330
1F
100
AcDbEntity
  8
通り芯
  6
JWW_CENTER1
 62
     3
370
     9
100
AcDbLine
 10
416.8813008447948
 20
354.2289171240616
 30
0.0
 11
450.8819078971596
 21
354.2289171240616
 31
0.0
  0
LINE
  5
257
330
1F
100
AcDbEntity
  8
通り芯
  6
Continuous
 62
     3
370
     9
100
AcDbLine
 10
418.8808125635448
 20
167.7288709352947
 30
0.0
 11
432.8808587523117
 21
168.7288742344923
 31
0.0
  0
LINE
  5
258
330
1F
100
AcDbEntity
  8
通り芯
  6
Continuous
 62
     3
370
     9
100
AcDbLine
 10
428.4811807540008
 20
170.6288656565785
 30
0.0
 11
423.281183393359
 21
170.6288656565785
 31
0.0
  0
LINE
  5
259
330
1F
100
AcDbEntity
  8
通り芯
  6
Continuous
 62
     3
370
     9
100
AcDbLine
 10
418.8808125635448
 20
167.2288445417136
 30
0.0
 11
432.8808587523117
 21
168.7288742344923
 31
0.0
  0
LINE
  5
25A
330
1F
100
AcDbEntity
  8
通り芯
  6
Continuous
 62
     3
370
     9
100
AcDbLine
 10
447.8812546560279
 20
33.22889732887575
 30
0.0
 11
465.8812150656562
 21
48.22889732887575
 31
0.0
  0
LINE
  5
25B
330
1F
100
AcDbEntity
  8
通り芯
  6
Continuous
 62
     3
370
     9
100
AcDbLine
 10
442.6620559651494
 20
35.45486597330137
 30
0.0
 11
441.1004137565346
 21
33.50276372456835
 31
0.0
  0
LINE
  5
25C
330
1F
100
AcDbEntity
  8
通り芯
  6
Continuous
 62
     3
370
     9
100
AcDbLine
 10
460.8811490817035
 20
10.94199250412908
 30
0.0
 11
460.8811490817035
 21
7.625606049314911
 31
0.0
  0
LINE
  5
25D
330
1F
100
AcDbEntity
  8
通り芯
  6
Continuous
 62
     3
370
     9
100
AcDbLine
 10
415.8811490817035
 20
2.22894351764262
 30
0.0
 11
415.8811490817035
 21
-21.77103668717155
 31
0.0
  0
LINE
  5
25E
330
1F
100
AcDbEntity
  8
通り芯
  6
Continuous
 62
     3
370
     9
100
AcDbLine
 10
420.8812150656562
 20
6.228857738504075
 30
0.0
 11
420.8812150656562
 21
-21.77103668717155
 31
0.0
  0
LINE
  5
25F
330
1F
100
AcDbEntity
  8
通り芯
  6
Continuous
 62
     3
370
     9
100
AcDbLine
 10
420.8812150656562
 20
2.22894351764262
 30
0.0
 11
400.8811490817035
 21
2.22894351764262
 31
0.0
  0
LINE
  5
260
330
1F
100
AcDbEntity
  8
通り芯
  6
Continuous
 62
     3
370
     9
100
AcDbLine
 10
420.8812150656562
 20
6.228857738504075
 30
0.0
 11
400.8811490817035
 21
6.228857738504075
 31
0.0
  0
LINE
  5
261
330
1F
100
AcDbEntity
  8
通り芯
  6
Continuous
 62
     3
370
     9
100
AcDbLine
 10
420.8812150656562
 20
-21.77103668717155
 30
0.0
 11
415.8811490817035
 21
-21.77103668717155
 31
0.0
  0
LINE
  5
262
330
1F
100
AcDbEntity
  8
通り芯
  6
Continuous
 62
     3
370
     9
100
AcDbLine
 10
437.1803731104198
 20
11.47091986899397
 30
0.0
 11
418.881208467261
 21
10.09842066080137
 31
0.0
  0
LINE
  5
263
330
1F
100
AcDbEntity
  8
通り芯
  6
Continuous
 62
     3
370
     9
100
AcDbLine
 10
451.2729617928521
 20
13.7070830341122
 30
0.0
 11
459.609308393359
 21
12.42455294542981
 31
0.0
  0
LINE
  5
264
330
1F
100
AcDbEntity
  8
通り芯
  6
Continuous
 62
     3
370
     9
100
AcDbLine
 10
418.881208467261
 20
169.2288511401089
 30
0.0
 11
418.881208467261
 21
6.228857738504075
 31
0.0
  0
LINE
  5
265
330
1F
100
AcDbEntity
  8
通り芯
  6
Continuous
 62
     3
370
     9
100
AcDbLine
 10
429.8812942463994
 20
169.2288511401089
 30
0.0
 11
401.8813008447948
 21
169.2288511401089
 31
0.0
  0
LINE
  5
266
330
1F
100
AcDbEntity
  8
通り芯
  6
Continuous
 62
     3
370
     9
100
AcDbLine
 10
415.8811490817035
 20
-3.771076277543216
 30
0.0
 11
400.8811490817035
 21
-3.771076277543216
 31
0.0
  0
LINE
  5
267
330
1F
100
AcDbEntity
  8
通り芯
  6
Continuous
 62
     3
370
     9
100
AcDbLine
 10
415.8811490817035
 20
-7.771089474333735
 30
0.0
 11
400.8811490817035
 21
-7.771089474333735
 31
0.0
  0
LINE
  5
268
330
1F
100
AcDbEntity
  8
通り芯
  6
Continuous
 62
     3
370
     9
100
AcDbLine
 10
415.8811490817035
 20
-13.77101029359051
 30
0.0
 11
400.8811490817035
 21
-13.77101029359051
 31
0.0
  0
LINE
  5
269
330
1F
100
AcDbEntity
  8
通り芯
  6
Continuous
 62
     3
370
     9
100
AcDbLine
 10
415.8811490817035
 20
-17.77102349038103
 30
0.0
 11
400.8811490817035
 21
-17.77102349038103
 31
0.0
  0
LINE
  5
26A
330
1F
100
AcDbEntity
  8
通り芯
  6
Continuous
 62
     3
370
     9
100
AcDbLine
 10
435.6816795926833
 20
-0.7711158679147729
 30
0.0
 11
435.6816795926833
 21
-14.77126103261071
 31
0.0
  0
LINE
  5
26B
330
1F
100
AcDbEntity
  8
通り芯
  6
Continuous
 62
     3
370
     9
100
AcDbLine
 10
435.6816795926833
 20
-0.7711158679147729
 30
0.0
 11
437.281724461771
 21
-2.24615413860738
 31
0.0
  0
LINE
  5
26C
330
1F
100
AcDbEntity
  8
通り芯
  6
Continuous
 62
     3
370
     9
100
AcDbLine
 10
435.6816795926833
 20
-14.77126103261071
 30
0.0
 11
437.281724461771
 21
-13.29612378598915
 31
0.0
  0
LINE
  5
26D
330
1F
100
AcDbEntity
  8
通り芯
  6
Continuous
 62
     3
370
     9
100
AcDbLine
 10
435.6816795926833
 20
-5.008671294435089
 30
0.0
 11
440.8817759292542
 21
-5.008671294435089
 31
0.0
  0
LINE
  5
26E
330
1F
100
AcDbEntity
  8
通り芯
  6
Continuous
 62
     3
370
     9
100
AcDbLine
 10
435.6816795926833
 20
-10.53370560609051
 30
0.0
 11
440.8817759292542
 21
-10.53370560609051
 31
0.0
  0
LINE
  5
26F
330
1F
100
AcDbEntity
  8
通り芯
  6
Continuous
 62
     3
370
     9
100
AcDbLine
 10
434.8817561340683
 20
-0.7711158679147729
 30
0.0
 11
435.6816795926833
 21
-0.7711158679147729
 31
0.0
  0
LINE
  5
270
330
1F
100
AcDbEntity
  8
通り芯
  6
Continuous
 62
     3
370
     9
100
AcDbLine
 10
437.281724461771
 20
-2.24615413860738
 30
0.0
 11
440.8817759292542
 21
-2.24615413860738
 31
0.0
  0
LINE
  5
271
330
1F
100
AcDbEntity
  8
通り芯
  6
Continuous
 62
     3
370
     9
100
AcDbLine
 10
440.8817759292542
 20
-2.24615413860738
 30
0.0
 11
440.8817759292542
 21
-13.29612378598915
 31
0.0
  0
LINE
  5
272
330
1F
100
AcDbEntity
  8
通り芯
  6
Continuous
 62
     3
370
     9
100
AcDbLine
 10
444.8817891260448
 20
-4.771129064705292
 30
0.0
 11
444.8817891260448
 21
-10.77104988396206
 31
0.0
  0
LINE
  5
273
330
1F
100
AcDbEntity
  8
通り芯
  6
Continuous
 62
     3
370
     9
100
AcDbLine
 10
444.8817891260448
 20
-4.771129064705292
 30
0.0
 11
445.8817429372779
 21
-5.771181851867482
 31
0.0
  0
LINE
  5
274
330
1F
100
AcDbEntity
  8
通り芯
  6
Continuous
 62
     3
370
     9
100
AcDbLine
 10
445.8817429372779
 20
-9.771096072728938
 30
0.0
 11
444.8817891260448
 21
-10.77104988396206
 31
0.0
  0
LINE
  5
275
330
1F
100
AcDbEntity
  8
通り芯
  6
Continuous
 62
     3
370
     9
100
AcDbLine
 10
437.281724461771
 20
-13.29612378598915
 30
0.0
 11
440.8817759292542
 21
-13.29612378598915
 31
0.0
  0
LINE
  5
276
330
1F
100
AcDbEntity
  8
通り芯
  6
Continuous
 62
     3
370
     9
100
AcDbLine
 10
445.8817429372779
 20
-5.771181851867482
 30
0.0
 11
445.8817429372779
 21
-9.771096072728938
 31
0.0
  0
LINE
  5
277
330
1F
100
AcDbEntity
  8
通り芯
  6
Continuous
 62
     3
370
     9
100
AcDbLine
 10
440.8817759292542
 20
-10.77104988396206
 30
0.0
 11
444.8817891260448
 21
-10.77104988396206
 31
0.0
  0
LINE
  5
278
330
1F
100
AcDbEntity
  8
通り芯
  6
Continuous
 62
     3
370
     9
100
AcDbLine
 10
445.8817429372779
 20
-9.771096072728938
 30
0.0
 11
440.8817759292542
 21
-9.771096072728938
 31
0.0
  0
LINE
  5
279
330
1F
100
AcDbEntity
  8
通り芯
  6
Continuous
 62
     3
370
     9
100
AcDbLine
 10
440.8817759292542
 20
-5.771181851867482
 30
0.0
 11
445.8817429372779
 21
-5.771181851867482
 31
0.0
  0
LINE
  5
27A
330
1F
100
AcDbEntity
  8
通り芯
  6
Continuous
 62
     3
370
     9
100
AcDbLine
 10
440.8817759292542
 20
-4.771129064705292
 30
0.0
 11
444.8817891260448
 21
-4.771129064705292
 31
0.0
  0
LINE
  5
27B
330
1F
100
AcDbEntity
  8
通り芯
  6
Continuous
 62
     3
370
     9
100
AcDbLine
 10
420.8812150656562
 20
-3.271247835820191
 30
0.0
 11
434.8817561340683
 21
-3.271247835820191
 31
0.0
  0
LINE
  5
27C
330
1F
100
AcDbEntity
  8
通り芯
  6
Continuous
 62
     3
370
     9
100
AcDbLine
 10
420.8812150656562
 20
-12.27122804063436
 30
0.0
 11
434.8817561340683
 21
-12.27122804063436
 31
0.0
  0
LINE
  5
27D
330
1F
100
AcDbEntity
  8
通り芯
  6
Continuous
 62
     3
370
     9
100
AcDbLine
 10
420.8812150656562
 20
-10.77104988396206
 30
0.0
 11
434.8817561340683
 21
-10.77104988396206
 31
0.0
  0
LINE
  5
27E
330
1F
100
AcDbEntity
  8
通り芯
  6
Continuous
 62
     3
370
     9
100
AcDbLine
 10
434.8817561340683
 20
-9.771096072728938
 30
0.0
 11
420.8812150656562
 21
-9.771096072728938
 31
0.0
  0
LINE
  5
27F
330
1F
100
AcDbEntity
  8
通り芯
  6
Continuous
 62
     3
370
     9
100
AcDbLine
 10
434.8817561340683
 20
-5.771181851867482
 30
0.0
 11
420.8812150656562
 21
-5.771181851867482
 31
0.0
  0
LINE
  5
280
330
1F
100
AcDbEntity
  8
通り芯
  6
Continuous
 62
     3
370
     9
100
AcDbLine
 10
420.8812150656562
 20
-4.771129064705292
 30
0.0
 11
434.8817561340683
 21
-4.771129064705292
 31
0.0
  0
LINE
  5
281
330
1F
100
AcDbEntity
  8
通り芯
  6
Continuous
 62
     3
370
     9
100
AcDbLine
 10
434.8817561340683
 20
-14.77126103261071
 30
0.0
 11
435.6816795926833
 21
-14.77126103261071
 31
0.0
  0
LINE
  5
282
330
1F
100
AcDbEntity
  8
通り芯
  6
Continuous
 62
     3
370
     9
100
AcDbLine
 10
459.4881618561967
 20
6.129386929804809
 30
0.0
 11
438.5967186551833
 21
4.637126847456784
 31
0.0
  0
LINE
  5
283
330
1F
100
AcDbEntity
  8
通り芯
  6
Continuous
 62
     3
370
     9
100
AcDbLine
 10
433.5677516999467
 20
-17.93532353261071
 30
0.0
 11
420.8812150656562
 21
-19.52111586791477
 31
0.0
  0
LINE
  5
284
330
1F
100
AcDbEntity
  8
通り芯
  6
Continuous
 62
     3
370
     9
100
AcDbLine
 10
434.8817561340683
 20
-16.44692351149592
 30
0.0
 11
434.8817561340683
 21
0.6474071472879359
 31
0.0
  0
LINE
  5
285
330
1F
100
AcDbEntity
  8
通り芯
  6
JWW_CENTER1
 62
     3
370
     9
100
AcDbLine
 10
416.8813008447948
 20
-7.771188450262798
 30
0.0
 11
450.8819078971596
 21
-7.771188450262798
 31
0.0
  0
LINE
  5
286
330
1F
100
AcDbEntity
  8
通り芯
  6
Continuous
 62
     3
370
     9
100
AcDbLine
 10
465.8812150656562
 20
298.228831344923
 30
0.0
 11
465.8812150656562
 21
48.22889732887575
 31
0.0
  0
LINE
  5
287
330
1F
100
AcDbEntity
  8
通り芯
  6
Continuous
 62
     3
370
     9
100
AcDbLine
 10
437.1803731104198
 20
334.9868088048048
 30
0.0
 11
418.881208467261
 21
336.3593080129974
 31
0.0
  0
LINE
  5
288
330
1F
100
AcDbEntity
  8
0-F
  6
Continuous
 62
     7
370
     9
100
AcDbLine
 10
340.8809511298454
 20
368.2287653609703
 30
0.0
 11
339.314657052565
 21
380.1260679369839
 31
0.0
  0
LINE
  5
289
330
1F
100
AcDbEntity
  8
0-F
  6
Continuous
 62
     7
370
     9
100
AcDbLine
 10
340.8809511298454
 20
368.2287653609703
 30
0.0
 11
342.4472452071258
 21
380.1260679369839
 31
0.0
  0
LINE
  5
28A
330
1F
100
AcDbEntity
  8
0-F
  6
Continuous
 62
     7
370
     9
100
AcDbLine
 10
396.8809379330548
 20
360.2287389673893
 30
0.0
 11
339.6809669659939
 21
360.2287389673893
 31
0.0
  0
LINE
  5
28B
330
1F
100
AcDbEntity
  8
0-F
  6
Continuous
 62
     7
370
     9
100
AcDbLine
 10
396.8809379330548
 20
354.2288181481325
 30
0.0
 11
339.6809669659939
 21
354.2288181481325
 31
0.0
  0
LINE
  5
28C
330
1F
100
AcDbEntity
  8
0-F
  6
Continuous
 62
     7
370
     9
100
AcDbLine
 10
396.8809379330548
 20
350.228804951342
 30
0.0
 11
339.6809669659939
 21
350.228804951342
 31
0.0
  0
LINE
  5
28D
330
1F
100
AcDbEntity
  8
0-F
  6
Continuous
 62
     7
370
     9
100
AcDbLine
 10
396.8809379330548
 20
344.2287851561562
 30
0.0
 11
339.6809669659939
 21
344.2287851561562
 31
0.0
  0
LINE
  5
28E
330
1F
100
AcDbEntity
  8
0-F
  6
Continuous
 62
     7
370
     9
100
AcDbLine
 10
396.8809379330548
 20
340.2288709352947
 30
0.0
 11
339.6809669659939
 21
340.2288709352947
 31
0.0
  0
LINE
  5
28F
330
1F
100
AcDbEntity
  8
0-F
  6
Continuous
 62
     7
370
     9
100
AcDbLine
 10
340.8809511298454
 20
340.2288709352947
 30
0.0
 11
339.314657052565
 21
328.3315683592812
 31
0.0
  0
LINE
  5
290
330
1F
100
AcDbEntity
  8
0-F
  6
Continuous
 62
     7
370
     9
100
AcDbLine
 10
340.8809511298454
 20
340.2288709352947
 30
0.0
 11
342.4472452071258
 21
328.3315683592812
 31
0.0
  0
LINE
  5
291
330
1F
100
AcDbEntity
  8
0-F
  6
Continuous
 62
     7
370
     9
100
AcDbLine
 10
396.8809379330548
 20
364.2287521641798
 30
0.0
 11
339.6809669659939
 21
364.2287521641798
 31
0.0
  0
LINE
  5
292
330
1F
100
AcDbEntity
  8
0-F
  6
Continuous
 62
     7
370
     9
100
AcDbLine
 10
451.1902179161629
 20
133.5968238491461
 30
0.0
 11
463.4612536002846
 21
133.5968238491461
 31
0.0
  0
ARC
  5
293
330
1F
100
AcDbEntity
  8
通り芯
  6
Continuous
 62
     3
370
     9
100
AcDbCircle
 10
436.8812678528183
 20
330.9979798879974
 30
0.0
 40
4.000000051549963
100
AcDbArc
 50
0.0
 51
85.71116638183594
  0
CIRCLE
  5
294
330
1F
100
AcDbEntity
  8
通り芯
  6
Continuous
 62
     3
370
     9
100
AcDbCircle
 10
425.881281049609
 20
173.2288643368994
 30
0.0
 40
2.000000025774982
  0
ARC
  5
295
330
1F
100
AcDbEntity
  8
通り芯
  6
Continuous
 62
     3
370
     9
100
AcDbCircle
 10
441.8811358849129
 20
310.3781266363081
 30
0.0
 40
1.000000012887491
100
AcDbArc
 50
0.0
 51
38.66105651855469
  0
ARC
  5
296
330
1F
100
AcDbEntity
  8
通り芯
  6
Continuous
 62
     3
370
     9
100
AcDbCircle
 10
441.881333836771
 20
313.5797010134197
 30
0.0
 40
1.000000012887491
100
AcDbArc
 50
180.0
 51
218.6610565185547
  0
ARC
  5
297
330
1F
100
AcDbEntity
  8
通り芯
  6
Continuous
 62
     3
370
     9
100
AcDbCircle
 10
459.3812678528183
 20
338.8321226244839
 30
0.0
 40
1.500000019331236
100
AcDbArc
 50
0.0
 51
85.91419982910156
  0
ARC
  5
298
330
1F
100
AcDbEntity
  8
通り芯
  6
Continuous
 62
     3
370
     9
100
AcDbCircle
 10
459.3812678528183
 20
335.5157361696697
 30
0.0
 40
1.500000019331236
100
AcDbArc
 50
278.7463684082031
 51
0.0000000000000127
  0
ARC
  5
299
330
1F
100
AcDbEntity
  8
通り芯
  6
Continuous
 62
     3
370
     9
100
AcDbCircle
 10
451.8812678528183
 20
328.7971511295515
 30
0.0
 40
4.000000051549963
100
AcDbArc
 50
98.74600219726561
 51
180.0
  0
ARC
  5
29A
330
1F
100
AcDbEntity
  8
通り芯
  6
Continuous
 62
     3
370
     9
100
AcDbCircle
 10
438.881769330859
 20
345.8103215265108
 30
0.0
 40
4.000000051549963
100
AcDbArc
 50
180.0
 51
265.9141693115234
  0
ARC
  5
29B
330
1F
100
AcDbEntity
  8
通り芯
  6
Continuous
 62
     3
370
     9
100
AcDbCircle
 10
433.3817759292542
 20
362.9046521852947
 30
0.0
 40
1.500000019331236
100
AcDbArc
 50
0.0
 51
82.87332153320314
  0
ARC
  5
29C
330
1F
100
AcDbEntity
  8
通り芯
  6
Continuous
 62
     3
370
     9
100
AcDbCircle
 10
436.8812678528183
 20
15.45974878580137
 30
0.0
 40
4.000000051549963
100
AcDbArc
 50
274.2888336181641
 51
0.0000000000000254
  0
ARC
  5
29D
330
1F
100
AcDbEntity
  8
通り芯
  6
Continuous
 62
     3
370
     9
100
AcDbCircle
 10
441.8811358849129
 20
36.07960203749064
 30
0.0
 40
1.000000012887491
100
AcDbArc
 50
321.3389434814453
 51
0.0000000000000127
  0
ARC
  5
29E
330
1F
100
AcDbEntity
  8
通り芯
  6
Continuous
 62
     3
370
     9
100
AcDbCircle
 10
441.881333836771
 20
32.87802766037908
 30
0.0
 40
1.000000012887491
100
AcDbArc
 50
141.3389434814453
 51
180.0
  0
ARC
  5
29F
330
1F
100
AcDbEntity
  8
通り芯
  6
Continuous
 62
     3
370
     9
100
AcDbCircle
 10
459.3812678528183
 20
7.625606049314911
 30
0.0
 40
1.500000019331236
100
AcDbArc
 50
274.0858001708984
 51
0.0000000000000254
  0
ARC
  5
2A0
330
1F
100
AcDbEntity
  8
通り芯
  6
Continuous
 62
     3
370
     9
100
AcDbCircle
 10
459.3812678528183
 20
10.94199250412908
 30
0.0
 40
1.500000019331236
100
AcDbArc
 50
0.0
 51
81.25363159179688
  0
ARC
  5
2A1
330
1F
100
AcDbEntity
  8
通り芯
  6
Continuous
 62
     3
370
     9
100
AcDbCircle
 10
451.8812678528183
 20
17.66057754424742
 30
0.0
 40
4.000000051549963
100
AcDbArc
 50
180.0
 51
261.2539978027344
  0
ARC
  5
2A2
330
1F
100
AcDbEntity
  8
通り芯
  6
Continuous
 62
     3
370
     9
100
AcDbCircle
 10
438.881769330859
 20
0.6474071472879359
 30
0.0
 40
4.000000051549963
100
AcDbArc
 50
94.08583068847656
 51
180.0
  0
ARC
  5
2A3
330
1F
100
AcDbEntity
  8
通り芯
  6
Continuous
 62
     3
370
     9
100
AcDbCircle
 10
433.3817759292542
 20
-16.44692351149592
 30
0.0
 40
1.500000019331236
100
AcDbArc
 50
277.1266784667969
 51
0.0000000000000254
  0
TEXT
  5
2A4
330
1F
100
AcDbEntity
  8
0-F
  6
Continuous
 62
     2
370
     9
100
AcDbText
 10
336.6249445314502
 20
-16.27113896229821
 30
0.0
 40
12.192
  1
28
 50
90.0
 41
1.0625
  7
ＭＳ ゴシック
100
AcDbText
  0
TEXT
  5
2A5
330
1F
100
AcDbEntity
  8
0-F
  6
Continuous
 62
     2
370
     9
100
AcDbText
 10
296.6249115394737
 20
363.3121492820007
 30
0.0
 40
12.192
  1
2
 50
90.0
  7
ＭＳ ゴシック
100
AcDbText
  0
TEXT
  5
2A6
330
1F
100
AcDbEntity
  8
0-F
  6
Continuous
 62
     2
370
     9
100
AcDbText
 10
296.6249115394737
 20
-24.57751070269092
 30
0.0
 40
12.192
  1
2
 50
90.0
  7
ＭＳ ゴシック
100
AcDbText
  0
TEXT
  5
2A7
330
1F
100
AcDbEntity
  8
0-F
  6
Continuous
 62
     2
370
     9
100
AcDbText
 10
410.3812579552254
 20
119.7308822053538
 30
0.0
 40
12.192
  1
40
 41
1.0625
  7
ＭＳ ゴシック
100
AcDbText
  0
TEXT
  5
2A8
330
1F
100
AcDbEntity
  8
0-F
  6
Continuous
 62
     2
370
     9
100
AcDbText
 10
454.2992629963994
 20
137.7418289431072
 30
0.0
 40
12.192
  1
7
  7
ＭＳ ゴシック
100
AcDbText
  0
TEXT
  5
2A9
330
1F
100
AcDbEntity
  8
0-F
  6
Continuous
 62
     2
370
     9
100
AcDbText
 10
549.6250039170076
 20
339.7288478409112
 30
0.0
 40
12.192
  1
50
 50
90.0
 41
1.0625
  7
ＭＳ ゴシック
100
AcDbText
  0
TEXT
  5
2AA
330
1F
100
AcDbEntity
  8
0-F
  6
Continuous
 62
     2
370
     9
100
AcDbText
 10
296.6249115394737
 20
-48.50548591911843
 30
0.0
 40
12.192
  1
3
 50
90.0
  7
ＭＳ ゴシック
100
AcDbText
  0
TEXT
  5
2AB
330
1F
100
AcDbEntity
  8
0-F
  6
Continuous
 62
     2
370
     9
100
AcDbText
 10
296.6249115394737
 20
386.9630413850413
 30
0.0
 40
12.192
  1
3
 50
90.0
  7
ＭＳ ゴシック
100
AcDbText
  0
TEXT
  5
2AC
330
1F
100
AcDbEntity
  8
0-F
  6
Continuous
 62
     2
370
     9
100
AcDbText
 10
256.6248785474975
 20
160.2287653609704
 30
0.0
 40
12.192
  1
400
 50
90.0
 41
1.083333333333333
  7
ＭＳ ゴシック
100
AcDbText
  0
TEXT
  5
2AD
330
1F
100
AcDbEntity
  8
0-F
  6
Continuous
 62
     2
370
     9
100
AcDbText
 10
296.6249115394737
 20
160.2288148489349
 30
0.0
 40
12.192
  1
390
 50
90.0
 41
1.083333333333333
  7
ＭＳ ゴシック
100
AcDbText
  0
TEXT
  5
2AE
330
1F
100
AcDbEntity
  8
0-F
  6
Continuous
 62
     2
370
     9
100
AcDbText
 10
336.6249445314502
 20
160.2288643368994
 30
0.0
 40
12.192
  1
334
 50
90.0
 41
1.083333333333333
  7
ＭＳ ゴシック
100
AcDbText
  0
TEXT
  5
2AF
330
1F
100
AcDbEntity
  8
0-F
  6
Continuous
 62
     2
370
     9
100
AcDbText
 10
549.6250039170076
 20
160.2288643368994
 30
0.0
 40
12.192
  1
300
 50
90.0
 41
1.083333333333333
  7
ＭＳ ゴシック
100
AcDbText
  0
TEXT
  5
2B0
330
1F
100
AcDbEntity
  8
0-F
  6
Continuous
 62
     2
370
     9
100
AcDbText
 10
475.9918074695835
 20
119.7308822053538
 30
0.0
 40
12.192
  1
18
 41
1.0625
  7
ＭＳ ゴシック
100
AcDbText
  0
TEXT
  5
2B1
330
1F
100
AcDbEntity
  8
0-F
  6
Continuous
 62
     2
370
     9
100
AcDbText
 10
336.6249445314502
 20
383.2829183909535
 30
0.0
 40
12.192
  1
4
 50
90.0
  7
ＭＳ ゴシック
100
AcDbText
  0
TEXT
  5
2B2
330
1F
100
AcDbEntity
  8
0-F
  6
Continuous
 62
     2
370
     9
100
AcDbText
 10
336.6249445314502
 20
358.2287455657845
 30
0.0
 40
12.192
  1
4
 50
90.0
  7
ＭＳ ゴシック
100
AcDbText
  0
TEXT
  5
2B3
330
1F
100
AcDbEntity
  8
0-F
  6
Continuous
 62
     2
370
     9
100
AcDbText
 10
319.9997597763825
 20
353.2287785577609
 30
0.0
 40
12.192
  1
6
 50
90.0
  7
ＭＳ ゴシック
100
AcDbText
  0
TEXT
  5
2B4
330
1F
100
AcDbEntity
  8
0-F
  6
Continuous
 62
     2
370
     9
100
AcDbText
 10
336.6249445314502
 20
348.2288115497373
 30
0.0
 40
12.192
  1
4
 50
90.0
  7
ＭＳ ゴシック
100
AcDbText
  0
TEXT
  5
2B5
330
1F
100
AcDbEntity
  8
0-F
  6
Continuous
 62
     2
370
     9
100
AcDbText
 10
319.9997597763825
 20
343.2288445417136
 30
0.0
 40
12.192
  1
6
 50
90.0
  7
ＭＳ ゴシック
100
AcDbText
  0
TEXT
  5
2B6
330
1F
100
AcDbEntity
  8
0-F
  6
Continuous
 62
     2
370
     9
100
AcDbText
 10
336.6249445314502
 20
338.22887753369
 30
0.0
 40
12.192
  1
4
 50
90.0
  7
ＭＳ ゴシック
100
AcDbText
  0
LWPOLYLINE
  5
2B7
330
1F
100
AcDbEntity
  8
0-F
  6
Continuous
 62
     7
370
     9
100
AcDbPolyline
 90
        4
 70
     1
 43
0.4
 10
301.0809181378689
 20
370.2288709352947
 42
0.4142135623731
 10
300.8809181378689
 20
370.4288709352947
 42
0.4142135623731
 10
300.680918137869
 20
370.2288709352947
 42
0.4142135623731
 10
300.8809181378689
 20
370.0288709352947
 42
0.4142135623731
  0
LWPOLYLINE
  5
2B8
330
1F
100
AcDbEntity
  8
0-F
  6
Continuous
 62
     7
370
     9
100
AcDbPolyline
 90
        4
 70
     1
 43
0.4
 10
301.0809181378689
 20
-23.77124123742499
 42
0.4142135623731
 10
300.8809181378689
 20
-23.57124123742499
 42
0.4142135623731
 10
300.680918137869
 20
-23.77124123742499
 42
0.4142135623731
 10
300.8809181378689
 20
-23.97124123742499
 42
0.4142135623731
  0
LWPOLYLINE
  5
2B9
330
1F
100
AcDbEntity
  8
0-F
  6
Continuous
 62
     7
370
     9
100
AcDbPolyline
 90
        4
 70
     1
 43
0.4
 10
448.0810567041698
 20
115.4748756069586
 42
0.4142135623731
 10
447.8810567041698
 20
115.6748756069586
 42
0.4142135623731
 10
447.6810567041698
 20
115.4748756069586
 42
0.4142135623731
 10
447.8810567041698
 20
115.2748756069586
 42
0.4142135623731
  0
LWPOLYLINE
  5
2BA
330
1F
100
AcDbEntity
  8
0-F
  6
Continuous
 62
     7
370
     9
100
AcDbPolyline
 90
        4
 70
     1
 43
0.4
 10
341.0809511298454
 20
364.2287521641798
 42
0.4142135623731
 10
340.8809511298454
 20
364.4287521641798
 42
0.4142135623731
 10
340.6809511298454
 20
364.2287521641798
 42
0.4142135623731
 10
340.8809511298454
 20
364.0287521641798
 42
0.4142135623731
  0
LWPOLYLINE
  5
2BB
330
1F
100
AcDbEntity
  8
0-F
  6
Continuous
 62
     7
370
     9
100
AcDbPolyline
 90
        4
 70
     1
 43
0.4
 10
341.0809511298454
 20
360.2287389673893
 42
0.4142135623731
 10
340.8809511298454
 20
360.4287389673893
 42
0.4142135623731
 10
340.6809511298454
 20
360.2287389673893
 42
0.4142135623731
 10
340.8809511298454
 20
360.0287389673893
 42
0.4142135623731
  0
LWPOLYLINE
  5
2BC
330
1F
100
AcDbEntity
  8
0-F
  6
Continuous
 62
     7
370
     9
100
AcDbPolyline
 90
        4
 70
     1
 43
0.4
 10
341.0809511298454
 20
354.2288181481325
 42
0.4142135623731
 10
340.8809511298454
 20
354.4288181481325
 42
0.4142135623731
 10
340.6809511298454
 20
354.2288181481325
 42
0.4142135623731
 10
340.8809511298454
 20
354.0288181481325
 42
0.4142135623731
  0
LWPOLYLINE
  5
2BD
330
1F
100
AcDbEntity
  8
0-F
  6
Continuous
 62
     7
370
     9
100
AcDbPolyline
 90
        4
 70
     1
 43
0.4
 10
341.0809511298454
 20
350.228804951342
 42
0.4142135623731
 10
340.8809511298454
 20
350.428804951342
 42
0.4142135623731
 10
340.6809511298454
 20
350.228804951342
 42
0.4142135623731
 10
340.8809511298454
 20
350.028804951342
 42
0.4142135623731
  0
LWPOLYLINE
  5
2BE
330
1F
100
AcDbEntity
  8
0-F
  6
Continuous
 62
     7
370
     9
100
AcDbPolyline
 90
        4
 70
     1
 43
0.4
 10
341.0809511298454
 20
344.2287851561562
 42
0.4142135623731
 10
340.8809511298454
 20
344.4287851561562
 42
0.4142135623731
 10
340.6809511298454
 20
344.2287851561562
 42
0.4142135623731
 10
340.8809511298454
 20
344.0287851561562
 42
0.4142135623731
  0
LINE
  5
2BF
330
1F
100
AcDbEntity
  8
0-F
  6
Continuous
 62
     7
370
     9
100
AcDbLine
 10
-689.1191313500956
 20
377.2288445417136
 30
0.0
 11
-689.1191313500956
 21
489.4288485007507
 31
0.0
  0
LINE
  5
2C0
330
1F
100
AcDbEntity
  8
0-F
  6
Continuous
 62
     7
370
     9
100
AcDbLine
 10
-689.1191313500956
 20
448.228831344923
 30
0.0
 11
-677.221828774082
 21
449.7951254222035
 31
0.0
  0
LINE
  5
2C1
330
1F
100
AcDbEntity
  8
0-F
  6
Continuous
 62
     7
370
     9
100
AcDbLine
 10
-689.1191313500956
 20
448.228831344923
 30
0.0
 11
-677.221828774082
 21
446.6625372676426
 31
0.0
  0
LINE
  5
2C2
330
1F
100
AcDbEntity
  8
0-F
  6
Continuous
 62
     7
370
     9
100
AcDbLine
 10
-577.2218452700703
 20
446.6625372676426
 30
0.0
 11
-601.0165493980263
 21
449.7951254222035
 31
0.0
  0
LINE
  5
2C3
330
1F
100
AcDbEntity
  8
0-F
  6
Continuous
 62
     7
370
     9
100
AcDbLine
 10
-577.2218452700703
 20
449.7951254222035
 30
0.0
 11
-601.0165493980263
 21
446.6625372676426
 31
0.0
  0
LINE
  5
2C4
330
1F
100
AcDbEntity
  8
0-F
  6
Continuous
 62
     7
370
     9
100
AcDbLine
 10
22.77815472992984
 20
446.6625372676426
 30
0.0
 11
-1.01645042209725
 21
449.7951254222035
 31
0.0
  0
LINE
  5
2C5
330
1F
100
AcDbEntity
  8
0-F
  6
Continuous
 62
     7
370
     9
100
AcDbLine
 10
22.77815472992984
 20
449.7951254222035
 30
0.0
 11
-1.01645042209725
 21
446.6625372676426
 31
0.0
  0
LINE
  5
2C6
330
1F
100
AcDbEntity
  8
0-F
  6
Continuous
 62
     7
370
     9
100
AcDbLine
 10
-689.1191313500956
 20
488.2288643368994
 30
0.0
 11
-677.221828774082
 21
489.7951584141798
 31
0.0
  0
LINE
  5
2C7
330
1F
100
AcDbEntity
  8
0-F
  6
Continuous
 62
     7
370
     9
100
AcDbLine
 10
-689.1191313500956
 20
488.2288643368994
 30
0.0
 11
-677.221828774082
 21
486.662570259619
 31
0.0
  0
LINE
  5
2C8
330
1F
100
AcDbEntity
  8
0-F
  6
Continuous
 62
     7
370
     9
100
AcDbLine
 10
-689.1191313500956
 20
448.228831344923
 30
0.0
 11
140.8808851458926
 21
448.228831344923
 31
0.0
  0
LINE
  5
2C9
330
1F
100
AcDbEntity
  8
0-F
  6
Continuous
 62
     7
370
     9
100
AcDbLine
 10
-689.1191313500956
 20
488.2288643368994
 30
0.0
 11
140.8808851458926
 21
488.2288643368994
 31
0.0
  0
TEXT
  5
2CA
330
1F
100
AcDbEntity
  8
0-F
  6
Continuous
 62
     2
370
     9
100
AcDbText
 10
-651.6191750644642
 20
452.4848379433183
 30
0.0
 40
12.192
  1
100
 41
1.083333333333333
  7
ＭＳ ゴシック
100
AcDbText
  0
TEXT
  5
2CB
330
1F
100
AcDbEntity
  8
0-F
  6
Continuous
 62
     2
370
     9
100
AcDbText
 10
-301.6191214525027
 20
452.4848379433183
 30
0.0
 40
12.192
  1
600
 41
1.083333333333333
  7
ＭＳ ゴシック
100
AcDbText
  0
TEXT
  5
2CC
330
1F
100
AcDbEntity
  8
0-F
  6
Continuous
 62
     2
370
     9
100
AcDbText
 10
114.880891744288
 20
452.4848379433183
 30
0.0
 40
12.192
  1
600
 41
1.083333333333333
  7
ＭＳ ゴシック
100
AcDbText
  0
TEXT
  5
2CD
330
1F
100
AcDbEntity
  8
0-F
  6
Continuous
 62
     2
370
     9
100
AcDbText
 10
-161.1014954891369
 20
492.4848709352947
 30
0.0
 40
12.192
  1
2000
 41
1.09375
  7
ＭＳ ゴシック
100
AcDbText
  0
LINE
  5
2CE
330
1F
100
AcDbEntity
  8
躯体
  6
JWW_CENTER2
 62
     2
370
     9
100
AcDbLine
 10
-589.1191313500956
 20
404.0092741019589
 30
0.0
 11
-589.1191313500956
 21
364.2288778871753
 31
0.0
  0
CIRCLE
  5
2CF
330
1F
100
AcDbEntity
  8
躯体
  6
Continuous
 62
     2
370
     9
100
AcDbCircle
 10
-589.1191313500956
 20
393.2287651253132
 30
0.0
 40
4.249999652037749
  0
LINE
  5
2D0
330
1F
100
AcDbEntity
  8
躯体
  6
JWW_DASHED1
 62
     2
370
     9
100
AcDbLine
 10
-582.3691618676737
 20
374.0829097776909
 30
0.0
 11
-582.3691618676737
 21
403.2288116675654
 31
0.0
  0
LINE
  5
2D1
330
1F
100
AcDbEntity
  8
躯体
  6
Continuous
 62
     2
370
     9
100
AcDbLine
 10
-580.3691525592228
 20
374.2288253356701
 30
0.0
 11
-581.6191212168458
 21
374.2288253356701
 31
0.0
  0
LINE
  5
2D2
330
1F
100
AcDbEntity
  8
躯体
  6
JWW_DASHED1
 62
     2
370
     9
100
AcDbLine
 10
-595.8691008325175
 20
374.0829097776909
 30
0.0
 11
-595.8691008325175
 21
403.2288116675654
 31
0.0
  0
LINE
  5
2D3
330
1F
100
AcDbEntity
  8
躯体
  6
Continuous
 62
     2
370
     9
100
AcDbLine
 10
-597.8691101409684
 20
374.2288253356701
 30
0.0
 11
-596.6191414833454
 21
374.2288253356701
 31
0.0
  0
LINE
  5
2D4
330
1F
100
AcDbEntity
  8
躯体
  6
Continuous
 62
     2
370
     9
100
AcDbLine
 10
-580.3691525592228
 20
374.2288253356701
 30
0.0
 11
-580.3691525592228
 21
403.2288116675654
 31
0.0
  0
LINE
  5
2D5
330
1F
100
AcDbEntity
  8
躯体
  6
Continuous
 62
     2
370
     9
100
AcDbLine
 10
-589.1191313500956
 20
403.2288116675654
 30
0.0
 11
-580.3691525592228
 21
403.2288116675654
 31
0.0
  0
LINE
  5
2D6
330
1F
100
AcDbEntity
  8
躯体
  6
Continuous
 62
     2
370
     9
100
AcDbLine
 10
-589.1191313500956
 20
403.2288116675654
 30
0.0
 11
-597.8691101409684
 21
403.2288116675654
 31
0.0
  0
LINE
  5
2D7
330
1F
100
AcDbEntity
  8
躯体
  6
Continuous
 62
     2
370
     9
100
AcDbLine
 10
-597.8691101409684
 20
374.2288253356701
 30
0.0
 11
-597.8691101409684
 21
403.2288116675654
 31
0.0
  0
LINE
  5
2D8
330
1F
100
AcDbEntity
  8
躯体
  6
JWW_CENTER2
 62
     2
370
     9
100
AcDbLine
 10
-589.1191313500956
 20
393.2287651253132
 30
0.0
 11
-583.3430553167861
 21
393.2287651253132
 31
0.0
  0
LINE
  5
2D9
330
1F
100
AcDbEntity
  8
躯体
  6
JWW_CENTER2
 62
     2
370
     9
100
AcDbLine
 10
-589.1191313500956
 20
393.2287651253132
 30
0.0
 11
-594.8952073834041
 21
393.2287651253132
 31
0.0
  0
ARC
  5
2DA
330
1F
100
AcDbEntity
  8
躯体
  6
Continuous
 62
     2
370
     9
100
AcDbCircle
 10
-596.6191414833454
 20
372.2288160272196
 30
0.0
 40
1.999999824868206
100
AcDbArc
 50
30.00050960355836
 51
89.99999999999999
  0
ARC
  5
2DB
330
1F
100
AcDbEntity
  8
躯体
  6
Continuous
 62
     2
370
     9
100
AcDbCircle
 10
-581.6191212168458
 20
372.2288160272196
 30
0.0
 40
1.999999824868206
100
AcDbArc
 50
90.0
 51
149.9994903964416
  0
LINE
  5
2DC
330
1F
100
AcDbEntity
  8
寸法
  6
Continuous
 62
     7
370
     9
100
AcDbLine
 10
-586.9941315240765
 20
396.9093727900529
 30
0.0
 11
-583.167297200426
 21
406.1481681151657
 31
0.0
  0
LINE
  5
2DD
330
1F
100
AcDbEntity
  8
寸法
  6
Continuous
 62
     7
370
     9
100
AcDbLine
 10
-586.9941315240765
 20
396.9093727900529
 30
0.0
 11
-580.9065172339895
 21
404.8429061929653
 31
0.0
  0
LINE
  5
2DE
330
1F
100
AcDbEntity
  8
寸法
  6
Continuous
 62
     7
370
     9
100
AcDbLine
 10
-586.9941315240765
 20
396.9093727900529
 30
0.0
 11
-572.0332935919375
 21
422.8223042123218
 31
0.0
  0
LINE
  5
2DF
330
1F
100
AcDbEntity
  8
寸法
  6
Continuous
 62
     7
370
     9
100
AcDbLine
 10
-572.0332935919375
 20
422.8223042123218
 30
0.0
 11
-524.2496361959381
 21
422.8223042123218
 31
0.0
  0
TEXT
  5
2E0
330
1F
100
AcDbEntity
  8
寸法
  6
Continuous
 62
     2
370
     9
100
AcDbText
 10
-570.1414648939378
 20
427.078211834788
 30
0.0
 40
12.192
  1
φ8.5
 41
1.1
  7
ＭＳ ゴシック
100
AcDbText
  0
LINE
  5
2E1
330
1F
100
AcDbEntity
  8
0-F
  6
Continuous
 62
     7
370
     9
100
AcDbLine
 10
-589.1191656413139
 20
411.1687861010482
 30
0.0
 11
-589.1191478460838
 21
449.4288155087744
 31
0.0
  0
LINE
  5
2E2
330
1F
100
AcDbEntity
  8
0-F
  6
Continuous
 62
     7
370
     9
100
AcDbLine
 10
10.88085215391629
 20
411.1687861010482
 30
0.0
 11
10.88085215391629
 21
449.4288155087744
 31
0.0
  0
LINE
  5
2E3
330
1F
100
AcDbEntity
  8
0-F
  6
Continuous
 62
     7
370
     9
100
AcDbLine
 10
553.881010515403
 20
-26.77125113501779
 30
0.0
 11
553.881010515403
 21
23.22886433689939
 31
0.0
  0
LINE
  5
2E4
330
1F
100
AcDbEntity
  8
0-F
  6
Continuous
 62
     7
370
     9
100
AcDbLine
 10
553.881010515403
 20
23.22886433689939
 30
0.0
 11
553.881010515403
 21
373.228831344923
 31
0.0
  0
LINE
  5
2E5
330
1F
100
AcDbEntity
  8
躯体
  6
JWW_CENTER2
 62
     2
370
     9
100
AcDbLine
 10
10.88085215391629
 20
404.0092741019589
 30
0.0
 11
10.88085215391629
 21
364.2288778871753
 31
0.0
  0
CIRCLE
  5
2E6
330
1F
100
AcDbEntity
  8
躯体
  6
Continuous
 62
     2
370
     9
100
AcDbCircle
 10
10.88085215391629
 20
393.2287651253132
 30
0.0
 40
4.249999652037749
  0
LINE
  5
2E7
330
1F
100
AcDbEntity
  8
躯体
  6
JWW_DASHED1
 62
     2
370
     9
100
AcDbLine
 10
17.63082163633817
 20
374.0829097776909
 30
0.0
 11
17.63082163633817
 21
403.2288116675654
 31
0.0
  0
LINE
  5
2E8
330
1F
100
AcDbEntity
  8
躯体
  6
Continuous
 62
     2
370
     9
100
AcDbLine
 10
19.63083094478907
 20
374.2288253356701
 30
0.0
 11
18.38086228716611
 21
374.2288253356701
 31
0.0
  0
LINE
  5
2E9
330
1F
100
AcDbEntity
  8
躯体
  6
JWW_DASHED1
 62
     2
370
     9
100
AcDbLine
 10
4.130882671494419
 20
374.0829097776909
 30
0.0
 11
4.130882671494419
 21
403.2288116675654
 31
0.0
  0
LINE
  5
2EA
330
1F
100
AcDbEntity
  8
躯体
  6
Continuous
 62
     2
370
     9
100
AcDbLine
 10
2.13087336304352
 20
374.2288253356701
 30
0.0
 11
3.380842020666478
 21
374.2288253356701
 31
0.0
  0
LINE
  5
2EB
330
1F
100
AcDbEntity
  8
躯体
  6
Continuous
 62
     2
370
     9
100
AcDbLine
 10
19.63083094478907
 20
374.2288253356701
 30
0.0
 11
19.63083094478907
 21
403.2288116675654
 31
0.0
  0
LINE
  5
2EC
330
1F
100
AcDbEntity
  8
躯体
  6
Continuous
 62
     2
370
     9
100
AcDbLine
 10
10.88085215391629
 20
403.2288116675654
 30
0.0
 11
19.63083094478907
 21
403.2288116675654
 31
0.0
  0
LINE
  5
2ED
330
1F
100
AcDbEntity
  8
躯体
  6
Continuous
 62
     2
370
     9
100
AcDbLine
 10
10.88085215391629
 20
403.2288116675654
 30
0.0
 11
2.13087336304352
 21
403.2288116675654
 31
0.0
  0
LINE
  5
2EE
330
1F
100
AcDbEntity
  8
躯体
  6
Continuous
 62
     2
370
     9
100
AcDbLine
 10
2.13087336304352
 20
374.2288253356701
 30
0.0
 11
2.13087336304352
 21
403.2288116675654
 31
0.0
  0
LINE
  5
2EF
330
1F
100
AcDbEntity
  8
躯体
  6
JWW_CENTER2
 62
     2
370
     9
100
AcDbLine
 10
10.88085215391629
 20
393.2287651253132
 30
0.0
 11
16.65692818722573
 21
393.2287651253132
 31
0.0
  0
LINE
  5
2F0
330
1F
100
AcDbEntity
  8
躯体
  6
JWW_CENTER2
 62
     2
370
     9
100
AcDbLine
 10
10.88085215391629
 20
393.2287651253132
 30
0.0
 11
5.104776120607767
 21
393.2287651253132
 31
0.0
  0
ARC
  5
2F1
330
1F
100
AcDbEntity
  8
躯体
  6
Continuous
 62
     2
370
     9
100
AcDbCircle
 10
3.380842020666478
 20
372.2288160272196
 30
0.0
 40
1.999999824868206
100
AcDbArc
 50
30.00050960355836
 51
89.99999999999999
  0
ARC
  5
2F2
330
1F
100
AcDbEntity
  8
躯体
  6
Continuous
 62
     2
370
     9
100
AcDbCircle
 10
18.38086228716611
 20
372.2288160272196
 30
0.0
 40
1.999999824868206
100
AcDbArc
 50
90.0
 51
149.9994903964416
  0
LINE
  5
2F3
330
1F
100
AcDbEntity
  8
躯体
  6
Continuous
 62
     2
370
     9
100
AcDbLine
 10
463.8809511298454
 20
370.2288709352947
 30
0.0
 11
400.8809511298454
 21
370.2288709352947
 31
0.0
  0
LINE
  5
2F4
330
1F
100
AcDbEntity
  8
躯体
  6
Continuous
 62
     2
370
     9
100
AcDbLine
 10
466.8809115394737
 20
323.2287653609703
 30
0.0
 11
463.8809511298454
 21
323.2287653609703
 31
0.0
  0
LINE
  5
2F5
330
1F
100
AcDbEntity
  8
躯体
  6
Continuous
 62
     2
370
     9
100
AcDbLine
 10
463.8809511298454
 20
-23.77124123742499
 30
0.0
 11
400.8809511298454
 21
-23.77124123742499
 31
0.0
  0
LINE
  5
2F6
330
1F
100
AcDbEntity
  8
躯体
  6
Continuous
 62
     2
370
     9
100
AcDbLine
 10
466.8809115394737
 20
23.22881484893492
 30
0.0
 11
463.8809511298454
 21
23.22881484893492
 31
0.0
  0
LINE
  5
2F7
330
1F
100
AcDbEntity
  8
躯体
  6
Continuous
 62
     2
370
     9
100
AcDbLine
 10
463.8809511298454
 20
-23.77124123742499
 30
0.0
 11
463.8809511298454
 21
23.22881484893492
 31
0.0
  0
LINE
  5
2F8
330
1F
100
AcDbEntity
  8
躯体
  6
Continuous
 62
     2
370
     9
100
AcDbLine
 10
463.8809511298454
 20
370.2288709352947
 30
0.0
 11
463.8809511298454
 21
323.2287653609703
 31
0.0
  0
LINE
  5
2F9
330
1F
100
AcDbEntity
  8
躯体
  6
Continuous
 62
     2
370
     9
100
AcDbLine
 10
463.8809511298454
 20
-26.77125113501779
 30
0.0
 11
400.8809511298454
 21
-26.77125113501779
 31
0.0
  0
LINE
  5
2FA
330
1F
100
AcDbEntity
  8
躯体
  6
Continuous
 62
     2
370
     9
100
AcDbLine
 10
463.8809511298454
 20
373.228831344923
 30
0.0
 11
400.8809511298454
 21
373.228831344923
 31
0.0
  0
ARC
  5
2FB
330
1F
100
AcDbEntity
  8
躯体
  6
Continuous
 62
     2
370
     9
100
AcDbCircle
 10
463.8809511298454
 20
370.2288709352947
 30
0.0
 40
3.000000038662472
100
AcDbArc
 50
0.0
 51
90.0
  0
ARC
  5
2FC
330
1F
100
AcDbEntity
  8
躯体
  6
Continuous
 62
     2
370
     9
100
AcDbCircle
 10
463.8809511298454
 20
-23.77124123742499
 30
0.0
 40
3.000000038662472
100
AcDbArc
 50
270.0
 51
0.0
  0
LINE
  5
2FD
330
1F
100
AcDbEntity
  8
躯体
  6
Continuous
 62
     2
370
     9
100
AcDbLine
 10
466.8809115394737
 20
-23.77124123742499
 30
0.0
 11
466.8809115394737
 21
23.22881484893492
 31
0.0
  0
LINE
  5
2FE
330
1F
100
AcDbEntity
  8
躯体
  6
Continuous
 62
     2
370
     9
100
AcDbLine
 10
466.8809115394737
 20
370.2442908132924
 30
0.0
 11
466.8809115394737
 21
323.2287653609703
 31
0.0
  0
LINE
  5
2FF
330
1F
100
AcDbEntity
  8
躯体
  6
JWW_CENTER2
 62
     2
370
     9
100
AcDbLine
 10
474.92871237681
 20
-7.771217907384425
 30
0.0
 11
465.8443366344905
 21
-7.771217907384425
 31
0.0
  0
LINE
  5
300
330
1F
100
AcDbEntity
  8
躯体
  6
Continuous
 62
     2
370
     9
100
AcDbLine
 10
469.380650313718
 20
-17.77125089936112
 30
0.0
 11
471.3809078278765
 21
-17.77125089936112
 31
0.0
  0
LINE
  5
301
330
1F
100
AcDbEntity
  8
躯体
  6
Continuous
 62
     2
370
     9
100
AcDbLine
 10
466.8809115394739
 20
-17.77125089936112
 30
0.0
 11
467.3806410052676
 21
-17.77125089936112
 31
0.0
  0
LINE
  5
302
330
1F
100
AcDbEntity
  8
躯体
  6
Continuous
 62
     2
370
     9
100
AcDbLine
 10
471.3809078278765
 20
-17.77125089936112
 30
0.0
 11
471.3809078278765
 21
2.228815084591815
 31
0.0
  0
LINE
  5
303
330
1F
100
AcDbEntity
  8
躯体
  6
JWW_DASHED1
 62
     2
370
     9
100
AcDbLine
 10
471.3806596221685
 20
-10.02119121923238
 30
0.0
 11
469.380650313718
 21
-10.02119121923238
 31
0.0
  0
LINE
  5
304
330
1F
100
AcDbEntity
  8
躯体
  6
JWW_DASHED1
 62
     2
370
     9
100
AcDbLine
 10
469.1806295641214
 20
-10.02119121923238
 30
0.0
 11
467.3806410052676
 21
-11.77113743052792
 31
0.0
  0
LINE
  5
305
330
1F
100
AcDbEntity
  8
躯体
  6
JWW_DASHED1
 62
     2
370
     9
100
AcDbLine
 10
469.1806295641214
 20
-10.02119121923238
 30
0.0
 11
469.380699860597
 21
-10.02119121923238
 31
0.0
  0
LINE
  5
306
330
1F
100
AcDbEntity
  8
躯体
  6
JWW_DASHED1
 62
     2
370
     9
100
AcDbLine
 10
469.1806295641214
 20
-5.521195048658001
 30
0.0
 11
469.380699860597
 21
-5.521195048658001
 31
0.0
  0
LINE
  5
307
330
1F
100
AcDbEntity
  8
躯体
  6
JWW_DASHED1
 62
     2
370
     9
100
AcDbLine
 10
469.1806295641214
 20
-10.02119121923238
 30
0.0
 11
469.1806295641214
 21
-5.521195048658001
 31
0.0
  0
LINE
  5
308
330
1F
100
AcDbEntity
  8
躯体
  6
JWW_DASHED1
 62
     2
370
     9
100
AcDbLine
 10
471.3806596221685
 20
-5.521195048658001
 30
0.0
 11
469.380650313718
 21
-5.521195048658001
 31
0.0
  0
LINE
  5
309
330
1F
100
AcDbEntity
  8
躯体
  6
JWW_DASHED1
 62
     2
370
     9
100
AcDbLine
 10
469.1806295641214
 20
-5.521195048658001
 30
0.0
 11
467.3806410052676
 21
-3.771298384241391
 31
0.0
  0
LINE
  5
30A
330
1F
100
AcDbEntity
  8
躯体
  6
Continuous
 62
     2
370
     9
100
AcDbLine
 10
467.3806410052676
 20
2.228828634867796
 30
0.0
 11
469.380650313718
 21
2.228828634867796
 31
0.0
  0
LINE
  5
30B
330
1F
100
AcDbEntity
  8
躯体
  6
Continuous
 62
     2
370
     9
100
AcDbLine
 10
469.380650313718
 20
-27.77621613288761
 30
0.0
 11
469.380650313718
 21
2.228828634867796
 31
0.0
  0
LINE
  5
30C
330
1F
100
AcDbEntity
  8
躯体
  6
Continuous
 62
     2
370
     9
100
AcDbLine
 10
467.3806410052676
 20
-56.77119823002727
 30
0.0
 11
467.3806410052676
 21
2.228828634867796
 31
0.0
  0
ARC
  5
30D
330
1F
100
AcDbEntity
  8
躯体
  6
Continuous
 62
     2
370
     9
100
AcDbCircle
 10
470.1806342183468
 20
-30.77122586080736
 30
0.0
 40
3.000000414701042
100
AcDbArc
 50
0.0
 51
90.0
  0
ARC
  5
30E
330
1F
100
AcDbEntity
  8
躯体
  6
Continuous
 62
     2
370
     9
100
AcDbCircle
 10
470.1806342183468
 20
-53.7712338142303
 30
0.0
 40
3.000000414701042
100
AcDbArc
 50
270.0
 51
0.0
  0
LINE
  5
30F
330
1F
100
AcDbEntity
  8
躯体
  6
Continuous
 62
     2
370
     9
100
AcDbLine
 10
473.1806481810223
 20
-30.77122586080736
 30
0.0
 11
473.1806481810223
 21
-53.7712338142303
 31
0.0
  0
LINE
  5
310
330
1F
100
AcDbEntity
  8
躯体
  6
Continuous
 62
     2
370
     9
100
AcDbLine
 10
470.1806342183468
 20
-27.77121189813192
 30
0.0
 11
467.3806410052676
 21
-27.77121189813192
 31
0.0
  0
LINE
  5
311
330
1F
100
AcDbEntity
  8
躯体
  6
Continuous
 62
     2
370
     9
100
AcDbLine
 10
470.1806342183468
 20
-56.77119823002727
 30
0.0
 11
467.3806410052676
 21
-56.77119823002727
 31
0.0
  0
LINE
  5
312
330
1F
100
AcDbEntity
  8
躯体
  6
JWW_DASHED1
 62
     2
370
     9
100
AcDbLine
 10
469.380650313718
 20
-56.76619399527158
 30
0.0
 11
469.380650313718
 21
-27.77621613288761
 31
0.0
  0
LINE
  5
313
330
1F
100
AcDbEntity
  8
躯体
  6
JWW_CENTER2
 62
     2
370
     9
100
AcDbLine
 10
471.3806596221685
 20
-46.77115168777505
 30
0.0
 11
465.3806812436961
 21
-46.77115168777505
 31
0.0
  0
LINE
  5
314
330
1F
100
AcDbEntity
  8
躯体
  6
Continuous
 62
     2
370
     9
100
AcDbLine
 10
469.380650313718
 20
-23.77119328123104
 30
0.0
 11
467.3806410052676
 21
-23.77119328123104
 31
0.0
  0
LINE
  5
315
330
1F
100
AcDbEntity
  8
躯体
  6
JWW_DASHED1
 62
     2
370
     9
100
AcDbLine
 10
469.380650313718
 20
-42.52121861435558
 30
0.0
 11
467.3806410052676
 21
-42.52121861435558
 31
0.0
  0
LINE
  5
316
330
1F
100
AcDbEntity
  8
躯体
  6
JWW_DASHED1
 62
     2
370
     9
100
AcDbLine
 10
469.380650313718
 20
-51.02118385495191
 30
0.0
 11
467.3806410052676
 21
-51.02118385495191
 31
0.0
  0
LINE
  5
317
330
1F
100
AcDbEntity
  8
躯体
  6
Continuous
 62
     2
370
     9
100
AcDbLine
 10
467.3806410052676
 20
-14.52140101285318
 30
0.0
 11
467.3806410052676
 21
-17.77125089936112
 31
0.0
  0
LINE
  5
318
330
1F
100
AcDbEntity
  8
躯体
  6
Continuous
 62
     2
370
     9
100
AcDbLine
 10
469.3809445314501
 20
-16.52120965939071
 30
0.0
 11
469.3809445314501
 21
-17.77125089936112
 31
0.0
  0
LINE
  5
319
330
1F
100
AcDbEntity
  8
躯体
  6
Continuous
 62
     2
370
     9
100
AcDbLine
 10
467.3806410052676
 20
-1.021356473685273
 30
0.0
 11
467.3806410052676
 21
2.228815084591815
 31
0.0
  0
LINE
  5
31A
330
1F
100
AcDbEntity
  8
躯体
  6
Continuous
 62
     2
370
     9
100
AcDbLine
 10
469.3809445314501
 20
0.9787738446214007
 30
0.0
 11
469.3809445314501
 21
2.228815084591815
 31
0.0
  0
LINE
  5
31B
330
1F
100
AcDbEntity
  8
躯体
  6
Continuous
 62
     2
370
     9
100
AcDbLine
 10
466.8809115394739
 20
2.228815084591815
 30
0.0
 11
471.3809078278765
 21
2.228815084591815
 31
0.0
  0
LINE
  5
31C
330
1F
100
AcDbEntity
  8
躯体
  6
Continuous
 62
     2
370
     9
100
AcDbLine
 10
467.3806410052676
 20
-3.771080990682776
 30
0.0
 11
467.180474560747
 21
-3.771080990682776
 31
0.0
  0
LINE
  5
31D
330
1F
100
AcDbEntity
  8
躯体
  6
Continuous
 62
     2
370
     9
100
AcDbLine
 10
467.3806410052676
 20
-11.77095892037028
 30
0.0
 11
467.180474560747
 21
-11.77095892037028
 31
0.0
  0
LINE
  5
31E
330
1F
100
AcDbEntity
  8
躯体
  6
Continuous
 62
     2
370
     9
100
AcDbLine
 10
467.180474560747
 20
-11.77095892037028
 30
0.0
 11
467.180474560747
 21
-7.771217907384425
 31
0.0
  0
LINE
  5
31F
330
1F
100
AcDbEntity
  8
躯体
  6
Continuous
 62
     2
370
     9
100
AcDbLine
 10
467.180474560747
 20
-3.771080990682776
 30
0.0
 11
467.180474560747
 21
-7.771217907384425
 31
0.0
  0
LINE
  5
320
330
1F
100
AcDbEntity
  8
躯体
  6
Continuous
 62
     2
370
     9
100
AcDbLine
 10
471.8806372936702
 20
-10.52116512022235
 30
0.0
 11
471.3809078278765
 21
-10.52116512022235
 31
0.0
  0
LINE
  5
321
330
1F
100
AcDbEntity
  8
躯体
  6
Continuous
 62
     2
370
     9
100
AcDbLine
 10
473.3805185225556
 20
-8.771023254724014
 30
0.0
 11
471.8806372936702
 21
-10.52116512022235
 31
0.0
  0
LINE
  5
322
330
1F
100
AcDbEntity
  8
躯体
  6
Continuous
 62
     2
370
     9
100
AcDbLine
 10
473.3805185225556
 20
-6.771239352169459
 30
0.0
 11
473.3805185225556
 21
-8.771023254724014
 31
0.0
  0
LINE
  5
323
330
1F
100
AcDbEntity
  8
躯体
  6
Continuous
 62
     2
370
     9
100
AcDbLine
 10
471.8806372936702
 20
-5.021146974635258
 30
0.0
 11
473.3805185225556
 21
-6.771239352169459
 31
0.0
  0
LINE
  5
324
330
1F
100
AcDbEntity
  8
躯体
  6
Continuous
 62
     2
370
     9
100
AcDbLine
 10
471.8806372936702
 20
-5.021146974635258
 30
0.0
 11
471.3809078278765
 21
-5.021146974635258
 31
0.0
  0
LINE
  5
325
330
1F
100
AcDbEntity
  8
躯体
  6
Continuous
 62
     2
370
     9
100
AcDbLine
 10
471.8806372936702
 20
-5.021146974635258
 30
0.0
 11
471.8806372936702
 21
-10.52116512022235
 31
0.0
  0
LINE
  5
326
330
1F
100
AcDbEntity
  8
躯体
  6
Continuous
 62
     2
370
     9
100
AcDbLine
 10
466.8809115394739
 20
-17.77125089936112
 30
0.0
 11
466.8809115394739
 21
2.228815084591815
 31
0.0
  0
LINE
  5
327
330
1F
100
AcDbEntity
  8
躯体
  6
Continuous
 62
     2
370
     9
100
AcDbLine
 10
467.3806410052676
 20
-14.52140101285318
 30
0.0
 11
467.3806410052676
 21
-1.021356473685273
 31
0.0
  0
LINE
  5
328
330
1F
100
AcDbEntity
  8
0-F
  6
Continuous
 62
     7
370
     9
100
AcDbLine
 10
477.6442302555563
 20
-26.77125113501779
 30
0.0
 11
555.0809946792542
 21
-26.77125113501779
 31
0.0
  0
LINE
  5
329
330
1F
100
AcDbEntity
  8
0-F
  6
Continuous
 62
     7
370
     9
100
AcDbLine
 10
477.6442302555563
 20
23.22886433689939
 30
0.0
 11
555.0809946792542
 21
23.22886433689939
 31
0.0
  0
LINE
  5
32A
330
1F
100
AcDbEntity
  8
0-F
  6
Continuous
 62
     7
370
     9
100
AcDbLine
 10
477.6442302555563
 20
323.2288643368994
 30
0.0
 11
555.0809946792542
 21
323.2288643368994
 31
0.0
  0
LINE
  5
32B
330
1F
100
AcDbEntity
  8
0-F
  6
Continuous
 62
     7
370
     9
100
AcDbLine
 10
477.6442302555563
 20
373.228831344923
 30
0.0
 11
555.0809946792542
 21
373.228831344923
 31
0.0
  0
LINE
  5
32C
330
1F
100
AcDbEntity
  8
ハッチ
  6
Continuous
 62
     6
370
     9
100
AcDbLine
 10
460.8807531779872
 20
326.7287653609703
 30
0.0
 11
463.8807531779872
 21
326.7287653609703
 31
0.0
  0
LINE
  5
32D
330
1F
100
AcDbEntity
  8
ハッチ
  6
Continuous
 62
     6
370
     9
100
AcDbLine
 10
460.8807531779872
 20
364.4133435429251
 30
0.0
 11
463.1961749960324
 21
366.7287653609701
 31
0.0
  0
LINE
  5
32E
330
1F
100
AcDbEntity
  8
ハッチ
  6
Continuous
 62
     6
370
     9
100
AcDbLine
 10
460.8807531779876
 20
358.7564892934322
 30
0.0
 11
463.8807531779876
 21
361.7564892934324
 31
0.0
  0
LINE
  5
32F
330
1F
100
AcDbEntity
  8
ハッチ
  6
Continuous
 62
     6
370
     9
100
AcDbLine
 10
460.8807531779867
 20
353.099635043938
 30
0.0
 11
463.8807531779867
 21
356.099635043938
 31
0.0
  0
LINE
  5
330
330
1F
100
AcDbEntity
  8
ハッチ
  6
Continuous
 62
     6
370
     9
100
AcDbLine
 10
460.8807531779872
 20
347.4427807944453
 30
0.0
 11
463.8807531779872
 21
350.4427807944453
 31
0.0
  0
LINE
  5
331
330
1F
100
AcDbEntity
  8
ハッチ
  6
Continuous
 62
     6
370
     9
100
AcDbLine
 10
460.8807531779867
 20
341.7859265449513
 30
0.0
 11
463.8807531779872
 21
344.7859265449515
 31
0.0
  0
LINE
  5
332
330
1F
100
AcDbEntity
  8
ハッチ
  6
Continuous
 62
     6
370
     9
100
AcDbLine
 10
460.8807531779872
 20
336.1290722954584
 30
0.0
 11
463.8807531779854
 21
339.1290722954566
 31
0.0
  0
LINE
  5
333
330
1F
100
AcDbEntity
  8
ハッチ
  6
Continuous
 62
     6
370
     9
100
AcDbLine
 10
460.8807531779863
 20
330.4722180459712
 30
0.0
 11
463.8807531779863
 21
333.4722180459714
 31
0.0
  0
LINE
  5
334
330
1F
100
AcDbEntity
  8
ハッチ
  6
Continuous
 62
     6
370
     9
100
AcDbLine
 10
462.794154742479
 20
326.7287653609708
 30
0.0
 11
463.8807531779867
 21
327.8153637964786
 31
0.0
  0
LINE
  5
335
330
1F
100
AcDbEntity
  8
ハッチ
  6
Continuous
 62
     6
370
     9
100
AcDbLine
 10
460.8807531779872
 20
366.7287653609703
 30
0.0
 11
460.8807531779872
 21
326.7287653609703
 31
0.0
  0
LINE
  5
336
330
1F
100
AcDbEntity
  8
ハッチ
  6
Continuous
 62
     6
370
     9
100
AcDbLine
 10
463.8807531779872
 20
366.7287653609703
 30
0.0
 11
460.8807531779872
 21
366.7287653609703
 31
0.0
  0
LINE
  5
337
330
1F
100
AcDbEntity
  8
ハッチ
  6
Continuous
 62
     6
370
     9
100
AcDbLine
 10
463.8807531779872
 20
326.7287653609703
 30
0.0
 11
463.8807531779872
 21
366.7287653609703
 31
0.0
  0
LINE
  5
338
330
1F
100
AcDbEntity
  8
躯体
  6
Continuous
 62
     2
370
     9
100
AcDbLine
 10
469.380650313718
 20
364.2288311092659
 30
0.0
 11
471.3809078278765
 21
364.2288311092659
 31
0.0
  0
LINE
  5
339
330
1F
100
AcDbEntity
  8
躯体
  6
Continuous
 62
     2
370
     9
100
AcDbLine
 10
466.8809115394739
 20
364.2288311092659
 30
0.0
 11
467.3806410052676
 21
364.2288311092659
 31
0.0
  0
LINE
  5
33A
330
1F
100
AcDbEntity
  8
躯体
  6
Continuous
 62
     2
370
     9
100
AcDbLine
 10
471.3809078278765
 20
364.2288311092659
 30
0.0
 11
471.3809078278765
 21
344.2287651253134
 31
0.0
  0
LINE
  5
33B
330
1F
100
AcDbEntity
  8
躯体
  6
JWW_DASHED1
 62
     2
370
     9
100
AcDbLine
 10
471.3806596221685
 20
356.4787714291376
 30
0.0
 11
469.380650313718
 21
356.4787714291376
 31
0.0
  0
LINE
  5
33C
330
1F
100
AcDbEntity
  8
躯体
  6
JWW_DASHED1
 62
     2
370
     9
100
AcDbLine
 10
469.1806295641214
 20
356.4787714291376
 30
0.0
 11
467.3806410052676
 21
358.2287176404332
 31
0.0
  0
LINE
  5
33D
330
1F
100
AcDbEntity
  8
躯体
  6
JWW_DASHED1
 62
     2
370
     9
100
AcDbLine
 10
469.1806295641214
 20
356.4787714291376
 30
0.0
 11
469.380699860597
 21
356.4787714291376
 31
0.0
  0
LINE
  5
33E
330
1F
100
AcDbEntity
  8
躯体
  6
JWW_DASHED1
 62
     2
370
     9
100
AcDbLine
 10
469.1806295641214
 20
351.9787752585632
 30
0.0
 11
469.380699860597
 21
351.9787752585632
 31
0.0
  0
LINE
  5
33F
330
1F
100
AcDbEntity
  8
躯体
  6
JWW_DASHED1
 62
     2
370
     9
100
AcDbLine
 10
469.1806295641214
 20
356.4787714291376
 30
0.0
 11
469.1806295641214
 21
351.9787752585632
 31
0.0
  0
LINE
  5
340
330
1F
100
AcDbEntity
  8
躯体
  6
JWW_DASHED1
 62
     2
370
     9
100
AcDbLine
 10
471.3806596221685
 20
351.9787752585632
 30
0.0
 11
469.380650313718
 21
351.9787752585632
 31
0.0
  0
LINE
  5
341
330
1F
100
AcDbEntity
  8
躯体
  6
JWW_DASHED1
 62
     2
370
     9
100
AcDbLine
 10
469.1806295641214
 20
351.9787752585632
 30
0.0
 11
467.3806410052676
 21
350.2288785941462
 31
0.0
  0
LINE
  5
342
330
1F
100
AcDbEntity
  8
躯体
  6
Continuous
 62
     2
370
     9
100
AcDbLine
 10
467.3806410052676
 20
344.2287515750374
 30
0.0
 11
469.380650313718
 21
344.2287515750374
 31
0.0
  0
LINE
  5
343
330
1F
100
AcDbEntity
  8
躯体
  6
Continuous
 62
     2
370
     9
100
AcDbLine
 10
469.380650313718
 20
374.2337963427924
 30
0.0
 11
469.380650313718
 21
344.2287515750374
 31
0.0
  0
LINE
  5
344
330
1F
100
AcDbEntity
  8
躯体
  6
Continuous
 62
     2
370
     9
100
AcDbLine
 10
467.3806410052676
 20
403.2287784399321
 30
0.0
 11
467.3806410052676
 21
344.2287515750374
 31
0.0
  0
ARC
  5
345
330
1F
100
AcDbEntity
  8
躯体
  6
Continuous
 62
     2
370
     9
100
AcDbCircle
 10
470.1806342183468
 20
377.2288060707122
 30
0.0
 40
3.000000414701042
100
AcDbArc
 50
270.0
 51
0.0
  0
ARC
  5
346
330
1F
100
AcDbEntity
  8
躯体
  6
Continuous
 62
     2
370
     9
100
AcDbCircle
 10
470.1806342183468
 20
400.2288140241351
 30
0.0
 40
3.000000414701042
100
AcDbArc
 50
0.0
 51
90.0
  0
LINE
  5
347
330
1F
100
AcDbEntity
  8
躯体
  6
Continuous
 62
     2
370
     9
100
AcDbLine
 10
473.1806481810223
 20
377.2288060707122
 30
0.0
 11
473.1806481810223
 21
400.2288140241351
 31
0.0
  0
LINE
  5
348
330
1F
100
AcDbEntity
  8
躯体
  6
Continuous
 62
     2
370
     9
100
AcDbLine
 10
470.1806342183468
 20
374.2287921080367
 30
0.0
 11
467.3806410052676
 21
374.2287921080367
 31
0.0
  0
LINE
  5
349
330
1F
100
AcDbEntity
  8
躯体
  6
Continuous
 62
     2
370
     9
100
AcDbLine
 10
470.1806342183468
 20
403.2287784399321
 30
0.0
 11
467.3806410052676
 21
403.2287784399321
 31
0.0
  0
LINE
  5
34A
330
1F
100
AcDbEntity
  8
躯体
  6
JWW_DASHED1
 62
     2
370
     9
100
AcDbLine
 10
469.380650313718
 20
403.2237742051764
 30
0.0
 11
469.380650313718
 21
374.2337963427924
 31
0.0
  0
LINE
  5
34B
330
1F
100
AcDbEntity
  8
躯体
  6
Continuous
 62
     2
370
     9
100
AcDbLine
 10
469.380650313718
 20
370.2287734911358
 30
0.0
 11
467.3806410052676
 21
370.2287734911358
 31
0.0
  0
LINE
  5
34C
330
1F
100
AcDbEntity
  8
躯体
  6
JWW_DASHED1
 62
     2
370
     9
100
AcDbLine
 10
469.380650313718
 20
388.9787988242604
 30
0.0
 11
467.3806410052676
 21
388.9787988242604
 31
0.0
  0
LINE
  5
34D
330
1F
100
AcDbEntity
  8
躯体
  6
JWW_DASHED1
 62
     2
370
     9
100
AcDbLine
 10
469.380650313718
 20
397.4787640648572
 30
0.0
 11
467.3806410052676
 21
397.4787640648572
 31
0.0
  0
LINE
  5
34E
330
1F
100
AcDbEntity
  8
躯体
  6
JWW_CENTER2
 62
     2
370
     9
100
AcDbLine
 10
474.92871237681
 20
354.2287981172897
 30
0.0
 11
465.8443366344905
 21
354.2287981172897
 31
0.0
  0
LINE
  5
34F
330
1F
100
AcDbEntity
  8
躯体
  6
Continuous
 62
     2
370
     9
100
AcDbLine
 10
467.3806410052676
 20
360.9789812227584
 30
0.0
 11
467.3806410052676
 21
364.2288311092659
 31
0.0
  0
LINE
  5
350
330
1F
100
AcDbEntity
  8
躯体
  6
Continuous
 62
     2
370
     9
100
AcDbLine
 10
469.3809445314501
 20
362.9787898692955
 30
0.0
 11
469.3809445314501
 21
364.2288311092659
 31
0.0
  0
LINE
  5
351
330
1F
100
AcDbEntity
  8
躯体
  6
Continuous
 62
     2
370
     9
100
AcDbLine
 10
467.3806410052676
 20
347.4789366835901
 30
0.0
 11
467.3806410052676
 21
344.2287651253134
 31
0.0
  0
LINE
  5
352
330
1F
100
AcDbEntity
  8
躯体
  6
Continuous
 62
     2
370
     9
100
AcDbLine
 10
469.3809445314501
 20
345.4788063652838
 30
0.0
 11
469.3809445314501
 21
344.2287651253134
 31
0.0
  0
LINE
  5
353
330
1F
100
AcDbEntity
  8
躯体
  6
Continuous
 62
     2
370
     9
100
AcDbLine
 10
466.8809115394739
 20
344.2287651253134
 30
0.0
 11
471.3809078278765
 21
344.2287651253134
 31
0.0
  0
LINE
  5
354
330
1F
100
AcDbEntity
  8
躯体
  6
Continuous
 62
     2
370
     9
100
AcDbLine
 10
467.3806410052676
 20
350.228661200588
 30
0.0
 11
467.180474560747
 21
350.228661200588
 31
0.0
  0
LINE
  5
355
330
1F
100
AcDbEntity
  8
躯体
  6
Continuous
 62
     2
370
     9
100
AcDbLine
 10
467.3806410052676
 20
358.2285391302755
 30
0.0
 11
467.180474560747
 21
358.2285391302755
 31
0.0
  0
LINE
  5
356
330
1F
100
AcDbEntity
  8
躯体
  6
Continuous
 62
     2
370
     9
100
AcDbLine
 10
467.180474560747
 20
358.2285391302755
 30
0.0
 11
467.180474560747
 21
354.2287981172897
 31
0.0
  0
LINE
  5
357
330
1F
100
AcDbEntity
  8
躯体
  6
Continuous
 62
     2
370
     9
100
AcDbLine
 10
467.180474560747
 20
350.228661200588
 30
0.0
 11
467.180474560747
 21
354.2287981172897
 31
0.0
  0
LINE
  5
358
330
1F
100
AcDbEntity
  8
躯体
  6
Continuous
 62
     2
370
     9
100
AcDbLine
 10
471.8806372936702
 20
356.9787453301276
 30
0.0
 11
471.3809078278765
 21
356.9787453301276
 31
0.0
  0
LINE
  5
359
330
1F
100
AcDbEntity
  8
躯体
  6
Continuous
 62
     2
370
     9
100
AcDbLine
 10
473.3805185225556
 20
355.2286034646293
 30
0.0
 11
471.8806372936702
 21
356.9787453301276
 31
0.0
  0
LINE
  5
35A
330
1F
100
AcDbEntity
  8
躯体
  6
Continuous
 62
     2
370
     9
100
AcDbLine
 10
473.3805185225556
 20
353.2288195620742
 30
0.0
 11
473.3805185225556
 21
355.2286034646293
 31
0.0
  0
LINE
  5
35B
330
1F
100
AcDbEntity
  8
躯体
  6
Continuous
 62
     2
370
     9
100
AcDbLine
 10
471.8806372936702
 20
351.4787271845405
 30
0.0
 11
473.3805185225556
 21
353.2288195620742
 31
0.0
  0
LINE
  5
35C
330
1F
100
AcDbEntity
  8
躯体
  6
Continuous
 62
     2
370
     9
100
AcDbLine
 10
471.8806372936702
 20
351.4787271845405
 30
0.0
 11
471.3809078278765
 21
351.4787271845405
 31
0.0
  0
LINE
  5
35D
330
1F
100
AcDbEntity
  8
躯体
  6
Continuous
 62
     2
370
     9
100
AcDbLine
 10
471.8806372936702
 20
351.4787271845405
 30
0.0
 11
471.8806372936702
 21
356.9787453301276
 31
0.0
  0
LINE
  5
35E
330
1F
100
AcDbEntity
  8
躯体
  6
Continuous
 62
     2
370
     9
100
AcDbLine
 10
466.8809115394739
 20
364.2288311092659
 30
0.0
 11
466.8809115394739
 21
344.2287651253134
 31
0.0
  0
LINE
  5
35F
330
1F
100
AcDbEntity
  8
躯体
  6
Continuous
 62
     2
370
     9
100
AcDbLine
 10
467.3806410052676
 20
360.9789812227584
 30
0.0
 11
467.3806410052676
 21
347.4789366835901
 31
0.0
  0
LINE
  5
360
330
1F
100
AcDbEntity
  8
躯体
  6
JWW_CENTER2
 62
     2
370
     9
100
AcDbLine
 10
471.3806596221685
 20
393.2287318976803
 30
0.0
 11
465.3806812436961
 21
393.2287318976803
 31
0.0
  0
LINE
  5
361
330
1F
100
AcDbEntity
  8
0-F
  6
Continuous
 62
     7
370
     9
100
AcDbLine
 10
469.380650313718
 20
403.2287784399321
 30
0.0
 11
473.4122368318768
 21
414.5312356823308
 31
0.0
  0
LINE
  5
362
330
1F
100
AcDbEntity
  8
0-F
  6
Continuous
 62
     7
370
     9
100
AcDbLine
 10
469.380650313718
 20
403.2287784399321
 30
0.0
 11
476.2001908014714
 21
413.1028150742227
 31
0.0
  0
LINE
  5
363
330
1F
100
AcDbEntity
  8
0-E
  6
Continuous
 62
     7
370
     9
100
AcDbLine
 10
490.7378499252247
 20
444.9083868770176
 30
0.0
 11
469.380650313718
 21
403.2287784399321
 31
0.0
  0
TEXT
  5
364
330
1F
100
AcDbEntity
  8
0-E
  6
Continuous
 62
     7
370
     9
100
AcDbText
 10
494.3452925204829
 20
431.7809189716122
 30
0.0
 40
9.144
  1
ＳＥＣＣ
 41
1.124999999999998
  7
ＭＳ ゴシック
100
AcDbText
  0
LINE
  5
365
330
1F
100
AcDbEntity
  8
0-E
  6
Continuous
 62
     7
370
     9
100
AcDbLine
 10
490.7378499252247
 20
444.9083868770176
 30
0.0
 11
655.9914481993252
 21
444.9083868770176
 31
0.0
  0
TEXT
  5
366
330
1F
100
AcDbEntity
  8
0-E
  6
Continuous
 62
     7
370
     9
100
AcDbText
 10
494.5372959252544
 20
452.0495066510884
 30
0.0
 40
9.144
  1
回転アンカー：ｔ＝２.０
 41
1.152173913043478
  7
ＭＳ ゴシック
100
AcDbText
  0
TEXT
  5
367
330
1F
100
AcDbEntity
  8
寸法
  6
Continuous
 62
     7
370
     9
100
AcDbText
 10
480.5372959252542
 20
491.8246236477701
 30
0.0
 40
9.144
  1
※
  7
ＭＳ ゴシック
100
AcDbText
  0
TEXT
  5
368
330
1F
100
AcDbEntity
  8
寸法
  6
Continuous
 62
     7
370
     9
100
AcDbText
 10
494.5372959252543
 20
491.8246236477701
 30
0.0
 40
9.144
  1
アンカーを回転・変形させることで
 41
1.15625
  7
ＭＳ ゴシック
100
AcDbText
  0
TEXT
  5
369
330
1F
100
AcDbEntity
  8
寸法
  6
Continuous
 62
     7
370
     9
100
AcDbText
 10
494.5372959252543
 20
476.6440566532017
 30
0.0
 40
9.144
  1
境界部・壁際用として使用できます
 41
1.15625
  7
ＭＳ ゴシック
100
AcDbText
  0
LINE
  5
36A
330
1F
100
AcDbEntity
  8
その他
  6
Continuous
 62
     7
370
     9
100
AcDbLine
 10
553.8811094913319
 20
373.228831344923
 30
0.0
 11
553.8811094913319
 21
403.2287784399321
 31
0.0
  0
LINE
  5
36B
330
1F
100
AcDbEntity
  8
その他
  6
Continuous
 62
     7
370
     9
100
AcDbLine
 10
553.8811094913319
 20
373.228831344923
 30
0.0
 11
552.5758475691314
 21
383.1432799586611
 31
0.0
  0
LINE
  5
36C
330
1F
100
AcDbEntity
  8
その他
  6
Continuous
 62
     7
370
     9
100
AcDbLine
 10
553.8811094913319
 20
373.228831344923
 30
0.0
 11
555.1863714135325
 21
383.1432799586611
 31
0.0
  0
LINE
  5
36D
330
1F
100
AcDbEntity
  8
その他
  6
Continuous
 62
     7
370
     9
100
AcDbLine
 10
553.8811094913319
 20
403.2287784399321
 30
0.0
 11
552.5758475691314
 21
393.314329826194
 31
0.0
  0
LINE
  5
36E
330
1F
100
AcDbEntity
  8
その他
  6
Continuous
 62
     7
370
     9
100
AcDbLine
 10
553.8811094913319
 20
403.2287784399321
 30
0.0
 11
555.1863714135325
 21
393.314329826194
 31
0.0
  0
LINE
  5
36F
330
1F
100
AcDbEntity
  8
その他
  6
Continuous
 62
     7
370
     9
100
AcDbLine
 10
555.081109491332
 20
403.2287784399321
 30
0.0
 11
475.3806410052676
 21
403.2287784399321
 31
0.0
  0
TEXT
  5
370
330
1F
100
AcDbEntity
  8
その他
  6
Continuous
 62
     2
370
   211
100
AcDbText
 10
547.625109491332
 20
379.7288048924275
 30
0.0
 40
12.192
  1
30
 50
90.0
 41
1.0625
  7
ＭＳ ゴシック
100
AcDbText
  0
LINE
  5
371
330
1F
100
AcDbEntity
  8
その他
  6
Continuous
 62
     7
370
     9
100
AcDbLine
 10
553.881010515403
 20
-56.77119823002727
 30
0.0
 11
553.881010515403
 21
-26.77125113501779
 31
0.0
  0
LINE
  5
372
330
1F
100
AcDbEntity
  8
その他
  6
Continuous
 62
     7
370
     9
100
AcDbLine
 10
553.881010515403
 20
-56.77119823002727
 30
0.0
 11
552.5757485932024
 21
-46.85674961628916
 31
0.0
  0
LINE
  5
373
330
1F
100
AcDbEntity
  8
その他
  6
Continuous
 62
     7
370
     9
100
AcDbLine
 10
553.881010515403
 20
-56.77119823002727
 30
0.0
 11
555.1862724376035
 21
-46.85674961628916
 31
0.0
  0
LINE
  5
374
330
1F
100
AcDbEntity
  8
その他
  6
Continuous
 62
     7
370
     9
100
AcDbLine
 10
553.881010515403
 20
-26.77125113501779
 30
0.0
 11
552.5757485932024
 21
-36.68569974875589
 31
0.0
  0
LINE
  5
375
330
1F
100
AcDbEntity
  8
その他
  6
Continuous
 62
     7
370
     9
100
AcDbLine
 10
553.881010515403
 20
-26.77125113501779
 30
0.0
 11
555.1862724376035
 21
-36.68569974875589
 31
0.0
  0
LINE
  5
376
330
1F
100
AcDbEntity
  8
その他
  6
Continuous
 62
     7
370
     9
100
AcDbLine
 10
555.081010515403
 20
-56.77119823002727
 30
0.0
 11
475.3806410052676
 21
-56.77119823002726
 31
0.0
  0
LINE
  5
377
330
1F
100
AcDbEntity
  8
その他
  6
Continuous
 62
     7
370
     9
100
AcDbLine
 10
552.6810105154029
 20
-26.77125113501779
 30
0.0
 11
547.0809946792542
 21
-26.77125113501779
 31
0.0
  0
TEXT
  5
378
330
1F
100
AcDbEntity
  8
その他
  6
Continuous
 62
     2
370
   211
100
AcDbText
 10
547.625010515403
 20
-50.27122468252253
 30
0.0
 40
12.192
  1
30
 50
90.0
 41
1.0625
  7
ＭＳ ゴシック
100
AcDbText
  0
LINE
  5
379
330
1F
100
AcDbEntity
  8
ハッチ
  6
Continuous
 62
     6
370
     9
100
AcDbLine
 10
460.8807531779872
 20
-20.27118515106508
 30
0.0
 11
463.8807531779872
 21
-20.27118515106508
 31
0.0
  0
LINE
  5
37A
330
1F
100
AcDbEntity
  8
ハッチ
  6
Continuous
 62
     6
370
     9
100
AcDbLine
 10
460.8807531779872
 20
17.41339303088967
 30
0.0
 11
463.1961749960324
 21
19.72881484893469
 31
0.0
  0
LINE
  5
37B
330
1F
100
AcDbEntity
  8
ハッチ
  6
Continuous
 62
     6
370
     9
100
AcDbLine
 10
460.8807531779876
 20
11.75653878139678
 30
0.0
 11
463.8807531779876
 21
14.75653878139701
 31
0.0
  0
LINE
  5
37C
330
1F
100
AcDbEntity
  8
ハッチ
  6
Continuous
 62
     6
370
     9
100
AcDbLine
 10
460.8807531779867
 20
6.09968453190254
 30
0.0
 11
463.8807531779867
 21
9.09968453190254
 31
0.0
  0
LINE
  5
37D
330
1F
100
AcDbEntity
  8
ハッチ
  6
Continuous
 62
     6
370
     9
100
AcDbLine
 10
460.8807531779872
 20
0.4428302824098864
 30
0.0
 11
463.8807531779872
 21
3.442830282409886
 31
0.0
  0
LINE
  5
37E
330
1F
100
AcDbEntity
  8
ハッチ
  6
Continuous
 62
     6
370
     9
100
AcDbLine
 10
460.8807531779867
 20
-5.214023967084131
 30
0.0
 11
463.8807531779872
 21
-2.214023967083904
 31
0.0
  0
LINE
  5
37F
330
1F
100
AcDbEntity
  8
ハッチ
  6
Continuous
 62
     6
370
     9
100
AcDbLine
 10
460.8807531779872
 20
-10.87087821657701
 30
0.0
 11
463.8807531779854
 21
-7.870878216578831
 31
0.0
  0
LINE
  5
380
330
1F
100
AcDbEntity
  8
ハッチ
  6
Continuous
 62
     6
370
     9
100
AcDbLine
 10
460.8807531779863
 20
-16.52773246606421
 30
0.0
 11
463.8807531779863
 21
-13.52773246606398
 31
0.0
  0
LINE
  5
381
330
1F
100
AcDbEntity
  8
ハッチ
  6
Continuous
 62
     6
370
     9
100
AcDbLine
 10
462.794154742479
 20
-20.27118515106463
 30
0.0
 11
463.8807531779867
 21
-19.18458671555686
 31
0.0
  0
LINE
  5
382
330
1F
100
AcDbEntity
  8
ハッチ
  6
Continuous
 62
     6
370
     9
100
AcDbLine
 10
460.8807531779872
 20
19.72881484893492
 30
0.0
 11
460.8807531779872
 21
-20.27118515106508
 31
0.0
  0
LINE
  5
383
330
1F
100
AcDbEntity
  8
ハッチ
  6
Continuous
 62
     6
370
     9
100
AcDbLine
 10
463.8807531779872
 20
19.72881484893492
 30
0.0
 11
460.8807531779872
 21
19.72881484893492
 31
0.0
  0
LINE
  5
384
330
1F
100
AcDbEntity
  8
ハッチ
  6
Continuous
 62
     6
370
     9
100
AcDbLine
 10
463.8807531779872
 20
-20.27118515106508
 30
0.0
 11
463.8807531779872
 21
19.72881484893492
 31
0.0
  0
LINE
  5
385
330
1F
100
AcDbEntity
  8
その他
  6
Continuous
 62
     7
370
     9
100
AcDbLine
 10
473.3805185225556
 20
-127.7714517262339
 30
0.0
 11
473.3805185225556
 21
-15.77121790738443
 31
0.0
  0
LINE
  5
386
330
1F
100
AcDbEntity
  8
その他
  6
Continuous
 62
     7
370
     9
100
AcDbLine
 10
473.3805185225556
 20
-126.5714517262338
 30
0.0
 11
483.294967136294
 21
-125.2661898040333
 31
0.0
  0
LINE
  5
387
330
1F
100
AcDbEntity
  8
その他
  6
Continuous
 62
     7
370
     9
100
AcDbLine
 10
473.3805185225556
 20
-126.5714517262338
 30
0.0
 11
483.294967136294
 21
-127.8767136484344
 31
0.0
  0
LINE
  5
388
330
1F
100
AcDbEntity
  8
その他
  6
Continuous
 62
     7
370
     9
100
AcDbLine
 10
466.8809115394739
 20
-126.5714517262338
 30
0.0
 11
456.9664629257359
 21
-125.2661898040333
 31
0.0
  0
LINE
  5
389
330
1F
100
AcDbEntity
  8
その他
  6
Continuous
 62
     7
370
     9
100
AcDbLine
 10
466.8809115394739
 20
-126.5714517262338
 30
0.0
 11
456.9664629257359
 21
-127.8767136484344
 31
0.0
  0
LINE
  5
38A
330
1F
100
AcDbEntity
  8
その他
  6
Continuous
 62
     7
370
     9
100
AcDbLine
 10
466.8809115394739
 20
-126.5714517262338
 30
0.0
 11
473.3805185225556
 21
-126.5714517262338
 31
0.0
  0
TEXT
  5
38B
330
1F
100
AcDbEntity
  8
その他
  6
Continuous
 62
     2
370
     9
100
AcDbText
 10
422.3810006178101
 20
-82.31541213586215
 30
0.0
 40
12.192
  1
60
 41
1.0625
  7
ＭＳ ゴシック
100
AcDbText
  0
LINE
  5
38C
330
1F
100
AcDbEntity
  8
その他
  6
Continuous
 62
     7
370
     9
100
AcDbLine
 10
400.8809511298455
 20
-126.5714517262338
 30
0.0
 11
412.7782537058593
 21
-128.1377458035142
 31
0.0
  0
LINE
  5
38D
330
1F
100
AcDbEntity
  8
その他
  6
Continuous
 62
     7
370
     9
100
AcDbLine
 10
400.8809511298455
 20
-126.5714517262338
 30
0.0
 11
412.7782537058593
 21
-125.0051576489534
 31
0.0
  0
LINE
  5
38E
330
1F
100
AcDbEntity
  8
その他
  6
Continuous
 62
     7
370
     9
100
AcDbLine
 10
460.8809511298455
 20
-86.57141873425758
 30
0.0
 11
448.9836485538322
 21
-88.137712811538
 31
0.0
  0
LINE
  5
38F
330
1F
100
AcDbEntity
  8
その他
  6
Continuous
 62
     7
370
     9
100
AcDbLine
 10
460.8809511298455
 20
-86.57141873425758
 30
0.0
 11
448.9836485538322
 21
-85.00512465697716
 31
0.0
  0
LINE
  5
390
330
1F
100
AcDbEntity
  8
その他
  6
Continuous
 62
     7
370
     9
100
AcDbLine
 10
400.8809511298455
 20
-86.57141873425758
 30
0.0
 11
412.7782537058593
 21
-88.137712811538
 31
0.0
  0
LINE
  5
391
330
1F
100
AcDbEntity
  8
その他
  6
Continuous
 62
     7
370
     9
100
AcDbLine
 10
400.8809511298455
 20
-86.57141873425758
 30
0.0
 11
412.7782537058593
 21
-85.00512465697716
 31
0.0
  0
LINE
  5
392
330
1F
100
AcDbEntity
  8
その他
  6
Continuous
 62
     7
370
     9
100
AcDbLine
 10
460.8809511298455
 20
-31.7713171189705
 30
0.0
 11
460.8809511298455
 21
-87.77140289810882
 31
0.0
  0
LINE
  5
393
330
1F
100
AcDbEntity
  8
その他
  6
Continuous
 62
     7
370
     9
100
AcDbLine
 10
400.8809511298455
 20
-34.77127752859883
 30
0.0
 11
400.8809511298455
 21
-127.7714358900853
 31
0.0
  0
LINE
  5
394
330
1F
100
AcDbEntity
  8
その他
  6
Continuous
 62
     7
370
     9
100
AcDbLine
 10
400.8809511298455
 20
-86.57141873425758
 30
0.0
 11
460.8809511298455
 21
-86.57141873425758
 31
0.0
  0
LINE
  5
395
330
1F
100
AcDbEntity
  8
その他
  6
Continuous
 62
     7
370
     9
100
AcDbLine
 10
466.8809115394739
 20
-60.80718410950362
 30
0.0
 11
466.8809115394739
 21
-127.7714358900853
 31
0.0
  0
LINE
  5
396
330
1F
100
AcDbEntity
  8
その他
  6
Continuous
 62
     7
370
     9
100
AcDbLine
 10
466.8809115394739
 20
-126.5714517262338
 30
0.0
 11
454.9836089634601
 21
-128.1377458035142
 31
0.0
  0
LINE
  5
397
330
1F
100
AcDbEntity
  8
その他
  6
Continuous
 62
     7
370
     9
100
AcDbLine
 10
466.8809115394739
 20
-126.5714517262338
 30
0.0
 11
454.9836089634601
 21
-125.0051576489534
 31
0.0
  0
LINE
  5
398
330
1F
100
AcDbEntity
  8
その他
  6
Continuous
 62
     7
370
     9
100
AcDbLine
 10
400.8809511298455
 20
-126.5714517262338
 30
0.0
 11
466.8809115394739
 21
-126.5714517262338
 31
0.0
  0
TEXT
  5
399
330
1F
100
AcDbEntity
  8
その他
  6
Continuous
 62
     2
370
   211
100
AcDbText
 10
425.3809313346597
 20
-122.3154451278386
 30
0.0
 40
12.192
  1
66
 41
1.0625
  7
ＭＳ ゴシック
100
AcDbText
  0
TEXT
  5
39A
330
1F
100
AcDbEntity
  8
その他
  6
Continuous
 62
     2
370
   211
100
AcDbText
 10
478.7530018308076
 20
-121.9154517262337
 30
0.0
 40
12.192
  1
6.5
 41
1.083333333333336
  7
ＭＳ ゴシック
100
AcDbText
  0
LINE
  5
39B
330
1F
100
AcDbEntity
  8
その他
  6
Continuous
 62
     7
370
     9
100
AcDbLine
 10
473.3805185225556
 20
-126.5714517262338
 30
0.0
 11
505.8387241834226
 21
-126.5714517262338
 31
0.0
  0
LINE
  5
39C
330
1F
100
AcDbEntity
  8
0-E
  6
Continuous
 62
     7
370
     9
100
AcDbLine
 10
462.3807531779872
 20
19.72881484893492
 30
0.0
 11
473.363320217683
 21
24.56438283879993
 31
0.0
  0
LINE
  5
39D
330
1F
100
AcDbEntity
  8
0-E
  6
Continuous
 62
     7
370
     9
100
AcDbLine
 10
462.3807531779872
 20
19.72881484893492
 30
0.0
 11
474.240642852818
 21
21.5570982104216
 31
0.0
  0
LINE
  5
39E
330
1F
100
AcDbEntity
  8
0-E
  6
Continuous
 62
     7
370
     9
100
AcDbLine
 10
577.0237272723106
 20
53.17346768649213
 30
0.0
 11
462.3807531779872
 21
19.72881484893492
 31
0.0
  0
TEXT
  5
39F
330
1F
100
AcDbEntity
  8
0-E
  6
Continuous
 62
     7
370
     9
100
AcDbText
 10
580.789382955718
 20
38.61050239405107
 30
0.0
 40
9.144
  1
クロロプレンゴム
 41
1.145833333333333
  7
ＭＳ ゴシック
100
AcDbText
  0
TEXT
  5
3A0
330
1F
100
AcDbEntity
  8
0-E
  6
Continuous
 62
     7
370
     9
100
AcDbText
 10
581.7708216698228
 20
60.68822159274213
 30
0.0
 40
9.144
  1
クッション：ｔ＝３．０
 41
1.151515151515152
  7
ＭＳ ゴシック
100
AcDbText
  0
LINE
  5
3A1
330
1F
100
AcDbEntity
  8
0-E
  6
Continuous
 62
     7
370
     9
100
AcDbLine
 10
577.0237272723106
 20
53.17346768649213
 30
0.0
 11
733.6710166728454
 21
53.17346768649213
 31
0.0
  0
TEXT
  5
3A2
330
1F
100
AcDbEntity
  8
寸法
  6
Continuous
 62
     2
370
     9
100
AcDbText
 10
315.2376693996021
 20
-309.9783051632464
 30
0.0
 40
12.192
  1
仕様
 41
1.0625
  7
ＭＳ ゴシック
100
AcDbText
  0
TEXT
  5
3A3
330
1F
100
AcDbEntity
  8
寸法
  6
Continuous
 62
     2
370
     9
100
AcDbText
 10
315.237679297195
 20
-333.9782853680607
 30
0.0
 40
12.192
  1
適用荷重：Ｔ－１４
 41
1.111111111111111
  7
ＭＳ ゴシック
100
AcDbText
  0
TEXT
  5
3A4
330
1F
100
AcDbEntity
  8
寸法
  6
Continuous
 62
     2
370
     9
100
AcDbText
 10
315.237679297195
 20
-381.9782952656536
 30
0.0
 40
12.192
  1
接触圧子：２００×５００ｍｍ
 41
1.116071428571429
  7
ＭＳ ゴシック
100
AcDbText
  0
TEXT
  5
3A5
330
1F
100
AcDbEntity
  8
寸法
  6
Continuous
 62
     2
370
     9
100
AcDbText
 10
315.237887146646
 20
-405.9783249584323
 30
0.0
 40
12.192
  1
蓋 質 量：１７．０ｋｇ
 41
1.113636363636364
  7
ＭＳ ゴシック
100
AcDbText
  0
TEXT
  5
3A6
330
1F
100
AcDbEntity
  8
寸法
  6
Continuous
 62
     2
370
     9
100
AcDbText
 10
315.2376891947879
 20
-357.9783150608393
 30
0.0
 40
12.192
  1
破壊荷重：２４２ｋＮ｛２４，７００ｋｇｆ｝以上
 41
1.119565217391304
  7
ＭＳ ゴシック
100
AcDbText
  0
TEXT
  5
3A7
330
1F
100
AcDbEntity
  8
F-5ﾚｲﾔ
  6
Continuous
 62
     2
370
     9
100
AcDbText
 10
-309.3628001271063
 20
-528.4488751053836
 30
0.0
 40
12.192
  1
タイル用　充填深さ４０ｍｍ　ステンレス目地　側溝用　カラー舗装用みぞ蓋　
 41
0.7743055555555558
  7
ＭＳ ゴシック
100
AcDbText
  0
ENDSEC
  0
SECTION
  2
OBJECTS
  0
DICTIONARY
  5
C
330
0
100
AcDbDictionary
281
     1
  3
ACAD_GROUP
350
D
  3
ACAD_LAYOUT
350
1A
  3
ACAD_MLEADERSTYLE
350
3A9
  3
ACAD_MLINESTYLE
350
17
  3
ACAD_PLOTSETTINGS
350
19
  3
ACAD_PLOTSTYLENAME
350
E
  3
ACAD_TABLESTYLE
350
3A8
  3
ACAD_VISUALSTYLE
350
2A
  0
DICTIONARY
  5
D
102
{ACAD_REACTORS
330
C
102
}
330
C
100
AcDbDictionary
281
     1
  0
DICTIONARY
  5
1A
102
{ACAD_REACTORS
330
C
102
}
330
C
100
AcDbDictionary
281
     1
  3
Layout1
350
1E
  3
Layout2
350
26
  3
Model
350
22
  0
DICTIONARY
  5
3A9
102
{ACAD_REACTORS
330
C
102
}
330
C
100
AcDbDictionary
281
     1
  0
DICTIONARY
  5
17
102
{ACAD_REACTORS
330
C
102
}
330
C
100
AcDbDictionary
281
     1
  3
Standard
350
18
  0
DICTIONARY
  5
19
102
{ACAD_REACTORS
330
C
102
}
330
C
100
AcDbDictionary
281
     1
  0
ACDBDICTIONARYWDFLT
  5
E
102
{ACAD_REACTORS
330
C
102
}
330
C
100
AcDbDictionary
281
     1
  3
Normal
350
F
100
AcDbDictionaryWithDefault
340
F
  0
DICTIONARY
  5
3A8
102
{ACAD_REACTORS
330
C
102
}
330
C
100
AcDbDictionary
281
     1
  0
DICTIONARY
  5
2A
102
{ACAD_REACTORS
330
C
102
}
330
C
100
AcDbDictionary
281
     1
  3
2dWireframe
350
2F
  3
3D Hidden
350
31
  3
3dWireframe
350
30
  3
Basic
350
32
  3
Brighten
350
36
  3
ColorChange
350
3A
  3
Conceptual
350
34
  3
Dim
350
35
  3
Facepattern
350
39
  3
Flat
350
2B
  3
FlatWithEdges
350
2C
  3
Gouraud
350
2D
  3
GouraudWithEdges
350
2E
  3
Linepattern
350
38
  3
Realistic
350
33
  3
Thicken
350
37
  0
LAYOUT
  5
1E
102
{ACAD_REACTORS
330
1A
102
}
330
1A
100
AcDbPlotSettings
  1

  2
none_device
  4

  6

 40
0.0
 41
0.0
 42
0.0
 43
0.0
 44
0.0
 45
0.0
 46
0.0
 47
0.0
 48
0.0
 49
0.0
140
0.0
141
0.0
142
1.0
143
1.0
 70
   688
 72
     0
 73
     0
 74
     5
  7

 75
    16
 76
     0
 77
     5
 78
   300
147
1.0
148
0.0
149
0.0
100
AcDbLayout
  1
Layout1
 70
     1
 71
     1
 10
0.0
 20
0.0
 11
420.0
 21
297.0
 12
0.0
 22
0.0
 32
0.0
 14
1.000000000000000E+20
 24
1.000000000000000E+20
 34
1.000000000000000E+20
 15
-1.000000000000000E+20
 25
-1.000000000000000E+20
 35
-1.000000000000000E+20
146
0.0
 13
0.0
 23
0.0
 33
0.0
 16
1.0
 26
0.0
 36
0.0
 17
0.0
 27
1.0
 37
0.0
 76
     0
330
1B
  0
LAYOUT
  5
26
102
{ACAD_REACTORS
330
1A
102
}
330
1A
100
AcDbPlotSettings
  1

  2
none_device
  4

  6

 40
0.0
 41
0.0
 42
0.0
 43
0.0
 44
0.0
 45
0.0
 46
0.0
 47
0.0
 48
0.0
 49
0.0
140
0.0
141
0.0
142
1.0
143
1.0
 70
   688
 72
     0
 73
     0
 74
     5
  7

 75
    16
 76
     0
 77
     5
 78
   300
147
1.0
148
0.0
149
0.0
100
AcDbLayout
  1
Layout2
 70
     1
 71
     2
 10
0.0
 20
0.0
 11
0.0
 21
0.0
 12
0.0
 22
0.0
 32
0.0
 14
0.0
 24
0.0
 34
0.0
 15
0.0
 25
0.0
 35
0.0
146
0.0
 13
0.0
 23
0.0
 33
0.0
 16
1.0
 26
0.0
 36
0.0
 17
0.0
 27
1.0
 37
0.0
 76
     0
330
23
  0
LAYOUT
  5
22
102
{ACAD_REACTORS
330
1A
102
}
330
1A
100
AcDbPlotSettings
  1

  2
none_device
  4

  6

 40
0.0
 41
0.0
 42
0.0
 43
0.0
 44
0.0
 45
0.0
 46
0.0
 47
0.0
 48
0.0
 49
0.0
140
0.0
141
0.0
142
1.0
143
1.0
 70
  1712
 72
     0
 73
     0
 74
     0
  7

 75
     0
 76
     0
 77
     5
 78
   300
147
1.0
148
0.0
149
0.0
100
AcDbLayout
  1
Model
 70
     1
 71
     0
 10
-840.0
 20
-594.0
 11
840.0
 21
594.0
 12
0.0
 22
0.0
 32
0.0
 14
-840.0
 24
-594.0
 34
0.0
 15
840.0
 25
594.0
 35
0.0
146
0.0
 13
0.0
 23
0.0
 33
0.0
 16
1.0
 26
0.0
 36
0.0
 17
0.0
 27
1.0
 37
0.0
 76
     0
330
1F
331
29
  0
MLINESTYLE
  5
18
102
{ACAD_REACTORS
330
17
102
}
330
17
100
AcDbMlineStyle
  2
Standard
 70
     0
  3

 62
   256
 51
90.0
 52
90.0
 71
     2
 49
0.5
 62
   256
  6
BYLAYER
 49
-0.5
 62
   256
  6
BYLAYER
  0
ACDBPLACEHOLDER
  5
F
102
{ACAD_REACTORS
330
E
102
}
330
E
  0
VISUALSTYLE
  5
2F
102
{ACAD_REACTORS
330
2A
102
}
330
2A
100
AcDbVisualStyle
  2
2dWireframe
 70
     4
 71
     0
 72
     2
 73
     0
 90
        0
 40
-0.6
 41
-30.0
 62
     5
 63
     7
421
 16777215
 74
     1
 91
        4
 64
     7
 65
   257
 75
     1
175
     1
 42
1.0
 92
        0
 66
   257
 43
1.0
 76
     1
 77
     6
 78
     2
 67
     7
 79
     5
170
     0
171
     0
290
     0
174
     0
 93
        1
 44
0.0
173
     0
291
     0
 45
0.0
1001
ACAD
1000
AcDbSavedByObjectVersion
1070
     0
  0
VISUALSTYLE
  5
31
102
{ACAD_REACTORS
330
2A
102
}
330
2A
100
AcDbVisualStyle
  2
3D Hidden
 70
     6
 71
     1
 72
     2
 73
     2
 90
        0
 40
-0.6
 41
-30.0
 62
     5
 63
     7
421
 16777215
 74
     2
 91
        2
 64
     7
 65
   257
 75
     2
175
     1
 42
40.0
 92
        0
 66
   257
 43
1.0
 76
     1
 77
     6
 78
     2
 67
     7
 79
     3
170
     0
171
     0
290
     0
174
     0
 93
        1
 44
0.0
173
     0
291
     0
 45
0.0
1001
ACAD
1000
AcDbSavedByObjectVersion
1070
     0
  0
VISUALSTYLE
  5
30
102
{ACAD_REACTORS
330
2A
102
}
330
2A
100
AcDbVisualStyle
  2
3dWireframe
 70
     5
 71
     0
 72
     2
 73
     0
 90
        0
 40
-0.6
 41
-30.0
 62
     5
 63
     7
421
 16777215
 74
     1
 91
        4
 64
     7
 65
   257
 75
     1
175
     1
 42
1.0
 92
        0
 66
   257
 43
1.0
 76
     1
 77
     6
 78
     2
 67
     7
 79
     5
170
     0
171
     0
290
     0
174
     0
 93
        1
 44
0.0
173
     0
291
     0
 45
0.0
1001
ACAD
1000
AcDbSavedByObjectVersion
1070
     0
  0
VISUALSTYLE
  5
32
102
{ACAD_REACTORS
330
2A
102
}
330
2A
100
AcDbVisualStyle
  2
Basic
 70
     7
 71
     1
 72
     0
 73
     1
 90
        0
 40
-0.6
 41
-30.0
 62
     5
 63
     7
421
 16777215
 74
     0
 91
        4
 64
     7
 65
   257
 75
     1
175
     1
 42
1.0
 92
        8
 66
     7
 43
1.0
 76
     1
 77
     6
 78
     2
 67
     7
 79
     5
170
     0
171
     0
290
     0
174
     0
 93
        1
 44
0.0
173
     0
291
     1
 45
0.0
1001
ACAD
1000
AcDbSavedByObjectVersion
1070
     0
  0
VISUALSTYLE
  5
36
102
{ACAD_REACTORS
330
2A
102
}
330
2A
100
AcDbVisualStyle
  2
Brighten
 70
    12
 71
     2
 72
     2
 73
     0
 90
        0
 40
-0.6
 41
-30.0
 62
     5
 63
     7
421
 16777215
 74
     1
 91
        4
 64
     7
 65
   257
 75
     1
175
     1
 42
1.0
 92
        8
 66
     7
 43
1.0
 76
     1
 77
     6
 78
     2
 67
     7
 79
     5
170
     0
171
     0
290
     0
174
     0
 93
        1
 44
50.0
173
     0
291
     1
 45
0.0
1001
ACAD
1000
AcDbSavedByObjectVersion
1070
     0
  0
VISUALSTYLE
  5
3A
102
{ACAD_REACTORS
330
2A
102
}
330
2A
100
AcDbVisualStyle
  2
ColorChange
 70
    16
 71
     2
 72
     2
 73
     3
 90
        0
 40
-0.6
 41
-30.0
 62
     5
 63
     8
421
  8421504
 74
     1
 91
        4
 64
     7
 65
   257
 75
     1
175
     1
 42
1.0
 92
        8
 66
     8
424
  8421504
 43
1.0
 76
     1
 77
     6
 78
     2
 67
     7
 79
     5
170
     0
171
     0
290
     0
174
     0
 93
        1
 44
0.0
173
     0
291
     1
 45
0.0
1001
ACAD
1000
AcDbSavedByObjectVersion
1070
     0
  0
VISUALSTYLE
  5
34
102
{ACAD_REACTORS
330
2A
102
}
330
2A
100
AcDbVisualStyle
  2
Conceptual
 70
     9
 71
     3
 72
     2
 73
     0
 90
        0
 40
-0.6
 41
-30.0
 62
     5
 63
     7
421
 16777215
 74
     2
 91
        2
 64
     7
 65
   257
 75
     1
175
     1
 42
40.0
 92
        8
 66
     7
 43
1.0
 76
     1
 77
     6
 78
     2
 67
     7
 79
     3
170
     0
171
     0
290
     0
174
     0
 93
        1
 44
0.0
173
     0
291
     0
 45
0.0
1001
ACAD
1000
AcDbSavedByObjectVersion
1070
     0
  0
VISUALSTYLE
  5
35
102
{ACAD_REACTORS
330
2A
102
}
330
2A
100
AcDbVisualStyle
  2
Dim
 70
    11
 71
     2
 72
     2
 73
     0
 90
        0
 40
-0.6
 41
-30.0
 62
     5
 63
     7
421
 16777215
 74
     1
 91
        4
 64
     7
 65
   257
 75
     1
175
     1
 42
1.0
 92
        8
 66
     7
 43
1.0
 76
     1
 77
     6
 78
     2
 67
     7
 79
     5
170
     0
171
     0
290
     0
174
     0
 93
        1
 44
-50.0
173
     0
291
     1
 45
0.0
1001
ACAD
1000
AcDbSavedByObjectVersion
1070
     0
  0
VISUALSTYLE
  5
39
102
{ACAD_REACTORS
330
2A
102
}
330
2A
100
AcDbVisualStyle
  2
Facepattern
 70
    15
 71
     2
 72
     2
 73
     0
 90
        0
 40
-0.6
 41
-30.0
 62
     5
 63
     7
421
 16777215
 74
     1
 91
        4
 64
     7
 65
   257
 75
     1
175
     1
 42
1.0
 92
        8
 66
     7
 43
1.0
 76
     1
 77
     6
 78
     2
 67
     7
 79
     5
170
     0
171
     0
290
     0
174
     0
 93
        1
 44
0.0
173
     0
291
     1
 45
0.0
1001
ACAD
1000
AcDbSavedByObjectVersion
1070
     0
  0
VISUALSTYLE
  5
2B
102
{ACAD_REACTORS
330
2A
102
}
330
2A
100
AcDbVisualStyle
  2
Flat
 70
     0
 71
     2
 72
     1
 73
     1
 90
        2
 40
-0.6
 41
30.0
 62
     5
 63
     7
421
 16777215
 74
     0
 91
        4
 64
     7
 65
   257
 75
     1
175
     1
 42
1.0
 92
        8
 66
     7
 43
1.0
 76
     1
 77
     6
 78
     2
 67
     7
 79
     5
170
     0
171
     0
290
     0
174
     0
 93
       13
 44
0.0
173
     0
291
     1
 45
0.0
1001
ACAD
1000
AcDbSavedByObjectVersion
1070
     0
  0
VISUALSTYLE
  5
2C
102
{ACAD_REACTORS
330
2A
102
}
330
2A
100
AcDbVisualStyle
  2
FlatWithEdges
 70
     1
 71
     2
 72
     1
 73
     1
 90
        2
 40
-0.6
 41
30.0
 62
     5
 63
     7
421
 16777215
 74
     1
 91
        4
 64
     7
 65
   257
 75
     1
175
     1
 42
1.0
 92
        0
 66
   257
 43
1.0
 76
     1
 77
     6
 78
     2
 67
     7
 79
     5
170
     0
171
     0
290
     0
174
     0
 93
       13
 44
0.0
173
     0
291
     1
 45
0.0
1001
ACAD
1000
AcDbSavedByObjectVersion
1070
     0
  0
VISUALSTYLE
  5
2D
102
{ACAD_REACTORS
330
2A
102
}
330
2A
100
AcDbVisualStyle
  2
Gouraud
 70
     2
 71
     2
 72
     2
 73
     1
 90
        2
 40
-0.6
 41
30.0
 62
     5
 63
     7
421
 16777215
 74
     0
 91
        4
 64
     7
 65
   257
 75
     1
175
     1
 42
1.0
 92
        0
 66
     7
 43
1.0
 76
     1
 77
     6
 78
     2
 67
     7
 79
     5
170
     0
171
     0
290
     0
174
     0
 93
       13
 44
0.0
173
     0
291
     1
 45
0.0
1001
ACAD
1000
AcDbSavedByObjectVersion
1070
     0
  0
VISUALSTYLE
  5
2E
102
{ACAD_REACTORS
330
2A
102
}
330
2A
100
AcDbVisualStyle
  2
GouraudWithEdges
 70
     3
 71
     2
 72
     2
 73
     1
 90
        2
 40
-0.6
 41
30.0
 62
     5
 63
     7
421
 16777215
 74
     1
 91
        4
 64
     7
 65
   257
 75
     1
175
     1
 42
1.0
 92
        0
 66
   257
 43
1.0
 76
     1
 77
     6
 78
     2
 67
     7
 79
     5
170
     0
171
     0
290
     0
174
     0
 93
       13
 44
0.0
173
     0
291
     1
 45
0.0
1001
ACAD
1000
AcDbSavedByObjectVersion
1070
     0
  0
VISUALSTYLE
  5
38
102
{ACAD_REACTORS
330
2A
102
}
330
2A
100
AcDbVisualStyle
  2
Linepattern
 70
    14
 71
     2
 72
     2
 73
     0
 90
        0
 40
-0.6
 41
-30.0
 62
     5
 63
     7
421
 16777215
 74
     1
 91
        4
 64
     7
 65
   257
 75
     7
175
     7
 42
1.0
 92
        8
 66
     7
 43
1.0
 76
     1
 77
     6
 78
     2
 67
     7
 79
     5
170
     0
171
     0
290
     0
174
     0
 93
        1
 44
0.0
173
     0
291
     1
 45
0.0
1001
ACAD
1000
AcDbSavedByObjectVersion
1070
     0
  0
VISUALSTYLE
  5
33
102
{ACAD_REACTORS
330
2A
102
}
330
2A
100
AcDbVisualStyle
  2
Realistic
 70
     8
 71
     2
 72
     2
 73
     0
 90
        0
 40
-0.6
 41
-30.0
 62
     5
 63
     7
421
 16777215
 74
     1
 91
        0
 64
     7
 65
   257
 75
     1
175
     1
 42
1.0
 92
        8
 66
     8
424
  7895160
 43
1.0
 76
     1
 77
     6
 78
     2
 67
     7
 79
     5
170
     0
171
     0
290
     0
174
     0
 93
       13
 44
0.0
173
     0
291
     0
 45
0.0
1001
ACAD
1000
AcDbSavedByObjectVersion
1070
     0
  0
VISUALSTYLE
  5
37
102
{ACAD_REACTORS
330
2A
102
}
330
2A
100
AcDbVisualStyle
  2
Thicken
 70
    13
 71
     2
 72
     2
 73
     0
 90
        0
 40
-0.6
 41
-30.0
 62
     5
 63
     7
421
 16777215
 74
     1
 91
        4
 64
     7
 65
   257
 75
     1
175
     1
 42
1.0
 92
       12
 66
     7
 43
1.0
 76
     1
 77
     6
 78
     2
 67
     7
 79
     5
170
     0
171
     0
290
     0
174
     0
 93
        1
 44
0.0
173
     0
291
     1
 45
0.0
1001
ACAD
1000
AcDbSavedByObjectVersion
1070
     0
  0
ENDSEC
  0
EOF
