  0
SECTION
  2
HEADER
  9
$ACADVER
  1
AC1018
  9
$ACADMAINTVER
 70
     0
  9
$DWGCODEPAGE
  3
ANSI_932
  9
$INSBASE
 10
0.0
 20
0.0
 30
0.0
  9
$EXTMIN
 10
-840.0
 20
-594.0
 30
0.0
  9
$EXTMAX
 10
840.0
 20
594.0
 30
0.0
  9
$LIMMIN
 10
-840.0
 20
-594.0
  9
$LIMMAX
 10
840.0
 20
594.0
  9
$ORTHOMODE
 70
     0
  9
$REGENMODE
 70
     1
  9
$FILLMODE
 70
     1
  9
$QTEXTMODE
 70
     0
  9
$MIRRTEXT
 70
     1
  9
$LTSCALE
 40
4.0
  9
$ATTMODE
 70
     1
  9
$TEXTSIZE
 40
2.5
  9
$TRACEWID
 40
1.0
  9
$TEXTSTYLE
  7
Standard
  9
$CLAYER
  8
0
  9
$CELTYPE
  6
ByLayer
  9
$CECOLOR
 62
   256
  9
$CELTSCALE
 40
1.0
  9
$DISPSILH
 70
     0
  9
$DIMSCALE
 40
1.0
  9
$DIMASZ
 40
2.5
  9
$DIMEXO
 40
0.625
  9
$DIMDLI
 40
3.75
  9
$DIMRND
 40
0.0
  9
$DIMDLE
 40
0.0
  9
$DIMEXE
 40
1.25
  9
$DIMTP
 40
0.0
  9
$DIMTM
 40
0.0
  9
$DIMTXT
 40
2.5
  9
$DIMCEN
 40
2.5
  9
$DIMTSZ
 40
0.0
  9
$DIMTOL
 70
     0
  9
$DIMLIM
 70
     0
  9
$DIMTIH
 70
     0
  9
$DIMTOH
 70
     0
  9
$DIMSE1
 70
     0
  9
$DIMSE2
 70
     0
  9
$DIMTAD
 70
     1
  9
$DIMZIN
 70
     8
  9
$DIMBLK
  1

  9
$DIMASO
 70
     1
  9
$DIMSHO
 70
     1
  9
$DIMPOST
  1

  9
$DIMAPOST
  1

  9
$DIMALT
 70
     0
  9
$DIMALTD
 70
     3
  9
$DIMALTF
 40
0.03937007874016
  9
$DIMLFAC
 40
1.0
  9
$DIMTOFL
 70
     1
  9
$DIMTVP
 40
0.0
  9
$DIMTIX
 70
     0
  9
$DIMSOXD
 70
     0
  9
$DIMSAH
 70
     0
  9
$DIMBLK1
  1

  9
$DIMBLK2
  1

  9
$DIMSTYLE
  2
ISO-25
  9
$DIMCLRD
 70
     0
  9
$DIMCLRE
 70
     0
  9
$DIMCLRT
 70
     0
  9
$DIMTFAC
 40
1.0
  9
$DIMGAP
 40
0.625
  9
$DIMJUST
 70
     0
  9
$DIMSD1
 70
     0
  9
$DIMSD2
 70
     0
  9
$DIMTOLJ
 70
     0
  9
$DIMTZIN
 70
     8
  9
$DIMALTZ
 70
     0
  9
$DIMALTTZ
 70
     0
  9
$DIMUPT
 70
     0
  9
$DIMDEC
 70
     2
  9
$DIMTDEC
 70
     2
  9
$DIMALTU
 70
     2
  9
$DIMALTTD
 70
     3
  9
$DIMTXSTY
  7
Standard
  9
$DIMAUNIT
 70
     0
  9
$DIMADEC
 70
     0
  9
$DIMALTRND
 40
0.0
  9
$DIMAZIN
 70
     0
  9
$DIMDSEP
 70
    44
  9
$DIMATFIT
 70
     3
  9
$DIMFRAC
 70
     0
  9
$DIMLDRBLK
  1

  9
$DIMLUNIT
 70
     2
  9
$DIMLWD
 70
    -2
  9
$DIMLWE
 70
    -2
  9
$DIMTMOVE
 70
     0
  9
$LUNITS
 70
     2
  9
$LUPREC
 70
     4
  9
$SKETCHINC
 40
1.0
  9
$FILLETRAD
 40
10.0
  9
$AUNITS
 70
     0
  9
$AUPREC
 70
     0
  9
$MENU
  1
.
  9
$ELEVATION
 40
0.0
  9
$PELEVATION
 40
0.0
  9
$THICKNESS
 40
0.0
  9
$LIMCHECK
 70
     0
  9
$CHAMFERA
 40
10.0
  9
$CHAMFERB
 40
10.0
  9
$CHAMFERC
 40
20.0
  9
$CHAMFERD
 40
0.0
  9
$SKPOLY
 70
     0
  9
$TDCREATE
 40
2457520.724483415
  9
$TDUCREATE
 40
2457520.349483415
  9
$TDUPDATE
 40
2457520.724483426
  9
$TDUUPDATE
 40
2457520.349483426
  9
$TDINDWG
 40
0.0000000116
  9
$TDUSRTIMER
 40
0.0000000116
  9
$USRTIMER
 70
     1
  9
$ANGBASE
 50
0.0
  9
$ANGDIR
 70
     0
  9
$PDMODE
 70
     0
  9
$PDSIZE
 40
0.0
  9
$PLINEWID
 40
0.0
  9
$SPLFRAME
 70
     0
  9
$SPLINETYPE
 70
     6
  9
$SPLINESEGS
 70
     8
  9
$HANDSEED
  5
385
  9
$SURFTAB1
 70
     6
  9
$SURFTAB2
 70
     6
  9
$SURFTYPE
 70
     6
  9
$SURFU
 70
     6
  9
$SURFV
 70
     6
  9
$UCSBASE
  2

  9
$UCSNAME
  2

  9
$UCSORG
 10
0.0
 20
0.0
 30
0.0
  9
$UCSXDIR
 10
1.0
 20
0.0
 30
0.0
  9
$UCSYDIR
 10
0.0
 20
1.0
 30
0.0
  9
$UCSORTHOREF
  2

  9
$UCSORTHOVIEW
 70
     0
  9
$UCSORGTOP
 10
0.0
 20
0.0
 30
0.0
  9
$UCSORGBOTTOM
 10
0.0
 20
0.0
 30
0.0
  9
$UCSORGLEFT
 10
0.0
 20
0.0
 30
0.0
  9
$UCSORGRIGHT
 10
0.0
 20
0.0
 30
0.0
  9
$UCSORGFRONT
 10
0.0
 20
0.0
 30
0.0
  9
$UCSORGBACK
 10
0.0
 20
0.0
 30
0.0
  9
$PUCSBASE
  2

  9
$PUCSNAME
  2

  9
$PUCSORG
 10
0.0
 20
0.0
 30
0.0
  9
$PUCSXDIR
 10
1.0
 20
0.0
 30
0.0
  9
$PUCSYDIR
 10
0.0
 20
1.0
 30
0.0
  9
$PUCSORTHOREF
  2

  9
$PUCSORTHOVIEW
 70
     0
  9
$PUCSORGTOP
 10
0.0
 20
0.0
 30
0.0
  9
$PUCSORGBOTTOM
 10
0.0
 20
0.0
 30
0.0
  9
$PUCSORGLEFT
 10
0.0
 20
0.0
 30
0.0
  9
$PUCSORGRIGHT
 10
0.0
 20
0.0
 30
0.0
  9
$PUCSORGFRONT
 10
0.0
 20
0.0
 30
0.0
  9
$PUCSORGBACK
 10
0.0
 20
0.0
 30
0.0
  9
$USERI1
 70
     0
  9
$USERI2
 70
     0
  9
$USERI3
 70
     0
  9
$USERI4
 70
     0
  9
$USERI5
 70
     0
  9
$USERR1
 40
0.0
  9
$USERR2
 40
0.0
  9
$USERR3
 40
0.0
  9
$USERR4
 40
0.0
  9
$USERR5
 40
0.0
  9
$WORLDVIEW
 70
     1
  9
$SHADEDGE
 70
     3
  9
$SHADEDIF
 70
    70
  9
$TILEMODE
 70
     1
  9
$MAXACTVP
 70
    64
  9
$PINSBASE
 10
0.0
 20
0.0
 30
0.0
  9
$PLIMCHECK
 70
     0
  9
$PEXTMIN
 10
1.000000000000000E+20
 20
1.000000000000000E+20
 30
1.000000000000000E+20
  9
$PEXTMAX
 10
-1.000000000000000E+20
 20
-1.000000000000000E+20
 30
-1.000000000000000E+20
  9
$PLIMMIN
 10
0.0
 20
0.0
  9
$PLIMMAX
 10
420.0
 20
297.0
  9
$UNITMODE
 70
     0
  9
$VISRETAIN
 70
     1
  9
$PLINEGEN
 70
     0
  9
$PSLTSCALE
 70
     1
  9
$TREEDEPTH
 70
  3020
  9
$CMLSTYLE
  2
Standard
  9
$CMLJUST
 70
     0
  9
$CMLSCALE
 40
20.0
  9
$PROXYGRAPHICS
 70
     1
  9
$MEASUREMENT
 70
     1
  9
$CELWEIGHT
370
    -1
  9
$ENDCAPS
280
     0
  9
$JOINSTYLE
280
     0
  9
$LWDISPLAY
290
     0
  9
$INSUNITS
 70
     4
  9
$HYPERLINKBASE
  1

  9
$STYLESHEET
  1

  9
$XEDIT
290
     1
  9
$CEPSNTYPE
380
     0
  9
$PSTYLEMODE
290
     1
  9
$FINGERPRINTGUID
  2
{0F0B55E0-97CD-42F7-81D0-103489CD315C}
  9
$VERSIONGUID
  2
{FAEB1C32-E019-11D5-929B-00C0DF256EC4}
  9
$EXTNAMES
290
     1
  9
$PSVPSCALE
 40
0.0
  9
$OLESTARTUP
290
     0
  9
$SORTENTS
280
   127
  9
$INDEXCTL
280
     0
  9
$HIDETEXT
280
     1
  9
$XCLIPFRAME
290
     0
  9
$HALOGAP
280
     0
  9
$OBSCOLOR
 70
   257
  9
$OBSLTYPE
280
     0
  9
$INTERSECTIONDISPLAY
280
     0
  9
$INTERSECTIONCOLOR
 70
   257
  9
$DIMASSOC
280
     2
  9
$PROJECTNAME
  1

  0
ENDSEC
  0
SECTION
  2
CLASSES
  0
CLASS
  1
ACDBDICTIONARYWDFLT
  2
AcDbDictionaryWithDefault
  3
ObjectDBX Classes
 90
        0
 91
        4
280
     0
281
     0
  0
CLASS
  1
VISUALSTYLE
  2
AcDbVisualStyle
  3
ObjectDBX Classes
 90
     4095
 91
        4
280
     0
281
     0
  0
ENDSEC
  0
SECTION
  2
TABLES
  0
TABLE
  2
VPORT
  5
8
330
0
100
AcDbSymbolTable
 70
     1
  0
VPORT
  5
29
330
8
100
AcDbSymbolTableRecord
100
AcDbViewportTableRecord
  2
*Active
 70
     0
 10
0.0
 20
0.0
 11
1.0
 21
1.0
 12
0.0
 22
0.0
 13
0.0
 23
0.0
 14
10.0
 24
10.0
 15
10.0
 25
10.0
 16
0.0
 26
0.0
 36
1.0
 17
0.0
 27
0.0
 37
0.0
 40
1306.8
 41
1.414141414141414
 42
50.0
 43
0.0
 44
0.0
 50
0.0
 51
0.0
 71
     0
 72
 10000
 73
     1
 74
     3
 75
     0
 76
     0
 77
     0
 78
     0
281
     0
 65
     1
110
0.0
120
0.0
130
0.0
111
1.0
121
0.0
131
0.0
112
0.0
122
1.0
132
0.0
 79
     0
146
0.0
  0
ENDTAB
  0
TABLE
  2
LTYPE
  5
5
330
0
100
AcDbSymbolTable
 70
     6
  0
LTYPE
  5
14
330
5
100
AcDbSymbolTableRecord
100
AcDbLinetypeTableRecord
  2
ByBlock
 70
     0
  3

 72
    65
 73
     0
 40
0.0
  0
LTYPE
  5
15
330
5
100
AcDbSymbolTableRecord
100
AcDbLinetypeTableRecord
  2
ByLayer
 70
     0
  3

 72
    65
 73
     0
 40
0.0
  0
LTYPE
  5
16
330
5
100
AcDbSymbolTableRecord
100
AcDbLinetypeTableRecord
  2
Continuous
 70
     0
  3
Solid line
 72
    65
 73
     0
 40
0.0
  0
LTYPE
  5
3C
330
5
100
AcDbSymbolTableRecord
100
AcDbLinetypeTableRecord
  2
JWW_CENTER1
 70
     0
  3
-----  --  ----------  --  -----
 72
    65
 73
     4
 40
6.773333333333333
 49
4.233333333333333
 74
     0
 49
-0.8466666666666667
 74
     0
 49
0.8466666666666667
 74
     0
 49
-0.8466666666666667
 74
     0
  0
LTYPE
  5
3D
330
5
100
AcDbSymbolTableRecord
100
AcDbLinetypeTableRecord
  2
JWW_PHANTOM2
 70
     0
  3
------------  -  -  ------------
 72
    65
 73
     6
 40
13.54666666666667
 49
10.16
 74
     0
 49
-0.8466666666666667
 74
     0
 49
0.4233333333333333
 74
     0
 49
-0.8466666666666667
 74
     0
 49
0.4233333333333333
 74
     0
 49
-0.8466666666666667
 74
     0
  0
LTYPE
  5
3E
330
5
100
AcDbSymbolTableRecord
100
AcDbLinetypeTableRecord
  2
JWW_DASHED3
 70
     0
  3
---  ------  ------  ------  ---
 72
    65
 73
     2
 40
3.386666666666667
 49
2.54
 74
     0
 49
-0.8466666666666667
 74
     0
  0
LTYPE
  5
3F
330
5
100
AcDbSymbolTableRecord
100
AcDbLinetypeTableRecord
  2
JWW_CENTER2
 70
     0
  3
-------------  --  -------------
 72
    65
 73
     4
 40
13.54666666666667
 49
11.00666666666667
 74
     0
 49
-0.8466666666666667
 74
     0
 49
0.8466666666666667
 74
     0
 49
-0.8466666666666667
 74
     0
  0
LTYPE
  5
40
330
5
100
AcDbSymbolTableRecord
100
AcDbLinetypeTableRecord
  2
JWW_DASHED1
 70
     0
  3
-  --  --  --  --  --  --  --  -
 72
    65
 73
     2
 40
1.693333333333333
 49
0.8466666666666667
 74
     0
 49
-0.8466666666666667
 74
     0
  0
ENDTAB
  0
TABLE
  2
LAYER
  5
2
330
0
100
AcDbSymbolTable
 70
     9
  0
LAYER
  5
10
330
2
100
AcDbSymbolTableRecord
100
AcDbLayerTableRecord
  2
0
 70
     0
 62
     7
  6
Continuous
370
    -3
390
F
  0
LAYER
  5
41
330
2
100
AcDbSymbolTableRecord
100
AcDbLayerTableRecord
  2
F-5ﾚｲﾔ
 70
     0
 62
     7
  6
Continuous
370
    -3
390
F
  0
LAYER
  5
42
330
2
100
AcDbSymbolTableRecord
100
AcDbLayerTableRecord
  2
躯体
 70
     0
 62
     7
  6
Continuous
370
    -3
390
F
  0
LAYER
  5
43
330
2
100
AcDbSymbolTableRecord
100
AcDbLayerTableRecord
  2
0-E
 70
     0
 62
     7
  6
Continuous
370
    -3
390
F
  0
LAYER
  5
44
330
2
100
AcDbSymbolTableRecord
100
AcDbLayerTableRecord
  2
通り芯
 70
     0
 62
     7
  6
Continuous
370
    -3
390
F
  0
LAYER
  5
45
330
2
100
AcDbSymbolTableRecord
100
AcDbLayerTableRecord
  2
0-F
 70
     0
 62
     7
  6
Continuous
370
    -3
390
F
  0
LAYER
  5
46
330
2
100
AcDbSymbolTableRecord
100
AcDbLayerTableRecord
  2
寸法
 70
     0
 62
     7
  6
Continuous
370
    -3
390
F
  0
LAYER
  5
47
330
2
100
AcDbSymbolTableRecord
100
AcDbLayerTableRecord
  2
ハッチ
 70
     0
 62
     7
  6
Continuous
370
    -3
390
F
  0
LAYER
  5
48
330
2
100
AcDbSymbolTableRecord
100
AcDbLayerTableRecord
  2
その他
 70
     0
 62
     7
  6
Continuous
370
    -3
390
F
  0
ENDTAB
  0
TABLE
  2
STYLE
  5
3
330
0
100
AcDbSymbolTable
 70
     2
  0
STYLE
  5
11
330
3
100
AcDbSymbolTableRecord
100
AcDbTextStyleTableRecord
  2
Standard
 70
     0
 40
0.0
 41
1.0
 50
0.0
 71
     0
 42
2.5
  3
txt
  4

1001
ACAD
1000

1071
        0
  0
STYLE
  5
3B
330
3
100
AcDbSymbolTableRecord
100
AcDbTextStyleTableRecord
  2
ＭＳ ゴシック
 70
     0
 40
1.0
 41
1.0
 50
0.0
 71
     0
 42
10.0
  3
msgothic.ttc
  4

1001
ACAD
1000
MS Gothic
1071
    32817
  0
ENDTAB
  0
TABLE
  2
VIEW
  5
6
330
0
100
AcDbSymbolTable
 70
     0
  0
ENDTAB
  0
TABLE
  2
UCS
  5
7
330
0
100
AcDbSymbolTable
 70
     0
  0
ENDTAB
  0
TABLE
  2
APPID
  5
9
330
0
100
AcDbSymbolTable
 70
     1
  0
APPID
  5
12
330
9
100
AcDbSymbolTableRecord
100
AcDbRegAppTableRecord
  2
ACAD
 70
     0
  0
ENDTAB
  0
TABLE
  2
DIMSTYLE
  5
A
330
0
100
AcDbSymbolTable
 70
     1
100
AcDbDimStyleTable
  0
DIMSTYLE
105
27
330
A
100
AcDbSymbolTableRecord
100
AcDbDimStyleTableRecord
  2
ISO-25
 70
     0
 41
2.5
 42
0.625
 43
3.75
 44
1.25
 73
     0
 74
     0
 77
     1
 78
     8
140
2.5
141
2.5
143
0.03937007874016
147
0.625
171
     3
172
     1
271
     2
272
     2
274
     3
278
    44
283
     0
284
     8
340
11
  0
ENDTAB
  0
TABLE
  2
BLOCK_RECORD
  5
1
330
0
100
AcDbSymbolTable
 70
     1
  0
BLOCK_RECORD
  5
1F
330
1
100
AcDbSymbolTableRecord
100
AcDbBlockTableRecord
  2
*Model_Space
340
22
  0
BLOCK_RECORD
  5
1B
330
1
100
AcDbSymbolTableRecord
100
AcDbBlockTableRecord
  2
*Paper_Space
340
1E
  0
BLOCK_RECORD
  5
23
330
1
100
AcDbSymbolTableRecord
100
AcDbBlockTableRecord
  2
*Paper_Space0
340
26
  0
ENDTAB
  0
ENDSEC
  0
SECTION
  2
BLOCKS
  0
BLOCK
  5
20
330
1F
100
AcDbEntity
  8
0
100
AcDbBlockBegin
  2
*Model_Space
 70
     0
 10
0.0
 20
0.0
 30
0.0
  3
*Model_Space
  1

  0
ENDBLK
  5
21
330
1F
100
AcDbEntity
  8
0
100
AcDbBlockEnd
  0
BLOCK
  5
1C
330
1B
100
AcDbEntity
 67
     1
  8
0
100
AcDbBlockBegin
  2
*Paper_Space
 70
     0
 10
0.0
 20
0.0
 30
0.0
  3
*Paper_Space
  1

  0
ENDBLK
  5
1D
330
1B
100
AcDbEntity
 67
     1
  8
0
100
AcDbBlockEnd
  0
BLOCK
  5
24
330
23
100
AcDbEntity
  8
0
100
AcDbBlockBegin
  2
*Paper_Space0
 70
     0
 10
0.0
 20
0.0
 30
0.0
  3
*Paper_Space0
  1

  0
ENDBLK
  5
25
330
23
100
AcDbEntity
  8
0
100
AcDbBlockEnd
  0
ENDSEC
  0
SECTION
  2
ENTITIES
  0
TEXT
  5
49
330
1F
100
AcDbEntity
  8
F-5ﾚｲﾔ
  6
Continuous
 62
     2
370
     9
100
AcDbText
 10
-309.3628001271063
 20
-528.4488751053836
 30
0.0
 40
12.192
  1
タイル用　充填深さ４０ｍｍ　ステンレス目地　側溝用　カラー舗装用みぞ蓋　
 41
0.7743055555555557
  7
ＭＳ ゴシック
100
AcDbText
  0
LINE
  5
4A
330
1F
100
AcDbEntity
  8
躯体
  6
Continuous
 62
     2
370
     9
100
AcDbLine
 10
445.3243282373662
 20
345.0330181158085
 30
0.0
 11
382.3243282373663
 21
345.0330181158085
 31
0.0
  0
LINE
  5
4B
330
1F
100
AcDbEntity
  8
躯体
  6
Continuous
 62
     2
370
     9
100
AcDbLine
 10
448.3242886469945
 20
298.0329125414842
 30
0.0
 11
445.3243282373662
 21
298.0329125414842
 31
0.0
  0
LINE
  5
4C
330
1F
100
AcDbEntity
  8
躯体
  6
Continuous
 62
     2
370
     9
100
AcDbLine
 10
445.3243282373662
 20
-48.96709405691104
 30
0.0
 11
382.3243282373663
 21
-48.96709405691104
 31
0.0
  0
LINE
  5
4D
330
1F
100
AcDbEntity
  8
躯体
  6
Continuous
 62
     2
370
     9
100
AcDbLine
 10
448.3242886469945
 20
-1.967037970551246
 30
0.0
 11
445.3243282373662
 21
-1.967037970551246
 31
0.0
  0
LINE
  5
4E
330
1F
100
AcDbEntity
  8
躯体
  6
Continuous
 62
     2
370
     9
100
AcDbLine
 10
445.3243282373662
 20
-48.96709405691104
 30
0.0
 11
445.3243282373662
 21
-1.967037970551246
 31
0.0
  0
LINE
  5
4F
330
1F
100
AcDbEntity
  8
躯体
  6
Continuous
 62
     2
370
     9
100
AcDbLine
 10
445.3243282373662
 20
345.0330181158085
 30
0.0
 11
445.3243282373662
 21
298.0329125414842
 31
0.0
  0
LINE
  5
50
330
1F
100
AcDbEntity
  8
躯体
  6
Continuous
 62
     2
370
     9
100
AcDbLine
 10
445.3243282373662
 20
-51.96710395450395
 30
0.0
 11
382.3243282373663
 21
-51.96710395450395
 31
0.0
  0
LINE
  5
51
330
1F
100
AcDbEntity
  8
躯体
  6
Continuous
 62
     2
370
     9
100
AcDbLine
 10
445.3243282373662
 20
348.0329785254369
 30
0.0
 11
382.3243282373663
 21
348.0329785254369
 31
0.0
  0
ARC
  5
52
330
1F
100
AcDbEntity
  8
躯体
  6
Continuous
 62
     2
370
     9
100
AcDbCircle
 10
445.3243282373662
 20
345.0330181158085
 30
0.0
 40
3.000000038662472
100
AcDbArc
 50
0.0
 51
90.0
  0
ARC
  5
53
330
1F
100
AcDbEntity
  8
躯体
  6
Continuous
 62
     2
370
     9
100
AcDbCircle
 10
445.3243282373662
 20
-48.96709405691104
 30
0.0
 40
3.000000038662472
100
AcDbArc
 50
270.0
 51
0.0
  0
LINE
  5
54
330
1F
100
AcDbEntity
  8
躯体
  6
Continuous
 62
     2
370
     9
100
AcDbLine
 10
448.3242886469945
 20
-48.96709405691104
 30
0.0
 11
448.3242886469945
 21
-1.967037970551246
 31
0.0
  0
LINE
  5
55
330
1F
100
AcDbEntity
  8
躯体
  6
Continuous
 62
     2
370
     9
100
AcDbLine
 10
448.3242886469945
 20
345.0330181158085
 30
0.0
 11
448.3242886469945
 21
298.0329125414842
 31
0.0
  0
LINE
  5
56
330
1F
100
AcDbEntity
  8
0-E
  6
Continuous
 62
     7
370
     9
100
AcDbLine
 10
447.3240972935321
 20
176.5402070674554
 30
0.0
 11
458.3066643332279
 21
181.3757750573204
 31
0.0
  0
LINE
  5
57
330
1F
100
AcDbEntity
  8
0-E
  6
Continuous
 62
     7
370
     9
100
AcDbLine
 10
447.3240972935321
 20
176.5402070674554
 30
0.0
 11
459.1839869683629
 21
178.3684904289421
 31
0.0
  0
LINE
  5
58
330
1F
100
AcDbEntity
  8
躯体
  6
Continuous
 62
     2
370
     9
100
AcDbLine
 10
382.3243282373663
 20
345.0330181158085
 30
0.0
 11
382.3243282373663
 21
348.0329785254369
 31
0.0
  0
LINE
  5
59
330
1F
100
AcDbEntity
  8
躯体
  6
Continuous
 62
     2
370
     9
100
AcDbLine
 10
382.3243282373663
 20
-48.96709405691104
 30
0.0
 11
382.3243282373663
 21
-51.96710395450395
 31
0.0
  0
LINE
  5
5A
330
1F
100
AcDbEntity
  8
躯体
  6
Continuous
 62
     2
370
     9
100
AcDbLine
 10
-707.6757542425746
 20
298.0329125414842
 30
0.0
 11
-707.6757542425746
 21
348.0329785254369
 31
0.0
  0
LINE
  5
5B
330
1F
100
AcDbEntity
  8
躯体
  6
Continuous
 62
     2
370
     9
100
AcDbLine
 10
-707.6757542425746
 20
-1.967037970551246
 30
0.0
 11
-707.6757542425746
 21
-51.96710395450395
 31
0.0
  0
LINE
  5
5C
330
1F
100
AcDbEntity
  8
躯体
  6
Continuous
 62
     2
370
     9
100
AcDbLine
 10
-707.6757542425746
 20
298.0329125414842
 30
0.0
 11
-706.6757509433769
 21
298.0329125414842
 31
0.0
  0
LINE
  5
5D
330
1F
100
AcDbEntity
  8
躯体
  6
Continuous
 62
     2
370
     9
100
AcDbLine
 10
-707.6757542425746
 20
-1.967037970551246
 30
0.0
 11
-706.6757509433769
 21
-1.967037970551246
 31
0.0
  0
LINE
  5
5E
330
1F
100
AcDbEntity
  8
躯体
  6
Continuous
 62
     2
370
     9
100
AcDbLine
 10
122.3242622534137
 20
168.0329785254369
 30
0.0
 11
132.32429524539
 21
168.0329785254369
 31
0.0
  0
LINE
  5
5F
330
1F
100
AcDbEntity
  8
躯体
  6
Continuous
 62
     2
370
     9
100
AcDbLine
 10
132.32429524539
 20
168.0329785254369
 30
0.0
 11
112.3242292614373
 21
128.0329455334606
 31
0.0
  0
LINE
  5
60
330
1F
100
AcDbEntity
  8
躯体
  6
Continuous
 62
     2
370
     9
100
AcDbLine
 10
112.3242292614373
 20
128.0329455334606
 30
0.0
 11
122.3242622534137
 21
128.0329455334606
 31
0.0
  0
LINE
  5
61
330
1F
100
AcDbEntity
  8
躯体
  6
Continuous
 62
     2
370
     9
100
AcDbLine
 10
122.3242622534137
 20
-71.96702147456313
 30
0.0
 11
122.3242622534137
 21
128.0329455334606
 31
0.0
  0
LINE
  5
62
330
1F
100
AcDbEntity
  8
躯体
  6
Continuous
 62
     2
370
     9
100
AcDbLine
 10
122.3242622534137
 20
168.0329785254369
 30
0.0
 11
122.3242622534137
 21
368.0329455334606
 31
0.0
  0
LINE
  5
63
330
1F
100
AcDbEntity
  8
躯体
  6
Continuous
 62
     2
370
     9
100
AcDbLine
 10
-707.6757542425746
 20
348.0329785254369
 30
0.0
 11
122.3242622534137
 21
348.0329785254369
 31
0.0
  0
LINE
  5
64
330
1F
100
AcDbEntity
  8
躯体
  6
Continuous
 62
     2
370
     9
100
AcDbLine
 10
-707.6757542425746
 20
345.0330181158085
 30
0.0
 11
122.3242622534137
 21
345.0330181158085
 31
0.0
  0
LINE
  5
65
330
1F
100
AcDbEntity
  8
躯体
  6
Continuous
 62
     2
370
     9
100
AcDbLine
 10
-707.6757542425746
 20
-51.96710395450395
 30
0.0
 11
122.3242622534137
 21
-51.96710395450395
 31
0.0
  0
LINE
  5
66
330
1F
100
AcDbEntity
  8
躯体
  6
Continuous
 62
     2
370
     9
100
AcDbLine
 10
-707.6757542425746
 20
-48.96709405691104
 30
0.0
 11
122.3242622534137
 21
-48.96709405691104
 31
0.0
  0
LINE
  5
67
330
1F
100
AcDbEntity
  8
0-E
  6
Continuous
 62
     7
370
     9
100
AcDbLine
 10
382.3244272132955
 20
-37.9669587898079
 30
0.0
 11
354.2420858387175
 21
-142.7716297938198
 31
0.0
  0
LINE
  5
68
330
1F
100
AcDbEntity
  8
0-E
  6
Continuous
 62
     7
370
     9
100
AcDbLine
 10
382.3244272132955
 20
-37.9669587898079
 30
0.0
 11
380.758133136015
 21
-49.86431085378604
 31
0.0
  0
LINE
  5
69
330
1F
100
AcDbEntity
  8
0-E
  6
Continuous
 62
     7
370
     9
100
AcDbLine
 10
382.3244272132955
 20
-37.9669587898079
 30
0.0
 11
377.7322410329746
 21
-49.0535000429752
 31
0.0
  0
LINE
  5
6A
330
1F
100
AcDbEntity
  8
0-E
  6
Continuous
 62
     7
370
     9
100
AcDbLine
 10
354.2420858387175
 20
-142.7716297938198
 30
0.0
 11
143.5015479375352
 21
-142.7716297938198
 31
0.0
  0
LINE
  5
6B
330
1F
100
AcDbEntity
  8
通り芯
  6
Continuous
 62
     3
370
     9
100
AcDbLine
 10
400.3237937673496
 20
153.5330049190179
 30
0.0
 11
414.3239389320455
 21
152.533051107785
 31
0.0
  0
LINE
  5
6C
330
1F
100
AcDbEntity
  8
通り芯
  6
Continuous
 62
     3
370
     9
100
AcDbLine
 10
414.3239389320455
 20
143.5329719270417
 30
0.0
 11
414.3239389320455
 21
152.533051107785
 31
0.0
  0
LINE
  5
6D
330
1F
100
AcDbEntity
  8
通り芯
  6
Continuous
 62
     3
370
     9
100
AcDbLine
 10
409.9243599096638
 20
150.6330101977342
 30
0.0
 11
404.7243625490217
 21
150.6330101977342
 31
0.0
  0
LINE
  5
6E
330
1F
100
AcDbEntity
  8
通り芯
  6
Continuous
 62
     3
370
     9
100
AcDbLine
 10
404.7243625490217
 20
150.6330101977342
 30
0.0
 11
404.7243625490217
 21
145.4330128370923
 31
0.0
  0
LINE
  5
6F
330
1F
100
AcDbEntity
  8
通り芯
  6
Continuous
 62
     3
370
     9
100
AcDbLine
 10
409.9243599096638
 20
150.6330101977342
 30
0.0
 11
409.9243599096638
 21
145.4330128370923
 31
0.0
  0
LINE
  5
70
330
1F
100
AcDbEntity
  8
通り芯
  6
Continuous
 62
     3
370
     9
100
AcDbLine
 10
400.3237937673496
 20
154.0330313125992
 30
0.0
 11
414.3239389320455
 21
152.533051107785
 31
0.0
  0
LINE
  5
71
330
1F
100
AcDbEntity
  8
通り芯
  6
Continuous
 62
     3
370
     9
100
AcDbLine
 10
424.3242688518087
 20
285.182273816822
 30
0.0
 11
424.3242688518087
 21
10.8837492180046
 31
0.0
  0
LINE
  5
72
330
1F
100
AcDbEntity
  8
通り芯
  6
Continuous
 62
     3
370
     9
100
AcDbLine
 10
447.3240972935321
 20
273.0329785254369
 30
0.0
 11
447.3240972935321
 21
23.03304450938958
 31
0.0
  0
LINE
  5
73
330
1F
100
AcDbEntity
  8
通り芯
  6
Continuous
 62
     3
370
     9
100
AcDbLine
 10
429.3242358598325
 20
288.0329785254369
 30
0.0
 11
447.3240972935321
 21
273.0329785254369
 31
0.0
  0
LINE
  5
74
330
1F
100
AcDbEntity
  8
通り芯
  6
Continuous
 62
     3
370
     9
100
AcDbLine
 10
424.1052351208125
 20
285.8070098810113
 30
0.0
 11
422.5433949603391
 21
287.7591121297444
 31
0.0
  0
LINE
  5
75
330
1F
100
AcDbEntity
  8
通り芯
  6
Continuous
 62
     3
370
     9
100
AcDbLine
 10
442.3244272132954
 20
310.3198833501835
 30
0.0
 11
442.3244272132954
 21
313.6362698049977
 31
0.0
  0
LINE
  5
76
330
1F
100
AcDbEntity
  8
通り芯
  6
Continuous
 62
     3
370
     9
100
AcDbLine
 10
397.3244272132955
 20
319.03293233667
 30
0.0
 11
397.3244272132955
 21
343.0330115174133
 31
0.0
  0
LINE
  5
77
330
1F
100
AcDbEntity
  8
通り芯
  6
Continuous
 62
     3
370
     9
100
AcDbLine
 10
402.32429524539
 20
315.0329191398796
 30
0.0
 11
402.32429524539
 21
343.0330115174133
 31
0.0
  0
LINE
  5
78
330
1F
100
AcDbEntity
  8
通り芯
  6
Continuous
 62
     3
370
     9
100
AcDbLine
 10
397.3244272132955
 20
334.03293233667
 30
0.0
 11
382.3244272132955
 21
334.03293233667
 31
0.0
  0
LINE
  5
79
330
1F
100
AcDbEntity
  8
通り芯
  6
Continuous
 62
     3
370
     9
100
AcDbLine
 10
397.3244272132955
 20
330.0329191398796
 30
0.0
 11
382.3244272132955
 21
330.0329191398796
 31
0.0
  0
LINE
  5
7A
330
1F
100
AcDbEntity
  8
通り芯
  6
Continuous
 62
     3
370
     9
100
AcDbLine
 10
402.32429524539
 20
319.03293233667
 30
0.0
 11
382.3244272132955
 21
319.03293233667
 31
0.0
  0
LINE
  5
7B
330
1F
100
AcDbEntity
  8
通り芯
  6
Continuous
 62
     3
370
     9
100
AcDbLine
 10
402.32429524539
 20
315.0329191398796
 30
0.0
 11
382.3244272132955
 21
315.0329191398796
 31
0.0
  0
LINE
  5
7C
330
1F
100
AcDbEntity
  8
通り芯
  6
Continuous
 62
     3
370
     9
100
AcDbLine
 10
402.32429524539
 20
343.0330115174133
 30
0.0
 11
397.3244272132955
 21
343.0330115174133
 31
0.0
  0
LINE
  5
7D
330
1F
100
AcDbEntity
  8
通り芯
  6
Continuous
 62
     3
370
     9
100
AcDbLine
 10
382.3244272132955
 20
-37.96690930184354
 30
0.0
 11
382.3244272132955
 21
334.03293233667
 31
0.0
  0
LINE
  5
7E
330
1F
100
AcDbEntity
  8
通り芯
  6
Continuous
 62
     3
370
     9
100
AcDbLine
 10
-107.6759027064681
 20
-306.9671286984862
 30
0.0
 11
-706.675651967448
 21
-306.9671286984862
 31
0.0
  0
LINE
  5
7F
330
1F
100
AcDbEntity
  8
通り芯
  6
Continuous
 62
     3
370
     9
100
AcDbLine
 10
-107.6759027064681
 20
-286.9671122024981
 30
0.0
 11
-706.675651967448
 21
-286.9671122024981
 31
0.0
  0
LINE
  5
80
330
1F
100
AcDbEntity
  8
通り芯
  6
Continuous
 62
     3
370
     9
100
AcDbLine
 10
-706.675651967448
 20
-306.9671286984862
 30
0.0
 11
-706.675651967448
 21
-286.9671122024981
 31
0.0
  0
LINE
  5
81
330
1F
100
AcDbEntity
  8
通り芯
  6
Continuous
 62
     3
370
     9
100
AcDbLine
 10
-107.6759027064681
 20
-301.9671122024981
 30
0.0
 11
-706.675651967448
 21
-301.9671122024981
 31
0.0
  0
LINE
  5
82
330
1F
100
AcDbEntity
  8
通り芯
  6
Continuous
 62
     3
370
     9
100
AcDbLine
 10
418.6233543142246
 20
309.7909559853188
 30
0.0
 11
400.3242886469946
 21
311.1633562175823
 31
0.0
  0
LINE
  5
83
330
1F
100
AcDbEntity
  8
通り芯
  6
Continuous
 62
     3
370
     9
100
AcDbLine
 10
422.3242622534137
 20
305.8021270685113
 30
0.0
 11
422.3242622534137
 21
-9.736104033684796
 31
0.0
  0
LINE
  5
84
330
1F
100
AcDbEntity
  8
通り芯
  6
Continuous
 62
     3
370
     9
100
AcDbLine
 10
432.716140948515
 20
307.5547928202004
 30
0.0
 11
441.0522895971637
 21
308.8372239329537
 31
0.0
  0
LINE
  5
85
330
1F
100
AcDbEntity
  8
通り芯
  6
Continuous
 62
     3
370
     9
100
AcDbLine
 10
429.3242358598325
 20
303.6012983100654
 30
0.0
 11
429.3242358598325
 21
-7.535275275238746
 31
0.0
  0
LINE
  5
86
330
1F
100
AcDbEntity
  8
通り芯
  6
Continuous
 62
     3
370
     9
100
AcDbLine
 10
411.3242754502042
 20
152.0330247142037
 30
0.0
 11
411.3242754502042
 21
144.0329983206227
 31
0.0
  0
LINE
  5
87
330
1F
100
AcDbEntity
  8
通り芯
  6
Continuous
 62
     3
370
     9
100
AcDbLine
 10
400.3242886469946
 20
152.0330247142037
 30
0.0
 11
400.3242886469946
 21
315.0329191398796
 31
0.0
  0
LINE
  5
88
330
1F
100
AcDbEntity
  8
通り芯
  6
Continuous
 62
     3
370
     9
100
AcDbLine
 10
397.8243546309475
 20
152.0330247142037
 30
0.0
 11
397.8243546309475
 21
144.0329983206227
 31
0.0
  0
LINE
  5
89
330
1F
100
AcDbEntity
  8
通り芯
  6
Continuous
 62
     3
370
     9
100
AcDbLine
 10
383.3243810245283
 20
152.0330247142037
 30
0.0
 11
383.3243810245283
 21
144.0329983206227
 31
0.0
  0
LINE
  5
8A
330
1F
100
AcDbEntity
  8
通り芯
  6
Continuous
 62
     3
370
     9
100
AcDbLine
 10
411.3242754502042
 20
152.0330247142037
 30
0.0
 11
383.3243810245283
 21
152.0330247142037
 31
0.0
  0
LINE
  5
8B
330
1F
100
AcDbEntity
  8
通り芯
  6
Continuous
 62
     3
370
     9
100
AcDbLine
 10
-633.6756833098254
 20
8.03314348531876
 30
0.0
 11
-633.6756833098254
 21
288.0328795495079
 31
0.0
  0
LINE
  5
8C
330
1F
100
AcDbEntity
  8
通り芯
  6
Continuous
 62
     3
370
     9
100
AcDbLine
 10
-640.6756816602265
 20
288.0328795495079
 30
0.0
 11
-633.6756833098254
 21
288.0328795495079
 31
0.0
  0
LINE
  5
8D
330
1F
100
AcDbEntity
  8
通り芯
  6
Continuous
 62
     3
370
     9
100
AcDbLine
 10
-640.6756816602265
 20
8.03314348531876
 30
0.0
 11
-640.6756816602265
 21
288.0328795495079
 31
0.0
  0
LINE
  5
8E
330
1F
100
AcDbEntity
  8
通り芯
  6
Continuous
 62
     3
370
     9
100
AcDbLine
 10
-636.1756668138373
 20
10.53307750136605
 30
0.0
 11
-636.1756668138373
 21
285.5329455334605
 31
0.0
  0
LINE
  5
8F
330
1F
100
AcDbEntity
  8
通り芯
  6
Continuous
 62
     3
370
     9
100
AcDbLine
 10
-638.1756981562148
 20
285.5329455334605
 30
0.0
 11
-636.1756668138373
 21
285.5329455334605
 31
0.0
  0
LINE
  5
90
330
1F
100
AcDbEntity
  8
通り芯
  6
Continuous
 62
     3
370
     9
100
AcDbLine
 10
-638.1756981562148
 20
10.53307750136605
 30
0.0
 11
-638.1756981562148
 21
285.5329455334605
 31
0.0
  0
LINE
  5
91
330
1F
100
AcDbEntity
  8
通り芯
  6
Continuous
 62
     3
370
     9
100
AcDbLine
 10
-633.6756833098254
 20
288.0328795495079
 30
0.0
 11
-636.1756668138373
 21
285.5329455334605
 31
0.0
  0
LINE
  5
92
330
1F
100
AcDbEntity
  8
通り芯
  6
Continuous
 62
     3
370
     9
100
AcDbLine
 10
-640.6756816602265
 20
288.0328795495079
 30
0.0
 11
-638.1756981562148
 21
285.5329455334605
 31
0.0
  0
LINE
  5
93
330
1F
100
AcDbEntity
  8
通り芯
  6
Continuous
 62
     3
370
     9
100
AcDbLine
 10
-518.6757245497959
 20
8.03314348531876
 30
0.0
 11
-518.6757245497959
 21
288.0328795495079
 31
0.0
  0
LINE
  5
94
330
1F
100
AcDbEntity
  8
通り芯
  6
Continuous
 62
     3
370
     9
100
AcDbLine
 10
-525.6757229001971
 20
288.0328795495079
 30
0.0
 11
-518.6757245497959
 21
288.0328795495079
 31
0.0
  0
LINE
  5
95
330
1F
100
AcDbEntity
  8
通り芯
  6
Continuous
 62
     3
370
     9
100
AcDbLine
 10
-525.6757229001971
 20
8.03314348531876
 30
0.0
 11
-525.6757229001971
 21
288.0328795495079
 31
0.0
  0
LINE
  5
96
330
1F
100
AcDbEntity
  8
通り芯
  6
Continuous
 62
     3
370
     9
100
AcDbLine
 10
-521.1757080538077
 20
10.53307750136605
 30
0.0
 11
-521.1757080538077
 21
285.5329455334605
 31
0.0
  0
LINE
  5
97
330
1F
100
AcDbEntity
  8
通り芯
  6
Continuous
 62
     3
370
     9
100
AcDbLine
 10
-523.1757641401675
 20
285.5329455334605
 30
0.0
 11
-521.1757080538077
 21
285.5329455334605
 31
0.0
  0
LINE
  5
98
330
1F
100
AcDbEntity
  8
通り芯
  6
Continuous
 62
     3
370
     9
100
AcDbLine
 10
-523.1757641401675
 20
10.53307750136605
 30
0.0
 11
-523.1757641401675
 21
285.5329455334605
 31
0.0
  0
LINE
  5
99
330
1F
100
AcDbEntity
  8
通り芯
  6
Continuous
 62
     3
370
     9
100
AcDbLine
 10
-518.6757245497959
 20
288.0328795495079
 30
0.0
 11
-521.1757080538077
 21
285.5329455334605
 31
0.0
  0
LINE
  5
9A
330
1F
100
AcDbEntity
  8
通り芯
  6
Continuous
 62
     3
370
     9
100
AcDbLine
 10
-525.6757229001971
 20
288.0328795495079
 30
0.0
 11
-523.1757641401675
 21
285.5329455334605
 31
0.0
  0
LINE
  5
9B
330
1F
100
AcDbEntity
  8
通り芯
  6
Continuous
 62
     3
370
     9
100
AcDbLine
 10
-410.6757146522029
 20
8.03314348531876
 30
0.0
 11
-410.6757146522029
 21
288.0328795495079
 31
0.0
  0
LINE
  5
9C
330
1F
100
AcDbEntity
  8
通り芯
  6
Continuous
 62
     3
370
     9
100
AcDbLine
 10
-408.1757311481911
 20
10.53307750136605
 30
0.0
 11
-408.1757311481911
 21
285.5329455334605
 31
0.0
  0
LINE
  5
9D
330
1F
100
AcDbEntity
  8
通り芯
  6
Continuous
 62
     3
370
     9
100
AcDbLine
 10
-410.6757146522029
 20
288.0328795495079
 30
0.0
 11
-408.1757311481911
 21
285.5329455334605
 31
0.0
  0
LINE
  5
9E
330
1F
100
AcDbEntity
  8
通り芯
  6
Continuous
 62
     3
370
     9
100
AcDbLine
 10
-410.6757146522029
 20
288.0328795495079
 30
0.0
 11
-403.675741045784
 21
288.0328795495079
 31
0.0
  0
LINE
  5
9F
330
1F
100
AcDbEntity
  8
通り芯
  6
Continuous
 62
     3
370
     9
100
AcDbLine
 10
-408.1757311481911
 20
285.5329455334605
 30
0.0
 11
-406.1757245497958
 21
285.5329455334605
 31
0.0
  0
LINE
  5
A0
330
1F
100
AcDbEntity
  8
通り芯
  6
Continuous
 62
     3
370
     9
100
AcDbLine
 10
-706.6757509433769
 20
-37.96690930184354
 30
0.0
 11
-706.6757509433769
 21
334.03293233667
 31
0.0
  0
LINE
  5
A1
330
1F
100
AcDbEntity
  8
通り芯
  6
Continuous
 62
     3
370
     9
100
AcDbLine
 10
-702.6757501185775
 20
-37.96690930184354
 30
0.0
 11
-702.6757501185775
 21
334.03293233667
 31
0.0
  0
LINE
  5
A2
330
1F
100
AcDbEntity
  8
通り芯
  6
Continuous
 62
     3
370
     9
100
AcDbLine
 10
-702.6757501185775
 20
315.0329191398796
 30
0.0
 11
-111.6757674393651
 21
315.0329191398796
 31
0.0
  0
LINE
  5
A3
330
1F
100
AcDbEntity
  8
通り芯
  6
Continuous
 62
     3
370
     9
100
AcDbLine
 10
-702.6757501185775
 20
319.03293233667
 30
0.0
 11
-111.6757674393651
 21
319.03293233667
 31
0.0
  0
LINE
  5
A4
330
1F
100
AcDbEntity
  8
通り芯
  6
Continuous
 62
     3
370
     9
100
AcDbLine
 10
-702.6757501185775
 20
330.0329191398796
 30
0.0
 11
-111.6757674393651
 21
330.0329191398796
 31
0.0
  0
LINE
  5
A5
330
1F
100
AcDbEntity
  8
通り芯
  6
Continuous
 62
     3
370
     9
100
AcDbLine
 10
-692.6579138313625
 20
311.1633562175823
 30
0.0
 11
-121.6935666106066
 21
311.1633562175823
 31
0.0
  0
LINE
  5
A6
330
1F
100
AcDbEntity
  8
通り芯
  6
Continuous
 62
     3
370
     9
100
AcDbLine
 10
-692.0865257929336
 20
309.513427480251
 30
0.0
 11
-122.2649546490357
 21
309.513427480251
 31
0.0
  0
LINE
  5
A7
330
1F
100
AcDbEntity
  8
通り芯
  6
Continuous
 62
     3
370
     9
100
AcDbLine
 10
-695.0865109465442
 20
306.5133680946938
 30
0.0
 11
-695.0865109465442
 21
-10.44734505986708
 31
0.0
  0
LINE
  5
A8
330
1F
100
AcDbEntity
  8
通り芯
  6
Continuous
 62
     3
370
     9
100
AcDbLine
 10
-701.1757204257988
 20
144.0329983206227
 30
0.0
 11
-701.1757204257988
 21
152.0330247142037
 31
0.0
  0
LINE
  5
A9
330
1F
100
AcDbEntity
  8
通り芯
  6
Continuous
 62
     3
370
     9
100
AcDbLine
 10
-697.1757072290081
 20
144.0329983206227
 30
0.0
 11
-697.1757072290081
 21
152.0330247142037
 31
0.0
  0
LINE
  5
AA
330
1F
100
AcDbEntity
  8
通り芯
  6
Continuous
 62
     3
370
     9
100
AcDbLine
 10
-702.6757501185775
 20
152.0330247142037
 30
0.0
 11
-697.1757072290081
 21
152.0330247142037
 31
0.0
  0
LINE
  5
AB
330
1F
100
AcDbEntity
  8
通り芯
  6
Continuous
 62
     3
370
     9
100
AcDbLine
 10
-699.6655457002921
 20
154.0329818246346
 30
0.0
 11
-698.6655176571121
 21
153.5329554310536
 31
0.0
  0
LINE
  5
AC
330
1F
100
AcDbEntity
  8
通り芯
  6
Continuous
 62
     3
370
     9
100
AcDbLine
 10
-698.6655176571121
 20
153.5329554310536
 30
0.0
 11
-695.6579113569644
 21
153.5329554310536
 31
0.0
  0
LINE
  5
AD
330
1F
100
AcDbEntity
  8
通り芯
  6
Continuous
 62
     3
370
     9
100
AcDbLine
 10
-695.6579113569644
 20
153.5329554310536
 30
0.0
 11
-698.6655176571121
 21
154.0329818246346
 31
0.0
  0
LINE
  5
AE
330
1F
100
AcDbEntity
  8
通り芯
  6
Continuous
 62
     3
370
     9
100
AcDbLine
 10
-698.6655176571121
 20
154.0329818246346
 30
0.0
 11
-699.6655457002921
 21
154.0329818246346
 31
0.0
  0
LINE
  5
AF
330
1F
100
AcDbEntity
  8
通り芯
  6
Continuous
 62
     3
370
     9
100
AcDbLine
 10
-695.6579113569644
 20
142.5330676037731
 30
0.0
 11
-695.6579113569644
 21
153.5329554310536
 31
0.0
  0
LINE
  5
B0
330
1F
100
AcDbEntity
  8
通り芯
  6
Continuous
 62
     3
370
     9
100
AcDbLine
 10
-699.6655457002921
 20
154.0329818246346
 30
0.0
 11
-699.6655457002921
 21
152.0330247142037
 31
0.0
  0
LINE
  5
B1
330
1F
100
AcDbEntity
  8
通り芯
  6
Continuous
 62
     3
370
     9
100
AcDbLine
 10
-696.6579270281532
 20
307.1634419967208
 30
0.0
 11
-696.6579270281532
 21
153.6991855038998
 31
0.0
  0
LINE
  5
B2
330
1F
100
AcDbEntity
  8
通り芯
  6
Continuous
 62
     3
370
     9
100
AcDbLine
 10
-706.6757509433769
 20
334.03293233667
 30
0.0
 11
-107.6757542425746
 21
334.03293233667
 31
0.0
  0
LINE
  5
B3
330
1F
100
AcDbEntity
  8
通り芯
  6
Continuous
 62
     3
370
     9
100
AcDbLine
 10
-430.888875811409
 20
-346.9671122024981
 30
0.0
 11
-383.4626788625069
 21
-346.9671122024981
 31
0.0
  0
LINE
  5
B4
330
1F
100
AcDbEntity
  8
通り芯
  6
Continuous
 62
     3
370
     9
100
AcDbLine
 10
-565.8888263234445
 20
-346.9671122024981
 30
0.0
 11
-518.4625798865779
 21
-346.9671122024981
 31
0.0
  0
LINE
  5
B5
330
1F
100
AcDbEntity
  8
通り芯
  6
Continuous
 62
     3
370
     9
100
AcDbLine
 10
-699.2790323253448
 20
-346.9671122024981
 30
0.0
 11
-651.9625501937992
 21
-346.9671122024981
 31
0.0
  0
LINE
  5
B6
330
1F
100
AcDbEntity
  8
通り芯
  6
Continuous
 62
     3
370
     9
100
AcDbLine
 10
-700.7752019568904
 20
-345.5740260010623
 30
0.0
 11
-703.5328692921944
 21
-306.9671286984862
 31
0.0
  0
LINE
  5
B7
330
1F
100
AcDbEntity
  8
通り芯
  6
Continuous
 62
     3
370
     9
100
AcDbLine
 10
-433.7843671279208
 20
-336.5109981294406
 30
0.0
 11
-432.3714857406742
 21
-345.6951725382244
 31
0.0
  0
LINE
  5
B8
330
1F
100
AcDbEntity
  8
通り芯
  6
Continuous
 62
     3
370
     9
100
AcDbLine
 10
-515.5670638260839
 20
-336.5109981294406
 30
0.0
 11
-516.9800194452773
 21
-345.6951725382244
 31
0.0
  0
LINE
  5
B9
330
1F
100
AcDbEntity
  8
通り芯
  6
Continuous
 62
     3
370
     9
100
AcDbLine
 10
-512.6019676874648
 20
-333.9671188008933
 30
0.0
 11
-436.7494880105222
 21
-333.9671188008933
 31
0.0
  0
LINE
  5
BA
330
1F
100
AcDbEntity
  8
通り芯
  6
Continuous
 62
     3
370
     9
100
AcDbLine
 10
-568.7843176399564
 20
-336.5109981294406
 30
0.0
 11
-567.3713372767808
 21
-345.6951725382244
 31
0.0
  0
LINE
  5
BB
330
1F
100
AcDbEntity
  8
通り芯
  6
Continuous
 62
     3
370
     9
100
AcDbLine
 10
-649.0670588772873
 20
-336.5109981294406
 30
0.0
 11
-650.4799897524986
 21
-345.6951725382244
 31
0.0
  0
LINE
  5
BC
330
1F
100
AcDbEntity
  8
通り芯
  6
Continuous
 62
     3
370
     9
100
AcDbLine
 10
-646.1019379946861
 20
-333.9671188008933
 30
0.0
 11
-571.7493890345933
 21
-333.9671188008933
 31
0.0
  0
LINE
  5
BD
330
1F
100
AcDbEntity
  8
通り芯
  6
Continuous
 62
     3
370
     9
100
AcDbLine
 10
-706.326068986029
 20
-306.9671286984862
 30
0.0
 11
-702.1833819875069
 21
-330.6561760221771
 31
0.0
  0
LINE
  5
BE
330
1F
100
AcDbEntity
  8
通り芯
  6
Continuous
 62
     3
370
     9
100
AcDbLine
 10
417.1247597724171
 20
322.0329917222275
 30
0.0
 11
417.1247597724171
 21
336.0330379109944
 31
0.0
  0
LINE
  5
BF
330
1F
100
AcDbEntity
  8
通り芯
  6
Continuous
 62
     3
370
     9
100
AcDbLine
 10
417.1247597724171
 20
322.0329917222275
 30
0.0
 11
418.7246066896466
 21
323.50802999292
 31
0.0
  0
LINE
  5
C0
330
1F
100
AcDbEntity
  8
通り芯
  6
Continuous
 62
     3
370
     9
100
AcDbLine
 10
417.1247597724171
 20
336.0330379109944
 30
0.0
 11
418.7246066896466
 21
334.5579996403019
 31
0.0
  0
LINE
  5
C1
330
1F
100
AcDbEntity
  8
通り芯
  6
Continuous
 62
     3
370
     9
100
AcDbLine
 10
417.1247597724171
 20
326.2705471487477
 30
0.0
 11
422.32465815713
 21
326.2705471487477
 31
0.0
  0
LINE
  5
C2
330
1F
100
AcDbEntity
  8
通り芯
  6
Continuous
 62
     3
370
     9
100
AcDbLine
 10
417.1247597724171
 20
331.7954824844742
 30
0.0
 11
422.32465815713
 21
331.7954824844742
 31
0.0
  0
LINE
  5
C3
330
1F
100
AcDbEntity
  8
通り芯
  6
Continuous
 62
     3
370
     9
100
AcDbLine
 10
416.3247373378729
 20
322.0329917222275
 30
0.0
 11
417.1247597724171
 21
322.0329917222275
 31
0.0
  0
LINE
  5
C4
330
1F
100
AcDbEntity
  8
通り芯
  6
Continuous
 62
     3
370
     9
100
AcDbLine
 10
418.7246066896466
 20
323.50802999292
 30
0.0
 11
422.32465815713
 21
323.50802999292
 31
0.0
  0
LINE
  5
C5
330
1F
100
AcDbEntity
  8
通り芯
  6
Continuous
 62
     3
370
     9
100
AcDbLine
 10
422.32465815713
 20
323.50802999292
 30
0.0
 11
422.32465815713
 21
334.5579996403019
 31
0.0
  0
LINE
  5
C6
330
1F
100
AcDbEntity
  8
通り芯
  6
Continuous
 62
     3
370
     9
100
AcDbLine
 10
426.3246713539204
 20
326.0330049190181
 30
0.0
 11
426.3246713539204
 21
332.0330247142037
 31
0.0
  0
LINE
  5
C7
330
1F
100
AcDbEntity
  8
通り芯
  6
Continuous
 62
     3
370
     9
100
AcDbLine
 10
426.3246713539204
 20
326.0330049190181
 30
0.0
 11
427.3247241410825
 21
327.0330577061802
 31
0.0
  0
LINE
  5
C8
330
1F
100
AcDbEntity
  8
通り芯
  6
Continuous
 62
     3
370
     9
100
AcDbLine
 10
427.3247241410825
 20
331.0329719270417
 30
0.0
 11
426.3246713539204
 21
332.0330247142037
 31
0.0
  0
LINE
  5
C9
330
1F
100
AcDbEntity
  8
通り芯
  6
Continuous
 62
     3
370
     9
100
AcDbLine
 10
418.7246066896466
 20
334.5579996403019
 30
0.0
 11
422.32465815713
 21
334.5579996403019
 31
0.0
  0
LINE
  5
CA
330
1F
100
AcDbEntity
  8
通り芯
  6
Continuous
 62
     3
370
     9
100
AcDbLine
 10
427.3247241410825
 20
327.0330577061802
 30
0.0
 11
427.3247241410825
 21
331.0329719270417
 31
0.0
  0
LINE
  5
CB
330
1F
100
AcDbEntity
  8
通り芯
  6
Continuous
 62
     3
370
     9
100
AcDbLine
 10
422.32465815713
 20
332.0330247142037
 30
0.0
 11
426.3246713539204
 21
332.0330247142037
 31
0.0
  0
LINE
  5
CC
330
1F
100
AcDbEntity
  8
通り芯
  6
Continuous
 62
     3
370
     9
100
AcDbLine
 10
427.3247241410825
 20
331.0329719270417
 30
0.0
 11
422.32465815713
 21
331.0329719270417
 31
0.0
  0
LINE
  5
CD
330
1F
100
AcDbEntity
  8
通り芯
  6
Continuous
 62
     3
370
     9
100
AcDbLine
 10
422.32465815713
 20
327.0330577061802
 30
0.0
 11
427.3247241410825
 21
327.0330577061802
 31
0.0
  0
LINE
  5
CE
330
1F
100
AcDbEntity
  8
通り芯
  6
Continuous
 62
     3
370
     9
100
AcDbLine
 10
422.32465815713
 20
326.0330049190181
 30
0.0
 11
426.3246713539204
 21
326.0330049190181
 31
0.0
  0
LINE
  5
CF
330
1F
100
AcDbEntity
  8
通り芯
  6
Continuous
 62
     3
370
     9
100
AcDbLine
 10
402.32429524539
 20
324.5330247142037
 30
0.0
 11
416.3247373378729
 21
324.5330247142037
 31
0.0
  0
LINE
  5
D0
330
1F
100
AcDbEntity
  8
通り芯
  6
Continuous
 62
     3
370
     9
100
AcDbLine
 10
402.32429524539
 20
333.5331038949471
 30
0.0
 11
416.3247373378729
 21
333.5331038949471
 31
0.0
  0
LINE
  5
D1
330
1F
100
AcDbEntity
  8
通り芯
  6
Continuous
 62
     3
370
     9
100
AcDbLine
 10
402.32429524539
 20
332.0330247142037
 30
0.0
 11
416.3247373378729
 21
332.0330247142037
 31
0.0
  0
LINE
  5
D2
330
1F
100
AcDbEntity
  8
通り芯
  6
Continuous
 62
     3
370
     9
100
AcDbLine
 10
416.3247373378729
 20
331.0329719270417
 30
0.0
 11
402.32429524539
 21
331.0329719270417
 31
0.0
  0
LINE
  5
D3
330
1F
100
AcDbEntity
  8
通り芯
  6
Continuous
 62
     3
370
     9
100
AcDbLine
 10
416.3247373378729
 20
327.0330577061802
 30
0.0
 11
402.32429524539
 21
327.0330577061802
 31
0.0
  0
LINE
  5
D4
330
1F
100
AcDbEntity
  8
通り芯
  6
Continuous
 62
     3
370
     9
100
AcDbLine
 10
402.32429524539
 20
326.0330049190181
 30
0.0
 11
416.3247373378729
 21
326.0330049190181
 31
0.0
  0
LINE
  5
D5
330
1F
100
AcDbEntity
  8
通り芯
  6
Continuous
 62
     3
370
     9
100
AcDbLine
 10
416.3247373378729
 20
336.0330379109944
 30
0.0
 11
417.1247597724171
 21
336.0330379109944
 31
0.0
  0
LINE
  5
D6
330
1F
100
AcDbEntity
  8
通り芯
  6
Continuous
 62
     3
370
     9
100
AcDbLine
 10
-414.1757509433769
 20
-321.7671478338325
 30
0.0
 11
-412.7007126726843
 21
-323.3671432149558
 31
0.0
  0
LINE
  5
D7
330
1F
100
AcDbEntity
  8
通り芯
  6
Continuous
 62
     3
370
     9
100
AcDbLine
 10
-409.9382944927857
 20
-321.7671478338325
 30
0.0
 11
-409.9382944927857
 21
-326.9671451944744
 31
0.0
  0
LINE
  5
D8
330
1F
100
AcDbEntity
  8
通り芯
  6
Continuous
 62
     3
370
     9
100
AcDbLine
 10
-412.7007126726843
 20
-323.3671432149558
 30
0.0
 11
-412.7007126726843
 21
-326.9671451944744
 31
0.0
  0
LINE
  5
D9
330
1F
100
AcDbEntity
  8
通り芯
  6
Continuous
 62
     3
370
     9
100
AcDbLine
 10
-410.1757377465864
 20
-330.967158391265
 30
0.0
 11
-409.1757839353533
 21
-331.9671122024981
 31
0.0
  0
LINE
  5
DA
330
1F
100
AcDbEntity
  8
通り芯
  6
Continuous
 62
     3
370
     9
100
AcDbLine
 10
-409.1757839353533
 20
-331.9671122024981
 30
0.0
 11
-405.1757707385627
 21
-331.9671122024981
 31
0.0
  0
LINE
  5
DB
330
1F
100
AcDbEntity
  8
通り芯
  6
Continuous
 62
     3
370
     9
100
AcDbLine
 10
-410.1757377465864
 20
-330.967158391265
 30
0.0
 11
-404.1758169273296
 21
-330.967158391265
 31
0.0
  0
LINE
  5
DC
330
1F
100
AcDbEntity
  8
通り芯
  6
Continuous
 62
     3
370
     9
100
AcDbLine
 10
-412.7007126726843
 20
-326.9671451944744
 30
0.0
 11
-401.6508420012316
 21
-326.9671451944744
 31
0.0
  0
LINE
  5
DD
330
1F
100
AcDbEntity
  8
通り芯
  6
Continuous
 62
     3
370
     9
100
AcDbLine
 10
-414.1757509433769
 20
-321.7671478338325
 30
0.0
 11
-400.1758037305391
 21
-321.7671478338325
 31
0.0
  0
LINE
  5
DE
330
1F
100
AcDbEntity
  8
通り芯
  6
Continuous
 62
     3
370
     9
100
AcDbLine
 10
-414.1757509433769
 20
-320.9671253992885
 30
0.0
 11
-414.1757509433769
 21
-321.7671478338325
 31
0.0
  0
LINE
  5
DF
330
1F
100
AcDbEntity
  8
通り芯
  6
Continuous
 62
     3
370
     9
100
AcDbLine
 10
-416.3515387917722
 20
-320.9671253992885
 30
0.0
 11
-398.0000158821438
 21
-320.9671253992885
 31
0.0
  0
LINE
  5
E0
330
1F
100
AcDbEntity
  8
通り芯
  6
Continuous
 62
     3
370
     9
100
AcDbLine
 10
-409.1757839353533
 20
-326.9671451944744
 30
0.0
 11
-409.1757839353533
 21
-331.9671122024981
 31
0.0
  0
LINE
  5
E1
330
1F
100
AcDbEntity
  8
通り芯
  6
Continuous
 62
     3
370
     9
100
AcDbLine
 10
-410.1757377465864
 20
-326.9671451944744
 30
0.0
 11
-410.1757377465864
 21
-330.967158391265
 31
0.0
  0
LINE
  5
E2
330
1F
100
AcDbEntity
  8
通り芯
  6
Continuous
 62
     3
370
     9
100
AcDbLine
 10
-684.1757509433769
 20
-321.7671478338325
 30
0.0
 11
-682.7007621606488
 21
-323.3671432149558
 31
0.0
  0
LINE
  5
E3
330
1F
100
AcDbEntity
  8
通り芯
  6
Continuous
 62
     3
370
     9
100
AcDbLine
 10
-679.938245004821
 20
-321.7671478338325
 30
0.0
 11
-679.938245004821
 21
-326.9671451944744
 31
0.0
  0
LINE
  5
E4
330
1F
100
AcDbEntity
  8
通り芯
  6
Continuous
 62
     3
370
     9
100
AcDbLine
 10
-682.7007621606488
 20
-323.3671432149558
 30
0.0
 11
-682.7007621606488
 21
-326.9671451944744
 31
0.0
  0
LINE
  5
E5
330
1F
100
AcDbEntity
  8
通り芯
  6
Continuous
 62
     3
370
     9
100
AcDbLine
 10
-680.1757377465863
 20
-330.967158391265
 30
0.0
 11
-679.1757344473888
 21
-331.9671122024981
 31
0.0
  0
LINE
  5
E6
330
1F
100
AcDbEntity
  8
通り芯
  6
Continuous
 62
     3
370
     9
100
AcDbLine
 10
-679.1757344473888
 20
-331.9671122024981
 30
0.0
 11
-675.1756717626336
 21
-331.9671122024981
 31
0.0
  0
LINE
  5
E7
330
1F
100
AcDbEntity
  8
通り芯
  6
Continuous
 62
     3
370
     9
100
AcDbLine
 10
-680.1757377465863
 20
-330.967158391265
 30
0.0
 11
-674.1756684634361
 21
-330.967158391265
 31
0.0
  0
LINE
  5
E8
330
1F
100
AcDbEntity
  8
通り芯
  6
Continuous
 62
     3
370
     9
100
AcDbLine
 10
-682.7007621606488
 20
-326.9671451944744
 30
0.0
 11
-671.6506935373382
 21
-326.9671451944744
 31
0.0
  0
LINE
  5
E9
330
1F
100
AcDbEntity
  8
通り芯
  6
Continuous
 62
     3
370
     9
100
AcDbLine
 10
-684.1757509433769
 20
-321.7671478338325
 30
0.0
 11
-670.17570475461
 21
-321.7671478338325
 31
0.0
  0
LINE
  5
EA
330
1F
100
AcDbEntity
  8
通り芯
  6
Continuous
 62
     3
370
     9
100
AcDbLine
 10
-684.1757509433769
 20
-320.9671253992885
 30
0.0
 11
-684.1757509433769
 21
-321.7671478338325
 31
0.0
  0
LINE
  5
EB
330
1F
100
AcDbEntity
  8
通り芯
  6
Continuous
 62
     3
370
     9
100
AcDbLine
 10
-686.3515387917721
 20
-320.9671253992885
 30
0.0
 11
-667.9999169062148
 21
-320.9671253992885
 31
0.0
  0
LINE
  5
EC
330
1F
100
AcDbEntity
  8
通り芯
  6
Continuous
 62
     3
370
     9
100
AcDbLine
 10
-679.1757344473888
 20
-326.9671451944744
 30
0.0
 11
-679.1757344473888
 21
-331.9671122024981
 31
0.0
  0
LINE
  5
ED
330
1F
100
AcDbEntity
  8
通り芯
  6
Continuous
 62
     3
370
     9
100
AcDbLine
 10
-680.1757377465863
 20
-326.9671451944744
 30
0.0
 11
-680.1757377465863
 21
-330.967158391265
 31
0.0
  0
LINE
  5
EE
330
1F
100
AcDbEntity
  8
通り芯
  6
Continuous
 62
     3
370
     9
100
AcDbLine
 10
-670.17570475461
 20
-321.7671478338325
 30
0.0
 11
-671.6506935373382
 21
-323.3671432149558
 31
0.0
  0
LINE
  5
EF
330
1F
100
AcDbEntity
  8
通り芯
  6
Continuous
 62
     3
370
     9
100
AcDbLine
 10
-674.4131612052013
 20
-321.7671478338325
 30
0.0
 11
-674.4131612052013
 21
-326.9671451944744
 31
0.0
  0
LINE
  5
F0
330
1F
100
AcDbEntity
  8
通り芯
  6
Continuous
 62
     3
370
     9
100
AcDbLine
 10
-671.6506935373382
 20
-323.3671432149558
 30
0.0
 11
-671.6506935373382
 21
-326.9671451944744
 31
0.0
  0
LINE
  5
F1
330
1F
100
AcDbEntity
  8
通り芯
  6
Continuous
 62
     3
370
     9
100
AcDbLine
 10
-674.1756684634361
 20
-330.967158391265
 30
0.0
 11
-675.1756717626336
 21
-331.9671122024981
 31
0.0
  0
LINE
  5
F2
330
1F
100
AcDbEntity
  8
通り芯
  6
Continuous
 62
     3
370
     9
100
AcDbLine
 10
-670.17570475461
 20
-320.9671253992885
 30
0.0
 11
-670.17570475461
 21
-321.7671478338325
 31
0.0
  0
LINE
  5
F3
330
1F
100
AcDbEntity
  8
通り芯
  6
Continuous
 62
     3
370
     9
100
AcDbLine
 10
-675.1756717626336
 20
-326.9671451944744
 30
0.0
 11
-675.1756717626336
 21
-331.9671122024981
 31
0.0
  0
LINE
  5
F4
330
1F
100
AcDbEntity
  8
通り芯
  6
Continuous
 62
     3
370
     9
100
AcDbLine
 10
-674.1756684634361
 20
-326.9671451944744
 30
0.0
 11
-674.1756684634361
 21
-330.967158391265
 31
0.0
  0
LINE
  5
F5
330
1F
100
AcDbEntity
  8
通り芯
  6
Continuous
 62
     3
370
     9
100
AcDbLine
 10
415.0108318796804
 20
339.1972983628525
 30
0.0
 11
402.32429524539
 21
340.7828927462983
 31
0.0
  0
LINE
  5
F6
330
1F
100
AcDbEntity
  8
通り芯
  6
Continuous
 62
     3
370
     9
100
AcDbLine
 10
416.3247373378729
 20
337.7087993658085
 30
0.0
 11
416.3247373378729
 21
320.6144687070248
 31
0.0
  0
LINE
  5
F7
330
1F
100
AcDbEntity
  8
通り芯
  6
Continuous
 62
     3
370
     9
100
AcDbLine
 10
-689.6757443449817
 20
-301.9671122024981
 30
0.0
 11
-689.6757443449817
 21
-306.9671286984862
 31
0.0
  0
LINE
  5
F8
330
1F
100
AcDbEntity
  8
通り芯
  6
Continuous
 62
     3
370
     9
100
AcDbLine
 10
-664.6757113530052
 20
-301.9671122024981
 30
0.0
 11
-664.6757113530052
 21
-306.9671286984862
 31
0.0
  0
LINE
  5
F9
330
1F
100
AcDbEntity
  8
通り芯
  6
Continuous
 62
     3
370
     9
100
AcDbLine
 10
-554.6757443449816
 20
-301.9671122024981
 30
0.0
 11
-554.6757443449816
 21
-306.9671286984862
 31
0.0
  0
LINE
  5
FA
330
1F
100
AcDbEntity
  8
通り芯
  6
Continuous
 62
     3
370
     9
100
AcDbLine
 10
-529.6757113530053
 20
-301.9671122024981
 30
0.0
 11
-529.6757113530053
 21
-306.9671286984862
 31
0.0
  0
LINE
  5
FB
330
1F
100
AcDbEntity
  8
通り芯
  6
Continuous
 62
     3
370
     9
100
AcDbLine
 10
-419.6757443449816
 20
-301.9671122024981
 30
0.0
 11
-419.6757443449816
 21
-306.9671286984862
 31
0.0
  0
LINE
  5
FC
330
1F
100
AcDbEntity
  8
通り芯
  6
Continuous
 62
     3
370
     9
100
AcDbLine
 10
-417.8399388128871
 20
-319.653219941096
 30
0.0
 11
-419.4257311481911
 21
-306.9671286984862
 31
0.0
  0
LINE
  5
FD
330
1F
100
AcDbEntity
  8
通り芯
  6
Continuous
 62
     3
370
     9
100
AcDbLine
 10
-687.8399388128871
 20
-319.653219941096
 30
0.0
 11
-689.4257311481911
 21
-306.9671286984862
 31
0.0
  0
LINE
  5
FE
330
1F
100
AcDbEntity
  8
通り芯
  6
Continuous
 62
     3
370
     9
100
AcDbLine
 10
-666.5114673971354
 20
-319.653219941096
 30
0.0
 11
-664.9257245497959
 21
-306.9671286984862
 31
0.0
  0
LINE
  5
FF
330
1F
100
AcDbEntity
  8
通り芯
  6
Continuous
 62
     3
370
     9
100
AcDbLine
 10
-545.121894841181
 20
-320.9671253992885
 30
0.0
 11
-539.229560856806
 21
-320.9671253992885
 31
0.0
  0
LINE
  5
100
330
1F
100
AcDbEntity
  8
通り芯
  6
Continuous
 62
     3
370
     9
100
AcDbLine
 10
-546.6072266084951
 20
-319.6759844047785
 30
0.0
 11
-548.3944844473887
 21
-306.9671286984862
 31
0.0
  0
LINE
  5
101
330
1F
100
AcDbEntity
  8
通り芯
  6
Continuous
 62
     3
370
     9
100
AcDbLine
 10
-537.7442290894918
 20
-319.6759844047785
 30
0.0
 11
-535.9570207385626
 21
-306.9671286984862
 31
0.0
  0
LINE
  5
102
330
1F
100
AcDbEntity
  8
通り芯
  6
Continuous
 62
     3
370
     9
100
AcDbLine
 10
-180.6757476441792
 20
8.03314348531876
 30
0.0
 11
-180.6757476441792
 21
288.0328795495079
 31
0.0
  0
LINE
  5
103
330
1F
100
AcDbEntity
  8
通り芯
  6
Continuous
 62
     3
370
     9
100
AcDbLine
 10
-173.6758235257249
 20
288.0328795495079
 30
0.0
 11
-180.6757476441792
 21
288.0328795495079
 31
0.0
  0
LINE
  5
104
330
1F
100
AcDbEntity
  8
通り芯
  6
Continuous
 62
     3
370
     9
100
AcDbLine
 10
-173.6758235257249
 20
8.03314348531876
 30
0.0
 11
-173.6758235257249
 21
288.0328795495079
 31
0.0
  0
LINE
  5
105
330
1F
100
AcDbEntity
  8
通り芯
  6
Continuous
 62
     3
370
     9
100
AcDbLine
 10
-178.1758136281319
 20
10.53307750136605
 30
0.0
 11
-178.1758136281319
 21
285.5329455334605
 31
0.0
  0
LINE
  5
106
330
1F
100
AcDbEntity
  8
通り芯
  6
Continuous
 62
     3
370
     9
100
AcDbLine
 10
-176.1757575417722
 20
285.5329455334605
 30
0.0
 11
-178.1758136281319
 21
285.5329455334605
 31
0.0
  0
LINE
  5
107
330
1F
100
AcDbEntity
  8
通り芯
  6
Continuous
 62
     3
370
     9
100
AcDbLine
 10
-176.1757575417722
 20
10.53307750136605
 30
0.0
 11
-176.1757575417722
 21
285.5329455334605
 31
0.0
  0
LINE
  5
108
330
1F
100
AcDbEntity
  8
通り芯
  6
Continuous
 62
     3
370
     9
100
AcDbLine
 10
-180.6757476441792
 20
288.0328795495079
 30
0.0
 11
-178.1758136281319
 21
285.5329455334605
 31
0.0
  0
LINE
  5
109
330
1F
100
AcDbEntity
  8
通り芯
  6
Continuous
 62
     3
370
     9
100
AcDbLine
 10
-173.6758235257249
 20
288.0328795495079
 30
0.0
 11
-176.1757575417722
 21
285.5329455334605
 31
0.0
  0
LINE
  5
10A
330
1F
100
AcDbEntity
  8
通り芯
  6
Continuous
 62
     3
370
     9
100
AcDbLine
 10
-295.6757311481911
 20
8.03314348531876
 30
0.0
 11
-295.6757311481911
 21
288.0328795495079
 31
0.0
  0
LINE
  5
10B
330
1F
100
AcDbEntity
  8
通り芯
  6
Continuous
 62
     3
370
     9
100
AcDbLine
 10
-288.6757575417722
 20
288.0328795495079
 30
0.0
 11
-295.6757311481911
 21
288.0328795495079
 31
0.0
  0
LINE
  5
10C
330
1F
100
AcDbEntity
  8
通り芯
  6
Continuous
 62
     3
370
     9
100
AcDbLine
 10
-288.6757575417722
 20
8.03314348531876
 30
0.0
 11
-288.6757575417722
 21
288.0328795495079
 31
0.0
  0
LINE
  5
10D
330
1F
100
AcDbEntity
  8
通り芯
  6
Continuous
 62
     3
370
     9
100
AcDbLine
 10
-293.1757476441792
 20
10.53307750136605
 30
0.0
 11
-293.1757476441792
 21
285.5329455334605
 31
0.0
  0
LINE
  5
10E
330
1F
100
AcDbEntity
  8
通り芯
  6
Continuous
 62
     3
370
     9
100
AcDbLine
 10
-291.1756915578194
 20
285.5329455334605
 30
0.0
 11
-293.1757476441792
 21
285.5329455334605
 31
0.0
  0
LINE
  5
10F
330
1F
100
AcDbEntity
  8
通り芯
  6
Continuous
 62
     3
370
     9
100
AcDbLine
 10
-291.1756915578194
 20
10.53307750136605
 30
0.0
 11
-291.1756915578194
 21
285.5329455334605
 31
0.0
  0
LINE
  5
110
330
1F
100
AcDbEntity
  8
通り芯
  6
Continuous
 62
     3
370
     9
100
AcDbLine
 10
-295.6757311481911
 20
288.0328795495079
 30
0.0
 11
-293.1757476441792
 21
285.5329455334605
 31
0.0
  0
LINE
  5
111
330
1F
100
AcDbEntity
  8
通り芯
  6
Continuous
 62
     3
370
     9
100
AcDbLine
 10
-288.6757575417722
 20
288.0328795495079
 30
0.0
 11
-291.1756915578194
 21
285.5329455334605
 31
0.0
  0
LINE
  5
112
330
1F
100
AcDbEntity
  8
通り芯
  6
Continuous
 62
     3
370
     9
100
AcDbLine
 10
-403.675741045784
 20
8.03314348531876
 30
0.0
 11
-403.675741045784
 21
288.0328795495079
 31
0.0
  0
LINE
  5
113
330
1F
100
AcDbEntity
  8
通り芯
  6
Continuous
 62
     3
370
     9
100
AcDbLine
 10
-406.1757245497958
 20
10.53307750136605
 30
0.0
 11
-406.1757245497958
 21
285.5329455334605
 31
0.0
  0
LINE
  5
114
330
1F
100
AcDbEntity
  8
通り芯
  6
Continuous
 62
     3
370
     9
100
AcDbLine
 10
-403.675741045784
 20
288.0328795495079
 30
0.0
 11
-406.1757245497958
 21
285.5329455334605
 31
0.0
  0
LINE
  5
115
330
1F
100
AcDbEntity
  8
通り芯
  6
Continuous
 62
     3
370
     9
100
AcDbLine
 10
-107.6757542425746
 20
-37.96690930184354
 30
0.0
 11
-107.6757542425746
 21
334.03293233667
 31
0.0
  0
LINE
  5
116
330
1F
100
AcDbEntity
  8
通り芯
  6
Continuous
 62
     3
370
     9
100
AcDbLine
 10
-111.6757674393651
 20
-37.96690930184354
 30
0.0
 11
-111.6757674393651
 21
334.03293233667
 31
0.0
  0
LINE
  5
117
330
1F
100
AcDbEntity
  8
通り芯
  6
Continuous
 62
     3
370
     9
100
AcDbLine
 10
-119.2649942394073
 20
306.5133680946938
 30
0.0
 11
-119.2649942394073
 21
-10.44734505986708
 31
0.0
  0
LINE
  5
118
330
1F
100
AcDbEntity
  8
通り芯
  6
Continuous
 62
     3
370
     9
100
AcDbLine
 10
-113.1757476441792
 20
144.0329983206227
 30
0.0
 11
-113.1757476441792
 21
152.0330247142037
 31
0.0
  0
LINE
  5
119
330
1F
100
AcDbEntity
  8
通り芯
  6
Continuous
 62
     3
370
     9
100
AcDbLine
 10
-117.1757608409698
 20
144.0329983206227
 30
0.0
 11
-117.1757608409698
 21
152.0330247142037
 31
0.0
  0
LINE
  5
11A
330
1F
100
AcDbEntity
  8
通り芯
  6
Continuous
 62
     3
370
     9
100
AcDbLine
 10
-111.6757674393651
 20
152.0330247142037
 30
0.0
 11
-117.1757608409698
 21
152.0330247142037
 31
0.0
  0
LINE
  5
11B
330
1F
100
AcDbEntity
  8
通り芯
  6
Continuous
 62
     3
370
     9
100
AcDbLine
 10
-114.685922369686
 20
154.0329818246346
 30
0.0
 11
-115.6859256688836
 21
153.5329554310536
 31
0.0
  0
LINE
  5
11C
330
1F
100
AcDbEntity
  8
通り芯
  6
Continuous
 62
     3
370
     9
100
AcDbLine
 10
-115.6859256688836
 20
153.5329554310536
 30
0.0
 11
-118.6935567130137
 21
153.5329554310536
 31
0.0
  0
LINE
  5
11D
330
1F
100
AcDbEntity
  8
通り芯
  6
Continuous
 62
     3
370
     9
100
AcDbLine
 10
-118.6935567130137
 20
153.5329554310536
 30
0.0
 11
-115.6859256688836
 21
154.0329818246346
 31
0.0
  0
LINE
  5
11E
330
1F
100
AcDbEntity
  8
通り芯
  6
Continuous
 62
     3
370
     9
100
AcDbLine
 10
-115.6859256688836
 20
154.0329818246346
 30
0.0
 11
-114.685922369686
 21
154.0329818246346
 31
0.0
  0
LINE
  5
11F
330
1F
100
AcDbEntity
  8
通り芯
  6
Continuous
 62
     3
370
     9
100
AcDbLine
 10
-118.6935567130137
 20
142.5330676037731
 30
0.0
 11
-118.6935567130137
 21
153.5329554310536
 31
0.0
  0
LINE
  5
120
330
1F
100
AcDbEntity
  8
通り芯
  6
Continuous
 62
     3
370
     9
100
AcDbLine
 10
-114.685922369686
 20
154.0329818246346
 30
0.0
 11
-114.685922369686
 21
152.0330247142037
 31
0.0
  0
LINE
  5
121
330
1F
100
AcDbEntity
  8
通り芯
  6
Continuous
 62
     3
370
     9
100
AcDbLine
 10
-117.6935534138161
 20
307.1634419967208
 30
0.0
 11
-117.6935534138161
 21
153.6991855038998
 31
0.0
  0
LINE
  5
122
330
1F
100
AcDbEntity
  8
通り芯
  6
Continuous
 62
     3
370
     9
100
AcDbLine
 10
-689.6757319729904
 20
343.0330115174133
 30
0.0
 11
-664.6757113530052
 21
343.0330115174133
 31
0.0
  0
LINE
  5
123
330
1F
100
AcDbEntity
  8
通り芯
  6
Continuous
 62
     3
370
     9
100
AcDbLine
 10
-664.6757113530052
 20
343.0330115174133
 30
0.0
 11
-664.6757113530052
 21
334.03293233667
 31
0.0
  0
LINE
  5
124
330
1F
100
AcDbEntity
  8
通り芯
  6
Continuous
 62
     3
370
     9
100
AcDbLine
 10
-664.6757113530052
 20
330.0329191398796
 30
0.0
 11
-664.6757113530052
 21
319.03293233667
 31
0.0
  0
LINE
  5
125
330
1F
100
AcDbEntity
  8
通り芯
  6
Continuous
 62
     3
370
     9
100
AcDbLine
 10
-689.6757319729904
 20
343.0330115174133
 30
0.0
 11
-689.6757319729904
 21
334.03293233667
 31
0.0
  0
LINE
  5
126
330
1F
100
AcDbEntity
  8
通り芯
  6
Continuous
 62
     3
370
     9
100
AcDbLine
 10
-689.6757319729904
 20
330.0329191398796
 30
0.0
 11
-689.6757319729904
 21
319.03293233667
 31
0.0
  0
LINE
  5
127
330
1F
100
AcDbEntity
  8
通り芯
  6
Continuous
 62
     3
370
     9
100
AcDbLine
 10
-554.6757443449816
 20
343.0330115174133
 30
0.0
 11
-529.6757113530053
 21
343.0330115174133
 31
0.0
  0
LINE
  5
128
330
1F
100
AcDbEntity
  8
通り芯
  6
Continuous
 62
     3
370
     9
100
AcDbLine
 10
-529.6757113530053
 20
343.0330115174133
 30
0.0
 11
-529.6757113530053
 21
334.03293233667
 31
0.0
  0
LINE
  5
129
330
1F
100
AcDbEntity
  8
通り芯
  6
Continuous
 62
     3
370
     9
100
AcDbLine
 10
-529.6757113530053
 20
330.0329191398796
 30
0.0
 11
-529.6757113530053
 21
319.03293233667
 31
0.0
  0
LINE
  5
12A
330
1F
100
AcDbEntity
  8
通り芯
  6
Continuous
 62
     3
370
     9
100
AcDbLine
 10
-554.6757443449816
 20
343.0330115174133
 30
0.0
 11
-554.6757443449816
 21
334.03293233667
 31
0.0
  0
LINE
  5
12B
330
1F
100
AcDbEntity
  8
通り芯
  6
Continuous
 62
     3
370
     9
100
AcDbLine
 10
-554.6757443449816
 20
330.0329191398796
 30
0.0
 11
-554.6757443449816
 21
319.03293233667
 31
0.0
  0
LINE
  5
12C
330
1F
100
AcDbEntity
  8
通り芯
  6
Continuous
 62
     3
370
     9
100
AcDbLine
 10
-419.6757443449816
 20
343.0330115174133
 30
0.0
 11
-419.6757443449816
 21
334.03293233667
 31
0.0
  0
LINE
  5
12D
330
1F
100
AcDbEntity
  8
通り芯
  6
Continuous
 62
     3
370
     9
100
AcDbLine
 10
-419.6757443449816
 20
330.0329191398796
 30
0.0
 11
-419.6757443449816
 21
319.03293233667
 31
0.0
  0
LINE
  5
12E
330
1F
100
AcDbEntity
  8
通り芯
  6
Continuous
 62
     3
370
     9
100
AcDbLine
 10
-419.6757443449816
 20
343.0330115174133
 30
0.0
 11
-394.6757113530053
 21
343.0330115174133
 31
0.0
  0
LINE
  5
12F
330
1F
100
AcDbEntity
  8
通り芯
  6
Continuous
 62
     3
370
     9
100
AcDbLine
 10
-124.6757608409698
 20
343.0330115174133
 30
0.0
 11
-149.6757443449816
 21
343.0330115174133
 31
0.0
  0
LINE
  5
130
330
1F
100
AcDbEntity
  8
通り芯
  6
Continuous
 62
     3
370
     9
100
AcDbLine
 10
-149.6757443449816
 20
343.0330115174133
 30
0.0
 11
-149.6757443449816
 21
334.03293233667
 31
0.0
  0
LINE
  5
131
330
1F
100
AcDbEntity
  8
通り芯
  6
Continuous
 62
     3
370
     9
100
AcDbLine
 10
-149.6757443449816
 20
330.0329191398796
 30
0.0
 11
-149.6757443449816
 21
319.03293233667
 31
0.0
  0
LINE
  5
132
330
1F
100
AcDbEntity
  8
通り芯
  6
Continuous
 62
     3
370
     9
100
AcDbLine
 10
-124.6757608409698
 20
343.0330115174133
 30
0.0
 11
-124.6757608409698
 21
334.03293233667
 31
0.0
  0
LINE
  5
133
330
1F
100
AcDbEntity
  8
通り芯
  6
Continuous
 62
     3
370
     9
100
AcDbLine
 10
-124.6757608409698
 20
330.0329191398796
 30
0.0
 11
-124.6757608409698
 21
319.03293233667
 31
0.0
  0
LINE
  5
134
330
1F
100
AcDbEntity
  8
通り芯
  6
Continuous
 62
     3
370
     9
100
AcDbLine
 10
-259.6757113530053
 20
343.0330115174133
 30
0.0
 11
-284.6757938329461
 21
343.0330115174133
 31
0.0
  0
LINE
  5
135
330
1F
100
AcDbEntity
  8
通り芯
  6
Continuous
 62
     3
370
     9
100
AcDbLine
 10
-284.6757938329461
 20
343.0330115174133
 30
0.0
 11
-284.6757938329461
 21
334.03293233667
 31
0.0
  0
LINE
  5
136
330
1F
100
AcDbEntity
  8
通り芯
  6
Continuous
 62
     3
370
     9
100
AcDbLine
 10
-284.6757938329461
 20
330.0329191398796
 30
0.0
 11
-284.6757938329461
 21
319.03293233667
 31
0.0
  0
LINE
  5
137
330
1F
100
AcDbEntity
  8
通り芯
  6
Continuous
 62
     3
370
     9
100
AcDbLine
 10
-259.6757113530053
 20
343.0330115174133
 30
0.0
 11
-259.6757113530053
 21
334.03293233667
 31
0.0
  0
LINE
  5
138
330
1F
100
AcDbEntity
  8
通り芯
  6
Continuous
 62
     3
370
     9
100
AcDbLine
 10
-259.6757113530053
 20
330.0329191398796
 30
0.0
 11
-259.6757113530053
 21
319.03293233667
 31
0.0
  0
LINE
  5
139
330
1F
100
AcDbEntity
  8
通り芯
  6
Continuous
 62
     3
370
     9
100
AcDbLine
 10
-394.6757113530053
 20
343.0330115174133
 30
0.0
 11
-394.6757113530053
 21
334.03293233667
 31
0.0
  0
LINE
  5
13A
330
1F
100
AcDbEntity
  8
通り芯
  6
Continuous
 62
     3
370
     9
100
AcDbLine
 10
-394.6757113530053
 20
330.0329191398796
 30
0.0
 11
-394.6757113530053
 21
319.03293233667
 31
0.0
  0
LINE
  5
13B
330
1F
100
AcDbEntity
  8
通り芯
  6
Continuous
 62
     3
370
     9
100
AcDbLine
 10
440.9312420359304
 20
315.1324889245079
 30
0.0
 11
420.0397988349171
 21
316.6247490068558
 31
0.0
  0
LINE
  5
13C
330
1F
100
AcDbEntity
  8
通り芯
  6
Continuous
 62
     3
370
     9
100
AcDbLine
 10
-640.6756816602265
 20
8.03314348531876
 30
0.0
 11
-633.6756833098254
 21
8.03314348531876
 31
0.0
  0
LINE
  5
13D
330
1F
100
AcDbEntity
  8
通り芯
  6
Continuous
 62
     3
370
     9
100
AcDbLine
 10
-638.1756981562148
 20
10.53307750136605
 30
0.0
 11
-636.1756668138373
 21
10.53307750136605
 31
0.0
  0
LINE
  5
13E
330
1F
100
AcDbEntity
  8
通り芯
  6
Continuous
 62
     3
370
     9
100
AcDbLine
 10
-633.6756833098254
 20
8.03314348531876
 30
0.0
 11
-636.1756668138373
 21
10.53307750136605
 31
0.0
  0
LINE
  5
13F
330
1F
100
AcDbEntity
  8
通り芯
  6
Continuous
 62
     3
370
     9
100
AcDbLine
 10
-640.6756816602265
 20
8.03314348531876
 30
0.0
 11
-638.1756981562148
 21
10.53307750136605
 31
0.0
  0
LINE
  5
140
330
1F
100
AcDbEntity
  8
通り芯
  6
Continuous
 62
     3
370
     9
100
AcDbLine
 10
-525.6757229001971
 20
8.03314348531876
 30
0.0
 11
-518.6757245497959
 21
8.03314348531876
 31
0.0
  0
LINE
  5
141
330
1F
100
AcDbEntity
  8
通り芯
  6
Continuous
 62
     3
370
     9
100
AcDbLine
 10
-523.1757641401675
 20
10.53307750136605
 30
0.0
 11
-521.1757080538077
 21
10.53307750136605
 31
0.0
  0
LINE
  5
142
330
1F
100
AcDbEntity
  8
通り芯
  6
Continuous
 62
     3
370
     9
100
AcDbLine
 10
-518.6757245497959
 20
8.03314348531876
 30
0.0
 11
-521.1757080538077
 21
10.53307750136605
 31
0.0
  0
LINE
  5
143
330
1F
100
AcDbEntity
  8
通り芯
  6
Continuous
 62
     3
370
     9
100
AcDbLine
 10
-525.6757229001971
 20
8.03314348531876
 30
0.0
 11
-523.1757641401675
 21
10.53307750136605
 31
0.0
  0
LINE
  5
144
330
1F
100
AcDbEntity
  8
通り芯
  6
Continuous
 62
     3
370
     9
100
AcDbLine
 10
-410.6757146522029
 20
8.03314348531876
 30
0.0
 11
-408.1757311481911
 21
10.53307750136605
 31
0.0
  0
LINE
  5
145
330
1F
100
AcDbEntity
  8
通り芯
  6
Continuous
 62
     3
370
     9
100
AcDbLine
 10
-410.6757146522029
 20
8.03314348531876
 30
0.0
 11
-403.675741045784
 21
8.03314348531876
 31
0.0
  0
LINE
  5
146
330
1F
100
AcDbEntity
  8
通り芯
  6
Continuous
 62
     3
370
     9
100
AcDbLine
 10
-408.1757311481911
 20
10.53307750136605
 30
0.0
 11
-406.1757245497958
 21
10.53307750136605
 31
0.0
  0
LINE
  5
147
330
1F
100
AcDbEntity
  8
通り芯
  6
Continuous
 62
     3
370
     9
100
AcDbLine
 10
-702.6757501185775
 20
-18.96689610505291
 30
0.0
 11
-111.6757674393651
 21
-18.96689610505291
 31
0.0
  0
LINE
  5
148
330
1F
100
AcDbEntity
  8
通り芯
  6
Continuous
 62
     3
370
     9
100
AcDbLine
 10
-702.6757501185775
 20
-22.96690930184354
 30
0.0
 11
-111.6757674393651
 21
-22.96690930184354
 31
0.0
  0
LINE
  5
149
330
1F
100
AcDbEntity
  8
通り芯
  6
Continuous
 62
     3
370
     9
100
AcDbLine
 10
-702.6757501185775
 20
-33.96689610505291
 30
0.0
 11
-111.6757674393651
 21
-33.96689610505291
 31
0.0
  0
LINE
  5
14A
330
1F
100
AcDbEntity
  8
通り芯
  6
Continuous
 62
     3
370
     9
100
AcDbLine
 10
-692.6579138313625
 20
-15.09733318275562
 30
0.0
 11
-121.6935666106066
 21
-15.09733318275562
 31
0.0
  0
LINE
  5
14B
330
1F
100
AcDbEntity
  8
通り芯
  6
Continuous
 62
     3
370
     9
100
AcDbLine
 10
-692.0865257929336
 20
-13.44740444542458
 30
0.0
 11
-122.2649546490357
 21
-13.44740444542458
 31
0.0
  0
LINE
  5
14C
330
1F
100
AcDbEntity
  8
通り芯
  6
Continuous
 62
     3
370
     9
100
AcDbLine
 10
-702.6757501185775
 20
144.0329983206227
 30
0.0
 11
-697.1757072290081
 21
144.0329983206227
 31
0.0
  0
LINE
  5
14D
330
1F
100
AcDbEntity
  8
通り芯
  6
Continuous
 62
     3
370
     9
100
AcDbLine
 10
-699.6655457002921
 20
142.0330412101921
 30
0.0
 11
-698.6655176571121
 21
142.5330676037731
 31
0.0
  0
LINE
  5
14E
330
1F
100
AcDbEntity
  8
通り芯
  6
Continuous
 62
     3
370
     9
100
AcDbLine
 10
-698.6655176571121
 20
142.5330676037731
 30
0.0
 11
-695.6579113569644
 21
142.5330676037731
 31
0.0
  0
LINE
  5
14F
330
1F
100
AcDbEntity
  8
通り芯
  6
Continuous
 62
     3
370
     9
100
AcDbLine
 10
-695.6579113569644
 20
142.5330676037731
 30
0.0
 11
-698.6655176571121
 21
142.0330412101921
 31
0.0
  0
LINE
  5
150
330
1F
100
AcDbEntity
  8
通り芯
  6
Continuous
 62
     3
370
     9
100
AcDbLine
 10
-698.6655176571121
 20
142.0330412101921
 30
0.0
 11
-699.6655457002921
 21
142.0330412101921
 31
0.0
  0
LINE
  5
151
330
1F
100
AcDbEntity
  8
通り芯
  6
Continuous
 62
     3
370
     9
100
AcDbLine
 10
-699.6655457002921
 20
142.0330412101921
 30
0.0
 11
-699.6655457002921
 21
144.0329983206227
 31
0.0
  0
LINE
  5
152
330
1F
100
AcDbEntity
  8
通り芯
  6
Continuous
 62
     3
370
     9
100
AcDbLine
 10
-696.6579270281532
 20
-11.09741896189416
 30
0.0
 11
-696.6579270281532
 21
142.3668375309269
 31
0.0
  0
LINE
  5
153
330
1F
100
AcDbEntity
  8
通り芯
  6
Continuous
 62
     3
370
     9
100
AcDbLine
 10
-706.6757509433769
 20
-37.96690930184354
 30
0.0
 11
-107.6757542425746
 21
-37.96690930184354
 31
0.0
  0
LINE
  5
154
330
1F
100
AcDbEntity
  8
通り芯
  6
Continuous
 62
     3
370
     9
100
AcDbLine
 10
-173.6758235257249
 20
8.03314348531876
 30
0.0
 11
-180.6757476441792
 21
8.03314348531876
 31
0.0
  0
LINE
  5
155
330
1F
100
AcDbEntity
  8
通り芯
  6
Continuous
 62
     3
370
     9
100
AcDbLine
 10
-176.1757575417722
 20
10.53307750136605
 30
0.0
 11
-178.1758136281319
 21
10.53307750136605
 31
0.0
  0
LINE
  5
156
330
1F
100
AcDbEntity
  8
通り芯
  6
Continuous
 62
     3
370
     9
100
AcDbLine
 10
-180.6757476441792
 20
8.03314348531876
 30
0.0
 11
-178.1758136281319
 21
10.53307750136605
 31
0.0
  0
LINE
  5
157
330
1F
100
AcDbEntity
  8
通り芯
  6
Continuous
 62
     3
370
     9
100
AcDbLine
 10
-173.6758235257249
 20
8.03314348531876
 30
0.0
 11
-176.1757575417722
 21
10.53307750136605
 31
0.0
  0
LINE
  5
158
330
1F
100
AcDbEntity
  8
通り芯
  6
Continuous
 62
     3
370
     9
100
AcDbLine
 10
-288.6757575417722
 20
8.03314348531876
 30
0.0
 11
-295.6757311481911
 21
8.03314348531876
 31
0.0
  0
LINE
  5
159
330
1F
100
AcDbEntity
  8
通り芯
  6
Continuous
 62
     3
370
     9
100
AcDbLine
 10
-291.1756915578194
 20
10.53307750136605
 30
0.0
 11
-293.1757476441792
 21
10.53307750136605
 31
0.0
  0
LINE
  5
15A
330
1F
100
AcDbEntity
  8
通り芯
  6
Continuous
 62
     3
370
     9
100
AcDbLine
 10
-295.6757311481911
 20
8.03314348531876
 30
0.0
 11
-293.1757476441792
 21
10.53307750136605
 31
0.0
  0
LINE
  5
15B
330
1F
100
AcDbEntity
  8
通り芯
  6
Continuous
 62
     3
370
     9
100
AcDbLine
 10
-288.6757575417722
 20
8.03314348531876
 30
0.0
 11
-291.1756915578194
 21
10.53307750136605
 31
0.0
  0
LINE
  5
15C
330
1F
100
AcDbEntity
  8
通り芯
  6
Continuous
 62
     3
370
     9
100
AcDbLine
 10
-403.675741045784
 20
8.03314348531876
 30
0.0
 11
-406.1757245497958
 21
10.53307750136605
 31
0.0
  0
LINE
  5
15D
330
1F
100
AcDbEntity
  8
通り芯
  6
Continuous
 62
     3
370
     9
100
AcDbLine
 10
-111.6757674393651
 20
144.0329983206227
 30
0.0
 11
-117.1757608409698
 21
144.0329983206227
 31
0.0
  0
LINE
  5
15E
330
1F
100
AcDbEntity
  8
通り芯
  6
Continuous
 62
     3
370
     9
100
AcDbLine
 10
-114.685922369686
 20
142.0330412101921
 30
0.0
 11
-115.6859256688836
 21
142.5330676037731
 31
0.0
  0
LINE
  5
15F
330
1F
100
AcDbEntity
  8
通り芯
  6
Continuous
 62
     3
370
     9
100
AcDbLine
 10
-115.6859256688836
 20
142.5330676037731
 30
0.0
 11
-118.6935567130137
 21
142.5330676037731
 31
0.0
  0
LINE
  5
160
330
1F
100
AcDbEntity
  8
通り芯
  6
Continuous
 62
     3
370
     9
100
AcDbLine
 10
-118.6935567130137
 20
142.5330676037731
 30
0.0
 11
-115.6859256688836
 21
142.0330412101921
 31
0.0
  0
LINE
  5
161
330
1F
100
AcDbEntity
  8
通り芯
  6
Continuous
 62
     3
370
     9
100
AcDbLine
 10
-115.6859256688836
 20
142.0330412101921
 30
0.0
 11
-114.685922369686
 21
142.0330412101921
 31
0.0
  0
LINE
  5
162
330
1F
100
AcDbEntity
  8
通り芯
  6
Continuous
 62
     3
370
     9
100
AcDbLine
 10
-114.685922369686
 20
142.0330412101921
 30
0.0
 11
-114.685922369686
 21
144.0329983206227
 31
0.0
  0
LINE
  5
163
330
1F
100
AcDbEntity
  8
通り芯
  6
Continuous
 62
     3
370
     9
100
AcDbLine
 10
-117.6935534138161
 20
-11.09741896189416
 30
0.0
 11
-117.6935534138161
 21
142.3668375309269
 31
0.0
  0
LINE
  5
164
330
1F
100
AcDbEntity
  8
通り芯
  6
Continuous
 62
     3
370
     9
100
AcDbLine
 10
-689.6757319729904
 20
-46.96698848258666
 30
0.0
 11
-664.6757113530052
 21
-46.96698848258666
 31
0.0
  0
LINE
  5
165
330
1F
100
AcDbEntity
  8
通り芯
  6
Continuous
 62
     3
370
     9
100
AcDbLine
 10
-664.6757113530052
 20
-46.96698848258666
 30
0.0
 11
-664.6757113530052
 21
-37.96690930184354
 31
0.0
  0
LINE
  5
166
330
1F
100
AcDbEntity
  8
通り芯
  6
Continuous
 62
     3
370
     9
100
AcDbLine
 10
-664.6757113530052
 20
-33.96689610505291
 30
0.0
 11
-664.6757113530052
 21
-22.96690930184354
 31
0.0
  0
LINE
  5
167
330
1F
100
AcDbEntity
  8
通り芯
  6
Continuous
 62
     3
370
     9
100
AcDbLine
 10
-689.6757319729904
 20
-46.96698848258666
 30
0.0
 11
-689.6757319729904
 21
-37.96690930184354
 31
0.0
  0
LINE
  5
168
330
1F
100
AcDbEntity
  8
通り芯
  6
Continuous
 62
     3
370
     9
100
AcDbLine
 10
-689.6757319729904
 20
-33.96689610505291
 30
0.0
 11
-689.6757319729904
 21
-22.96690930184354
 31
0.0
  0
LINE
  5
169
330
1F
100
AcDbEntity
  8
通り芯
  6
Continuous
 62
     3
370
     9
100
AcDbLine
 10
-554.6757443449816
 20
-46.96698848258666
 30
0.0
 11
-529.6757113530053
 21
-46.96698848258666
 31
0.0
  0
LINE
  5
16A
330
1F
100
AcDbEntity
  8
通り芯
  6
Continuous
 62
     3
370
     9
100
AcDbLine
 10
-529.6757113530053
 20
-46.96698848258666
 30
0.0
 11
-529.6757113530053
 21
-37.96690930184354
 31
0.0
  0
LINE
  5
16B
330
1F
100
AcDbEntity
  8
通り芯
  6
Continuous
 62
     3
370
     9
100
AcDbLine
 10
-529.6757113530053
 20
-33.96689610505291
 30
0.0
 11
-529.6757113530053
 21
-22.96690930184354
 31
0.0
  0
LINE
  5
16C
330
1F
100
AcDbEntity
  8
通り芯
  6
Continuous
 62
     3
370
     9
100
AcDbLine
 10
-554.6757443449816
 20
-46.96698848258666
 30
0.0
 11
-554.6757443449816
 21
-37.96690930184354
 31
0.0
  0
LINE
  5
16D
330
1F
100
AcDbEntity
  8
通り芯
  6
Continuous
 62
     3
370
     9
100
AcDbLine
 10
-554.6757443449816
 20
-33.96689610505291
 30
0.0
 11
-554.6757443449816
 21
-22.96690930184354
 31
0.0
  0
LINE
  5
16E
330
1F
100
AcDbEntity
  8
通り芯
  6
Continuous
 62
     3
370
     9
100
AcDbLine
 10
-419.6757443449816
 20
-46.96698848258666
 30
0.0
 11
-419.6757443449816
 21
-37.96690930184354
 31
0.0
  0
LINE
  5
16F
330
1F
100
AcDbEntity
  8
通り芯
  6
Continuous
 62
     3
370
     9
100
AcDbLine
 10
-419.6757443449816
 20
-33.96689610505291
 30
0.0
 11
-419.6757443449816
 21
-22.96690930184354
 31
0.0
  0
LINE
  5
170
330
1F
100
AcDbEntity
  8
通り芯
  6
Continuous
 62
     3
370
     9
100
AcDbLine
 10
-419.6757443449816
 20
-46.96698848258666
 30
0.0
 11
-394.6757113530053
 21
-46.96698848258666
 31
0.0
  0
LINE
  5
171
330
1F
100
AcDbEntity
  8
通り芯
  6
Continuous
 62
     3
370
     9
100
AcDbLine
 10
-124.6757608409698
 20
-46.96698848258666
 30
0.0
 11
-149.6757443449816
 21
-46.96698848258666
 31
0.0
  0
LINE
  5
172
330
1F
100
AcDbEntity
  8
通り芯
  6
Continuous
 62
     3
370
     9
100
AcDbLine
 10
-149.6757443449816
 20
-46.96698848258666
 30
0.0
 11
-149.6757443449816
 21
-37.96690930184354
 31
0.0
  0
LINE
  5
173
330
1F
100
AcDbEntity
  8
通り芯
  6
Continuous
 62
     3
370
     9
100
AcDbLine
 10
-149.6757443449816
 20
-33.96689610505291
 30
0.0
 11
-149.6757443449816
 21
-22.96690930184354
 31
0.0
  0
LINE
  5
174
330
1F
100
AcDbEntity
  8
通り芯
  6
Continuous
 62
     3
370
     9
100
AcDbLine
 10
-124.6757608409698
 20
-46.96698848258666
 30
0.0
 11
-124.6757608409698
 21
-37.96690930184354
 31
0.0
  0
LINE
  5
175
330
1F
100
AcDbEntity
  8
通り芯
  6
Continuous
 62
     3
370
     9
100
AcDbLine
 10
-124.6757608409698
 20
-33.96689610505291
 30
0.0
 11
-124.6757608409698
 21
-22.96690930184354
 31
0.0
  0
LINE
  5
176
330
1F
100
AcDbEntity
  8
通り芯
  6
Continuous
 62
     3
370
     9
100
AcDbLine
 10
-259.6757113530053
 20
-46.96698848258666
 30
0.0
 11
-284.6757938329461
 21
-46.96698848258666
 31
0.0
  0
LINE
  5
177
330
1F
100
AcDbEntity
  8
通り芯
  6
Continuous
 62
     3
370
     9
100
AcDbLine
 10
-284.6757938329461
 20
-46.96698848258666
 30
0.0
 11
-284.6757938329461
 21
-37.96690930184354
 31
0.0
  0
LINE
  5
178
330
1F
100
AcDbEntity
  8
通り芯
  6
Continuous
 62
     3
370
     9
100
AcDbLine
 10
-284.6757938329461
 20
-33.96689610505291
 30
0.0
 11
-284.6757938329461
 21
-22.96690930184354
 31
0.0
  0
LINE
  5
179
330
1F
100
AcDbEntity
  8
通り芯
  6
Continuous
 62
     3
370
     9
100
AcDbLine
 10
-259.6757113530053
 20
-46.96698848258666
 30
0.0
 11
-259.6757113530053
 21
-37.96690930184354
 31
0.0
  0
LINE
  5
17A
330
1F
100
AcDbEntity
  8
通り芯
  6
Continuous
 62
     3
370
     9
100
AcDbLine
 10
-259.6757113530053
 20
-33.96689610505291
 30
0.0
 11
-259.6757113530053
 21
-22.96690930184354
 31
0.0
  0
LINE
  5
17B
330
1F
100
AcDbEntity
  8
通り芯
  6
Continuous
 62
     3
370
     9
100
AcDbLine
 10
-394.6757113530053
 20
-46.96698848258666
 30
0.0
 11
-394.6757113530053
 21
-37.96690930184354
 31
0.0
  0
LINE
  5
17C
330
1F
100
AcDbEntity
  8
通り芯
  6
Continuous
 62
     3
370
     9
100
AcDbLine
 10
-394.6757113530053
 20
-33.96689610505291
 30
0.0
 11
-394.6757113530053
 21
-22.96690930184354
 31
0.0
  0
LINE
  5
17D
330
1F
100
AcDbEntity
  8
通り芯
  6
JWW_CENTER1
 62
     3
370
     9
100
AcDbLine
 10
-677.175678361029
 20
-316.9671122024981
 30
0.0
 11
-677.175678361029
 21
-335.9670759113239
 31
0.0
  0
LINE
  5
17E
330
1F
100
AcDbEntity
  8
通り芯
  6
JWW_CENTER1
 62
     3
370
     9
100
AcDbLine
 10
-407.175777336958
 20
-316.9671122024981
 30
0.0
 11
-407.175777336958
 21
-335.9670759113239
 31
0.0
  0
LINE
  5
17F
330
1F
100
AcDbEntity
  8
通り芯
  6
JWW_CENTER1
 62
     3
370
     9
100
AcDbLine
 10
362.3243612293425
 20
148.0330115174133
 30
0.0
 11
467.3241632774846
 21
148.0330115174133
 31
0.0
  0
LINE
  5
180
330
1F
100
AcDbEntity
  8
通り芯
  6
JWW_CENTER1
 62
     3
370
     9
100
AcDbLine
 10
393.3242160646467
 20
329.0330643045754
 30
0.0
 11
431.3247373378729
 21
329.0330643045754
 31
0.0
  0
LINE
  5
181
330
1F
100
AcDbEntity
  8
通り芯
  6
Continuous
 62
     3
370
     9
100
AcDbLine
 10
-107.6759027064681
 20
-306.9671286984862
 30
0.0
 11
-107.6759027064681
 21
-286.9671122024981
 31
0.0
  0
LINE
  5
182
330
1F
100
AcDbEntity
  8
通り芯
  6
Continuous
 62
     3
370
     9
100
AcDbLine
 10
-248.4627283504715
 20
-346.9671122024981
 30
0.0
 11
-295.8889747873381
 21
-346.9671122024981
 31
0.0
  0
LINE
  5
183
330
1F
100
AcDbEntity
  8
通り芯
  6
Continuous
 62
     3
370
     9
100
AcDbLine
 10
-115.0725223485711
 20
-346.9671122024981
 30
0.0
 11
-162.3890044801167
 21
-346.9671122024981
 31
0.0
  0
LINE
  5
184
330
1F
100
AcDbEntity
  8
通り芯
  6
Continuous
 62
     3
370
     9
100
AcDbLine
 10
-113.5764022049901
 20
-345.5740260010623
 30
0.0
 11
-110.8186853817215
 21
-306.9671286984862
 31
0.0
  0
LINE
  5
185
330
1F
100
AcDbEntity
  8
通り芯
  6
Continuous
 62
     3
370
     9
100
AcDbLine
 10
-380.5671875459951
 20
-336.5109981294406
 30
0.0
 11
-381.9800689332418
 21
-345.6951725382244
 31
0.0
  0
LINE
  5
186
330
1F
100
AcDbEntity
  8
通り芯
  6
Continuous
 62
     3
370
     9
100
AcDbLine
 10
-298.7844661038499
 20
-336.5109981294406
 30
0.0
 11
-297.3715352286387
 21
-345.6951725382244
 31
0.0
  0
LINE
  5
187
330
1F
100
AcDbEntity
  8
通り芯
  6
Continuous
 62
     3
370
     9
100
AcDbLine
 10
-301.7495869864512
 20
-333.9671188008933
 30
0.0
 11
-377.6020666633938
 21
-333.9671188008933
 31
0.0
  0
LINE
  5
188
330
1F
100
AcDbEntity
  8
通り芯
  6
Continuous
 62
     3
370
     9
100
AcDbLine
 10
-245.5672370339597
 20
-336.5109981294406
 30
0.0
 11
-246.9802173971354
 21
-345.6951725382244
 31
0.0
  0
LINE
  5
189
330
1F
100
AcDbEntity
  8
通り芯
  6
Continuous
 62
     3
370
     9
100
AcDbLine
 10
-165.2844957966286
 20
-336.5109981294406
 30
0.0
 11
-163.8715649214175
 21
-345.6951725382244
 31
0.0
  0
LINE
  5
18A
330
1F
100
AcDbEntity
  8
通り芯
  6
Continuous
 62
     3
370
     9
100
AcDbLine
 10
-168.24961667923
 20
-333.9671188008933
 30
0.0
 11
-242.6021656393229
 21
-333.9671188008933
 31
0.0
  0
LINE
  5
18B
330
1F
100
AcDbEntity
  8
通り芯
  6
Continuous
 62
     3
370
     9
100
AcDbLine
 10
-108.0254856878871
 20
-306.9671286984862
 30
0.0
 11
-112.168172686409
 21
-330.6561760221771
 31
0.0
  0
LINE
  5
18C
330
1F
100
AcDbEntity
  8
通り芯
  6
Continuous
 62
     3
370
     9
100
AcDbLine
 10
-400.1758037305391
 20
-321.7671478338325
 30
0.0
 11
-401.6508420012316
 21
-323.3671432149558
 31
0.0
  0
LINE
  5
18D
330
1F
100
AcDbEntity
  8
通り芯
  6
Continuous
 62
     3
370
     9
100
AcDbLine
 10
-404.4132601811303
 20
-321.7671478338325
 30
0.0
 11
-404.4132601811303
 21
-326.9671451944744
 31
0.0
  0
LINE
  5
18E
330
1F
100
AcDbEntity
  8
通り芯
  6
Continuous
 62
     3
370
     9
100
AcDbLine
 10
-401.6508420012316
 20
-323.3671432149558
 30
0.0
 11
-401.6508420012316
 21
-326.9671451944744
 31
0.0
  0
LINE
  5
18F
330
1F
100
AcDbEntity
  8
通り芯
  6
Continuous
 62
     3
370
     9
100
AcDbLine
 10
-404.1758169273296
 20
-330.967158391265
 30
0.0
 11
-405.1757707385627
 21
-331.9671122024981
 31
0.0
  0
LINE
  5
190
330
1F
100
AcDbEntity
  8
通り芯
  6
Continuous
 62
     3
370
     9
100
AcDbLine
 10
-400.1758037305391
 20
-320.9671253992885
 30
0.0
 11
-400.1758037305391
 21
-321.7671478338325
 31
0.0
  0
LINE
  5
191
330
1F
100
AcDbEntity
  8
通り芯
  6
Continuous
 62
     3
370
     9
100
AcDbLine
 10
-405.1757707385627
 20
-326.9671451944744
 30
0.0
 11
-405.1757707385627
 21
-331.9671122024981
 31
0.0
  0
LINE
  5
192
330
1F
100
AcDbEntity
  8
通り芯
  6
Continuous
 62
     3
370
     9
100
AcDbLine
 10
-404.1758169273296
 20
-326.9671451944744
 30
0.0
 11
-404.1758169273296
 21
-330.967158391265
 31
0.0
  0
LINE
  5
193
330
1F
100
AcDbEntity
  8
通り芯
  6
Continuous
 62
     3
370
     9
100
AcDbLine
 10
-130.175803730539
 20
-321.7671478338325
 30
0.0
 11
-131.650792513267
 21
-323.3671432149558
 31
0.0
  0
LINE
  5
194
330
1F
100
AcDbEntity
  8
通り芯
  6
Continuous
 62
     3
370
     9
100
AcDbLine
 10
-134.4133096690948
 20
-321.7671478338325
 30
0.0
 11
-134.4133096690948
 21
-326.9671451944744
 31
0.0
  0
LINE
  5
195
330
1F
100
AcDbEntity
  8
通り芯
  6
Continuous
 62
     3
370
     9
100
AcDbLine
 10
-131.650792513267
 20
-323.3671432149558
 30
0.0
 11
-131.650792513267
 21
-326.9671451944744
 31
0.0
  0
LINE
  5
196
330
1F
100
AcDbEntity
  8
通り芯
  6
Continuous
 62
     3
370
     9
100
AcDbLine
 10
-134.1758169273295
 20
-330.967158391265
 30
0.0
 11
-135.1758202265273
 21
-331.9671122024981
 31
0.0
  0
LINE
  5
197
330
1F
100
AcDbEntity
  8
通り芯
  6
Continuous
 62
     3
370
     9
100
AcDbLine
 10
-135.1758202265273
 20
-331.9671122024981
 30
0.0
 11
-139.1758829112823
 21
-331.9671122024981
 31
0.0
  0
LINE
  5
198
330
1F
100
AcDbEntity
  8
通り芯
  6
Continuous
 62
     3
370
     9
100
AcDbLine
 10
-134.1758169273295
 20
-330.967158391265
 30
0.0
 11
-140.17588621048
 21
-330.967158391265
 31
0.0
  0
LINE
  5
199
330
1F
100
AcDbEntity
  8
通り芯
  6
Continuous
 62
     3
370
     9
100
AcDbLine
 10
-131.650792513267
 20
-326.9671451944744
 30
0.0
 11
-142.7008116486134
 21
-326.9671451944744
 31
0.0
  0
LINE
  5
19A
330
1F
100
AcDbEntity
  8
通り芯
  6
Continuous
 62
     3
370
     9
100
AcDbLine
 10
-130.175803730539
 20
-321.7671478338325
 30
0.0
 11
-144.1758499193059
 21
-321.7671478338325
 31
0.0
  0
LINE
  5
19B
330
1F
100
AcDbEntity
  8
通り芯
  6
Continuous
 62
     3
370
     9
100
AcDbLine
 10
-130.175803730539
 20
-320.9671253992885
 30
0.0
 11
-130.175803730539
 21
-321.7671478338325
 31
0.0
  0
LINE
  5
19C
330
1F
100
AcDbEntity
  8
通り芯
  6
Continuous
 62
     3
370
     9
100
AcDbLine
 10
-128.0000158821438
 20
-320.9671253992885
 30
0.0
 11
-146.3516377677012
 21
-320.9671253992885
 31
0.0
  0
LINE
  5
19D
330
1F
100
AcDbEntity
  8
通り芯
  6
Continuous
 62
     3
370
     9
100
AcDbLine
 10
-135.1758202265273
 20
-326.9671451944744
 30
0.0
 11
-135.1758202265273
 21
-331.9671122024981
 31
0.0
  0
LINE
  5
19E
330
1F
100
AcDbEntity
  8
通り芯
  6
Continuous
 62
     3
370
     9
100
AcDbLine
 10
-134.1758169273295
 20
-326.9671451944744
 30
0.0
 11
-134.1758169273295
 21
-330.967158391265
 31
0.0
  0
LINE
  5
19F
330
1F
100
AcDbEntity
  8
通り芯
  6
Continuous
 62
     3
370
     9
100
AcDbLine
 10
-144.1758499193059
 20
-321.7671478338325
 30
0.0
 11
-142.7008116486134
 21
-323.3671432149558
 31
0.0
  0
LINE
  5
1A0
330
1F
100
AcDbEntity
  8
通り芯
  6
Continuous
 62
     3
370
     9
100
AcDbLine
 10
-139.9383934687148
 20
-321.7671478338325
 30
0.0
 11
-139.9383934687148
 21
-326.9671451944744
 31
0.0
  0
LINE
  5
1A1
330
1F
100
AcDbEntity
  8
通り芯
  6
Continuous
 62
     3
370
     9
100
AcDbLine
 10
-142.7008116486134
 20
-323.3671432149558
 30
0.0
 11
-142.7008116486134
 21
-326.9671451944744
 31
0.0
  0
LINE
  5
1A2
330
1F
100
AcDbEntity
  8
通り芯
  6
Continuous
 62
     3
370
     9
100
AcDbLine
 10
-140.17588621048
 20
-330.967158391265
 30
0.0
 11
-139.1758829112823
 21
-331.9671122024981
 31
0.0
  0
LINE
  5
1A3
330
1F
100
AcDbEntity
  8
通り芯
  6
Continuous
 62
     3
370
     9
100
AcDbLine
 10
-144.1758499193059
 20
-320.9671253992885
 30
0.0
 11
-144.1758499193059
 21
-321.7671478338325
 31
0.0
  0
LINE
  5
1A4
330
1F
100
AcDbEntity
  8
通り芯
  6
Continuous
 62
     3
370
     9
100
AcDbLine
 10
-139.1758829112823
 20
-326.9671451944744
 30
0.0
 11
-139.1758829112823
 21
-331.9671122024981
 31
0.0
  0
LINE
  5
1A5
330
1F
100
AcDbEntity
  8
通り芯
  6
Continuous
 62
     3
370
     9
100
AcDbLine
 10
-140.17588621048
 20
-326.9671451944744
 30
0.0
 11
-140.17588621048
 21
-330.967158391265
 31
0.0
  0
LINE
  5
1A6
330
1F
100
AcDbEntity
  8
通り芯
  6
Continuous
 62
     3
370
     9
100
AcDbLine
 10
-124.6758103289343
 20
-301.9671122024981
 30
0.0
 11
-124.6758103289343
 21
-306.9671286984862
 31
0.0
  0
LINE
  5
1A7
330
1F
100
AcDbEntity
  8
通り芯
  6
Continuous
 62
     3
370
     9
100
AcDbLine
 10
-149.6758433209107
 20
-301.9671122024981
 30
0.0
 11
-149.6758433209107
 21
-306.9671286984862
 31
0.0
  0
LINE
  5
1A8
330
1F
100
AcDbEntity
  8
通り芯
  6
Continuous
 62
     3
370
     9
100
AcDbLine
 10
-259.6758103289343
 20
-301.9671122024981
 30
0.0
 11
-259.6758103289343
 21
-306.9671286984862
 31
0.0
  0
LINE
  5
1A9
330
1F
100
AcDbEntity
  8
通り芯
  6
Continuous
 62
     3
370
     9
100
AcDbLine
 10
-284.6758433209107
 20
-301.9671122024981
 30
0.0
 11
-284.6758433209107
 21
-306.9671286984862
 31
0.0
  0
LINE
  5
1AA
330
1F
100
AcDbEntity
  8
通り芯
  6
Continuous
 62
     3
370
     9
100
AcDbLine
 10
-394.6758103289343
 20
-301.9671122024981
 30
0.0
 11
-394.6758103289343
 21
-306.9671286984862
 31
0.0
  0
LINE
  5
1AB
330
1F
100
AcDbEntity
  8
通り芯
  6
Continuous
 62
     3
370
     9
100
AcDbLine
 10
-396.5116158610289
 20
-319.653219941096
 30
0.0
 11
-394.9258235257249
 21
-306.9671286984862
 31
0.0
  0
LINE
  5
1AC
330
1F
100
AcDbEntity
  8
通り芯
  6
Continuous
 62
     3
370
     9
100
AcDbLine
 10
-126.5116158610289
 20
-319.653219941096
 30
0.0
 11
-124.9258235257249
 21
-306.9671286984862
 31
0.0
  0
LINE
  5
1AD
330
1F
100
AcDbEntity
  8
通り芯
  6
Continuous
 62
     3
370
     9
100
AcDbLine
 10
-147.8400872767806
 20
-319.653219941096
 30
0.0
 11
-149.4257806361556
 21
-306.9671286984862
 31
0.0
  0
LINE
  5
1AE
330
1F
100
AcDbEntity
  8
通り芯
  6
Continuous
 62
     3
370
     9
100
AcDbLine
 10
-269.229659832735
 20
-320.9671253992885
 30
0.0
 11
-275.12199381711
 21
-320.9671253992885
 31
0.0
  0
LINE
  5
1AF
330
1F
100
AcDbEntity
  8
通り芯
  6
Continuous
 62
     3
370
     9
100
AcDbLine
 10
-267.7443280654208
 20
-319.6759844047785
 30
0.0
 11
-265.9570702265273
 21
-306.9671286984862
 31
0.0
  0
LINE
  5
1B0
330
1F
100
AcDbEntity
  8
通り芯
  6
Continuous
 62
     3
370
     9
100
AcDbLine
 10
-276.6073255844242
 20
-319.6759844047785
 30
0.0
 11
-278.3945339353533
 21
-306.9671286984862
 31
0.0
  0
LINE
  5
1B1
330
1F
100
AcDbEntity
  8
通り芯
  6
JWW_CENTER1
 62
     3
370
     9
100
AcDbLine
 10
-137.1758763128871
 20
-316.9671122024981
 30
0.0
 11
-137.1758763128871
 21
-335.9670759113239
 31
0.0
  0
LINE
  5
1B2
330
1F
100
AcDbEntity
  8
通り芯
  6
Continuous
 62
     3
370
     9
100
AcDbLine
 10
400.3237937673496
 20
142.5330181158085
 30
0.0
 11
414.3239389320455
 21
143.5329719270417
 31
0.0
  0
LINE
  5
1B3
330
1F
100
AcDbEntity
  8
通り芯
  6
Continuous
 62
     3
370
     9
100
AcDbLine
 10
409.9243599096638
 20
145.4330128370923
 30
0.0
 11
404.7243625490217
 21
145.4330128370923
 31
0.0
  0
LINE
  5
1B4
330
1F
100
AcDbEntity
  8
通り芯
  6
Continuous
 62
     3
370
     9
100
AcDbLine
 10
400.3237937673496
 20
142.0329917222275
 30
0.0
 11
414.3239389320455
 21
143.5329719270417
 31
0.0
  0
LINE
  5
1B5
330
1F
100
AcDbEntity
  8
通り芯
  6
Continuous
 62
     3
370
     9
100
AcDbLine
 10
429.3242358598325
 20
8.033044509389583
 30
0.0
 11
447.3240972935321
 21
23.03304450938958
 31
0.0
  0
LINE
  5
1B6
330
1F
100
AcDbEntity
  8
通り芯
  6
Continuous
 62
     3
370
     9
100
AcDbLine
 10
424.1052351208125
 20
10.2590131538152
 30
0.0
 11
422.5433949603391
 21
8.306910905082304
 31
0.0
  0
LINE
  5
1B7
330
1F
100
AcDbEntity
  8
通り芯
  6
Continuous
 62
     3
370
     9
100
AcDbLine
 10
442.3244272132954
 20
-14.25386031535709
 30
0.0
 11
442.3244272132954
 21
-17.57024677017125
 31
0.0
  0
LINE
  5
1B8
330
1F
100
AcDbEntity
  8
通り芯
  6
Continuous
 62
     3
370
     9
100
AcDbLine
 10
397.3244272132955
 20
-22.96690930184354
 30
0.0
 11
397.3244272132955
 21
-46.96698848258666
 31
0.0
  0
LINE
  5
1B9
330
1F
100
AcDbEntity
  8
通り芯
  6
Continuous
 62
     3
370
     9
100
AcDbLine
 10
402.32429524539
 20
-18.96689610505291
 30
0.0
 11
402.32429524539
 21
-46.96698848258666
 31
0.0
  0
LINE
  5
1BA
330
1F
100
AcDbEntity
  8
通り芯
  6
Continuous
 62
     3
370
     9
100
AcDbLine
 10
397.3244272132955
 20
-37.96690930184354
 30
0.0
 11
382.3244272132955
 21
-37.96690930184354
 31
0.0
  0
LINE
  5
1BB
330
1F
100
AcDbEntity
  8
通り芯
  6
Continuous
 62
     3
370
     9
100
AcDbLine
 10
397.3244272132955
 20
-33.96689610505291
 30
0.0
 11
382.3244272132955
 21
-33.96689610505291
 31
0.0
  0
LINE
  5
1BC
330
1F
100
AcDbEntity
  8
通り芯
  6
Continuous
 62
     3
370
     9
100
AcDbLine
 10
402.32429524539
 20
-22.96690930184354
 30
0.0
 11
382.3244272132955
 21
-22.96690930184354
 31
0.0
  0
LINE
  5
1BD
330
1F
100
AcDbEntity
  8
通り芯
  6
Continuous
 62
     3
370
     9
100
AcDbLine
 10
402.32429524539
 20
-18.96689610505291
 30
0.0
 11
382.3244272132955
 21
-18.96689610505291
 31
0.0
  0
LINE
  5
1BE
330
1F
100
AcDbEntity
  8
通り芯
  6
Continuous
 62
     3
370
     9
100
AcDbLine
 10
402.32429524539
 20
-46.96698848258666
 30
0.0
 11
397.3244272132955
 21
-46.96698848258666
 31
0.0
  0
LINE
  5
1BF
330
1F
100
AcDbEntity
  8
通り芯
  6
Continuous
 62
     3
370
     9
100
AcDbLine
 10
418.6233543142246
 20
-13.72493295049208
 30
0.0
 11
400.3242886469946
 21
-15.09733318275562
 31
0.0
  0
LINE
  5
1C0
330
1F
100
AcDbEntity
  8
通り芯
  6
Continuous
 62
     3
370
     9
100
AcDbLine
 10
432.716140948515
 20
-11.48876978537396
 30
0.0
 11
441.0522895971637
 21
-12.77120089812729
 31
0.0
  0
LINE
  5
1C1
330
1F
100
AcDbEntity
  8
通り芯
  6
Continuous
 62
     3
370
     9
100
AcDbLine
 10
400.3242886469946
 20
144.0329983206227
 30
0.0
 11
400.3242886469946
 21
-18.96689610505291
 31
0.0
  0
LINE
  5
1C2
330
1F
100
AcDbEntity
  8
通り芯
  6
Continuous
 62
     3
370
     9
100
AcDbLine
 10
411.3242754502042
 20
144.0329983206227
 30
0.0
 11
383.3243810245283
 21
144.0329983206227
 31
0.0
  0
LINE
  5
1C3
330
1F
100
AcDbEntity
  8
通り芯
  6
Continuous
 62
     3
370
     9
100
AcDbLine
 10
417.1247597724171
 20
-25.96696868740082
 30
0.0
 11
417.1247597724171
 21
-39.9670148761677
 31
0.0
  0
LINE
  5
1C4
330
1F
100
AcDbEntity
  8
通り芯
  6
Continuous
 62
     3
370
     9
100
AcDbLine
 10
417.1247597724171
 20
-25.96696868740082
 30
0.0
 11
418.7246066896466
 21
-27.44200695809354
 31
0.0
  0
LINE
  5
1C5
330
1F
100
AcDbEntity
  8
通り芯
  6
Continuous
 62
     3
370
     9
100
AcDbLine
 10
417.1247597724171
 20
-39.9670148761677
 30
0.0
 11
418.7246066896466
 21
-38.4919766054752
 31
0.0
  0
LINE
  5
1C6
330
1F
100
AcDbEntity
  8
通り芯
  6
Continuous
 62
     3
370
     9
100
AcDbLine
 10
417.1247597724171
 20
-30.20452411392125
 30
0.0
 11
422.32465815713
 21
-30.20452411392125
 31
0.0
  0
LINE
  5
1C7
330
1F
100
AcDbEntity
  8
通り芯
  6
Continuous
 62
     3
370
     9
100
AcDbLine
 10
417.1247597724171
 20
-35.72945944964749
 30
0.0
 11
422.32465815713
 21
-35.72945944964749
 31
0.0
  0
LINE
  5
1C8
330
1F
100
AcDbEntity
  8
通り芯
  6
Continuous
 62
     3
370
     9
100
AcDbLine
 10
416.3247373378729
 20
-25.96696868740082
 30
0.0
 11
417.1247597724171
 21
-25.96696868740082
 31
0.0
  0
LINE
  5
1C9
330
1F
100
AcDbEntity
  8
通り芯
  6
Continuous
 62
     3
370
     9
100
AcDbLine
 10
418.7246066896466
 20
-27.44200695809354
 30
0.0
 11
422.32465815713
 21
-27.44200695809354
 31
0.0
  0
LINE
  5
1CA
330
1F
100
AcDbEntity
  8
通り芯
  6
Continuous
 62
     3
370
     9
100
AcDbLine
 10
422.32465815713
 20
-27.44200695809354
 30
0.0
 11
422.32465815713
 21
-38.4919766054752
 31
0.0
  0
LINE
  5
1CB
330
1F
100
AcDbEntity
  8
通り芯
  6
Continuous
 62
     3
370
     9
100
AcDbLine
 10
426.3246713539204
 20
-29.96698188419145
 30
0.0
 11
426.3246713539204
 21
-35.96700167937729
 31
0.0
  0
LINE
  5
1CC
330
1F
100
AcDbEntity
  8
通り芯
  6
Continuous
 62
     3
370
     9
100
AcDbLine
 10
426.3246713539204
 20
-29.96698188419145
 30
0.0
 11
427.3247241410825
 21
-30.96703467135353
 31
0.0
  0
LINE
  5
1CD
330
1F
100
AcDbEntity
  8
通り芯
  6
Continuous
 62
     3
370
     9
100
AcDbLine
 10
427.3247241410825
 20
-34.96694889221499
 30
0.0
 11
426.3246713539204
 21
-35.96700167937729
 31
0.0
  0
LINE
  5
1CE
330
1F
100
AcDbEntity
  8
通り芯
  6
Continuous
 62
     3
370
     9
100
AcDbLine
 10
418.7246066896466
 20
-38.4919766054752
 30
0.0
 11
422.32465815713
 21
-38.4919766054752
 31
0.0
  0
LINE
  5
1CF
330
1F
100
AcDbEntity
  8
通り芯
  6
Continuous
 62
     3
370
     9
100
AcDbLine
 10
427.3247241410825
 20
-30.96703467135353
 30
0.0
 11
427.3247241410825
 21
-34.96694889221499
 31
0.0
  0
LINE
  5
1D0
330
1F
100
AcDbEntity
  8
通り芯
  6
Continuous
 62
     3
370
     9
100
AcDbLine
 10
422.32465815713
 20
-35.96700167937729
 30
0.0
 11
426.3246713539204
 21
-35.96700167937729
 31
0.0
  0
LINE
  5
1D1
330
1F
100
AcDbEntity
  8
通り芯
  6
Continuous
 62
     3
370
     9
100
AcDbLine
 10
427.3247241410825
 20
-34.96694889221499
 30
0.0
 11
422.32465815713
 21
-34.96694889221499
 31
0.0
  0
LINE
  5
1D2
330
1F
100
AcDbEntity
  8
通り芯
  6
Continuous
 62
     3
370
     9
100
AcDbLine
 10
422.32465815713
 20
-30.96703467135353
 30
0.0
 11
427.3247241410825
 21
-30.96703467135353
 31
0.0
  0
LINE
  5
1D3
330
1F
100
AcDbEntity
  8
通り芯
  6
Continuous
 62
     3
370
     9
100
AcDbLine
 10
422.32465815713
 20
-29.96698188419145
 30
0.0
 11
426.3246713539204
 21
-29.96698188419145
 31
0.0
  0
LINE
  5
1D4
330
1F
100
AcDbEntity
  8
通り芯
  6
Continuous
 62
     3
370
     9
100
AcDbLine
 10
402.32429524539
 20
-28.46700167937729
 30
0.0
 11
416.3247373378729
 21
-28.46700167937729
 31
0.0
  0
LINE
  5
1D5
330
1F
100
AcDbEntity
  8
通り芯
  6
Continuous
 62
     3
370
     9
100
AcDbLine
 10
402.32429524539
 20
-37.4670808601204
 30
0.0
 11
416.3247373378729
 21
-37.4670808601204
 31
0.0
  0
LINE
  5
1D6
330
1F
100
AcDbEntity
  8
通り芯
  6
Continuous
 62
     3
370
     9
100
AcDbLine
 10
402.32429524539
 20
-35.96700167937729
 30
0.0
 11
416.3247373378729
 21
-35.96700167937729
 31
0.0
  0
LINE
  5
1D7
330
1F
100
AcDbEntity
  8
通り芯
  6
Continuous
 62
     3
370
     9
100
AcDbLine
 10
416.3247373378729
 20
-34.96694889221499
 30
0.0
 11
402.32429524539
 21
-34.96694889221499
 31
0.0
  0
LINE
  5
1D8
330
1F
100
AcDbEntity
  8
通り芯
  6
Continuous
 62
     3
370
     9
100
AcDbLine
 10
416.3247373378729
 20
-30.96703467135353
 30
0.0
 11
402.32429524539
 21
-30.96703467135353
 31
0.0
  0
LINE
  5
1D9
330
1F
100
AcDbEntity
  8
通り芯
  6
Continuous
 62
     3
370
     9
100
AcDbLine
 10
402.32429524539
 20
-29.96698188419145
 30
0.0
 11
416.3247373378729
 21
-29.96698188419145
 31
0.0
  0
LINE
  5
1DA
330
1F
100
AcDbEntity
  8
通り芯
  6
Continuous
 62
     3
370
     9
100
AcDbLine
 10
416.3247373378729
 20
-39.9670148761677
 30
0.0
 11
417.1247597724171
 21
-39.9670148761677
 31
0.0
  0
LINE
  5
1DB
330
1F
100
AcDbEntity
  8
通り芯
  6
Continuous
 62
     3
370
     9
100
AcDbLine
 10
415.0108318796804
 20
-43.13127532802582
 30
0.0
 11
402.32429524539
 21
-44.71686971147187
 31
0.0
  0
LINE
  5
1DC
330
1F
100
AcDbEntity
  8
通り芯
  6
Continuous
 62
     3
370
     9
100
AcDbLine
 10
416.3247373378729
 20
-41.64277633098209
 30
0.0
 11
416.3247373378729
 21
-24.54844567219811
 31
0.0
  0
LINE
  5
1DD
330
1F
100
AcDbEntity
  8
通り芯
  6
Continuous
 62
     3
370
     9
100
AcDbLine
 10
440.9312420359304
 20
-19.06646588968124
 30
0.0
 11
420.0397988349171
 21
-20.55872597202938
 31
0.0
  0
LINE
  5
1DE
330
1F
100
AcDbEntity
  8
通り芯
  6
JWW_CENTER1
 62
     3
370
     9
100
AcDbLine
 10
393.3242160646467
 20
-32.96704126974896
 30
0.0
 11
431.3247373378729
 21
-32.96704126974896
 31
0.0
  0
LINE
  5
1DF
330
1F
100
AcDbEntity
  8
通り芯
  6
JWW_CENTER1
 62
     3
370
     9
100
AcDbLine
 10
-726.675755067374
 20
148.0330115174133
 30
0.0
 11
142.3242292614373
 21
148.0330115174133
 31
0.0
  0
LINE
  5
1E0
330
1F
100
AcDbEntity
  8
通り芯
  6
JWW_PHANTOM2
 62
     3
370
     9
100
AcDbLine
 10
-106.6757509433768
 20
334.03293233667
 30
0.0
 11
122.3242622534137
 21
334.03293233667
 31
0.0
  0
LINE
  5
1E1
330
1F
100
AcDbEntity
  8
通り芯
  6
JWW_PHANTOM2
 62
     3
370
     9
100
AcDbLine
 10
-106.6757509433768
 20
-37.96690930184354
 30
0.0
 11
122.3242622534137
 21
-37.96690930184354
 31
0.0
  0
LINE
  5
1E2
330
1F
100
AcDbEntity
  8
通り芯
  6
JWW_PHANTOM2
 62
     3
370
     9
100
AcDbLine
 10
-106.6757509433768
 20
-37.96690930184354
 30
0.0
 11
-106.6757509433768
 21
334.03293233667
 31
0.0
  0
LINE
  5
1E3
330
1F
100
AcDbEntity
  8
0-E
  6
Continuous
 62
     7
370
     9
100
AcDbLine
 10
560.8266244789204
 20
209.6521587408085
 30
0.0
 11
447.3240972935321
 21
176.5402070674554
 31
0.0
  0
LINE
  5
1E4
330
1F
100
AcDbEntity
  8
0-E
  6
Continuous
 62
     7
370
     9
100
AcDbLine
 10
560.8266244789204
 20
209.6521587408085
 30
0.0
 11
707.3749379290891
 21
209.6521587408085
 31
0.0
  0
LINE
  5
1E5
330
1F
100
AcDbEntity
  8
躯体
  6
JWW_DASHED3
 62
     2
370
     9
100
AcDbLine
 10
-706.6757509433769
 20
298.0329125414842
 30
0.0
 11
-107.6757542425746
 21
298.0329125414842
 31
0.0
  0
LINE
  5
1E6
330
1F
100
AcDbEntity
  8
躯体
  6
Continuous
 62
     2
370
     9
100
AcDbLine
 10
-107.6757542425746
 20
298.0329125414842
 30
0.0
 11
122.3242622534137
 21
298.0329125414842
 31
0.0
  0
LINE
  5
1E7
330
1F
100
AcDbEntity
  8
躯体
  6
JWW_DASHED3
 62
     2
370
     9
100
AcDbLine
 10
-706.6757509433769
 20
-1.967037970551246
 30
0.0
 11
-107.6757542425746
 21
-1.967037970551246
 31
0.0
  0
LINE
  5
1E8
330
1F
100
AcDbEntity
  8
躯体
  6
Continuous
 62
     2
370
     9
100
AcDbLine
 10
-107.6757542425746
 20
-1.967037970551246
 30
0.0
 11
122.3242622534137
 21
-1.967037970551246
 31
0.0
  0
ARC
  5
1E9
330
1F
100
AcDbEntity
  8
通り芯
  6
Continuous
 62
     3
370
     9
100
AcDbCircle
 10
418.3242490566229
 20
305.8021270685113
 30
0.0
 40
4.000000051549963
100
AcDbArc
 50
0.0
 51
85.71116638183594
  0
CIRCLE
  5
1EA
330
1F
100
AcDbEntity
  8
通り芯
  6
Continuous
 62
     3
370
     9
100
AcDbCircle
 10
407.3242622534138
 20
148.0330115174133
 30
0.0
 40
2.000000025774982
  0
ARC
  5
1EB
330
1F
100
AcDbEntity
  8
通り芯
  6
Continuous
 62
     3
370
     9
100
AcDbCircle
 10
423.3242160646466
 20
285.182273816822
 30
0.0
 40
1.000000012887491
100
AcDbArc
 50
0.0
 51
38.66105651855469
  0
ARC
  5
1EC
330
1F
100
AcDbEntity
  8
通り芯
  6
Continuous
 62
     3
370
     9
100
AcDbCircle
 10
423.3242160646466
 20
288.3838481939335
 30
0.0
 40
1.000000012887491
100
AcDbArc
 50
180.0
 51
218.6610565185547
  0
ARC
  5
1ED
330
1F
100
AcDbEntity
  8
通り芯
  6
Continuous
 62
     3
370
     9
100
AcDbCircle
 10
440.8242490566229
 20
313.6362698049977
 30
0.0
 40
1.500000019331236
100
AcDbArc
 50
0.0
 51
85.91419982910156
  0
ARC
  5
1EE
330
1F
100
AcDbEntity
  8
通り芯
  6
Continuous
 62
     3
370
     9
100
AcDbCircle
 10
440.8242490566229
 20
310.3198833501835
 30
0.0
 40
1.500000019331236
100
AcDbArc
 50
278.7463684082031
 51
0.0
  0
ARC
  5
1EF
330
1F
100
AcDbEntity
  8
通り芯
  6
Continuous
 62
     3
370
     9
100
AcDbCircle
 10
433.3242490566229
 20
303.6012983100654
 30
0.0
 40
4.000000051549963
100
AcDbArc
 50
98.74600219726562
 51
180.0
  0
ARC
  5
1F0
330
1F
100
AcDbEntity
  8
通り芯
  6
Continuous
 62
     3
370
     9
100
AcDbCircle
 10
-692.6579138313625
 20
307.1634419967208
 30
0.0
 40
4.000000051549963
100
AcDbArc
 50
90.0
 51
180.0
  0
ARC
  5
1F1
330
1F
100
AcDbEntity
  8
通り芯
  6
Continuous
 62
     3
370
     9
100
AcDbCircle
 10
-692.0865257929336
 20
306.5133680946938
 30
0.0
 40
3.000000038662472
100
AcDbArc
 50
90.0
 51
180.0
  0
ARC
  5
1F2
330
1F
100
AcDbEntity
  8
通り芯
  6
Continuous
 62
     3
370
     9
100
AcDbCircle
 10
-430.888875811409
 20
-345.4671319976837
 30
0.0
 40
1.500000019331236
100
AcDbArc
 50
188.7459106445312
 51
270.0
  0
ARC
  5
1F3
330
1F
100
AcDbEntity
  8
通り芯
  6
Continuous
 62
     3
370
     9
100
AcDbCircle
 10
-518.4625798865779
 20
-345.4671319976837
 30
0.0
 40
1.500000019331236
100
AcDbArc
 50
270.0
 51
351.2540893554688
  0
ARC
  5
1F4
330
1F
100
AcDbEntity
  8
通り芯
  6
Continuous
 62
     3
370
     9
100
AcDbCircle
 10
-565.8888263234445
 20
-345.4671319976837
 30
0.0
 40
1.500000019331236
100
AcDbArc
 50
188.7460174560547
 51
270.0
  0
ARC
  5
1F5
330
1F
100
AcDbEntity
  8
通り芯
  6
Continuous
 62
     3
370
     9
100
AcDbCircle
 10
-651.9625501937992
 20
-345.4671319976837
 30
0.0
 40
1.500000019331236
100
AcDbArc
 50
270.0
 51
351.2539978027344
  0
ARC
  5
1F6
330
1F
100
AcDbEntity
  8
通り芯
  6
Continuous
 62
     3
370
     9
100
AcDbCircle
 10
-699.2790323253448
 20
-345.4671319976837
 30
0.0
 40
1.500000019331236
100
AcDbArc
 50
184.0851135253906
 51
270.0
  0
ARC
  5
1F7
330
1F
100
AcDbEntity
  8
通り芯
  6
Continuous
 62
     3
370
     9
100
AcDbCircle
 10
-436.7494880105222
 20
-336.9671286984862
 30
0.0
 40
3.000000038662472
100
AcDbArc
 50
8.746337890625
 51
90.0
  0
ARC
  5
1F8
330
1F
100
AcDbEntity
  8
通り芯
  6
Continuous
 62
     3
370
     9
100
AcDbCircle
 10
-512.6019676874648
 20
-336.9671286984862
 30
0.0
 40
3.000000038662472
100
AcDbArc
 50
90.0
 51
171.253662109375
  0
ARC
  5
1F9
330
1F
100
AcDbEntity
  8
通り芯
  6
Continuous
 62
     3
370
     9
100
AcDbCircle
 10
-571.7493890345933
 20
-336.9671286984862
 30
0.0
 40
3.000000038662472
100
AcDbArc
 50
8.746292114257812
 51
90.0
  0
ARC
  5
1FA
330
1F
100
AcDbEntity
  8
通り芯
  6
Continuous
 62
     3
370
     9
100
AcDbCircle
 10
-646.1019379946861
 20
-336.9671286984862
 30
0.0
 40
3.000000038662472
100
AcDbArc
 50
90.0
 51
171.2537078857422
  0
ARC
  5
1FB
330
1F
100
AcDbEntity
  8
通り芯
  6
Continuous
 62
     3
370
     9
100
AcDbCircle
 10
-698.2431007639007
 20
-329.9671056041027
 30
0.0
 40
4.000000051549963
100
AcDbArc
 50
189.9193572998047
 51
208.6634521484375
  0
ARC
  5
1FC
330
1F
100
AcDbEntity
  8
通り芯
  6
Continuous
 62
     3
370
     9
100
AcDbCircle
 10
420.3247505346637
 20
320.6144687070248
 30
0.0
 40
4.000000051549963
100
AcDbArc
 50
180.0
 51
265.9141693115234
  0
ARC
  5
1FD
330
1F
100
AcDbEntity
  8
通り芯
  6
Continuous
 62
     3
370
     9
100
AcDbCircle
 10
414.82465815713
 20
337.7087993658085
 30
0.0
 40
1.500000019331236
100
AcDbArc
 50
0.0
 51
82.87332153320312
  0
ARC
  5
1FE
330
1F
100
AcDbEntity
  8
通り芯
  6
Continuous
 62
     3
370
     9
100
AcDbCircle
 10
-416.3515387917722
 20
-319.4671451944744
 30
0.0
 40
1.500000019331236
100
AcDbArc
 50
187.1250152587891
 51
270.0
  0
ARC
  5
1FF
330
1F
100
AcDbEntity
  8
通り芯
  6
Continuous
 62
     3
370
     9
100
AcDbCircle
 10
-686.3515387917721
 20
-319.4671451944744
 30
0.0
 40
1.500000019331236
100
AcDbArc
 50
187.1250152587891
 51
270.0
  0
ARC
  5
200
330
1F
100
AcDbEntity
  8
通り芯
  6
Continuous
 62
     3
370
     9
100
AcDbCircle
 10
-667.9999169062148
 20
-319.4671451944744
 30
0.0
 40
1.500000019331236
100
AcDbArc
 50
270.0
 51
352.8749847412109
  0
ARC
  5
201
330
1F
100
AcDbEntity
  8
通り芯
  6
Continuous
 62
     3
370
     9
100
AcDbCircle
 10
-545.121894841181
 20
-319.4671451944744
 30
0.0
 40
1.500000019331236
100
AcDbArc
 50
188.004867553711
 51
270.0
  0
ARC
  5
202
330
1F
100
AcDbEntity
  8
通り芯
  6
Continuous
 62
     3
370
     9
100
AcDbCircle
 10
-539.229560856806
 20
-319.4671451944744
 30
0.0
 40
1.500000019331236
100
AcDbArc
 50
270.0
 51
351.9951324462891
  0
ARC
  5
203
330
1F
100
AcDbEntity
  8
通り芯
  6
Continuous
 62
     3
370
     9
100
AcDbCircle
 10
-121.6935666106066
 20
307.1634419967208
 30
0.0
 40
4.000000051549963
100
AcDbArc
 50
0.0
 51
90.0
  0
ARC
  5
204
330
1F
100
AcDbEntity
  8
通り芯
  6
Continuous
 62
     3
370
     9
100
AcDbCircle
 10
-122.2649546490357
 20
306.5133680946938
 30
0.0
 40
3.000000038662472
100
AcDbArc
 50
0.0
 51
90.0
  0
ARC
  5
205
330
1F
100
AcDbEntity
  8
通り芯
  6
Continuous
 62
     3
370
     9
100
AcDbCircle
 10
-692.6579138313625
 20
-11.09741896189416
 30
0.0
 40
4.000000051549963
100
AcDbArc
 50
180.0
 51
270.0
  0
ARC
  5
206
330
1F
100
AcDbEntity
  8
通り芯
  6
Continuous
 62
     3
370
     9
100
AcDbCircle
 10
-692.0865257929336
 20
-10.44734505986708
 30
0.0
 40
3.000000038662472
100
AcDbArc
 50
180.0
 51
270.0
  0
ARC
  5
207
330
1F
100
AcDbEntity
  8
通り芯
  6
Continuous
 62
     3
370
     9
100
AcDbCircle
 10
-121.6935666106066
 20
-11.09741896189416
 30
0.0
 40
4.000000051549963
100
AcDbArc
 50
270.0
 51
0.0
  0
ARC
  5
208
330
1F
100
AcDbEntity
  8
通り芯
  6
Continuous
 62
     3
370
     9
100
AcDbCircle
 10
-122.2649546490357
 20
-10.44734505986708
 30
0.0
 40
3.000000038662472
100
AcDbArc
 50
270.0
 51
0.0
  0
ARC
  5
209
330
1F
100
AcDbEntity
  8
通り芯
  6
Continuous
 62
     3
370
     9
100
AcDbCircle
 10
-383.4626788625069
 20
-345.4671319976837
 30
0.0
 40
1.500000019331236
100
AcDbArc
 50
270.0
 51
351.2540893554688
  0
ARC
  5
20A
330
1F
100
AcDbEntity
  8
通り芯
  6
Continuous
 62
     3
370
     9
100
AcDbCircle
 10
-295.8889747873381
 20
-345.4671319976837
 30
0.0
 40
1.500000019331236
100
AcDbArc
 50
188.7459106445312
 51
270.0
  0
ARC
  5
20B
330
1F
100
AcDbEntity
  8
通り芯
  6
Continuous
 62
     3
370
     9
100
AcDbCircle
 10
-248.4627283504715
 20
-345.4671319976837
 30
0.0
 40
1.500000019331236
100
AcDbArc
 50
270.0
 51
351.2539825439453
  0
ARC
  5
20C
330
1F
100
AcDbEntity
  8
通り芯
  6
Continuous
 62
     3
370
     9
100
AcDbCircle
 10
-162.3890044801167
 20
-345.4671319976837
 30
0.0
 40
1.500000019331236
100
AcDbArc
 50
188.7460021972657
 51
270.0
  0
ARC
  5
20D
330
1F
100
AcDbEntity
  8
通り芯
  6
Continuous
 62
     3
370
     9
100
AcDbCircle
 10
-115.0725223485711
 20
-345.4671319976837
 30
0.0
 40
1.500000019331236
100
AcDbArc
 50
270.0
 51
355.9148864746094
  0
ARC
  5
20E
330
1F
100
AcDbEntity
  8
通り芯
  6
Continuous
 62
     3
370
     9
100
AcDbCircle
 10
-377.6020666633938
 20
-336.9671286984862
 30
0.0
 40
3.000000038662472
100
AcDbArc
 50
90.0
 51
171.253662109375
  0
ARC
  5
20F
330
1F
100
AcDbEntity
  8
通り芯
  6
Continuous
 62
     3
370
     9
100
AcDbCircle
 10
-301.7495869864512
 20
-336.9671286984862
 30
0.0
 40
3.000000038662472
100
AcDbArc
 50
8.746337890625
 51
90.0
  0
ARC
  5
210
330
1F
100
AcDbEntity
  8
通り芯
  6
Continuous
 62
     3
370
     9
100
AcDbCircle
 10
-242.6021656393229
 20
-336.9671286984862
 30
0.0
 40
3.000000038662472
100
AcDbArc
 50
90.0
 51
171.2537078857422
  0
ARC
  5
211
330
1F
100
AcDbEntity
  8
通り芯
  6
Continuous
 62
     3
370
     9
100
AcDbCircle
 10
-168.24961667923
 20
-336.9671286984862
 30
0.0
 40
3.000000038662472
100
AcDbArc
 50
8.746292114257812
 51
90.0
  0
ARC
  5
212
330
1F
100
AcDbEntity
  8
通り芯
  6
Continuous
 62
     3
370
     9
100
AcDbCircle
 10
-116.1084044220509
 20
-329.9671056041027
 30
0.0
 40
4.000000051549963
100
AcDbArc
 50
331.3365478515625
 51
350.0806427001953
  0
ARC
  5
213
330
1F
100
AcDbEntity
  8
通り芯
  6
Continuous
 62
     3
370
     9
100
AcDbCircle
 10
-398.0000158821438
 20
-319.4671451944744
 30
0.0
 40
1.500000019331236
100
AcDbArc
 50
270.0
 51
352.8749847412109
  0
ARC
  5
214
330
1F
100
AcDbEntity
  8
通り芯
  6
Continuous
 62
     3
370
     9
100
AcDbCircle
 10
-128.0000158821438
 20
-319.4671451944744
 30
0.0
 40
1.500000019331236
100
AcDbArc
 50
270.0
 51
352.8749847412109
  0
ARC
  5
215
330
1F
100
AcDbEntity
  8
通り芯
  6
Continuous
 62
     3
370
     9
100
AcDbCircle
 10
-146.3516377677012
 20
-319.4671451944744
 30
0.0
 40
1.500000019331236
100
AcDbArc
 50
187.1250152587891
 51
270.0
  0
ARC
  5
216
330
1F
100
AcDbEntity
  8
通り芯
  6
Continuous
 62
     3
370
     9
100
AcDbCircle
 10
-269.229659832735
 20
-319.4671451944744
 30
0.0
 40
1.500000019331236
100
AcDbArc
 50
270.0
 51
351.9951324462891
  0
ARC
  5
217
330
1F
100
AcDbEntity
  8
通り芯
  6
Continuous
 62
     3
370
     9
100
AcDbCircle
 10
-275.12199381711
 20
-319.4671451944744
 30
0.0
 40
1.500000019331236
100
AcDbArc
 50
188.004867553711
 51
270.0
  0
ARC
  5
218
330
1F
100
AcDbEntity
  8
通り芯
  6
Continuous
 62
     3
370
     9
100
AcDbCircle
 10
418.3242490566229
 20
-9.736104033684796
 30
0.0
 40
4.000000051549963
100
AcDbArc
 50
274.2888336181641
 51
0.0
  0
ARC
  5
219
330
1F
100
AcDbEntity
  8
通り芯
  6
Continuous
 62
     3
370
     9
100
AcDbCircle
 10
423.3242160646466
 20
10.8837492180046
 30
0.0
 40
1.000000012887491
100
AcDbArc
 50
321.3389434814453
 51
0.0000000000000127
  0
ARC
  5
21A
330
1F
100
AcDbEntity
  8
通り芯
  6
Continuous
 62
     3
370
     9
100
AcDbCircle
 10
423.3242160646466
 20
7.682174840892912
 30
0.0
 40
1.000000012887491
100
AcDbArc
 50
141.3389434814453
 51
180.0
  0
ARC
  5
21B
330
1F
100
AcDbEntity
  8
通り芯
  6
Continuous
 62
     3
370
     9
100
AcDbCircle
 10
440.8242490566229
 20
-17.57024677017125
 30
0.0
 40
1.500000019331236
100
AcDbArc
 50
274.0858001708984
 51
0.0000000000000254
  0
ARC
  5
21C
330
1F
100
AcDbEntity
  8
通り芯
  6
Continuous
 62
     3
370
     9
100
AcDbCircle
 10
440.8242490566229
 20
-14.25386031535709
 30
0.0
 40
1.500000019331236
100
AcDbArc
 50
0.0
 51
81.25363159179688
  0
ARC
  5
21D
330
1F
100
AcDbEntity
  8
通り芯
  6
Continuous
 62
     3
370
     9
100
AcDbCircle
 10
433.3242490566229
 20
-7.535275275238746
 30
0.0
 40
4.000000051549963
100
AcDbArc
 50
180.0
 51
261.2539978027344
  0
ARC
  5
21E
330
1F
100
AcDbEntity
  8
通り芯
  6
Continuous
 62
     3
370
     9
100
AcDbCircle
 10
420.3247505346637
 20
-24.54844567219811
 30
0.0
 40
4.000000051549963
100
AcDbArc
 50
94.08583068847656
 51
180.0
  0
ARC
  5
21F
330
1F
100
AcDbEntity
  8
通り芯
  6
Continuous
 62
     3
370
     9
100
AcDbCircle
 10
414.82465815713
 20
-41.64277633098209
 30
0.0
 40
1.500000019331236
100
AcDbArc
 50
277.1266784667969
 51
0.0000000000000127
  0
TEXT
  5
220
330
1F
100
AcDbEntity
  8
0-E
  6
Continuous
 62
     7
370
     9
100
AcDbText
 10
568.2193477686162
 20
195.0891934483677
 30
0.0
 40
9.144
  1
樹脂系塗装
 41
1.133333333333333
  7
ＭＳ ゴシック
100
AcDbText
  0
TEXT
  5
221
330
1F
100
AcDbEntity
  8
0-E
  6
Continuous
 62
     7
370
     9
100
AcDbText
 10
145.0542790133375
 20
-136.1182633981273
 30
0.0
 40
9.144
  1
排水口グレーチング（Ｐ＝１５）
 41
1.155555555555555
  7
ＭＳ ゴシック
100
AcDbText
  0
TEXT
  5
222
330
1F
100
AcDbEntity
  8
0-E
  6
Continuous
 62
     7
370
     9
100
AcDbText
 10
143.5015347407448
 20
-155.7179964930385
 30
0.0
 40
9.144
  1
ＳＵＳ３０４
 41
1.138888888888889
  7
ＭＳ ゴシック
100
AcDbText
  0
TEXT
  5
223
330
1F
100
AcDbEntity
  8
0-E
  6
Continuous
 62
     7
370
     9
100
AcDbText
 10
569.20076008914
 20
217.1669126470586
 30
0.0
 40
9.144
  1
蓋本体：ＦＣＤ５００
 41
1.15
  7
ＭＳ ゴシック
100
AcDbText
  0
LINE
  5
224
330
1F
100
AcDbEntity
  8
0-F
  6
Continuous
 62
     7
370
     9
100
AcDbLine
 10
-702.6757377465863
 20
-126.967103954504
 30
0.0
 11
-111.6757179514005
 21
-126.967103954504
 31
0.0
  0
LINE
  5
225
330
1F
100
AcDbEntity
  8
0-F
  6
Continuous
 62
     7
370
     9
100
AcDbLine
 10
-702.6757377465863
 20
-126.967103954504
 30
0.0
 11
-690.778435170573
 21
-125.4008098772235
 31
0.0
  0
LINE
  5
226
330
1F
100
AcDbEntity
  8
0-F
  6
Continuous
 62
     7
370
     9
100
AcDbLine
 10
-702.6757377465863
 20
-126.967103954504
 30
0.0
 11
-690.778435170573
 21
-128.5333980317844
 31
0.0
  0
LINE
  5
227
330
1F
100
AcDbEntity
  8
0-F
  6
Continuous
 62
     7
370
     9
100
AcDbLine
 10
-111.6757179514005
 20
-126.967103954504
 30
0.0
 11
-123.573020527414
 21
-125.4008098772235
 31
0.0
  0
LINE
  5
228
330
1F
100
AcDbEntity
  8
0-F
  6
Continuous
 62
     7
370
     9
100
AcDbLine
 10
-111.6757179514005
 20
-126.967103954504
 30
0.0
 11
-123.573020527414
 21
-128.5333980317844
 31
0.0
  0
LINE
  5
229
330
1F
100
AcDbEntity
  8
0-F
  6
Continuous
 62
     7
370
     9
100
AcDbLine
 10
-706.6757509433769
 20
-166.9671122024979
 30
0.0
 11
-694.7784483673634
 21
-165.4008181252177
 31
0.0
  0
LINE
  5
22A
330
1F
100
AcDbEntity
  8
0-F
  6
Continuous
 62
     7
370
     9
100
AcDbLine
 10
-706.6757509433769
 20
-166.9671122024979
 30
0.0
 11
-694.7784483673634
 21
-168.5334062797783
 31
0.0
  0
LINE
  5
22B
330
1F
100
AcDbEntity
  8
0-F
  6
Continuous
 62
     7
370
     9
100
AcDbLine
 10
-107.67570475461
 20
-166.9671122024979
 30
0.0
 11
-119.5730073306235
 21
-165.4008181252177
 31
0.0
  0
LINE
  5
22C
330
1F
100
AcDbEntity
  8
0-F
  6
Continuous
 62
     7
370
     9
100
AcDbLine
 10
-107.67570475461
 20
-166.9671122024979
 30
0.0
 11
-119.5730073306235
 21
-168.5334062797783
 31
0.0
  0
LINE
  5
22D
330
1F
100
AcDbEntity
  8
0-F
  6
Continuous
 62
     7
370
     9
100
AcDbLine
 10
-106.6757509433768
 20
-166.9671122024979
 30
0.0
 11
-94.77844836736341
 21
-165.4008181252177
 31
0.0
  0
LINE
  5
22E
330
1F
100
AcDbEntity
  8
0-F
  6
Continuous
 62
     7
370
     9
100
AcDbLine
 10
-106.6757509433768
 20
-166.9671122024979
 30
0.0
 11
-94.77844836736341
 21
-168.5334062797783
 31
0.0
  0
LINE
  5
22F
330
1F
100
AcDbEntity
  8
0-F
  6
Continuous
 62
     7
370
     9
100
AcDbLine
 10
378.3243150405759
 20
-46.9671369464802
 30
0.0
 11
281.1243110815388
 21
-46.9671369464802
 31
0.0
  0
LINE
  5
230
330
1F
100
AcDbEntity
  8
0-F
  6
Continuous
 62
     7
370
     9
100
AcDbLine
 10
378.3243150405759
 20
-18.96699508098209
 30
0.0
 11
321.124344073515
 21
-18.96699508098209
 31
0.0
  0
LINE
  5
231
330
1F
100
AcDbEntity
  8
0-F
  6
Continuous
 62
     7
370
     9
100
AcDbLine
 10
322.3243282373663
 20
-46.9671369464802
 30
0.0
 11
320.7580341600859
 21
-35.06978488250229
 31
0.0
  0
LINE
  5
232
330
1F
100
AcDbEntity
  8
0-F
  6
Continuous
 62
     7
370
     9
100
AcDbLine
 10
322.3243282373663
 20
-46.9671369464802
 30
0.0
 11
323.8906223146467
 21
-35.06978488250229
 31
0.0
  0
LINE
  5
233
330
1F
100
AcDbEntity
  8
0-F
  6
Continuous
 62
     7
370
     9
100
AcDbLine
 10
323.8906223146467
 20
-7.069643017003955
 30
0.0
 11
320.7580341600859
 21
-30.86434714495999
 31
0.0
  0
LINE
  5
234
330
1F
100
AcDbEntity
  8
0-F
  6
Continuous
 62
     7
370
     9
100
AcDbLine
 10
320.7580341600859
 20
-7.069643017003955
 30
0.0
 11
323.8906223146467
 21
-30.86434714495999
 31
0.0
  0
LINE
  5
235
330
1F
100
AcDbEntity
  8
0-F
  6
Continuous
 62
     7
370
     9
100
AcDbLine
 10
378.3243150405759
 20
315.0330181158085
 30
0.0
 11
321.124344073515
 21
315.0330181158085
 31
0.0
  0
LINE
  5
236
330
1F
100
AcDbEntity
  8
0-F
  6
Continuous
 62
     7
370
     9
100
AcDbLine
 10
322.3243282373663
 20
315.0330181158085
 30
0.0
 11
320.7580341600859
 21
303.135715539795
 31
0.0
  0
LINE
  5
237
330
1F
100
AcDbEntity
  8
0-F
  6
Continuous
 62
     7
370
     9
100
AcDbLine
 10
322.3243282373663
 20
315.0330181158085
 30
0.0
 11
323.8906223146467
 21
303.135715539795
 31
0.0
  0
LINE
  5
238
330
1F
100
AcDbEntity
  8
0-F
  6
Continuous
 62
     7
370
     9
100
AcDbLine
 10
378.3243150405759
 20
343.0330115174133
 30
0.0
 11
281.1243110815388
 21
343.0330115174133
 31
0.0
  0
LINE
  5
239
330
1F
100
AcDbEntity
  8
0-F
  6
Continuous
 62
     7
370
     9
100
AcDbLine
 10
378.3243150405759
 20
-51.96710395450395
 30
0.0
 11
241.1242780895622
 21
-51.96710395450395
 31
0.0
  0
LINE
  5
23A
330
1F
100
AcDbEntity
  8
0-F
  6
Continuous
 62
     7
370
     9
100
AcDbLine
 10
378.3243150405759
 20
-48.96709405691104
 30
0.0
 11
281.1243110815388
 21
-48.96709405691104
 31
0.0
  0
LINE
  5
23B
330
1F
100
AcDbEntity
  8
0-F
  6
Continuous
 62
     7
370
     9
100
AcDbLine
 10
282.32429524539
 20
-75.69658294521332
 30
0.0
 11
282.32429524539
 21
371.7624575161465
 31
0.0
  0
LINE
  5
23C
330
1F
100
AcDbEntity
  8
0-F
  6
Continuous
 62
     7
370
     9
100
AcDbLine
 10
282.32429524539
 20
343.0330115174133
 30
0.0
 11
280.7580011681096
 21
331.1357089413998
 31
0.0
  0
LINE
  5
23D
330
1F
100
AcDbEntity
  8
0-F
  6
Continuous
 62
     7
370
     9
100
AcDbLine
 10
282.32429524539
 20
343.0330115174133
 30
0.0
 11
283.8905893226705
 21
331.1357089413998
 31
0.0
  0
LINE
  5
23E
330
1F
100
AcDbEntity
  8
0-F
  6
Continuous
 62
     7
370
     9
100
AcDbLine
 10
378.3243150405759
 20
345.0330181158085
 30
0.0
 11
281.1243110815388
 21
345.0330181158085
 31
0.0
  0
LINE
  5
23F
330
1F
100
AcDbEntity
  8
0-F
  6
Continuous
 62
     7
370
     9
100
AcDbLine
 10
378.3243150405759
 20
348.0329785254369
 30
0.0
 11
241.1242780895622
 21
348.0329785254369
 31
0.0
  0
LINE
  5
240
330
1F
100
AcDbEntity
  8
0-F
  6
Continuous
 62
     7
370
     9
100
AcDbLine
 10
282.32429524539
 20
348.0329785254369
 30
0.0
 11
280.7580011681096
 21
359.9302811014504
 31
0.0
  0
LINE
  5
241
330
1F
100
AcDbEntity
  8
0-F
  6
Continuous
 62
     7
370
     9
100
AcDbLine
 10
282.32429524539
 20
348.0329785254369
 30
0.0
 11
283.8905893226705
 21
359.9302811014504
 31
0.0
  0
LINE
  5
242
330
1F
100
AcDbEntity
  8
0-F
  6
Continuous
 62
     7
370
     9
100
AcDbLine
 10
242.3242622534137
 20
-51.96710395450395
 30
0.0
 11
242.3242622534137
 21
348.0329785254369
 31
0.0
  0
LINE
  5
243
330
1F
100
AcDbEntity
  8
0-F
  6
Continuous
 62
     7
370
     9
100
AcDbLine
 10
242.3242622534137
 20
-51.96710395450395
 30
0.0
 11
240.7579681761333
 21
-40.06975189052582
 31
0.0
  0
LINE
  5
244
330
1F
100
AcDbEntity
  8
0-F
  6
Continuous
 62
     7
370
     9
100
AcDbLine
 10
242.3242622534137
 20
-51.96710395450395
 30
0.0
 11
243.8905563306941
 21
-40.06975189052582
 31
0.0
  0
LINE
  5
245
330
1F
100
AcDbEntity
  8
0-F
  6
Continuous
 62
     7
370
     9
100
AcDbLine
 10
242.3242622534137
 20
348.0329785254369
 30
0.0
 11
240.7579681761333
 21
336.1356759494233
 31
0.0
  0
LINE
  5
246
330
1F
100
AcDbEntity
  8
0-F
  6
Continuous
 62
     7
370
     9
100
AcDbLine
 10
242.3242622534137
 20
348.0329785254369
 30
0.0
 11
243.8905563306941
 21
336.1356759494233
 31
0.0
  0
LINE
  5
247
330
1F
100
AcDbEntity
  8
0-F
  6
Continuous
 62
     7
370
     9
100
AcDbLine
 10
282.32429524539
 20
-46.96708745851583
 30
0.0
 11
280.7580011681096
 21
-35.06978488250229
 31
0.0
  0
LINE
  5
248
330
1F
100
AcDbEntity
  8
0-F
  6
Continuous
 62
     7
370
     9
100
AcDbLine
 10
282.32429524539
 20
-46.96708745851583
 30
0.0
 11
283.8905893226705
 21
-35.06978488250229
 31
0.0
  0
LINE
  5
249
330
1F
100
AcDbEntity
  8
0-F
  6
Continuous
 62
     7
370
     9
100
AcDbLine
 10
282.32429524539
 20
-51.96710395450395
 30
0.0
 11
280.7580011681096
 21
-63.8644065305175
 31
0.0
  0
LINE
  5
24A
330
1F
100
AcDbEntity
  8
0-F
  6
Continuous
 62
     7
370
     9
100
AcDbLine
 10
282.32429524539
 20
-51.96710395450395
 30
0.0
 11
283.8905893226705
 21
-63.8644065305175
 31
0.0
  0
LINE
  5
24B
330
1F
100
AcDbEntity
  8
0-F
  6
Continuous
 62
     7
370
     9
100
AcDbLine
 10
382.3241302855084
 20
77.64227104549605
 30
0.0
 11
474.356403036775
 21
77.64227104549605
 31
0.0
  0
LINE
  5
24C
330
1F
100
AcDbEntity
  8
0-F
  6
Continuous
 62
     7
370
     9
100
AcDbLine
 10
382.3241302855084
 20
77.64227104549605
 30
0.0
 11
394.2214328615217
 21
79.20856512277646
 31
0.0
  0
LINE
  5
24D
330
1F
100
AcDbEntity
  8
0-F
  6
Continuous
 62
     7
370
     9
100
AcDbLine
 10
382.3241302855084
 20
77.64227104549605
 30
0.0
 11
394.2214328615217
 21
76.07597696821563
 31
0.0
  0
LINE
  5
24E
330
1F
100
AcDbEntity
  8
0-F
  6
Continuous
 62
     7
370
     9
100
AcDbLine
 10
422.3242622534137
 20
77.64227104549605
 30
0.0
 11
410.4269596774
 21
79.20856512277646
 31
0.0
  0
LINE
  5
24F
330
1F
100
AcDbEntity
  8
0-F
  6
Continuous
 62
     7
370
     9
100
AcDbLine
 10
422.3242622534137
 20
77.64227104549605
 30
0.0
 11
410.4269596774
 21
76.07597696821563
 31
0.0
  0
LINE
  5
250
330
1F
100
AcDbEntity
  8
0-F
  6
Continuous
 62
     7
370
     9
100
AcDbLine
 10
447.3240972935321
 20
77.64227104549605
 30
0.0
 11
459.2213998695454
 21
79.20856512277646
 31
0.0
  0
LINE
  5
251
330
1F
100
AcDbEntity
  8
0-F
  6
Continuous
 62
     7
370
     9
100
AcDbLine
 10
447.3240972935321
 20
77.64227104549605
 30
0.0
 11
459.2213998695454
 21
76.07597696821563
 31
0.0
  0
LINE
  5
252
330
1F
100
AcDbEntity
  8
0-F
  6
Continuous
 62
     7
370
     9
100
AcDbLine
 10
-706.6757509433769
 20
-55.96701817536541
 30
0.0
 11
-706.6757509433769
 21
-168.1670963663494
 31
0.0
  0
LINE
  5
253
330
1F
100
AcDbEntity
  8
0-F
  6
Continuous
 62
     7
370
     9
100
AcDbLine
 10
-702.6757377465863
 20
-55.96701817536541
 30
0.0
 11
-702.6757377465863
 21
-128.1670881183552
 31
0.0
  0
LINE
  5
254
330
1F
100
AcDbEntity
  8
0-F
  6
Continuous
 62
     7
370
     9
100
AcDbLine
 10
-111.6757179514005
 20
-55.96701817536541
 30
0.0
 11
-111.6757179514005
 21
-128.1670881183552
 31
0.0
  0
LINE
  5
255
330
1F
100
AcDbEntity
  8
0-F
  6
Continuous
 62
     7
370
     9
100
AcDbLine
 10
-107.67570475461
 20
-55.96701817536541
 30
0.0
 11
-107.67570475461
 21
-168.1670963663494
 31
0.0
  0
LINE
  5
256
330
1F
100
AcDbEntity
  8
0-F
  6
Continuous
 62
     7
370
     9
100
AcDbLine
 10
-106.6757509433768
 20
-55.96701817536541
 30
0.0
 11
-106.6757509433768
 21
-168.1670963663494
 31
0.0
  0
LINE
  5
257
330
1F
100
AcDbEntity
  8
0-F
  6
Continuous
 62
     7
370
     9
100
AcDbLine
 10
-706.6757509433769
 20
-166.9671122024979
 30
0.0
 11
122.3242622534137
 21
-166.9671122024979
 31
0.0
  0
LINE
  5
258
330
1F
100
AcDbEntity
  8
0-F
  6
Continuous
 62
     7
370
     9
100
AcDbLine
 10
433.3483002073833
 20
99.03849148468521
 30
0.0
 11
426.4360192741062
 21
77.64227104549605
 31
0.0
  0
LINE
  5
259
330
1F
100
AcDbEntity
  8
0-F
  6
Continuous
 62
     7
370
     9
100
AcDbLine
 10
322.3243282373663
 20
-46.9671369464802
 30
0.0
 11
322.3243282373663
 21
370.1951736795754
 31
0.0
  0
LINE
  5
25A
330
1F
100
AcDbEntity
  8
0-F
  6
Continuous
 62
     7
370
     9
100
AcDbLine
 10
378.3243150405759
 20
319.0330313125992
 30
0.0
 11
321.124344073515
 21
319.0330313125992
 31
0.0
  0
LINE
  5
25B
330
1F
100
AcDbEntity
  8
0-F
  6
Continuous
 62
     7
370
     9
100
AcDbLine
 10
378.3243150405759
 20
330.0330181158085
 30
0.0
 11
321.124344073515
 21
330.0330181158085
 31
0.0
  0
LINE
  5
25C
330
1F
100
AcDbEntity
  8
0-F
  6
Continuous
 62
     7
370
     9
100
AcDbLine
 10
378.3243150405759
 20
334.0330313125992
 30
0.0
 11
321.124344073515
 21
334.0330313125992
 31
0.0
  0
LINE
  5
25D
330
1F
100
AcDbEntity
  8
0-F
  6
Continuous
 62
     7
370
     9
100
AcDbLine
 10
322.3243282373663
 20
343.0330115174133
 30
0.0
 11
320.7580341600859
 21
354.9303140934269
 31
0.0
  0
LINE
  5
25E
330
1F
100
AcDbEntity
  8
0-F
  6
Continuous
 62
     7
370
     9
100
AcDbLine
 10
322.3243282373663
 20
343.0330115174133
 30
0.0
 11
323.8906223146467
 21
354.9303140934269
 31
0.0
  0
LINE
  5
25F
330
1F
100
AcDbEntity
  8
0-F
  6
Continuous
 62
     7
370
     9
100
AcDbLine
 10
433.3483002073833
 20
99.03849148468521
 30
0.0
 11
445.5643052749508
 21
99.03849148468521
 31
0.0
  0
TEXT
  5
260
330
1F
100
AcDbEntity
  8
0-F
  6
Continuous
 62
     2
370
     9
100
AcDbText
 10
-420.175777336958
 20
-122.7110973561088
 30
0.0
 40
12.192
  1
591
 41
1.083333333333333
  7
ＭＳ ゴシック
100
AcDbText
  0
TEXT
  5
261
330
1F
100
AcDbEntity
  8
0-F
  6
Continuous
 62
     2
370
     9
100
AcDbText
 10
-420.175777336958
 20
-162.7111056041027
 30
0.0
 40
12.192
  1
599
 41
1.083333333333333
  7
ＭＳ ゴシック
100
AcDbText
  0
TEXT
  5
262
330
1F
100
AcDbEntity
  8
0-F
  6
Continuous
 62
     2
370
     9
100
AcDbText
 10
-89.24689319158205
 20
-162.7111056041027
 30
0.0
 40
12.192
  1
1
  7
ＭＳ ゴシック
100
AcDbText
  0
TEXT
  5
263
330
1F
100
AcDbEntity
  8
0-F
  6
Continuous
 62
     2
370
     9
100
AcDbText
 10
91.35132227241712
 20
-162.7111056041027
 30
0.0
 40
12.192
  1
599
 41
1.083333333333333
  7
ＭＳ ゴシック
100
AcDbText
  0
TEXT
  5
264
330
1F
100
AcDbEntity
  8
0-F
  6
Continuous
 62
     2
370
     9
100
AcDbText
 10
318.0683220105181
 20
-41.46699188039726
 30
0.0
 40
12.192
  1
28
 50
90.00000250447789
 41
1.062500000000001
  7
ＭＳ ゴシック
100
AcDbText
  0
TEXT
  5
265
330
1F
100
AcDbEntity
  8
0-F
  6
Continuous
 62
     2
370
     9
100
AcDbText
 10
278.0682888218407
 20
338.116296363902
 30
0.0
 40
12.192
  1
2
 50
90.00000250448173
 41
1.000000000000001
  7
ＭＳ ゴシック
100
AcDbText
  0
TEXT
  5
266
330
1F
100
AcDbEntity
  8
0-F
  6
Continuous
 62
     2
370
     9
100
AcDbText
 10
278.0682888218407
 20
-49.77336362078989
 30
0.0
 40
12.192
  1
2
 50
90.00000250448173
 41
1.000000000000001
  7
ＭＳ ゴシック
100
AcDbText
  0
TEXT
  5
267
330
1F
100
AcDbEntity
  8
0-F
  6
Continuous
 62
     2
370
     9
100
AcDbText
 10
391.8242391590302
 20
81.89827764389125
 30
0.0
 40
12.192
  1
40
 41
1.0625
  7
ＭＳ ゴシック
100
AcDbText
  0
TEXT
  5
268
330
1F
100
AcDbEntity
  8
0-F
  6
Continuous
 62
     2
370
     9
100
AcDbText
 10
435.6237700131264
 20
103.3228546867546
 30
0.0
 40
12.192
  1
7
  7
ＭＳ ゴシック
100
AcDbText
  0
TEXT
  5
269
330
1F
100
AcDbEntity
  8
0-F
  6
Continuous
 62
     2
370
     9
100
AcDbText
 10
318.0683218138165
 20
313.033024615591
 30
0.0
 40
12.192
  1
4
 50
90.00000250447522
 41
1.000000000000001
  7
ＭＳ ゴシック
100
AcDbText
  0
TEXT
  5
26A
330
1F
100
AcDbEntity
  8
0-F
  6
Continuous
 62
     2
370
     9
100
AcDbText
 10
300.2035627199777
 20
316.0330741035558
 30
0.0
 40
12.192
  1
11
 50
90.00000250448097
 41
1.062499999999987
  7
ＭＳ ゴシック
100
AcDbText
  0
TEXT
  5
26B
330
1F
100
AcDbEntity
  8
0-F
  6
Continuous
 62
     2
370
     9
100
AcDbText
 10
318.0683218138165
 20
328.033024615591
 30
0.0
 40
12.192
  1
4
 50
90.00000250447522
 41
1.000000000000001
  7
ＭＳ ゴシック
100
AcDbText
  0
TEXT
  5
26C
330
1F
100
AcDbEntity
  8
0-F
  6
Continuous
 62
     2
370
     9
100
AcDbText
 10
278.0682888218407
 20
-73.70133883721695
 30
0.0
 40
12.192
  1
3
 50
90.00000250448173
 41
1.000000000000001
  7
ＭＳ ゴシック
100
AcDbText
  0
TEXT
  5
26D
330
1F
100
AcDbEntity
  8
0-F
  6
Continuous
 62
     2
370
     9
100
AcDbText
 10
318.0683218138165
 20
356.7356481375504
 30
0.0
 40
12.192
  1
9
 50
90.00000250447522
 41
1.000000000000001
  7
ＭＳ ゴシック
100
AcDbText
  0
TEXT
  5
26E
330
1F
100
AcDbEntity
  8
0-F
  6
Continuous
 62
     2
370
     9
100
AcDbText
 10
278.0682888218407
 20
361.7671884669425
 30
0.0
 40
12.192
  1
3
 50
90.00000250448173
 41
1.000000000000001
  7
ＭＳ ゴシック
100
AcDbText
  0
TEXT
  5
26F
330
1F
100
AcDbEntity
  8
0-F
  6
Continuous
 62
     2
370
     9
100
AcDbText
 10
238.0682562232667
 20
135.0329124428715
 30
0.0
 40
12.192
  1
400
 50
90.00000250447873
 41
1.083333333333334
  7
ＭＳ ゴシック
100
AcDbText
  0
TEXT
  5
270
330
1F
100
AcDbEntity
  8
0-F
  6
Continuous
 62
     2
370
     9
100
AcDbText
 10
278.0682892152428
 20
135.0329619308358
 30
0.0
 40
12.192
  1
390
 50
90.00000250447873
 41
1.083333333333334
  7
ＭＳ ゴシック
100
AcDbText
  0
TEXT
  5
271
330
1F
100
AcDbEntity
  8
0-F
  6
Continuous
 62
     2
370
     9
100
AcDbText
 10
318.0683222072193
 20
135.0330114188004
 30
0.0
 40
12.192
  1
334
 50
90.00000250447873
 41
1.083333333333334
  7
ＭＳ ゴシック
100
AcDbText
  0
TEXT
  5
272
330
1F
100
AcDbEntity
  8
0-F
  6
Continuous
 62
     2
370
     9
100
AcDbText
 10
457.4351845771046
 20
81.89827764389125
 30
0.0
 40
12.192
  1
18
 41
1.0625
  7
ＭＳ ゴシック
100
AcDbText
  0
TEXT
  5
273
330
1F
100
AcDbEntity
  8
0-F
  6
Continuous
 62
     2
370
     9
100
AcDbText
 10
263.0130093501196
 20
-303.5183450334736
 30
0.0
 40
12.192
  1
仕様
 41
1.0625
  7
ＭＳ ゴシック
100
AcDbText
  0
TEXT
  5
274
330
1F
100
AcDbEntity
  8
0-F
  6
Continuous
 62
     2
370
     9
100
AcDbText
 10
263.0130192477126
 20
-327.5183252382877
 30
0.0
 40
12.192
  1
適用荷重：Ｔ－１４
 41
1.11111111111111
  7
ＭＳ ゴシック
100
AcDbText
  0
TEXT
  5
275
330
1F
100
AcDbEntity
  8
0-F
  6
Continuous
 62
     2
370
     9
100
AcDbText
 10
263.0130192477125
 20
-375.5183351358806
 30
0.0
 40
12.192
  1
接触圧子：２００×５００ｍｍ
 41
1.116071428571429
  7
ＭＳ ゴシック
100
AcDbText
  0
TEXT
  5
276
330
1F
100
AcDbEntity
  8
0-F
  6
Continuous
 62
     2
370
     9
100
AcDbText
 10
263.0129895549339
 20
-351.5183549310665
 30
0.0
 40
12.192
  1
破壊荷重：２４２ｋＮ（２４，７００ｋｇｆ）以上
 41
1.119565217391304
  7
ＭＳ ゴシック
100
AcDbText
  0
TEXT
  5
277
330
1F
100
AcDbEntity
  8
0-F
  6
Continuous
 62
     2
370
     9
100
AcDbText
 10
263.0132270971637
 20
-399.5183648286594
 30
0.0
 40
12.192
  1
蓋 質 量：１７．０ｋｇ
 41
1.113636363636364
  7
ＭＳ ゴシック
100
AcDbText
  0
LWPOLYLINE
  5
278
330
1F
100
AcDbEntity
  8
0-F
  6
Continuous
 62
     7
370
     9
100
AcDbPolyline
 90
        4
 70
     1
 43
0.4
 10
282.52429524539
 20
345.0330181158085
 42
0.4142135623731
 10
282.32429524539
 20
345.2330181158085
 42
0.4142135623731
 10
282.12429524539
 20
345.0330181158085
 42
0.4142135623731
 10
282.32429524539
 20
344.8330181158086
 42
0.4142135623731
  0
LWPOLYLINE
  5
279
330
1F
100
AcDbEntity
  8
0-F
  6
Continuous
 62
     7
370
     9
100
AcDbPolyline
 90
        4
 70
     1
 43
0.4
 10
282.52429524539
 20
-48.96709405691104
 42
0.4142135623731
 10
282.32429524539
 20
-48.76709405691103
 42
0.4142135623731
 10
282.12429524539
 20
-48.96709405691104
 42
0.4142135623731
 10
282.32429524539
 20
-49.16709405691104
 42
0.4142135623731
  0
LWPOLYLINE
  5
27A
330
1F
100
AcDbEntity
  8
0-F
  6
Continuous
 62
     7
370
     9
100
AcDbPolyline
 90
        4
 70
     1
 43
0.4
 10
429.5244338116908
 20
77.64227104549605
 42
0.4142135623731
 10
429.3244338116908
 20
77.84227104549605
 42
0.4142135623731
 10
429.1244338116908
 20
77.64227104549605
 42
0.4142135623731
 10
429.3244338116908
 20
77.44227104549604
 42
0.4142135623731
  0
LWPOLYLINE
  5
27B
330
1F
100
AcDbEntity
  8
0-F
  6
Continuous
 62
     7
370
     9
100
AcDbPolyline
 90
        4
 70
     1
 43
0.4
 10
322.5243282373663
 20
319.0330313125992
 42
0.4142135623731
 10
322.3243282373663
 20
319.2330313125992
 42
0.4142135623731
 10
322.1243282373663
 20
319.0330313125992
 42
0.4142135623731
 10
322.3243282373663
 20
318.8330313125992
 42
0.4142135623731
  0
LWPOLYLINE
  5
27C
330
1F
100
AcDbEntity
  8
0-F
  6
Continuous
 62
     7
370
     9
100
AcDbPolyline
 90
        4
 70
     1
 43
0.4
 10
322.5243282373663
 20
330.0330181158085
 42
0.4142135623731
 10
322.3243282373663
 20
330.2330181158085
 42
0.4142135623731
 10
322.1243282373663
 20
330.0330181158085
 42
0.4142135623731
 10
322.3243282373663
 20
329.8330181158086
 42
0.4142135623731
  0
LWPOLYLINE
  5
27D
330
1F
100
AcDbEntity
  8
0-F
  6
Continuous
 62
     7
370
     9
100
AcDbPolyline
 90
        4
 70
     1
 43
0.4
 10
322.5243282373663
 20
334.0330313125992
 42
0.4142135623731
 10
322.3243282373663
 20
334.2330313125992
 42
0.4142135623731
 10
322.1243282373663
 20
334.0330313125992
 42
0.4142135623731
 10
322.3243282373663
 20
333.8330313125992
 42
0.4142135623731
  0
LINE
  5
27E
330
1F
100
AcDbEntity
  8
0-F
  6
Continuous
 62
     7
370
     9
100
AcDbLine
 10
-707.6757542425746
 20
352.0329917222274
 30
0.0
 11
-707.6757542425746
 21
464.2329956812647
 31
0.0
  0
LINE
  5
27F
330
1F
100
AcDbEntity
  8
0-F
  6
Continuous
 62
     7
370
     9
100
AcDbLine
 10
-707.6757542425746
 20
423.0329785254368
 30
0.0
 11
-695.7784516665611
 21
424.5992726027172
 31
0.0
  0
LINE
  5
280
330
1F
100
AcDbEntity
  8
0-F
  6
Continuous
 62
     7
370
     9
100
AcDbLine
 10
-707.6757542425746
 20
423.0329785254368
 30
0.0
 11
-695.7784516665611
 21
421.4666844481563
 31
0.0
  0
LINE
  5
281
330
1F
100
AcDbEntity
  8
0-F
  6
Continuous
 62
     7
370
     9
100
AcDbLine
 10
-595.7784681625493
 20
421.4666844481563
 30
0.0
 11
-619.5731722905053
 21
424.5992726027172
 31
0.0
  0
LINE
  5
282
330
1F
100
AcDbEntity
  8
0-F
  6
Continuous
 62
     7
370
     9
100
AcDbLine
 10
-595.7784681625493
 20
424.5992726027172
 30
0.0
 11
-619.5731722905053
 21
421.4666844481563
 31
0.0
  0
LINE
  5
283
330
1F
100
AcDbEntity
  8
0-F
  6
Continuous
 62
     7
370
     9
100
AcDbLine
 10
4.221531837450925
 20
421.4666844481563
 30
0.0
 11
-19.57307331457616
 21
424.5992726027172
 31
0.0
  0
LINE
  5
284
330
1F
100
AcDbEntity
  8
0-F
  6
Continuous
 62
     7
370
     9
100
AcDbLine
 10
4.221531837450925
 20
424.5992726027172
 30
0.0
 11
-19.57307331457616
 21
421.4666844481563
 31
0.0
  0
LINE
  5
285
330
1F
100
AcDbEntity
  8
0-F
  6
Continuous
 62
     7
370
     9
100
AcDbLine
 10
-707.6757542425746
 20
463.0330115174132
 30
0.0
 11
-695.7784516665611
 21
464.5993055946936
 31
0.0
  0
LINE
  5
286
330
1F
100
AcDbEntity
  8
0-F
  6
Continuous
 62
     7
370
     9
100
AcDbLine
 10
-707.6757542425746
 20
463.0330115174132
 30
0.0
 11
-695.7784516665611
 21
461.4667174401328
 31
0.0
  0
LINE
  5
287
330
1F
100
AcDbEntity
  8
0-F
  6
Continuous
 62
     7
370
     9
100
AcDbLine
 10
-707.6757542425746
 20
423.0329785254368
 30
0.0
 11
122.3242622534138
 21
423.0329785254368
 31
0.0
  0
LINE
  5
288
330
1F
100
AcDbEntity
  8
0-F
  6
Continuous
 62
     7
370
     9
100
AcDbLine
 10
-707.6757542425746
 20
463.0330115174132
 30
0.0
 11
122.3242622534138
 21
463.0330115174132
 31
0.0
  0
TEXT
  5
289
330
1F
100
AcDbEntity
  8
0-F
  6
Continuous
 62
     2
370
     9
100
AcDbText
 10
-670.1757979569433
 20
427.2889851238322
 30
0.0
 40
12.192
  1
100
 41
1.083333333333333
  7
ＭＳ ゴシック
100
AcDbText
  0
TEXT
  5
28A
330
1F
100
AcDbEntity
  8
0-F
  6
Continuous
 62
     2
370
     9
100
AcDbText
 10
-320.1757443449815
 20
427.2889851238322
 30
0.0
 40
12.192
  1
600
 41
1.083333333333333
  7
ＭＳ ゴシック
100
AcDbText
  0
TEXT
  5
28B
330
1F
100
AcDbEntity
  8
0-F
  6
Continuous
 62
     2
370
     9
100
AcDbText
 10
96.32426885180908
 20
427.2889851238322
 30
0.0
 40
12.192
  1
600
 41
1.083333333333335
  7
ＭＳ ゴシック
100
AcDbText
  0
TEXT
  5
28C
330
1F
100
AcDbEntity
  8
0-F
  6
Continuous
 62
     2
370
     9
100
AcDbText
 10
-179.6581183816158
 20
467.2890181158084
 30
0.0
 40
12.192
  1
2000
 41
1.09375
  7
ＭＳ ゴシック
100
AcDbText
  0
LINE
  5
28D
330
1F
100
AcDbEntity
  8
躯体
  6
JWW_CENTER2
 62
     2
370
     9
100
AcDbLine
 10
-607.6757542425747
 20
378.8134212824726
 30
0.0
 11
-607.6757542425747
 21
339.033025067689
 31
0.0
  0
CIRCLE
  5
28E
330
1F
100
AcDbEntity
  8
躯体
  6
Continuous
 62
     2
370
     9
100
AcDbCircle
 10
-607.6757542425747
 20
368.0329123058269
 30
0.0
 40
4.249999652037749
  0
LINE
  5
28F
330
1F
100
AcDbEntity
  8
躯体
  6
JWW_DASHED1
 62
     2
370
     9
100
AcDbLine
 10
-600.9257847601529
 20
348.8870569582047
 30
0.0
 11
-600.9257847601529
 21
378.0329588480791
 31
0.0
  0
LINE
  5
290
330
1F
100
AcDbEntity
  8
躯体
  6
Continuous
 62
     2
370
     9
100
AcDbLine
 10
-598.925775451702
 20
349.0329725161838
 30
0.0
 11
-600.1757441093249
 21
349.0329725161838
 31
0.0
  0
LINE
  5
291
330
1F
100
AcDbEntity
  8
躯体
  6
JWW_DASHED1
 62
     2
370
     9
100
AcDbLine
 10
-614.4257237249966
 20
348.8870569582047
 30
0.0
 11
-614.4257237249966
 21
378.0329588480791
 31
0.0
  0
LINE
  5
292
330
1F
100
AcDbEntity
  8
躯体
  6
Continuous
 62
     2
370
     9
100
AcDbLine
 10
-616.4257330334475
 20
349.0329725161838
 30
0.0
 11
-615.1757643758245
 21
349.0329725161838
 31
0.0
  0
LINE
  5
293
330
1F
100
AcDbEntity
  8
躯体
  6
Continuous
 62
     2
370
     9
100
AcDbLine
 10
-598.925775451702
 20
349.0329725161838
 30
0.0
 11
-598.925775451702
 21
378.0329588480791
 31
0.0
  0
LINE
  5
294
330
1F
100
AcDbEntity
  8
躯体
  6
Continuous
 62
     2
370
     9
100
AcDbLine
 10
-607.6757542425747
 20
378.0329588480791
 30
0.0
 11
-598.925775451702
 21
378.0329588480791
 31
0.0
  0
LINE
  5
295
330
1F
100
AcDbEntity
  8
躯体
  6
Continuous
 62
     2
370
     9
100
AcDbLine
 10
-607.6757542425747
 20
378.0329588480791
 30
0.0
 11
-616.4257330334475
 21
378.0329588480791
 31
0.0
  0
LINE
  5
296
330
1F
100
AcDbEntity
  8
躯体
  6
Continuous
 62
     2
370
     9
100
AcDbLine
 10
-616.4257330334475
 20
349.0329725161838
 30
0.0
 11
-616.4257330334475
 21
378.0329588480791
 31
0.0
  0
LINE
  5
297
330
1F
100
AcDbEntity
  8
躯体
  6
JWW_CENTER2
 62
     2
370
     9
100
AcDbLine
 10
-607.6757542425747
 20
368.0329123058269
 30
0.0
 11
-601.8996782092653
 21
368.0329123058269
 31
0.0
  0
LINE
  5
298
330
1F
100
AcDbEntity
  8
躯体
  6
JWW_CENTER2
 62
     2
370
     9
100
AcDbLine
 10
-607.6757542425747
 20
368.0329123058269
 30
0.0
 11
-613.4518302758833
 21
368.0329123058269
 31
0.0
  0
ARC
  5
299
330
1F
100
AcDbEntity
  8
躯体
  6
Continuous
 62
     2
370
     9
100
AcDbCircle
 10
-615.1757643758245
 20
347.0329632077334
 30
0.0
 40
1.999999824868206
100
AcDbArc
 50
30.00050960355836
 51
89.99999999999999
  0
ARC
  5
29A
330
1F
100
AcDbEntity
  8
躯体
  6
Continuous
 62
     2
370
     9
100
AcDbCircle
 10
-600.1757441093249
 20
347.0329632077334
 30
0.0
 40
1.999999824868206
100
AcDbArc
 50
90.0
 51
149.9994903964416
  0
LINE
  5
29B
330
1F
100
AcDbEntity
  8
寸法
  6
Continuous
 62
     7
370
     9
100
AcDbLine
 10
-605.5507544165556
 20
371.7135199705666
 30
0.0
 11
-601.7239200929051
 21
380.9523152956796
 31
0.0
  0
LINE
  5
29C
330
1F
100
AcDbEntity
  8
寸法
  6
Continuous
 62
     7
370
     9
100
AcDbLine
 10
-605.5507544165556
 20
371.7135199705666
 30
0.0
 11
-599.4631401264686
 21
379.647053373479
 31
0.0
  0
LINE
  5
29D
330
1F
100
AcDbEntity
  8
寸法
  6
Continuous
 62
     7
370
     9
100
AcDbLine
 10
-605.5507544165556
 20
371.7135199705666
 30
0.0
 11
-590.5899164844167
 21
397.6264513928355
 31
0.0
  0
LINE
  5
29E
330
1F
100
AcDbEntity
  8
寸法
  6
Continuous
 62
     7
370
     9
100
AcDbLine
 10
-590.5899164844167
 20
397.6264513928355
 30
0.0
 11
-542.8062590884173
 21
397.6264513928355
 31
0.0
  0
TEXT
  5
29F
330
1F
100
AcDbEntity
  8
寸法
  6
Continuous
 62
     2
370
     9
100
AcDbText
 10
-588.698087786417
 20
401.8823590153017
 30
0.0
 40
12.192
  1
φ8.5
 41
1.1
  7
ＭＳ ゴシック
100
AcDbText
  0
LINE
  5
2A0
330
1F
100
AcDbEntity
  8
0-F
  6
Continuous
 62
     7
370
     9
100
AcDbLine
 10
-607.6757881680235
 20
386.7593433861063
 30
0.0
 11
-607.6757707385628
 21
424.2329626892882
 31
0.0
  0
LINE
  5
2A1
330
1F
100
AcDbEntity
  8
0-F
  6
Continuous
 62
     7
370
     9
100
AcDbLine
 10
-7.675770738562619
 20
386.7593433861063
 30
0.0
 11
-7.675770738562619
 21
424.2329626892882
 31
0.0
  0
LINE
  5
2A2
330
1F
100
AcDbEntity
  8
躯体
  6
JWW_CENTER2
 62
     2
370
     9
100
AcDbLine
 10
-7.675770738562619
 20
378.8134212824726
 30
0.0
 11
-7.675770738562619
 21
339.033025067689
 31
0.0
  0
CIRCLE
  5
2A3
330
1F
100
AcDbEntity
  8
躯体
  6
Continuous
 62
     2
370
     9
100
AcDbCircle
 10
-7.675770738562619
 20
368.0329123058269
 30
0.0
 40
4.249999652037749
  0
LINE
  5
2A4
330
1F
100
AcDbEntity
  8
躯体
  6
JWW_DASHED1
 62
     2
370
     9
100
AcDbLine
 10
-0.925801256140744
 20
348.8870569582047
 30
0.0
 11
-0.925801256140744
 21
378.0329588480791
 31
0.0
  0
LINE
  5
2A5
330
1F
100
AcDbEntity
  8
躯体
  6
Continuous
 62
     2
370
     9
100
AcDbLine
 10
1.074208052310155
 20
349.0329725161838
 30
0.0
 11
-0.1757606053128029
 21
349.0329725161838
 31
0.0
  0
LINE
  5
2A6
330
1F
100
AcDbEntity
  8
躯体
  6
JWW_DASHED1
 62
     2
370
     9
100
AcDbLine
 10
-14.42574022098449
 20
348.8870569582047
 30
0.0
 11
-14.42574022098449
 21
378.0329588480791
 31
0.0
  0
LINE
  5
2A7
330
1F
100
AcDbEntity
  8
躯体
  6
Continuous
 62
     2
370
     9
100
AcDbLine
 10
-16.42574952943539
 20
349.0329725161838
 30
0.0
 11
-15.17578087181244
 21
349.0329725161838
 31
0.0
  0
LINE
  5
2A8
330
1F
100
AcDbEntity
  8
躯体
  6
Continuous
 62
     2
370
     9
100
AcDbLine
 10
1.074208052310155
 20
349.0329725161838
 30
0.0
 11
1.074208052310155
 21
378.0329588480791
 31
0.0
  0
LINE
  5
2A9
330
1F
100
AcDbEntity
  8
躯体
  6
Continuous
 62
     2
370
     9
100
AcDbLine
 10
-7.675770738562619
 20
378.0329588480791
 30
0.0
 11
1.074208052310155
 21
378.0329588480791
 31
0.0
  0
LINE
  5
2AA
330
1F
100
AcDbEntity
  8
躯体
  6
Continuous
 62
     2
370
     9
100
AcDbLine
 10
-7.675770738562619
 20
378.0329588480791
 30
0.0
 11
-16.42574952943539
 21
378.0329588480791
 31
0.0
  0
LINE
  5
2AB
330
1F
100
AcDbEntity
  8
躯体
  6
Continuous
 62
     2
370
     9
100
AcDbLine
 10
-16.42574952943539
 20
349.0329725161838
 30
0.0
 11
-16.42574952943539
 21
378.0329588480791
 31
0.0
  0
LINE
  5
2AC
330
1F
100
AcDbEntity
  8
躯体
  6
JWW_CENTER2
 62
     2
370
     9
100
AcDbLine
 10
-7.675770738562619
 20
368.0329123058269
 30
0.0
 11
-1.899694705253182
 21
368.0329123058269
 31
0.0
  0
LINE
  5
2AD
330
1F
100
AcDbEntity
  8
躯体
  6
JWW_CENTER2
 62
     2
370
     9
100
AcDbLine
 10
-7.675770738562619
 20
368.0329123058269
 30
0.0
 11
-13.45184677187115
 21
368.0329123058269
 31
0.0
  0
ARC
  5
2AE
330
1F
100
AcDbEntity
  8
躯体
  6
Continuous
 62
     2
370
     9
100
AcDbCircle
 10
-15.17578087181244
 20
347.0329632077334
 30
0.0
 40
1.999999824868206
100
AcDbArc
 50
30.00050960355836
 51
89.99999999999999
  0
ARC
  5
2AF
330
1F
100
AcDbEntity
  8
躯体
  6
Continuous
 62
     2
370
     9
100
AcDbCircle
 10
-0.1757606053128029
 20
347.0329632077334
 30
0.0
 40
1.999999824868206
100
AcDbArc
 50
90.0
 51
149.9994903964416
  0
LINE
  5
2B0
330
1F
100
AcDbEntity
  8
躯体
  6
JWW_CENTER2
 62
     2
370
     9
100
AcDbLine
 10
-607.6757542425747
 20
-82.74739824764606
 30
0.0
 11
-607.6757542425747
 21
-42.96700203286241
 31
0.0
  0
CIRCLE
  5
2B1
330
1F
100
AcDbEntity
  8
躯体
  6
Continuous
 62
     2
370
     9
100
AcDbCircle
 10
-607.6757542425747
 20
-71.96688927100035
 30
0.0
 40
4.249999652037749
  0
LINE
  5
2B2
330
1F
100
AcDbEntity
  8
躯体
  6
JWW_DASHED1
 62
     2
370
     9
100
AcDbLine
 10
-600.9257847601529
 20
-52.82103392337808
 30
0.0
 11
-600.9257847601529
 21
-81.96693581325258
 31
0.0
  0
LINE
  5
2B3
330
1F
100
AcDbEntity
  8
躯体
  6
Continuous
 62
     2
370
     9
100
AcDbLine
 10
-598.925775451702
 20
-52.96694948135723
 30
0.0
 11
-600.1757441093249
 21
-52.96694948135723
 31
0.0
  0
LINE
  5
2B4
330
1F
100
AcDbEntity
  8
躯体
  6
JWW_DASHED1
 62
     2
370
     9
100
AcDbLine
 10
-614.4257237249966
 20
-52.82103392337808
 30
0.0
 11
-614.4257237249966
 21
-81.96693581325258
 31
0.0
  0
LINE
  5
2B5
330
1F
100
AcDbEntity
  8
躯体
  6
Continuous
 62
     2
370
     9
100
AcDbLine
 10
-616.4257330334475
 20
-52.96694948135723
 30
0.0
 11
-615.1757643758245
 21
-52.96694948135723
 31
0.0
  0
LINE
  5
2B6
330
1F
100
AcDbEntity
  8
躯体
  6
Continuous
 62
     2
370
     9
100
AcDbLine
 10
-598.925775451702
 20
-52.96694948135723
 30
0.0
 11
-598.925775451702
 21
-81.96693581325258
 31
0.0
  0
LINE
  5
2B7
330
1F
100
AcDbEntity
  8
躯体
  6
Continuous
 62
     2
370
     9
100
AcDbLine
 10
-607.6757542425747
 20
-81.96693581325258
 30
0.0
 11
-598.925775451702
 21
-81.96693581325258
 31
0.0
  0
LINE
  5
2B8
330
1F
100
AcDbEntity
  8
躯体
  6
Continuous
 62
     2
370
     9
100
AcDbLine
 10
-607.6757542425747
 20
-81.96693581325258
 30
0.0
 11
-616.4257330334475
 21
-81.96693581325258
 31
0.0
  0
LINE
  5
2B9
330
1F
100
AcDbEntity
  8
躯体
  6
Continuous
 62
     2
370
     9
100
AcDbLine
 10
-616.4257330334475
 20
-52.96694948135723
 30
0.0
 11
-616.4257330334475
 21
-81.96693581325258
 31
0.0
  0
LINE
  5
2BA
330
1F
100
AcDbEntity
  8
躯体
  6
JWW_CENTER2
 62
     2
370
     9
100
AcDbLine
 10
-607.6757542425747
 20
-71.96688927100035
 30
0.0
 11
-601.8996782092653
 21
-71.96688927100035
 31
0.0
  0
LINE
  5
2BB
330
1F
100
AcDbEntity
  8
躯体
  6
JWW_CENTER2
 62
     2
370
     9
100
AcDbLine
 10
-607.6757542425747
 20
-71.96688927100035
 30
0.0
 11
-613.4518302758833
 21
-71.96688927100035
 31
0.0
  0
ARC
  5
2BC
330
1F
100
AcDbEntity
  8
躯体
  6
Continuous
 62
     2
370
     9
100
AcDbCircle
 10
-615.1757643758245
 20
-50.96694017290679
 30
0.0
 40
1.999999824868206
100
AcDbArc
 50
270.0
 51
329.9994903964416
  0
ARC
  5
2BD
330
1F
100
AcDbEntity
  8
躯体
  6
Continuous
 62
     2
370
     9
100
AcDbCircle
 10
-600.1757441093249
 20
-50.96694017290679
 30
0.0
 40
1.999999824868206
100
AcDbArc
 50
210.0005096035584
 51
270.0
  0
LINE
  5
2BE
330
1F
100
AcDbEntity
  8
躯体
  6
JWW_CENTER2
 62
     2
370
     9
100
AcDbLine
 10
-7.675770738562591
 20
-82.74739824764606
 30
0.0
 11
-7.675770738562591
 21
-42.96700203286241
 31
0.0
  0
CIRCLE
  5
2BF
330
1F
100
AcDbEntity
  8
躯体
  6
Continuous
 62
     2
370
     9
100
AcDbCircle
 10
-7.675770738562591
 20
-71.96688927100035
 30
0.0
 40
4.249999652037749
  0
LINE
  5
2C0
330
1F
100
AcDbEntity
  8
躯体
  6
JWW_DASHED1
 62
     2
370
     9
100
AcDbLine
 10
-0.9258012561407156
 20
-52.82103392337808
 30
0.0
 11
-0.9258012561407156
 21
-81.96693581325258
 31
0.0
  0
LINE
  5
2C1
330
1F
100
AcDbEntity
  8
躯体
  6
Continuous
 62
     2
370
     9
100
AcDbLine
 10
1.074208052310183
 20
-52.96694948135723
 30
0.0
 11
-0.1757606053127745
 21
-52.96694948135723
 31
0.0
  0
LINE
  5
2C2
330
1F
100
AcDbEntity
  8
躯体
  6
JWW_DASHED1
 62
     2
370
     9
100
AcDbLine
 10
-14.42574022098447
 20
-52.82103392337808
 30
0.0
 11
-14.42574022098447
 21
-81.96693581325258
 31
0.0
  0
LINE
  5
2C3
330
1F
100
AcDbEntity
  8
躯体
  6
Continuous
 62
     2
370
     9
100
AcDbLine
 10
-16.42574952943536
 20
-52.96694948135723
 30
0.0
 11
-15.17578087181241
 21
-52.96694948135723
 31
0.0
  0
LINE
  5
2C4
330
1F
100
AcDbEntity
  8
躯体
  6
Continuous
 62
     2
370
     9
100
AcDbLine
 10
1.074208052310183
 20
-52.96694948135723
 30
0.0
 11
1.074208052310183
 21
-81.96693581325258
 31
0.0
  0
LINE
  5
2C5
330
1F
100
AcDbEntity
  8
躯体
  6
Continuous
 62
     2
370
     9
100
AcDbLine
 10
-7.675770738562591
 20
-81.96693581325258
 30
0.0
 11
1.074208052310183
 21
-81.96693581325258
 31
0.0
  0
LINE
  5
2C6
330
1F
100
AcDbEntity
  8
躯体
  6
Continuous
 62
     2
370
     9
100
AcDbLine
 10
-7.675770738562591
 20
-81.96693581325258
 30
0.0
 11
-16.42574952943536
 21
-81.96693581325258
 31
0.0
  0
LINE
  5
2C7
330
1F
100
AcDbEntity
  8
躯体
  6
Continuous
 62
     2
370
     9
100
AcDbLine
 10
-16.42574952943536
 20
-52.96694948135723
 30
0.0
 11
-16.42574952943536
 21
-81.96693581325258
 31
0.0
  0
LINE
  5
2C8
330
1F
100
AcDbEntity
  8
躯体
  6
JWW_CENTER2
 62
     2
370
     9
100
AcDbLine
 10
-7.675770738562591
 20
-71.96688927100035
 30
0.0
 11
-1.899694705253154
 21
-71.96688927100035
 31
0.0
  0
LINE
  5
2C9
330
1F
100
AcDbEntity
  8
躯体
  6
JWW_CENTER2
 62
     2
370
     9
100
AcDbLine
 10
-7.675770738562591
 20
-71.96688927100035
 30
0.0
 11
-13.45184677187112
 21
-71.96688927100035
 31
0.0
  0
ARC
  5
2CA
330
1F
100
AcDbEntity
  8
躯体
  6
Continuous
 62
     2
370
     9
100
AcDbCircle
 10
-15.17578087181241
 20
-50.96694017290679
 30
0.0
 40
1.999999824868206
100
AcDbArc
 50
270.0
 51
329.9994903964416
  0
ARC
  5
2CB
330
1F
100
AcDbEntity
  8
躯体
  6
Continuous
 62
     2
370
     9
100
AcDbCircle
 10
-0.1757606053127745
 20
-50.96694017290679
 30
0.0
 40
1.999999824868206
100
AcDbArc
 50
210.0005096035584
 51
270.0
  0
TEXT
  5
2CC
330
1F
100
AcDbEntity
  8
寸法
  6
Continuous
 62
     7
370
     9
100
AcDbText
 10
563.2141987773435
 20
35.49236877325597
 30
0.0
 40
9.144
  1
クッション：ｔ＝３．０
 41
1.151515151515152
  7
ＭＳ ゴシック
100
AcDbText
  0
TEXT
  5
2CD
330
1F
100
AcDbEntity
  8
寸法
  6
Continuous
 62
     7
370
     9
100
AcDbText
 10
562.2327600632385
 20
13.41464957456468
 30
0.0
 40
9.144
  1
クロロプレンゴム
 41
1.145833333333333
  7
ＭＳ ゴシック
100
AcDbText
  0
LINE
  5
2CE
330
1F
100
AcDbEntity
  8
寸法
  6
Continuous
 62
     7
370
     9
100
AcDbLine
 10
558.4671043798313
 20
27.97761486700597
 30
0.0
 11
715.1143937803664
 21
27.97761486700597
 31
0.0
  0
LINE
  5
2CF
330
1F
100
AcDbEntity
  8
寸法
  6
Continuous
 62
     7
370
     9
100
AcDbLine
 10
558.4671043798313
 20
27.97761486700597
 30
0.0
 11
443.8241302855081
 21
-5.467037970551473
 31
0.0
  0
LINE
  5
2D0
330
1F
100
AcDbEntity
  8
寸法
  6
Continuous
 62
     7
370
     9
100
AcDbLine
 10
443.8241302855081
 20
-5.467037970551473
 30
0.0
 11
455.684019960339
 21
-3.63875460906479
 31
0.0
  0
LINE
  5
2D1
330
1F
100
AcDbEntity
  8
寸法
  6
Continuous
 62
     7
370
     9
100
AcDbLine
 10
443.8241302855081
 20
-5.467037970551473
 30
0.0
 11
454.806697325204
 21
-0.631469980686461
 31
0.0
  0
LINE
  5
2D2
330
1F
100
AcDbEntity
  8
ハッチ
  6
Continuous
 62
     6
370
     9
100
AcDbLine
 10
445.3241302855081
 20
-45.46709405691104
 30
0.0
 11
445.3241302855081
 21
-5.467094056911037
 31
0.0
  0
LINE
  5
2D3
330
1F
100
AcDbEntity
  8
ハッチ
  6
Continuous
 62
     6
370
     9
100
AcDbLine
 10
445.3241302855081
 20
-5.467094056911037
 30
0.0
 11
442.3241302855081
 21
-5.467094056911037
 31
0.0
  0
LINE
  5
2D4
330
1F
100
AcDbEntity
  8
ハッチ
  6
Continuous
 62
     6
370
     9
100
AcDbLine
 10
442.3241302855081
 20
-5.467094056911037
 30
0.0
 11
442.3241302855081
 21
-45.46709405691104
 31
0.0
  0
LINE
  5
2D5
330
1F
100
AcDbEntity
  8
ハッチ
  6
Continuous
 62
     6
370
     9
100
AcDbLine
 10
444.2375318499999
 20
-45.46709405691058
 30
0.0
 11
445.3241302855077
 21
-44.38049562140282
 31
0.0
  0
LINE
  5
2D6
330
1F
100
AcDbEntity
  8
ハッチ
  6
Continuous
 62
     6
370
     9
100
AcDbLine
 10
442.3241302855072
 20
-41.72364137191039
 30
0.0
 11
445.3241302855072
 21
-38.72364137190993
 31
0.0
  0
LINE
  5
2D7
330
1F
100
AcDbEntity
  8
ハッチ
  6
Continuous
 62
     6
370
     9
100
AcDbLine
 10
442.3241302855081
 20
-36.06678712242297
 30
0.0
 11
445.3241302855063
 21
-33.06678712242478
 31
0.0
  0
LINE
  5
2D8
330
1F
100
AcDbEntity
  8
ハッチ
  6
Continuous
 62
     6
370
     9
100
AcDbLine
 10
442.3241302855077
 20
-30.40993287293009
 30
0.0
 11
445.3241302855081
 21
-27.40993287293009
 31
0.0
  0
LINE
  5
2D9
330
1F
100
AcDbEntity
  8
ハッチ
  6
Continuous
 62
     6
370
     9
100
AcDbLine
 10
442.3241302855081
 20
-24.75307862343629
 30
0.0
 11
445.3241302855081
 21
-21.75307862343629
 31
0.0
  0
LINE
  5
2DA
330
1F
100
AcDbEntity
  8
ハッチ
  6
Continuous
 62
     6
370
     9
100
AcDbLine
 10
442.3241302855077
 20
-19.09622437394341
 30
0.0
 11
445.3241302855077
 21
-16.09622437394341
 31
0.0
  0
LINE
  5
2DB
330
1F
100
AcDbEntity
  8
ハッチ
  6
Continuous
 62
     6
370
     9
100
AcDbLine
 10
442.3241302855086
 20
-13.43937012444917
 30
0.0
 11
445.3241302855086
 21
-10.43937012444917
 31
0.0
  0
LINE
  5
2DC
330
1F
100
AcDbEntity
  8
ハッチ
  6
Continuous
 62
     6
370
     9
100
AcDbLine
 10
442.3241302855081
 20
-7.782515874956289
 30
0.0
 11
444.6395521035534
 21
-5.467094056911492
 31
0.0
  0
LINE
  5
2DD
330
1F
100
AcDbEntity
  8
ハッチ
  6
Continuous
 62
     6
370
     9
100
AcDbLine
 10
442.3241302855081
 20
-45.46709405691104
 30
0.0
 11
445.3241302855081
 21
-45.46709405691104
 31
0.0
  0
LINE
  5
2DE
330
1F
100
AcDbEntity
  8
その他
  6
Continuous
 62
     7
370
     9
100
AcDbLine
 10
454.8238956300766
 20
-151.7673045457202
 30
0.0
 11
487.2821012909435
 21
-151.7673045457202
 31
0.0
  0
TEXT
  5
2DF
330
1F
100
AcDbEntity
  8
その他
  6
Continuous
 62
     2
370
   211
100
AcDbText
 10
460.1963789383288
 20
-147.1113045457201
 30
0.0
 40
12.192
  1
6.5
 41
1.08333333333331
  7
ＭＳ ゴシック
100
AcDbText
  0
TEXT
  5
2E0
330
1F
100
AcDbEntity
  8
その他
  6
Continuous
 62
     2
370
   211
100
AcDbText
 10
406.8243084421807
 20
-147.5112979473248
 30
0.0
 40
12.192
  1
66
 41
1.0625
  7
ＭＳ ゴシック
100
AcDbText
  0
LINE
  5
2E1
330
1F
100
AcDbEntity
  8
その他
  6
Continuous
 62
     7
370
     9
100
AcDbLine
 10
382.3243282373665
 20
-151.7673045457202
 30
0.0
 11
448.3242886469948
 21
-151.7673045457202
 31
0.0
  0
LINE
  5
2E2
330
1F
100
AcDbEntity
  8
その他
  6
Continuous
 62
     7
370
     9
100
AcDbLine
 10
448.3242886469948
 20
-151.7673045457202
 30
0.0
 11
436.4269860709811
 21
-150.2010104684398
 31
0.0
  0
LINE
  5
2E3
330
1F
100
AcDbEntity
  8
その他
  6
Continuous
 62
     7
370
     9
100
AcDbLine
 10
448.3242886469948
 20
-151.7673045457202
 30
0.0
 11
436.4269860709811
 21
-153.3335986230006
 31
0.0
  0
LINE
  5
2E4
330
1F
100
AcDbEntity
  8
その他
  6
Continuous
 62
     7
370
     9
100
AcDbLine
 10
448.3242886469948
 20
-86.00303692899001
 30
0.0
 11
448.3242886469948
 21
-152.9672887095714
 31
0.0
  0
LINE
  5
2E5
330
1F
100
AcDbEntity
  8
その他
  6
Continuous
 62
     7
370
     9
100
AcDbLine
 10
382.3243282373665
 20
-111.767271553744
 30
0.0
 11
442.3243282373665
 21
-111.767271553744
 31
0.0
  0
LINE
  5
2E6
330
1F
100
AcDbEntity
  8
その他
  6
Continuous
 62
     7
370
     9
100
AcDbLine
 10
382.3243282373665
 20
-59.96713034808522
 30
0.0
 11
382.3243282373665
 21
-152.9672887095714
 31
0.0
  0
LINE
  5
2E7
330
1F
100
AcDbEntity
  8
その他
  6
Continuous
 62
     7
370
     9
100
AcDbLine
 10
442.3243282373665
 20
-56.96716993845689
 30
0.0
 11
442.3243282373665
 21
-112.9672557175952
 31
0.0
  0
LINE
  5
2E8
330
1F
100
AcDbEntity
  8
その他
  6
Continuous
 62
     7
370
     9
100
AcDbLine
 10
382.3243282373665
 20
-111.767271553744
 30
0.0
 11
394.2216308133803
 21
-110.2009774764635
 31
0.0
  0
LINE
  5
2E9
330
1F
100
AcDbEntity
  8
その他
  6
Continuous
 62
     7
370
     9
100
AcDbLine
 10
382.3243282373665
 20
-111.767271553744
 30
0.0
 11
394.2216308133803
 21
-113.3335656310244
 31
0.0
  0
LINE
  5
2EA
330
1F
100
AcDbEntity
  8
その他
  6
Continuous
 62
     7
370
     9
100
AcDbLine
 10
442.3243282373665
 20
-111.767271553744
 30
0.0
 11
430.4270256613532
 21
-110.2009774764635
 31
0.0
  0
LINE
  5
2EB
330
1F
100
AcDbEntity
  8
その他
  6
Continuous
 62
     7
370
     9
100
AcDbLine
 10
442.3243282373665
 20
-111.767271553744
 30
0.0
 11
430.4270256613532
 21
-113.3335656310244
 31
0.0
  0
LINE
  5
2EC
330
1F
100
AcDbEntity
  8
その他
  6
Continuous
 62
     7
370
     9
100
AcDbLine
 10
382.3243282373665
 20
-151.7673045457202
 30
0.0
 11
394.2216308133803
 21
-150.2010104684398
 31
0.0
  0
LINE
  5
2ED
330
1F
100
AcDbEntity
  8
その他
  6
Continuous
 62
     7
370
     9
100
AcDbLine
 10
382.3243282373665
 20
-151.7673045457202
 30
0.0
 11
394.2216308133803
 21
-153.3335986230006
 31
0.0
  0
TEXT
  5
2EE
330
1F
100
AcDbEntity
  8
その他
  6
Continuous
 62
     2
370
     9
100
AcDbText
 10
403.8243777253311
 20
-107.5112649553485
 30
0.0
 40
12.192
  1
60
 41
1.0625
  7
ＭＳ ゴシック
100
AcDbText
  0
LINE
  5
2EF
330
1F
100
AcDbEntity
  8
その他
  6
Continuous
 62
     7
370
     9
100
AcDbLine
 10
448.3242886469948
 20
-151.7673045457202
 30
0.0
 11
454.8238956300766
 21
-151.7673045457202
 31
0.0
  0
LINE
  5
2F0
330
1F
100
AcDbEntity
  8
その他
  6
Continuous
 62
     7
370
     9
100
AcDbLine
 10
448.3242886469948
 20
-151.7673045457202
 30
0.0
 11
438.4098400332569
 21
-153.0725664679205
 31
0.0
  0
LINE
  5
2F1
330
1F
100
AcDbEntity
  8
その他
  6
Continuous
 62
     7
370
     9
100
AcDbLine
 10
448.3242886469948
 20
-151.7673045457202
 30
0.0
 11
438.4098400332569
 21
-150.4620426235194
 31
0.0
  0
LINE
  5
2F2
330
1F
100
AcDbEntity
  8
その他
  6
Continuous
 62
     7
370
     9
100
AcDbLine
 10
454.8238956300766
 20
-151.7673045457202
 30
0.0
 11
464.7383442438149
 21
-153.0725664679205
 31
0.0
  0
LINE
  5
2F3
330
1F
100
AcDbEntity
  8
その他
  6
Continuous
 62
     7
370
     9
100
AcDbLine
 10
454.8238956300766
 20
-151.7673045457202
 30
0.0
 11
464.7383442438149
 21
-150.4620426235194
 31
0.0
  0
LINE
  5
2F4
330
1F
100
AcDbEntity
  8
その他
  6
Continuous
 62
     7
370
     9
100
AcDbLine
 10
454.8238956300766
 20
-152.96730454572
 30
0.0
 11
454.8238956300766
 21
-40.96707072687082
 31
0.0
  0
LINE
  5
2F5
330
1F
100
AcDbEntity
  8
躯体
  6
JWW_CENTER2
 62
     2
370
     9
100
AcDbLine
 10
456.3720894843308
 20
-32.96707072687082
 30
0.0
 11
447.2877137420114
 21
-32.96707072687082
 31
0.0
  0
LINE
  5
2F6
330
1F
100
AcDbEntity
  8
躯体
  6
Continuous
 62
     2
370
     9
100
AcDbLine
 10
450.8240274212389
 20
-42.96710371884751
 30
0.0
 11
452.8242849353973
 21
-42.96710371884751
 31
0.0
  0
LINE
  5
2F7
330
1F
100
AcDbEntity
  8
躯体
  6
Continuous
 62
     2
370
     9
100
AcDbLine
 10
448.3242886469947
 20
-42.96710371884751
 30
0.0
 11
448.8240181127885
 21
-42.96710371884751
 31
0.0
  0
LINE
  5
2F8
330
1F
100
AcDbEntity
  8
躯体
  6
Continuous
 62
     2
370
     9
100
AcDbLine
 10
452.8242849353973
 20
-42.96710371884751
 30
0.0
 11
452.8242849353973
 21
-22.96703773489457
 31
0.0
  0
LINE
  5
2F9
330
1F
100
AcDbEntity
  8
躯体
  6
JWW_DASHED1
 62
     2
370
     9
100
AcDbLine
 10
452.8240367296893
 20
-35.21704403871877
 30
0.0
 11
450.8240274212389
 21
-35.21704403871877
 31
0.0
  0
LINE
  5
2FA
330
1F
100
AcDbEntity
  8
躯体
  6
JWW_DASHED1
 62
     2
370
     9
100
AcDbLine
 10
450.6240066716422
 20
-35.21704403871877
 30
0.0
 11
448.8240181127885
 21
-36.96699025001431
 31
0.0
  0
LINE
  5
2FB
330
1F
100
AcDbEntity
  8
躯体
  6
JWW_DASHED1
 62
     2
370
     9
100
AcDbLine
 10
450.6240066716422
 20
-35.21704403871877
 30
0.0
 11
450.8240769681178
 21
-35.21704403871877
 31
0.0
  0
LINE
  5
2FC
330
1F
100
AcDbEntity
  8
躯体
  6
JWW_DASHED1
 62
     2
370
     9
100
AcDbLine
 10
450.6240066716422
 20
-30.71704786814439
 30
0.0
 11
450.8240769681178
 21
-30.71704786814439
 31
0.0
  0
LINE
  5
2FD
330
1F
100
AcDbEntity
  8
躯体
  6
JWW_DASHED1
 62
     2
370
     9
100
AcDbLine
 10
450.6240066716422
 20
-35.21704403871877
 30
0.0
 11
450.6240066716422
 21
-30.71704786814439
 31
0.0
  0
LINE
  5
2FE
330
1F
100
AcDbEntity
  8
躯体
  6
JWW_DASHED1
 62
     2
370
     9
100
AcDbLine
 10
452.8240367296893
 20
-30.71704786814439
 30
0.0
 11
450.8240274212389
 21
-30.71704786814439
 31
0.0
  0
LINE
  5
2FF
330
1F
100
AcDbEntity
  8
躯体
  6
JWW_DASHED1
 62
     2
370
     9
100
AcDbLine
 10
450.6240066716422
 20
-30.71704786814439
 30
0.0
 11
448.8240181127885
 21
-28.96715120372778
 31
0.0
  0
LINE
  5
300
330
1F
100
AcDbEntity
  8
躯体
  6
Continuous
 62
     2
370
     9
100
AcDbLine
 10
448.8240181127885
 20
-22.96702418461859
 30
0.0
 11
450.8240274212389
 21
-22.96702418461859
 31
0.0
  0
LINE
  5
301
330
1F
100
AcDbEntity
  8
躯体
  6
Continuous
 62
     2
370
     9
100
AcDbLine
 10
450.8240274212389
 20
-52.972068952374
 30
0.0
 11
450.8240274212389
 21
-22.96702418461859
 31
0.0
  0
LINE
  5
302
330
1F
100
AcDbEntity
  8
躯体
  6
Continuous
 62
     2
370
     9
100
AcDbLine
 10
448.8240181127885
 20
-81.96705104951366
 30
0.0
 11
448.8240181127885
 21
-22.96702418461859
 31
0.0
  0
ARC
  5
303
330
1F
100
AcDbEntity
  8
躯体
  6
Continuous
 62
     2
370
     9
100
AcDbCircle
 10
451.6240113258677
 20
-55.96707868029375
 30
0.0
 40
3.000000414701042
100
AcDbArc
 50
0.0
 51
90.0
  0
ARC
  5
304
330
1F
100
AcDbEntity
  8
躯体
  6
Continuous
 62
     2
370
     9
100
AcDbCircle
 10
451.6240113258677
 20
-78.96708663371669
 30
0.0
 40
3.000000414701042
100
AcDbArc
 50
270.0
 51
0.0
  0
LINE
  5
305
330
1F
100
AcDbEntity
  8
躯体
  6
Continuous
 62
     2
370
     9
100
AcDbLine
 10
454.6240252885431
 20
-55.96707868029375
 30
0.0
 11
454.6240252885431
 21
-78.96708663371669
 31
0.0
  0
LINE
  5
306
330
1F
100
AcDbEntity
  8
躯体
  6
Continuous
 62
     2
370
     9
100
AcDbLine
 10
451.6240113258677
 20
-52.96706471761831
 30
0.0
 11
448.8240181127885
 21
-52.96706471761831
 31
0.0
  0
LINE
  5
307
330
1F
100
AcDbEntity
  8
躯体
  6
Continuous
 62
     2
370
     9
100
AcDbLine
 10
451.6240113258677
 20
-81.96705104951366
 30
0.0
 11
448.8240181127885
 21
-81.96705104951366
 31
0.0
  0
LINE
  5
308
330
1F
100
AcDbEntity
  8
躯体
  6
JWW_DASHED1
 62
     2
370
     9
100
AcDbLine
 10
450.8240274212389
 20
-81.96204681475797
 30
0.0
 11
450.8240274212389
 21
-52.972068952374
 31
0.0
  0
LINE
  5
309
330
1F
100
AcDbEntity
  8
躯体
  6
JWW_CENTER2
 62
     2
370
     9
100
AcDbLine
 10
452.8240367296893
 20
-71.96700450726144
 30
0.0
 11
446.8240583512169
 21
-71.96700450726144
 31
0.0
  0
LINE
  5
30A
330
1F
100
AcDbEntity
  8
躯体
  6
Continuous
 62
     2
370
     9
100
AcDbLine
 10
450.8240274212389
 20
-48.96704610071743
 30
0.0
 11
448.8240181127885
 21
-48.96704610071743
 31
0.0
  0
LINE
  5
30B
330
1F
100
AcDbEntity
  8
躯体
  6
JWW_DASHED1
 62
     2
370
     9
100
AcDbLine
 10
450.8240274212389
 20
-67.71707143384197
 30
0.0
 11
448.8240181127885
 21
-67.71707143384197
 31
0.0
  0
LINE
  5
30C
330
1F
100
AcDbEntity
  8
躯体
  6
JWW_DASHED1
 62
     2
370
     9
100
AcDbLine
 10
450.8240274212389
 20
-76.2170366744383
 30
0.0
 11
448.8240181127885
 21
-76.2170366744383
 31
0.0
  0
LINE
  5
30D
330
1F
100
AcDbEntity
  8
躯体
  6
Continuous
 62
     2
370
     9
100
AcDbLine
 10
448.8240181127885
 20
-39.71725383233957
 30
0.0
 11
448.8240181127885
 21
-42.96710371884751
 31
0.0
  0
LINE
  5
30E
330
1F
100
AcDbEntity
  8
躯体
  6
Continuous
 62
     2
370
     9
100
AcDbLine
 10
450.824321638971
 20
-41.7170624788771
 30
0.0
 11
450.824321638971
 21
-42.96710371884751
 31
0.0
  0
LINE
  5
30F
330
1F
100
AcDbEntity
  8
躯体
  6
Continuous
 62
     2
370
     9
100
AcDbLine
 10
448.8240181127885
 20
-26.21720929317166
 30
0.0
 11
448.8240181127885
 21
-22.96703773489457
 31
0.0
  0
LINE
  5
310
330
1F
100
AcDbEntity
  8
躯体
  6
Continuous
 62
     2
370
     9
100
AcDbLine
 10
450.824321638971
 20
-24.21707897486499
 30
0.0
 11
450.824321638971
 21
-22.96703773489457
 31
0.0
  0
LINE
  5
311
330
1F
100
AcDbEntity
  8
躯体
  6
Continuous
 62
     2
370
     9
100
AcDbLine
 10
448.3242886469947
 20
-22.96703773489457
 30
0.0
 11
452.8242849353973
 21
-22.96703773489457
 31
0.0
  0
LINE
  5
312
330
1F
100
AcDbEntity
  8
躯体
  6
Continuous
 62
     2
370
     9
100
AcDbLine
 10
448.8240181127885
 20
-28.96693381016917
 30
0.0
 11
448.6238516682678
 21
-28.96693381016917
 31
0.0
  0
LINE
  5
313
330
1F
100
AcDbEntity
  8
躯体
  6
Continuous
 62
     2
370
     9
100
AcDbLine
 10
448.8240181127885
 20
-36.96681173985667
 30
0.0
 11
448.6238516682678
 21
-36.96681173985667
 31
0.0
  0
LINE
  5
314
330
1F
100
AcDbEntity
  8
躯体
  6
Continuous
 62
     2
370
     9
100
AcDbLine
 10
448.6238516682678
 20
-36.96681173985667
 30
0.0
 11
448.6238516682678
 21
-32.96707072687082
 31
0.0
  0
LINE
  5
315
330
1F
100
AcDbEntity
  8
躯体
  6
Continuous
 62
     2
370
     9
100
AcDbLine
 10
448.6238516682678
 20
-28.96693381016917
 30
0.0
 11
448.6238516682678
 21
-32.96707072687082
 31
0.0
  0
LINE
  5
316
330
1F
100
AcDbEntity
  8
躯体
  6
Continuous
 62
     2
370
     9
100
AcDbLine
 10
453.3240144011911
 20
-35.71701793970874
 30
0.0
 11
452.8242849353973
 21
-35.71701793970874
 31
0.0
  0
LINE
  5
317
330
1F
100
AcDbEntity
  8
躯体
  6
Continuous
 62
     2
370
     9
100
AcDbLine
 10
454.8238956300765
 20
-33.9668760742104
 30
0.0
 11
453.3240144011911
 21
-35.71701793970874
 31
0.0
  0
LINE
  5
318
330
1F
100
AcDbEntity
  8
躯体
  6
Continuous
 62
     2
370
     9
100
AcDbLine
 10
454.8238956300765
 20
-31.96709217165585
 30
0.0
 11
454.8238956300765
 21
-33.9668760742104
 31
0.0
  0
LINE
  5
319
330
1F
100
AcDbEntity
  8
躯体
  6
Continuous
 62
     2
370
     9
100
AcDbLine
 10
453.3240144011911
 20
-30.21699979412165
 30
0.0
 11
454.8238956300765
 21
-31.96709217165585
 31
0.0
  0
LINE
  5
31A
330
1F
100
AcDbEntity
  8
躯体
  6
Continuous
 62
     2
370
     9
100
AcDbLine
 10
453.3240144011911
 20
-30.21699979412165
 30
0.0
 11
452.8242849353973
 21
-30.21699979412165
 31
0.0
  0
LINE
  5
31B
330
1F
100
AcDbEntity
  8
躯体
  6
Continuous
 62
     2
370
     9
100
AcDbLine
 10
453.3240144011911
 20
-30.21699979412165
 30
0.0
 11
453.3240144011911
 21
-35.71701793970874
 31
0.0
  0
LINE
  5
31C
330
1F
100
AcDbEntity
  8
躯体
  6
Continuous
 62
     2
370
     9
100
AcDbLine
 10
448.3242886469947
 20
-42.96710371884751
 30
0.0
 11
448.3242886469947
 21
-22.96703773489457
 31
0.0
  0
LINE
  5
31D
330
1F
100
AcDbEntity
  8
躯体
  6
Continuous
 62
     2
370
     9
100
AcDbLine
 10
448.8240181127885
 20
-39.71725383233957
 30
0.0
 11
448.8240181127885
 21
-26.21720929317166
 31
0.0
  0
LINE
  5
31E
330
1F
100
AcDbEntity
  8
その他
  6
Continuous
 62
     7
370
     9
100
AcDbLine
 10
536.3241434822986
 20
-51.96710395450395
 30
0.0
 11
536.3241434822986
 21
-1.967037970551246
 31
0.0
  0
TEXT
  5
31F
330
1F
100
AcDbEntity
  8
その他
  6
Continuous
 62
     2
370
     9
100
AcDbText
 10
532.0681368839032
 20
-35.46707096252749
 30
0.0
 40
12.192
  1
50
 50
90.0
 41
1.0625
  7
ＭＳ ゴシック
100
AcDbText
  0
LINE
  5
320
330
1F
100
AcDbEntity
  8
その他
  6
Continuous
 62
     7
370
     9
100
AcDbLine
 10
536.3241434822986
 20
-51.96710395450395
 30
0.0
 11
537.890437559579
 21
-40.06980137849041
 31
0.0
  0
LINE
  5
321
330
1F
100
AcDbEntity
  8
その他
  6
Continuous
 62
     7
370
     9
100
AcDbLine
 10
536.3241434822986
 20
-51.96710395450395
 30
0.0
 11
534.7578494050182
 21
-40.06980137849041
 31
0.0
  0
LINE
  5
322
330
1F
100
AcDbEntity
  8
その他
  6
Continuous
 62
     7
370
     9
100
AcDbLine
 10
534.7578494050182
 20
-13.86434054656456
 30
0.0
 11
537.890437559579
 21
9.930264605462298
 31
0.0
  0
LINE
  5
323
330
1F
100
AcDbEntity
  8
その他
  6
Continuous
 62
     7
370
     9
100
AcDbLine
 10
537.890437559579
 20
-13.86434054656456
 30
0.0
 11
534.7578494050182
 21
9.930264605462298
 31
0.0
  0
LINE
  5
324
330
1F
100
AcDbEntity
  8
その他
  6
Continuous
 62
     7
370
     9
100
AcDbLine
 10
453.324315040576
 20
-1.967037970551246
 30
0.0
 11
537.5241276461499
 21
-1.967037970551246
 31
0.0
  0
LINE
  5
325
330
1F
100
AcDbEntity
  8
その他
  6
Continuous
 62
     7
370
     9
100
AcDbLine
 10
536.3241434822986
 20
-51.96710395450395
 30
0.0
 11
536.3241434822986
 21
-81.96708704841717
 31
0.0
  0
LINE
  5
326
330
1F
100
AcDbEntity
  8
その他
  6
Continuous
 62
     7
370
     9
100
AcDbLine
 10
536.3241434822986
 20
-51.96710395450395
 30
0.0
 11
537.6294054044994
 21
-61.88155256824189
 31
0.0
  0
LINE
  5
327
330
1F
100
AcDbEntity
  8
その他
  6
Continuous
 62
     7
370
     9
100
AcDbLine
 10
536.3241434822986
 20
-51.96710395450395
 30
0.0
 11
535.0188815600983
 21
-61.88155256824189
 31
0.0
  0
LINE
  5
328
330
1F
100
AcDbEntity
  8
その他
  6
Continuous
 62
     7
370
     9
100
AcDbLine
 10
536.3241434822986
 20
-81.96708704841717
 30
0.0
 11
537.6294054044994
 21
-72.05263843467924
 31
0.0
  0
LINE
  5
329
330
1F
100
AcDbEntity
  8
その他
  6
Continuous
 62
     7
370
     9
100
AcDbLine
 10
536.3241434822986
 20
-81.96708704841717
 30
0.0
 11
535.0188815600983
 21
-72.05263843467924
 31
0.0
  0
LINE
  5
32A
330
1F
100
AcDbEntity
  8
その他
  6
Continuous
 62
     7
370
     9
100
AcDbLine
 10
537.5241434822989
 20
-81.96708704841717
 30
0.0
 11
459.6240113258676
 21
-81.96708704841717
 31
0.0
  0
TEXT
  5
32B
330
1F
100
AcDbEntity
  8
その他
  6
Continuous
 62
     2
370
   211
100
AcDbText
 10
531.668143482299
 20
-75.46709550146056
 30
0.0
 40
12.192
  1
30
 50
90.0
 41
1.0625
  7
ＭＳ ゴシック
100
AcDbText
  0
LINE
  5
32C
330
1F
100
AcDbEntity
  8
その他
  6
Continuous
 62
     7
370
     9
100
AcDbLine
 10
459.6240113258676
 20
-51.96710395450395
 30
0.0
 11
537.5241276461499
 21
-51.96710395450395
 31
0.0
  0
LINE
  5
32D
330
1F
100
AcDbEntity
  8
その他
  6
Continuous
 62
     7
370
     9
100
AcDbLine
 10
536.3241434822986
 20
298.0329125414842
 30
0.0
 11
536.3241434822986
 21
348.0329785254366
 31
0.0
  0
LINE
  5
32E
330
1F
100
AcDbEntity
  8
その他
  6
Continuous
 62
     7
370
     9
100
AcDbLine
 10
456.8240181127884
 20
348.0329785254366
 30
0.0
 11
537.5241276461499
 21
348.0329785254366
 31
0.0
  0
LINE
  5
32F
330
1F
100
AcDbEntity
  8
その他
  6
Continuous
 62
     7
370
     9
100
AcDbLine
 10
453.324315040576
 20
298.0329125414842
 30
0.0
 11
537.5241276461499
 21
298.0329125414842
 31
0.0
  0
LINE
  5
330
330
1F
100
AcDbEntity
  8
その他
  6
Continuous
 62
     7
370
     9
100
AcDbLine
 10
537.890437559579
 20
309.9302151174975
 30
0.0
 11
534.7578494050182
 21
286.1356099654706
 31
0.0
  0
LINE
  5
331
330
1F
100
AcDbEntity
  8
その他
  6
Continuous
 62
     7
370
     9
100
AcDbLine
 10
534.7578494050182
 20
309.9302151174975
 30
0.0
 11
537.890437559579
 21
286.1356099654706
 31
0.0
  0
LINE
  5
332
330
1F
100
AcDbEntity
  8
その他
  6
Continuous
 62
     7
370
     9
100
AcDbLine
 10
536.3241434822986
 20
348.0329785254366
 30
0.0
 11
534.7578494050182
 21
336.1356759494233
 31
0.0
  0
LINE
  5
333
330
1F
100
AcDbEntity
  8
その他
  6
Continuous
 62
     7
370
     9
100
AcDbLine
 10
536.3241434822986
 20
348.0329785254366
 30
0.0
 11
537.890437559579
 21
336.1356759494233
 31
0.0
  0
TEXT
  5
334
330
1F
100
AcDbEntity
  8
その他
  6
Continuous
 62
     2
370
     9
100
AcDbText
 10
532.0681368839032
 20
314.5329455334604
 30
0.0
 40
12.192
  1
50
 50
90.0
 41
1.0625
  7
ＭＳ ゴシック
100
AcDbText
  0
LINE
  5
335
330
1F
100
AcDbEntity
  8
その他
  6
Continuous
 62
     7
370
     9
100
AcDbLine
 10
536.3241434822986
 20
378.0329256204459
 30
0.0
 11
536.3241434822986
 21
348.0329785254366
 31
0.0
  0
LINE
  5
336
330
1F
100
AcDbEntity
  8
その他
  6
Continuous
 62
     7
370
     9
100
AcDbLine
 10
536.3241434822986
 20
378.0329256204459
 30
0.0
 11
537.6294054044994
 21
368.1184770067077
 31
0.0
  0
LINE
  5
337
330
1F
100
AcDbEntity
  8
その他
  6
Continuous
 62
     7
370
     9
100
AcDbLine
 10
536.3241434822986
 20
378.0329256204459
 30
0.0
 11
535.0188815600983
 21
368.1184770067077
 31
0.0
  0
LINE
  5
338
330
1F
100
AcDbEntity
  8
その他
  6
Continuous
 62
     7
370
     9
100
AcDbLine
 10
536.3241434822986
 20
348.0329785254366
 30
0.0
 11
537.6294054044994
 21
357.9474271391748
 31
0.0
  0
LINE
  5
339
330
1F
100
AcDbEntity
  8
その他
  6
Continuous
 62
     7
370
     9
100
AcDbLine
 10
536.3241434822986
 20
348.0329785254366
 30
0.0
 11
535.0188815600983
 21
357.9474271391748
 31
0.0
  0
LINE
  5
33A
330
1F
100
AcDbEntity
  8
その他
  6
Continuous
 62
     7
370
     9
100
AcDbLine
 10
537.5241434822989
 20
378.0329256204459
 30
0.0
 11
456.8240181127884
 21
378.0329256204459
 31
0.0
  0
TEXT
  5
33B
330
1F
100
AcDbEntity
  8
その他
  6
Continuous
 62
     2
370
   211
100
AcDbText
 10
531.668143482299
 20
354.5329520729413
 30
0.0
 40
12.192
  1
30
 50
90.0
 41
1.0625
  7
ＭＳ ゴシック
100
AcDbText
  0
LINE
  5
33C
330
1F
100
AcDbEntity
  8
その他
  6
Continuous
 62
     7
370
     9
100
AcDbLine
 10
536.3241434822986
 20
-1.967037970551246
 30
0.0
 11
536.3241434822986
 21
298.0329125414842
 31
0.0
  0
TEXT
  5
33D
330
1F
100
AcDbEntity
  8
その他
  6
Continuous
 62
     2
370
   211
100
AcDbText
 10
530.0681434822986
 20
135.0329372854665
 30
0.0
 40
12.192
  1
300
 50
90.0
 41
1.083333333333333
  7
ＭＳ ゴシック
100
AcDbText
  0
LINE
  5
33E
330
1F
100
AcDbEntity
  8
躯体
  6
JWW_CENTER2
 62
     2
370
     9
100
AcDbLine
 10
452.8240367296893
 20
368.0328790781942
 30
0.0
 11
446.8240583512169
 21
368.0328790781942
 31
0.0
  0
LINE
  5
33F
330
1F
100
AcDbEntity
  8
躯体
  6
Continuous
 62
     2
370
     9
100
AcDbLine
 10
448.8240181127885
 20
335.7831284032724
 30
0.0
 11
448.8240181127885
 21
322.283083864104
 31
0.0
  0
LINE
  5
340
330
1F
100
AcDbEntity
  8
躯体
  6
Continuous
 62
     2
370
     9
100
AcDbLine
 10
448.3242886469947
 20
339.0329782897799
 30
0.0
 11
448.3242886469947
 21
319.0329123058274
 31
0.0
  0
LINE
  5
341
330
1F
100
AcDbEntity
  8
躯体
  6
Continuous
 62
     2
370
     9
100
AcDbLine
 10
453.3240144011911
 20
326.2828743650545
 30
0.0
 11
453.3240144011911
 21
331.7828925106415
 31
0.0
  0
LINE
  5
342
330
1F
100
AcDbEntity
  8
躯体
  6
Continuous
 62
     2
370
     9
100
AcDbLine
 10
453.3240144011911
 20
326.2828743650545
 30
0.0
 11
452.8242849353973
 21
326.2828743650545
 31
0.0
  0
LINE
  5
343
330
1F
100
AcDbEntity
  8
躯体
  6
Continuous
 62
     2
370
     9
100
AcDbLine
 10
453.3240144011911
 20
326.2828743650545
 30
0.0
 11
454.8238956300765
 21
328.0329667425882
 31
0.0
  0
LINE
  5
344
330
1F
100
AcDbEntity
  8
躯体
  6
Continuous
 62
     2
370
     9
100
AcDbLine
 10
454.8238956300765
 20
328.0329667425882
 30
0.0
 11
454.8238956300765
 21
330.0327506451432
 31
0.0
  0
LINE
  5
345
330
1F
100
AcDbEntity
  8
躯体
  6
Continuous
 62
     2
370
     9
100
AcDbLine
 10
454.8238956300765
 20
330.0327506451432
 30
0.0
 11
453.3240144011911
 21
331.7828925106415
 31
0.0
  0
LINE
  5
346
330
1F
100
AcDbEntity
  8
躯体
  6
Continuous
 62
     2
370
     9
100
AcDbLine
 10
453.3240144011911
 20
331.7828925106415
 30
0.0
 11
452.8242849353973
 21
331.7828925106415
 31
0.0
  0
LINE
  5
347
330
1F
100
AcDbEntity
  8
躯体
  6
Continuous
 62
     2
370
     9
100
AcDbLine
 10
448.6238516682678
 20
325.032808381102
 30
0.0
 11
448.6238516682678
 21
329.0329452978036
 31
0.0
  0
LINE
  5
348
330
1F
100
AcDbEntity
  8
躯体
  6
Continuous
 62
     2
370
     9
100
AcDbLine
 10
448.6238516682678
 20
333.0326863107895
 30
0.0
 11
448.6238516682678
 21
329.0329452978036
 31
0.0
  0
LINE
  5
349
330
1F
100
AcDbEntity
  8
躯体
  6
Continuous
 62
     2
370
     9
100
AcDbLine
 10
448.8240181127885
 20
333.0326863107895
 30
0.0
 11
448.6238516682678
 21
333.0326863107895
 31
0.0
  0
LINE
  5
34A
330
1F
100
AcDbEntity
  8
躯体
  6
Continuous
 62
     2
370
     9
100
AcDbLine
 10
448.8240181127885
 20
325.032808381102
 30
0.0
 11
448.6238516682678
 21
325.032808381102
 31
0.0
  0
LINE
  5
34B
330
1F
100
AcDbEntity
  8
躯体
  6
Continuous
 62
     2
370
     9
100
AcDbLine
 10
448.3242886469947
 20
319.0329123058274
 30
0.0
 11
452.8242849353973
 21
319.0329123058274
 31
0.0
  0
LINE
  5
34C
330
1F
100
AcDbEntity
  8
躯体
  6
Continuous
 62
     2
370
     9
100
AcDbLine
 10
450.824321638971
 20
320.2829535457978
 30
0.0
 11
450.824321638971
 21
319.0329123058274
 31
0.0
  0
LINE
  5
34D
330
1F
100
AcDbEntity
  8
躯体
  6
Continuous
 62
     2
370
     9
100
AcDbLine
 10
448.8240181127885
 20
322.283083864104
 30
0.0
 11
448.8240181127885
 21
319.0329123058274
 31
0.0
  0
LINE
  5
34E
330
1F
100
AcDbEntity
  8
躯体
  6
Continuous
 62
     2
370
     9
100
AcDbLine
 10
450.824321638971
 20
337.7829370498094
 30
0.0
 11
450.824321638971
 21
339.0329782897799
 31
0.0
  0
LINE
  5
34F
330
1F
100
AcDbEntity
  8
躯体
  6
Continuous
 62
     2
370
     9
100
AcDbLine
 10
448.8240181127885
 20
335.7831284032724
 30
0.0
 11
448.8240181127885
 21
339.0329782897799
 31
0.0
  0
LINE
  5
350
330
1F
100
AcDbEntity
  8
躯体
  6
JWW_CENTER2
 62
     2
370
     9
100
AcDbLine
 10
456.3720894843308
 20
329.0329452978036
 30
0.0
 11
447.2877137420114
 21
329.0329452978036
 31
0.0
  0
LINE
  5
351
330
1F
100
AcDbEntity
  8
躯体
  6
JWW_DASHED1
 62
     2
370
     9
100
AcDbLine
 10
450.8240274212389
 20
372.2829112453711
 30
0.0
 11
448.8240181127885
 21
372.2829112453711
 31
0.0
  0
LINE
  5
352
330
1F
100
AcDbEntity
  8
躯体
  6
JWW_DASHED1
 62
     2
370
     9
100
AcDbLine
 10
450.8240274212389
 20
363.7829460047743
 30
0.0
 11
448.8240181127885
 21
363.7829460047743
 31
0.0
  0
LINE
  5
353
330
1F
100
AcDbEntity
  8
躯体
  6
Continuous
 62
     2
370
     9
100
AcDbLine
 10
450.8240274212389
 20
345.0329206716498
 30
0.0
 11
448.8240181127885
 21
345.0329206716498
 31
0.0
  0
LINE
  5
354
330
1F
100
AcDbEntity
  8
躯体
  6
JWW_DASHED1
 62
     2
370
     9
100
AcDbLine
 10
450.8240274212389
 20
378.0279213856903
 30
0.0
 11
450.8240274212389
 21
349.0379435233064
 31
0.0
  0
LINE
  5
355
330
1F
100
AcDbEntity
  8
躯体
  6
Continuous
 62
     2
370
     9
100
AcDbLine
 10
451.6240113258677
 20
378.032925620446
 30
0.0
 11
448.8240181127885
 21
378.032925620446
 31
0.0
  0
LINE
  5
356
330
1F
100
AcDbEntity
  8
躯体
  6
Continuous
 62
     2
370
     9
100
AcDbLine
 10
451.6240113258677
 20
349.0329392885507
 30
0.0
 11
448.8240181127885
 21
349.0329392885507
 31
0.0
  0
LINE
  5
357
330
1F
100
AcDbEntity
  8
躯体
  6
Continuous
 62
     2
370
     9
100
AcDbLine
 10
454.6240252885431
 20
352.0329532512261
 30
0.0
 11
454.6240252885431
 21
375.032961204649
 31
0.0
  0
ARC
  5
358
330
1F
100
AcDbEntity
  8
躯体
  6
Continuous
 62
     2
370
     9
100
AcDbCircle
 10
451.6240113258677
 20
375.032961204649
 30
0.0
 40
3.000000414701042
100
AcDbArc
 50
0.0
 51
90.0
  0
ARC
  5
359
330
1F
100
AcDbEntity
  8
躯体
  6
Continuous
 62
     2
370
     9
100
AcDbCircle
 10
451.6240113258677
 20
352.0329532512261
 30
0.0
 40
3.000000414701042
100
AcDbArc
 50
270.0
 51
0.0
  0
LINE
  5
35A
330
1F
100
AcDbEntity
  8
躯体
  6
Continuous
 62
     2
370
     9
100
AcDbLine
 10
448.8240181127885
 20
378.032925620446
 30
0.0
 11
448.8240181127885
 21
319.0328987555514
 31
0.0
  0
LINE
  5
35B
330
1F
100
AcDbEntity
  8
躯体
  6
Continuous
 62
     2
370
     9
100
AcDbLine
 10
450.8240274212389
 20
349.0379435233064
 30
0.0
 11
450.8240274212389
 21
319.0328987555514
 31
0.0
  0
LINE
  5
35C
330
1F
100
AcDbEntity
  8
躯体
  6
Continuous
 62
     2
370
     9
100
AcDbLine
 10
448.8240181127885
 20
319.0328987555514
 30
0.0
 11
450.8240274212389
 21
319.0328987555514
 31
0.0
  0
LINE
  5
35D
330
1F
100
AcDbEntity
  8
躯体
  6
JWW_DASHED1
 62
     2
370
     9
100
AcDbLine
 10
450.6240066716422
 20
326.7829224390772
 30
0.0
 11
448.8240181127885
 21
325.0330257746601
 31
0.0
  0
LINE
  5
35E
330
1F
100
AcDbEntity
  8
躯体
  6
JWW_DASHED1
 62
     2
370
     9
100
AcDbLine
 10
452.8240367296893
 20
326.7829224390772
 30
0.0
 11
450.8240274212389
 21
326.7829224390772
 31
0.0
  0
LINE
  5
35F
330
1F
100
AcDbEntity
  8
躯体
  6
JWW_DASHED1
 62
     2
370
     9
100
AcDbLine
 10
450.6240066716422
 20
331.2829186096516
 30
0.0
 11
450.6240066716422
 21
326.7829224390772
 31
0.0
  0
LINE
  5
360
330
1F
100
AcDbEntity
  8
躯体
  6
JWW_DASHED1
 62
     2
370
     9
100
AcDbLine
 10
450.6240066716422
 20
326.7829224390772
 30
0.0
 11
450.8240769681178
 21
326.7829224390772
 31
0.0
  0
LINE
  5
361
330
1F
100
AcDbEntity
  8
躯体
  6
JWW_DASHED1
 62
     2
370
     9
100
AcDbLine
 10
450.6240066716422
 20
331.2829186096516
 30
0.0
 11
450.8240769681178
 21
331.2829186096516
 31
0.0
  0
LINE
  5
362
330
1F
100
AcDbEntity
  8
躯体
  6
JWW_DASHED1
 62
     2
370
     9
100
AcDbLine
 10
450.6240066716422
 20
331.2829186096516
 30
0.0
 11
448.8240181127885
 21
333.0328648209471
 31
0.0
  0
LINE
  5
363
330
1F
100
AcDbEntity
  8
躯体
  6
JWW_DASHED1
 62
     2
370
     9
100
AcDbLine
 10
452.8240367296893
 20
331.2829186096516
 30
0.0
 11
450.8240274212389
 21
331.2829186096516
 31
0.0
  0
LINE
  5
364
330
1F
100
AcDbEntity
  8
躯体
  6
Continuous
 62
     2
370
     9
100
AcDbLine
 10
452.8242849353973
 20
339.0329782897799
 30
0.0
 11
452.8242849353973
 21
319.0329123058274
 31
0.0
  0
LINE
  5
365
330
1F
100
AcDbEntity
  8
躯体
  6
Continuous
 62
     2
370
     9
100
AcDbLine
 10
448.3242886469947
 20
339.0329782897799
 30
0.0
 11
448.8240181127885
 21
339.0329782897799
 31
0.0
  0
LINE
  5
366
330
1F
100
AcDbEntity
  8
躯体
  6
Continuous
 62
     2
370
     9
100
AcDbLine
 10
450.8240274212389
 20
339.0329782897799
 30
0.0
 11
452.8242849353973
 21
339.0329782897799
 31
0.0
  0
LINE
  5
367
330
1F
100
AcDbEntity
  8
ハッチ
  6
Continuous
 62
     6
370
     9
100
AcDbLine
 10
442.3241302855081
 20
301.5329125414841
 30
0.0
 11
445.3241302855081
 21
301.5329125414841
 31
0.0
  0
LINE
  5
368
330
1F
100
AcDbEntity
  8
ハッチ
  6
Continuous
 62
     6
370
     9
100
AcDbLine
 10
442.3241302855081
 20
339.2174907234388
 30
0.0
 11
444.6395521035534
 21
341.5329125414838
 31
0.0
  0
LINE
  5
369
330
1F
100
AcDbEntity
  8
ハッチ
  6
Continuous
 62
     6
370
     9
100
AcDbLine
 10
442.3241302855086
 20
333.5606364739459
 30
0.0
 11
445.3241302855086
 21
336.5606364739461
 31
0.0
  0
LINE
  5
36A
330
1F
100
AcDbEntity
  8
ハッチ
  6
Continuous
 62
     6
370
     9
100
AcDbLine
 10
442.3241302855077
 20
327.9037822244517
 30
0.0
 11
445.3241302855077
 21
330.9037822244517
 31
0.0
  0
LINE
  5
36B
330
1F
100
AcDbEntity
  8
ハッチ
  6
Continuous
 62
     6
370
     9
100
AcDbLine
 10
442.3241302855081
 20
322.246927974959
 30
0.0
 11
445.3241302855081
 21
325.246927974959
 31
0.0
  0
LINE
  5
36C
330
1F
100
AcDbEntity
  8
ハッチ
  6
Continuous
 62
     6
370
     9
100
AcDbLine
 10
442.3241302855077
 20
316.590073725465
 30
0.0
 11
445.3241302855081
 21
319.5900737254652
 31
0.0
  0
LINE
  5
36D
330
1F
100
AcDbEntity
  8
ハッチ
  6
Continuous
 62
     6
370
     9
100
AcDbLine
 10
442.3241302855081
 20
310.9332194759721
 30
0.0
 11
445.3241302855063
 21
313.9332194759703
 31
0.0
  0
LINE
  5
36E
330
1F
100
AcDbEntity
  8
ハッチ
  6
Continuous
 62
     6
370
     9
100
AcDbLine
 10
442.3241302855072
 20
305.2763652264849
 30
0.0
 11
445.3241302855072
 21
308.2763652264852
 31
0.0
  0
LINE
  5
36F
330
1F
100
AcDbEntity
  8
ハッチ
  6
Continuous
 62
     6
370
     9
100
AcDbLine
 10
444.2375318499999
 20
301.5329125414845
 30
0.0
 11
445.3241302855077
 21
302.6195109769923
 31
0.0
  0
LINE
  5
370
330
1F
100
AcDbEntity
  8
ハッチ
  6
Continuous
 62
     6
370
     9
100
AcDbLine
 10
442.3241302855081
 20
341.5329125414841
 30
0.0
 11
442.3241302855081
 21
301.5329125414841
 31
0.0
  0
LINE
  5
371
330
1F
100
AcDbEntity
  8
ハッチ
  6
Continuous
 62
     6
370
     9
100
AcDbLine
 10
445.3241302855081
 20
341.5329125414841
 30
0.0
 11
442.3241302855081
 21
341.5329125414841
 31
0.0
  0
LINE
  5
372
330
1F
100
AcDbEntity
  8
ハッチ
  6
Continuous
 62
     6
370
     9
100
AcDbLine
 10
445.3241302855081
 20
301.5329125414841
 30
0.0
 11
445.3241302855081
 21
341.5329125414841
 31
0.0
  0
LINE
  5
373
330
1F
100
AcDbEntity
  8
寸法
  6
Continuous
 62
     7
370
     9
100
AcDbLine
 10
374.3296465439542
 20
419.7125340575316
 30
0.0
 11
407.725906573515
 21
348.0329785254368
 31
0.0
  0
LINE
  5
374
330
1F
100
AcDbEntity
  8
寸法
  6
Continuous
 62
     7
370
     9
100
AcDbLine
 10
407.725906573515
 20
348.0329785254368
 30
0.0
 11
401.2815838328054
 21
358.1557416694403
 31
0.0
  0
LINE
  5
375
330
1F
100
AcDbEntity
  8
寸法
  6
Continuous
 62
     7
370
     9
100
AcDbLine
 10
407.725906573515
 20
348.0329785254368
 30
0.0
 11
404.1212032373663
 21
359.4787529131057
 31
0.0
  0
LINE
  5
376
330
1F
100
AcDbEntity
  8
寸法
  6
Continuous
 62
     7
370
     9
100
AcDbLine
 10
450.824027421239
 20
378.0329256204458
 30
0.0
 11
454.8556139393978
 21
389.3353828628445
 31
0.0
  0
LINE
  5
377
330
1F
100
AcDbEntity
  8
寸法
  6
Continuous
 62
     7
370
     9
100
AcDbLine
 10
450.824027421239
 20
378.0329256204458
 30
0.0
 11
457.6435679089924
 21
387.9069622547366
 31
0.0
  0
LINE
  5
378
330
1F
100
AcDbEntity
  8
寸法
  6
Continuous
 62
     7
370
     9
100
AcDbLine
 10
472.1812270327457
 20
419.7125340575316
 30
0.0
 11
450.824027421239
 21
378.0329256204458
 31
0.0
  0
TEXT
  5
379
330
1F
100
AcDbEntity
  8
寸法
  6
Continuous
 62
     7
370
     9
100
AcDbText
 10
475.7886696280036
 20
406.5850661521262
 30
0.0
 40
9.144
  1
ＳＥＣＣ
 41
1.124999999999998
  7
ＭＳ ゴシック
100
AcDbText
  0
LINE
  5
37A
330
1F
100
AcDbEntity
  8
寸法
  6
Continuous
 62
     7
370
     9
100
AcDbLine
 10
472.1812270327457
 20
419.7125340575316
 30
0.0
 11
637.4348253068457
 21
419.7125340575316
 31
0.0
  0
TEXT
  5
37B
330
1F
100
AcDbEntity
  8
寸法
  6
Continuous
 62
     7
370
     9
100
AcDbText
 10
475.9806730327753
 20
426.8536538316024
 30
0.0
 40
9.144
  1
回転アンカー：ｔ＝２.０
 41
1.152173913043477
  7
ＭＳ ゴシック
100
AcDbText
  0
TEXT
  5
37C
330
1F
100
AcDbEntity
  8
寸法
  6
Continuous
 62
     7
370
     9
100
AcDbText
 10
475.9806730327755
 20
451.4482038337154
 30
0.0
 40
9.144
  1
境界部・壁際用として使用できます
 41
1.156249999999998
  7
ＭＳ ゴシック
100
AcDbText
  0
TEXT
  5
37D
330
1F
100
AcDbEntity
  8
寸法
  6
Continuous
 62
     7
370
     9
100
AcDbText
 10
475.9806730327755
 20
466.6287708282838
 30
0.0
 40
9.144
  1
アンカーを回転・変形させることで
 41
1.156249999999998
  7
ＭＳ ゴシック
100
AcDbText
  0
TEXT
  5
37E
330
1F
100
AcDbEntity
  8
寸法
  6
Continuous
 62
     7
370
     9
100
AcDbText
 10
461.980673032775
 20
466.6287708282838
 30
0.0
 40
9.144
  1
※
  7
ＭＳ ゴシック
100
AcDbText
  0
TEXT
  5
37F
330
1F
100
AcDbEntity
  8
寸法
  6
Continuous
 62
     7
370
     9
100
AcDbText
 10
181.41085781557
 20
405.6540985634437
 30
0.0
 40
9.144
  1
ＳＵＳ３０４
 41
1.138888888888889
  7
ＭＳ ゴシック
100
AcDbText
  0
LINE
  5
380
330
1F
100
AcDbEntity
  8
寸法
  6
Continuous
 62
     7
370
     9
100
AcDbLine
 10
180.871012923157
 20
419.7125340575316
 30
0.0
 11
374.3296465439542
 21
419.7125340575316
 31
0.0
  0
TEXT
  5
381
330
1F
100
AcDbEntity
  8
寸法
  6
Continuous
 62
     7
370
     9
100
AcDbText
 10
181.7981638227491
 20
425.4391888294909
 30
0.0
 40
9.144
  1
受枠：ＴＬ６０Ｐ，ｔ＝３．０
 41
1.154761904761905
  7
ＭＳ ゴシック
100
AcDbText
  0
TEXT
  5
382
330
1F
100
AcDbEntity
  8
F-5ﾚｲﾔ
  6
Continuous
 62
     2
370
     9
100
AcDbText
 10
-309.3628001271063
 20
-548.1112208411942
 30
0.0
 40
12.192
  1
　　　　　　　　　　　　ＳＥＭ－１４－４０６０（Ｐ＝１５）＋ＴＬ６０Ｐ
 41
0.7742857142857144
  7
ＭＳ ゴシック
100
AcDbText
  0
ENDSEC
  0
SECTION
  2
OBJECTS
  0
DICTIONARY
  5
C
330
0
100
AcDbDictionary
281
     1
  3
ACAD_GROUP
350
D
  3
ACAD_LAYOUT
350
1A
  3
ACAD_MLEADERSTYLE
350
384
  3
ACAD_MLINESTYLE
350
17
  3
ACAD_PLOTSETTINGS
350
19
  3
ACAD_PLOTSTYLENAME
350
E
  3
ACAD_TABLESTYLE
350
383
  3
ACAD_VISUALSTYLE
350
2A
  0
DICTIONARY
  5
D
102
{ACAD_REACTORS
330
C
102
}
330
C
100
AcDbDictionary
281
     1
  0
DICTIONARY
  5
1A
102
{ACAD_REACTORS
330
C
102
}
330
C
100
AcDbDictionary
281
     1
  3
Layout1
350
1E
  3
Layout2
350
26
  3
Model
350
22
  0
DICTIONARY
  5
384
102
{ACAD_REACTORS
330
C
102
}
330
C
100
AcDbDictionary
281
     1
  0
DICTIONARY
  5
17
102
{ACAD_REACTORS
330
C
102
}
330
C
100
AcDbDictionary
281
     1
  3
Standard
350
18
  0
DICTIONARY
  5
19
102
{ACAD_REACTORS
330
C
102
}
330
C
100
AcDbDictionary
281
     1
  0
ACDBDICTIONARYWDFLT
  5
E
102
{ACAD_REACTORS
330
C
102
}
330
C
100
AcDbDictionary
281
     1
  3
Normal
350
F
100
AcDbDictionaryWithDefault
340
F
  0
DICTIONARY
  5
383
102
{ACAD_REACTORS
330
C
102
}
330
C
100
AcDbDictionary
281
     1
  0
DICTIONARY
  5
2A
102
{ACAD_REACTORS
330
C
102
}
330
C
100
AcDbDictionary
281
     1
  3
2dWireframe
350
2F
  3
3D Hidden
350
31
  3
3dWireframe
350
30
  3
Basic
350
32
  3
Brighten
350
36
  3
ColorChange
350
3A
  3
Conceptual
350
34
  3
Dim
350
35
  3
Facepattern
350
39
  3
Flat
350
2B
  3
FlatWithEdges
350
2C
  3
Gouraud
350
2D
  3
GouraudWithEdges
350
2E
  3
Linepattern
350
38
  3
Realistic
350
33
  3
Thicken
350
37
  0
LAYOUT
  5
1E
102
{ACAD_REACTORS
330
1A
102
}
330
1A
100
AcDbPlotSettings
  1

  2
none_device
  4

  6

 40
0.0
 41
0.0
 42
0.0
 43
0.0
 44
0.0
 45
0.0
 46
0.0
 47
0.0
 48
0.0
 49
0.0
140
0.0
141
0.0
142
1.0
143
1.0
 70
   688
 72
     0
 73
     0
 74
     5
  7

 75
    16
 76
     0
 77
     5
 78
   300
147
1.0
148
0.0
149
0.0
100
AcDbLayout
  1
Layout1
 70
     1
 71
     1
 10
0.0
 20
0.0
 11
420.0
 21
297.0
 12
0.0
 22
0.0
 32
0.0
 14
1.000000000000000E+20
 24
1.000000000000000E+20
 34
1.000000000000000E+20
 15
-1.000000000000000E+20
 25
-1.000000000000000E+20
 35
-1.000000000000000E+20
146
0.0
 13
0.0
 23
0.0
 33
0.0
 16
1.0
 26
0.0
 36
0.0
 17
0.0
 27
1.0
 37
0.0
 76
     0
330
1B
  0
LAYOUT
  5
26
102
{ACAD_REACTORS
330
1A
102
}
330
1A
100
AcDbPlotSettings
  1

  2
none_device
  4

  6

 40
0.0
 41
0.0
 42
0.0
 43
0.0
 44
0.0
 45
0.0
 46
0.0
 47
0.0
 48
0.0
 49
0.0
140
0.0
141
0.0
142
1.0
143
1.0
 70
   688
 72
     0
 73
     0
 74
     5
  7

 75
    16
 76
     0
 77
     5
 78
   300
147
1.0
148
0.0
149
0.0
100
AcDbLayout
  1
Layout2
 70
     1
 71
     2
 10
0.0
 20
0.0
 11
0.0
 21
0.0
 12
0.0
 22
0.0
 32
0.0
 14
0.0
 24
0.0
 34
0.0
 15
0.0
 25
0.0
 35
0.0
146
0.0
 13
0.0
 23
0.0
 33
0.0
 16
1.0
 26
0.0
 36
0.0
 17
0.0
 27
1.0
 37
0.0
 76
     0
330
23
  0
LAYOUT
  5
22
102
{ACAD_REACTORS
330
1A
102
}
330
1A
100
AcDbPlotSettings
  1

  2
none_device
  4

  6

 40
0.0
 41
0.0
 42
0.0
 43
0.0
 44
0.0
 45
0.0
 46
0.0
 47
0.0
 48
0.0
 49
0.0
140
0.0
141
0.0
142
1.0
143
1.0
 70
  1712
 72
     0
 73
     0
 74
     0
  7

 75
     0
 76
     0
 77
     5
 78
   300
147
1.0
148
0.0
149
0.0
100
AcDbLayout
  1
Model
 70
     1
 71
     0
 10
-840.0
 20
-594.0
 11
840.0
 21
594.0
 12
0.0
 22
0.0
 32
0.0
 14
-840.0
 24
-594.0
 34
0.0
 15
840.0
 25
594.0
 35
0.0
146
0.0
 13
0.0
 23
0.0
 33
0.0
 16
1.0
 26
0.0
 36
0.0
 17
0.0
 27
1.0
 37
0.0
 76
     0
330
1F
331
29
  0
MLINESTYLE
  5
18
102
{ACAD_REACTORS
330
17
102
}
330
17
100
AcDbMlineStyle
  2
Standard
 70
     0
  3

 62
   256
 51
90.0
 52
90.0
 71
     2
 49
0.5
 62
   256
  6
BYLAYER
 49
-0.5
 62
   256
  6
BYLAYER
  0
ACDBPLACEHOLDER
  5
F
102
{ACAD_REACTORS
330
E
102
}
330
E
  0
VISUALSTYLE
  5
2F
102
{ACAD_REACTORS
330
2A
102
}
330
2A
100
AcDbVisualStyle
  2
2dWireframe
 70
     4
 71
     0
 72
     2
 73
     0
 90
        0
 40
-0.6
 41
-30.0
 62
     5
 63
     7
421
 16777215
 74
     1
 91
        4
 64
     7
 65
   257
 75
     1
175
     1
 42
1.0
 92
        0
 66
   257
 43
1.0
 76
     1
 77
     6
 78
     2
 67
     7
 79
     5
170
     0
171
     0
290
     0
174
     0
 93
        1
 44
0.0
173
     0
291
     0
 45
0.0
1001
ACAD
1000
AcDbSavedByObjectVersion
1070
     0
  0
VISUALSTYLE
  5
31
102
{ACAD_REACTORS
330
2A
102
}
330
2A
100
AcDbVisualStyle
  2
3D Hidden
 70
     6
 71
     1
 72
     2
 73
     2
 90
        0
 40
-0.6
 41
-30.0
 62
     5
 63
     7
421
 16777215
 74
     2
 91
        2
 64
     7
 65
   257
 75
     2
175
     1
 42
40.0
 92
        0
 66
   257
 43
1.0
 76
     1
 77
     6
 78
     2
 67
     7
 79
     3
170
     0
171
     0
290
     0
174
     0
 93
        1
 44
0.0
173
     0
291
     0
 45
0.0
1001
ACAD
1000
AcDbSavedByObjectVersion
1070
     0
  0
VISUALSTYLE
  5
30
102
{ACAD_REACTORS
330
2A
102
}
330
2A
100
AcDbVisualStyle
  2
3dWireframe
 70
     5
 71
     0
 72
     2
 73
     0
 90
        0
 40
-0.6
 41
-30.0
 62
     5
 63
     7
421
 16777215
 74
     1
 91
        4
 64
     7
 65
   257
 75
     1
175
     1
 42
1.0
 92
        0
 66
   257
 43
1.0
 76
     1
 77
     6
 78
     2
 67
     7
 79
     5
170
     0
171
     0
290
     0
174
     0
 93
        1
 44
0.0
173
     0
291
     0
 45
0.0
1001
ACAD
1000
AcDbSavedByObjectVersion
1070
     0
  0
VISUALSTYLE
  5
32
102
{ACAD_REACTORS
330
2A
102
}
330
2A
100
AcDbVisualStyle
  2
Basic
 70
     7
 71
     1
 72
     0
 73
     1
 90
        0
 40
-0.6
 41
-30.0
 62
     5
 63
     7
421
 16777215
 74
     0
 91
        4
 64
     7
 65
   257
 75
     1
175
     1
 42
1.0
 92
        8
 66
     7
 43
1.0
 76
     1
 77
     6
 78
     2
 67
     7
 79
     5
170
     0
171
     0
290
     0
174
     0
 93
        1
 44
0.0
173
     0
291
     1
 45
0.0
1001
ACAD
1000
AcDbSavedByObjectVersion
1070
     0
  0
VISUALSTYLE
  5
36
102
{ACAD_REACTORS
330
2A
102
}
330
2A
100
AcDbVisualStyle
  2
Brighten
 70
    12
 71
     2
 72
     2
 73
     0
 90
        0
 40
-0.6
 41
-30.0
 62
     5
 63
     7
421
 16777215
 74
     1
 91
        4
 64
     7
 65
   257
 75
     1
175
     1
 42
1.0
 92
        8
 66
     7
 43
1.0
 76
     1
 77
     6
 78
     2
 67
     7
 79
     5
170
     0
171
     0
290
     0
174
     0
 93
        1
 44
50.0
173
     0
291
     1
 45
0.0
1001
ACAD
1000
AcDbSavedByObjectVersion
1070
     0
  0
VISUALSTYLE
  5
3A
102
{ACAD_REACTORS
330
2A
102
}
330
2A
100
AcDbVisualStyle
  2
ColorChange
 70
    16
 71
     2
 72
     2
 73
     3
 90
        0
 40
-0.6
 41
-30.0
 62
     5
 63
     8
421
  8421504
 74
     1
 91
        4
 64
     7
 65
   257
 75
     1
175
     1
 42
1.0
 92
        8
 66
     8
424
  8421504
 43
1.0
 76
     1
 77
     6
 78
     2
 67
     7
 79
     5
170
     0
171
     0
290
     0
174
     0
 93
        1
 44
0.0
173
     0
291
     1
 45
0.0
1001
ACAD
1000
AcDbSavedByObjectVersion
1070
     0
  0
VISUALSTYLE
  5
34
102
{ACAD_REACTORS
330
2A
102
}
330
2A
100
AcDbVisualStyle
  2
Conceptual
 70
     9
 71
     3
 72
     2
 73
     0
 90
        0
 40
-0.6
 41
-30.0
 62
     5
 63
     7
421
 16777215
 74
     2
 91
        2
 64
     7
 65
   257
 75
     1
175
     1
 42
40.0
 92
        8
 66
     7
 43
1.0
 76
     1
 77
     6
 78
     2
 67
     7
 79
     3
170
     0
171
     0
290
     0
174
     0
 93
        1
 44
0.0
173
     0
291
     0
 45
0.0
1001
ACAD
1000
AcDbSavedByObjectVersion
1070
     0
  0
VISUALSTYLE
  5
35
102
{ACAD_REACTORS
330
2A
102
}
330
2A
100
AcDbVisualStyle
  2
Dim
 70
    11
 71
     2
 72
     2
 73
     0
 90
        0
 40
-0.6
 41
-30.0
 62
     5
 63
     7
421
 16777215
 74
     1
 91
        4
 64
     7
 65
   257
 75
     1
175
     1
 42
1.0
 92
        8
 66
     7
 43
1.0
 76
     1
 77
     6
 78
     2
 67
     7
 79
     5
170
     0
171
     0
290
     0
174
     0
 93
        1
 44
-50.0
173
     0
291
     1
 45
0.0
1001
ACAD
1000
AcDbSavedByObjectVersion
1070
     0
  0
VISUALSTYLE
  5
39
102
{ACAD_REACTORS
330
2A
102
}
330
2A
100
AcDbVisualStyle
  2
Facepattern
 70
    15
 71
     2
 72
     2
 73
     0
 90
        0
 40
-0.6
 41
-30.0
 62
     5
 63
     7
421
 16777215
 74
     1
 91
        4
 64
     7
 65
   257
 75
     1
175
     1
 42
1.0
 92
        8
 66
     7
 43
1.0
 76
     1
 77
     6
 78
     2
 67
     7
 79
     5
170
     0
171
     0
290
     0
174
     0
 93
        1
 44
0.0
173
     0
291
     1
 45
0.0
1001
ACAD
1000
AcDbSavedByObjectVersion
1070
     0
  0
VISUALSTYLE
  5
2B
102
{ACAD_REACTORS
330
2A
102
}
330
2A
100
AcDbVisualStyle
  2
Flat
 70
     0
 71
     2
 72
     1
 73
     1
 90
        2
 40
-0.6
 41
30.0
 62
     5
 63
     7
421
 16777215
 74
     0
 91
        4
 64
     7
 65
   257
 75
     1
175
     1
 42
1.0
 92
        8
 66
     7
 43
1.0
 76
     1
 77
     6
 78
     2
 67
     7
 79
     5
170
     0
171
     0
290
     0
174
     0
 93
       13
 44
0.0
173
     0
291
     1
 45
0.0
1001
ACAD
1000
AcDbSavedByObjectVersion
1070
     0
  0
VISUALSTYLE
  5
2C
102
{ACAD_REACTORS
330
2A
102
}
330
2A
100
AcDbVisualStyle
  2
FlatWithEdges
 70
     1
 71
     2
 72
     1
 73
     1
 90
        2
 40
-0.6
 41
30.0
 62
     5
 63
     7
421
 16777215
 74
     1
 91
        4
 64
     7
 65
   257
 75
     1
175
     1
 42
1.0
 92
        0
 66
   257
 43
1.0
 76
     1
 77
     6
 78
     2
 67
     7
 79
     5
170
     0
171
     0
290
     0
174
     0
 93
       13
 44
0.0
173
     0
291
     1
 45
0.0
1001
ACAD
1000
AcDbSavedByObjectVersion
1070
     0
  0
VISUALSTYLE
  5
2D
102
{ACAD_REACTORS
330
2A
102
}
330
2A
100
AcDbVisualStyle
  2
Gouraud
 70
     2
 71
     2
 72
     2
 73
     1
 90
        2
 40
-0.6
 41
30.0
 62
     5
 63
     7
421
 16777215
 74
     0
 91
        4
 64
     7
 65
   257
 75
     1
175
     1
 42
1.0
 92
        0
 66
     7
 43
1.0
 76
     1
 77
     6
 78
     2
 67
     7
 79
     5
170
     0
171
     0
290
     0
174
     0
 93
       13
 44
0.0
173
     0
291
     1
 45
0.0
1001
ACAD
1000
AcDbSavedByObjectVersion
1070
     0
  0
VISUALSTYLE
  5
2E
102
{ACAD_REACTORS
330
2A
102
}
330
2A
100
AcDbVisualStyle
  2
GouraudWithEdges
 70
     3
 71
     2
 72
     2
 73
     1
 90
        2
 40
-0.6
 41
30.0
 62
     5
 63
     7
421
 16777215
 74
     1
 91
        4
 64
     7
 65
   257
 75
     1
175
     1
 42
1.0
 92
        0
 66
   257
 43
1.0
 76
     1
 77
     6
 78
     2
 67
     7
 79
     5
170
     0
171
     0
290
     0
174
     0
 93
       13
 44
0.0
173
     0
291
     1
 45
0.0
1001
ACAD
1000
AcDbSavedByObjectVersion
1070
     0
  0
VISUALSTYLE
  5
38
102
{ACAD_REACTORS
330
2A
102
}
330
2A
100
AcDbVisualStyle
  2
Linepattern
 70
    14
 71
     2
 72
     2
 73
     0
 90
        0
 40
-0.6
 41
-30.0
 62
     5
 63
     7
421
 16777215
 74
     1
 91
        4
 64
     7
 65
   257
 75
     7
175
     7
 42
1.0
 92
        8
 66
     7
 43
1.0
 76
     1
 77
     6
 78
     2
 67
     7
 79
     5
170
     0
171
     0
290
     0
174
     0
 93
        1
 44
0.0
173
     0
291
     1
 45
0.0
1001
ACAD
1000
AcDbSavedByObjectVersion
1070
     0
  0
VISUALSTYLE
  5
33
102
{ACAD_REACTORS
330
2A
102
}
330
2A
100
AcDbVisualStyle
  2
Realistic
 70
     8
 71
     2
 72
     2
 73
     0
 90
        0
 40
-0.6
 41
-30.0
 62
     5
 63
     7
421
 16777215
 74
     1
 91
        0
 64
     7
 65
   257
 75
     1
175
     1
 42
1.0
 92
        8
 66
     8
424
  7895160
 43
1.0
 76
     1
 77
     6
 78
     2
 67
     7
 79
     5
170
     0
171
     0
290
     0
174
     0
 93
       13
 44
0.0
173
     0
291
     0
 45
0.0
1001
ACAD
1000
AcDbSavedByObjectVersion
1070
     0
  0
VISUALSTYLE
  5
37
102
{ACAD_REACTORS
330
2A
102
}
330
2A
100
AcDbVisualStyle
  2
Thicken
 70
    13
 71
     2
 72
     2
 73
     0
 90
        0
 40
-0.6
 41
-30.0
 62
     5
 63
     7
421
 16777215
 74
     1
 91
        4
 64
     7
 65
   257
 75
     1
175
     1
 42
1.0
 92
       12
 66
     7
 43
1.0
 76
     1
 77
     6
 78
     2
 67
     7
 79
     5
170
     0
171
     0
290
     0
174
     0
 93
        1
 44
0.0
173
     0
291
     1
 45
0.0
1001
ACAD
1000
AcDbSavedByObjectVersion
1070
     0
  0
ENDSEC
  0
EOF
