  0
SECTION
  2
HEADER
  9
$ACADVER
  1
AC1015
  9
$ACADMAINTVER
 70
     6
  9
$DWGCODEPAGE
  3
ANSI_932
  9
$INSBASE
 10
0.0
 20
0.0
 30
0.0
  9
$EXTMIN
 10
-2100.0
 20
-1485.0
 30
0.0
  9
$EXTMAX
 10
2100.0
 20
1485.0
 30
0.0
  9
$LIMMIN
 10
-2100.0
 20
-1485.0
  9
$LIMMAX
 10
2100.0
 20
1485.0
  9
$ORTHOMODE
 70
     0
  9
$REGENMODE
 70
     1
  9
$FILLMODE
 70
     1
  9
$QTEXTMODE
 70
     0
  9
$MIRRTEXT
 70
     1
  9
$LTSCALE
 40
10.0
  9
$ATTMODE
 70
     1
  9
$TEXTSIZE
 40
2.5
  9
$TRACEWID
 40
1.0
  9
$TEXTSTYLE
  7
Standard
  9
$CLAYER
  8
0
  9
$CELTYPE
  6
ByLayer
  9
$CECOLOR
 62
   256
  9
$CELTSCALE
 40
1.0
  9
$DISPSILH
 70
     0
  9
$DIMSCALE
 40
1.0
  9
$DIMASZ
 40
2.5
  9
$DIMEXO
 40
0.625
  9
$DIMDLI
 40
3.75
  9
$DIMRND
 40
0.0
  9
$DIMDLE
 40
0.0
  9
$DIMEXE
 40
1.25
  9
$DIMTP
 40
0.0
  9
$DIMTM
 40
0.0
  9
$DIMTXT
 40
2.5
  9
$DIMCEN
 40
2.5
  9
$DIMTSZ
 40
0.0
  9
$DIMTOL
 70
     0
  9
$DIMLIM
 70
     0
  9
$DIMTIH
 70
     0
  9
$DIMTOH
 70
     0
  9
$DIMSE1
 70
     0
  9
$DIMSE2
 70
     0
  9
$DIMTAD
 70
     1
  9
$DIMZIN
 70
     8
  9
$DIMBLK
  1

  9
$DIMASO
 70
     1
  9
$DIMSHO
 70
     1
  9
$DIMPOST
  1

  9
$DIMAPOST
  1

  9
$DIMALT
 70
     0
  9
$DIMALTD
 70
     3
  9
$DIMALTF
 40
0.03937007874016
  9
$DIMLFAC
 40
1.0
  9
$DIMTOFL
 70
     1
  9
$DIMTVP
 40
0.0
  9
$DIMTIX
 70
     0
  9
$DIMSOXD
 70
     0
  9
$DIMSAH
 70
     0
  9
$DIMBLK1
  1

  9
$DIMBLK2
  1

  9
$DIMSTYLE
  2
ISO-25
  9
$DIMCLRD
 70
     0
  9
$DIMCLRE
 70
     0
  9
$DIMCLRT
 70
     0
  9
$DIMTFAC
 40
1.0
  9
$DIMGAP
 40
0.625
  9
$DIMJUST
 70
     0
  9
$DIMSD1
 70
     0
  9
$DIMSD2
 70
     0
  9
$DIMTOLJ
 70
     0
  9
$DIMTZIN
 70
     8
  9
$DIMALTZ
 70
     0
  9
$DIMALTTZ
 70
     0
  9
$DIMUPT
 70
     0
  9
$DIMDEC
 70
     2
  9
$DIMTDEC
 70
     2
  9
$DIMALTU
 70
     2
  9
$DIMALTTD
 70
     3
  9
$DIMTXSTY
  7
Standard
  9
$DIMAUNIT
 70
     0
  9
$DIMADEC
 70
     0
  9
$DIMALTRND
 40
0.0
  9
$DIMAZIN
 70
     0
  9
$DIMDSEP
 70
    44
  9
$DIMATFIT
 70
     3
  9
$DIMFRAC
 70
     0
  9
$DIMLDRBLK
  1

  9
$DIMLUNIT
 70
     2
  9
$DIMLWD
 70
    -2
  9
$DIMLWE
 70
    -2
  9
$DIMTMOVE
 70
     0
  9
$LUNITS
 70
     2
  9
$LUPREC
 70
     4
  9
$SKETCHINC
 40
1.0
  9
$FILLETRAD
 40
10.0
  9
$AUNITS
 70
     0
  9
$AUPREC
 70
     0
  9
$MENU
  1
.
  9
$ELEVATION
 40
0.0
  9
$PELEVATION
 40
0.0
  9
$THICKNESS
 40
0.0
  9
$LIMCHECK
 70
     0
  9
$CHAMFERA
 40
10.0
  9
$CHAMFERB
 40
10.0
  9
$CHAMFERC
 40
20.0
  9
$CHAMFERD
 40
0.0
  9
$SKPOLY
 70
     0
  9
$TDCREATE
 40
2456899.721360706
  9
$TDUCREATE
 40
2456899.346360706
  9
$TDUPDATE
 40
2456899.721360717
  9
$TDUUPDATE
 40
2456899.346360717
  9
$TDINDWG
 40
0.0000000116
  9
$TDUSRTIMER
 40
0.0000000116
  9
$USRTIMER
 70
     1
  9
$ANGBASE
 50
0.0
  9
$ANGDIR
 70
     0
  9
$PDMODE
 70
     0
  9
$PDSIZE
 40
0.0
  9
$PLINEWID
 40
0.0
  9
$SPLFRAME
 70
     0
  9
$SPLINETYPE
 70
     6
  9
$SPLINESEGS
 70
     8
  9
$HANDSEED
  5
3AF
  9
$SURFTAB1
 70
     6
  9
$SURFTAB2
 70
     6
  9
$SURFTYPE
 70
     6
  9
$SURFU
 70
     6
  9
$SURFV
 70
     6
  9
$UCSBASE
  2

  9
$UCSNAME
  2

  9
$UCSORG
 10
0.0
 20
0.0
 30
0.0
  9
$UCSXDIR
 10
1.0
 20
0.0
 30
0.0
  9
$UCSYDIR
 10
0.0
 20
1.0
 30
0.0
  9
$UCSORTHOREF
  2

  9
$UCSORTHOVIEW
 70
     0
  9
$UCSORGTOP
 10
0.0
 20
0.0
 30
0.0
  9
$UCSORGBOTTOM
 10
0.0
 20
0.0
 30
0.0
  9
$UCSORGLEFT
 10
0.0
 20
0.0
 30
0.0
  9
$UCSORGRIGHT
 10
0.0
 20
0.0
 30
0.0
  9
$UCSORGFRONT
 10
0.0
 20
0.0
 30
0.0
  9
$UCSORGBACK
 10
0.0
 20
0.0
 30
0.0
  9
$PUCSBASE
  2

  9
$PUCSNAME
  2

  9
$PUCSORG
 10
0.0
 20
0.0
 30
0.0
  9
$PUCSXDIR
 10
1.0
 20
0.0
 30
0.0
  9
$PUCSYDIR
 10
0.0
 20
1.0
 30
0.0
  9
$PUCSORTHOREF
  2

  9
$PUCSORTHOVIEW
 70
     0
  9
$PUCSORGTOP
 10
0.0
 20
0.0
 30
0.0
  9
$PUCSORGBOTTOM
 10
0.0
 20
0.0
 30
0.0
  9
$PUCSORGLEFT
 10
0.0
 20
0.0
 30
0.0
  9
$PUCSORGRIGHT
 10
0.0
 20
0.0
 30
0.0
  9
$PUCSORGFRONT
 10
0.0
 20
0.0
 30
0.0
  9
$PUCSORGBACK
 10
0.0
 20
0.0
 30
0.0
  9
$USERI1
 70
     0
  9
$USERI2
 70
     0
  9
$USERI3
 70
     0
  9
$USERI4
 70
     0
  9
$USERI5
 70
     0
  9
$USERR1
 40
0.0
  9
$USERR2
 40
0.0
  9
$USERR3
 40
0.0
  9
$USERR4
 40
0.0
  9
$USERR5
 40
0.0
  9
$WORLDVIEW
 70
     1
  9
$SHADEDGE
 70
     3
  9
$SHADEDIF
 70
    70
  9
$TILEMODE
 70
     1
  9
$MAXACTVP
 70
    64
  9
$PINSBASE
 10
0.0
 20
0.0
 30
0.0
  9
$PLIMCHECK
 70
     0
  9
$PEXTMIN
 10
1.000000000000000E+20
 20
1.000000000000000E+20
 30
1.000000000000000E+20
  9
$PEXTMAX
 10
-1.000000000000000E+20
 20
-1.000000000000000E+20
 30
-1.000000000000000E+20
  9
$PLIMMIN
 10
0.0
 20
0.0
  9
$PLIMMAX
 10
420.0
 20
297.0
  9
$UNITMODE
 70
     0
  9
$VISRETAIN
 70
     1
  9
$PLINEGEN
 70
     0
  9
$PSLTSCALE
 70
     1
  9
$TREEDEPTH
 70
  3020
  9
$CMLSTYLE
  2
Standard
  9
$CMLJUST
 70
     0
  9
$CMLSCALE
 40
20.0
  9
$PROXYGRAPHICS
 70
     1
  9
$MEASUREMENT
 70
     1
  9
$CELWEIGHT
370
    -1
  9
$ENDCAPS
280
     0
  9
$JOINSTYLE
280
     0
  9
$LWDISPLAY
290
     0
  9
$INSUNITS
 70
     4
  9
$HYPERLINKBASE
  1

  9
$STYLESHEET
  1

  9
$XEDIT
290
     1
  9
$CEPSNTYPE
380
     0
  9
$PSTYLEMODE
290
     1
  9
$FINGERPRINTGUID
  2
{F1F12C3D-D908-4E5B-BF94-5EEE82DC5C51}
  9
$VERSIONGUID
  2
{FAEB1C32-E019-11D5-929B-00C0DF256EC4}
  9
$EXTNAMES
290
     1
  9
$PSVPSCALE
 40
0.0
  9
$OLESTARTUP
290
     0
  0
ENDSEC
  0
SECTION
  2
CLASSES
  0
CLASS
  1
ACDBDICTIONARYWDFLT
  2
AcDbDictionaryWithDefault
  3
ObjectDBX Classes
 90
        0
280
     0
281
     0
  0
CLASS
  1
VISUALSTYLE
  2
AcDbVisualStyle
  3
ObjectDBX Classes
 90
     4095
280
     0
281
     0
  0
CLASS
  1
DICTIONARYVAR
  2
AcDbDictionaryVar
  3
ObjectDBX Classes
 90
        0
280
     0
281
     0
  0
CLASS
  1
ACDBPLACEHOLDER
  2
AcDbPlaceHolder
  3
ObjectDBX Classes
 90
        0
280
     0
281
     0
  0
CLASS
  1
LAYOUT
  2
AcDbLayout
  3
ObjectDBX Classes
 90
        0
280
     0
281
     0
  0
ENDSEC
  0
SECTION
  2
TABLES
  0
TABLE
  2
VPORT
  5
8
330
0
100
AcDbSymbolTable
 70
     1
  0
VPORT
  5
29
330
8
100
AcDbSymbolTableRecord
100
AcDbViewportTableRecord
  2
*Active
 70
     0
 10
0.0
 20
0.0
 11
1.0
 21
1.0
 12
0.0
 22
0.0
 13
0.0
 23
0.0
 14
10.0
 24
10.0
 15
10.0
 25
10.0
 16
0.0
 26
0.0
 36
1.0
 17
0.0
 27
0.0
 37
0.0
 40
3267.0
 41
1.414141414141414
 42
50.0
 43
0.0
 44
0.0
 50
0.0
 51
0.0
 71
     0
 72
 10000
 73
     1
 74
     3
 75
     0
 76
     0
 77
     0
 78
     0
281
     0
 65
     1
110
0.0
120
0.0
130
0.0
111
1.0
121
0.0
131
0.0
112
0.0
122
1.0
132
0.0
 79
     0
146
0.0
  0
ENDTAB
  0
TABLE
  2
LTYPE
  5
5
330
0
100
AcDbSymbolTable
 70
     6
  0
LTYPE
  5
14
330
5
100
AcDbSymbolTableRecord
100
AcDbLinetypeTableRecord
  2
ByBlock
 70
     0
  3

 72
    65
 73
     0
 40
0.0
  0
LTYPE
  5
15
330
5
100
AcDbSymbolTableRecord
100
AcDbLinetypeTableRecord
  2
ByLayer
 70
     0
  3

 72
    65
 73
     0
 40
0.0
  0
LTYPE
  5
16
330
5
100
AcDbSymbolTableRecord
100
AcDbLinetypeTableRecord
  2
Continuous
 70
     0
  3
Solid line
 72
    65
 73
     0
 40
0.0
  0
LTYPE
  5
3C
330
5
100
AcDbSymbolTableRecord
100
AcDbLinetypeTableRecord
  2
JWW_CENTER1
 70
     0
  3
-----  --  ----------  --  -----
 72
    65
 73
     4
 40
6.773333333333333
 49
4.233333333333333
 74
     0
 49
-0.8466666666666667
 74
     0
 49
0.8466666666666667
 74
     0
 49
-0.8466666666666667
 74
     0
  0
LTYPE
  5
3D
330
5
100
AcDbSymbolTableRecord
100
AcDbLinetypeTableRecord
  2
JWW_PHANTOM2
 70
     0
  3
------------  -  -  ------------
 72
    65
 73
     6
 40
13.54666666666667
 49
10.16
 74
     0
 49
-0.8466666666666667
 74
     0
 49
0.4233333333333333
 74
     0
 49
-0.8466666666666667
 74
     0
 49
0.4233333333333333
 74
     0
 49
-0.8466666666666667
 74
     0
  0
LTYPE
  5
3E
330
5
100
AcDbSymbolTableRecord
100
AcDbLinetypeTableRecord
  2
JWW_DASHED3
 70
     0
  3
---  ------  ------  ------  ---
 72
    65
 73
     2
 40
3.386666666666667
 49
2.54
 74
     0
 49
-0.8466666666666667
 74
     0
  0
LTYPE
  5
3F
330
5
100
AcDbSymbolTableRecord
100
AcDbLinetypeTableRecord
  2
JWW_CENTER2
 70
     0
  3
-------------  --  -------------
 72
    65
 73
     4
 40
13.54666666666667
 49
11.00666666666667
 74
     0
 49
-0.8466666666666667
 74
     0
 49
0.8466666666666667
 74
     0
 49
-0.8466666666666667
 74
     0
  0
LTYPE
  5
40
330
5
100
AcDbSymbolTableRecord
100
AcDbLinetypeTableRecord
  2
JWW_DASHED1
 70
     0
  3
-  --  --  --  --  --  --  --  -
 72
    65
 73
     2
 40
1.693333333333333
 49
0.8466666666666667
 74
     0
 49
-0.8466666666666667
 74
     0
  0
ENDTAB
  0
TABLE
  2
LAYER
  5
2
330
0
100
AcDbSymbolTable
 70
     9
  0
LAYER
  5
10
330
2
100
AcDbSymbolTableRecord
100
AcDbLayerTableRecord
  2
0
 70
     0
 62
     7
  6
Continuous
370
    -3
390
F
  0
LAYER
  5
41
330
2
100
AcDbSymbolTableRecord
100
AcDbLayerTableRecord
  2
0-F
 70
     0
 62
     7
  6
Continuous
370
    -3
390
F
  0
LAYER
  5
42
330
2
100
AcDbSymbolTableRecord
100
AcDbLayerTableRecord
  2
0-5
 70
     0
 62
     7
  6
Continuous
370
    -3
390
F
  0
LAYER
  5
43
330
2
100
AcDbSymbolTableRecord
100
AcDbLayerTableRecord
  2
0-1
 70
     0
 62
     7
  6
Continuous
370
    -3
390
F
  0
LAYER
  5
44
330
2
100
AcDbSymbolTableRecord
100
AcDbLayerTableRecord
  2
0-E
 70
     0
 62
     7
  6
Continuous
370
    -3
390
F
  0
LAYER
  5
45
330
2
100
AcDbSymbolTableRecord
100
AcDbLayerTableRecord
  2
0-0
 70
     0
 62
     7
  6
Continuous
370
    -3
390
F
  0
LAYER
  5
46
330
2
100
AcDbSymbolTableRecord
100
AcDbLayerTableRecord
  2
0-6
 70
     0
 62
     7
  6
Continuous
370
    -3
390
F
  0
LAYER
  5
47
330
2
100
AcDbSymbolTableRecord
100
AcDbLayerTableRecord
  2
0-4
 70
     0
 62
     7
  6
Continuous
370
    -3
390
F
  0
LAYER
  5
48
330
2
100
AcDbSymbolTableRecord
100
AcDbLayerTableRecord
  2
F-5
 70
     0
 62
     7
  6
Continuous
370
    -3
390
F
  0
ENDTAB
  0
TABLE
  2
STYLE
  5
3
330
0
100
AcDbSymbolTable
 70
     2
  0
STYLE
  5
11
330
3
100
AcDbSymbolTableRecord
100
AcDbTextStyleTableRecord
  2
Standard
 70
     0
 40
0.0
 41
1.0
 50
0.0
 71
     0
 42
2.5
  3
txt
  4

1001
ACAD
1000

1071
        0
  0
STYLE
  5
3B
330
3
100
AcDbSymbolTableRecord
100
AcDbTextStyleTableRecord
  2
ＭＳ ゴシック
 70
     0
 40
1.0
 41
1.0
 50
0.0
 71
     0
 42
10.0
  3

  4

1001
ACAD
1000
MS Gothic
1071
    32817
  0
ENDTAB
  0
TABLE
  2
VIEW
  5
6
330
0
100
AcDbSymbolTable
 70
     0
  0
ENDTAB
  0
TABLE
  2
UCS
  5
7
330
0
100
AcDbSymbolTable
 70
     0
  0
ENDTAB
  0
TABLE
  2
APPID
  5
9
330
0
100
AcDbSymbolTable
 70
     1
  0
APPID
  5
12
330
9
100
AcDbSymbolTableRecord
100
AcDbRegAppTableRecord
  2
ACAD
 70
     0
  0
ENDTAB
  0
TABLE
  2
DIMSTYLE
  5
A
330
0
100
AcDbSymbolTable
 70
     1
100
AcDbDimStyleTable
  0
DIMSTYLE
105
27
330
A
100
AcDbSymbolTableRecord
100
AcDbDimStyleTableRecord
  2
ISO-25
 70
     0
 41
2.5
 42
0.625
 43
3.75
 44
1.25
 73
     0
 74
     0
 77
     1
 78
     8
140
2.5
141
2.5
143
0.03937007874016
147
0.625
171
     3
172
     1
271
     2
272
     2
274
     3
278
    44
283
     0
284
     8
340
11
  0
ENDTAB
  0
TABLE
  2
BLOCK_RECORD
  5
1
330
0
100
AcDbSymbolTable
 70
     1
  0
BLOCK_RECORD
  5
1F
330
1
100
AcDbSymbolTableRecord
100
AcDbBlockTableRecord
  2
*Model_Space
340
22
  0
BLOCK_RECORD
  5
1B
330
1
100
AcDbSymbolTableRecord
100
AcDbBlockTableRecord
  2
*Paper_Space
340
1E
  0
BLOCK_RECORD
  5
23
330
1
100
AcDbSymbolTableRecord
100
AcDbBlockTableRecord
  2
*Paper_Space0
340
26
  0
ENDTAB
  0
ENDSEC
  0
SECTION
  2
BLOCKS
  0
BLOCK
  5
20
330
1F
100
AcDbEntity
  8
0
100
AcDbBlockBegin
  2
*Model_Space
 70
     0
 10
0.0
 20
0.0
 30
0.0
  3
*Model_Space
  1

  0
ENDBLK
  5
21
330
1F
100
AcDbEntity
  8
0
100
AcDbBlockEnd
  0
BLOCK
  5
1C
330
1B
100
AcDbEntity
 67
     1
  8
0
100
AcDbBlockBegin
  2
*Paper_Space
 70
     0
 10
0.0
 20
0.0
 30
0.0
  3
*Paper_Space
  1

  0
ENDBLK
  5
1D
330
1B
100
AcDbEntity
 67
     1
  8
0
100
AcDbBlockEnd
  0
BLOCK
  5
24
330
23
100
AcDbEntity
  8
0
100
AcDbBlockBegin
  2
*Paper_Space0
 70
     0
 10
0.0
 20
0.0
 30
0.0
  3
*Paper_Space0
  1

  0
ENDBLK
  5
25
330
23
100
AcDbEntity
  8
0
100
AcDbBlockEnd
  0
ENDSEC
  0
SECTION
  2
ENTITIES
  0
TEXT
  5
49
330
1F
100
AcDbEntity
  8
0-F
  6
Continuous
 62
     2
370
     9
100
AcDbText
 10
236.7023715457404
 20
-390.3475240841418
 30
0.0
 40
30.48
  1
599
 41
1.083333333333333
  7
ＭＳ ゴシック
100
AcDbText
  0
TEXT
  5
4A
330
1F
100
AcDbEntity
  8
0-F
  6
Continuous
 62
     2
370
     9
100
AcDbText
 10
-214.7931671142575
 20
-390.3475240841418
 30
0.0
 40
30.48
  1
1
 41
0.9999999999999998
  7
ＭＳ ゴシック
100
AcDbText
  0
TEXT
  5
4B
330
1F
100
AcDbEntity
  8
0-F
  6
Continuous
 62
     2
370
     9
100
AcDbText
 10
-1042.115377477697
 20
-390.3475240841418
 30
0.0
 40
30.48
  1
599
 41
1.083333333333333
  7
ＭＳ ゴシック
100
AcDbText
  0
TEXT
  5
4C
330
1F
100
AcDbEntity
  8
0-F
  6
Continuous
 62
     2
370
     9
100
AcDbText
 10
-1042.115377477697
 20
-290.3475034641567
 30
0.0
 40
30.48
  1
591
 41
1.083333333333333
  7
ＭＳ ゴシック
100
AcDbText
  0
LINE
  5
4D
330
1F
100
AcDbEntity
  8
0-F
  6
Continuous
 62
     7
370
     9
100
AcDbLine
 10
-1758.365311493745
 20
-400.9875405801298
 30
0.0
 11
314.1347214982318
 21
-400.9875405801298
 31
0.0
  0
LINE
  5
4E
330
1F
100
AcDbEntity
  8
0-F
  6
Continuous
 62
     7
370
     9
100
AcDbLine
 10
-258.3653114937445
 20
-161.4868246542437
 30
0.0
 11
-258.3653114937445
 21
-403.9875009897585
 31
0.0
  0
LINE
  5
4F
330
1F
100
AcDbEntity
  8
0-F
  6
Continuous
 62
     7
370
     9
100
AcDbLine
 10
-260.8651960218273
 20
-161.4868246542437
 30
0.0
 11
-260.8651960218273
 21
-403.9875009897585
 31
0.0
  0
LINE
  5
50
330
1F
100
AcDbEntity
  8
0-F
  6
Continuous
 62
     7
370
     9
100
AcDbLine
 10
-270.8652290138036
 20
-161.4868246542437
 30
0.0
 11
-270.8652290138036
 21
-303.987480369773
 31
0.0
  0
LINE
  5
51
330
1F
100
AcDbEntity
  8
0-F
  6
Continuous
 62
     7
370
     9
100
AcDbLine
 10
-1748.365278501768
 20
-161.4868246542437
 30
0.0
 11
-1748.365278501768
 21
-303.987480369773
 31
0.0
  0
LINE
  5
52
330
1F
100
AcDbEntity
  8
0-F
  6
Continuous
 62
     7
370
     9
100
AcDbLine
 10
-1758.365311493745
 20
-161.4868246542437
 30
0.0
 11
-1758.365311493745
 21
-403.9875009897585
 31
0.0
  0
LINE
  5
53
330
1F
100
AcDbEntity
  8
0-F
  6
Continuous
 62
     7
370
     9
100
AcDbLine
 10
-258.3653114937445
 20
-400.9875405801298
 30
0.0
 11
-228.6220550537109
 21
-404.9032757733308
 31
0.0
  0
LINE
  5
54
330
1F
100
AcDbEntity
  8
0-F
  6
Continuous
 62
     7
370
     9
100
AcDbLine
 10
-258.3653114937445
 20
-400.9875405801298
 30
0.0
 11
-228.6220550537109
 21
-397.071805386929
 31
0.0
  0
LINE
  5
55
330
1F
100
AcDbEntity
  8
0-F
  6
Continuous
 62
     7
370
     9
100
AcDbLine
 10
-260.8651960218273
 20
-400.9875405801298
 30
0.0
 11
-290.6084524618612
 21
-404.9032757733308
 31
0.0
  0
LINE
  5
56
330
1F
100
AcDbEntity
  8
0-F
  6
Continuous
 62
     7
370
     9
100
AcDbLine
 10
-260.8651960218273
 20
-400.9875405801298
 30
0.0
 11
-290.6084524618612
 21
-397.071805386929
 31
0.0
  0
LINE
  5
57
330
1F
100
AcDbEntity
  8
0-F
  6
Continuous
 62
     7
370
     9
100
AcDbLine
 10
-1758.365311493745
 20
-400.9875405801298
 30
0.0
 11
-1728.622055053711
 21
-404.9032757733308
 31
0.0
  0
LINE
  5
58
330
1F
100
AcDbEntity
  8
0-F
  6
Continuous
 62
     7
370
     9
100
AcDbLine
 10
-1758.365311493745
 20
-400.9875405801298
 30
0.0
 11
-1728.622055053711
 21
-397.071805386929
 31
0.0
  0
LINE
  5
59
330
1F
100
AcDbEntity
  8
0-F
  6
Continuous
 62
     7
370
     9
100
AcDbLine
 10
-270.8652290138036
 20
-300.9875199601449
 30
0.0
 11
-300.6084854538375
 21
-304.903255153346
 31
0.0
  0
LINE
  5
5A
330
1F
100
AcDbEntity
  8
0-F
  6
Continuous
 62
     7
370
     9
100
AcDbLine
 10
-270.8652290138036
 20
-300.9875199601449
 30
0.0
 11
-300.6084854538375
 21
-297.0717847669439
 31
0.0
  0
LINE
  5
5B
330
1F
100
AcDbEntity
  8
0-F
  6
Continuous
 62
     7
370
     9
100
AcDbLine
 10
-1748.365278501768
 20
-300.9875199601449
 30
0.0
 11
-1718.622022061735
 21
-304.903255153346
 31
0.0
  0
LINE
  5
5C
330
1F
100
AcDbEntity
  8
0-F
  6
Continuous
 62
     7
370
     9
100
AcDbLine
 10
-1748.365278501768
 20
-300.9875199601449
 30
0.0
 11
-1718.622022061735
 21
-297.0717847669439
 31
0.0
  0
LINE
  5
5D
330
1F
100
AcDbEntity
  8
0-F
  6
Continuous
 62
     7
370
     9
100
AcDbLine
 10
-1748.365278501768
 20
-300.9875199601449
 30
0.0
 11
-270.8652290138036
 21
-300.9875199601449
 31
0.0
  0
TEXT
  5
5E
330
1F
100
AcDbEntity
  8
0-5
  6
Continuous
 62
     2
370
     9
100
AcDbText
 10
824.8108012824225
 20
-879.2111391046373
 30
0.0
 40
30.48
  1
仕様
 41
1.0625
  7
ＭＳ ゴシック
100
AcDbText
  0
TEXT
  5
5F
330
1F
100
AcDbEntity
  8
0-5
  6
Continuous
 62
     2
370
     9
100
AcDbText
 10
824.8107527772501
 20
-939.2110896166671
 30
0.0
 40
30.48
  1
適用荷重：Ｔ－２
 50
359.999990016014
 41
1.109375
  7
ＭＳ ゴシック
100
AcDbText
  0
TEXT
  5
60
330
1F
100
AcDbEntity
  8
0-5
  6
Continuous
 62
     2
370
     9
100
AcDbText
 10
824.8108260264047
 20
-1059.211145290633
 30
0.0
 40
30.48
  1
接触圧子：２００×１６０ｍｍ
 41
1.116071428571428
  7
ＭＳ ゴシック
100
AcDbText
  0
TEXT
  5
61
330
1F
100
AcDbEntity
  8
0-5
  6
Continuous
 62
     2
370
     9
100
AcDbText
 10
824.8113456500324
 20
-1119.21121952258
 30
0.0
 40
30.48
  1
蓋 質 量：１７．０ｋｇ
 41
1.113636363636363
  7
ＭＳ ゴシック
100
AcDbText
  0
TEXT
  5
62
330
1F
100
AcDbEntity
  8
0-5
  6
Continuous
 62
     2
370
     9
100
AcDbText
 10
824.810850770387
 20
-999.2111638486195
 30
0.0
 40
30.48
  1
破壊荷重：３５ｋＮ（３，６００ｋｇｆ）以上
 41
1.119047619047619
  7
ＭＳ ゴシック
100
AcDbText
  0
LINE
  5
63
330
1F
100
AcDbEntity
  8
0-1
  6
Continuous
 62
     2
370
     9
100
AcDbLine
 10
-1760.865319741739
 20
723.5130021378804
 30
0.0
 11
-1760.865319741739
 21
848.5131670977623
 31
0.0
  0
LINE
  5
64
330
1F
100
AcDbEntity
  8
0-1
  6
Continuous
 62
     2
370
     9
100
AcDbLine
 10
-1760.865319741739
 20
-26.48687414220802
 30
0.0
 11
-1760.865319741739
 21
-151.4870391020898
 31
0.0
  0
LINE
  5
65
330
1F
100
AcDbEntity
  8
0-1
  6
Continuous
 62
     2
370
     9
100
AcDbLine
 10
-1760.865319741739
 20
723.5130021378804
 30
0.0
 11
-1758.365311493745
 21
723.5130021378804
 31
0.0
  0
LINE
  5
66
330
1F
100
AcDbEntity
  8
0-1
  6
Continuous
 62
     2
370
     9
100
AcDbLine
 10
-1760.865319741739
 20
-26.48687414220802
 30
0.0
 11
-1758.365311493745
 21
-26.48687414220802
 31
0.0
  0
LINE
  5
67
330
1F
100
AcDbEntity
  8
0-1
  6
Continuous
 62
     2
370
     9
100
AcDbLine
 10
314.1347214982318
 20
398.5131670977623
 30
0.0
 11
339.1348039781727
 21
398.5131670977623
 31
0.0
  0
LINE
  5
68
330
1F
100
AcDbEntity
  8
0-1
  6
Continuous
 62
     2
370
     9
100
AcDbLine
 10
339.1348039781727
 20
398.5131670977623
 30
0.0
 11
289.1346390182909
 21
298.5130846178214
 31
0.0
  0
LINE
  5
69
330
1F
100
AcDbEntity
  8
0-1
  6
Continuous
 62
     2
370
     9
100
AcDbLine
 10
289.1346390182909
 20
298.5130846178214
 30
0.0
 11
314.1347214982318
 21
298.5130846178214
 31
0.0
  0
LINE
  5
6A
330
1F
100
AcDbEntity
  8
0-1
  6
Continuous
 62
     2
370
     9
100
AcDbLine
 10
314.1347214982318
 20
-201.4868329022377
 30
0.0
 11
314.1347214982318
 21
298.5130846178214
 31
0.0
  0
LINE
  5
6B
330
1F
100
AcDbEntity
  8
0-1
  6
Continuous
 62
     2
370
     9
100
AcDbLine
 10
314.1347214982318
 20
398.5131670977623
 30
0.0
 11
314.1347214982318
 21
898.5130846178214
 31
0.0
  0
LINE
  5
6C
330
1F
100
AcDbEntity
  8
0-1
  6
Continuous
 62
     2
370
     9
100
AcDbLine
 10
-1760.865319741739
 20
848.5131670977623
 30
0.0
 11
314.1347214982318
 21
848.5131670977623
 31
0.0
  0
LINE
  5
6D
330
1F
100
AcDbEntity
  8
0-1
  6
Continuous
 62
     2
370
     9
100
AcDbLine
 10
-1760.865319741739
 20
841.0132660736915
 30
0.0
 11
314.1347214982318
 21
841.0132660736915
 31
0.0
  0
LINE
  5
6E
330
1F
100
AcDbEntity
  8
0-1
  6
Continuous
 62
     2
370
     9
100
AcDbLine
 10
-1760.865319741739
 20
-151.4870391020898
 30
0.0
 11
314.1347214982318
 21
-151.4870391020898
 31
0.0
  0
LINE
  5
6F
330
1F
100
AcDbEntity
  8
0-1
  6
Continuous
 62
     2
370
     9
100
AcDbLine
 10
-1760.865319741739
 20
-143.9870143581078
 30
0.0
 11
314.1347214982318
 21
-143.9870143581078
 31
0.0
  0
LINE
  5
70
330
1F
100
AcDbEntity
  8
0-F
  6
Continuous
 62
     7
370
     9
100
AcDbLine
 10
-1760.865319741739
 20
858.5132000897386
 30
0.0
 11
-1760.865319741739
 21
1139.013209987332
 31
0.0
  0
LINE
  5
71
330
1F
100
AcDbEntity
  8
0-E
  6
Continuous
 62
     7
370
     9
100
AcDbLine
 10
1410.390627061999
 20
502.5611176361915
 30
0.0
 11
1754.299813347893
 21
502.5611176361915
 31
0.0
  0
LINE
  5
72
330
1F
100
AcDbEntity
  8
0-E
  6
Continuous
 62
     7
370
     9
100
AcDbLine
 10
944.148182224583
 20
1027.712055927999
 30
0.0
 11
1027.638832298485
 21
848.5131670977623
 31
0.0
  0
LINE
  5
73
330
1F
100
AcDbEntity
  8
0-E
  6
Continuous
 62
     7
370
     9
100
AcDbLine
 10
893.9292804614913
 20
-378.4983537003797
 30
0.0
 11
367.0779357085357
 21
-378.4983537003797
 31
0.0
  0
LINE
  5
74
330
1F
100
AcDbEntity
  8
0-0
  6
Continuous
 62
     3
370
     9
100
AcDbLine
 10
-260.8656909014726
 20
-788.9871009620458
 30
0.0
 11
-1758.365064053922
 21
-788.9871009620458
 31
0.0
  0
LINE
  5
75
330
1F
100
AcDbEntity
  8
0-0
  6
Continuous
 62
     3
370
     9
100
AcDbLine
 10
-260.8656909014726
 20
-738.9870597220752
 30
0.0
 11
-1758.365064053922
 21
-738.9870597220752
 31
0.0
  0
LINE
  5
76
330
1F
100
AcDbEntity
  8
0-0
  6
Continuous
 62
     3
370
     9
100
AcDbLine
 10
-1758.365064053922
 20
-788.9871009620458
 30
0.0
 11
-1758.365064053922
 21
-738.9870597220752
 31
0.0
  0
LINE
  5
77
330
1F
100
AcDbEntity
  8
0-0
  6
Continuous
 62
     3
370
     9
100
AcDbLine
 10
-260.8656909014726
 20
-776.4870597220752
 30
0.0
 11
-1758.365064053922
 21
-776.4870597220752
 31
0.0
  0
LINE
  5
78
330
1F
100
AcDbEntity
  8
0-0
  6
Continuous
 62
     3
370
     9
100
AcDbLine
 10
-1068.898123663825
 20
-888.9870597220752
 30
0.0
 11
-950.3326312915698
 21
-888.9870597220752
 31
0.0
  0
LINE
  5
79
330
1F
100
AcDbEntity
  8
0-0
  6
Continuous
 62
     3
370
     9
100
AcDbLine
 10
-1406.397999943913
 20
-888.9870597220752
 30
0.0
 11
-1287.832383851747
 21
-888.9870597220752
 31
0.0
  0
LINE
  5
7A
330
1F
100
AcDbEntity
  8
0-0
  6
Continuous
 62
     3
370
     9
100
AcDbLine
 10
-1739.873514948665
 20
-888.9870597220752
 30
0.0
 11
-1621.582309619801
 21
-888.9870597220752
 31
0.0
  0
LINE
  5
7B
330
1F
100
AcDbEntity
  8
0-0
  6
Continuous
 62
     3
370
     9
100
AcDbLine
 10
-1743.613939027529
 20
-885.5043442184856
 30
0.0
 11
-1750.508107365788
 21
-788.9871009620458
 31
0.0
  0
LINE
  5
7C
330
1F
100
AcDbEntity
  8
0-0
  6
Continuous
 62
     3
370
     9
100
AcDbLine
 10
-1076.136851955104
 20
-862.8467745394317
 30
0.0
 11
-1072.604648486988
 21
-885.8072105613911
 31
0.0
  0
LINE
  5
7D
330
1F
100
AcDbEntity
  8
0-0
  6
Continuous
 62
     3
370
     9
100
AcDbLine
 10
-1280.593593700512
 20
-862.8467745394317
 30
0.0
 11
-1284.125982748496
 21
-885.8072105613911
 31
0.0
  0
LINE
  5
7E
330
1F
100
AcDbEntity
  8
0-0
  6
Continuous
 62
     3
370
     9
100
AcDbLine
 10
-1273.180853353964
 20
-856.4870762180635
 30
0.0
 11
-1083.549654161608
 21
-856.4870762180635
 31
0.0
  0
LINE
  5
7F
330
1F
100
AcDbEntity
  8
0-0
  6
Continuous
 62
     3
370
     9
100
AcDbLine
 10
-1413.636728235193
 20
-862.8467745394317
 30
0.0
 11
-1410.104277327254
 21
-885.8072105613911
 31
0.0
  0
LINE
  5
80
330
1F
100
AcDbEntity
  8
0-0
  6
Continuous
 62
     3
370
     9
100
AcDbLine
 10
-1614.343581328521
 20
-862.8467745394317
 30
0.0
 11
-1617.875908516549
 21
-885.8072105613911
 31
0.0
  0
LINE
  5
81
330
1F
100
AcDbEntity
  8
0-0
  6
Continuous
 62
     3
370
     9
100
AcDbLine
 10
-1606.930779122017
 20
-856.4870762180635
 30
0.0
 11
-1421.049406721786
 21
-856.4870762180635
 31
0.0
  0
LINE
  5
82
330
1F
100
AcDbEntity
  8
0-0
  6
Continuous
 62
     3
370
     9
100
AcDbLine
 10
-1757.491106600375
 20
-788.9871009620458
 30
0.0
 11
-1747.13438910407
 21
-848.2097192712729
 31
0.0
  0
LINE
  5
83
330
1F
100
AcDbEntity
  8
0-0
  6
Continuous
 62
     3
370
     9
100
AcDbLine
 10
-1027.115311493745
 20
-825.9871488004114
 30
0.0
 11
-1023.427715817013
 21
-829.9871372532198
 31
0.0
  0
LINE
  5
84
330
1F
100
AcDbEntity
  8
0-0
  6
Continuous
 62
     3
370
     9
100
AcDbLine
 10
-1016.521670367267
 20
-825.9871488004114
 30
0.0
 11
-1016.521670367267
 21
-838.9871422020161
 31
0.0
  0
LINE
  5
85
330
1F
100
AcDbEntity
  8
0-0
  6
Continuous
 62
     3
370
     9
100
AcDbLine
 10
-1023.427715817013
 20
-829.9871372532198
 30
0.0
 11
-1023.427715817013
 21
-838.9871422020161
 31
0.0
  0
LINE
  5
86
330
1F
100
AcDbEntity
  8
0-0
  6
Continuous
 62
     3
370
     9
100
AcDbLine
 10
-1017.115278501768
 20
-848.9871751939925
 30
0.0
 11
-1014.615393973686
 21
-851.4870597220752
 31
0.0
  0
LINE
  5
87
330
1F
100
AcDbEntity
  8
0-0
  6
Continuous
 62
     3
370
     9
100
AcDbLine
 10
-1014.615393973686
 20
-851.4870597220752
 30
0.0
 11
-1004.615360981709
 21
-851.4870597220752
 31
0.0
  0
LINE
  5
88
330
1F
100
AcDbEntity
  8
0-0
  6
Continuous
 62
     3
370
     9
100
AcDbLine
 10
-1017.115278501768
 20
-848.9871751939925
 30
0.0
 11
-1002.115476453626
 21
-848.9871751939925
 31
0.0
  0
LINE
  5
89
330
1F
100
AcDbEntity
  8
0-0
  6
Continuous
 62
     3
370
     9
100
AcDbLine
 10
-1023.427715817013
 20
-838.9871422020161
 30
0.0
 11
-995.8030391383816
 21
-838.9871422020161
 31
0.0
  0
LINE
  5
8A
330
1F
100
AcDbEntity
  8
0-0
  6
Continuous
 62
     3
370
     9
100
AcDbLine
 10
-1027.115311493745
 20
-825.9871488004114
 30
0.0
 11
-992.1154434616501
 21
-825.9871488004114
 31
0.0
  0
LINE
  5
8B
330
1F
100
AcDbEntity
  8
0-0
  6
Continuous
 62
     3
370
     9
100
AcDbLine
 10
-1027.115311493745
 20
-823.9870927140515
 30
0.0
 11
-1027.115311493745
 21
-825.9871488004114
 31
0.0
  0
LINE
  5
8C
330
1F
100
AcDbEntity
  8
0-0
  6
Continuous
 62
     3
370
     9
100
AcDbLine
 10
-1032.554781114733
 20
-823.9870927140515
 30
0.0
 11
-986.675973840662
 21
-823.9870927140515
 31
0.0
  0
LINE
  5
8D
330
1F
100
AcDbEntity
  8
0-0
  6
Continuous
 62
     3
370
     9
100
AcDbLine
 10
-1014.615393973686
 20
-838.9871422020161
 30
0.0
 11
-1014.615393973686
 21
-851.4870597220752
 31
0.0
  0
LINE
  5
8E
330
1F
100
AcDbEntity
  8
0-0
  6
Continuous
 62
     3
370
     9
100
AcDbLine
 10
-1017.115278501768
 20
-838.9871422020161
 30
0.0
 11
-1017.115278501768
 21
-848.9871751939925
 31
0.0
  0
LINE
  5
8F
330
1F
100
AcDbEntity
  8
0-0
  6
Continuous
 62
     3
370
     9
100
AcDbLine
 10
-1702.115311493745
 20
-825.9871488004114
 30
0.0
 11
-1698.427839536924
 21
-829.9871372532198
 31
0.0
  0
LINE
  5
90
330
1F
100
AcDbEntity
  8
0-0
  6
Continuous
 62
     3
370
     9
100
AcDbLine
 10
-1691.521546647355
 20
-825.9871488004114
 30
0.0
 11
-1691.521546647355
 21
-838.9871422020161
 31
0.0
  0
LINE
  5
91
330
1F
100
AcDbEntity
  8
0-0
  6
Continuous
 62
     3
370
     9
100
AcDbLine
 10
-1698.427839536924
 20
-829.9871372532198
 30
0.0
 11
-1698.427839536924
 21
-838.9871422020161
 31
0.0
  0
LINE
  5
92
330
1F
100
AcDbEntity
  8
0-0
  6
Continuous
 62
     3
370
     9
100
AcDbLine
 10
-1692.115278501768
 20
-848.9871751939925
 30
0.0
 11
-1689.615270253774
 21
-851.4870597220752
 31
0.0
  0
LINE
  5
93
330
1F
100
AcDbEntity
  8
0-0
  6
Continuous
 62
     3
370
     9
100
AcDbLine
 10
-1689.615270253774
 20
-851.4870597220752
 30
0.0
 11
-1679.615113541886
 21
-851.4870597220752
 31
0.0
  0
LINE
  5
94
330
1F
100
AcDbEntity
  8
0-0
  6
Continuous
 62
     3
370
     9
100
AcDbLine
 10
-1692.115278501768
 20
-848.9871751939925
 30
0.0
 11
-1677.115105293892
 21
-848.9871751939925
 31
0.0
  0
LINE
  5
95
330
1F
100
AcDbEntity
  8
0-0
  6
Continuous
 62
     3
370
     9
100
AcDbLine
 10
-1698.427839536924
 20
-838.9871422020161
 30
0.0
 11
-1670.802667978648
 21
-838.9871422020161
 31
0.0
  0
LINE
  5
96
330
1F
100
AcDbEntity
  8
0-0
  6
Continuous
 62
     3
370
     9
100
AcDbLine
 10
-1702.115311493745
 20
-825.9871488004114
 30
0.0
 11
-1667.115196021828
 21
-825.9871488004114
 31
0.0
  0
LINE
  5
97
330
1F
100
AcDbEntity
  8
0-0
  6
Continuous
 62
     3
370
     9
100
AcDbLine
 10
-1702.115311493745
 20
-823.9870927140515
 30
0.0
 11
-1702.115311493745
 21
-825.9871488004114
 31
0.0
  0
LINE
  5
98
330
1F
100
AcDbEntity
  8
0-0
  6
Continuous
 62
     3
370
     9
100
AcDbLine
 10
-1707.554781114733
 20
-823.9870927140515
 30
0.0
 11
-1661.675726400839
 21
-823.9870927140515
 31
0.0
  0
LINE
  5
99
330
1F
100
AcDbEntity
  8
0-0
  6
Continuous
 62
     3
370
     9
100
AcDbLine
 10
-1689.615270253774
 20
-838.9871422020161
 30
0.0
 11
-1689.615270253774
 21
-851.4870597220752
 31
0.0
  0
LINE
  5
9A
330
1F
100
AcDbEntity
  8
0-0
  6
Continuous
 62
     3
370
     9
100
AcDbLine
 10
-1692.115278501768
 20
-838.9871422020161
 30
0.0
 11
-1692.115278501768
 21
-848.9871751939925
 31
0.0
  0
LINE
  5
9B
330
1F
100
AcDbEntity
  8
0-0
  6
Continuous
 62
     3
370
     9
100
AcDbLine
 10
-1667.115196021828
 20
-825.9871488004114
 30
0.0
 11
-1670.802667978648
 21
-829.9871372532198
 31
0.0
  0
LINE
  5
9C
330
1F
100
AcDbEntity
  8
0-0
  6
Continuous
 62
     3
370
     9
100
AcDbLine
 10
-1677.708837148306
 20
-825.9871488004114
 30
0.0
 11
-1677.708837148306
 21
-838.9871422020161
 31
0.0
  0
LINE
  5
9D
330
1F
100
AcDbEntity
  8
0-0
  6
Continuous
 62
     3
370
     9
100
AcDbLine
 10
-1670.802667978648
 20
-829.9871372532198
 30
0.0
 11
-1670.802667978648
 21
-838.9871422020161
 31
0.0
  0
LINE
  5
9E
330
1F
100
AcDbEntity
  8
0-0
  6
Continuous
 62
     3
370
     9
100
AcDbLine
 10
-1677.115105293892
 20
-848.9871751939925
 30
0.0
 11
-1679.615113541886
 21
-851.4870597220752
 31
0.0
  0
LINE
  5
9F
330
1F
100
AcDbEntity
  8
0-0
  6
Continuous
 62
     3
370
     9
100
AcDbLine
 10
-1667.115196021828
 20
-823.9870927140515
 30
0.0
 11
-1667.115196021828
 21
-825.9871488004114
 31
0.0
  0
LINE
  5
A0
330
1F
100
AcDbEntity
  8
0-0
  6
Continuous
 62
     3
370
     9
100
AcDbLine
 10
-1679.615113541886
 20
-838.9871422020161
 30
0.0
 11
-1679.615113541886
 21
-851.4870597220752
 31
0.0
  0
LINE
  5
A1
330
1F
100
AcDbEntity
  8
0-0
  6
Continuous
 62
     3
370
     9
100
AcDbLine
 10
-1677.115105293892
 20
-838.9871422020161
 30
0.0
 11
-1677.115105293892
 21
-848.9871751939925
 31
0.0
  0
LINE
  5
A2
330
1F
100
AcDbEntity
  8
0-0
  6
Continuous
 62
     3
370
     9
100
AcDbLine
 10
-1715.865294997757
 20
-776.4870597220752
 30
0.0
 11
-1715.865294997757
 21
-788.9871009620458
 31
0.0
  0
LINE
  5
A3
330
1F
100
AcDbEntity
  8
0-0
  6
Continuous
 62
     3
370
     9
100
AcDbLine
 10
-1653.365212517816
 20
-776.4870597220752
 30
0.0
 11
-1653.365212517816
 21
-788.9871009620458
 31
0.0
  0
LINE
  5
A4
330
1F
100
AcDbEntity
  8
0-0
  6
Continuous
 62
     3
370
     9
100
AcDbLine
 10
-1378.365294997757
 20
-776.4870597220752
 30
0.0
 11
-1378.365294997757
 21
-788.9871009620458
 31
0.0
  0
LINE
  5
A5
330
1F
100
AcDbEntity
  8
0-0
  6
Continuous
 62
     3
370
     9
100
AcDbLine
 10
-1315.865212517816
 20
-776.4870597220752
 30
0.0
 11
-1315.865212517816
 21
-788.9871009620458
 31
0.0
  0
LINE
  5
A6
330
1F
100
AcDbEntity
  8
0-0
  6
Continuous
 62
     3
370
     9
100
AcDbLine
 10
-1040.865294997757
 20
-776.4870597220752
 30
0.0
 11
-1040.865294997757
 21
-788.9871009620458
 31
0.0
  0
LINE
  5
A7
330
1F
100
AcDbEntity
  8
0-0
  6
Continuous
 62
     3
370
     9
100
AcDbLine
 10
-1036.27578116752
 20
-820.70232906857
 30
0.0
 11
-1040.24026200578
 21
-788.9871009620458
 31
0.0
  0
LINE
  5
A8
330
1F
100
AcDbEntity
  8
0-0
  6
Continuous
 62
     3
370
     9
100
AcDbLine
 10
-1711.27578116752
 20
-820.70232906857
 30
0.0
 11
-1715.24026200578
 21
-788.9871009620458
 31
0.0
  0
LINE
  5
A9
330
1F
100
AcDbEntity
  8
0-0
  6
Continuous
 62
     3
370
     9
100
AcDbLine
 10
-1657.954602628141
 20
-820.70232906857
 30
0.0
 11
-1653.990245509792
 21
-788.9871009620458
 31
0.0
  0
LINE
  5
AA
330
1F
100
AcDbEntity
  8
0-0
  6
Continuous
 62
     3
370
     9
100
AcDbLine
 10
-1354.480671238255
 20
-823.9870927140515
 30
0.0
 11
-1339.749836277317
 21
-823.9870927140515
 31
0.0
  0
LINE
  5
AB
330
1F
100
AcDbEntity
  8
0-0
  6
Continuous
 62
     3
370
     9
100
AcDbLine
 10
-1358.19400065654
 20
-820.7592402277762
 30
0.0
 11
-1362.662145253774
 21
-788.9871009620458
 31
0.0
  0
LINE
  5
AC
330
1F
100
AcDbEntity
  8
0-0
  6
Continuous
 62
     3
370
     9
100
AcDbLine
 10
-1336.036506859032
 20
-820.7592402277762
 30
0.0
 11
-1331.568485981709
 21
-788.9871009620458
 31
0.0
  0
LINE
  5
AD
330
1F
100
AcDbEntity
  8
0-0
  6
JWW_CENTER1
 62
     3
370
     9
100
AcDbLine
 10
-1684.615130037875
 20
-813.9870597220752
 30
0.0
 11
-1684.615130037875
 21
-861.48696899414
 31
0.0
  0
LINE
  5
AE
330
1F
100
AcDbEntity
  8
0-0
  6
JWW_CENTER1
 62
     3
370
     9
100
AcDbLine
 10
-1009.615377477697
 20
-813.9870597220752
 30
0.0
 11
-1009.615377477697
 21
-861.48696899414
 31
0.0
  0
LINE
  5
AF
330
1F
100
AcDbEntity
  8
0-0
  6
Continuous
 62
     3
370
     9
100
AcDbLine
 10
-260.8656909014726
 20
-788.9871009620458
 30
0.0
 11
-260.8656909014726
 21
-738.9870597220752
 31
0.0
  0
LINE
  5
B0
330
1F
100
AcDbEntity
  8
0-0
  6
Continuous
 62
     3
370
     9
100
AcDbLine
 10
-612.8327550114813
 20
-888.9870597220752
 30
0.0
 11
-731.3983711036476
 21
-888.9870597220752
 31
0.0
  0
LINE
  5
B1
330
1F
100
AcDbEntity
  8
0-0
  6
Continuous
 62
     3
370
     9
100
AcDbLine
 10
-279.3572400067302
 20
-888.9870597220752
 30
0.0
 11
-397.6484453355943
 21
-888.9870597220752
 31
0.0
  0
LINE
  5
B2
330
1F
100
AcDbEntity
  8
0-0
  6
Continuous
 62
     3
370
     9
100
AcDbLine
 10
-275.6169396477776
 20
-885.5043442184856
 30
0.0
 11
-268.7226475896063
 21
-788.9871009620458
 31
0.0
  0
LINE
  5
B3
330
1F
100
AcDbEntity
  8
0-0
  6
Continuous
 62
     3
370
     9
100
AcDbLine
 10
-943.0939030002902
 20
-862.8467745394317
 30
0.0
 11
-946.6261064684069
 21
-885.8072105613911
 31
0.0
  0
LINE
  5
B4
330
1F
100
AcDbEntity
  8
0-0
  6
Continuous
 62
     3
370
     9
100
AcDbLine
 10
-738.6370993949271
 20
-862.8467745394317
 30
0.0
 11
-735.1047722068993
 21
-885.8072105613911
 31
0.0
  0
LINE
  5
B5
330
1F
100
AcDbEntity
  8
0-0
  6
Continuous
 62
     3
370
     9
100
AcDbLine
 10
-746.0499016014305
 20
-856.4870762180635
 30
0.0
 11
-935.681100793787
 21
-856.4870762180635
 31
0.0
  0
LINE
  5
B6
330
1F
100
AcDbEntity
  8
0-0
  6
Continuous
 62
     3
370
     9
100
AcDbLine
 10
-605.5940267202016
 20
-862.8467745394317
 30
0.0
 11
-609.126477628141
 21
-885.8072105613911
 31
0.0
  0
LINE
  5
B7
330
1F
100
AcDbEntity
  8
0-0
  6
Continuous
 62
     3
370
     9
100
AcDbLine
 10
-404.887173626874
 20
-862.8467745394317
 30
0.0
 11
-401.3548464388461
 21
-885.8072105613911
 31
0.0
  0
LINE
  5
B8
330
1F
100
AcDbEntity
  8
0-0
  6
Continuous
 62
     3
370
     9
100
AcDbLine
 10
-412.2999758333773
 20
-856.4870762180635
 30
0.0
 11
-598.1813482336097
 21
-856.4870762180635
 31
0.0
  0
LINE
  5
B9
330
1F
100
AcDbEntity
  8
0-0
  6
Continuous
 62
     3
370
     9
100
AcDbLine
 10
-261.7396483550201
 20
-788.9871009620458
 30
0.0
 11
-272.096365851325
 21
-848.2097192712729
 31
0.0
  0
LINE
  5
BA
330
1F
100
AcDbEntity
  8
0-0
  6
Continuous
 62
     3
370
     9
100
AcDbLine
 10
-992.1154434616501
 20
-825.9871488004114
 30
0.0
 11
-995.8030391383816
 21
-829.9871372532198
 31
0.0
  0
LINE
  5
BB
330
1F
100
AcDbEntity
  8
0-0
  6
Continuous
 62
     3
370
     9
100
AcDbLine
 10
-1002.709084588128
 20
-825.9871488004114
 30
0.0
 11
-1002.709084588128
 21
-838.9871422020161
 31
0.0
  0
LINE
  5
BC
330
1F
100
AcDbEntity
  8
0-0
  6
Continuous
 62
     3
370
     9
100
AcDbLine
 10
-995.8030391383816
 20
-829.9871372532198
 30
0.0
 11
-995.8030391383816
 21
-838.9871422020161
 31
0.0
  0
LINE
  5
BD
330
1F
100
AcDbEntity
  8
0-0
  6
Continuous
 62
     3
370
     9
100
AcDbLine
 10
-1002.115476453626
 20
-848.9871751939925
 30
0.0
 11
-1004.615360981709
 21
-851.4870597220752
 31
0.0
  0
LINE
  5
BE
330
1F
100
AcDbEntity
  8
0-0
  6
Continuous
 62
     3
370
     9
100
AcDbLine
 10
-992.1154434616501
 20
-823.9870927140515
 30
0.0
 11
-992.1154434616501
 21
-825.9871488004114
 31
0.0
  0
LINE
  5
BF
330
1F
100
AcDbEntity
  8
0-0
  6
Continuous
 62
     3
370
     9
100
AcDbLine
 10
-1004.615360981709
 20
-838.9871422020161
 30
0.0
 11
-1004.615360981709
 21
-851.4870597220752
 31
0.0
  0
LINE
  5
C0
330
1F
100
AcDbEntity
  8
0-0
  6
Continuous
 62
     3
370
     9
100
AcDbLine
 10
-1002.115476453626
 20
-838.9871422020161
 30
0.0
 11
-1002.115476453626
 21
-848.9871751939925
 31
0.0
  0
LINE
  5
C1
330
1F
100
AcDbEntity
  8
0-0
  6
Continuous
 62
     3
370
     9
100
AcDbLine
 10
-317.11544346165
 20
-825.9871488004114
 30
0.0
 11
-320.80291541847
 21
-829.9871372532198
 31
0.0
  0
LINE
  5
C2
330
1F
100
AcDbEntity
  8
0-0
  6
Continuous
 62
     3
370
     9
100
AcDbLine
 10
-327.7092083080393
 20
-825.9871488004114
 30
0.0
 11
-327.7092083080393
 21
-838.9871422020161
 31
0.0
  0
LINE
  5
C3
330
1F
100
AcDbEntity
  8
0-0
  6
Continuous
 62
     3
370
     9
100
AcDbLine
 10
-320.80291541847
 20
-829.9871372532198
 30
0.0
 11
-320.80291541847
 21
-838.9871422020161
 31
0.0
  0
LINE
  5
C4
330
1F
100
AcDbEntity
  8
0-0
  6
Continuous
 62
     3
370
     9
100
AcDbLine
 10
-327.1154764536263
 20
-848.9871751939925
 30
0.0
 11
-329.6154847016206
 21
-851.4870597220752
 31
0.0
  0
LINE
  5
C5
330
1F
100
AcDbEntity
  8
0-0
  6
Continuous
 62
     3
370
     9
100
AcDbLine
 10
-329.6154847016206
 20
-851.4870597220752
 30
0.0
 11
-339.6156414135081
 21
-851.4870597220752
 31
0.0
  0
LINE
  5
C6
330
1F
100
AcDbEntity
  8
0-0
  6
Continuous
 62
     3
370
     9
100
AcDbLine
 10
-327.1154764536263
 20
-848.9871751939925
 30
0.0
 11
-342.1156496615023
 21
-848.9871751939925
 31
0.0
  0
LINE
  5
C7
330
1F
100
AcDbEntity
  8
0-0
  6
Continuous
 62
     3
370
     9
100
AcDbLine
 10
-320.80291541847
 20
-838.9871422020161
 30
0.0
 11
-348.4279632568359
 21
-838.9871422020161
 31
0.0
  0
LINE
  5
C8
330
1F
100
AcDbEntity
  8
0-0
  6
Continuous
 62
     3
370
     9
100
AcDbLine
 10
-317.11544346165
 20
-825.9871488004114
 30
0.0
 11
-352.1155589335672
 21
-825.9871488004114
 31
0.0
  0
LINE
  5
C9
330
1F
100
AcDbEntity
  8
0-0
  6
Continuous
 62
     3
370
     9
100
AcDbLine
 10
-317.11544346165
 20
-823.9870927140515
 30
0.0
 11
-317.11544346165
 21
-825.9871488004114
 31
0.0
  0
LINE
  5
CA
330
1F
100
AcDbEntity
  8
0-0
  6
Continuous
 62
     3
370
     9
100
AcDbLine
 10
-311.675973840662
 20
-823.9870927140515
 30
0.0
 11
-357.5550285545555
 21
-823.9870927140515
 31
0.0
  0
LINE
  5
CB
330
1F
100
AcDbEntity
  8
0-0
  6
Continuous
 62
     3
370
     9
100
AcDbLine
 10
-329.6154847016206
 20
-838.9871422020161
 30
0.0
 11
-329.6154847016206
 21
-851.4870597220752
 31
0.0
  0
LINE
  5
CC
330
1F
100
AcDbEntity
  8
0-0
  6
Continuous
 62
     3
370
     9
100
AcDbLine
 10
-327.1154764536263
 20
-838.9871422020161
 30
0.0
 11
-327.1154764536263
 21
-848.9871751939925
 31
0.0
  0
LINE
  5
CD
330
1F
100
AcDbEntity
  8
0-0
  6
Continuous
 62
     3
370
     9
100
AcDbLine
 10
-352.1155589335672
 20
-825.9871488004114
 30
0.0
 11
-348.4279632568359
 21
-829.9871372532198
 31
0.0
  0
LINE
  5
CE
330
1F
100
AcDbEntity
  8
0-0
  6
Continuous
 62
     3
370
     9
100
AcDbLine
 10
-341.5219178070893
 20
-825.9871488004114
 30
0.0
 11
-341.5219178070893
 21
-838.9871422020161
 31
0.0
  0
LINE
  5
CF
330
1F
100
AcDbEntity
  8
0-0
  6
Continuous
 62
     3
370
     9
100
AcDbLine
 10
-348.4279632568359
 20
-829.9871372532198
 30
0.0
 11
-348.4279632568359
 21
-838.9871422020161
 31
0.0
  0
LINE
  5
D0
330
1F
100
AcDbEntity
  8
0-0
  6
Continuous
 62
     3
370
     9
100
AcDbLine
 10
-342.1156496615023
 20
-848.9871751939925
 30
0.0
 11
-339.6156414135081
 21
-851.4870597220752
 31
0.0
  0
LINE
  5
D1
330
1F
100
AcDbEntity
  8
0-0
  6
Continuous
 62
     3
370
     9
100
AcDbLine
 10
-352.1155589335672
 20
-823.9870927140515
 30
0.0
 11
-352.1155589335672
 21
-825.9871488004114
 31
0.0
  0
LINE
  5
D2
330
1F
100
AcDbEntity
  8
0-0
  6
Continuous
 62
     3
370
     9
100
AcDbLine
 10
-339.6156414135081
 20
-838.9871422020161
 30
0.0
 11
-339.6156414135081
 21
-851.4870597220752
 31
0.0
  0
LINE
  5
D3
330
1F
100
AcDbEntity
  8
0-0
  6
Continuous
 62
     3
370
     9
100
AcDbLine
 10
-342.1156496615023
 20
-838.9871422020161
 30
0.0
 11
-342.1156496615023
 21
-848.9871751939925
 31
0.0
  0
LINE
  5
D4
330
1F
100
AcDbEntity
  8
0-0
  6
Continuous
 62
     3
370
     9
100
AcDbLine
 10
-303.3654599576383
 20
-776.4870597220752
 30
0.0
 11
-303.3654599576383
 21
-788.9871009620458
 31
0.0
  0
LINE
  5
D5
330
1F
100
AcDbEntity
  8
0-0
  6
Continuous
 62
     3
370
     9
100
AcDbLine
 10
-365.8655424375792
 20
-776.4870597220752
 30
0.0
 11
-365.8655424375792
 21
-788.9871009620458
 31
0.0
  0
LINE
  5
D6
330
1F
100
AcDbEntity
  8
0-0
  6
Continuous
 62
     3
370
     9
100
AcDbLine
 10
-640.8654599576382
 20
-776.4870597220752
 30
0.0
 11
-640.8654599576382
 21
-788.9871009620458
 31
0.0
  0
LINE
  5
D7
330
1F
100
AcDbEntity
  8
0-0
  6
Continuous
 62
     3
370
     9
100
AcDbLine
 10
-703.3655424375792
 20
-776.4870597220752
 30
0.0
 11
-703.3655424375792
 21
-788.9871009620458
 31
0.0
  0
LINE
  5
D8
330
1F
100
AcDbEntity
  8
0-0
  6
Continuous
 62
     3
370
     9
100
AcDbLine
 10
-978.3654599576382
 20
-776.4870597220752
 30
0.0
 11
-978.3654599576382
 21
-788.9871009620458
 31
0.0
  0
LINE
  5
D9
330
1F
100
AcDbEntity
  8
0-0
  6
Continuous
 62
     3
370
     9
100
AcDbLine
 10
-982.9549737878747
 20
-820.70232906857
 30
0.0
 11
-978.9904929496146
 21
-788.9871009620458
 31
0.0
  0
LINE
  5
DA
330
1F
100
AcDbEntity
  8
0-0
  6
Continuous
 62
     3
370
     9
100
AcDbLine
 10
-307.9549737878747
 20
-820.70232906857
 30
0.0
 11
-303.9904929496146
 21
-788.9871009620458
 31
0.0
  0
LINE
  5
DB
330
1F
100
AcDbEntity
  8
0-0
  6
Continuous
 62
     3
370
     9
100
AcDbLine
 10
-361.2761523272539
 20
-820.70232906857
 30
0.0
 11
-365.2403857256914
 21
-788.9871009620458
 31
0.0
  0
LINE
  5
DC
330
1F
100
AcDbEntity
  8
0-0
  6
Continuous
 62
     3
370
     9
100
AcDbLine
 10
-664.7500837171399
 20
-823.9870927140515
 30
0.0
 11
-679.4809186780774
 21
-823.9870927140515
 31
0.0
  0
LINE
  5
DD
330
1F
100
AcDbEntity
  8
0-0
  6
Continuous
 62
     3
370
     9
100
AcDbLine
 10
-661.0367542988545
 20
-820.7592402277762
 30
0.0
 11
-656.5686097016205
 21
-788.9871009620458
 31
0.0
  0
LINE
  5
DE
330
1F
100
AcDbEntity
  8
0-0
  6
Continuous
 62
     3
370
     9
100
AcDbLine
 10
-683.194248096363
 20
-820.7592402277762
 30
0.0
 11
-687.6622689736857
 21
-788.9871009620458
 31
0.0
  0
LINE
  5
DF
330
1F
100
AcDbEntity
  8
0-0
  6
JWW_CENTER1
 62
     3
370
     9
100
AcDbLine
 10
-334.6156249175201
 20
-813.9870597220752
 30
0.0
 11
-334.6156249175201
 21
-861.48696899414
 31
0.0
  0
LINE
  5
E0
330
1F
100
AcDbEntity
  8
0-0
  6
JWW_CENTER1
 62
     3
370
     9
100
AcDbLine
 10
-1808.365321803738
 20
348.5132495777032
 30
0.0
 11
364.1346390182909
 21
348.5132495777032
 31
0.0
  0
LINE
  5
E1
330
1F
100
AcDbEntity
  8
0-0
  6
Continuous
 62
     3
370
     9
100
AcDbLine
 10
-1575.865204269822
 20
-1.48666794235595
 30
0.0
 11
-1575.865204269822
 21
698.5131670977623
 31
0.0
  0
LINE
  5
E2
330
1F
100
AcDbEntity
  8
0-0
  6
Continuous
 62
     3
370
     9
100
AcDbLine
 10
-1593.365138285869
 20
698.5131670977623
 30
0.0
 11
-1575.865204269822
 21
698.5131670977623
 31
0.0
  0
LINE
  5
E3
330
1F
100
AcDbEntity
  8
0-0
  6
Continuous
 62
     3
370
     9
100
AcDbLine
 10
-1593.365138285869
 20
-1.48666794235595
 30
0.0
 11
-1593.365138285869
 21
698.5131670977623
 31
0.0
  0
LINE
  5
E4
330
1F
100
AcDbEntity
  8
0-0
  6
Continuous
 62
     3
370
     9
100
AcDbLine
 10
-1582.11503930994
 20
4.763414537584936
 30
0.0
 11
-1582.11503930994
 21
692.2630846178214
 31
0.0
  0
LINE
  5
E5
330
1F
100
AcDbEntity
  8
0-0
  6
Continuous
 62
     3
370
     9
100
AcDbLine
 10
-1587.115179525839
 20
692.2630846178214
 30
0.0
 11
-1582.11503930994
 21
692.2630846178214
 31
0.0
  0
LINE
  5
E6
330
1F
100
AcDbEntity
  8
0-0
  6
Continuous
 62
     3
370
     9
100
AcDbLine
 10
-1587.115179525839
 20
4.763414537584936
 30
0.0
 11
-1587.115179525839
 21
692.2630846178214
 31
0.0
  0
LINE
  5
E7
330
1F
100
AcDbEntity
  8
0-0
  6
Continuous
 62
     3
370
     9
100
AcDbLine
 10
-1575.865204269822
 20
698.5131670977623
 30
0.0
 11
-1582.11503930994
 21
692.2630846178214
 31
0.0
  0
LINE
  5
E8
330
1F
100
AcDbEntity
  8
0-0
  6
Continuous
 62
     3
370
     9
100
AcDbLine
 10
-1593.365138285869
 20
698.5131670977623
 30
0.0
 11
-1587.115179525839
 21
692.2630846178214
 31
0.0
  0
LINE
  5
E9
330
1F
100
AcDbEntity
  8
0-0
  6
Continuous
 62
     3
370
     9
100
AcDbLine
 10
-1288.364874350058
 20
-1.48666794235595
 30
0.0
 11
-1288.364874350058
 21
698.5131670977623
 31
0.0
  0
LINE
  5
EA
330
1F
100
AcDbEntity
  8
0-0
  6
Continuous
 62
     3
370
     9
100
AcDbLine
 10
-1305.864808366105
 20
698.5131670977623
 30
0.0
 11
-1288.364874350058
 21
698.5131670977623
 31
0.0
  0
LINE
  5
EB
330
1F
100
AcDbEntity
  8
0-0
  6
Continuous
 62
     3
370
     9
100
AcDbLine
 10
-1305.864808366105
 20
-1.48666794235595
 30
0.0
 11
-1305.864808366105
 21
698.5131670977623
 31
0.0
  0
LINE
  5
EC
330
1F
100
AcDbEntity
  8
0-0
  6
Continuous
 62
     3
370
     9
100
AcDbLine
 10
-1294.614833110088
 20
4.763414537584936
 30
0.0
 11
-1294.614833110088
 21
692.2630846178214
 31
0.0
  0
LINE
  5
ED
330
1F
100
AcDbEntity
  8
0-0
  6
Continuous
 62
     3
370
     9
100
AcDbLine
 10
-1299.614973325987
 20
692.2630846178214
 30
0.0
 11
-1294.614833110088
 21
692.2630846178214
 31
0.0
  0
LINE
  5
EE
330
1F
100
AcDbEntity
  8
0-0
  6
Continuous
 62
     3
370
     9
100
AcDbLine
 10
-1299.614973325987
 20
4.763414537584936
 30
0.0
 11
-1299.614973325987
 21
692.2630846178214
 31
0.0
  0
LINE
  5
EF
330
1F
100
AcDbEntity
  8
0-0
  6
Continuous
 62
     3
370
     9
100
AcDbLine
 10
-1288.364874350058
 20
698.5131670977623
 30
0.0
 11
-1294.614833110088
 21
692.2630846178214
 31
0.0
  0
LINE
  5
F0
330
1F
100
AcDbEntity
  8
0-0
  6
Continuous
 62
     3
370
     9
100
AcDbLine
 10
-1305.864808366105
 20
698.5131670977623
 30
0.0
 11
-1299.614973325987
 21
692.2630846178214
 31
0.0
  0
LINE
  5
F1
330
1F
100
AcDbEntity
  8
0-0
  6
Continuous
 62
     3
370
     9
100
AcDbLine
 10
-1018.364849606076
 20
-1.48666794235595
 30
0.0
 11
-1018.364849606076
 21
698.5131670977623
 31
0.0
  0
LINE
  5
F2
330
1F
100
AcDbEntity
  8
0-0
  6
Continuous
 62
     3
370
     9
100
AcDbLine
 10
-1012.114890846046
 20
4.763414537584936
 30
0.0
 11
-1012.114890846046
 21
692.2630846178214
 31
0.0
  0
LINE
  5
F3
330
1F
100
AcDbEntity
  8
0-0
  6
Continuous
 62
     3
370
     9
100
AcDbLine
 10
-1018.364849606076
 20
698.5131670977623
 30
0.0
 11
-1012.114890846046
 21
692.2630846178214
 31
0.0
  0
LINE
  5
F4
330
1F
100
AcDbEntity
  8
0-0
  6
Continuous
 62
     3
370
     9
100
AcDbLine
 10
-1012.114890846046
 20
692.2630846178214
 30
0.0
 11
-1007.114874350058
 21
692.2630846178214
 31
0.0
  0
LINE
  5
F5
330
1F
100
AcDbEntity
  8
0-0
  6
Continuous
 62
     3
370
     9
100
AcDbLine
 10
-1748.365278501768
 20
766.0132660736915
 30
0.0
 11
-270.8643629744245
 21
766.0132660736915
 31
0.0
  0
LINE
  5
F6
330
1F
100
AcDbEntity
  8
0-0
  6
Continuous
 62
     3
370
     9
100
AcDbLine
 10
-1748.365278501768
 20
776.013051625845
 30
0.0
 11
-270.8643629744245
 21
776.013051625845
 31
0.0
  0
LINE
  5
F7
330
1F
100
AcDbEntity
  8
0-0
  6
Continuous
 62
     3
370
     9
100
AcDbLine
 10
-1723.320780573665
 20
756.3393587679482
 30
0.0
 11
-295.9089846224398
 21
756.3393587679482
 31
0.0
  0
LINE
  5
F8
330
1F
100
AcDbEntity
  8
0-0
  6
Continuous
 62
     3
370
     9
100
AcDbLine
 10
-1721.892186757681
 20
752.214042044975
 30
0.0
 11
-297.3374547185125
 21
752.214042044975
 31
0.0
  0
LINE
  5
F9
330
1F
100
AcDbEntity
  8
0-0
  6
Continuous
 62
     3
370
     9
100
AcDbLine
 10
-1729.392211501663
 20
744.7141410209042
 30
0.0
 11
-1729.392211501663
 21
-47.68764186549788
 31
0.0
  0
LINE
  5
FA
330
1F
100
AcDbEntity
  8
0-0
  6
Continuous
 62
     3
370
     9
100
AcDbLine
 10
-1744.615204269822
 20
338.5132165857269
 30
0.0
 11
-1744.615204269822
 21
358.5132825696795
 31
0.0
  0
LINE
  5
FB
330
1F
100
AcDbEntity
  8
0-0
  6
Continuous
 62
     3
370
     9
100
AcDbLine
 10
-1734.615171277845
 20
338.5132165857269
 30
0.0
 11
-1734.615171277845
 21
358.5132825696795
 31
0.0
  0
LINE
  5
FC
330
1F
100
AcDbEntity
  8
0-0
  6
Continuous
 62
     3
370
     9
100
AcDbLine
 10
-1748.365278501768
 20
358.5132825696795
 30
0.0
 11
-1734.615171277845
 21
358.5132825696795
 31
0.0
  0
LINE
  5
FD
330
1F
100
AcDbEntity
  8
0-0
  6
Continuous
 62
     3
370
     9
100
AcDbLine
 10
-1740.839767456055
 20
363.5131753457563
 30
0.0
 11
-1738.339759208061
 21
362.2631093618037
 31
0.0
  0
LINE
  5
FE
330
1F
100
AcDbEntity
  8
0-0
  6
Continuous
 62
     3
370
     9
100
AcDbLine
 10
-1738.339759208061
 20
362.2631093618037
 30
0.0
 11
-1730.820681597736
 21
362.2631093618037
 31
0.0
  0
LINE
  5
FF
330
1F
100
AcDbEntity
  8
0-0
  6
Continuous
 62
     3
370
     9
100
AcDbLine
 10
-1730.820681597736
 20
362.2631093618037
 30
0.0
 11
-1738.339759208061
 21
363.5131753457563
 31
0.0
  0
LINE
  5
100
330
1F
100
AcDbEntity
  8
0-0
  6
Continuous
 62
     3
370
     9
100
AcDbLine
 10
-1738.339759208061
 20
363.5131753457563
 30
0.0
 11
-1740.839767456055
 21
363.5131753457563
 31
0.0
  0
LINE
  5
101
330
1F
100
AcDbEntity
  8
0-0
  6
Continuous
 62
     3
370
     9
100
AcDbLine
 10
-1730.820681597736
 20
334.7633897936026
 30
0.0
 11
-1730.820681597736
 21
362.2631093618037
 31
0.0
  0
LINE
  5
102
330
1F
100
AcDbEntity
  8
0-0
  6
Continuous
 62
     3
370
     9
100
AcDbLine
 10
-1740.839767456055
 20
363.5131753457563
 30
0.0
 11
-1740.839767456055
 21
358.5132825696795
 31
0.0
  0
LINE
  5
103
330
1F
100
AcDbEntity
  8
0-0
  6
Continuous
 62
     3
370
     9
100
AcDbLine
 10
-1733.320689845729
 20
746.3393257759719
 30
0.0
 11
-1733.320689845729
 21
362.6786845439193
 31
0.0
  0
LINE
  5
104
330
1F
100
AcDbEntity
  8
0-0
  6
Continuous
 62
     3
370
     9
100
AcDbLine
 10
-1748.365278501768
 20
791.0131011138096
 30
0.0
 11
-270.8643629744245
 21
791.0131011138096
 31
0.0
  0
LINE
  5
105
330
1F
100
AcDbEntity
  8
0-0
  6
Continuous
 62
     3
370
     9
100
AcDbLine
 10
-1748.365278501768
 20
801.013134105786
 30
0.0
 11
-270.8643629744245
 21
801.013134105786
 31
0.0
  0
LINE
  5
106
330
1F
100
AcDbEntity
  8
0-0
  6
Continuous
 62
     3
370
     9
100
AcDbLine
 10
-1748.365278501768
 20
816.012936153928
 30
0.0
 11
-270.8643629744245
 21
816.012936153928
 31
0.0
  0
LINE
  5
107
330
1F
100
AcDbEntity
  8
0-0
  6
Continuous
 62
     3
370
     9
100
AcDbLine
 10
-1748.365278501768
 20
-128.9864699904979
 30
0.0
 11
-1748.365278501768
 21
826.0129691459042
 31
0.0
  0
LINE
  5
108
330
1F
100
AcDbEntity
  8
0-0
  6
Continuous
 62
     3
370
     9
100
AcDbLine
 10
-1758.365311493745
 20
-128.9864699904979
 30
0.0
 11
-1758.365311493745
 21
826.0129691459042
 31
0.0
  0
LINE
  5
109
330
1F
100
AcDbEntity
  8
0-0
  6
Continuous
 62
     3
370
     9
100
AcDbLine
 10
-1758.365311493745
 20
826.0129691459042
 30
0.0
 11
-260.8643299824482
 21
826.0129691459042
 31
0.0
  0
LINE
  5
10A
330
1F
100
AcDbEntity
  8
0-0
  6
Continuous
 62
     3
370
     9
100
AcDbLine
 10
-1018.364849606076
 20
698.5131670977623
 30
0.0
 11
-1000.864791870117
 21
698.5131670977623
 31
0.0
  0
LINE
  5
10B
330
1F
100
AcDbEntity
  8
0-0
  6
Continuous
 62
     3
370
     9
100
AcDbLine
 10
-1715.864923838023
 20
836.0130021378804
 30
0.0
 11
-1653.364841358082
 21
836.0130021378804
 31
0.0
  0
LINE
  5
10C
330
1F
100
AcDbEntity
  8
0-0
  6
Continuous
 62
     3
370
     9
100
AcDbLine
 10
-1378.364923838022
 20
836.0130021378804
 30
0.0
 11
-1315.864841358082
 21
836.0130021378804
 31
0.0
  0
LINE
  5
10D
330
1F
100
AcDbEntity
  8
0-0
  6
Continuous
 62
     3
370
     9
100
AcDbLine
 10
-1040.864923838023
 20
836.0130021378804
 30
0.0
 11
-978.3648413580817
 21
836.0130021378804
 31
0.0
  0
LINE
  5
10E
330
1F
100
AcDbEntity
  8
0-0
  6
Continuous
 62
     3
370
     9
100
AcDbLine
 10
-1715.864923838023
 20
836.0130021378804
 30
0.0
 11
-1715.864923838023
 21
826.0129691459042
 31
0.0
  0
LINE
  5
10F
330
1F
100
AcDbEntity
  8
0-0
  6
Continuous
 62
     3
370
     9
100
AcDbLine
 10
-1715.864923838023
 20
816.012936153928
 30
0.0
 11
-1715.864923838023
 21
801.013134105786
 31
0.0
  0
LINE
  5
110
330
1F
100
AcDbEntity
  8
0-0
  6
Continuous
 62
     3
370
     9
100
AcDbLine
 10
-1715.864923838023
 20
791.0131011138096
 30
0.0
 11
-1715.864923838023
 21
776.013051625845
 31
0.0
  0
LINE
  5
111
330
1F
100
AcDbEntity
  8
0-0
  6
Continuous
 62
     3
370
     9
100
AcDbLine
 10
-1653.364841358082
 20
836.0130021378804
 30
0.0
 11
-1653.364841358082
 21
826.0129691459042
 31
0.0
  0
LINE
  5
112
330
1F
100
AcDbEntity
  8
0-0
  6
Continuous
 62
     3
370
     9
100
AcDbLine
 10
-1653.364841358082
 20
816.012936153928
 30
0.0
 11
-1653.364841358082
 21
801.013134105786
 31
0.0
  0
LINE
  5
113
330
1F
100
AcDbEntity
  8
0-0
  6
Continuous
 62
     3
370
     9
100
AcDbLine
 10
-1653.364841358082
 20
791.0131011138096
 30
0.0
 11
-1653.364841358082
 21
776.013051625845
 31
0.0
  0
LINE
  5
114
330
1F
100
AcDbEntity
  8
0-0
  6
Continuous
 62
     3
370
     9
100
AcDbLine
 10
-1378.364923838022
 20
836.0130021378804
 30
0.0
 11
-1378.364923838022
 21
826.0129691459042
 31
0.0
  0
LINE
  5
115
330
1F
100
AcDbEntity
  8
0-0
  6
Continuous
 62
     3
370
     9
100
AcDbLine
 10
-1315.864841358082
 20
836.0130021378804
 30
0.0
 11
-1315.864841358082
 21
826.0129691459042
 31
0.0
  0
LINE
  5
116
330
1F
100
AcDbEntity
  8
0-0
  6
Continuous
 62
     3
370
     9
100
AcDbLine
 10
-1378.364923838022
 20
791.0131011138096
 30
0.0
 11
-1378.364923838022
 21
776.013051625845
 31
0.0
  0
LINE
  5
117
330
1F
100
AcDbEntity
  8
0-0
  6
Continuous
 62
     3
370
     9
100
AcDbLine
 10
-1315.864841358082
 20
791.0131011138096
 30
0.0
 11
-1315.864841358082
 21
776.013051625845
 31
0.0
  0
LINE
  5
118
330
1F
100
AcDbEntity
  8
0-0
  6
Continuous
 62
     3
370
     9
100
AcDbLine
 10
-1378.364923838022
 20
816.012936153928
 30
0.0
 11
-1378.364923838022
 21
801.013134105786
 31
0.0
  0
LINE
  5
119
330
1F
100
AcDbEntity
  8
0-0
  6
Continuous
 62
     3
370
     9
100
AcDbLine
 10
-1315.864841358082
 20
816.012936153928
 30
0.0
 11
-1315.864841358082
 21
801.013134105786
 31
0.0
  0
LINE
  5
11A
330
1F
100
AcDbEntity
  8
0-0
  6
Continuous
 62
     3
370
     9
100
AcDbLine
 10
-1040.864923838023
 20
836.0130021378804
 30
0.0
 11
-1040.864923838023
 21
826.0129691459042
 31
0.0
  0
LINE
  5
11B
330
1F
100
AcDbEntity
  8
0-0
  6
Continuous
 62
     3
370
     9
100
AcDbLine
 10
-1040.864923838023
 20
791.0131011138096
 30
0.0
 11
-1040.864923838023
 21
776.013051625845
 31
0.0
  0
LINE
  5
11C
330
1F
100
AcDbEntity
  8
0-0
  6
Continuous
 62
     3
370
     9
100
AcDbLine
 10
-1040.864923838023
 20
816.012936153928
 30
0.0
 11
-1040.864923838023
 21
801.013134105786
 31
0.0
  0
LINE
  5
11D
330
1F
100
AcDbEntity
  8
0-0
  6
Continuous
 62
     3
370
     9
100
AcDbLine
 10
-443.3645609262825
 20
-1.48666794235595
 30
0.0
 11
-443.3645609262825
 21
698.5131670977623
 31
0.0
  0
LINE
  5
11E
330
1F
100
AcDbEntity
  8
0-0
  6
Continuous
 62
     3
370
     9
100
AcDbLine
 10
-425.8646269102354
 20
698.5131670977623
 30
0.0
 11
-443.3645609262825
 21
698.5131670977623
 31
0.0
  0
LINE
  5
11F
330
1F
100
AcDbEntity
  8
0-0
  6
Continuous
 62
     3
370
     9
100
AcDbLine
 10
-425.8646269102354
 20
-1.48666794235595
 30
0.0
 11
-425.8646269102354
 21
698.5131670977623
 31
0.0
  0
LINE
  5
120
330
1F
100
AcDbEntity
  8
0-0
  6
Continuous
 62
     3
370
     9
100
AcDbLine
 10
-437.1147258861643
 20
4.763414537584936
 30
0.0
 11
-437.1147258861643
 21
692.2630846178214
 31
0.0
  0
LINE
  5
121
330
1F
100
AcDbEntity
  8
0-0
  6
Continuous
 62
     3
370
     9
100
AcDbLine
 10
-432.1145856702648
 20
692.2630846178214
 30
0.0
 11
-437.1147258861643
 21
692.2630846178214
 31
0.0
  0
LINE
  5
122
330
1F
100
AcDbEntity
  8
0-0
  6
Continuous
 62
     3
370
     9
100
AcDbLine
 10
-432.1145856702648
 20
4.763414537584936
 30
0.0
 11
-432.1145856702648
 21
692.2630846178214
 31
0.0
  0
LINE
  5
123
330
1F
100
AcDbEntity
  8
0-0
  6
Continuous
 62
     3
370
     9
100
AcDbLine
 10
-443.3645609262825
 20
698.5131670977623
 30
0.0
 11
-437.1147258861643
 21
692.2630846178214
 31
0.0
  0
LINE
  5
124
330
1F
100
AcDbEntity
  8
0-0
  6
Continuous
 62
     3
370
     9
100
AcDbLine
 10
-425.8646269102354
 20
698.5131670977623
 30
0.0
 11
-432.1145856702648
 21
692.2630846178214
 31
0.0
  0
LINE
  5
125
330
1F
100
AcDbEntity
  8
0-0
  6
Continuous
 62
     3
370
     9
100
AcDbLine
 10
-730.8648908460461
 20
-1.48666794235595
 30
0.0
 11
-730.8648908460461
 21
698.5131670977623
 31
0.0
  0
LINE
  5
126
330
1F
100
AcDbEntity
  8
0-0
  6
Continuous
 62
     3
370
     9
100
AcDbLine
 10
-713.3648331100875
 20
698.5131670977623
 30
0.0
 11
-730.8648908460461
 21
698.5131670977623
 31
0.0
  0
LINE
  5
127
330
1F
100
AcDbEntity
  8
0-0
  6
Continuous
 62
     3
370
     9
100
AcDbLine
 10
-713.3648331100875
 20
-1.48666794235595
 30
0.0
 11
-713.3648331100875
 21
698.5131670977623
 31
0.0
  0
LINE
  5
128
330
1F
100
AcDbEntity
  8
0-0
  6
Continuous
 62
     3
370
     9
100
AcDbLine
 10
-724.6149320860167
 20
4.763414537584936
 30
0.0
 11
-724.6149320860167
 21
692.2630846178214
 31
0.0
  0
LINE
  5
129
330
1F
100
AcDbEntity
  8
0-0
  6
Continuous
 62
     3
370
     9
100
AcDbLine
 10
-719.6147918701172
 20
692.2630846178214
 30
0.0
 11
-724.6149320860167
 21
692.2630846178214
 31
0.0
  0
LINE
  5
12A
330
1F
100
AcDbEntity
  8
0-0
  6
Continuous
 62
     3
370
     9
100
AcDbLine
 10
-719.6147918701172
 20
4.763414537584936
 30
0.0
 11
-719.6147918701172
 21
692.2630846178214
 31
0.0
  0
LINE
  5
12B
330
1F
100
AcDbEntity
  8
0-0
  6
Continuous
 62
     3
370
     9
100
AcDbLine
 10
-730.8648908460461
 20
698.5131670977623
 30
0.0
 11
-724.6149320860167
 21
692.2630846178214
 31
0.0
  0
LINE
  5
12C
330
1F
100
AcDbEntity
  8
0-0
  6
Continuous
 62
     3
370
     9
100
AcDbLine
 10
-713.3648331100875
 20
698.5131670977623
 30
0.0
 11
-719.6147918701172
 21
692.2630846178214
 31
0.0
  0
LINE
  5
12D
330
1F
100
AcDbEntity
  8
0-0
  6
Continuous
 62
     3
370
     9
100
AcDbLine
 10
-1000.864791870117
 20
-1.48666794235595
 30
0.0
 11
-1000.864791870117
 21
698.5131670977623
 31
0.0
  0
LINE
  5
12E
330
1F
100
AcDbEntity
  8
0-0
  6
Continuous
 62
     3
370
     9
100
AcDbLine
 10
-1007.114874350058
 20
4.763414537584936
 30
0.0
 11
-1007.114874350058
 21
692.2630846178214
 31
0.0
  0
LINE
  5
12F
330
1F
100
AcDbEntity
  8
0-0
  6
Continuous
 62
     3
370
     9
100
AcDbLine
 10
-1000.864791870117
 20
698.5131670977623
 30
0.0
 11
-1007.114874350058
 21
692.2630846178214
 31
0.0
  0
LINE
  5
130
330
1F
100
AcDbEntity
  8
0-0
  6
Continuous
 62
     3
370
     9
100
AcDbLine
 10
-289.8375536944414
 20
744.7141410209042
 30
0.0
 11
-289.8375536944414
 21
-47.68764186549788
 31
0.0
  0
LINE
  5
131
330
1F
100
AcDbEntity
  8
0-0
  6
Continuous
 62
     3
370
     9
100
AcDbLine
 10
-274.6145609262825
 20
338.5132165857269
 30
0.0
 11
-274.6145609262825
 21
358.5132825696795
 31
0.0
  0
LINE
  5
132
330
1F
100
AcDbEntity
  8
0-0
  6
Continuous
 62
     3
370
     9
100
AcDbLine
 10
-284.6144701983476
 20
338.5132165857269
 30
0.0
 11
-284.6144701983476
 21
358.5132825696795
 31
0.0
  0
LINE
  5
133
330
1F
100
AcDbEntity
  8
0-0
  6
Continuous
 62
     3
370
     9
100
AcDbLine
 10
-270.8643629744245
 20
358.5132825696795
 30
0.0
 11
-284.6144701983476
 21
358.5132825696795
 31
0.0
  0
LINE
  5
134
330
1F
100
AcDbEntity
  8
0-0
  6
Continuous
 62
     3
370
     9
100
AcDbLine
 10
-278.3899977400495
 20
363.5131753457563
 30
0.0
 11
-280.8901297079549
 21
362.2631093618037
 31
0.0
  0
LINE
  5
135
330
1F
100
AcDbEntity
  8
0-0
  6
Continuous
 62
     3
370
     9
100
AcDbLine
 10
-280.8901297079549
 20
362.2631093618037
 30
0.0
 11
-288.4090835983687
 21
362.2631093618037
 31
0.0
  0
LINE
  5
136
330
1F
100
AcDbEntity
  8
0-0
  6
Continuous
 62
     3
370
     9
100
AcDbLine
 10
-288.4090835983687
 20
362.2631093618037
 30
0.0
 11
-280.8901297079549
 21
363.5131753457563
 31
0.0
  0
LINE
  5
137
330
1F
100
AcDbEntity
  8
0-0
  6
Continuous
 62
     3
370
     9
100
AcDbLine
 10
-280.8901297079549
 20
363.5131753457563
 30
0.0
 11
-278.3899977400495
 21
363.5131753457563
 31
0.0
  0
LINE
  5
138
330
1F
100
AcDbEntity
  8
0-0
  6
Continuous
 62
     3
370
     9
100
AcDbLine
 10
-288.4090835983687
 20
334.7633897936026
 30
0.0
 11
-288.4090835983687
 21
362.2631093618037
 31
0.0
  0
LINE
  5
139
330
1F
100
AcDbEntity
  8
0-0
  6
Continuous
 62
     3
370
     9
100
AcDbLine
 10
-278.3899977400495
 20
363.5131753457563
 30
0.0
 11
-278.3899977400495
 21
358.5132825696795
 31
0.0
  0
LINE
  5
13A
330
1F
100
AcDbEntity
  8
0-0
  6
Continuous
 62
     3
370
     9
100
AcDbLine
 10
-285.9091990702859
 20
746.3393257759719
 30
0.0
 11
-285.9091990702859
 21
362.6786845439193
 31
0.0
  0
LINE
  5
13B
330
1F
100
AcDbEntity
  8
0-0
  6
Continuous
 62
     3
370
     9
100
AcDbLine
 10
-270.8643629744245
 20
-128.9864699904979
 30
0.0
 11
-270.8643629744245
 21
826.0129691459042
 31
0.0
  0
LINE
  5
13C
330
1F
100
AcDbEntity
  8
0-0
  6
Continuous
 62
     3
370
     9
100
AcDbLine
 10
-260.8643299824482
 20
-128.9864699904979
 30
0.0
 11
-260.8643299824482
 21
826.0129691459042
 31
0.0
  0
LINE
  5
13D
330
1F
100
AcDbEntity
  8
0-0
  6
Continuous
 62
     3
370
     9
100
AcDbLine
 10
-303.3650887979041
 20
836.0130021378804
 30
0.0
 11
-365.8650475579338
 21
836.0130021378804
 31
0.0
  0
LINE
  5
13E
330
1F
100
AcDbEntity
  8
0-0
  6
Continuous
 62
     3
370
     9
100
AcDbLine
 10
-640.8648413580818
 20
836.0130021378804
 30
0.0
 11
-703.3649238380226
 21
836.0130021378804
 31
0.0
  0
LINE
  5
13F
330
1F
100
AcDbEntity
  8
0-0
  6
Continuous
 62
     3
370
     9
100
AcDbLine
 10
-303.3650887979041
 20
836.0130021378804
 30
0.0
 11
-303.3650887979041
 21
826.0129691459042
 31
0.0
  0
LINE
  5
140
330
1F
100
AcDbEntity
  8
0-0
  6
Continuous
 62
     3
370
     9
100
AcDbLine
 10
-303.3650887979041
 20
816.012936153928
 30
0.0
 11
-303.3650887979041
 21
801.013134105786
 31
0.0
  0
LINE
  5
141
330
1F
100
AcDbEntity
  8
0-0
  6
Continuous
 62
     3
370
     9
100
AcDbLine
 10
-303.3650887979041
 20
791.0131011138096
 30
0.0
 11
-303.3650887979041
 21
776.013051625845
 31
0.0
  0
LINE
  5
142
330
1F
100
AcDbEntity
  8
0-0
  6
Continuous
 62
     3
370
     9
100
AcDbLine
 10
-365.8650475579338
 20
836.0130021378804
 30
0.0
 11
-365.8650475579338
 21
826.0129691459042
 31
0.0
  0
LINE
  5
143
330
1F
100
AcDbEntity
  8
0-0
  6
Continuous
 62
     3
370
     9
100
AcDbLine
 10
-365.8650475579338
 20
816.012936153928
 30
0.0
 11
-365.8650475579338
 21
801.013134105786
 31
0.0
  0
LINE
  5
144
330
1F
100
AcDbEntity
  8
0-0
  6
Continuous
 62
     3
370
     9
100
AcDbLine
 10
-365.8650475579338
 20
791.0131011138096
 30
0.0
 11
-365.8650475579338
 21
776.013051625845
 31
0.0
  0
LINE
  5
145
330
1F
100
AcDbEntity
  8
0-0
  6
Continuous
 62
     3
370
     9
100
AcDbLine
 10
-640.8648413580818
 20
836.0130021378804
 30
0.0
 11
-640.8648413580818
 21
826.0129691459042
 31
0.0
  0
LINE
  5
146
330
1F
100
AcDbEntity
  8
0-0
  6
Continuous
 62
     3
370
     9
100
AcDbLine
 10
-703.3649238380226
 20
836.0130021378804
 30
0.0
 11
-703.3649238380226
 21
826.0129691459042
 31
0.0
  0
LINE
  5
147
330
1F
100
AcDbEntity
  8
0-0
  6
Continuous
 62
     3
370
     9
100
AcDbLine
 10
-640.8648413580818
 20
791.0131011138096
 30
0.0
 11
-640.8648413580818
 21
776.013051625845
 31
0.0
  0
LINE
  5
148
330
1F
100
AcDbEntity
  8
0-0
  6
Continuous
 62
     3
370
     9
100
AcDbLine
 10
-703.3649238380226
 20
791.0131011138096
 30
0.0
 11
-703.3649238380226
 21
776.013051625845
 31
0.0
  0
LINE
  5
149
330
1F
100
AcDbEntity
  8
0-0
  6
Continuous
 62
     3
370
     9
100
AcDbLine
 10
-640.8648413580818
 20
816.012936153928
 30
0.0
 11
-640.8648413580818
 21
801.013134105786
 31
0.0
  0
LINE
  5
14A
330
1F
100
AcDbEntity
  8
0-0
  6
Continuous
 62
     3
370
     9
100
AcDbLine
 10
-703.3649238380226
 20
816.012936153928
 30
0.0
 11
-703.3649238380226
 21
801.013134105786
 31
0.0
  0
LINE
  5
14B
330
1F
100
AcDbEntity
  8
0-0
  6
Continuous
 62
     3
370
     9
100
AcDbLine
 10
-978.3648413580817
 20
836.0130021378804
 30
0.0
 11
-978.3648413580817
 21
826.0129691459042
 31
0.0
  0
LINE
  5
14C
330
1F
100
AcDbEntity
  8
0-0
  6
Continuous
 62
     3
370
     9
100
AcDbLine
 10
-978.3648413580817
 20
791.0131011138096
 30
0.0
 11
-978.3648413580817
 21
776.013051625845
 31
0.0
  0
LINE
  5
14D
330
1F
100
AcDbEntity
  8
0-0
  6
Continuous
 62
     3
370
     9
100
AcDbLine
 10
-978.3648413580817
 20
816.012936153928
 30
0.0
 11
-978.3648413580817
 21
801.013134105786
 31
0.0
  0
LINE
  5
14E
330
1F
100
AcDbEntity
  8
0-0
  6
Continuous
 62
     3
370
     9
100
AcDbLine
 10
-1593.365138285869
 20
-1.48666794235595
 30
0.0
 11
-1575.865204269822
 21
-1.48666794235595
 31
0.0
  0
LINE
  5
14F
330
1F
100
AcDbEntity
  8
0-0
  6
Continuous
 62
     3
370
     9
100
AcDbLine
 10
-1587.115179525839
 20
4.763414537584936
 30
0.0
 11
-1582.11503930994
 21
4.763414537584936
 31
0.0
  0
LINE
  5
150
330
1F
100
AcDbEntity
  8
0-0
  6
Continuous
 62
     3
370
     9
100
AcDbLine
 10
-1575.865204269822
 20
-1.48666794235595
 30
0.0
 11
-1582.11503930994
 21
4.763414537584936
 31
0.0
  0
LINE
  5
151
330
1F
100
AcDbEntity
  8
0-0
  6
Continuous
 62
     3
370
     9
100
AcDbLine
 10
-1593.365138285869
 20
-1.48666794235595
 30
0.0
 11
-1587.115179525839
 21
4.763414537584936
 31
0.0
  0
LINE
  5
152
330
1F
100
AcDbEntity
  8
0-0
  6
Continuous
 62
     3
370
     9
100
AcDbLine
 10
-1305.864808366105
 20
-1.48666794235595
 30
0.0
 11
-1288.364874350058
 21
-1.48666794235595
 31
0.0
  0
LINE
  5
153
330
1F
100
AcDbEntity
  8
0-0
  6
Continuous
 62
     3
370
     9
100
AcDbLine
 10
-1299.614973325987
 20
4.763414537584936
 30
0.0
 11
-1294.614833110088
 21
4.763414537584936
 31
0.0
  0
LINE
  5
154
330
1F
100
AcDbEntity
  8
0-0
  6
Continuous
 62
     3
370
     9
100
AcDbLine
 10
-1288.364874350058
 20
-1.48666794235595
 30
0.0
 11
-1294.614833110088
 21
4.763414537584936
 31
0.0
  0
LINE
  5
155
330
1F
100
AcDbEntity
  8
0-0
  6
Continuous
 62
     3
370
     9
100
AcDbLine
 10
-1305.864808366105
 20
-1.48666794235595
 30
0.0
 11
-1299.614973325987
 21
4.763414537584936
 31
0.0
  0
LINE
  5
156
330
1F
100
AcDbEntity
  8
0-0
  6
Continuous
 62
     3
370
     9
100
AcDbLine
 10
-1018.364849606076
 20
-1.48666794235595
 30
0.0
 11
-1012.114890846046
 21
4.763414537584936
 31
0.0
  0
LINE
  5
157
330
1F
100
AcDbEntity
  8
0-0
  6
Continuous
 62
     3
370
     9
100
AcDbLine
 10
-1012.114890846046
 20
4.763414537584936
 30
0.0
 11
-1007.114874350058
 21
4.763414537584936
 31
0.0
  0
LINE
  5
158
330
1F
100
AcDbEntity
  8
0-0
  6
Continuous
 62
     3
370
     9
100
AcDbLine
 10
-1748.365278501768
 20
-68.98676691828513
 30
0.0
 11
-270.8643629744245
 21
-68.98676691828513
 31
0.0
  0
LINE
  5
159
330
1F
100
AcDbEntity
  8
0-0
  6
Continuous
 62
     3
370
     9
100
AcDbLine
 10
-1748.365278501768
 20
-78.98655247043877
 30
0.0
 11
-270.8643629744245
 21
-78.98655247043877
 31
0.0
  0
LINE
  5
15A
330
1F
100
AcDbEntity
  8
0-0
  6
Continuous
 62
     3
370
     9
100
AcDbLine
 10
-1723.320780573665
 20
-59.3128596125419
 30
0.0
 11
-295.9089846224398
 21
-59.3128596125419
 31
0.0
  0
LINE
  5
15B
330
1F
100
AcDbEntity
  8
0-0
  6
Continuous
 62
     3
370
     9
100
AcDbLine
 10
-1721.892186757681
 20
-55.1875428895687
 30
0.0
 11
-297.3374547185125
 21
-55.1875428895687
 31
0.0
  0
LINE
  5
15C
330
1F
100
AcDbEntity
  8
0-0
  6
Continuous
 62
     3
370
     9
100
AcDbLine
 10
-1748.365278501768
 20
338.5132165857269
 30
0.0
 11
-1734.615171277845
 21
338.5132165857269
 31
0.0
  0
LINE
  5
15D
330
1F
100
AcDbEntity
  8
0-0
  6
Continuous
 62
     3
370
     9
100
AcDbLine
 10
-1740.839767456055
 20
333.51332380965
 30
0.0
 11
-1738.339759208061
 21
334.7633897936026
 31
0.0
  0
LINE
  5
15E
330
1F
100
AcDbEntity
  8
0-0
  6
Continuous
 62
     3
370
     9
100
AcDbLine
 10
-1738.339759208061
 20
334.7633897936026
 30
0.0
 11
-1730.820681597736
 21
334.7633897936026
 31
0.0
  0
LINE
  5
15F
330
1F
100
AcDbEntity
  8
0-0
  6
Continuous
 62
     3
370
     9
100
AcDbLine
 10
-1730.820681597736
 20
334.7633897936026
 30
0.0
 11
-1738.339759208061
 21
333.51332380965
 31
0.0
  0
LINE
  5
160
330
1F
100
AcDbEntity
  8
0-0
  6
Continuous
 62
     3
370
     9
100
AcDbLine
 10
-1738.339759208061
 20
333.51332380965
 30
0.0
 11
-1740.839767456055
 21
333.51332380965
 31
0.0
  0
LINE
  5
161
330
1F
100
AcDbEntity
  8
0-0
  6
Continuous
 62
     3
370
     9
100
AcDbLine
 10
-1740.839767456055
 20
333.51332380965
 30
0.0
 11
-1740.839767456055
 21
338.5132165857269
 31
0.0
  0
LINE
  5
162
330
1F
100
AcDbEntity
  8
0-0
  6
Continuous
 62
     3
370
     9
100
AcDbLine
 10
-1733.320689845729
 20
-49.31282662056532
 30
0.0
 11
-1733.320689845729
 21
334.347814611487
 31
0.0
  0
LINE
  5
163
330
1F
100
AcDbEntity
  8
0-0
  6
Continuous
 62
     3
370
     9
100
AcDbLine
 10
-1748.365278501768
 20
-93.98660195840336
 30
0.0
 11
-270.8643629744245
 21
-93.98660195840336
 31
0.0
  0
LINE
  5
164
330
1F
100
AcDbEntity
  8
0-0
  6
Continuous
 62
     3
370
     9
100
AcDbLine
 10
-1748.365278501768
 20
-103.9866349503797
 30
0.0
 11
-270.8643629744245
 21
-103.9866349503797
 31
0.0
  0
LINE
  5
165
330
1F
100
AcDbEntity
  8
0-0
  6
Continuous
 62
     3
370
     9
100
AcDbLine
 10
-1748.365278501768
 20
-118.9864369985216
 30
0.0
 11
-270.8643629744245
 21
-118.9864369985216
 31
0.0
  0
LINE
  5
166
330
1F
100
AcDbEntity
  8
0-0
  6
Continuous
 62
     3
370
     9
100
AcDbLine
 10
-1758.365311493745
 20
-128.9864699904979
 30
0.0
 11
-260.8643299824482
 21
-128.9864699904979
 31
0.0
  0
LINE
  5
167
330
1F
100
AcDbEntity
  8
0-0
  6
Continuous
 62
     3
370
     9
100
AcDbLine
 10
-1018.364849606076
 20
-1.48666794235595
 30
0.0
 11
-1000.864791870117
 21
-1.48666794235595
 31
0.0
  0
LINE
  5
168
330
1F
100
AcDbEntity
  8
0-0
  6
Continuous
 62
     3
370
     9
100
AcDbLine
 10
-1715.864923838023
 20
-138.9865029824742
 30
0.0
 11
-1653.364841358082
 21
-138.9865029824742
 31
0.0
  0
LINE
  5
169
330
1F
100
AcDbEntity
  8
0-0
  6
Continuous
 62
     3
370
     9
100
AcDbLine
 10
-1378.364923838022
 20
-138.9865029824742
 30
0.0
 11
-1315.864841358082
 21
-138.9865029824742
 31
0.0
  0
LINE
  5
16A
330
1F
100
AcDbEntity
  8
0-0
  6
Continuous
 62
     3
370
     9
100
AcDbLine
 10
-1040.864923838023
 20
-138.9865029824742
 30
0.0
 11
-978.3648413580817
 21
-138.9865029824742
 31
0.0
  0
LINE
  5
16B
330
1F
100
AcDbEntity
  8
0-0
  6
Continuous
 62
     3
370
     9
100
AcDbLine
 10
-1715.864923838023
 20
-138.9865029824742
 30
0.0
 11
-1715.864923838023
 21
-128.9864699904979
 31
0.0
  0
LINE
  5
16C
330
1F
100
AcDbEntity
  8
0-0
  6
Continuous
 62
     3
370
     9
100
AcDbLine
 10
-1715.864923838023
 20
-118.9864369985216
 30
0.0
 11
-1715.864923838023
 21
-103.9866349503797
 31
0.0
  0
LINE
  5
16D
330
1F
100
AcDbEntity
  8
0-0
  6
Continuous
 62
     3
370
     9
100
AcDbLine
 10
-1715.864923838023
 20
-93.98660195840336
 30
0.0
 11
-1715.864923838023
 21
-78.98655247043877
 31
0.0
  0
LINE
  5
16E
330
1F
100
AcDbEntity
  8
0-0
  6
Continuous
 62
     3
370
     9
100
AcDbLine
 10
-1653.364841358082
 20
-138.9865029824742
 30
0.0
 11
-1653.364841358082
 21
-128.9864699904979
 31
0.0
  0
LINE
  5
16F
330
1F
100
AcDbEntity
  8
0-0
  6
Continuous
 62
     3
370
     9
100
AcDbLine
 10
-1653.364841358082
 20
-118.9864369985216
 30
0.0
 11
-1653.364841358082
 21
-103.9866349503797
 31
0.0
  0
LINE
  5
170
330
1F
100
AcDbEntity
  8
0-0
  6
Continuous
 62
     3
370
     9
100
AcDbLine
 10
-1653.364841358082
 20
-93.98660195840336
 30
0.0
 11
-1653.364841358082
 21
-78.98655247043877
 31
0.0
  0
LINE
  5
171
330
1F
100
AcDbEntity
  8
0-0
  6
Continuous
 62
     3
370
     9
100
AcDbLine
 10
-1378.364923838022
 20
-138.9865029824742
 30
0.0
 11
-1378.364923838022
 21
-128.9864699904979
 31
0.0
  0
LINE
  5
172
330
1F
100
AcDbEntity
  8
0-0
  6
Continuous
 62
     3
370
     9
100
AcDbLine
 10
-1315.864841358082
 20
-138.9865029824742
 30
0.0
 11
-1315.864841358082
 21
-128.9864699904979
 31
0.0
  0
LINE
  5
173
330
1F
100
AcDbEntity
  8
0-0
  6
Continuous
 62
     3
370
     9
100
AcDbLine
 10
-1378.364923838022
 20
-93.98660195840336
 30
0.0
 11
-1378.364923838022
 21
-78.98655247043877
 31
0.0
  0
LINE
  5
174
330
1F
100
AcDbEntity
  8
0-0
  6
Continuous
 62
     3
370
     9
100
AcDbLine
 10
-1315.864841358082
 20
-93.98660195840336
 30
0.0
 11
-1315.864841358082
 21
-78.98655247043877
 31
0.0
  0
LINE
  5
175
330
1F
100
AcDbEntity
  8
0-0
  6
Continuous
 62
     3
370
     9
100
AcDbLine
 10
-1378.364923838022
 20
-118.9864369985216
 30
0.0
 11
-1378.364923838022
 21
-103.9866349503797
 31
0.0
  0
LINE
  5
176
330
1F
100
AcDbEntity
  8
0-0
  6
Continuous
 62
     3
370
     9
100
AcDbLine
 10
-1315.864841358082
 20
-118.9864369985216
 30
0.0
 11
-1315.864841358082
 21
-103.9866349503797
 31
0.0
  0
LINE
  5
177
330
1F
100
AcDbEntity
  8
0-0
  6
Continuous
 62
     3
370
     9
100
AcDbLine
 10
-1040.864923838023
 20
-138.9865029824742
 30
0.0
 11
-1040.864923838023
 21
-128.9864699904979
 31
0.0
  0
LINE
  5
178
330
1F
100
AcDbEntity
  8
0-0
  6
Continuous
 62
     3
370
     9
100
AcDbLine
 10
-1040.864923838023
 20
-93.98660195840336
 30
0.0
 11
-1040.864923838023
 21
-78.98655247043877
 31
0.0
  0
LINE
  5
179
330
1F
100
AcDbEntity
  8
0-0
  6
Continuous
 62
     3
370
     9
100
AcDbLine
 10
-1040.864923838023
 20
-118.9864369985216
 30
0.0
 11
-1040.864923838023
 21
-103.9866349503797
 31
0.0
  0
LINE
  5
17A
330
1F
100
AcDbEntity
  8
0-0
  6
Continuous
 62
     3
370
     9
100
AcDbLine
 10
-425.8646269102354
 20
-1.48666794235595
 30
0.0
 11
-443.3645609262825
 21
-1.48666794235595
 31
0.0
  0
LINE
  5
17B
330
1F
100
AcDbEntity
  8
0-0
  6
Continuous
 62
     3
370
     9
100
AcDbLine
 10
-432.1145856702648
 20
4.763414537584936
 30
0.0
 11
-437.1147258861643
 21
4.763414537584936
 31
0.0
  0
LINE
  5
17C
330
1F
100
AcDbEntity
  8
0-0
  6
Continuous
 62
     3
370
     9
100
AcDbLine
 10
-443.3645609262825
 20
-1.48666794235595
 30
0.0
 11
-437.1147258861643
 21
4.763414537584936
 31
0.0
  0
LINE
  5
17D
330
1F
100
AcDbEntity
  8
0-0
  6
Continuous
 62
     3
370
     9
100
AcDbLine
 10
-425.8646269102354
 20
-1.48666794235595
 30
0.0
 11
-432.1145856702648
 21
4.763414537584936
 31
0.0
  0
LINE
  5
17E
330
1F
100
AcDbEntity
  8
0-0
  6
Continuous
 62
     3
370
     9
100
AcDbLine
 10
-713.3648331100875
 20
-1.48666794235595
 30
0.0
 11
-730.8648908460461
 21
-1.48666794235595
 31
0.0
  0
LINE
  5
17F
330
1F
100
AcDbEntity
  8
0-0
  6
Continuous
 62
     3
370
     9
100
AcDbLine
 10
-719.6147918701172
 20
4.763414537584936
 30
0.0
 11
-724.6149320860167
 21
4.763414537584936
 31
0.0
  0
LINE
  5
180
330
1F
100
AcDbEntity
  8
0-0
  6
Continuous
 62
     3
370
     9
100
AcDbLine
 10
-730.8648908460461
 20
-1.48666794235595
 30
0.0
 11
-724.6149320860167
 21
4.763414537584936
 31
0.0
  0
LINE
  5
181
330
1F
100
AcDbEntity
  8
0-0
  6
Continuous
 62
     3
370
     9
100
AcDbLine
 10
-713.3648331100875
 20
-1.48666794235595
 30
0.0
 11
-719.6147918701172
 21
4.763414537584936
 31
0.0
  0
LINE
  5
182
330
1F
100
AcDbEntity
  8
0-0
  6
Continuous
 62
     3
370
     9
100
AcDbLine
 10
-1000.864791870117
 20
-1.48666794235595
 30
0.0
 11
-1007.114874350058
 21
4.763414537584936
 31
0.0
  0
LINE
  5
183
330
1F
100
AcDbEntity
  8
0-0
  6
Continuous
 62
     3
370
     9
100
AcDbLine
 10
-278.3899977400495
 20
333.51332380965
 30
0.0
 11
-280.8901297079549
 21
334.7633897936026
 31
0.0
  0
LINE
  5
184
330
1F
100
AcDbEntity
  8
0-0
  6
Continuous
 62
     3
370
     9
100
AcDbLine
 10
-280.8901297079549
 20
334.7633897936026
 30
0.0
 11
-288.4090835983687
 21
334.7633897936026
 31
0.0
  0
LINE
  5
185
330
1F
100
AcDbEntity
  8
0-0
  6
Continuous
 62
     3
370
     9
100
AcDbLine
 10
-288.4090835983687
 20
334.7633897936026
 30
0.0
 11
-280.8901297079549
 21
333.51332380965
 31
0.0
  0
LINE
  5
186
330
1F
100
AcDbEntity
  8
0-0
  6
Continuous
 62
     3
370
     9
100
AcDbLine
 10
-280.8901297079549
 20
333.51332380965
 30
0.0
 11
-278.3899977400495
 21
333.51332380965
 31
0.0
  0
LINE
  5
187
330
1F
100
AcDbEntity
  8
0-0
  6
Continuous
 62
     3
370
     9
100
AcDbLine
 10
-278.3899977400495
 20
333.51332380965
 30
0.0
 11
-278.3899977400495
 21
338.5132165857269
 31
0.0
  0
LINE
  5
188
330
1F
100
AcDbEntity
  8
0-0
  6
Continuous
 62
     3
370
     9
100
AcDbLine
 10
-285.9091990702859
 20
-49.31282662056532
 30
0.0
 11
-285.9091990702859
 21
334.347814611487
 31
0.0
  0
LINE
  5
189
330
1F
100
AcDbEntity
  8
0-0
  6
Continuous
 62
     3
370
     9
100
AcDbLine
 10
-303.3650887979041
 20
-138.9865029824742
 30
0.0
 11
-365.8650475579338
 21
-138.9865029824742
 31
0.0
  0
LINE
  5
18A
330
1F
100
AcDbEntity
  8
0-0
  6
Continuous
 62
     3
370
     9
100
AcDbLine
 10
-640.8648413580818
 20
-138.9865029824742
 30
0.0
 11
-703.3649238380226
 21
-138.9865029824742
 31
0.0
  0
LINE
  5
18B
330
1F
100
AcDbEntity
  8
0-0
  6
Continuous
 62
     3
370
     9
100
AcDbLine
 10
-303.3650887979041
 20
-138.9865029824742
 30
0.0
 11
-303.3650887979041
 21
-128.9864699904979
 31
0.0
  0
LINE
  5
18C
330
1F
100
AcDbEntity
  8
0-0
  6
Continuous
 62
     3
370
     9
100
AcDbLine
 10
-303.3650887979041
 20
-118.9864369985216
 30
0.0
 11
-303.3650887979041
 21
-103.9866349503797
 31
0.0
  0
LINE
  5
18D
330
1F
100
AcDbEntity
  8
0-0
  6
Continuous
 62
     3
370
     9
100
AcDbLine
 10
-303.3650887979041
 20
-93.98660195840336
 30
0.0
 11
-303.3650887979041
 21
-78.98655247043877
 31
0.0
  0
LINE
  5
18E
330
1F
100
AcDbEntity
  8
0-0
  6
Continuous
 62
     3
370
     9
100
AcDbLine
 10
-365.8650475579338
 20
-138.9865029824742
 30
0.0
 11
-365.8650475579338
 21
-128.9864699904979
 31
0.0
  0
LINE
  5
18F
330
1F
100
AcDbEntity
  8
0-0
  6
Continuous
 62
     3
370
     9
100
AcDbLine
 10
-365.8650475579338
 20
-118.9864369985216
 30
0.0
 11
-365.8650475579338
 21
-103.9866349503797
 31
0.0
  0
LINE
  5
190
330
1F
100
AcDbEntity
  8
0-0
  6
Continuous
 62
     3
370
     9
100
AcDbLine
 10
-365.8650475579338
 20
-93.98660195840336
 30
0.0
 11
-365.8650475579338
 21
-78.98655247043877
 31
0.0
  0
LINE
  5
191
330
1F
100
AcDbEntity
  8
0-0
  6
Continuous
 62
     3
370
     9
100
AcDbLine
 10
-640.8648413580818
 20
-138.9865029824742
 30
0.0
 11
-640.8648413580818
 21
-128.9864699904979
 31
0.0
  0
LINE
  5
192
330
1F
100
AcDbEntity
  8
0-0
  6
Continuous
 62
     3
370
     9
100
AcDbLine
 10
-703.3649238380226
 20
-138.9865029824742
 30
0.0
 11
-703.3649238380226
 21
-128.9864699904979
 31
0.0
  0
LINE
  5
193
330
1F
100
AcDbEntity
  8
0-0
  6
Continuous
 62
     3
370
     9
100
AcDbLine
 10
-640.8648413580818
 20
-93.98660195840336
 30
0.0
 11
-640.8648413580818
 21
-78.98655247043877
 31
0.0
  0
LINE
  5
194
330
1F
100
AcDbEntity
  8
0-0
  6
Continuous
 62
     3
370
     9
100
AcDbLine
 10
-703.3649238380226
 20
-93.98660195840336
 30
0.0
 11
-703.3649238380226
 21
-78.98655247043877
 31
0.0
  0
LINE
  5
195
330
1F
100
AcDbEntity
  8
0-0
  6
Continuous
 62
     3
370
     9
100
AcDbLine
 10
-640.8648413580818
 20
-118.9864369985216
 30
0.0
 11
-640.8648413580818
 21
-103.9866349503797
 31
0.0
  0
LINE
  5
196
330
1F
100
AcDbEntity
  8
0-0
  6
Continuous
 62
     3
370
     9
100
AcDbLine
 10
-703.3649238380226
 20
-118.9864369985216
 30
0.0
 11
-703.3649238380226
 21
-103.9866349503797
 31
0.0
  0
LINE
  5
197
330
1F
100
AcDbEntity
  8
0-0
  6
Continuous
 62
     3
370
     9
100
AcDbLine
 10
-978.3648413580817
 20
-138.9865029824742
 30
0.0
 11
-978.3648413580817
 21
-128.9864699904979
 31
0.0
  0
LINE
  5
198
330
1F
100
AcDbEntity
  8
0-0
  6
Continuous
 62
     3
370
     9
100
AcDbLine
 10
-978.3648413580817
 20
-93.98660195840336
 30
0.0
 11
-978.3648413580817
 21
-78.98655247043877
 31
0.0
  0
LINE
  5
199
330
1F
100
AcDbEntity
  8
0-0
  6
Continuous
 62
     3
370
     9
100
AcDbLine
 10
-978.3648413580817
 20
-118.9864369985216
 30
0.0
 11
-978.3648413580817
 21
-103.9866349503797
 31
0.0
  0
LINE
  5
19A
330
1F
100
AcDbEntity
  8
0-0
  6
Continuous
 62
     3
370
     9
100
AcDbLine
 10
-270.8643629744245
 20
338.5132165857269
 30
0.0
 11
-284.6144701983476
 21
338.5132165857269
 31
0.0
  0
LINE
  5
19B
330
1F
100
AcDbEntity
  8
0-0
  6
JWW_PHANTOM2
 62
     3
370
     9
100
AcDbLine
 10
-258.3643217344542
 20
826.0129691459042
 30
0.0
 11
314.1347214982318
 21
826.0129691459042
 31
0.0
  0
LINE
  5
19C
330
1F
100
AcDbEntity
  8
0-0
  6
JWW_PHANTOM2
 62
     3
370
     9
100
AcDbLine
 10
-258.3643217344542
 20
-128.9864699904979
 30
0.0
 11
-258.3643217344542
 21
826.0129691459042
 31
0.0
  0
LINE
  5
19D
330
1F
100
AcDbEntity
  8
0-0
  6
JWW_PHANTOM2
 62
     3
370
     9
100
AcDbLine
 10
-258.3643217344542
 20
-128.9864699904979
 30
0.0
 11
314.1347214982318
 21
-128.9864699904979
 31
0.0
  0
LINE
  5
19E
330
1F
100
AcDbEntity
  8
0-1
  6
JWW_DASHED3
 62
     2
370
     9
100
AcDbLine
 10
-1758.365311493745
 20
723.5130021378804
 30
0.0
 11
-260.8643299824482
 21
723.5130021378804
 31
0.0
  0
LINE
  5
19F
330
1F
100
AcDbEntity
  8
0-1
  6
Continuous
 62
     2
370
     9
100
AcDbLine
 10
-260.8643299824482
 20
723.5130021378804
 30
0.0
 11
314.1347214982318
 21
723.5130021378804
 31
0.0
  0
LINE
  5
1A0
330
1F
100
AcDbEntity
  8
0-1
  6
JWW_DASHED3
 62
     2
370
     9
100
AcDbLine
 10
-1758.365311493745
 20
-26.48687414220802
 30
0.0
 11
-260.8643299824482
 21
-26.48687414220802
 31
0.0
  0
LINE
  5
1A1
330
1F
100
AcDbEntity
  8
0-1
  6
Continuous
 62
     2
370
     9
100
AcDbLine
 10
-260.8643299824482
 20
-26.48687414220802
 30
0.0
 11
314.1347214982318
 21
-26.48687414220802
 31
0.0
  0
ARC
  5
1A2
330
1F
100
AcDbEntity
  8
0-0
  6
Continuous
 62
     3
370
     9
100
AcDbCircle
 10
-1068.898123663825
 20
-885.2371092100395
 30
0.0
 40
3.75000004832809
100
AcDbArc
 50
188.7459106445312
 51
270.0
  0
ARC
  5
1A3
330
1F
100
AcDbEntity
  8
0-0
  6
Continuous
 62
     3
370
     9
100
AcDbCircle
 10
-1287.832383851747
 20
-885.2371092100395
 30
0.0
 40
3.75000004832809
100
AcDbArc
 50
270.0
 51
351.2540893554688
  0
ARC
  5
1A4
330
1F
100
AcDbEntity
  8
0-0
  6
Continuous
 62
     3
370
     9
100
AcDbCircle
 10
-1406.397999943913
 20
-885.2371092100395
 30
0.0
 40
3.75000004832809
100
AcDbArc
 50
188.7460174560547
 51
270.0
  0
ARC
  5
1A5
330
1F
100
AcDbEntity
  8
0-0
  6
Continuous
 62
     3
370
     9
100
AcDbCircle
 10
-1621.582309619801
 20
-885.2371092100395
 30
0.0
 40
3.75000004832809
100
AcDbArc
 50
270.0
 51
351.2539978027344
  0
ARC
  5
1A6
330
1F
100
AcDbEntity
  8
0-0
  6
Continuous
 62
     3
370
     9
100
AcDbCircle
 10
-1739.873514948665
 20
-885.2371092100395
 30
0.0
 40
3.75000004832809
100
AcDbArc
 50
184.0851135253906
 51
270.0
  0
ARC
  5
1A7
330
1F
100
AcDbEntity
  8
0-0
  6
Continuous
 62
     3
370
     9
100
AcDbCircle
 10
-1083.549654161608
 20
-863.9871009620456
 30
0.0
 40
7.500000096656181
100
AcDbArc
 50
8.746337890625
 51
90.0
  0
ARC
  5
1A8
330
1F
100
AcDbEntity
  8
0-0
  6
Continuous
 62
     3
370
     9
100
AcDbCircle
 10
-1273.180853353964
 20
-863.9871009620456
 30
0.0
 40
7.500000096656181
100
AcDbArc
 50
90.0
 51
171.253662109375
  0
ARC
  5
1A9
330
1F
100
AcDbEntity
  8
0-0
  6
Continuous
 62
     3
370
     9
100
AcDbCircle
 10
-1421.049406721786
 20
-863.9871009620456
 30
0.0
 40
7.500000096656181
100
AcDbArc
 50
8.746292114257812
 51
90.0
  0
ARC
  5
1AA
330
1F
100
AcDbEntity
  8
0-0
  6
Continuous
 62
     3
370
     9
100
AcDbCircle
 10
-1606.930779122017
 20
-863.9871009620456
 30
0.0
 40
7.500000096656181
100
AcDbArc
 50
90.0
 51
171.2537078857422
  0
ARC
  5
1AB
330
1F
100
AcDbEntity
  8
0-0
  6
Continuous
 62
     3
370
     9
100
AcDbCircle
 10
-1737.283686045054
 20
-846.4870432260869
 30
0.0
 40
10.00000012887491
100
AcDbArc
 50
189.9193572998047
 51
208.6634521484375
  0
ARC
  5
1AC
330
1F
100
AcDbEntity
  8
0-0
  6
Continuous
 62
     3
370
     9
100
AcDbCircle
 10
-1032.554781114733
 20
-820.2371422020161
 30
0.0
 40
3.75000004832809
100
AcDbArc
 50
187.1250152587891
 51
270.0
  0
ARC
  5
1AD
330
1F
100
AcDbEntity
  8
0-0
  6
Continuous
 62
     3
370
     9
100
AcDbCircle
 10
-1707.554781114733
 20
-820.2371422020161
 30
0.0
 40
3.75000004832809
100
AcDbArc
 50
187.1250152587891
 51
270.0
  0
ARC
  5
1AE
330
1F
100
AcDbEntity
  8
0-0
  6
Continuous
 62
     3
370
     9
100
AcDbCircle
 10
-1661.675726400839
 20
-820.2371422020161
 30
0.0
 40
3.75000004832809
100
AcDbArc
 50
270.0
 51
352.8749847412109
  0
ARC
  5
1AF
330
1F
100
AcDbEntity
  8
0-0
  6
Continuous
 62
     3
370
     9
100
AcDbCircle
 10
-1354.480671238255
 20
-820.2371422020161
 30
0.0
 40
3.75000004832809
100
AcDbArc
 50
188.004867553711
 51
270.0
  0
ARC
  5
1B0
330
1F
100
AcDbEntity
  8
0-0
  6
Continuous
 62
     3
370
     9
100
AcDbCircle
 10
-1339.749836277317
 20
-820.2371422020161
 30
0.0
 40
3.75000004832809
100
AcDbArc
 50
270.0
 51
351.9951324462891
  0
ARC
  5
1B1
330
1F
100
AcDbEntity
  8
0-0
  6
Continuous
 62
     3
370
     9
100
AcDbCircle
 10
-950.3326312915698
 20
-885.2371092100395
 30
0.0
 40
3.75000004832809
100
AcDbArc
 50
270.0
 51
351.2540893554688
  0
ARC
  5
1B2
330
1F
100
AcDbEntity
  8
0-0
  6
Continuous
 62
     3
370
     9
100
AcDbCircle
 10
-731.3983711036476
 20
-885.2371092100395
 30
0.0
 40
3.75000004832809
100
AcDbArc
 50
188.7459106445312
 51
270.0
  0
ARC
  5
1B3
330
1F
100
AcDbEntity
  8
0-0
  6
Continuous
 62
     3
370
     9
100
AcDbCircle
 10
-612.8327550114813
 20
-885.2371092100395
 30
0.0
 40
3.75000004832809
100
AcDbArc
 50
270.0
 51
351.2539825439453
  0
ARC
  5
1B4
330
1F
100
AcDbEntity
  8
0-0
  6
Continuous
 62
     3
370
     9
100
AcDbCircle
 10
-397.6484453355943
 20
-885.2371092100395
 30
0.0
 40
3.75000004832809
100
AcDbArc
 50
188.7460021972657
 51
270.0
  0
ARC
  5
1B5
330
1F
100
AcDbEntity
  8
0-0
  6
Continuous
 62
     3
370
     9
100
AcDbCircle
 10
-279.3572400067302
 20
-885.2371092100395
 30
0.0
 40
3.75000004832809
100
AcDbArc
 50
270.0
 51
355.9148864746094
  0
ARC
  5
1B6
330
1F
100
AcDbEntity
  8
0-0
  6
Continuous
 62
     3
370
     9
100
AcDbCircle
 10
-935.681100793787
 20
-863.9871009620456
 30
0.0
 40
7.500000096656181
100
AcDbArc
 50
90.0
 51
171.253662109375
  0
ARC
  5
1B7
330
1F
100
AcDbEntity
  8
0-0
  6
Continuous
 62
     3
370
     9
100
AcDbCircle
 10
-746.0499016014305
 20
-863.9871009620456
 30
0.0
 40
7.500000096656181
100
AcDbArc
 50
8.746337890625
 51
90.0
  0
ARC
  5
1B8
330
1F
100
AcDbEntity
  8
0-0
  6
Continuous
 62
     3
370
     9
100
AcDbCircle
 10
-598.1813482336097
 20
-863.9871009620456
 30
0.0
 40
7.500000096656181
100
AcDbArc
 50
90.0
 51
171.2537078857422
  0
ARC
  5
1B9
330
1F
100
AcDbEntity
  8
0-0
  6
Continuous
 62
     3
370
     9
100
AcDbCircle
 10
-412.2999758333773
 20
-863.9871009620456
 30
0.0
 40
7.500000096656181
100
AcDbArc
 50
8.746292114257812
 51
90.0
  0
ARC
  5
1BA
330
1F
100
AcDbEntity
  8
0-0
  6
Continuous
 62
     3
370
     9
100
AcDbCircle
 10
-281.9469451904297
 20
-846.4870432260869
 30
0.0
 40
10.00000012887491
100
AcDbArc
 50
331.3365478515625
 51
350.0806427001953
  0
ARC
  5
1BB
330
1F
100
AcDbEntity
  8
0-0
  6
Continuous
 62
     3
370
     9
100
AcDbCircle
 10
-986.675973840662
 20
-820.2371422020161
 30
0.0
 40
3.75000004832809
100
AcDbArc
 50
270.0
 51
352.8749847412109
  0
ARC
  5
1BC
330
1F
100
AcDbEntity
  8
0-0
  6
Continuous
 62
     3
370
     9
100
AcDbCircle
 10
-311.675973840662
 20
-820.2371422020161
 30
0.0
 40
3.75000004832809
100
AcDbArc
 50
270.0
 51
352.8749847412109
  0
ARC
  5
1BD
330
1F
100
AcDbEntity
  8
0-0
  6
Continuous
 62
     3
370
     9
100
AcDbCircle
 10
-357.5550285545555
 20
-820.2371422020161
 30
0.0
 40
3.75000004832809
100
AcDbArc
 50
187.1250152587891
 51
270.0
  0
ARC
  5
1BE
330
1F
100
AcDbEntity
  8
0-0
  6
Continuous
 62
     3
370
     9
100
AcDbCircle
 10
-664.7500837171399
 20
-820.2371422020161
 30
0.0
 40
3.75000004832809
100
AcDbArc
 50
270.0
 51
351.9951324462891
  0
ARC
  5
1BF
330
1F
100
AcDbEntity
  8
0-0
  6
Continuous
 62
     3
370
     9
100
AcDbCircle
 10
-679.4809186780774
 20
-820.2371422020161
 30
0.0
 40
3.75000004832809
100
AcDbArc
 50
188.004867553711
 51
270.0
  0
ARC
  5
1C0
330
1F
100
AcDbEntity
  8
0-0
  6
Continuous
 62
     3
370
     9
100
AcDbCircle
 10
-1723.320780573665
 20
746.3393257759719
 30
0.0
 40
10.00000012887491
100
AcDbArc
 50
90.0
 51
180.0
  0
ARC
  5
1C1
330
1F
100
AcDbEntity
  8
0-0
  6
Continuous
 62
     3
370
     9
100
AcDbCircle
 10
-1721.892186757681
 20
744.7141410209042
 30
0.0
 40
7.500000096656181
100
AcDbArc
 50
90.0
 51
180.0
  0
ARC
  5
1C2
330
1F
100
AcDbEntity
  8
0-0
  6
Continuous
 62
     3
370
     9
100
AcDbCircle
 10
-295.9089846224398
 20
746.3393257759719
 30
0.0
 40
10.00000012887491
100
AcDbArc
 50
0.0
 51
90.0
  0
ARC
  5
1C3
330
1F
100
AcDbEntity
  8
0-0
  6
Continuous
 62
     3
370
     9
100
AcDbCircle
 10
-297.3374547185125
 20
744.7141410209042
 30
0.0
 40
7.500000096656181
100
AcDbArc
 50
0.0
 51
90.0
  0
ARC
  5
1C4
330
1F
100
AcDbEntity
  8
0-0
  6
Continuous
 62
     3
370
     9
100
AcDbCircle
 10
-1723.320780573665
 20
-49.31282662056532
 30
0.0
 40
10.00000012887491
100
AcDbArc
 50
180.0
 51
270.0
  0
ARC
  5
1C5
330
1F
100
AcDbEntity
  8
0-0
  6
Continuous
 62
     3
370
     9
100
AcDbCircle
 10
-1721.892186757681
 20
-47.68764186549788
 30
0.0
 40
7.500000096656181
100
AcDbArc
 50
180.0
 51
270.0
  0
ARC
  5
1C6
330
1F
100
AcDbEntity
  8
0-0
  6
Continuous
 62
     3
370
     9
100
AcDbCircle
 10
-295.9089846224398
 20
-49.31282662056532
 30
0.0
 40
10.00000012887491
100
AcDbArc
 50
270.0
 51
0.0
  0
ARC
  5
1C7
330
1F
100
AcDbEntity
  8
0-0
  6
Continuous
 62
     3
370
     9
100
AcDbCircle
 10
-297.3374547185125
 20
-47.68764186549788
 30
0.0
 40
7.500000096656181
100
AcDbArc
 50
270.0
 51
0.0
  0
TEXT
  5
1C8
330
1F
100
AcDbEntity
  8
0-E
  6
Continuous
 62
     7
370
     9
100
AcDbText
 10
1428.872435286238
 20
466.1537044050891
 30
0.0
 40
22.86
  1
樹脂系塗装
 41
1.133333333333333
  7
ＭＳ ゴシック
100
AcDbText
  0
TEXT
  5
1C9
330
1F
100
AcDbEntity
  8
0-E
  6
Continuous
 62
     7
370
     9
100
AcDbText
 10
1431.3260320715
 20
521.3480024018165
 30
0.0
 40
22.86
  1
蓋本体：ＦＣ２００
 41
1.148148148148148
  7
ＭＳ ゴシック
100
AcDbText
  0
TEXT
  5
1CA
330
1F
100
AcDbEntity
  8
0-E
  6
Continuous
 62
     7
370
     9
100
AcDbText
 10
367.0779027165597
 20
-410.8642704484265
 30
0.0
 40
22.86
  1
ＳＵＳ３０４
 41
1.138888888888889
  7
ＭＳ ゴシック
100
AcDbText
  0
TEXT
  5
1CB
330
1F
100
AcDbEntity
  8
0-E
  6
Continuous
 62
     7
370
     9
100
AcDbText
 10
370.9597633980414
 20
-360.4087543549406
 30
0.0
 40
22.86
  1
排水口グレーチング（Ｐ＝１０）
 41
1.155555555555555
  7
ＭＳ ゴシック
100
AcDbText
  0
LINE
  5
1CC
330
1F
100
AcDbEntity
  8
0-F
  6
Continuous
 62
     7
370
     9
100
AcDbLine
 10
954.1348534661372
 20
-138.9871215820307
 30
0.0
 11
711.1348435685445
 21
-138.9871215820307
 31
0.0
  0
LINE
  5
1CD
330
1F
100
AcDbEntity
  8
0-F
  6
Continuous
 62
     7
370
     9
100
AcDbLine
 10
954.1348534661372
 20
-68.98676691828513
 30
0.0
 11
811.1349260484851
 21
-68.98676691828513
 31
0.0
  0
LINE
  5
1CE
330
1F
100
AcDbEntity
  8
0-F
  6
Continuous
 62
     7
370
     9
100
AcDbLine
 10
814.1348864581132
 20
-138.9871215820307
 30
0.0
 11
810.2191512649122
 21
-109.2437414220856
 31
0.0
  0
LINE
  5
1CF
330
1F
100
AcDbEntity
  8
0-F
  6
Continuous
 62
     7
370
     9
100
AcDbLine
 10
814.1348864581132
 20
-138.9871215820307
 30
0.0
 11
818.0506216513143
 21
-109.2437414220856
 31
0.0
  0
LINE
  5
1D0
330
1F
100
AcDbEntity
  8
0-F
  6
Continuous
 62
     7
370
     9
100
AcDbLine
 10
818.0506216513143
 20
-39.2433867583398
 30
0.0
 11
810.2191512649122
 21
-98.73014707823017
 31
0.0
  0
LINE
  5
1D1
330
1F
100
AcDbEntity
  8
0-F
  6
Continuous
 62
     7
370
     9
100
AcDbLine
 10
810.2191512649122
 20
-39.2433867583398
 30
0.0
 11
818.0506216513143
 21
-98.73014707823017
 31
0.0
  0
LINE
  5
1D2
330
1F
100
AcDbEntity
  8
0-F
  6
Continuous
 62
     7
370
     9
100
AcDbLine
 10
954.1348534661372
 20
836.0132495777032
 30
0.0
 11
711.1348435685445
 21
836.0132495777032
 31
0.0
  0
LINE
  5
1D3
330
1F
100
AcDbEntity
  8
0-F
  6
Continuous
 62
     7
370
     9
100
AcDbLine
 10
954.1348534661372
 20
-151.4870391020898
 30
0.0
 11
611.1347610886031
 21
-151.4870391020898
 31
0.0
  0
LINE
  5
1D4
330
1F
100
AcDbEntity
  8
0-F
  6
Continuous
 62
     7
370
     9
100
AcDbLine
 10
954.1348534661372
 20
-143.9870143581078
 30
0.0
 11
711.1348435685445
 21
-143.9870143581078
 31
0.0
  0
LINE
  5
1D5
330
1F
100
AcDbEntity
  8
0-F
  6
Continuous
 62
     7
370
     9
100
AcDbLine
 10
714.1348039781726
 20
-210.8107365788635
 30
0.0
 11
714.1348039781726
 21
907.836864574536
 31
0.0
  0
LINE
  5
1D6
330
1F
100
AcDbEntity
  8
0-F
  6
Continuous
 62
     7
370
     9
100
AcDbLine
 10
714.1348039781726
 20
836.0132495777032
 30
0.0
 11
710.2190687849716
 21
806.2699931376693
 31
0.0
  0
LINE
  5
1D7
330
1F
100
AcDbEntity
  8
0-F
  6
Continuous
 62
     7
370
     9
100
AcDbLine
 10
714.1348039781726
 20
836.0132495777032
 30
0.0
 11
718.0505391713737
 21
806.2699931376693
 31
0.0
  0
LINE
  5
1D8
330
1F
100
AcDbEntity
  8
0-F
  6
Continuous
 62
     7
370
     9
100
AcDbLine
 10
954.1348534661372
 20
841.0132660736915
 30
0.0
 11
711.1348435685445
 21
841.0132660736915
 31
0.0
  0
LINE
  5
1D9
330
1F
100
AcDbEntity
  8
0-F
  6
Continuous
 62
     7
370
     9
100
AcDbLine
 10
954.1348534661372
 20
848.5131670977623
 30
0.0
 11
611.1347610886031
 21
848.5131670977623
 31
0.0
  0
LINE
  5
1DA
330
1F
100
AcDbEntity
  8
0-F
  6
Continuous
 62
     7
370
     9
100
AcDbLine
 10
714.1348039781726
 20
848.5131670977623
 30
0.0
 11
710.2190687849716
 21
878.2564235377961
 31
0.0
  0
LINE
  5
1DB
330
1F
100
AcDbEntity
  8
0-F
  6
Continuous
 62
     7
370
     9
100
AcDbLine
 10
714.1348039781726
 20
848.5131670977623
 30
0.0
 11
718.0505391713737
 21
878.2564235377961
 31
0.0
  0
LINE
  5
1DC
330
1F
100
AcDbEntity
  8
0-F
  6
Continuous
 62
     7
370
     9
100
AcDbLine
 10
614.1347214982318
 20
-151.4870391020898
 30
0.0
 11
614.1347214982318
 21
848.5131670977623
 31
0.0
  0
LINE
  5
1DD
330
1F
100
AcDbEntity
  8
0-F
  6
Continuous
 62
     7
370
     9
100
AcDbLine
 10
614.1347214982318
 20
-151.4870391020898
 30
0.0
 11
610.2189863050307
 21
-121.7436589421447
 31
0.0
  0
LINE
  5
1DE
330
1F
100
AcDbEntity
  8
0-F
  6
Continuous
 62
     7
370
     9
100
AcDbLine
 10
614.1347214982318
 20
-151.4870391020898
 30
0.0
 11
618.0504566914328
 21
-121.7436589421447
 31
0.0
  0
LINE
  5
1DF
330
1F
100
AcDbEntity
  8
0-F
  6
Continuous
 62
     7
370
     9
100
AcDbLine
 10
614.1347214982318
 20
848.5131670977623
 30
0.0
 11
610.2189863050307
 21
818.7699106577284
 31
0.0
  0
LINE
  5
1E0
330
1F
100
AcDbEntity
  8
0-F
  6
Continuous
 62
     7
370
     9
100
AcDbLine
 10
614.1347214982318
 20
848.5131670977623
 30
0.0
 11
618.0504566914328
 21
818.7699106577284
 31
0.0
  0
LINE
  5
1E1
330
1F
100
AcDbEntity
  8
0-F
  6
Continuous
 62
     7
370
     9
100
AcDbLine
 10
714.1348039781726
 20
-138.9869978621195
 30
0.0
 11
710.2190687849716
 21
-109.2437414220856
 31
0.0
  0
LINE
  5
1E2
330
1F
100
AcDbEntity
  8
0-F
  6
Continuous
 62
     7
370
     9
100
AcDbLine
 10
714.1348039781726
 20
-138.9869978621195
 30
0.0
 11
718.0505391713737
 21
-109.2437414220856
 31
0.0
  0
LINE
  5
1E3
330
1F
100
AcDbEntity
  8
0-F
  6
Continuous
 62
     7
370
     9
100
AcDbLine
 10
714.1348039781726
 20
-151.4870391020898
 30
0.0
 11
710.2190687849716
 21
-181.2302955421237
 31
0.0
  0
LINE
  5
1E4
330
1F
100
AcDbEntity
  8
0-F
  6
Continuous
 62
     7
370
     9
100
AcDbLine
 10
714.1348039781726
 20
-151.4870391020898
 30
0.0
 11
718.0505391713737
 21
-181.2302955421237
 31
0.0
  0
LINE
  5
1E5
330
1F
100
AcDbEntity
  8
0-F
  6
Continuous
 62
     7
370
     9
100
AcDbLine
 10
964.1343915784685
 20
218.9441082928636
 30
0.0
 11
1194.215073456635
 21
218.9441082928636
 31
0.0
  0
LINE
  5
1E6
330
1F
100
AcDbEntity
  8
0-F
  6
Continuous
 62
     7
370
     9
100
AcDbLine
 10
964.1343915784685
 20
218.9441082928636
 30
0.0
 11
993.8776480185018
 21
222.8598434860646
 31
0.0
  0
LINE
  5
1E7
330
1F
100
AcDbEntity
  8
0-F
  6
Continuous
 62
     7
370
     9
100
AcDbLine
 10
964.1343915784685
 20
218.9441082928636
 30
0.0
 11
993.8776480185018
 21
215.0283730996625
 31
0.0
  0
LINE
  5
1E8
330
1F
100
AcDbEntity
  8
0-F
  6
Continuous
 62
     7
370
     9
100
AcDbLine
 10
1064.134721498232
 20
218.9441082928636
 30
0.0
 11
1034.391465058198
 21
222.8598434860646
 31
0.0
  0
LINE
  5
1E9
330
1F
100
AcDbEntity
  8
0-F
  6
Continuous
 62
     7
370
     9
100
AcDbLine
 10
1064.134721498232
 20
218.9441082928636
 30
0.0
 11
1034.391465058198
 21
215.0283730996625
 31
0.0
  0
LINE
  5
1EA
330
1F
100
AcDbEntity
  8
0-F
  6
Continuous
 62
     7
370
     9
100
AcDbLine
 10
1126.634309098528
 20
218.9441082928636
 30
0.0
 11
1156.377565538561
 21
222.8598434860646
 31
0.0
  0
LINE
  5
1EB
330
1F
100
AcDbEntity
  8
0-F
  6
Continuous
 62
     7
370
     9
100
AcDbLine
 10
1126.634309098528
 20
218.9441082928636
 30
0.0
 11
1156.377565538561
 21
215.0283730996625
 31
0.0
  0
LINE
  5
1EC
330
1F
100
AcDbEntity
  8
0-E
  6
Continuous
 62
     7
370
     9
100
AcDbLine
 10
1126.634309098528
 20
419.7812384528086
 30
0.0
 11
1154.090726697767
 21
431.8701584274709
 31
0.0
  0
LINE
  5
1ED
330
1F
100
AcDbEntity
  8
0-E
  6
Continuous
 62
     7
370
     9
100
AcDbLine
 10
1126.634309098528
 20
419.7812384528086
 30
0.0
 11
1156.284033285605
 21
424.351946856525
 31
0.0
  0
LINE
  5
1EE
330
1F
100
AcDbEntity
  8
0-E
  6
Continuous
 62
     7
370
     9
100
AcDbLine
 10
1027.638832298485
 20
848.5131670977623
 30
0.0
 11
1011.528025446711
 21
873.8200749577709
 31
0.0
  0
LINE
  5
1EF
330
1F
100
AcDbEntity
  8
0-E
  6
Continuous
 62
     7
370
     9
100
AcDbLine
 10
1027.638832298485
 20
848.5131670977623
 30
0.0
 11
1018.627073958113
 21
877.1276030669346
 31
0.0
  0
LINE
  5
1F0
330
1F
100
AcDbEntity
  8
0-F
  6
Continuous
 62
     7
370
     9
100
AcDbLine
 10
1117.147713738518
 20
266.21501200908
 30
0.0
 11
1074.414114049963
 21
218.9441082928636
 31
0.0
  0
LINE
  5
1F1
330
1F
100
AcDbEntity
  8
0-F
  6
Continuous
 62
     7
370
     9
100
AcDbLine
 10
814.1348864581132
 20
-138.9871215820307
 30
0.0
 11
814.1348864581132
 21
898.1901756492825
 31
0.0
  0
LINE
  5
1F2
330
1F
100
AcDbEntity
  8
0-1
  6
Continuous
 62
     2
370
     9
100
AcDbLine
 10
964.1348864581132
 20
841.0132660736915
 30
0.0
 11
964.1348864581132
 21
848.5131670977623
 31
0.0
  0
LINE
  5
1F3
330
1F
100
AcDbEntity
  8
0-1
  6
Continuous
 62
     2
370
     9
100
AcDbLine
 10
964.1348864581132
 20
-143.9870143581078
 30
0.0
 11
964.1348864581132
 21
-151.4870391020898
 31
0.0
  0
LINE
  5
1F4
330
1F
100
AcDbEntity
  8
0-F
  6
Continuous
 62
     7
370
     9
100
AcDbLine
 10
1117.147713738518
 20
266.21501200908
 30
0.0
 11
1154.396809758366
 21
266.21501200908
 31
0.0
  0
LINE
  5
1F5
330
1F
100
AcDbEntity
  8
0-E
  6
Continuous
 62
     7
370
     9
100
AcDbLine
 10
964.1351338979362
 20
-116.48667619035
 30
0.0
 11
893.9292804614913
 21
-378.4983537003797
 31
0.0
  0
LINE
  5
1F6
330
1F
100
AcDbEntity
  8
0-E
  6
Continuous
 62
     7
370
     9
100
AcDbLine
 10
964.1351338979362
 20
-116.48667619035
 30
0.0
 11
960.2193987047351
 21
-146.2300563502953
 31
0.0
  0
LINE
  5
1F7
330
1F
100
AcDbEntity
  8
0-E
  6
Continuous
 62
     7
370
     9
100
AcDbLine
 10
964.1351338979362
 20
-116.48667619035
 30
0.0
 11
952.6546684471341
 21
-144.2030293232682
 31
0.0
  0
LINE
  5
1F8
330
1F
100
AcDbEntity
  8
0-E
  6
Continuous
 62
     7
370
     9
100
AcDbLine
 10
1410.390627061999
 20
502.5611176361915
 30
0.0
 11
1126.634309098528
 21
419.7812384528086
 31
0.0
  0
LINE
  5
1F9
330
1F
100
AcDbEntity
  8
0-0
  6
JWW_CENTER1
 62
     3
370
     9
100
AcDbLine
 10
1166.256847897091
 20
348.5132495777032
 30
0.0
 11
906.888941172007
 21
348.5132495777032
 31
0.0
  0
LINE
  5
1FA
330
1F
100
AcDbEntity
  8
0-0
  6
Continuous
 62
     3
370
     9
100
AcDbLine
 10
1009.134045162716
 20
362.2632330817149
 30
0.0
 11
1044.134160634634
 21
359.7632248337209
 31
0.0
  0
LINE
  5
1FB
330
1F
100
AcDbEntity
  8
0-0
  6
Continuous
 62
     3
370
     9
100
AcDbLine
 10
1044.134160634634
 20
337.2632743216855
 30
0.0
 11
1044.134160634634
 21
359.7632248337209
 31
0.0
  0
LINE
  5
1FC
330
1F
100
AcDbEntity
  8
0-0
  6
JWW_CENTER1
 62
     3
370
     9
100
AcDbLine
 10
1026.635216377877
 20
366.0131835937506
 30
0.0
 11
1026.635216377877
 21
331.0133155616558
 31
0.0
  0
LINE
  5
1FD
330
1F
100
AcDbEntity
  8
0-0
  6
Continuous
 62
     3
370
     9
100
AcDbLine
 10
1033.134965638857
 20
355.0132462785055
 30
0.0
 11
1020.134972237252
 21
355.0132462785055
 31
0.0
  0
LINE
  5
1FE
330
1F
100
AcDbEntity
  8
0-0
  6
Continuous
 62
     3
370
     9
100
AcDbLine
 10
1020.134972237252
 20
355.0132462785055
 30
0.0
 11
1020.134972237252
 21
342.0132528769008
 31
0.0
  0
LINE
  5
1FF
330
1F
100
AcDbEntity
  8
0-0
  6
Continuous
 62
     3
370
     9
100
AcDbLine
 10
1033.134965638857
 20
355.0132462785055
 30
0.0
 11
1033.134965638857
 21
342.0132528769008
 31
0.0
  0
LINE
  5
200
330
1F
100
AcDbEntity
  8
0-0
  6
Continuous
 62
     3
370
     9
100
AcDbLine
 10
1009.134045162716
 20
363.5132990656678
 30
0.0
 11
1044.134160634634
 21
359.7632248337209
 31
0.0
  0
LINE
  5
201
330
1F
100
AcDbEntity
  8
0-0
  6
Continuous
 62
     3
370
     9
100
AcDbLine
 10
1069.135232873865
 20
691.386405326225
 30
0.0
 11
1069.135232873865
 21
5.640093829181296
 31
0.0
  0
LINE
  5
202
330
1F
100
AcDbEntity
  8
0-0
  6
Continuous
 62
     3
370
     9
100
AcDbLine
 10
1081.635150393925
 20
698.5131670977623
 30
0.0
 11
1126.635051417996
 21
661.0131670977623
 31
0.0
  0
LINE
  5
203
330
1F
100
AcDbEntity
  8
0-0
  6
Continuous
 62
     3
370
     9
100
AcDbLine
 10
1068.587153666729
 20
692.9482454866982
 30
0.0
 11
1064.683048145191
 21
697.8285011085311
 31
0.0
  0
LINE
  5
204
330
1F
100
AcDbEntity
  8
0-0
  6
Continuous
 62
     3
370
     9
100
AcDbLine
 10
1114.134886458113
 20
754.230429159629
 30
0.0
 11
1114.134886458113
 21
762.5213952966644
 31
0.0
  0
LINE
  5
205
330
1F
100
AcDbEntity
  8
0-0
  6
Continuous
 62
     3
370
     9
100
AcDbLine
 10
1001.634886458113
 20
776.013051625845
 30
0.0
 11
1001.634886458113
 21
836.0130021378804
 31
0.0
  0
LINE
  5
206
330
1F
100
AcDbEntity
  8
0-0
  6
Continuous
 62
     3
370
     9
100
AcDbLine
 10
1014.135051417996
 20
766.0132660736915
 30
0.0
 11
1014.135051417996
 21
836.0130021378804
 31
0.0
  0
LINE
  5
207
330
1F
100
AcDbEntity
  8
0-0
  6
Continuous
 62
     3
370
     9
100
AcDbLine
 10
1014.135051417996
 20
776.013051625845
 30
0.0
 11
964.1348864581132
 21
776.013051625845
 31
0.0
  0
LINE
  5
208
330
1F
100
AcDbEntity
  8
0-0
  6
Continuous
 62
     3
370
     9
100
AcDbLine
 10
1014.135051417996
 20
766.0132660736915
 30
0.0
 11
964.1348864581132
 21
766.0132660736915
 31
0.0
  0
LINE
  5
209
330
1F
100
AcDbEntity
  8
0-0
  6
Continuous
 62
     3
370
     9
100
AcDbLine
 10
1014.135051417996
 20
836.0130021378804
 30
0.0
 11
1001.634886458113
 21
836.0130021378804
 31
0.0
  0
LINE
  5
20A
330
1F
100
AcDbEntity
  8
0-0
  6
Continuous
 62
     3
370
     9
100
AcDbLine
 10
1054.882946529904
 20
752.9081107474667
 30
0.0
 11
1009.135034922007
 21
756.3393587679482
 31
0.0
  0
LINE
  5
20B
330
1F
100
AcDbEntity
  8
0-0
  6
Continuous
 62
     3
370
     9
100
AcDbLine
 10
1064.135216377877
 20
742.9360384554482
 30
0.0
 11
1064.135216377877
 21
-45.9095393000419
 31
0.0
  0
LINE
  5
20C
330
1F
100
AcDbEntity
  8
0-0
  6
Continuous
 62
     3
370
     9
100
AcDbLine
 10
1090.114418235985
 20
747.3177028346711
 30
0.0
 11
1110.955284737252
 21
750.5240280563771
 31
0.0
  0
LINE
  5
20D
330
1F
100
AcDbEntity
  8
0-0
  6
Continuous
 62
     3
370
     9
100
AcDbLine
 10
1081.635150393925
 20
737.4339665593334
 30
0.0
 11
1081.635150393925
 21
-40.40746740392677
 31
0.0
  0
LINE
  5
20E
330
1F
100
AcDbEntity
  8
0-0
  6
Continuous
 62
     3
370
     9
100
AcDbLine
 10
1036.635249369854
 20
358.5132825696795
 30
0.0
 11
1036.635249369854
 21
338.5132165857269
 31
0.0
  0
LINE
  5
20F
330
1F
100
AcDbEntity
  8
0-0
  6
Continuous
 62
     3
370
     9
100
AcDbLine
 10
1009.135034922007
 20
358.5132825696795
 30
0.0
 11
1009.135034922007
 21
766.0132660736915
 31
0.0
  0
LINE
  5
210
330
1F
100
AcDbEntity
  8
0-0
  6
Continuous
 62
     3
370
     9
100
AcDbLine
 10
1002.885447321711
 20
358.5132825696795
 30
0.0
 11
1002.885447321711
 21
338.5132165857269
 31
0.0
  0
LINE
  5
211
330
1F
100
AcDbEntity
  8
0-0
  6
Continuous
 62
     3
370
     9
100
AcDbLine
 10
966.6352658658413
 20
358.5132825696795
 30
0.0
 11
966.6352658658413
 21
338.5132165857269
 31
0.0
  0
LINE
  5
212
330
1F
100
AcDbEntity
  8
0-0
  6
Continuous
 62
     3
370
     9
100
AcDbLine
 10
1036.635249369854
 20
358.5132825696795
 30
0.0
 11
966.6352658658413
 21
358.5132825696795
 31
0.0
  0
LINE
  5
213
330
1F
100
AcDbEntity
  8
0-0
  6
Continuous
 62
     3
370
     9
100
AcDbLine
 10
1001.634886458113
 20
791.0131011138096
 30
0.0
 11
964.1348864581132
 21
791.0131011138096
 31
0.0
  0
LINE
  5
214
330
1F
100
AcDbEntity
  8
0-0
  6
Continuous
 62
     3
370
     9
100
AcDbLine
 10
1001.634886458113
 20
801.013134105786
 30
0.0
 11
964.1348864581132
 21
801.013134105786
 31
0.0
  0
LINE
  5
215
330
1F
100
AcDbEntity
  8
0-0
  6
Continuous
 62
     3
370
     9
100
AcDbLine
 10
1001.634886458113
 20
816.012936153928
 30
0.0
 11
964.1348864581132
 21
816.012936153928
 31
0.0
  0
LINE
  5
216
330
1F
100
AcDbEntity
  8
0-0
  6
Continuous
 62
     3
370
     9
100
AcDbLine
 10
1001.634886458113
 20
826.0129691459042
 30
0.0
 11
964.1348864581132
 21
826.0129691459042
 31
0.0
  0
LINE
  5
217
330
1F
100
AcDbEntity
  8
0-0
  6
Continuous
 62
     3
370
     9
100
AcDbLine
 10
964.1348864581132
 20
-128.9864699904979
 30
0.0
 11
964.1348864581132
 21
826.0129691459042
 31
0.0
  0
LINE
  5
218
330
1F
100
AcDbEntity
  8
0-0
  6
Continuous
 62
     3
370
     9
100
AcDbLine
 10
1051.136212735563
 20
783.5132000897386
 30
0.0
 11
1051.136212735563
 21
818.5135630014784
 31
0.0
  0
LINE
  5
219
330
1F
100
AcDbEntity
  8
0-0
  6
Continuous
 62
     3
370
     9
100
AcDbLine
 10
1051.136212735563
 20
783.5132000897386
 30
0.0
 11
1055.136324908282
 21
787.20079576647
 31
0.0
  0
LINE
  5
21A
330
1F
100
AcDbEntity
  8
0-0
  6
Continuous
 62
     3
370
     9
100
AcDbLine
 10
1051.136212735563
 20
818.5135630014784
 30
0.0
 11
1055.136324908282
 21
814.8257198849245
 31
0.0
  0
LINE
  5
21B
330
1F
100
AcDbEntity
  8
0-0
  6
Continuous
 62
     3
370
     9
100
AcDbLine
 10
1051.136212735563
 20
794.1070886560394
 30
0.0
 11
1064.13645357699
 21
794.1070886560394
 31
0.0
  0
LINE
  5
21C
330
1F
100
AcDbEntity
  8
0-0
  6
Continuous
 62
     3
370
     9
100
AcDbLine
 10
1051.136212735563
 20
807.919674435178
 30
0.0
 11
1064.13645357699
 21
807.919674435178
 31
0.0
  0
LINE
  5
21D
330
1F
100
AcDbEntity
  8
0-0
  6
Continuous
 62
     3
370
     9
100
AcDbLine
 10
1049.136404089026
 20
783.5132000897386
 30
0.0
 11
1051.136212735563
 21
783.5132000897386
 31
0.0
  0
LINE
  5
21E
330
1F
100
AcDbEntity
  8
0-0
  6
Continuous
 62
     3
370
     9
100
AcDbLine
 10
1055.136324908282
 20
787.20079576647
 30
0.0
 11
1064.13645357699
 21
787.20079576647
 31
0.0
  0
LINE
  5
21F
330
1F
100
AcDbEntity
  8
0-0
  6
Continuous
 62
     3
370
     9
100
AcDbLine
 10
1064.13645357699
 20
787.20079576647
 30
0.0
 11
1064.13645357699
 21
814.8257198849245
 31
0.0
  0
LINE
  5
220
330
1F
100
AcDbEntity
  8
0-0
  6
Continuous
 62
     3
370
     9
100
AcDbLine
 10
1074.136486568966
 20
793.5132330817152
 30
0.0
 11
1074.136486568966
 21
808.5130351298568
 31
0.0
  0
LINE
  5
221
330
1F
100
AcDbEntity
  8
0-0
  6
Continuous
 62
     3
370
     9
100
AcDbLine
 10
1074.136486568966
 20
793.5132330817152
 30
0.0
 11
1076.63637109705
 21
796.0133650496203
 31
0.0
  0
LINE
  5
222
330
1F
100
AcDbEntity
  8
0-0
  6
Continuous
 62
     3
370
     9
100
AcDbLine
 10
1076.63637109705
 20
806.0131506017742
 30
0.0
 11
1074.136486568966
 21
808.5130351298568
 31
0.0
  0
LINE
  5
223
330
1F
100
AcDbEntity
  8
0-0
  6
Continuous
 62
     3
370
     9
100
AcDbLine
 10
1055.136324908282
 20
814.8257198849245
 30
0.0
 11
1064.13645357699
 21
814.8257198849245
 31
0.0
  0
LINE
  5
224
330
1F
100
AcDbEntity
  8
0-0
  6
Continuous
 62
     3
370
     9
100
AcDbLine
 10
1076.63637109705
 20
796.0133650496203
 30
0.0
 11
1076.63637109705
 21
806.0131506017742
 31
0.0
  0
LINE
  5
225
330
1F
100
AcDbEntity
  8
0-0
  6
Continuous
 62
     3
370
     9
100
AcDbLine
 10
1064.13645357699
 20
808.5130351298568
 30
0.0
 11
1074.136486568966
 21
808.5130351298568
 31
0.0
  0
LINE
  5
226
330
1F
100
AcDbEntity
  8
0-0
  6
Continuous
 62
     3
370
     9
100
AcDbLine
 10
1076.63637109705
 20
806.0131506017742
 30
0.0
 11
1064.13645357699
 21
806.0131506017742
 31
0.0
  0
LINE
  5
227
330
1F
100
AcDbEntity
  8
0-0
  6
Continuous
 62
     3
370
     9
100
AcDbLine
 10
1064.13645357699
 20
796.0133650496203
 30
0.0
 11
1076.63637109705
 21
796.0133650496203
 31
0.0
  0
LINE
  5
228
330
1F
100
AcDbEntity
  8
0-0
  6
Continuous
 62
     3
370
     9
100
AcDbLine
 10
1064.13645357699
 20
793.5132330817152
 30
0.0
 11
1074.136486568966
 21
793.5132330817152
 31
0.0
  0
LINE
  5
229
330
1F
100
AcDbEntity
  8
0-0
  6
Continuous
 62
     3
370
     9
100
AcDbLine
 10
1014.135051417996
 20
789.7635300095021
 30
0.0
 11
1049.136404089026
 21
789.7635300095021
 31
0.0
  0
LINE
  5
22A
330
1F
100
AcDbEntity
  8
0-0
  6
Continuous
 62
     3
370
     9
100
AcDbLine
 10
1014.135051417996
 20
812.2634805215375
 30
0.0
 11
1049.136404089026
 21
812.2634805215375
 31
0.0
  0
LINE
  5
22B
330
1F
100
AcDbEntity
  8
0-0
  6
Continuous
 62
     3
370
     9
100
AcDbLine
 10
1014.135051417996
 20
808.5130351298568
 30
0.0
 11
1049.136404089026
 21
808.5130351298568
 31
0.0
  0
LINE
  5
22C
330
1F
100
AcDbEntity
  8
0-0
  6
Continuous
 62
     3
370
     9
100
AcDbLine
 10
1049.136404089026
 20
806.0131506017742
 30
0.0
 11
1014.135051417996
 21
806.0131506017742
 31
0.0
  0
LINE
  5
22D
330
1F
100
AcDbEntity
  8
0-0
  6
Continuous
 62
     3
370
     9
100
AcDbLine
 10
1049.136404089026
 20
796.0133650496203
 30
0.0
 11
1014.135051417996
 21
796.0133650496203
 31
0.0
  0
LINE
  5
22E
330
1F
100
AcDbEntity
  8
0-0
  6
Continuous
 62
     3
370
     9
100
AcDbLine
 10
1014.135051417996
 20
793.5132330817152
 30
0.0
 11
1049.136404089026
 21
793.5132330817152
 31
0.0
  0
LINE
  5
22F
330
1F
100
AcDbEntity
  8
0-0
  6
Continuous
 62
     3
370
     9
100
AcDbLine
 10
1049.136404089026
 20
818.5135630014784
 30
0.0
 11
1051.136212735563
 21
818.5135630014784
 31
0.0
  0
LINE
  5
230
330
1F
100
AcDbEntity
  8
0-0
  6
Continuous
 62
     3
370
     9
100
AcDbLine
 10
1110.652418394347
 20
766.2619430954396
 30
0.0
 11
1058.423810391813
 21
769.9925933013096
 31
0.0
  0
LINE
  5
231
330
1F
100
AcDbEntity
  8
0-0
  6
Continuous
 62
     3
370
     9
100
AcDbLine
 10
1045.851393003722
 20
826.4237192514784
 30
0.0
 11
1014.135051417996
 21
830.3882000897386
 31
0.0
  0
LINE
  5
232
330
1F
100
AcDbEntity
  8
0-0
  6
Continuous
 62
     3
370
     9
100
AcDbLine
 10
1049.136404089026
 20
822.7027191986915
 30
0.0
 11
1049.136404089026
 21
779.9668925517318
 31
0.0
  0
LINE
  5
233
330
1F
100
AcDbEntity
  8
0-0
  6
JWW_CENTER1
 62
     3
370
     9
100
AcDbLine
 10
1004.135265865841
 20
801.0133815456086
 30
0.0
 11
1089.136783496754
 21
801.0133815456086
 31
0.0
  0
LINE
  5
234
330
1F
100
AcDbEntity
  8
0-0
  6
Continuous
 62
     3
370
     9
100
AcDbLine
 10
1009.134045162716
 20
334.7632660736915
 30
0.0
 11
1044.134160634634
 21
337.2632743216855
 31
0.0
  0
LINE
  5
235
330
1F
100
AcDbEntity
  8
0-0
  6
Continuous
 62
     3
370
     9
100
AcDbLine
 10
1033.134965638857
 20
342.0132528769008
 30
0.0
 11
1020.134972237252
 21
342.0132528769008
 31
0.0
  0
LINE
  5
236
330
1F
100
AcDbEntity
  8
0-0
  6
Continuous
 62
     3
370
     9
100
AcDbLine
 10
1009.134045162716
 20
333.5132000897386
 30
0.0
 11
1044.134160634634
 21
337.2632743216855
 31
0.0
  0
LINE
  5
237
330
1F
100
AcDbEntity
  8
0-0
  6
Continuous
 62
     3
370
     9
100
AcDbLine
 10
1081.635150393925
 20
-1.48666794235595
 30
0.0
 11
1126.635051417996
 21
36.01333205764405
 31
0.0
  0
LINE
  5
238
330
1F
100
AcDbEntity
  8
0-0
  6
Continuous
 62
     3
370
     9
100
AcDbLine
 10
1068.587153666729
 20
4.078253668708101
 30
0.0
 11
1064.683048145191
 21
-0.8020019531244316
 31
0.0
  0
LINE
  5
239
330
1F
100
AcDbEntity
  8
0-0
  6
Continuous
 62
     3
370
     9
100
AcDbLine
 10
1114.134886458113
 20
-57.20393000422263
 30
0.0
 11
1114.134886458113
 21
-65.49489614125804
 31
0.0
  0
LINE
  5
23A
330
1F
100
AcDbEntity
  8
0-0
  6
Continuous
 62
     3
370
     9
100
AcDbLine
 10
1001.634886458113
 20
-78.98655247043877
 30
0.0
 11
1001.634886458113
 21
-138.9865029824742
 31
0.0
  0
LINE
  5
23B
330
1F
100
AcDbEntity
  8
0-0
  6
Continuous
 62
     3
370
     9
100
AcDbLine
 10
1014.135051417996
 20
-68.98676691828513
 30
0.0
 11
1014.135051417996
 21
-138.9865029824742
 31
0.0
  0
LINE
  5
23C
330
1F
100
AcDbEntity
  8
0-0
  6
Continuous
 62
     3
370
     9
100
AcDbLine
 10
1014.135051417996
 20
-78.98655247043877
 30
0.0
 11
964.1348864581132
 21
-78.98655247043877
 31
0.0
  0
LINE
  5
23D
330
1F
100
AcDbEntity
  8
0-0
  6
Continuous
 62
     3
370
     9
100
AcDbLine
 10
1014.135051417996
 20
-68.98676691828513
 30
0.0
 11
964.1348864581132
 21
-68.98676691828513
 31
0.0
  0
LINE
  5
23E
330
1F
100
AcDbEntity
  8
0-0
  6
Continuous
 62
     3
370
     9
100
AcDbLine
 10
1014.135051417996
 20
-138.9865029824742
 30
0.0
 11
1001.634886458113
 21
-138.9865029824742
 31
0.0
  0
LINE
  5
23F
330
1F
100
AcDbEntity
  8
0-0
  6
Continuous
 62
     3
370
     9
100
AcDbLine
 10
1054.882946529904
 20
-55.88161159206038
 30
0.0
 11
1009.135034922007
 21
-59.3128596125419
 31
0.0
  0
LINE
  5
240
330
1F
100
AcDbEntity
  8
0-0
  6
Continuous
 62
     3
370
     9
100
AcDbLine
 10
1090.114418235985
 20
-50.29120367926481
 30
0.0
 11
1110.955284737252
 21
-53.49752890097079
 31
0.0
  0
LINE
  5
241
330
1F
100
AcDbEntity
  8
0-0
  6
Continuous
 62
     3
370
     9
100
AcDbLine
 10
1009.135034922007
 20
338.5132165857269
 30
0.0
 11
1009.135034922007
 21
-68.98676691828513
 31
0.0
  0
LINE
  5
242
330
1F
100
AcDbEntity
  8
0-0
  6
Continuous
 62
     3
370
     9
100
AcDbLine
 10
1036.635249369854
 20
338.5132165857269
 30
0.0
 11
966.6352658658413
 21
338.5132165857269
 31
0.0
  0
LINE
  5
243
330
1F
100
AcDbEntity
  8
0-0
  6
Continuous
 62
     3
370
     9
100
AcDbLine
 10
1001.634886458113
 20
-93.98660195840336
 30
0.0
 11
964.1348864581132
 21
-93.98660195840336
 31
0.0
  0
LINE
  5
244
330
1F
100
AcDbEntity
  8
0-0
  6
Continuous
 62
     3
370
     9
100
AcDbLine
 10
1001.634886458113
 20
-103.9866349503797
 30
0.0
 11
964.1348864581132
 21
-103.9866349503797
 31
0.0
  0
LINE
  5
245
330
1F
100
AcDbEntity
  8
0-0
  6
Continuous
 62
     3
370
     9
100
AcDbLine
 10
1001.634886458113
 20
-118.9864369985216
 30
0.0
 11
964.1348864581132
 21
-118.9864369985216
 31
0.0
  0
LINE
  5
246
330
1F
100
AcDbEntity
  8
0-0
  6
Continuous
 62
     3
370
     9
100
AcDbLine
 10
1001.634886458113
 20
-128.9864699904979
 30
0.0
 11
964.1348864581132
 21
-128.9864699904979
 31
0.0
  0
LINE
  5
247
330
1F
100
AcDbEntity
  8
0-0
  6
Continuous
 62
     3
370
     9
100
AcDbLine
 10
1051.136212735563
 20
-86.48670093433225
 30
0.0
 11
1051.136212735563
 21
-121.4870638460721
 31
0.0
  0
LINE
  5
248
330
1F
100
AcDbEntity
  8
0-0
  6
Continuous
 62
     3
370
     9
100
AcDbLine
 10
1051.136212735563
 20
-86.48670093433225
 30
0.0
 11
1055.136324908282
 21
-90.17429661106377
 31
0.0
  0
LINE
  5
249
330
1F
100
AcDbEntity
  8
0-0
  6
Continuous
 62
     3
370
     9
100
AcDbLine
 10
1051.136212735563
 20
-121.4870638460721
 30
0.0
 11
1055.136324908282
 21
-117.7992207295182
 31
0.0
  0
LINE
  5
24A
330
1F
100
AcDbEntity
  8
0-0
  6
Continuous
 62
     3
370
     9
100
AcDbLine
 10
1051.136212735563
 20
-97.08058950063304
 30
0.0
 11
1064.13645357699
 21
-97.08058950063304
 31
0.0
  0
LINE
  5
24B
330
1F
100
AcDbEntity
  8
0-0
  6
Continuous
 62
     3
370
     9
100
AcDbLine
 10
1051.136212735563
 20
-110.8931752797716
 30
0.0
 11
1064.13645357699
 21
-110.8931752797716
 31
0.0
  0
LINE
  5
24C
330
1F
100
AcDbEntity
  8
0-0
  6
Continuous
 62
     3
370
     9
100
AcDbLine
 10
1049.136404089026
 20
-86.48670093433225
 30
0.0
 11
1051.136212735563
 21
-86.48670093433225
 31
0.0
  0
LINE
  5
24D
330
1F
100
AcDbEntity
  8
0-0
  6
Continuous
 62
     3
370
     9
100
AcDbLine
 10
1055.136324908282
 20
-90.17429661106377
 30
0.0
 11
1064.13645357699
 21
-90.17429661106377
 31
0.0
  0
LINE
  5
24E
330
1F
100
AcDbEntity
  8
0-0
  6
Continuous
 62
     3
370
     9
100
AcDbLine
 10
1064.13645357699
 20
-90.17429661106377
 30
0.0
 11
1064.13645357699
 21
-117.7992207295182
 31
0.0
  0
LINE
  5
24F
330
1F
100
AcDbEntity
  8
0-0
  6
Continuous
 62
     3
370
     9
100
AcDbLine
 10
1074.136486568966
 20
-96.48673392630855
 30
0.0
 11
1074.136486568966
 21
-111.4865359744505
 31
0.0
  0
LINE
  5
250
330
1F
100
AcDbEntity
  8
0-0
  6
Continuous
 62
     3
370
     9
100
AcDbLine
 10
1074.136486568966
 20
-96.48673392630855
 30
0.0
 11
1076.63637109705
 21
-98.98686589421402
 31
0.0
  0
LINE
  5
251
330
1F
100
AcDbEntity
  8
0-0
  6
Continuous
 62
     3
370
     9
100
AcDbLine
 10
1076.63637109705
 20
-108.9866514463677
 30
0.0
 11
1074.136486568966
 21
-111.4865359744505
 31
0.0
  0
LINE
  5
252
330
1F
100
AcDbEntity
  8
0-0
  6
Continuous
 62
     3
370
     9
100
AcDbLine
 10
1055.136324908282
 20
-117.7992207295182
 30
0.0
 11
1064.13645357699
 21
-117.7992207295182
 31
0.0
  0
LINE
  5
253
330
1F
100
AcDbEntity
  8
0-0
  6
Continuous
 62
     3
370
     9
100
AcDbLine
 10
1076.63637109705
 20
-98.98686589421402
 30
0.0
 11
1076.63637109705
 21
-108.9866514463677
 31
0.0
  0
LINE
  5
254
330
1F
100
AcDbEntity
  8
0-0
  6
Continuous
 62
     3
370
     9
100
AcDbLine
 10
1064.13645357699
 20
-111.4865359744505
 30
0.0
 11
1074.136486568966
 21
-111.4865359744505
 31
0.0
  0
LINE
  5
255
330
1F
100
AcDbEntity
  8
0-0
  6
Continuous
 62
     3
370
     9
100
AcDbLine
 10
1076.63637109705
 20
-108.9866514463677
 30
0.0
 11
1064.13645357699
 21
-108.9866514463677
 31
0.0
  0
LINE
  5
256
330
1F
100
AcDbEntity
  8
0-0
  6
Continuous
 62
     3
370
     9
100
AcDbLine
 10
1064.13645357699
 20
-98.98686589421402
 30
0.0
 11
1076.63637109705
 21
-98.98686589421402
 31
0.0
  0
LINE
  5
257
330
1F
100
AcDbEntity
  8
0-0
  6
Continuous
 62
     3
370
     9
100
AcDbLine
 10
1064.13645357699
 20
-96.48673392630855
 30
0.0
 11
1074.136486568966
 21
-96.48673392630855
 31
0.0
  0
LINE
  5
258
330
1F
100
AcDbEntity
  8
0-0
  6
Continuous
 62
     3
370
     9
100
AcDbLine
 10
1014.135051417996
 20
-92.73703085409579
 30
0.0
 11
1049.136404089026
 21
-92.73703085409579
 31
0.0
  0
LINE
  5
259
330
1F
100
AcDbEntity
  8
0-0
  6
Continuous
 62
     3
370
     9
100
AcDbLine
 10
1014.135051417996
 20
-115.2369813661312
 30
0.0
 11
1049.136404089026
 21
-115.2369813661312
 31
0.0
  0
LINE
  5
25A
330
1F
100
AcDbEntity
  8
0-0
  6
Continuous
 62
     3
370
     9
100
AcDbLine
 10
1014.135051417996
 20
-111.4865359744505
 30
0.0
 11
1049.136404089026
 21
-111.4865359744505
 31
0.0
  0
LINE
  5
25B
330
1F
100
AcDbEntity
  8
0-0
  6
Continuous
 62
     3
370
     9
100
AcDbLine
 10
1049.136404089026
 20
-108.9866514463677
 30
0.0
 11
1014.135051417996
 21
-108.9866514463677
 31
0.0
  0
LINE
  5
25C
330
1F
100
AcDbEntity
  8
0-0
  6
Continuous
 62
     3
370
     9
100
AcDbLine
 10
1049.136404089026
 20
-98.98686589421402
 30
0.0
 11
1014.135051417996
 21
-98.98686589421402
 31
0.0
  0
LINE
  5
25D
330
1F
100
AcDbEntity
  8
0-0
  6
Continuous
 62
     3
370
     9
100
AcDbLine
 10
1014.135051417996
 20
-96.48673392630855
 30
0.0
 11
1049.136404089026
 21
-96.48673392630855
 31
0.0
  0
LINE
  5
25E
330
1F
100
AcDbEntity
  8
0-0
  6
Continuous
 62
     3
370
     9
100
AcDbLine
 10
1049.136404089026
 20
-121.4870638460721
 30
0.0
 11
1051.136212735563
 21
-121.4870638460721
 31
0.0
  0
LINE
  5
25F
330
1F
100
AcDbEntity
  8
0-0
  6
Continuous
 62
     3
370
     9
100
AcDbLine
 10
1110.652418394347
 20
-69.23544394003329
 30
0.0
 11
1058.423810391813
 21
-72.96609414590336
 31
0.0
  0
LINE
  5
260
330
1F
100
AcDbEntity
  8
0-0
  6
Continuous
 62
     3
370
     9
100
AcDbLine
 10
1045.851393003722
 20
-129.3972200960721
 30
0.0
 11
1014.135051417996
 21
-133.3617009343322
 31
0.0
  0
LINE
  5
261
330
1F
100
AcDbEntity
  8
0-0
  6
Continuous
 62
     3
370
     9
100
AcDbLine
 10
1049.136404089026
 20
-125.6762200432851
 30
0.0
 11
1049.136404089026
 21
-82.94039339632548
 31
0.0
  0
LINE
  5
262
330
1F
100
AcDbEntity
  8
0-0
  6
JWW_CENTER1
 62
     3
370
     9
100
AcDbLine
 10
1004.135265865841
 20
-103.9868823902023
 30
0.0
 11
1089.136783496754
 21
-103.9868823902023
 31
0.0
  0
LINE
  5
263
330
1F
100
AcDbEntity
  8
0-0
  6
Continuous
 62
     3
370
     9
100
AcDbLine
 10
1126.635051417996
 20
661.0131670977623
 30
0.0
 11
1126.635051417996
 21
36.01333205764405
 31
0.0
  0
LINE
  5
264
330
1F
100
AcDbEntity
  8
0-F
  6
Continuous
 62
     7
370
     9
100
AcDbLine
 10
954.1348534661372
 20
826.0129691459042
 30
0.0
 11
811.1349260484851
 21
826.0129691459042
 31
0.0
  0
LINE
  5
265
330
1F
100
AcDbEntity
  8
0-F
  6
Continuous
 62
     7
370
     9
100
AcDbLine
 10
814.1348864581132
 20
836.0130021378804
 30
0.0
 11
810.2191512649122
 21
865.7562585779144
 31
0.0
  0
LINE
  5
266
330
1F
100
AcDbEntity
  8
0-F
  6
Continuous
 62
     7
370
     9
100
AcDbLine
 10
814.1348864581132
 20
836.0130021378804
 30
0.0
 11
818.0506216513143
 21
865.7562585779144
 31
0.0
  0
LINE
  5
267
330
1F
100
AcDbEntity
  8
0-F
  6
Continuous
 62
     7
370
     9
100
AcDbLine
 10
954.1348534661372
 20
816.012936153928
 30
0.0
 11
811.1349260484851
 21
816.012936153928
 31
0.0
  0
LINE
  5
268
330
1F
100
AcDbEntity
  8
0-F
  6
Continuous
 62
     7
370
     9
100
AcDbLine
 10
954.1348534661372
 20
801.013134105786
 30
0.0
 11
811.1349260484851
 21
801.013134105786
 31
0.0
  0
LINE
  5
269
330
1F
100
AcDbEntity
  8
0-F
  6
Continuous
 62
     7
370
     9
100
AcDbLine
 10
954.1348534661372
 20
791.0131011138096
 30
0.0
 11
811.1349260484851
 21
791.0131011138096
 31
0.0
  0
LINE
  5
26A
330
1F
100
AcDbEntity
  8
0-F
  6
Continuous
 62
     7
370
     9
100
AcDbLine
 10
954.1348534661372
 20
776.013051625845
 30
0.0
 11
811.1349260484851
 21
776.013051625845
 31
0.0
  0
LINE
  5
26B
330
1F
100
AcDbEntity
  8
0-F
  6
Continuous
 62
     7
370
     9
100
AcDbLine
 10
954.1348534661372
 20
766.0132660736915
 30
0.0
 11
811.1349260484851
 21
766.0132660736915
 31
0.0
  0
LINE
  5
26C
330
1F
100
AcDbEntity
  8
0-F
  6
Continuous
 62
     7
370
     9
100
AcDbLine
 10
814.1348864581132
 20
766.0132660736915
 30
0.0
 11
810.2191512649122
 21
736.2700096336575
 31
0.0
  0
LINE
  5
26D
330
1F
100
AcDbEntity
  8
0-F
  6
Continuous
 62
     7
370
     9
100
AcDbLine
 10
814.1348864581132
 20
766.0132660736915
 30
0.0
 11
818.0506216513143
 21
736.2700096336575
 31
0.0
  0
ARC
  5
26E
330
1F
100
AcDbEntity
  8
0-0
  6
Continuous
 62
     3
370
     9
100
AcDbCircle
 10
1054.135183385901
 20
742.9360384554482
 30
0.0
 40
10.00000012887491
100
AcDbArc
 50
0.0
 51
85.71116638183594
  0
CIRCLE
  5
26F
330
1F
100
AcDbEntity
  8
0-0
  6
Continuous
 62
     3
370
     9
100
AcDbCircle
 10
1026.635216377877
 20
348.5132495777032
 30
0.0
 40
5.000000064437454
  0
ARC
  5
270
330
1F
100
AcDbEntity
  8
0-0
  6
Continuous
 62
     3
370
     9
100
AcDbCircle
 10
1066.634853466137
 20
691.386405326225
 30
0.0
 40
2.500000032218727
100
AcDbArc
 50
0.0
 51
38.66105651855469
  0
ARC
  5
271
330
1F
100
AcDbEntity
  8
0-0
  6
Continuous
 62
     3
370
     9
100
AcDbCircle
 10
1066.635348345782
 20
699.390341269004
 30
0.0
 40
2.500000032218727
100
AcDbArc
 50
180.0
 51
218.6610565185547
  0
ARC
  5
272
330
1F
100
AcDbEntity
  8
0-0
  6
Continuous
 62
     3
370
     9
100
AcDbCircle
 10
1110.385183385901
 20
762.5213952966644
 30
0.0
 40
3.75000004832809
100
AcDbArc
 50
0.0
 51
85.91419982910156
  0
ARC
  5
273
330
1F
100
AcDbEntity
  8
0-0
  6
Continuous
 62
     3
370
     9
100
AcDbCircle
 10
1110.385183385901
 20
754.230429159629
 30
0.0
 40
3.75000004832809
100
AcDbArc
 50
278.7463684082031
 51
0.0
  0
ARC
  5
274
330
1F
100
AcDbEntity
  8
0-0
  6
Continuous
 62
     3
370
     9
100
AcDbCircle
 10
1091.635183385901
 20
737.4339665593334
 30
0.0
 40
10.00000012887491
100
AcDbArc
 50
98.74600219726562
 51
180.0
  0
ARC
  5
275
330
1F
100
AcDbEntity
  8
0-0
  6
Continuous
 62
     3
370
     9
100
AcDbCircle
 10
1059.136437081002
 20
779.9668925517318
 30
0.0
 40
10.00000012887491
100
AcDbArc
 50
180.0
 51
265.9141693115234
  0
ARC
  5
276
330
1F
100
AcDbEntity
  8
0-0
  6
Continuous
 62
     3
370
     9
100
AcDbCircle
 10
1045.38645357699
 20
822.7027191986915
 30
0.0
 40
3.75000004832809
100
AcDbArc
 50
0.0
 51
82.87332153320312
  0
ARC
  5
277
330
1F
100
AcDbEntity
  8
0-0
  6
Continuous
 62
     3
370
     9
100
AcDbCircle
 10
1054.135183385901
 20
-45.9095393000419
 30
0.0
 40
10.00000012887491
100
AcDbArc
 50
274.2888336181641
 51
0.0
  0
ARC
  5
278
330
1F
100
AcDbEntity
  8
0-0
  6
Continuous
 62
     3
370
     9
100
AcDbCircle
 10
1066.634853466137
 20
5.640093829181296
 30
0.0
 40
2.500000032218727
100
AcDbArc
 50
321.3389434814453
 51
0.0000000000000127
  0
ARC
  5
279
330
1F
100
AcDbEntity
  8
0-0
  6
Continuous
 62
     3
370
     9
100
AcDbCircle
 10
1066.635348345782
 20
-2.363842113597627
 30
0.0
 40
2.500000032218727
100
AcDbArc
 50
141.3389434814453
 51
180.0
  0
ARC
  5
27A
330
1F
100
AcDbEntity
  8
0-0
  6
Continuous
 62
     3
370
     9
100
AcDbCircle
 10
1110.385183385901
 20
-65.49489614125804
 30
0.0
 40
3.75000004832809
100
AcDbArc
 50
274.0858001708984
 51
0.0000000000000254
  0
ARC
  5
27B
330
1F
100
AcDbEntity
  8
0-0
  6
Continuous
 62
     3
370
     9
100
AcDbCircle
 10
1110.385183385901
 20
-57.20393000422263
 30
0.0
 40
3.75000004832809
100
AcDbArc
 50
0.0
 51
81.25363159179688
  0
ARC
  5
27C
330
1F
100
AcDbEntity
  8
0-0
  6
Continuous
 62
     3
370
     9
100
AcDbCircle
 10
1091.635183385901
 20
-40.40746740392677
 30
0.0
 40
10.00000012887491
100
AcDbArc
 50
180.0
 51
261.2539978027344
  0
ARC
  5
27D
330
1F
100
AcDbEntity
  8
0-0
  6
Continuous
 62
     3
370
     9
100
AcDbCircle
 10
1059.136437081002
 20
-82.94039339632548
 30
0.0
 40
10.00000012887491
100
AcDbArc
 50
94.08583068847656
 51
180.0
  0
ARC
  5
27E
330
1F
100
AcDbEntity
  8
0-0
  6
Continuous
 62
     3
370
     9
100
AcDbCircle
 10
1045.38645357699
 20
-125.6762200432851
 30
0.0
 40
3.75000004832809
100
AcDbArc
 50
277.1266784667969
 51
0.0000000000000127
  0
TEXT
  5
27F
330
1F
100
AcDbEntity
  8
0-F
  6
Continuous
 62
     2
370
     9
100
AcDbText
 10
803.4948708909927
 20
-125.2367589168233
 30
0.0
 40
30.48
  1
28
 50
90.00000250447789
 41
1.0625
  7
ＭＳ ゴシック
100
AcDbText
  0
TEXT
  5
280
330
1F
100
AcDbEntity
  8
0-F
  6
Continuous
 62
     2
370
     9
100
AcDbText
 10
703.4947879192993
 20
823.7214616939248
 30
0.0
 40
30.48
  1
2
 50
90.00000250448173
 41
1.000000000000001
  7
ＭＳ ゴシック
100
AcDbText
  0
TEXT
  5
281
330
1F
100
AcDbEntity
  8
0-F
  6
Continuous
 62
     2
370
     9
100
AcDbText
 10
703.4947879192993
 20
-146.0026882678046
 30
0.0
 40
30.48
  1
2
 50
90.00000250448173
 41
0.9999999999999998
  7
ＭＳ ゴシック
100
AcDbText
  0
TEXT
  5
282
330
1F
100
AcDbEntity
  8
0-F
  6
Continuous
 62
     2
370
     9
100
AcDbText
 10
988.9387574066986
 20
229.5841247888519
 30
0.0
 40
30.48
  1
40
 41
1.0625
  7
ＭＳ ゴシック
100
AcDbText
  0
TEXT
  5
283
330
1F
100
AcDbEntity
  8
0-F
  6
Continuous
 62
     2
370
     9
100
AcDbText
 10
1133.691820711703
 20
276.9259200142529
 30
0.0
 40
30.48
  1
7
 41
0.9999999999999998
  7
ＭＳ ゴシック
100
AcDbText
  0
TEXT
  5
284
330
1F
100
AcDbEntity
  8
0-F
  6
Continuous
 62
     2
370
     9
100
AcDbText
 10
703.4947879192993
 20
-205.8226263088725
 30
0.0
 40
30.48
  1
3
 50
90.00000250448173
 41
1.000000000000001
  7
ＭＳ ゴシック
100
AcDbText
  0
TEXT
  5
285
330
1F
100
AcDbEntity
  8
0-F
  6
Continuous
 62
     2
370
     9
100
AcDbText
 10
703.4947879192993
 20
882.8486919515262
 30
0.0
 40
30.48
  1
3
 50
90.00000250448173
 41
1.000000000000001
  7
ＭＳ ゴシック
100
AcDbText
  0
TEXT
  5
286
330
1F
100
AcDbEntity
  8
0-F
  6
Continuous
 62
     2
370
     9
100
AcDbText
 10
603.4947064228643
 20
316.0130018913486
 30
0.0
 40
30.48
  1
400
 50
90.00000250447873
 41
1.083333333333333
  7
ＭＳ ゴシック
100
AcDbText
  0
TEXT
  5
287
330
1F
100
AcDbEntity
  8
0-F
  6
Continuous
 62
     2
370
     9
100
AcDbText
 10
703.4947889028045
 20
316.0131256112599
 30
0.0
 40
30.48
  1
390
 50
90.00000250447873
 41
1.083333333333333
  7
ＭＳ ゴシック
100
AcDbText
  0
TEXT
  5
288
330
1F
100
AcDbEntity
  8
0-F
  6
Continuous
 62
     2
370
     9
100
AcDbText
 10
803.4948713827458
 20
316.0132493311712
 30
0.0
 40
30.48
  1
334
 50
90.00000250447873
 41
1.083333333333333
  7
ＭＳ ゴシック
100
AcDbText
  0
TEXT
  5
289
330
1F
100
AcDbEntity
  8
0-F
  6
Continuous
 62
     2
370
     9
100
AcDbText
 10
1151.912027307459
 20
229.5841247888519
 30
0.0
 40
30.48
  1
18
 41
1.0625
  7
ＭＳ ゴシック
100
AcDbText
  0
TEXT
  5
28A
330
1F
100
AcDbEntity
  8
0-F
  6
Continuous
 62
     2
370
     9
100
AcDbText
 10
803.4948703992387
 20
873.1196055653347
 30
0.0
 40
30.48
  1
4
 50
90.00000250447522
 41
1.000000000000001
  7
ＭＳ ゴシック
100
AcDbText
  0
TEXT
  5
28B
330
1F
100
AcDbEntity
  8
0-F
  6
Continuous
 62
     2
370
     9
100
AcDbText
 10
803.4948703992387
 20
811.0129524033837
 30
0.0
 40
30.48
  1
4
 50
90.00000250447522
 41
1.000000000000001
  7
ＭＳ ゴシック
100
AcDbText
  0
TEXT
  5
28C
330
1F
100
AcDbEntity
  8
0-F
  6
Continuous
 62
     2
370
     9
100
AcDbText
 10
764.1942508099243
 20
798.5130348833252
 30
0.0
 40
30.48
  1
6
 50
90.00000250448173
 41
1.000000000000001
  7
ＭＳ ゴシック
100
AcDbText
  0
TEXT
  5
28D
330
1F
100
AcDbEntity
  8
0-F
  6
Continuous
 62
     2
370
     9
100
AcDbText
 10
803.4948703992387
 20
786.0131173632655
 30
0.0
 40
30.48
  1
4
 50
90.00000250447522
 41
1.000000000000001
  7
ＭＳ ゴシック
100
AcDbText
  0
TEXT
  5
28E
330
1F
100
AcDbEntity
  8
0-F
  6
Continuous
 62
     2
370
     9
100
AcDbText
 10
764.1942508099243
 20
773.513199843207
 30
0.0
 40
30.48
  1
6
 50
90.00000250448173
 41
1.000000000000001
  7
ＭＳ ゴシック
100
AcDbText
  0
TEXT
  5
28F
330
1F
100
AcDbEntity
  8
0-F
  6
Continuous
 62
     2
370
     9
100
AcDbText
 10
803.4948703992387
 20
761.0132823231472
 30
0.0
 40
30.48
  1
4
 50
90.00000250447522
 41
1.000000000000001
  7
ＭＳ ゴシック
100
AcDbText
  0
LWPOLYLINE
  5
290
330
1F
100
AcDbEntity
  8
0-F
  6
Continuous
 62
     7
370
     9
100
AcDbPolyline
 90
        4
 70
     1
 43
1.0
 10
714.6348039781726
 20
841.0132660736915
 42
0.4142135623731
 10
714.1348039781726
 20
841.5132660736914
 42
0.4142135623731
 10
713.6348039781727
 20
841.0132660736915
 42
0.4142135623731
 10
714.1348039781726
 20
840.5132660736915
 42
0.4142135623731
  0
LWPOLYLINE
  5
291
330
1F
100
AcDbEntity
  8
0-F
  6
Continuous
 62
     7
370
     9
100
AcDbPolyline
 90
        4
 70
     1
 43
1.0
 10
714.6348039781726
 20
-143.9870143581078
 42
0.4142135623731
 10
714.1348039781726
 20
-143.4870143581078
 42
0.4142135623731
 10
713.6348039781727
 20
-143.9870143581078
 42
0.4142135623731
 10
714.1348039781726
 20
-144.4870143581078
 42
0.4142135623731
  0
LWPOLYLINE
  5
292
330
1F
100
AcDbEntity
  8
0-F
  6
Continuous
 62
     7
370
     9
100
AcDbPolyline
 90
        4
 70
     1
 43
1.0
 10
1082.135150393925
 20
218.9441082928636
 42
0.4142135623731
 10
1081.635150393925
 20
219.4441082928636
 42
0.4142135623731
 10
1081.135150393925
 20
218.9441082928636
 42
0.4142135623731
 10
1081.635150393925
 20
218.4441082928636
 42
0.4142135623731
  0
LWPOLYLINE
  5
293
330
1F
100
AcDbEntity
  8
0-F
  6
Continuous
 62
     7
370
     9
100
AcDbPolyline
 90
        4
 70
     1
 43
1.0
 10
814.6348864581132
 20
826.0129691459042
 42
0.4142135623731
 10
814.1348864581132
 20
826.5129691459042
 42
0.4142135623731
 10
813.6348864581133
 20
826.0129691459042
 42
0.4142135623731
 10
814.1348864581132
 20
825.5129691459042
 42
0.4142135623731
  0
LWPOLYLINE
  5
294
330
1F
100
AcDbEntity
  8
0-F
  6
Continuous
 62
     7
370
     9
100
AcDbPolyline
 90
        4
 70
     1
 43
1.0
 10
814.6348864581132
 20
816.012936153928
 42
0.4142135623731
 10
814.1348864581132
 20
816.5129361539279
 42
0.4142135623731
 10
813.6348864581133
 20
816.012936153928
 42
0.4142135623731
 10
814.1348864581132
 20
815.512936153928
 42
0.4142135623731
  0
LWPOLYLINE
  5
295
330
1F
100
AcDbEntity
  8
0-F
  6
Continuous
 62
     7
370
     9
100
AcDbPolyline
 90
        4
 70
     1
 43
1.0
 10
814.6348864581132
 20
801.013134105786
 42
0.4142135623731
 10
814.1348864581132
 20
801.513134105786
 42
0.4142135623731
 10
813.6348864581133
 20
801.013134105786
 42
0.4142135623731
 10
814.1348864581132
 20
800.513134105786
 42
0.4142135623731
  0
LWPOLYLINE
  5
296
330
1F
100
AcDbEntity
  8
0-F
  6
Continuous
 62
     7
370
     9
100
AcDbPolyline
 90
        4
 70
     1
 43
1.0
 10
814.6348864581132
 20
791.0131011138096
 42
0.4142135623731
 10
814.1348864581132
 20
791.5131011138096
 42
0.4142135623731
 10
813.6348864581133
 20
791.0131011138096
 42
0.4142135623731
 10
814.1348864581132
 20
790.5131011138097
 42
0.4142135623731
  0
LWPOLYLINE
  5
297
330
1F
100
AcDbEntity
  8
0-F
  6
Continuous
 62
     7
370
     9
100
AcDbPolyline
 90
        4
 70
     1
 43
1.0
 10
814.6348864581132
 20
776.013051625845
 42
0.4142135623731
 10
814.1348864581132
 20
776.513051625845
 42
0.4142135623731
 10
813.6348864581133
 20
776.013051625845
 42
0.4142135623731
 10
814.1348864581132
 20
775.5130516258452
 42
0.4142135623731
  0
LINE
  5
298
330
1F
100
AcDbEntity
  8
0-F
  6
Continuous
 62
     7
370
     9
100
AcDbLine
 10
-1760.865319741739
 20
1036.013167097762
 30
0.0
 11
-1731.122063301705
 21
1039.928902290963
 31
0.0
  0
LINE
  5
299
330
1F
100
AcDbEntity
  8
0-F
  6
Continuous
 62
     7
370
     9
100
AcDbLine
 10
-1760.865319741739
 20
1036.013167097762
 30
0.0
 11
-1731.122063301705
 21
1032.097431904561
 31
0.0
  0
LINE
  5
29A
330
1F
100
AcDbEntity
  8
0-F
  6
Continuous
 62
     7
370
     9
100
AcDbLine
 10
-1481.122104541676
 20
1032.097431904561
 30
0.0
 11
-1540.608864861566
 21
1039.928902290963
 31
0.0
  0
LINE
  5
29B
330
1F
100
AcDbEntity
  8
0-F
  6
Continuous
 62
     7
370
     9
100
AcDbLine
 10
-1481.122104541676
 20
1039.928902290963
 30
0.0
 11
-1540.608864861566
 21
1032.097431904561
 31
0.0
  0
LINE
  5
29C
330
1F
100
AcDbEntity
  8
0-F
  6
Continuous
 62
     7
370
     9
100
AcDbLine
 10
18.87789545832476
 20
1032.097431904561
 30
0.0
 11
-40.60861742174296
 21
1039.928902290963
 31
0.0
  0
LINE
  5
29D
330
1F
100
AcDbEntity
  8
0-F
  6
Continuous
 62
     7
370
     9
100
AcDbLine
 10
18.87789545832476
 20
1039.928902290963
 30
0.0
 11
-40.60861742174296
 21
1032.097431904561
 31
0.0
  0
LINE
  5
29E
330
1F
100
AcDbEntity
  8
0-F
  6
Continuous
 62
     7
370
     9
100
AcDbLine
 10
-1760.865319741739
 20
1136.013249577703
 30
0.0
 11
-1731.122063301705
 21
1139.928984770904
 31
0.0
  0
LINE
  5
29F
330
1F
100
AcDbEntity
  8
0-F
  6
Continuous
 62
     7
370
     9
100
AcDbLine
 10
-1760.865319741739
 20
1136.013249577703
 30
0.0
 11
-1731.122063301705
 21
1132.097514384502
 31
0.0
  0
LINE
  5
2A0
330
1F
100
AcDbEntity
  8
0-F
  6
Continuous
 62
     7
370
     9
100
AcDbLine
 10
-1760.865319741739
 20
1036.013167097762
 30
0.0
 11
314.1347214982318
 21
1036.013167097762
 31
0.0
  0
LINE
  5
2A1
330
1F
100
AcDbEntity
  8
0-F
  6
Continuous
 62
     7
370
     9
100
AcDbLine
 10
-1760.865319741739
 20
1136.013249577703
 30
0.0
 11
314.1347214982318
 21
1136.013249577703
 31
0.0
  0
TEXT
  5
2A2
330
1F
100
AcDbEntity
  8
0-F
  6
Continuous
 62
     2
370
     9
100
AcDbText
 10
-1667.11542902766
 20
1046.653183593751
 30
0.0
 40
30.48
  1
100
 41
1.083333333333333
  7
ＭＳ ゴシック
100
AcDbText
  0
TEXT
  5
2A3
330
1F
100
AcDbEntity
  8
0-F
  6
Continuous
 62
     2
370
     9
100
AcDbText
 10
-792.1152949977566
 20
1046.653183593751
 30
0.0
 40
30.48
  1
600
 41
1.083333333333333
  7
ＭＳ ゴシック
100
AcDbText
  0
TEXT
  5
2A4
330
1F
100
AcDbEntity
  8
0-F
  6
Continuous
 62
     2
370
     9
100
AcDbText
 10
249.1347379942201
 20
1046.653183593751
 30
0.0
 40
30.48
  1
600
 41
1.083333333333333
  7
ＭＳ ゴシック
100
AcDbText
  0
TEXT
  5
2A5
330
1F
100
AcDbEntity
  8
0-F
  6
Continuous
 62
     2
370
     9
100
AcDbText
 10
-440.8212300893422
 20
1146.653266073691
 30
0.0
 40
30.48
  1
2000
 41
1.09375
  7
ＭＳ ゴシック
100
AcDbText
  0
LINE
  5
2A6
330
1F
100
AcDbEntity
  8
0-1
  6
JWW_CENTER2
 62
     2
370
     9
100
AcDbLine
 10
-1510.865319741739
 20
925.464273990352
 30
0.0
 11
-1510.865319741739
 21
826.0132834533929
 31
0.0
  0
CIRCLE
  5
2A7
330
1F
100
AcDbEntity
  8
0-1
  6
Continuous
 62
     2
370
     9
100
AcDbCircle
 10
-1510.865319741739
 20
898.5130015487377
 30
0.0
 40
10.62499913009437
  0
LINE
  5
2A8
330
1F
100
AcDbEntity
  8
0-1
  6
JWW_DASHED1
 62
     2
370
     9
100
AcDbLine
 10
-1493.990396035684
 20
850.6483631796821
 30
0.0
 11
-1493.990396035684
 21
923.5131179043683
 31
0.0
  0
LINE
  5
2A9
330
1F
100
AcDbEntity
  8
0-1
  6
Continuous
 62
     2
370
     9
100
AcDbLine
 10
-1488.990372764557
 20
851.0131520746299
 30
0.0
 11
-1492.115294408615
 21
851.0131520746299
 31
0.0
  0
LINE
  5
2AA
330
1F
100
AcDbEntity
  8
0-1
  6
JWW_DASHED1
 62
     2
370
     9
100
AcDbLine
 10
-1527.740243447794
 20
850.6483631796821
 30
0.0
 11
-1527.740243447794
 21
923.5131179043683
 31
0.0
  0
LINE
  5
2AB
330
1F
100
AcDbEntity
  8
0-1
  6
Continuous
 62
     2
370
     9
100
AcDbLine
 10
-1532.740266718921
 20
851.0131520746299
 30
0.0
 11
-1529.615345074864
 21
851.0131520746299
 31
0.0
  0
LINE
  5
2AC
330
1F
100
AcDbEntity
  8
0-1
  6
Continuous
 62
     2
370
     9
100
AcDbLine
 10
-1488.990372764557
 20
851.0131520746299
 30
0.0
 11
-1488.990372764557
 21
923.5131179043683
 31
0.0
  0
LINE
  5
2AD
330
1F
100
AcDbEntity
  8
0-1
  6
Continuous
 62
     2
370
     9
100
AcDbLine
 10
-1510.865319741739
 20
923.5131179043683
 30
0.0
 11
-1488.990372764557
 21
923.5131179043683
 31
0.0
  0
LINE
  5
2AE
330
1F
100
AcDbEntity
  8
0-1
  6
Continuous
 62
     2
370
     9
100
AcDbLine
 10
-1510.865319741739
 20
923.5131179043683
 30
0.0
 11
-1532.740266718921
 21
923.5131179043683
 31
0.0
  0
LINE
  5
2AF
330
1F
100
AcDbEntity
  8
0-1
  6
Continuous
 62
     2
370
     9
100
AcDbLine
 10
-1532.740266718921
 20
851.0131520746299
 30
0.0
 11
-1532.740266718921
 21
923.5131179043683
 31
0.0
  0
LINE
  5
2B0
330
1F
100
AcDbEntity
  8
0-1
  6
JWW_CENTER2
 62
     2
370
     9
100
AcDbLine
 10
-1510.865319741739
 20
898.5130015487377
 30
0.0
 11
-1496.425129658465
 21
898.5130015487377
 31
0.0
  0
LINE
  5
2B1
330
1F
100
AcDbEntity
  8
0-1
  6
JWW_CENTER2
 62
     2
370
     9
100
AcDbLine
 10
-1510.865319741739
 20
898.5130015487377
 30
0.0
 11
-1525.30550982501
 21
898.5130015487377
 31
0.0
  0
ARC
  5
2B2
330
1F
100
AcDbEntity
  8
0-1
  6
Continuous
 62
     2
370
     9
100
AcDbCircle
 10
-1529.615345074864
 20
846.0131288035038
 30
0.0
 40
4.999999562170514
100
AcDbArc
 50
30.00050960355836
 51
89.99999999999999
  0
ARC
  5
2B3
330
1F
100
AcDbEntity
  8
0-1
  6
Continuous
 62
     2
370
     9
100
AcDbCircle
 10
-1492.115294408615
 20
846.0131288035038
 30
0.0
 40
4.999999562170514
100
AcDbArc
 50
90.0
 51
149.9994903964416
  0
LINE
  5
2B4
330
1F
100
AcDbEntity
  8
0-5
  6
Continuous
 62
     7
370
     9
100
AcDbLine
 10
-1505.552820176691
 20
907.7145207105868
 30
0.0
 11
-1495.985734367565
 21
930.811509023369
 31
0.0
  0
LINE
  5
2B5
330
1F
100
AcDbEntity
  8
0-5
  6
Continuous
 62
     7
370
     9
100
AcDbLine
 10
-1505.552820176691
 20
907.7145207105868
 30
0.0
 11
-1490.333784451474
 21
927.5483542178679
 31
0.0
  0
LINE
  5
2B6
330
1F
100
AcDbEntity
  8
0-5
  6
Continuous
 62
     7
370
     9
100
AcDbLine
 10
-1505.552820176691
 20
907.7145207105868
 30
0.0
 11
-1468.150725346344
 21
972.4968492662592
 31
0.0
  0
LINE
  5
2B7
330
1F
100
AcDbEntity
  8
0-5
  6
Continuous
 62
     7
370
     9
100
AcDbLine
 10
-1468.150725346344
 20
972.4968492662592
 30
0.0
 11
-1348.691581856345
 21
972.4968492662592
 31
0.0
  0
TEXT
  5
2B8
330
1F
100
AcDbEntity
  8
0-5
  6
Continuous
 62
     2
370
     9
100
AcDbText
 10
-1463.421153601345
 20
983.1366183224249
 30
0.0
 40
30.48
  1
φ8.5
 41
1.1
  7
ＭＳ ゴシック
100
AcDbText
  0
LINE
  5
2B9
330
1F
100
AcDbEntity
  8
0-F
  6
Continuous
 62
     7
370
     9
100
AcDbLine
 10
-1510.865404555361
 20
945.3290792494361
 30
0.0
 11
-1510.865360981709
 21
1039.013127507391
 31
0.0
  0
LINE
  5
2BA
330
1F
100
AcDbEntity
  8
0-F
  6
Continuous
 62
     7
370
     9
100
AcDbLine
 10
-10.8653609817091
 20
945.3290792494361
 30
0.0
 11
-10.8653609817091
 21
1039.013127507391
 31
0.0
  0
LINE
  5
2BB
330
1F
100
AcDbEntity
  8
0-1
  6
JWW_CENTER2
 62
     2
370
     9
100
AcDbLine
 10
-10.8653609817091
 20
925.464273990352
 30
0.0
 11
-10.8653609817091
 21
826.0132834533929
 31
0.0
  0
CIRCLE
  5
2BC
330
1F
100
AcDbEntity
  8
0-1
  6
Continuous
 62
     2
370
     9
100
AcDbCircle
 10
-10.8653609817091
 20
898.5130015487377
 30
0.0
 40
10.62499913009437
  0
LINE
  5
2BD
330
1F
100
AcDbEntity
  8
0-1
  6
JWW_DASHED1
 62
     2
370
     9
100
AcDbLine
 10
6.009562724345585
 20
850.6483631796821
 30
0.0
 11
6.009562724345585
 21
923.5131179043683
 31
0.0
  0
LINE
  5
2BE
330
1F
100
AcDbEntity
  8
0-1
  6
Continuous
 62
     2
370
     9
100
AcDbLine
 10
11.00958599547283
 20
851.0131520746299
 30
0.0
 11
7.884664351415438
 21
851.0131520746299
 31
0.0
  0
LINE
  5
2BF
330
1F
100
AcDbEntity
  8
0-1
  6
JWW_DASHED1
 62
     2
370
     9
100
AcDbLine
 10
-27.74028468776379
 20
850.6483631796821
 30
0.0
 11
-27.74028468776379
 21
923.5131179043683
 31
0.0
  0
LINE
  5
2C0
330
1F
100
AcDbEntity
  8
0-1
  6
Continuous
 62
     2
370
     9
100
AcDbLine
 10
-32.74030795889104
 20
851.0131520746299
 30
0.0
 11
-29.61538631483364
 21
851.0131520746299
 31
0.0
  0
LINE
  5
2C1
330
1F
100
AcDbEntity
  8
0-1
  6
Continuous
 62
     2
370
     9
100
AcDbLine
 10
11.00958599547283
 20
851.0131520746299
 30
0.0
 11
11.00958599547283
 21
923.5131179043683
 31
0.0
  0
LINE
  5
2C2
330
1F
100
AcDbEntity
  8
0-1
  6
Continuous
 62
     2
370
     9
100
AcDbLine
 10
-10.8653609817091
 20
923.5131179043683
 30
0.0
 11
11.00958599547283
 21
923.5131179043683
 31
0.0
  0
LINE
  5
2C3
330
1F
100
AcDbEntity
  8
0-1
  6
Continuous
 62
     2
370
     9
100
AcDbLine
 10
-10.8653609817091
 20
923.5131179043683
 30
0.0
 11
-32.74030795889104
 21
923.5131179043683
 31
0.0
  0
LINE
  5
2C4
330
1F
100
AcDbEntity
  8
0-1
  6
Continuous
 62
     2
370
     9
100
AcDbLine
 10
-32.74030795889104
 20
851.0131520746299
 30
0.0
 11
-32.74030795889104
 21
923.5131179043683
 31
0.0
  0
LINE
  5
2C5
330
1F
100
AcDbEntity
  8
0-1
  6
JWW_CENTER2
 62
     2
370
     9
100
AcDbLine
 10
-10.8653609817091
 20
898.5130015487377
 30
0.0
 11
3.57482910156449
 21
898.5130015487377
 31
0.0
  0
LINE
  5
2C6
330
1F
100
AcDbEntity
  8
0-1
  6
JWW_CENTER2
 62
     2
370
     9
100
AcDbLine
 10
-10.8653609817091
 20
898.5130015487377
 30
0.0
 11
-25.30555106498042
 21
898.5130015487377
 31
0.0
  0
ARC
  5
2C7
330
1F
100
AcDbEntity
  8
0-1
  6
Continuous
 62
     2
370
     9
100
AcDbCircle
 10
-29.61538631483364
 20
846.0131288035038
 30
0.0
 40
4.999999562170514
100
AcDbArc
 50
30.00050960355836
 51
89.99999999999999
  0
ARC
  5
2C8
330
1F
100
AcDbEntity
  8
0-1
  6
Continuous
 62
     2
370
     9
100
AcDbCircle
 10
7.884664351415438
 20
846.0131288035038
 30
0.0
 40
4.999999562170514
100
AcDbArc
 50
90.0
 51
149.9994903964416
  0
ARC
  5
2C9
330
1F
100
AcDbEntity
  8
0-1
  6
Continuous
 62
     2
370
     9
100
AcDbCircle
 10
-1492.115294408615
 20
-148.9870008078313
 30
0.0
 40
4.999999562170514
100
AcDbArc
 50
210.0005096035584
 51
270.0
  0
ARC
  5
2CA
330
1F
100
AcDbEntity
  8
0-1
  6
Continuous
 62
     2
370
     9
100
AcDbCircle
 10
-1529.615345074864
 20
-148.9870008078313
 30
0.0
 40
4.999999562170514
100
AcDbArc
 50
270.0
 51
329.9994903964416
  0
LINE
  5
2CB
330
1F
100
AcDbEntity
  8
0-1
  6
JWW_CENTER2
 62
     2
370
     9
100
AcDbLine
 10
-1510.865319741739
 20
-201.4868735530652
 30
0.0
 11
-1525.30550982501
 21
-201.4868735530652
 31
0.0
  0
LINE
  5
2CC
330
1F
100
AcDbEntity
  8
0-1
  6
JWW_CENTER2
 62
     2
370
     9
100
AcDbLine
 10
-1510.865319741739
 20
-201.4868735530652
 30
0.0
 11
-1496.425129658465
 21
-201.4868735530652
 31
0.0
  0
LINE
  5
2CD
330
1F
100
AcDbEntity
  8
0-1
  6
Continuous
 62
     2
370
     9
100
AcDbLine
 10
-1532.740266718921
 20
-153.9870240789574
 30
0.0
 11
-1532.740266718921
 21
-226.4869899086958
 31
0.0
  0
LINE
  5
2CE
330
1F
100
AcDbEntity
  8
0-1
  6
Continuous
 62
     2
370
     9
100
AcDbLine
 10
-1510.865319741739
 20
-226.4869899086958
 30
0.0
 11
-1532.740266718921
 21
-226.4869899086958
 31
0.0
  0
LINE
  5
2CF
330
1F
100
AcDbEntity
  8
0-1
  6
Continuous
 62
     2
370
     9
100
AcDbLine
 10
-1510.865319741739
 20
-226.4869899086958
 30
0.0
 11
-1488.990372764557
 21
-226.4869899086958
 31
0.0
  0
LINE
  5
2D0
330
1F
100
AcDbEntity
  8
0-1
  6
Continuous
 62
     2
370
     9
100
AcDbLine
 10
-1488.990372764557
 20
-153.9870240789574
 30
0.0
 11
-1488.990372764557
 21
-226.4869899086958
 31
0.0
  0
LINE
  5
2D1
330
1F
100
AcDbEntity
  8
0-1
  6
Continuous
 62
     2
370
     9
100
AcDbLine
 10
-1532.740266718921
 20
-153.9870240789574
 30
0.0
 11
-1529.615345074864
 21
-153.9870240789574
 31
0.0
  0
LINE
  5
2D2
330
1F
100
AcDbEntity
  8
0-1
  6
JWW_DASHED1
 62
     2
370
     9
100
AcDbLine
 10
-1527.740243447794
 20
-153.6222351840095
 30
0.0
 11
-1527.740243447794
 21
-226.4869899086958
 31
0.0
  0
LINE
  5
2D3
330
1F
100
AcDbEntity
  8
0-1
  6
Continuous
 62
     2
370
     9
100
AcDbLine
 10
-1488.990372764557
 20
-153.9870240789574
 30
0.0
 11
-1492.115294408615
 21
-153.9870240789574
 31
0.0
  0
LINE
  5
2D4
330
1F
100
AcDbEntity
  8
0-1
  6
JWW_DASHED1
 62
     2
370
     9
100
AcDbLine
 10
-1493.990396035684
 20
-153.6222351840095
 30
0.0
 11
-1493.990396035684
 21
-226.4869899086958
 31
0.0
  0
CIRCLE
  5
2D5
330
1F
100
AcDbEntity
  8
0-1
  6
Continuous
 62
     2
370
     9
100
AcDbCircle
 10
-1510.865319741739
 20
-201.4868735530652
 30
0.0
 40
10.62499913009437
  0
LINE
  5
2D6
330
1F
100
AcDbEntity
  8
0-1
  6
JWW_CENTER2
 62
     2
370
     9
100
AcDbLine
 10
-1510.865319741739
 20
-228.4381459946795
 30
0.0
 11
-1510.865319741739
 21
-128.9871554577203
 31
0.0
  0
ARC
  5
2D7
330
1F
100
AcDbEntity
  8
0-1
  6
Continuous
 62
     2
370
     9
100
AcDbCircle
 10
7.884664351415438
 20
-148.9870008078313
 30
0.0
 40
4.999999562170514
100
AcDbArc
 50
210.0005096035584
 51
270.0
  0
ARC
  5
2D8
330
1F
100
AcDbEntity
  8
0-1
  6
Continuous
 62
     2
370
     9
100
AcDbCircle
 10
-29.61538631483364
 20
-148.9870008078313
 30
0.0
 40
4.999999562170514
100
AcDbArc
 50
270.0
 51
329.9994903964416
  0
LINE
  5
2D9
330
1F
100
AcDbEntity
  8
0-1
  6
JWW_CENTER2
 62
     2
370
     9
100
AcDbLine
 10
-10.8653609817091
 20
-201.4868735530652
 30
0.0
 11
-25.30555106498042
 21
-201.4868735530652
 31
0.0
  0
LINE
  5
2DA
330
1F
100
AcDbEntity
  8
0-1
  6
JWW_CENTER2
 62
     2
370
     9
100
AcDbLine
 10
-10.8653609817091
 20
-201.4868735530652
 30
0.0
 11
3.57482910156449
 21
-201.4868735530652
 31
0.0
  0
LINE
  5
2DB
330
1F
100
AcDbEntity
  8
0-1
  6
Continuous
 62
     2
370
     9
100
AcDbLine
 10
-32.74030795889104
 20
-153.9870240789574
 30
0.0
 11
-32.74030795889104
 21
-226.4869899086958
 31
0.0
  0
LINE
  5
2DC
330
1F
100
AcDbEntity
  8
0-1
  6
Continuous
 62
     2
370
     9
100
AcDbLine
 10
-10.8653609817091
 20
-226.4869899086958
 30
0.0
 11
-32.74030795889104
 21
-226.4869899086958
 31
0.0
  0
LINE
  5
2DD
330
1F
100
AcDbEntity
  8
0-1
  6
Continuous
 62
     2
370
     9
100
AcDbLine
 10
-10.8653609817091
 20
-226.4869899086958
 30
0.0
 11
11.00958599547283
 21
-226.4869899086958
 31
0.0
  0
LINE
  5
2DE
330
1F
100
AcDbEntity
  8
0-1
  6
Continuous
 62
     2
370
     9
100
AcDbLine
 10
11.00958599547283
 20
-153.9870240789574
 30
0.0
 11
11.00958599547283
 21
-226.4869899086958
 31
0.0
  0
LINE
  5
2DF
330
1F
100
AcDbEntity
  8
0-1
  6
Continuous
 62
     2
370
     9
100
AcDbLine
 10
-32.74030795889104
 20
-153.9870240789574
 30
0.0
 11
-29.61538631483364
 21
-153.9870240789574
 31
0.0
  0
LINE
  5
2E0
330
1F
100
AcDbEntity
  8
0-1
  6
JWW_DASHED1
 62
     2
370
     9
100
AcDbLine
 10
-27.74028468776379
 20
-153.6222351840095
 30
0.0
 11
-27.74028468776379
 21
-226.4869899086958
 31
0.0
  0
LINE
  5
2E1
330
1F
100
AcDbEntity
  8
0-1
  6
Continuous
 62
     2
370
     9
100
AcDbLine
 10
11.00958599547283
 20
-153.9870240789574
 30
0.0
 11
7.884664351415438
 21
-153.9870240789574
 31
0.0
  0
LINE
  5
2E2
330
1F
100
AcDbEntity
  8
0-1
  6
JWW_DASHED1
 62
     2
370
     9
100
AcDbLine
 10
6.009562724345585
 20
-153.6222351840095
 30
0.0
 11
6.009562724345585
 21
-226.4869899086958
 31
0.0
  0
CIRCLE
  5
2E3
330
1F
100
AcDbEntity
  8
0-1
  6
Continuous
 62
     2
370
     9
100
AcDbCircle
 10
-10.8653609817091
 20
-201.4868735530652
 30
0.0
 40
10.62499913009437
  0
LINE
  5
2E4
330
1F
100
AcDbEntity
  8
0-1
  6
JWW_CENTER2
 62
     2
370
     9
100
AcDbLine
 10
-10.8653609817091
 20
-228.4381459946795
 30
0.0
 11
-10.8653609817091
 21
-128.9871554577203
 31
0.0
  0
LINE
  5
2E5
330
1F
100
AcDbEntity
  8
0-1
  6
Continuous
 62
     2
370
     9
100
AcDbLine
 10
1121.634886458113
 20
841.0132660736915
 30
0.0
 11
964.1348864581132
 21
841.0132660736915
 31
0.0
  0
LINE
  5
2E6
330
1F
100
AcDbEntity
  8
0-1
  6
Continuous
 62
     2
370
     9
100
AcDbLine
 10
1129.134787482184
 20
723.5130021378804
 30
0.0
 11
1121.634886458113
 21
723.5130021378804
 31
0.0
  0
LINE
  5
2E7
330
1F
100
AcDbEntity
  8
0-1
  6
Continuous
 62
     2
370
     9
100
AcDbLine
 10
1121.634886458113
 20
-143.9870143581078
 30
0.0
 11
964.1348864581132
 21
-143.9870143581078
 31
0.0
  0
LINE
  5
2E8
330
1F
100
AcDbEntity
  8
0-1
  6
Continuous
 62
     2
370
     9
100
AcDbLine
 10
1129.134787482184
 20
-26.48687414220802
 30
0.0
 11
1121.634886458113
 21
-26.48687414220802
 31
0.0
  0
LINE
  5
2E9
330
1F
100
AcDbEntity
  8
0-1
  6
Continuous
 62
     2
370
     9
100
AcDbLine
 10
1121.634886458113
 20
-143.9870143581078
 30
0.0
 11
1121.634886458113
 21
-26.48687414220802
 31
0.0
  0
LINE
  5
2EA
330
1F
100
AcDbEntity
  8
0-1
  6
Continuous
 62
     2
370
     9
100
AcDbLine
 10
1121.634886458113
 20
841.0132660736915
 30
0.0
 11
1121.634886458113
 21
723.5130021378804
 31
0.0
  0
LINE
  5
2EB
330
1F
100
AcDbEntity
  8
0-1
  6
Continuous
 62
     2
370
     9
100
AcDbLine
 10
1121.634886458113
 20
-151.4870391020898
 30
0.0
 11
964.1348864581132
 21
-151.4870391020898
 31
0.0
  0
LINE
  5
2EC
330
1F
100
AcDbEntity
  8
0-1
  6
Continuous
 62
     2
370
     9
100
AcDbLine
 10
1121.634886458113
 20
848.5131670977623
 30
0.0
 11
964.1348864581132
 21
848.5131670977623
 31
0.0
  0
ARC
  5
2ED
330
1F
100
AcDbEntity
  8
0-1
  6
Continuous
 62
     2
370
     9
100
AcDbCircle
 10
1121.634886458113
 20
841.0132660736915
 30
0.0
 40
7.500000096656181
100
AcDbArc
 50
0.0
 51
90.0
  0
ARC
  5
2EE
330
1F
100
AcDbEntity
  8
0-1
  6
Continuous
 62
     2
370
     9
100
AcDbCircle
 10
1121.634886458113
 20
-143.9870143581078
 30
0.0
 40
7.500000096656181
100
AcDbArc
 50
270.0
 51
0.0
  0
LINE
  5
2EF
330
1F
100
AcDbEntity
  8
0-1
  6
Continuous
 62
     2
370
     9
100
AcDbLine
 10
1129.134787482184
 20
841.0518157686857
 30
0.0
 11
1129.134787482184
 21
723.5130021378804
 31
0.0
  0
LINE
  5
2F0
330
1F
100
AcDbEntity
  8
0-1
  6
Continuous
 62
     2
370
     9
100
AcDbLine
 10
1129.134787482184
 20
-143.9870143581078
 30
0.0
 11
1129.134787482184
 21
-26.48687414220802
 31
0.0
  0
LINE
  5
2F1
330
1F
100
AcDbEntity
  8
0-6
  6
Continuous
 62
     6
370
     9
100
AcDbLine
 10
1114.134391578468
 20
732.2630021378804
 30
0.0
 11
1121.634391578468
 21
732.2630021378804
 31
0.0
  0
LINE
  5
2F2
330
1F
100
AcDbEntity
  8
0-6
  6
Continuous
 62
     6
370
     9
100
AcDbLine
 10
1114.134391578468
 20
826.4744475927673
 30
0.0
 11
1119.922946123581
 21
832.26300213788
 31
0.0
  0
LINE
  5
2F3
330
1F
100
AcDbEntity
  8
0-6
  6
Continuous
 62
     6
370
     9
100
AcDbLine
 10
1114.134391578469
 20
812.3323119690351
 30
0.0
 11
1121.634391578469
 21
819.8323119690358
 31
0.0
  0
LINE
  5
2F4
330
1F
100
AcDbEntity
  8
0-6
  6
Continuous
 62
     6
370
     9
100
AcDbLine
 10
1114.134391578466
 20
798.1901763452995
 30
0.0
 11
1121.634391578466
 21
805.6901763452995
 31
0.0
  0
LINE
  5
2F5
330
1F
100
AcDbEntity
  8
0-6
  6
Continuous
 62
     6
370
     9
100
AcDbLine
 10
1114.134391578468
 20
784.048040721568
 30
0.0
 11
1121.634391578468
 21
791.548040721568
 31
0.0
  0
LINE
  5
2F6
330
1F
100
AcDbEntity
  8
0-6
  6
Continuous
 62
     6
370
     9
100
AcDbLine
 10
1114.134391578466
 20
769.9059050978328
 30
0.0
 11
1121.634391578468
 21
777.4059050978335
 31
0.0
  0
LINE
  5
2F7
330
1F
100
AcDbEntity
  8
0-6
  6
Continuous
 62
     6
370
     9
100
AcDbLine
 10
1114.134391578468
 20
755.7637694741006
 30
0.0
 11
1121.634391578463
 21
763.2637694740961
 31
0.0
  0
LINE
  5
2F8
330
1F
100
AcDbEntity
  8
0-6
  6
Continuous
 62
     6
370
     9
100
AcDbLine
 10
1114.134391578466
 20
741.6216338503828
 30
0.0
 11
1121.634391578466
 21
749.1216338503832
 31
0.0
  0
LINE
  5
2F9
330
1F
100
AcDbEntity
  8
0-6
  6
Continuous
 62
     6
370
     9
100
AcDbLine
 10
1118.917895489697
 20
732.2630021378816
 30
0.0
 11
1121.634391578466
 21
734.979498226651
 31
0.0
  0
LINE
  5
2FA
330
1F
100
AcDbEntity
  8
0-6
  6
Continuous
 62
     6
370
     9
100
AcDbLine
 10
1114.134391578468
 20
832.2630021378804
 30
0.0
 11
1114.134391578468
 21
732.2630021378804
 31
0.0
  0
LINE
  5
2FB
330
1F
100
AcDbEntity
  8
0-6
  6
Continuous
 62
     6
370
     9
100
AcDbLine
 10
1121.634391578468
 20
832.2630021378804
 30
0.0
 11
1114.134391578468
 21
832.2630021378804
 31
0.0
  0
LINE
  5
2FC
330
1F
100
AcDbEntity
  8
0-6
  6
Continuous
 62
     6
370
     9
100
AcDbLine
 10
1121.634391578468
 20
732.2630021378804
 30
0.0
 11
1121.634391578468
 21
832.2630021378804
 31
0.0
  0
LINE
  5
2FD
330
1F
100
AcDbEntity
  8
0-6
  6
Continuous
 62
     6
370
     9
100
AcDbLine
 10
1114.134391578468
 20
-135.236874142208
 30
0.0
 11
1121.634391578468
 21
-135.236874142208
 31
0.0
  0
LINE
  5
2FE
330
1F
100
AcDbEntity
  8
0-6
  6
Continuous
 62
     6
370
     9
100
AcDbLine
 10
1114.134391578468
 20
-41.02542868732115
 30
0.0
 11
1119.922946123581
 21
-35.23687414220802
 31
0.0
  0
LINE
  5
2FF
330
1F
100
AcDbEntity
  8
0-6
  6
Continuous
 62
     6
370
     9
100
AcDbLine
 10
1114.134391578469
 20
-55.16756431105335
 30
0.0
 11
1121.634391578469
 21
-47.66756431105222
 31
0.0
  0
LINE
  5
300
330
1F
100
AcDbEntity
  8
0-6
  6
Continuous
 62
     6
370
     9
100
AcDbLine
 10
1114.134391578466
 20
-69.30969993478897
 30
0.0
 11
1121.634391578466
 21
-61.8096999347884
 31
0.0
  0
LINE
  5
301
330
1F
100
AcDbEntity
  8
0-6
  6
Continuous
 62
     6
370
     9
100
AcDbLine
 10
1114.134391578468
 20
-83.4518355585206
 30
0.0
 11
1121.634391578468
 21
-75.95183555852003
 31
0.0
  0
LINE
  5
302
330
1F
100
AcDbEntity
  8
0-6
  6
Continuous
 62
     6
370
     9
100
AcDbLine
 10
1114.134391578466
 20
-97.59397118225507
 30
0.0
 11
1121.634391578468
 21
-90.0939711822545
 31
0.0
  0
LINE
  5
303
330
1F
100
AcDbEntity
  8
0-6
  6
Continuous
 62
     6
370
     9
100
AcDbLine
 10
1114.134391578468
 20
-111.7361068059873
 30
0.0
 11
1121.634391578463
 21
-104.2361068059918
 31
0.0
  0
LINE
  5
304
330
1F
100
AcDbEntity
  8
0-6
  6
Continuous
 62
     6
370
     9
100
AcDbLine
 10
1114.134391578466
 20
-125.8782424297053
 30
0.0
 11
1121.634391578466
 21
-118.3782424297047
 31
0.0
  0
LINE
  5
305
330
1F
100
AcDbEntity
  8
0-6
  6
Continuous
 62
     6
370
     9
100
AcDbLine
 10
1118.917895489697
 20
-135.2368741422063
 30
0.0
 11
1121.634391578466
 21
-132.5203780534369
 31
0.0
  0
LINE
  5
306
330
1F
100
AcDbEntity
  8
0-6
  6
Continuous
 62
     6
370
     9
100
AcDbLine
 10
1114.134391578468
 20
-35.23687414220802
 30
0.0
 11
1114.134391578468
 21
-135.236874142208
 31
0.0
  0
LINE
  5
307
330
1F
100
AcDbEntity
  8
0-6
  6
Continuous
 62
     6
370
     9
100
AcDbLine
 10
1121.634391578468
 20
-35.23687414220802
 30
0.0
 11
1114.134391578468
 21
-35.23687414220802
 31
0.0
  0
LINE
  5
308
330
1F
100
AcDbEntity
  8
0-6
  6
Continuous
 62
     6
370
     9
100
AcDbLine
 10
1121.634391578468
 20
-135.236874142208
 30
0.0
 11
1121.634391578468
 21
-35.23687414220802
 31
0.0
  0
TEXT
  5
309
330
1F
100
AcDbEntity
  8
0-4
  6
Continuous
 62
     2
370
   211
100
AcDbText
 10
1337.494424570446
 20
864.7631009665233
 30
0.0
 40
30.48
  1
30
 50
90.0
 41
1.0625
  7
ＭＳ ゴシック
100
AcDbText
  0
LINE
  5
30A
330
1F
100
AcDbEntity
  8
0-4
  6
Continuous
 62
     7
370
     9
100
AcDbLine
 10
1352.134424570445
 20
923.5130348352848
 30
0.0
 11
1150.384111146669
 21
923.5130348352848
 31
0.0
  0
LINE
  5
30B
330
1F
100
AcDbEntity
  8
0-4
  6
Continuous
 62
     7
370
     9
100
AcDbLine
 10
1349.134424570445
 20
848.5131670977617
 30
0.0
 11
1345.871269764944
 21
873.2992886321072
 31
0.0
  0
LINE
  5
30C
330
1F
100
AcDbEntity
  8
0-4
  6
Continuous
 62
     7
370
     9
100
AcDbLine
 10
1349.134424570445
 20
848.5131670977617
 30
0.0
 11
1352.397579375947
 21
873.2992886321072
 31
0.0
  0
LINE
  5
30D
330
1F
100
AcDbEntity
  8
0-4
  6
Continuous
 62
     7
370
     9
100
AcDbLine
 10
1349.134424570445
 20
923.5130348352848
 30
0.0
 11
1345.871269764944
 21
898.7269133009395
 31
0.0
  0
LINE
  5
30E
330
1F
100
AcDbEntity
  8
0-4
  6
Continuous
 62
     7
370
     9
100
AcDbLine
 10
1349.134424570445
 20
923.5130348352848
 30
0.0
 11
1352.397579375947
 21
898.7269133009395
 31
0.0
  0
LINE
  5
30F
330
1F
100
AcDbEntity
  8
0-4
  6
Continuous
 62
     7
370
     9
100
AcDbLine
 10
1349.134424570445
 20
923.5130348352848
 30
0.0
 11
1349.134424570445
 21
848.5131670977617
 31
0.0
  0
LINE
  5
310
330
1F
100
AcDbEntity
  8
0-4
  6
Continuous
 62
     7
370
     9
100
AcDbLine
 10
1349.134424570445
 20
-151.4871628220018
 30
0.0
 11
1349.134424570445
 21
848.5131670977617
 31
0.0
  0
TEXT
  5
311
330
1F
100
AcDbEntity
  8
0-4
  6
Continuous
 62
     2
370
     9
100
AcDbText
 10
1338.494408074456
 20
-110.2370803420606
 30
0.0
 40
30.48
  1
50
 50
90.0
 41
1.0625
  7
ＭＳ ゴシック
100
AcDbText
  0
TEXT
  5
312
330
1F
100
AcDbEntity
  8
0-4
  6
Continuous
 62
     2
370
     9
100
AcDbText
 10
1338.494408074456
 20
764.763084617821
 30
0.0
 40
30.48
  1
50
 50
90.0
 41
1.0625
  7
ＭＳ ゴシック
100
AcDbText
  0
LINE
  5
313
330
1F
100
AcDbEntity
  8
0-4
  6
Continuous
 62
     7
370
     9
100
AcDbLine
 10
1349.134424570445
 20
-151.4871628220018
 30
0.0
 11
1353.050159763646
 21
-121.7439063819679
 31
0.0
  0
LINE
  5
314
330
1F
100
AcDbEntity
  8
0-4
  6
Continuous
 62
     7
370
     9
100
AcDbLine
 10
1349.134424570445
 20
-151.4871628220018
 30
0.0
 11
1345.218689377244
 21
-121.7439063819679
 31
0.0
  0
LINE
  5
315
330
1F
100
AcDbEntity
  8
0-4
  6
Continuous
 62
     7
370
     9
100
AcDbLine
 10
1345.218689377244
 20
-56.23025430215328
 30
0.0
 11
1353.050159763646
 21
3.256258577913869
 31
0.0
  0
LINE
  5
316
330
1F
100
AcDbEntity
  8
0-4
  6
Continuous
 62
     7
370
     9
100
AcDbLine
 10
1353.050159763646
 20
-56.23025430215328
 30
0.0
 11
1345.218689377244
 21
3.256258577913869
 31
0.0
  0
LINE
  5
317
330
1F
100
AcDbEntity
  8
0-4
  6
Continuous
 62
     7
370
     9
100
AcDbLine
 10
1141.634853466137
 20
-26.48699786211999
 30
0.0
 11
1352.134384980073
 21
-26.48699786211999
 31
0.0
  0
LINE
  5
318
330
1F
100
AcDbEntity
  8
0-4
  6
Continuous
 62
     7
370
     9
100
AcDbLine
 10
1349.134424570445
 20
848.5131670977617
 30
0.0
 11
1353.050159763646
 21
818.7699106577284
 31
0.0
  0
LINE
  5
319
330
1F
100
AcDbEntity
  8
0-4
  6
Continuous
 62
     7
370
     9
100
AcDbLine
 10
1349.134424570445
 20
848.5131670977617
 30
0.0
 11
1345.218689377244
 21
818.7699106577284
 31
0.0
  0
LINE
  5
31A
330
1F
100
AcDbEntity
  8
0-4
  6
Continuous
 62
     7
370
     9
100
AcDbLine
 10
1345.218689377244
 20
753.2562585779137
 30
0.0
 11
1353.050159763646
 21
693.7697456978467
 31
0.0
  0
LINE
  5
31B
330
1F
100
AcDbEntity
  8
0-4
  6
Continuous
 62
     7
370
     9
100
AcDbLine
 10
1353.050159763646
 20
753.2562585779137
 30
0.0
 11
1345.218689377244
 21
693.7697456978467
 31
0.0
  0
LINE
  5
31C
330
1F
100
AcDbEntity
  8
0-4
  6
Continuous
 62
     7
370
     9
100
AcDbLine
 10
1141.634853466137
 20
723.5130021378804
 30
0.0
 11
1352.134384980073
 21
723.5130021378804
 31
0.0
  0
LINE
  5
31D
330
1F
100
AcDbEntity
  8
0-4
  6
Continuous
 62
     7
370
     9
100
AcDbLine
 10
1349.134424570445
 20
-151.4871628220018
 30
0.0
 11
1349.134424570445
 21
-226.4871205567854
 31
0.0
  0
LINE
  5
31E
330
1F
100
AcDbEntity
  8
0-4
  6
Continuous
 62
     7
370
     9
100
AcDbLine
 10
1349.134424570445
 20
-151.4871628220018
 30
0.0
 11
1352.397579375947
 21
-176.2732843563472
 31
0.0
  0
LINE
  5
31F
330
1F
100
AcDbEntity
  8
0-4
  6
Continuous
 62
     7
370
     9
100
AcDbLine
 10
1349.134424570445
 20
-151.4871628220018
 30
0.0
 11
1345.871269764944
 21
-176.2732843563472
 31
0.0
  0
LINE
  5
320
330
1F
100
AcDbEntity
  8
0-4
  6
Continuous
 62
     7
370
     9
100
AcDbLine
 10
1349.134424570445
 20
-226.4871205567854
 30
0.0
 11
1352.397579375947
 21
-201.7009990224406
 31
0.0
  0
LINE
  5
321
330
1F
100
AcDbEntity
  8
0-4
  6
Continuous
 62
     7
370
     9
100
AcDbLine
 10
1349.134424570445
 20
-226.4871205567854
 30
0.0
 11
1345.871269764944
 21
-201.7009990224406
 31
0.0
  0
LINE
  5
322
330
1F
100
AcDbEntity
  8
0-4
  6
Continuous
 62
     7
370
     9
100
AcDbLine
 10
1352.134424570445
 20
-226.4871205567854
 30
0.0
 11
1157.384094179367
 21
-226.4871205567854
 31
0.0
  0
TEXT
  5
323
330
1F
100
AcDbEntity
  8
0-4
  6
Continuous
 62
     2
370
   211
100
AcDbText
 10
1337.494424570446
 20
-210.2371416893939
 30
0.0
 40
30.48
  1
30
 50
90.0
 41
1.0625
  7
ＭＳ ゴシック
100
AcDbText
  0
LINE
  5
324
330
1F
100
AcDbEntity
  8
0-4
  6
Continuous
 62
     7
370
     9
100
AcDbLine
 10
1157.384094179367
 20
-151.4871628220018
 30
0.0
 11
1352.134384980073
 21
-151.4871628220018
 31
0.0
  0
LINE
  5
325
330
1F
100
AcDbEntity
  8
0-4
  6
Continuous
 62
     7
370
     9
100
AcDbLine
 10
1150.384111146669
 20
848.5131670977617
 30
0.0
 11
1352.134384980073
 21
848.5131670977617
 31
0.0
  0
TEXT
  5
326
330
1F
100
AcDbEntity
  8
0-4
  6
Continuous
 62
     2
370
     9
100
AcDbText
 10
1338.494408074456
 20
316.0132495777032
 30
0.0
 40
30.48
  1
300
 50
90.0
 41
1.083333333333332
  7
ＭＳ ゴシック
100
AcDbText
  0
LINE
  5
327
330
1F
100
AcDbEntity
  8
0-1
  6
Continuous
 62
     2
370
     9
100
AcDbLine
 10
1135.384134417795
 20
826.0131665086194
 30
0.0
 11
1140.384778203191
 21
826.0131665086194
 31
0.0
  0
LINE
  5
328
330
1F
100
AcDbEntity
  8
0-1
  6
Continuous
 62
     2
370
     9
100
AcDbLine
 10
1129.134787482184
 20
826.0131665086194
 30
0.0
 11
1130.384111146669
 21
826.0131665086194
 31
0.0
  0
LINE
  5
329
330
1F
100
AcDbEntity
  8
0-1
  6
Continuous
 62
     2
370
     9
100
AcDbLine
 10
1140.384778203191
 20
826.0131665086194
 30
0.0
 11
1140.384778203191
 21
776.0130015487382
 31
0.0
  0
LINE
  5
32A
330
1F
100
AcDbEntity
  8
0-1
  6
JWW_DASHED1
 62
     2
370
     9
100
AcDbLine
 10
1140.384157688921
 20
806.6380173082987
 30
0.0
 11
1135.384134417795
 21
806.6380173082987
 31
0.0
  0
LINE
  5
32B
330
1F
100
AcDbEntity
  8
0-1
  6
JWW_DASHED1
 62
     2
370
     9
100
AcDbLine
 10
1134.884082543803
 20
806.6380173082987
 30
0.0
 11
1130.384111146669
 21
811.0128828365375
 31
0.0
  0
LINE
  5
32C
330
1F
100
AcDbEntity
  8
0-1
  6
JWW_DASHED1
 62
     2
370
     9
100
AcDbLine
 10
1134.884082543803
 20
806.6380173082987
 30
0.0
 11
1135.384258284992
 21
806.6380173082987
 31
0.0
  0
LINE
  5
32D
330
1F
100
AcDbEntity
  8
0-1
  6
JWW_DASHED1
 62
     2
370
     9
100
AcDbLine
 10
1134.884082543803
 20
795.3880268818627
 30
0.0
 11
1135.384258284992
 21
795.3880268818627
 31
0.0
  0
LINE
  5
32E
330
1F
100
AcDbEntity
  8
0-1
  6
JWW_DASHED1
 62
     2
370
     9
100
AcDbLine
 10
1134.884082543803
 20
806.6380173082987
 30
0.0
 11
1134.884082543803
 21
795.3880268818627
 31
0.0
  0
LINE
  5
32F
330
1F
100
AcDbEntity
  8
0-1
  6
JWW_DASHED1
 62
     2
370
     9
100
AcDbLine
 10
1140.384157688921
 20
795.3880268818627
 30
0.0
 11
1135.384134417795
 21
795.3880268818627
 31
0.0
  0
LINE
  5
330
330
1F
100
AcDbEntity
  8
0-1
  6
JWW_DASHED1
 62
     2
370
     9
100
AcDbLine
 10
1134.884082543803
 20
795.3880268818627
 30
0.0
 11
1130.384111146669
 21
791.0132852208201
 31
0.0
  0
LINE
  5
331
330
1F
100
AcDbEntity
  8
0-1
  6
Continuous
 62
     2
370
     9
100
AcDbLine
 10
1130.384111146669
 20
776.0129676730483
 30
0.0
 11
1135.384134417795
 21
776.0129676730483
 31
0.0
  0
LINE
  5
332
330
1F
100
AcDbEntity
  8
0-1
  6
Continuous
 62
     2
370
     9
100
AcDbLine
 10
1135.384134417795
 20
851.0255795924356
 30
0.0
 11
1135.384134417795
 21
776.0129676730483
 31
0.0
  0
LINE
  5
333
330
1F
100
AcDbEntity
  8
0-1
  6
Continuous
 62
     2
370
     9
100
AcDbLine
 10
1130.384111146669
 20
923.5130348352848
 30
0.0
 11
1130.384111146669
 21
776.0129676730483
 31
0.0
  0
ARC
  5
334
330
1F
100
AcDbEntity
  8
0-1
  6
Continuous
 62
     2
370
     9
100
AcDbCircle
 10
1137.384094179367
 20
858.513103912235
 30
0.0
 40
7.500001036752605
100
AcDbArc
 50
270.0
 51
0.0
  0
ARC
  5
335
330
1F
100
AcDbEntity
  8
0-1
  6
Continuous
 62
     2
370
     9
100
AcDbCircle
 10
1137.384094179367
 20
916.0131237957924
 30
0.0
 40
7.500001036752605
100
AcDbArc
 50
0.0
 51
90.0
  0
LINE
  5
336
330
1F
100
AcDbEntity
  8
0-1
  6
Continuous
 62
     2
370
     9
100
AcDbLine
 10
1144.884129086056
 20
858.513103912235
 30
0.0
 11
1144.884129086056
 21
916.0131237957924
 31
0.0
  0
LINE
  5
337
330
1F
100
AcDbEntity
  8
0-1
  6
Continuous
 62
     2
370
     9
100
AcDbLine
 10
1137.384094179367
 20
851.0130690055464
 30
0.0
 11
1130.384111146669
 21
851.0130690055464
 31
0.0
  0
LINE
  5
338
330
1F
100
AcDbEntity
  8
0-1
  6
Continuous
 62
     2
370
     9
100
AcDbLine
 10
1137.384094179367
 20
923.5130348352848
 30
0.0
 11
1130.384111146669
 21
923.5130348352848
 31
0.0
  0
LINE
  5
339
330
1F
100
AcDbEntity
  8
0-1
  6
JWW_DASHED1
 62
     2
370
     9
100
AcDbLine
 10
1135.384134417795
 20
923.5005242483955
 30
0.0
 11
1135.384134417795
 21
851.0255795924356
 31
0.0
  0
LINE
  5
33A
330
1F
100
AcDbEntity
  8
0-1
  6
Continuous
 62
     2
370
     9
100
AcDbLine
 10
1135.384134417795
 20
841.0130224632942
 30
0.0
 11
1130.384111146669
 21
841.0130224632942
 31
0.0
  0
LINE
  5
33B
330
1F
100
AcDbEntity
  8
0-1
  6
JWW_DASHED1
 62
     2
370
     9
100
AcDbLine
 10
1135.384134417795
 20
887.8880857961055
 30
0.0
 11
1130.384111146669
 21
887.8880857961055
 31
0.0
  0
LINE
  5
33C
330
1F
100
AcDbEntity
  8
0-1
  6
JWW_DASHED1
 62
     2
370
     9
100
AcDbLine
 10
1135.384134417795
 20
909.1379988975975
 30
0.0
 11
1130.384111146669
 21
909.1379988975975
 31
0.0
  0
LINE
  5
33D
330
1F
100
AcDbEntity
  8
0-1
  6
JWW_CENTER2
 62
     2
370
     9
100
AcDbLine
 10
1149.254289575525
 20
801.0130840286788
 30
0.0
 11
1126.543350219726
 21
801.0130840286788
 31
0.0
  0
LINE
  5
33E
330
1F
100
AcDbEntity
  8
0-1
  6
Continuous
 62
     2
370
     9
100
AcDbLine
 10
1130.384111146669
 20
817.8885417923507
 30
0.0
 11
1130.384111146669
 21
826.0131665086194
 31
0.0
  0
LINE
  5
33F
330
1F
100
AcDbEntity
  8
0-1
  6
Continuous
 62
     2
370
     9
100
AcDbLine
 10
1135.384869962125
 20
822.8880634086934
 30
0.0
 11
1135.384869962125
 21
826.0131665086194
 31
0.0
  0
LINE
  5
340
330
1F
100
AcDbEntity
  8
0-1
  6
Continuous
 62
     2
370
     9
100
AcDbLine
 10
1130.384111146669
 20
784.1384304444298
 30
0.0
 11
1130.384111146669
 21
776.0130015487382
 31
0.0
  0
LINE
  5
341
330
1F
100
AcDbEntity
  8
0-1
  6
Continuous
 62
     2
370
     9
100
AcDbLine
 10
1135.384869962125
 20
779.1381046486642
 30
0.0
 11
1135.384869962125
 21
776.0130015487382
 31
0.0
  0
LINE
  5
342
330
1F
100
AcDbEntity
  8
0-1
  6
Continuous
 62
     2
370
     9
100
AcDbLine
 10
1129.134787482184
 20
776.0130015487382
 30
0.0
 11
1140.384778203191
 21
776.0130015487382
 31
0.0
  0
LINE
  5
343
330
1F
100
AcDbEntity
  8
0-1
  6
Continuous
 62
     2
370
     9
100
AcDbLine
 10
1130.384111146669
 20
791.0127417369247
 30
0.0
 11
1129.883695035367
 21
791.0127417369247
 31
0.0
  0
LINE
  5
344
330
1F
100
AcDbEntity
  8
0-1
  6
Continuous
 62
     2
370
     9
100
AcDbLine
 10
1130.384111146669
 20
811.0124365611434
 30
0.0
 11
1129.883695035367
 21
811.0124365611434
 31
0.0
  0
LINE
  5
345
330
1F
100
AcDbEntity
  8
0-1
  6
Continuous
 62
     2
370
     9
100
AcDbLine
 10
1129.883695035367
 20
811.0124365611434
 30
0.0
 11
1129.883695035367
 21
801.0130840286788
 31
0.0
  0
LINE
  5
346
330
1F
100
AcDbEntity
  8
0-1
  6
Continuous
 62
     2
370
     9
100
AcDbLine
 10
1129.883695035367
 20
791.0127417369247
 30
0.0
 11
1129.883695035367
 21
801.0130840286788
 31
0.0
  0
LINE
  5
347
330
1F
100
AcDbEntity
  8
0-1
  6
Continuous
 62
     2
370
     9
100
AcDbLine
 10
1141.634101867675
 20
807.8879520607736
 30
0.0
 11
1140.384778203191
 21
807.8879520607736
 31
0.0
  0
LINE
  5
348
330
1F
100
AcDbEntity
  8
0-1
  6
Continuous
 62
     2
370
     9
100
AcDbLine
 10
1145.383804939889
 20
803.5125973970278
 30
0.0
 11
1141.634101867675
 21
807.8879520607736
 31
0.0
  0
LINE
  5
349
330
1F
100
AcDbEntity
  8
0-1
  6
Continuous
 62
     2
370
     9
100
AcDbLine
 10
1145.383804939889
 20
798.5131376406403
 30
0.0
 11
1145.383804939889
 21
803.5125973970278
 31
0.0
  0
LINE
  5
34A
330
1F
100
AcDbEntity
  8
0-1
  6
Continuous
 62
     2
370
     9
100
AcDbLine
 10
1141.634101867675
 20
794.1379066968059
 30
0.0
 11
1145.383804939889
 21
798.5131376406403
 31
0.0
  0
LINE
  5
34B
330
1F
100
AcDbEntity
  8
0-1
  6
Continuous
 62
     2
370
     9
100
AcDbLine
 10
1141.634101867675
 20
794.1379066968059
 30
0.0
 11
1140.384778203191
 21
794.1379066968059
 31
0.0
  0
LINE
  5
34C
330
1F
100
AcDbEntity
  8
0-1
  6
Continuous
 62
     2
370
     9
100
AcDbLine
 10
1141.634101867675
 20
794.1379066968059
 30
0.0
 11
1141.634101867675
 21
807.8879520607736
 31
0.0
  0
LINE
  5
34D
330
1F
100
AcDbEntity
  8
0-1
  6
Continuous
 62
     2
370
     9
100
AcDbLine
 10
1129.134787482184
 20
826.0131665086194
 30
0.0
 11
1129.134787482184
 21
776.0130015487382
 31
0.0
  0
LINE
  5
34E
330
1F
100
AcDbEntity
  8
0-1
  6
Continuous
 62
     2
370
     9
100
AcDbLine
 10
1130.384111146669
 20
817.8885417923507
 30
0.0
 11
1130.384111146669
 21
784.1384304444298
 31
0.0
  0
LINE
  5
34F
330
1F
100
AcDbEntity
  8
0-1
  6
JWW_CENTER2
 62
     2
370
     9
100
AcDbLine
 10
1140.384157688921
 20
898.5129184796554
 30
0.0
 11
1125.38421174274
 21
898.5129184796554
 31
0.0
  0
LINE
  5
350
330
1F
100
AcDbEntity
  8
0-1
  6
JWW_CENTER2
 62
     2
370
     9
100
AcDbLine
 10
1149.254289575525
 20
-103.9869560330064
 30
0.0
 11
1126.543350219726
 21
-103.9869560330064
 31
0.0
  0
LINE
  5
351
330
1F
100
AcDbEntity
  8
0-1
  6
Continuous
 62
     2
370
     9
100
AcDbLine
 10
1135.384134417795
 20
-128.9870385129481
 30
0.0
 11
1140.384778203191
 21
-128.9870385129481
 31
0.0
  0
LINE
  5
352
330
1F
100
AcDbEntity
  8
0-1
  6
Continuous
 62
     2
370
     9
100
AcDbLine
 10
1129.134787482184
 20
-128.9870385129481
 30
0.0
 11
1130.384111146669
 21
-128.9870385129481
 31
0.0
  0
LINE
  5
353
330
1F
100
AcDbEntity
  8
0-1
  6
Continuous
 62
     2
370
     9
100
AcDbLine
 10
1140.384778203191
 20
-128.9870385129481
 30
0.0
 11
1140.384778203191
 21
-78.98687355306578
 31
0.0
  0
LINE
  5
354
330
1F
100
AcDbEntity
  8
0-1
  6
JWW_DASHED1
 62
     2
370
     9
100
AcDbLine
 10
1140.384157688921
 20
-109.6118893126263
 30
0.0
 11
1135.384134417795
 21
-109.6118893126263
 31
0.0
  0
LINE
  5
355
330
1F
100
AcDbEntity
  8
0-1
  6
JWW_DASHED1
 62
     2
370
     9
100
AcDbLine
 10
1134.884082543803
 20
-109.6118893126263
 30
0.0
 11
1130.384111146669
 21
-113.9867548408651
 31
0.0
  0
LINE
  5
356
330
1F
100
AcDbEntity
  8
0-1
  6
JWW_DASHED1
 62
     2
370
     9
100
AcDbLine
 10
1134.884082543803
 20
-109.6118893126263
 30
0.0
 11
1135.384258284992
 21
-109.6118893126263
 31
0.0
  0
LINE
  5
357
330
1F
100
AcDbEntity
  8
0-1
  6
JWW_DASHED1
 62
     2
370
     9
100
AcDbLine
 10
1134.884082543803
 20
-98.36189888619032
 30
0.0
 11
1135.384258284992
 21
-98.36189888619032
 31
0.0
  0
LINE
  5
358
330
1F
100
AcDbEntity
  8
0-1
  6
JWW_DASHED1
 62
     2
370
     9
100
AcDbLine
 10
1134.884082543803
 20
-109.6118893126263
 30
0.0
 11
1134.884082543803
 21
-98.36189888619032
 31
0.0
  0
LINE
  5
359
330
1F
100
AcDbEntity
  8
0-1
  6
JWW_DASHED1
 62
     2
370
     9
100
AcDbLine
 10
1140.384157688921
 20
-98.36189888619032
 30
0.0
 11
1135.384134417795
 21
-98.36189888619032
 31
0.0
  0
LINE
  5
35A
330
1F
100
AcDbEntity
  8
0-1
  6
JWW_DASHED1
 62
     2
370
     9
100
AcDbLine
 10
1134.884082543803
 20
-98.36189888619032
 30
0.0
 11
1130.384111146669
 21
-93.98715722514879
 31
0.0
  0
LINE
  5
35B
330
1F
100
AcDbEntity
  8
0-1
  6
Continuous
 62
     2
370
     9
100
AcDbLine
 10
1130.384111146669
 20
-78.98683967737583
 30
0.0
 11
1135.384134417795
 21
-78.98683967737583
 31
0.0
  0
LINE
  5
35C
330
1F
100
AcDbEntity
  8
0-1
  6
Continuous
 62
     2
370
     9
100
AcDbLine
 10
1135.384134417795
 20
-153.9994515967643
 30
0.0
 11
1135.384134417795
 21
-78.98683967737583
 31
0.0
  0
LINE
  5
35D
330
1F
100
AcDbEntity
  8
0-1
  6
Continuous
 62
     2
370
     9
100
AcDbLine
 10
1130.384111146669
 20
-226.4869068396135
 30
0.0
 11
1130.384111146669
 21
-78.98683967737583
 31
0.0
  0
ARC
  5
35E
330
1F
100
AcDbEntity
  8
0-1
  6
Continuous
 62
     2
370
     9
100
AcDbCircle
 10
1137.384094179367
 20
-161.4869759165637
 30
0.0
 40
7.500001036752605
100
AcDbArc
 50
0.0
 51
90.0
  0
ARC
  5
35F
330
1F
100
AcDbEntity
  8
0-1
  6
Continuous
 62
     2
370
     9
100
AcDbCircle
 10
1137.384094179367
 20
-218.9869958001211
 30
0.0
 40
7.500001036752605
100
AcDbArc
 50
270.0
 51
0.0
  0
LINE
  5
360
330
1F
100
AcDbEntity
  8
0-1
  6
Continuous
 62
     2
370
     9
100
AcDbLine
 10
1144.884129086056
 20
-161.4869759165637
 30
0.0
 11
1144.884129086056
 21
-218.9869958001211
 31
0.0
  0
LINE
  5
361
330
1F
100
AcDbEntity
  8
0-1
  6
Continuous
 62
     2
370
     9
100
AcDbLine
 10
1137.384094179367
 20
-153.9869410098751
 30
0.0
 11
1130.384111146669
 21
-153.9869410098751
 31
0.0
  0
LINE
  5
362
330
1F
100
AcDbEntity
  8
0-1
  6
Continuous
 62
     2
370
     9
100
AcDbLine
 10
1137.384094179367
 20
-226.4869068396135
 30
0.0
 11
1130.384111146669
 21
-226.4869068396135
 31
0.0
  0
LINE
  5
363
330
1F
100
AcDbEntity
  8
0-1
  6
JWW_DASHED1
 62
     2
370
     9
100
AcDbLine
 10
1135.384134417795
 20
-226.4743962527243
 30
0.0
 11
1135.384134417795
 21
-153.9994515967643
 31
0.0
  0
LINE
  5
364
330
1F
100
AcDbEntity
  8
0-1
  6
JWW_CENTER2
 62
     2
370
     9
100
AcDbLine
 10
1140.384157688921
 20
-201.4867904839829
 30
0.0
 11
1125.38421174274
 21
-201.4867904839829
 31
0.0
  0
LINE
  5
365
330
1F
100
AcDbEntity
  8
0-1
  6
Continuous
 62
     2
370
     9
100
AcDbLine
 10
1135.384134417795
 20
-143.9868944676229
 30
0.0
 11
1130.384111146669
 21
-143.9868944676229
 31
0.0
  0
LINE
  5
366
330
1F
100
AcDbEntity
  8
0-1
  6
JWW_DASHED1
 62
     2
370
     9
100
AcDbLine
 10
1135.384134417795
 20
-190.8619578004343
 30
0.0
 11
1130.384111146669
 21
-190.8619578004343
 31
0.0
  0
LINE
  5
367
330
1F
100
AcDbEntity
  8
0-1
  6
JWW_DASHED1
 62
     2
370
     9
100
AcDbLine
 10
1135.384134417795
 20
-212.1118709019251
 30
0.0
 11
1130.384111146669
 21
-212.1118709019251
 31
0.0
  0
LINE
  5
368
330
1F
100
AcDbEntity
  8
0-1
  6
Continuous
 62
     2
370
     9
100
AcDbLine
 10
1130.384111146669
 20
-120.8624137966783
 30
0.0
 11
1130.384111146669
 21
-128.9870385129481
 31
0.0
  0
LINE
  5
369
330
1F
100
AcDbEntity
  8
0-1
  6
Continuous
 62
     2
370
     9
100
AcDbLine
 10
1135.384869962125
 20
-125.8619354130221
 30
0.0
 11
1135.384869962125
 21
-128.9870385129481
 31
0.0
  0
LINE
  5
36A
330
1F
100
AcDbEntity
  8
0-1
  6
Continuous
 62
     2
370
     9
100
AcDbLine
 10
1130.384111146669
 20
-87.1123024487585
 30
0.0
 11
1130.384111146669
 21
-78.98687355306578
 31
0.0
  0
LINE
  5
36B
330
1F
100
AcDbEntity
  8
0-1
  6
Continuous
 62
     2
370
     9
100
AcDbLine
 10
1135.384869962125
 20
-82.11197665299181
 30
0.0
 11
1135.384869962125
 21
-78.98687355306578
 31
0.0
  0
LINE
  5
36C
330
1F
100
AcDbEntity
  8
0-1
  6
Continuous
 62
     2
370
     9
100
AcDbLine
 10
1129.134787482184
 20
-78.98687355306578
 30
0.0
 11
1140.384778203191
 21
-78.98687355306578
 31
0.0
  0
LINE
  5
36D
330
1F
100
AcDbEntity
  8
0-1
  6
Continuous
 62
     2
370
     9
100
AcDbLine
 10
1130.384111146669
 20
-93.98661374125226
 30
0.0
 11
1129.883695035367
 21
-93.98661374125226
 31
0.0
  0
LINE
  5
36E
330
1F
100
AcDbEntity
  8
0-1
  6
Continuous
 62
     2
370
     9
100
AcDbLine
 10
1130.384111146669
 20
-113.986308565471
 30
0.0
 11
1129.883695035367
 21
-113.986308565471
 31
0.0
  0
LINE
  5
36F
330
1F
100
AcDbEntity
  8
0-1
  6
Continuous
 62
     2
370
     9
100
AcDbLine
 10
1129.883695035367
 20
-113.986308565471
 30
0.0
 11
1129.883695035367
 21
-103.9869560330064
 31
0.0
  0
LINE
  5
370
330
1F
100
AcDbEntity
  8
0-1
  6
Continuous
 62
     2
370
     9
100
AcDbLine
 10
1129.883695035367
 20
-93.98661374125226
 30
0.0
 11
1129.883695035367
 21
-103.9869560330064
 31
0.0
  0
LINE
  5
371
330
1F
100
AcDbEntity
  8
0-1
  6
Continuous
 62
     2
370
     9
100
AcDbLine
 10
1141.634101867675
 20
-110.8618240651012
 30
0.0
 11
1140.384778203191
 21
-110.8618240651012
 31
0.0
  0
LINE
  5
372
330
1F
100
AcDbEntity
  8
0-1
  6
Continuous
 62
     2
370
     9
100
AcDbLine
 10
1145.383804939889
 20
-106.4864694013554
 30
0.0
 11
1141.634101867675
 21
-110.8618240651012
 31
0.0
  0
LINE
  5
373
330
1F
100
AcDbEntity
  8
0-1
  6
Continuous
 62
     2
370
     9
100
AcDbLine
 10
1145.383804939889
 20
-101.487009644969
 30
0.0
 11
1145.383804939889
 21
-106.4864694013554
 31
0.0
  0
LINE
  5
374
330
1F
100
AcDbEntity
  8
0-1
  6
Continuous
 62
     2
370
     9
100
AcDbLine
 10
1141.634101867675
 20
-97.11177870113346
 30
0.0
 11
1145.383804939889
 21
-101.487009644969
 31
0.0
  0
LINE
  5
375
330
1F
100
AcDbEntity
  8
0-1
  6
Continuous
 62
     2
370
     9
100
AcDbLine
 10
1141.634101867675
 20
-97.11177870113346
 30
0.0
 11
1140.384778203191
 21
-97.11177870113346
 31
0.0
  0
LINE
  5
376
330
1F
100
AcDbEntity
  8
0-1
  6
Continuous
 62
     2
370
     9
100
AcDbLine
 10
1141.634101867675
 20
-97.11177870113346
 30
0.0
 11
1141.634101867675
 21
-110.8618240651012
 31
0.0
  0
LINE
  5
377
330
1F
100
AcDbEntity
  8
0-1
  6
Continuous
 62
     2
370
     9
100
AcDbLine
 10
1129.134787482184
 20
-128.9870385129481
 30
0.0
 11
1129.134787482184
 21
-78.98687355306578
 31
0.0
  0
LINE
  5
378
330
1F
100
AcDbEntity
  8
0-1
  6
Continuous
 62
     2
370
     9
100
AcDbLine
 10
1130.384111146669
 20
-120.8624137966783
 30
0.0
 11
1130.384111146669
 21
-87.1123024487585
 31
0.0
  0
LINE
  5
379
330
1F
100
AcDbEntity
  8
0-4
  6
Continuous
 62
     7
370
     9
100
AcDbLine
 10
1145.383804939889
 20
-403.9875405801299
 30
0.0
 11
1145.383804939889
 21
-123.9869560330064
 31
0.0
  0
LINE
  5
37A
330
1F
100
AcDbEntity
  8
0-4
  6
Continuous
 62
     7
370
     9
100
AcDbLine
 10
1145.383804939889
 20
-400.9875405801298
 30
0.0
 11
1170.169926474235
 21
-397.7243857746284
 31
0.0
  0
LINE
  5
37B
330
1F
100
AcDbEntity
  8
0-4
  6
Continuous
 62
     7
370
     9
100
AcDbLine
 10
1145.383804939889
 20
-400.9875405801298
 30
0.0
 11
1170.169926474235
 21
-404.2506953856312
 31
0.0
  0
LINE
  5
37C
330
1F
100
AcDbEntity
  8
0-4
  6
Continuous
 62
     7
370
     9
100
AcDbLine
 10
1129.134787482184
 20
-400.9875405801298
 30
0.0
 11
1104.348665947839
 21
-397.7243857746284
 31
0.0
  0
LINE
  5
37D
330
1F
100
AcDbEntity
  8
0-4
  6
Continuous
 62
     7
370
     9
100
AcDbLine
 10
1129.134787482184
 20
-400.9875405801298
 30
0.0
 11
1104.348665947839
 21
-404.2506953856312
 31
0.0
  0
LINE
  5
37E
330
1F
100
AcDbEntity
  8
0-4
  6
Continuous
 62
     7
370
     9
100
AcDbLine
 10
1129.134787482184
 20
-400.9875405801298
 30
0.0
 11
1145.383804939889
 21
-400.9875405801298
 31
0.0
  0
TEXT
  5
37F
330
1F
100
AcDbEntity
  8
0-4
  6
Continuous
 62
     2
370
     9
100
AcDbText
 10
1017.885010178025
 20
-290.3474416042007
 30
0.0
 40
30.48
  1
60
 41
1.0625
  7
ＭＳ ゴシック
100
AcDbText
  0
LINE
  5
380
330
1F
100
AcDbEntity
  8
0-4
  6
Continuous
 62
     7
370
     9
100
AcDbLine
 10
964.1348864581136
 20
-400.9875405801298
 30
0.0
 11
993.878142898148
 21
-404.9032757733308
 31
0.0
  0
LINE
  5
381
330
1F
100
AcDbEntity
  8
0-4
  6
Continuous
 62
     7
370
     9
100
AcDbLine
 10
964.1348864581136
 20
-400.9875405801298
 30
0.0
 11
993.878142898148
 21
-397.0718053869288
 31
0.0
  0
LINE
  5
382
330
1F
100
AcDbEntity
  8
0-4
  6
Continuous
 62
     7
370
     9
100
AcDbLine
 10
1114.134886458114
 20
-300.9874581001893
 30
0.0
 11
1084.39163001808
 21
-304.9031932933903
 31
0.0
  0
LINE
  5
383
330
1F
100
AcDbEntity
  8
0-4
  6
Continuous
 62
     7
370
     9
100
AcDbLine
 10
1114.134886458114
 20
-300.9874581001893
 30
0.0
 11
1084.39163001808
 21
-297.0717229069882
 31
0.0
  0
LINE
  5
384
330
1F
100
AcDbEntity
  8
0-4
  6
Continuous
 62
     7
370
     9
100
AcDbLine
 10
964.1348864581136
 20
-300.9874581001893
 30
0.0
 11
993.878142898148
 21
-304.9031932933903
 31
0.0
  0
LINE
  5
385
330
1F
100
AcDbEntity
  8
0-4
  6
Continuous
 62
     7
370
     9
100
AcDbLine
 10
964.1348864581136
 20
-300.9874581001893
 30
0.0
 11
993.878142898148
 21
-297.0717229069882
 31
0.0
  0
LINE
  5
386
330
1F
100
AcDbEntity
  8
0-4
  6
Continuous
 62
     7
370
     9
100
AcDbLine
 10
1114.134886458114
 20
-163.9872040619716
 30
0.0
 11
1114.134886458114
 21
-303.9874185098174
 31
0.0
  0
LINE
  5
387
330
1F
100
AcDbEntity
  8
0-4
  6
Continuous
 62
     7
370
     9
100
AcDbLine
 10
964.1348864581136
 20
-171.4871050860424
 30
0.0
 11
964.1348864581136
 21
-403.9875009897585
 31
0.0
  0
LINE
  5
388
330
1F
100
AcDbEntity
  8
0-4
  6
Continuous
 62
     7
370
     9
100
AcDbLine
 10
964.1348864581136
 20
-300.9874581001893
 30
0.0
 11
1114.134886458114
 21
-300.9874581001893
 31
0.0
  0
LINE
  5
389
330
1F
100
AcDbEntity
  8
0-4
  6
Continuous
 62
     7
370
     9
100
AcDbLine
 10
1129.134787482184
 20
-236.5768715383044
 30
0.0
 11
1129.134787482184
 21
-403.9875009897585
 31
0.0
  0
LINE
  5
38A
330
1F
100
AcDbEntity
  8
0-4
  6
Continuous
 62
     7
370
     9
100
AcDbLine
 10
1129.134787482184
 20
-400.9875405801298
 30
0.0
 11
1099.39153104215
 21
-404.9032757733308
 31
0.0
  0
LINE
  5
38B
330
1F
100
AcDbEntity
  8
0-4
  6
Continuous
 62
     7
370
     9
100
AcDbLine
 10
1129.134787482184
 20
-400.9875405801298
 30
0.0
 11
1099.39153104215
 21
-397.0718053869288
 31
0.0
  0
LINE
  5
38C
330
1F
100
AcDbEntity
  8
0-4
  6
Continuous
 62
     7
370
     9
100
AcDbLine
 10
964.1348864581136
 20
-400.9875405801298
 30
0.0
 11
1129.134787482184
 21
-400.9875405801298
 31
0.0
  0
TEXT
  5
38D
330
1F
100
AcDbEntity
  8
0-4
  6
Continuous
 62
     2
370
   211
100
AcDbText
 10
1025.384836970149
 20
-390.3475240841418
 30
0.0
 40
30.48
  1
66
 41
1.0625
  7
ＭＳ ゴシック
100
AcDbText
  0
TEXT
  5
38E
330
1F
100
AcDbEntity
  8
0-4
  6
Continuous
 62
     2
370
   211
100
AcDbText
 10
1158.815013210519
 20
-389.3475405801296
 30
0.0
 40
30.48
  1
6.5
 41
1.083333333333333
  7
ＭＳ ゴシック
100
AcDbText
  0
LINE
  5
38F
330
1F
100
AcDbEntity
  8
0-4
  6
Continuous
 62
     7
370
     9
100
AcDbLine
 10
1145.383804939889
 20
-400.9875405801298
 30
0.0
 11
1226.529319092056
 21
-400.9875405801298
 31
0.0
  0
LINE
  5
390
330
1F
100
AcDbEntity
  8
0-E
  6
Continuous
 62
     7
370
     9
100
AcDbLine
 10
1117.884391578468
 20
-35.23687414220802
 30
0.0
 11
1145.340809177707
 21
-23.14795416754578
 31
0.0
  0
LINE
  5
391
330
1F
100
AcDbEntity
  8
0-E
  6
Continuous
 62
     7
370
     9
100
AcDbLine
 10
1117.884391578468
 20
-35.23687414220802
 30
0.0
 11
1147.534115765545
 21
-30.6661657384916
 31
0.0
  0
TEXT
  5
392
330
1F
100
AcDbEntity
  8
0-E
  6
Continuous
 62
     7
370
     9
100
AcDbText
 10
1416.359562808057
 20
67.16164271731002
 30
0.0
 40
22.86
  1
クッション：ｔ＝３．０
 41
1.151515151515152
  7
ＭＳ ゴシック
100
AcDbText
  0
TEXT
  5
393
330
1F
100
AcDbEntity
  8
0-E
  6
Continuous
 62
     7
370
     9
100
AcDbText
 10
1413.905966022794
 20
11.96734472058266
 30
0.0
 40
22.86
  1
クロロプレンゴム
 41
1.145833333333333
  7
ＭＳ ゴシック
100
AcDbText
  0
LINE
  5
394
330
1F
100
AcDbEntity
  8
0-E
  6
Continuous
 62
     7
370
     9
100
AcDbLine
 10
1404.491826814276
 20
48.37475795168501
 30
0.0
 11
1117.884391578468
 21
-35.23687414220802
 31
0.0
  0
LINE
  5
395
330
1F
100
AcDbEntity
  8
0-E
  6
Continuous
 62
     7
370
     9
100
AcDbLine
 10
1404.491826814276
 20
48.37475795168501
 30
0.0
 11
1796.110050315614
 21
48.37475795168501
 31
0.0
  0
TEXT
  5
396
330
1F
100
AcDbEntity
  8
0-E
  6
Continuous
 62
     7
370
     9
100
AcDbText
 10
461.8512104036221
 20
992.5659671927792
 30
0.0
 40
22.86
  1
ＳＵＳ３０４
 41
1.138888888888889
  7
ＭＳ ゴシック
100
AcDbText
  0
TEXT
  5
397
330
1F
100
AcDbEntity
  8
0-E
  6
Continuous
 62
     7
370
     9
100
AcDbText
 10
462.8194754215701
 20
1042.028692857898
 30
0.0
 40
22.86
  1
受枠：ＴＬ６０Ｐ，ｔ＝３．０
 41
1.154761904761905
  7
ＭＳ ゴシック
100
AcDbText
  0
LINE
  5
398
330
1F
100
AcDbEntity
  8
0-E
  6
Continuous
 62
     7
370
     9
100
AcDbLine
 10
460.5015981725896
 20
1027.712055927999
 30
0.0
 11
944.148182224583
 21
1027.712055927999
 31
0.0
  0
TEXT
  5
399
330
1F
100
AcDbEntity
  8
F-5
  6
Continuous
 62
     2
370
     9
100
AcDbText
 10
-773.4070003177658
 20
-1321.122187763459
 30
0.0
 40
30.48
  1
タイル用　充填深さ４０ｍｍ　ステンレス目地　側溝用　カラー舗装用みぞ蓋　
 41
0.7743055555555556
  7
ＭＳ ゴシック
100
AcDbText
  0
TEXT
  5
39A
330
1F
100
AcDbEntity
  8
F-5
  6
Continuous
 62
     2
370
     9
100
AcDbText
 10
-773.4070003177658
 20
-1370.278052102985
 30
0.0
 40
30.48
  1
　　　　　　　　　　　　　ＳＥＭ－２－４０６０（Ｐ＝１０）＋ＴＬ６０Ｐ
 41
0.7742857142857141
  7
ＭＳ ゴシック
100
AcDbText
  0
LINE
  5
39B
330
1F
100
AcDbEntity
  8
0-F
  6
Continuous
 62
     7
370
     9
100
AcDbLine
 10
1135.384134417795
 20
923.5130348352848
 30
0.0
 11
1145.463100713192
 21
951.7691779412817
 31
0.0
  0
LINE
  5
39C
330
1F
100
AcDbEntity
  8
0-F
  6
Continuous
 62
     7
370
     9
100
AcDbLine
 10
1135.384134417795
 20
923.5130348352848
 30
0.0
 11
1152.432985637178
 21
948.1981264210115
 31
0.0
  0
LINE
  5
39D
330
1F
100
AcDbEntity
  8
0-E
  6
Continuous
 62
     7
370
     9
100
AcDbLine
 10
1188.777133446561
 20
1027.712055927999
 30
0.0
 11
1135.384134417795
 21
923.5130348352848
 31
0.0
  0
TEXT
  5
39E
330
1F
100
AcDbEntity
  8
0-E
  6
Continuous
 62
     7
370
     9
100
AcDbText
 10
1197.795739934707
 20
994.8933861644853
 30
0.0
 40
22.86
  1
ＳＥＣＣ
 41
1.124999999999999
  7
ＭＳ ゴシック
100
AcDbText
  0
LINE
  5
39F
330
1F
100
AcDbEntity
  8
0-E
  6
Continuous
 62
     7
370
     9
100
AcDbLine
 10
1188.777133446561
 20
1027.712055927999
 30
0.0
 11
1601.911129131813
 21
1027.712055927999
 31
0.0
  0
TEXT
  5
3A0
330
1F
100
AcDbEntity
  8
0-E
  6
Continuous
 62
     7
370
     9
100
AcDbText
 10
1198.275748446636
 20
1045.564855363176
 30
0.0
 40
22.86
  1
回転アンカー：ｔ＝２.０
 41
1.152173913043478
  7
ＭＳ ゴシック
100
AcDbText
  0
TEXT
  5
3A1
330
1F
100
AcDbEntity
  8
0-5
  6
Continuous
 62
     7
370
     9
100
AcDbText
 10
1198.275748446636
 20
1107.051230368459
 30
0.0
 40
22.86
  1
境界部・壁際用として使用できます
 41
1.156249999999999
  7
ＭＳ ゴシック
100
AcDbText
  0
TEXT
  5
3A2
330
1F
100
AcDbEntity
  8
0-5
  6
Continuous
 62
     7
370
     9
100
AcDbText
 10
1198.275748446636
 20
1145.00264785488
 30
0.0
 40
22.86
  1
アンカーを回転・変形させることで
 41
1.156249999999999
  7
ＭＳ ゴシック
100
AcDbText
  0
TEXT
  5
3A3
330
1F
100
AcDbEntity
  8
0-5
  6
Continuous
 62
     7
370
     9
100
AcDbText
 10
1163.275748446635
 20
1145.00264785488
 30
0.0
 40
22.86
  1
※
  7
ＭＳ ゴシック
100
AcDbText
  0
ENDSEC
  0
SECTION
  2
OBJECTS
  0
DICTIONARY
  5
C
330
0
100
AcDbDictionary
281
     1
  3
ACAD_GROUP
350
D
  3
ACAD_LAYOUT
350
1A
  3
ACAD_MLEADERSTYLE
350
3A5
  3
ACAD_MLINESTYLE
350
17
  3
ACAD_PLOTSETTINGS
350
19
  3
ACAD_PLOTSTYLENAME
350
E
  3
ACAD_TABLESTYLE
350
3A4
  3
ACAD_VISUALSTYLE
350
2A
  3
AcDbVariableDictionary
350
3A6
  0
DICTIONARY
  5
D
102
{ACAD_REACTORS
330
C
102
}
330
C
100
AcDbDictionary
281
     1
  0
DICTIONARY
  5
1A
102
{ACAD_REACTORS
330
C
102
}
330
C
100
AcDbDictionary
281
     1
  3
Layout1
350
1E
  3
Layout2
350
26
  3
Model
350
22
  0
DICTIONARY
  5
3A5
102
{ACAD_REACTORS
330
C
102
}
330
C
100
AcDbDictionary
281
     1
  0
DICTIONARY
  5
17
102
{ACAD_REACTORS
330
C
102
}
330
C
100
AcDbDictionary
281
     1
  3
Standard
350
18
  0
DICTIONARY
  5
19
102
{ACAD_REACTORS
330
C
102
}
330
C
100
AcDbDictionary
281
     1
  0
ACDBDICTIONARYWDFLT
  5
E
102
{ACAD_REACTORS
330
C
102
}
330
C
100
AcDbDictionary
281
     1
  3
Normal
350
F
100
AcDbDictionaryWithDefault
340
F
  0
DICTIONARY
  5
3A4
102
{ACAD_REACTORS
330
C
102
}
330
C
100
AcDbDictionary
281
     1
  0
DICTIONARY
  5
2A
102
{ACAD_REACTORS
330
C
102
}
330
C
100
AcDbDictionary
281
     1
  3
2dWireframe
350
2F
  3
3D Hidden
350
31
  3
3dWireframe
350
30
  3
Basic
350
32
  3
Brighten
350
36
  3
ColorChange
350
3A
  3
Conceptual
350
34
  3
Dim
350
35
  3
Facepattern
350
39
  3
Flat
350
2B
  3
FlatWithEdges
350
2C
  3
Gouraud
350
2D
  3
GouraudWithEdges
350
2E
  3
Linepattern
350
38
  3
Realistic
350
33
  3
Thicken
350
37
  0
DICTIONARY
  5
3A6
102
{ACAD_REACTORS
330
C
102
}
330
C
100
AcDbDictionary
281
     1
  3
PSOLHEIGHT
350
3A8
  3
PSOLWIDTH
350
3A7
  0
LAYOUT
  5
1E
102
{ACAD_REACTORS
330
1A
102
}
102
{ACAD_XDICTIONARY
360
3A9
102
}
330
1A
100
AcDbPlotSettings
  1

  2
none_device
  4

  6

 40
0.0
 41
0.0
 42
0.0
 43
0.0
 44
0.0
 45
0.0
 46
0.0
 47
0.0
 48
0.0
 49
0.0
140
0.0
141
0.0
142
1.0
143
1.0
 70
   688
 72
     0
 73
     0
 74
     5
  7

 75
    16
147
1.0
148
0.0
149
0.0
100
AcDbLayout
  1
Layout1
 70
     1
 71
     1
 10
0.0
 20
0.0
 11
420.0
 21
297.0
 12
0.0
 22
0.0
 32
0.0
 14
1.000000000000000E+20
 24
1.000000000000000E+20
 34
1.000000000000000E+20
 15
-1.000000000000000E+20
 25
-1.000000000000000E+20
 35
-1.000000000000000E+20
146
0.0
 13
0.0
 23
0.0
 33
0.0
 16
1.0
 26
0.0
 36
0.0
 17
0.0
 27
1.0
 37
0.0
 76
     0
330
1B
  0
LAYOUT
  5
26
102
{ACAD_REACTORS
330
1A
102
}
102
{ACAD_XDICTIONARY
360
3AD
102
}
330
1A
100
AcDbPlotSettings
  1

  2
none_device
  4

  6

 40
0.0
 41
0.0
 42
0.0
 43
0.0
 44
0.0
 45
0.0
 46
0.0
 47
0.0
 48
0.0
 49
0.0
140
0.0
141
0.0
142
1.0
143
1.0
 70
   688
 72
     0
 73
     0
 74
     5
  7

 75
    16
147
1.0
148
0.0
149
0.0
100
AcDbLayout
  1
Layout2
 70
     1
 71
     2
 10
0.0
 20
0.0
 11
0.0
 21
0.0
 12
0.0
 22
0.0
 32
0.0
 14
0.0
 24
0.0
 34
0.0
 15
0.0
 25
0.0
 35
0.0
146
0.0
 13
0.0
 23
0.0
 33
0.0
 16
1.0
 26
0.0
 36
0.0
 17
0.0
 27
1.0
 37
0.0
 76
     0
330
23
  0
LAYOUT
  5
22
102
{ACAD_REACTORS
330
1A
102
}
102
{ACAD_XDICTIONARY
360
3AB
102
}
330
1A
100
AcDbPlotSettings
  1

  2
none_device
  4

  6

 40
0.0
 41
0.0
 42
0.0
 43
0.0
 44
0.0
 45
0.0
 46
0.0
 47
0.0
 48
0.0
 49
0.0
140
0.0
141
0.0
142
1.0
143
1.0
 70
  1712
 72
     0
 73
     0
 74
     0
  7

 75
     0
147
1.0
148
0.0
149
0.0
100
AcDbLayout
  1
Model
 70
     1
 71
     0
 10
-2100.0
 20
-1485.0
 11
2100.0
 21
1485.0
 12
0.0
 22
0.0
 32
0.0
 14
-2100.0
 24
-1485.0
 34
0.0
 15
2100.0
 25
1485.0
 35
0.0
146
0.0
 13
0.0
 23
0.0
 33
0.0
 16
1.0
 26
0.0
 36
0.0
 17
0.0
 27
1.0
 37
0.0
 76
     0
330
1F
331
29
  0
MLINESTYLE
  5
18
102
{ACAD_REACTORS
330
17
102
}
330
17
100
AcDbMlineStyle
  2
Standard
 70
     0
  3

 62
   256
 51
90.0
 52
90.0
 71
     2
 49
0.5
 62
   256
  6
BYLAYER
 49
-0.5
 62
   256
  6
BYLAYER
  0
ACDBPLACEHOLDER
  5
F
102
{ACAD_REACTORS
330
E
102
}
330
E
  0
VISUALSTYLE
  5
2F
102
{ACAD_REACTORS
330
2A
102
}
330
2A
100
AcDbVisualStyle
  2
2dWireframe
 70
     4
 71
     0
 72
     2
 73
     0
 90
        0
 40
-0.6
 41
-30.0
 62
     5
 63
     7
 74
     1
 91
        4
 64
     7
 65
   257
 75
     1
175
     1
 42
1.0
 92
        0
 66
   257
 43
1.0
 76
     1
 77
     6
 78
     2
 67
     7
 79
     5
170
     0
171
     0
290
     0
174
     0
 93
        1
 44
0.0
173
     0
291
     0
 45
0.0
1001
ACAD
1000
AcDbSavedByObjectVersion
1070
     0
  0
VISUALSTYLE
  5
31
102
{ACAD_REACTORS
330
2A
102
}
330
2A
100
AcDbVisualStyle
  2
3D Hidden
 70
     6
 71
     1
 72
     2
 73
     2
 90
        0
 40
-0.6
 41
-30.0
 62
     5
 63
     7
 74
     2
 91
        2
 64
     7
 65
   257
 75
     2
175
     1
 42
40.0
 92
        0
 66
   257
 43
1.0
 76
     1
 77
     6
 78
     2
 67
     7
 79
     3
170
     0
171
     0
290
     0
174
     0
 93
        1
 44
0.0
173
     0
291
     0
 45
0.0
1001
ACAD
1000
AcDbSavedByObjectVersion
1070
     0
  0
VISUALSTYLE
  5
30
102
{ACAD_REACTORS
330
2A
102
}
330
2A
100
AcDbVisualStyle
  2
3dWireframe
 70
     5
 71
     0
 72
     2
 73
     0
 90
        0
 40
-0.6
 41
-30.0
 62
     5
 63
     7
 74
     1
 91
        4
 64
     7
 65
   257
 75
     1
175
     1
 42
1.0
 92
        0
 66
   257
 43
1.0
 76
     1
 77
     6
 78
     2
 67
     7
 79
     5
170
     0
171
     0
290
     0
174
     0
 93
        1
 44
0.0
173
     0
291
     0
 45
0.0
1001
ACAD
1000
AcDbSavedByObjectVersion
1070
     0
  0
VISUALSTYLE
  5
32
102
{ACAD_REACTORS
330
2A
102
}
330
2A
100
AcDbVisualStyle
  2
Basic
 70
     7
 71
     1
 72
     0
 73
     1
 90
        0
 40
-0.6
 41
-30.0
 62
     5
 63
     7
 74
     0
 91
        4
 64
     7
 65
   257
 75
     1
175
     1
 42
1.0
 92
        8
 66
     7
 43
1.0
 76
     1
 77
     6
 78
     2
 67
     7
 79
     5
170
     0
171
     0
290
     0
174
     0
 93
        1
 44
0.0
173
     0
291
     1
 45
0.0
1001
ACAD
1000
AcDbSavedByObjectVersion
1070
     0
  0
VISUALSTYLE
  5
36
102
{ACAD_REACTORS
330
2A
102
}
330
2A
100
AcDbVisualStyle
  2
Brighten
 70
    12
 71
     2
 72
     2
 73
     0
 90
        0
 40
-0.6
 41
-30.0
 62
     5
 63
     7
 74
     1
 91
        4
 64
     7
 65
   257
 75
     1
175
     1
 42
1.0
 92
        8
 66
     7
 43
1.0
 76
     1
 77
     6
 78
     2
 67
     7
 79
     5
170
     0
171
     0
290
     0
174
     0
 93
        1
 44
50.0
173
     0
291
     1
 45
0.0
1001
ACAD
1000
AcDbSavedByObjectVersion
1070
     0
  0
VISUALSTYLE
  5
3A
102
{ACAD_REACTORS
330
2A
102
}
330
2A
100
AcDbVisualStyle
  2
ColorChange
 70
    16
 71
     2
 72
     2
 73
     3
 90
        0
 40
-0.6
 41
-30.0
 62
     5
 63
     8
 74
     1
 91
        4
 64
     7
 65
   257
 75
     1
175
     1
 42
1.0
 92
        8
 66
     8
 43
1.0
 76
     1
 77
     6
 78
     2
 67
     7
 79
     5
170
     0
171
     0
290
     0
174
     0
 93
        1
 44
0.0
173
     0
291
     1
 45
0.0
1001
ACAD
1000
AcDbSavedByObjectVersion
1070
     0
  0
VISUALSTYLE
  5
34
102
{ACAD_REACTORS
330
2A
102
}
330
2A
100
AcDbVisualStyle
  2
Conceptual
 70
     9
 71
     3
 72
     2
 73
     0
 90
        0
 40
-0.6
 41
-30.0
 62
     5
 63
     7
 74
     2
 91
        2
 64
     7
 65
   257
 75
     1
175
     1
 42
40.0
 92
        8
 66
     7
 43
1.0
 76
     1
 77
     6
 78
     2
 67
     7
 79
     3
170
     0
171
     0
290
     0
174
     0
 93
        1
 44
0.0
173
     0
291
     0
 45
0.0
1001
ACAD
1000
AcDbSavedByObjectVersion
1070
     0
  0
VISUALSTYLE
  5
35
102
{ACAD_REACTORS
330
2A
102
}
330
2A
100
AcDbVisualStyle
  2
Dim
 70
    11
 71
     2
 72
     2
 73
     0
 90
        0
 40
-0.6
 41
-30.0
 62
     5
 63
     7
 74
     1
 91
        4
 64
     7
 65
   257
 75
     1
175
     1
 42
1.0
 92
        8
 66
     7
 43
1.0
 76
     1
 77
     6
 78
     2
 67
     7
 79
     5
170
     0
171
     0
290
     0
174
     0
 93
        1
 44
-50.0
173
     0
291
     1
 45
0.0
1001
ACAD
1000
AcDbSavedByObjectVersion
1070
     0
  0
VISUALSTYLE
  5
39
102
{ACAD_REACTORS
330
2A
102
}
330
2A
100
AcDbVisualStyle
  2
Facepattern
 70
    15
 71
     2
 72
     2
 73
     0
 90
        0
 40
-0.6
 41
-30.0
 62
     5
 63
     7
 74
     1
 91
        4
 64
     7
 65
   257
 75
     1
175
     1
 42
1.0
 92
        8
 66
     7
 43
1.0
 76
     1
 77
     6
 78
     2
 67
     7
 79
     5
170
     0
171
     0
290
     0
174
     0
 93
        1
 44
0.0
173
     0
291
     1
 45
0.0
1001
ACAD
1000
AcDbSavedByObjectVersion
1070
     0
  0
VISUALSTYLE
  5
2B
102
{ACAD_REACTORS
330
2A
102
}
330
2A
100
AcDbVisualStyle
  2
Flat
 70
     0
 71
     2
 72
     1
 73
     1
 90
        2
 40
-0.6
 41
30.0
 62
     5
 63
     7
 74
     0
 91
        4
 64
     7
 65
   257
 75
     1
175
     1
 42
1.0
 92
        8
 66
     7
 43
1.0
 76
     1
 77
     6
 78
     2
 67
     7
 79
     5
170
     0
171
     0
290
     0
174
     0
 93
       13
 44
0.0
173
     0
291
     1
 45
0.0
1001
ACAD
1000
AcDbSavedByObjectVersion
1070
     0
  0
VISUALSTYLE
  5
2C
102
{ACAD_REACTORS
330
2A
102
}
330
2A
100
AcDbVisualStyle
  2
FlatWithEdges
 70
     1
 71
     2
 72
     1
 73
     1
 90
        2
 40
-0.6
 41
30.0
 62
     5
 63
     7
 74
     1
 91
        4
 64
     7
 65
   257
 75
     1
175
     1
 42
1.0
 92
        0
 66
   257
 43
1.0
 76
     1
 77
     6
 78
     2
 67
     7
 79
     5
170
     0
171
     0
290
     0
174
     0
 93
       13
 44
0.0
173
     0
291
     1
 45
0.0
1001
ACAD
1000
AcDbSavedByObjectVersion
1070
     0
  0
VISUALSTYLE
  5
2D
102
{ACAD_REACTORS
330
2A
102
}
330
2A
100
AcDbVisualStyle
  2
Gouraud
 70
     2
 71
     2
 72
     2
 73
     1
 90
        2
 40
-0.6
 41
30.0
 62
     5
 63
     7
 74
     0
 91
        4
 64
     7
 65
   257
 75
     1
175
     1
 42
1.0
 92
        0
 66
     7
 43
1.0
 76
     1
 77
     6
 78
     2
 67
     7
 79
     5
170
     0
171
     0
290
     0
174
     0
 93
       13
 44
0.0
173
     0
291
     1
 45
0.0
1001
ACAD
1000
AcDbSavedByObjectVersion
1070
     0
  0
VISUALSTYLE
  5
2E
102
{ACAD_REACTORS
330
2A
102
}
330
2A
100
AcDbVisualStyle
  2
GouraudWithEdges
 70
     3
 71
     2
 72
     2
 73
     1
 90
        2
 40
-0.6
 41
30.0
 62
     5
 63
     7
 74
     1
 91
        4
 64
     7
 65
   257
 75
     1
175
     1
 42
1.0
 92
        0
 66
   257
 43
1.0
 76
     1
 77
     6
 78
     2
 67
     7
 79
     5
170
     0
171
     0
290
     0
174
     0
 93
       13
 44
0.0
173
     0
291
     1
 45
0.0
1001
ACAD
1000
AcDbSavedByObjectVersion
1070
     0
  0
VISUALSTYLE
  5
38
102
{ACAD_REACTORS
330
2A
102
}
330
2A
100
AcDbVisualStyle
  2
Linepattern
 70
    14
 71
     2
 72
     2
 73
     0
 90
        0
 40
-0.6
 41
-30.0
 62
     5
 63
     7
 74
     1
 91
        4
 64
     7
 65
   257
 75
     7
175
     7
 42
1.0
 92
        8
 66
     7
 43
1.0
 76
     1
 77
     6
 78
     2
 67
     7
 79
     5
170
     0
171
     0
290
     0
174
     0
 93
        1
 44
0.0
173
     0
291
     1
 45
0.0
1001
ACAD
1000
AcDbSavedByObjectVersion
1070
     0
  0
VISUALSTYLE
  5
33
102
{ACAD_REACTORS
330
2A
102
}
330
2A
100
AcDbVisualStyle
  2
Realistic
 70
     8
 71
     2
 72
     2
 73
     0
 90
        0
 40
-0.6
 41
-30.0
 62
     5
 63
     7
 74
     1
 91
        0
 64
     7
 65
   257
 75
     1
175
     1
 42
1.0
 92
        8
 66
     8
 43
1.0
 76
     1
 77
     6
 78
     2
 67
     7
 79
     5
170
     0
171
     0
290
     0
174
     0
 93
       13
 44
0.0
173
     0
291
     0
 45
0.0
1001
ACAD
1000
AcDbSavedByObjectVersion
1070
     0
  0
VISUALSTYLE
  5
37
102
{ACAD_REACTORS
330
2A
102
}
330
2A
100
AcDbVisualStyle
  2
Thicken
 70
    13
 71
     2
 72
     2
 73
     0
 90
        0
 40
-0.6
 41
-30.0
 62
     5
 63
     7
 74
     1
 91
        4
 64
     7
 65
   257
 75
     1
175
     1
 42
1.0
 92
       12
 66
     7
 43
1.0
 76
     1
 77
     6
 78
     2
 67
     7
 79
     5
170
     0
171
     0
290
     0
174
     0
 93
        1
 44
0.0
173
     0
291
     1
 45
0.0
1001
ACAD
1000
AcDbSavedByObjectVersion
1070
     0
  0
DICTIONARYVAR
  5
3A8
102
{ACAD_REACTORS
330
3A6
102
}
330
3A6
100
DictionaryVariables
280
     0
  1
80.000000
  0
DICTIONARYVAR
  5
3A7
102
{ACAD_REACTORS
330
3A6
102
}
330
3A6
100
DictionaryVariables
280
     0
  1
5.000000
  0
DICTIONARY
  5
3A9
330
1E
100
AcDbDictionary
280
     1
281
     1
  3
ACAD_XREC_ROUNDTRIP
360
3AA
  0
DICTIONARY
  5
3AD
330
26
100
AcDbDictionary
280
     1
281
     1
  3
ACAD_XREC_ROUNDTRIP
360
3AE
  0
DICTIONARY
  5
3AB
330
22
100
AcDbDictionary
280
     1
281
     1
  3
ACAD_XREC_ROUNDTRIP
360
3AC
  0
XRECORD
  5
3AA
102
{ACAD_REACTORS
330
3A9
102
}
330
3A9
100
AcDbXrecord
280
     1
102
SHADEPLOT
 70
     0
102
SHADEPLOTRESLEVEL
 70
     5
102
SHADEPLOTCUSTOMDPI
 70
   300
  0
XRECORD
  5
3AE
102
{ACAD_REACTORS
330
3AD
102
}
330
3AD
100
AcDbXrecord
280
     1
102
SHADEPLOT
 70
     0
102
SHADEPLOTRESLEVEL
 70
     5
102
SHADEPLOTCUSTOMDPI
 70
   300
  0
XRECORD
  5
3AC
102
{ACAD_REACTORS
330
3AB
102
}
330
3AB
100
AcDbXrecord
280
     1
102
SHADEPLOT
 70
     0
102
SHADEPLOTRESLEVEL
 70
     5
102
SHADEPLOTCUSTOMDPI
 70
   300
  0
ENDSEC
  0
EOF
