  0
SECTION
  2
HEADER
  9
$ACADVER
  1
AC1021
  9
$ACADMAINTVER
 70
    25
  9
$DWGCODEPAGE
  3
ANSI_932
  9
$INSBASE
 10
0.0
 20
0.0
 30
0.0
  9
$EXTMIN
 10
-840.0
 20
-594.0
 30
0.0
  9
$EXTMAX
 10
840.0
 20
594.0
 30
0.0
  9
$LIMMIN
 10
-840.0
 20
-594.0
  9
$LIMMAX
 10
840.0
 20
594.0
  9
$ORTHOMODE
 70
     0
  9
$REGENMODE
 70
     1
  9
$FILLMODE
 70
     1
  9
$QTEXTMODE
 70
     0
  9
$MIRRTEXT
 70
     1
  9
$LTSCALE
 40
4.0
  9
$ATTMODE
 70
     1
  9
$TEXTSIZE
 40
2.5
  9
$TRACEWID
 40
1.0
  9
$TEXTSTYLE
  7
Standard
  9
$CLAYER
  8
0
  9
$CELTYPE
  6
ByLayer
  9
$CECOLOR
 62
   256
  9
$CELTSCALE
 40
1.0
  9
$DISPSILH
 70
     0
  9
$DIMSCALE
 40
1.0
  9
$DIMASZ
 40
2.5
  9
$DIMEXO
 40
0.625
  9
$DIMDLI
 40
3.75
  9
$DIMRND
 40
0.0
  9
$DIMDLE
 40
0.0
  9
$DIMEXE
 40
1.25
  9
$DIMTP
 40
0.0
  9
$DIMTM
 40
0.0
  9
$DIMTXT
 40
2.5
  9
$DIMCEN
 40
2.5
  9
$DIMTSZ
 40
0.0
  9
$DIMTOL
 70
     0
  9
$DIMLIM
 70
     0
  9
$DIMTIH
 70
     0
  9
$DIMTOH
 70
     0
  9
$DIMSE1
 70
     0
  9
$DIMSE2
 70
     0
  9
$DIMTAD
 70
     1
  9
$DIMZIN
 70
     8
  9
$DIMBLK
  1

  9
$DIMASO
 70
     1
  9
$DIMSHO
 70
     1
  9
$DIMPOST
  1

  9
$DIMAPOST
  1

  9
$DIMALT
 70
     0
  9
$DIMALTD
 70
     3
  9
$DIMALTF
 40
0.03937007874016
  9
$DIMLFAC
 40
1.0
  9
$DIMTOFL
 70
     1
  9
$DIMTVP
 40
0.0
  9
$DIMTIX
 70
     0
  9
$DIMSOXD
 70
     0
  9
$DIMSAH
 70
     0
  9
$DIMBLK1
  1

  9
$DIMBLK2
  1

  9
$DIMSTYLE
  2
ISO-25
  9
$DIMCLRD
 70
     0
  9
$DIMCLRE
 70
     0
  9
$DIMCLRT
 70
     0
  9
$DIMTFAC
 40
1.0
  9
$DIMGAP
 40
0.625
  9
$DIMJUST
 70
     0
  9
$DIMSD1
 70
     0
  9
$DIMSD2
 70
     0
  9
$DIMTOLJ
 70
     0
  9
$DIMTZIN
 70
     8
  9
$DIMALTZ
 70
     0
  9
$DIMALTTZ
 70
     0
  9
$DIMUPT
 70
     0
  9
$DIMDEC
 70
     2
  9
$DIMTDEC
 70
     2
  9
$DIMALTU
 70
     2
  9
$DIMALTTD
 70
     3
  9
$DIMTXSTY
  7
Standard
  9
$DIMAUNIT
 70
     0
  9
$DIMADEC
 70
     0
  9
$DIMALTRND
 40
0.0
  9
$DIMAZIN
 70
     0
  9
$DIMDSEP
 70
    44
  9
$DIMATFIT
 70
     3
  9
$DIMFRAC
 70
     0
  9
$DIMLDRBLK
  1

  9
$DIMLUNIT
 70
     2
  9
$DIMLWD
 70
    -2
  9
$DIMLWE
 70
    -2
  9
$DIMTMOVE
 70
     0
  9
$DIMFXL
 40
1.0
  9
$DIMFXLON
 70
     0
  9
$DIMJOGANG
 40
0.7853981633974483
  9
$DIMTFILL
 70
     0
  9
$DIMTFILLCLR
 70
     0
  9
$DIMARCSYM
 70
     0
  9
$DIMLTYPE
  6

  9
$DIMLTEX1
  6

  9
$DIMLTEX2
  6

  9
$LUNITS
 70
     2
  9
$LUPREC
 70
     4
  9
$SKETCHINC
 40
1.0
  9
$FILLETRAD
 40
10.0
  9
$AUNITS
 70
     0
  9
$AUPREC
 70
     0
  9
$MENU
  1
.
  9
$ELEVATION
 40
0.0
  9
$PELEVATION
 40
0.0
  9
$THICKNESS
 40
0.0
  9
$LIMCHECK
 70
     0
  9
$CHAMFERA
 40
10.0
  9
$CHAMFERB
 40
10.0
  9
$CHAMFERC
 40
20.0
  9
$CHAMFERD
 40
0.0
  9
$SKPOLY
 70
     0
  9
$TDCREATE
 40
2458933.738343692
  9
$TDUCREATE
 40
2458933.363343692
  9
$TDUPDATE
 40
2458933.738343704
  9
$TDUUPDATE
 40
2458933.363343704
  9
$TDINDWG
 40
0.0000000116
  9
$TDUSRTIMER
 40
0.0000000116
  9
$USRTIMER
 70
     1
  9
$ANGBASE
 50
0.0
  9
$ANGDIR
 70
     0
  9
$PDMODE
 70
     0
  9
$PDSIZE
 40
0.0
  9
$PLINEWID
 40
0.0
  9
$SPLFRAME
 70
     0
  9
$SPLINETYPE
 70
     6
  9
$SPLINESEGS
 70
     8
  9
$HANDSEED
  5
505
  9
$SURFTAB1
 70
     6
  9
$SURFTAB2
 70
     6
  9
$SURFTYPE
 70
     6
  9
$SURFU
 70
     6
  9
$SURFV
 70
     6
  9
$UCSBASE
  2

  9
$UCSNAME
  2

  9
$UCSORG
 10
0.0
 20
0.0
 30
0.0
  9
$UCSXDIR
 10
1.0
 20
0.0
 30
0.0
  9
$UCSYDIR
 10
0.0
 20
1.0
 30
0.0
  9
$UCSORTHOREF
  2

  9
$UCSORTHOVIEW
 70
     0
  9
$UCSORGTOP
 10
0.0
 20
0.0
 30
0.0
  9
$UCSORGBOTTOM
 10
0.0
 20
0.0
 30
0.0
  9
$UCSORGLEFT
 10
0.0
 20
0.0
 30
0.0
  9
$UCSORGRIGHT
 10
0.0
 20
0.0
 30
0.0
  9
$UCSORGFRONT
 10
0.0
 20
0.0
 30
0.0
  9
$UCSORGBACK
 10
0.0
 20
0.0
 30
0.0
  9
$PUCSBASE
  2

  9
$PUCSNAME
  2

  9
$PUCSORG
 10
0.0
 20
0.0
 30
0.0
  9
$PUCSXDIR
 10
1.0
 20
0.0
 30
0.0
  9
$PUCSYDIR
 10
0.0
 20
1.0
 30
0.0
  9
$PUCSORTHOREF
  2

  9
$PUCSORTHOVIEW
 70
     0
  9
$PUCSORGTOP
 10
0.0
 20
0.0
 30
0.0
  9
$PUCSORGBOTTOM
 10
0.0
 20
0.0
 30
0.0
  9
$PUCSORGLEFT
 10
0.0
 20
0.0
 30
0.0
  9
$PUCSORGRIGHT
 10
0.0
 20
0.0
 30
0.0
  9
$PUCSORGFRONT
 10
0.0
 20
0.0
 30
0.0
  9
$PUCSORGBACK
 10
0.0
 20
0.0
 30
0.0
  9
$USERI1
 70
     0
  9
$USERI2
 70
     0
  9
$USERI3
 70
     0
  9
$USERI4
 70
     0
  9
$USERI5
 70
     0
  9
$USERR1
 40
0.0
  9
$USERR2
 40
0.0
  9
$USERR3
 40
0.0
  9
$USERR4
 40
0.0
  9
$USERR5
 40
0.0
  9
$WORLDVIEW
 70
     1
  9
$SHADEDGE
 70
     3
  9
$SHADEDIF
 70
    70
  9
$TILEMODE
 70
     1
  9
$MAXACTVP
 70
    64
  9
$PINSBASE
 10
0.0
 20
0.0
 30
0.0
  9
$PLIMCHECK
 70
     0
  9
$PEXTMIN
 10
1.000000000000000E+20
 20
1.000000000000000E+20
 30
1.000000000000000E+20
  9
$PEXTMAX
 10
-1.000000000000000E+20
 20
-1.000000000000000E+20
 30
-1.000000000000000E+20
  9
$PLIMMIN
 10
0.0
 20
0.0
  9
$PLIMMAX
 10
420.0
 20
297.0
  9
$UNITMODE
 70
     0
  9
$VISRETAIN
 70
     1
  9
$PLINEGEN
 70
     0
  9
$PSLTSCALE
 70
     1
  9
$TREEDEPTH
 70
  3020
  9
$CMLSTYLE
  2
Standard
  9
$CMLJUST
 70
     0
  9
$CMLSCALE
 40
20.0
  9
$PROXYGRAPHICS
 70
     1
  9
$MEASUREMENT
 70
     1
  9
$CELWEIGHT
370
    -1
  9
$ENDCAPS
280
     0
  9
$JOINSTYLE
280
     0
  9
$LWDISPLAY
290
     0
  9
$INSUNITS
 70
     4
  9
$HYPERLINKBASE
  1

  9
$STYLESHEET
  1

  9
$XEDIT
290
     1
  9
$CEPSNTYPE
380
     0
  9
$PSTYLEMODE
290
     1
  9
$FINGERPRINTGUID
  2
{2DBBB238-7B0A-468F-AD08-BD8F09EACF81}
  9
$VERSIONGUID
  2
{FAEB1C32-E019-11D5-929B-00C0DF256EC4}
  9
$EXTNAMES
290
     1
  9
$PSVPSCALE
 40
0.0
  9
$OLESTARTUP
290
     0
  9
$SORTENTS
280
   127
  9
$INDEXCTL
280
     0
  9
$HIDETEXT
280
     1
  9
$XCLIPFRAME
290
     0
  9
$HALOGAP
280
     0
  9
$OBSCOLOR
 70
   257
  9
$OBSLTYPE
280
     0
  9
$INTERSECTIONDISPLAY
280
     0
  9
$INTERSECTIONCOLOR
 70
   257
  9
$DIMASSOC
280
     2
  9
$PROJECTNAME
  1

  9
$CAMERADISPLAY
290
     0
  9
$LENSLENGTH
 40
50.0
  9
$CAMERAHEIGHT
 40
0.0
  9
$STEPSPERSEC
 40
2.0
  9
$STEPSIZE
 40
6.0
  9
$3DDWFPREC
 40
2.0
  9
$PSOLWIDTH
 40
5.0
  9
$PSOLHEIGHT
 40
80.0
  9
$LOFTANG1
 40
1.570796326794897
  9
$LOFTANG2
 40
1.570796326794897
  9
$LOFTMAG1
 40
0.0
  9
$LOFTMAG2
 40
0.0
  9
$LOFTPARAM
 70
     7
  9
$LOFTNORMALS
280
     1
  9
$LATITUDE
 40
37.795
  9
$LONGITUDE
 40
-122.394
  9
$NORTHDIRECTION
 40
0.0
  9
$TIMEZONE
 70
 -8000
  9
$LIGHTGLYPHDISPLAY
280
     1
  9
$TILEMODELIGHTSYNCH
280
     1
  9
$SOLIDHIST
280
     1
  9
$SHOWHIST
280
     1
  9
$DWFFRAME
280
     2
  9
$DGNFRAME
280
     2
  9
$REALWORLDSCALE
290
     1
  9
$INTERFERECOLOR
 62
   256
  9
$CSHADOW
280
     0
  9
$SHADOWPLANELOCATION
 40
0.0
  0
ENDSEC
  0
SECTION
  2
CLASSES
  0
CLASS
  1
ACDBDICTIONARYWDFLT
  2
AcDbDictionaryWithDefault
  3
ObjectDBX Classes
 90
        0
 91
        4
280
     0
281
     0
  0
CLASS
  1
VISUALSTYLE
  2
AcDbVisualStyle
  3
ObjectDBX Classes
 90
     4095
 91
        4
280
     0
281
     0
  0
ENDSEC
  0
SECTION
  2
TABLES
  0
TABLE
  2
VPORT
  5
8
330
0
100
AcDbSymbolTable
 70
     1
  0
VPORT
  5
29
330
8
100
AcDbSymbolTableRecord
100
AcDbViewportTableRecord
  2
*Active
 70
     0
 10
0.0
 20
0.0
 11
1.0
 21
1.0
 12
0.0
 22
0.0
 13
0.0
 23
0.0
 14
10.0
 24
10.0
 15
10.0
 25
10.0
 16
0.0
 26
0.0
 36
1.0
 17
0.0
 27
0.0
 37
0.0
 40
1306.8
 41
1.414141414141414
 42
50.0
 43
0.0
 44
0.0
 50
0.0
 51
0.0
 71
     0
 72
 10000
 73
     1
 74
     3
 75
     0
 76
     0
 77
     0
 78
     0
281
     0
 65
     1
110
0.0
120
0.0
130
0.0
111
1.0
121
0.0
131
0.0
112
0.0
122
1.0
132
0.0
 79
     0
146
0.0
 60
     3
 61
     5
292
     1
282
     1
141
0.0
142
0.0
 63
   256
  0
ENDTAB
  0
TABLE
  2
LTYPE
  5
5
330
0
100
AcDbSymbolTable
 70
     5
  0
LTYPE
  5
14
330
5
100
AcDbSymbolTableRecord
100
AcDbLinetypeTableRecord
  2
ByBlock
 70
     0
  3

 72
    65
 73
     0
 40
0.0
  0
LTYPE
  5
15
330
5
100
AcDbSymbolTableRecord
100
AcDbLinetypeTableRecord
  2
ByLayer
 70
     0
  3

 72
    65
 73
     0
 40
0.0
  0
LTYPE
  5
16
330
5
100
AcDbSymbolTableRecord
100
AcDbLinetypeTableRecord
  2
Continuous
 70
     0
  3
Solid line
 72
    65
 73
     0
 40
0.0
  0
LTYPE
  5
3C
330
5
100
AcDbSymbolTableRecord
100
AcDbLinetypeTableRecord
  2
JWW_CENTER1
 70
     0
  3
-----  --  ----------  --  -----
 72
    65
 73
     4
 40
6.773333333333333
 49
4.233333333333333
 74
     0
 49
-0.8466666666666667
 74
     0
 49
0.8466666666666667
 74
     0
 49
-0.8466666666666667
 74
     0
  0
LTYPE
  5
3D
330
5
100
AcDbSymbolTableRecord
100
AcDbLinetypeTableRecord
  2
JWW_DASHED3
 70
     0
  3
---  ------  ------  ------  ---
 72
    65
 73
     2
 40
3.386666666666667
 49
2.54
 74
     0
 49
-0.8466666666666667
 74
     0
  0
LTYPE
  5
3E
330
5
100
AcDbSymbolTableRecord
100
AcDbLinetypeTableRecord
  2
JWW_CENTER2
 70
     0
  3
-------------  --  -------------
 72
    65
 73
     4
 40
13.54666666666667
 49
11.00666666666667
 74
     0
 49
-0.8466666666666667
 74
     0
 49
0.8466666666666667
 74
     0
 49
-0.8466666666666667
 74
     0
  0
LTYPE
  5
3F
330
5
100
AcDbSymbolTableRecord
100
AcDbLinetypeTableRecord
  2
JWW_DASHED1
 70
     0
  3
-  --  --  --  --  --  --  --  -
 72
    65
 73
     2
 40
1.693333333333333
 49
0.8466666666666667
 74
     0
 49
-0.8466666666666667
 74
     0
  0
ENDTAB
  0
TABLE
  2
LAYER
  5
2
330
0
100
AcDbSymbolTable
 70
    11
  0
LAYER
  5
10
330
2
100
AcDbSymbolTableRecord
100
AcDbLayerTableRecord
  2
0
 70
     0
 62
     7
  6
Continuous
370
    -3
390
F
347
0
  0
LAYER
  5
40
330
2
100
AcDbSymbolTableRecord
100
AcDbLayerTableRecord
  2
F-5ﾚｲﾔ
 70
     0
 62
     7
  6
Continuous
370
    -1
390
F
347
0
  0
LAYER
  5
41
330
2
100
AcDbSymbolTableRecord
100
AcDbLayerTableRecord
  2
通り芯
 70
     0
 62
     7
  6
Continuous
370
    -1
390
F
347
0
  0
LAYER
  5
42
330
2
100
AcDbSymbolTableRecord
100
AcDbLayerTableRecord
  2
躯体
 70
     0
 62
     7
  6
Continuous
370
    -1
390
F
347
0
  0
LAYER
  5
43
330
2
100
AcDbSymbolTableRecord
100
AcDbLayerTableRecord
  2
仕上
 70
     0
 62
     7
  6
Continuous
370
    -1
390
F
347
0
  0
LAYER
  5
44
330
2
100
AcDbSymbolTableRecord
100
AcDbLayerTableRecord
  2
0-A
 70
     0
 62
     7
  6
Continuous
370
    -1
390
F
347
0
  0
LAYER
  5
45
330
2
100
AcDbSymbolTableRecord
100
AcDbLayerTableRecord
  2
その他
 70
     0
 62
     7
  6
Continuous
370
    -1
390
F
347
0
  0
LAYER
  5
46
330
2
100
AcDbSymbolTableRecord
100
AcDbLayerTableRecord
  2
寸法
 70
     0
 62
     7
  6
Continuous
370
    -1
390
F
347
0
  0
LAYER
  5
47
330
2
100
AcDbSymbolTableRecord
100
AcDbLayerTableRecord
  2
建具
 70
     0
 62
     7
  6
Continuous
370
    -1
390
F
347
0
  0
LAYER
  5
48
330
2
100
AcDbSymbolTableRecord
100
AcDbLayerTableRecord
  2
0-F
 70
     0
 62
     7
  6
Continuous
370
    -1
390
F
347
0
  0
LAYER
  5
49
330
2
100
AcDbSymbolTableRecord
100
AcDbLayerTableRecord
  2
ハッチ
 70
     0
 62
     7
  6
Continuous
370
    -1
390
F
347
0
  0
ENDTAB
  0
TABLE
  2
STYLE
  5
3
330
0
100
AcDbSymbolTable
 70
     2
  0
STYLE
  5
11
330
3
100
AcDbSymbolTableRecord
100
AcDbTextStyleTableRecord
  2
Standard
 70
     0
 40
0.0
 41
1.0
 50
0.0
 71
     0
 42
2.5
  3
txt
  4

1001
ACAD
1000

1071
        0
  0
STYLE
  5
3B
330
3
100
AcDbSymbolTableRecord
100
AcDbTextStyleTableRecord
  2
ＭＳ ゴシック
 70
     0
 40
1.0
 41
1.0
 50
0.0
 71
     0
 42
10.0
  3

  4

1001
ACAD
1000
MS Gothic
1071
    32817
  0
ENDTAB
  0
TABLE
  2
VIEW
  5
6
330
0
100
AcDbSymbolTable
 70
     0
  0
ENDTAB
  0
TABLE
  2
UCS
  5
7
330
0
100
AcDbSymbolTable
 70
     0
  0
ENDTAB
  0
TABLE
  2
APPID
  5
9
330
0
100
AcDbSymbolTable
 70
     1
  0
APPID
  5
12
330
9
100
AcDbSymbolTableRecord
100
AcDbRegAppTableRecord
  2
ACAD
 70
     0
  0
ENDTAB
  0
TABLE
  2
DIMSTYLE
  5
A
330
0
100
AcDbSymbolTable
 70
     1
100
AcDbDimStyleTable
  0
DIMSTYLE
105
27
330
A
100
AcDbSymbolTableRecord
100
AcDbDimStyleTableRecord
  2
ISO-25
 70
     0
 41
2.5
 42
0.625
 43
3.75
 44
1.25
 73
     0
 74
     0
 77
     1
 78
     8
140
2.5
141
2.5
143
0.03937007874016
147
0.625
171
     3
172
     1
271
     2
272
     2
274
     3
278
    44
283
     0
284
     8
340
11
  0
ENDTAB
  0
TABLE
  2
BLOCK_RECORD
  5
1
330
0
100
AcDbSymbolTable
 70
     1
  0
BLOCK_RECORD
  5
1F
330
1
100
AcDbSymbolTableRecord
100
AcDbBlockTableRecord
  2
*Model_Space
340
22
 70
     0
280
     1
281
     0
  0
BLOCK_RECORD
  5
1B
330
1
100
AcDbSymbolTableRecord
100
AcDbBlockTableRecord
  2
*Paper_Space
340
1E
 70
     0
280
     1
281
     0
  0
BLOCK_RECORD
  5
23
330
1
100
AcDbSymbolTableRecord
100
AcDbBlockTableRecord
  2
*Paper_Space0
340
26
 70
     0
280
     1
281
     0
  0
ENDTAB
  0
ENDSEC
  0
SECTION
  2
BLOCKS
  0
BLOCK
  5
20
330
1F
100
AcDbEntity
  8
0
100
AcDbBlockBegin
  2
*Model_Space
 70
     0
 10
0.0
 20
0.0
 30
0.0
  3
*Model_Space
  1

  0
ENDBLK
  5
21
330
1F
100
AcDbEntity
  8
0
100
AcDbBlockEnd
  0
BLOCK
  5
1C
330
1B
100
AcDbEntity
 67
     1
  8
0
100
AcDbBlockBegin
  2
*Paper_Space
 70
     0
 10
0.0
 20
0.0
 30
0.0
  3
*Paper_Space
  1

  0
ENDBLK
  5
1D
330
1B
100
AcDbEntity
 67
     1
  8
0
100
AcDbBlockEnd
  0
BLOCK
  5
24
330
23
100
AcDbEntity
  8
0
100
AcDbBlockBegin
  2
*Paper_Space0
 70
     0
 10
0.0
 20
0.0
 30
0.0
  3
*Paper_Space0
  1

  0
ENDBLK
  5
25
330
23
100
AcDbEntity
  8
0
100
AcDbBlockEnd
  0
ENDSEC
  0
SECTION
  2
ENTITIES
  0
TEXT
  5
4A
330
1F
100
AcDbEntity
  8
F-5ﾚｲﾔ
  6
Continuous
 62
     2
370
     9
100
AcDbText
 10
370.4999934016048
 20
-538.9873042783995
 30
0.0
 40
12.192
  1
1：4
 41
1.09375
  7
ＭＳ ゴシック
100
AcDbText
  0
TEXT
  5
4B
330
1F
100
AcDbEntity
  8
F-5ﾚｲﾔ
  6
Continuous
 62
     2
370
     9
100
AcDbText
 10
-315.5531342385219
 20
-528.4488751053836
 30
0.0
 40
12.192
  1
タイル用　充填深さ４０ｍｍ　ステンレス目地　集水桝用　カラー舗装用みぞ蓋　
 41
0.7743243243243243
  7
ＭＳ ゴシック
100
AcDbText
  0
LINE
  5
4C
330
1F
100
AcDbEntity
  8
通り芯
  6
Continuous
 62
     3
370
     9
100
AcDbLine
 10
-196.1763512344869
 20
354.3708554614217
 30
0.0
 11
-194.1763446360915
 21
354.3708554614217
 31
0.0
  0
LINE
  5
4D
330
1F
100
AcDbEntity
  8
通り芯
  6
Continuous
 62
     3
370
     9
100
AcDbLine
 10
-198.6763347384986
 20
356.870789477469
 30
0.0
 11
-191.6762621561506
 21
356.870789477469
 31
0.0
  0
LINE
  5
4E
330
1F
100
AcDbEntity
  8
通り芯
  6
Continuous
 62
     3
370
     9
100
AcDbLine
 10
-198.6763347384986
 20
356.870789477469
 30
0.0
 11
-196.1763512344869
 21
354.3708554614217
 31
0.0
  0
LINE
  5
4F
330
1F
100
AcDbEntity
  8
通り芯
  6
Continuous
 62
     3
370
     9
100
AcDbLine
 10
-194.1763446360915
 20
354.3708554614217
 30
0.0
 11
-191.6762621561506
 21
356.870789477469
 31
0.0
  0
LINE
  5
50
330
1F
100
AcDbEntity
  8
通り芯
  6
Continuous
 62
     3
370
     9
100
AcDbLine
 10
-72.6764139192419
 20
230.8708686582124
 30
0.0
 11
-72.6764139192419
 21
232.8708752566076
 31
0.0
  0
LINE
  5
51
330
1F
100
AcDbEntity
  8
通り芯
  6
Continuous
 62
     3
370
     9
100
AcDbLine
 10
-70.17638092726565
 20
228.3708356662359
 30
0.0
 11
-70.17638092726565
 21
235.3709082485838
 31
0.0
  0
LINE
  5
52
330
1F
100
AcDbEntity
  8
通り芯
  6
Continuous
 62
     3
370
     9
100
AcDbLine
 10
-70.17638092726565
 20
228.3708356662359
 30
0.0
 11
-72.6764139192419
 21
230.8708686582124
 31
0.0
  0
LINE
  5
53
330
1F
100
AcDbEntity
  8
通り芯
  6
Continuous
 62
     3
370
     9
100
AcDbLine
 10
-72.6764139192419
 20
232.8708752566076
 30
0.0
 11
-70.17638092726565
 21
235.3709082485838
 31
0.0
  0
LINE
  5
54
330
1F
100
AcDbEntity
  8
通り芯
  6
Continuous
 62
     3
370
     9
100
AcDbLine
 10
-204.6763545336844
 20
235.3709082485838
 30
0.0
 11
-365.676341336894
 21
235.3709082485838
 31
0.0
  0
LINE
  5
55
330
1F
100
AcDbEntity
  8
通り芯
  6
Continuous
 62
     3
370
     9
100
AcDbLine
 10
-198.6763347384986
 20
241.3708290678407
 30
0.0
 11
-198.6763347384986
 21
356.870789477469
 31
0.0
  0
LINE
  5
56
330
1F
100
AcDbEntity
  8
通り芯
  6
Continuous
 62
     3
370
     9
100
AcDbLine
 10
-204.6763545336844
 20
228.3708356662359
 30
0.0
 11
-365.676341336894
 21
228.3708356662359
 31
0.0
  0
LINE
  5
57
330
1F
100
AcDbEntity
  8
通り芯
  6
Continuous
 62
     3
370
     9
100
AcDbLine
 10
-198.6763347384986
 20
222.3709148469792
 30
0.0
 11
-198.6763347384986
 21
61.37073009191153
 31
0.0
  0
LINE
  5
58
330
1F
100
AcDbEntity
  8
通り芯
  6
Continuous
 62
     3
370
     9
100
AcDbLine
 10
-191.6762621561506
 20
222.3709148469792
 30
0.0
 11
-191.6762621561506
 21
61.37073009191153
 31
0.0
  0
LINE
  5
59
330
1F
100
AcDbEntity
  8
通り芯
  6
Continuous
 62
     3
370
     9
100
AcDbLine
 10
-185.6762918489294
 20
228.3708356662359
 30
0.0
 11
-70.17638092726565
 21
228.3708356662359
 31
0.0
  0
LINE
  5
5A
330
1F
100
AcDbEntity
  8
通り芯
  6
Continuous
 62
     3
370
     9
100
AcDbLine
 10
-191.6762621561506
 20
241.3708290678407
 30
0.0
 11
-191.6762621561506
 21
356.870789477469
 31
0.0
  0
LINE
  5
5B
330
1F
100
AcDbEntity
  8
通り芯
  6
Continuous
 62
     3
370
     9
100
AcDbLine
 10
-185.6762918489294
 20
235.3709082485838
 30
0.0
 11
-70.17638092726565
 21
235.3709082485838
 31
0.0
  0
LINE
  5
5C
330
1F
100
AcDbEntity
  8
通り芯
  6
Continuous
 62
     3
370
     9
100
AcDbLine
 10
-365.676341336894
 20
232.8708752566076
 30
0.0
 11
-204.6763545336844
 21
232.8708752566076
 31
0.0
  0
LINE
  5
5D
330
1F
100
AcDbEntity
  8
通り芯
  6
Continuous
 62
     3
370
     9
100
AcDbLine
 10
-196.1763512344869
 20
241.3708290678407
 30
0.0
 11
-196.1763512344869
 21
354.3708554614217
 31
0.0
  0
LINE
  5
5E
330
1F
100
AcDbEntity
  8
通り芯
  6
Continuous
 62
     3
370
     9
100
AcDbLine
 10
-365.676341336894
 20
230.8708686582124
 30
0.0
 11
-204.6763545336844
 21
230.8708686582124
 31
0.0
  0
LINE
  5
5F
330
1F
100
AcDbEntity
  8
通り芯
  6
Continuous
 62
     3
370
     9
100
AcDbLine
 10
-196.1763512344869
 20
61.37073009191153
 30
0.0
 11
-196.1763512344869
 21
222.3709148469792
 31
0.0
  0
LINE
  5
60
330
1F
100
AcDbEntity
  8
通り芯
  6
Continuous
 62
     3
370
     9
100
AcDbLine
 10
-194.1763446360915
 20
61.37073009191153
 30
0.0
 11
-194.1763446360915
 21
222.3709148469792
 31
0.0
  0
LINE
  5
61
330
1F
100
AcDbEntity
  8
通り芯
  6
Continuous
 62
     3
370
     9
100
AcDbLine
 10
-185.6762918489294
 20
230.8708686582124
 30
0.0
 11
-72.6764139192419
 21
230.8708686582124
 31
0.0
  0
LINE
  5
62
330
1F
100
AcDbEntity
  8
通り芯
  6
Continuous
 62
     3
370
     9
100
AcDbLine
 10
-185.6762918489294
 20
232.8708752566076
 30
0.0
 11
-72.6764139192419
 21
232.8708752566076
 31
0.0
  0
LINE
  5
63
330
1F
100
AcDbEntity
  8
通り芯
  6
Continuous
 62
     3
370
     9
100
AcDbLine
 10
-194.1763446360915
 20
241.3708290678407
 30
0.0
 11
-194.1763446360915
 21
354.3708554614217
 31
0.0
  0
LINE
  5
64
330
1F
100
AcDbEntity
  8
通り芯
  6
Continuous
 62
     3
370
     9
100
AcDbLine
 10
355.6616152720587
 20
406.5466103178407
 30
0.0
 11
355.6616152720587
 21
389.4524776109151
 31
0.0
  0
LINE
  5
65
330
1F
100
AcDbEntity
  8
通り芯
  6
Continuous
 62
     3
370
     9
100
AcDbLine
 10
380.2684168979033
 20
383.9702998765401
 30
0.0
 11
359.3765777931737
 21
385.462559958888
 31
0.0
  0
LINE
  5
66
330
1F
100
AcDbEntity
  8
通り芯
  6
Continuous
 62
     3
370
     9
100
AcDbLine
 10
381.6616020752683
 20
379.1717488841413
 30
0.0
 11
381.6616020752683
 21
382.4741797329588
 31
0.0
  0
LINE
  5
67
330
1F
100
AcDbEntity
  8
通り芯
  6
Continuous
 62
     3
370
     9
100
AcDbLine
 10
372.954491644525
 20
376.4841565066076
 30
0.0
 11
380.3737272864171
 21
377.6869119964724
 31
0.0
  0
LINE
  5
68
330
1F
100
AcDbEntity
  8
通り芯
  6
Continuous
 62
     3
370
     9
100
AcDbLine
 10
341.6616680592208
 20
220.8708356662359
 30
0.0
 11
357.6616218704542
 21
219.8708818550028
 31
0.0
  0
LINE
  5
69
330
1F
100
AcDbEntity
  8
通り芯
  6
Continuous
 62
     3
370
     9
100
AcDbLine
 10
357.6616218704542
 20
219.8708818550028
 30
0.0
 11
341.6616680592208
 21
221.3708620598169
 31
0.0
  0
LINE
  5
6A
330
1F
100
AcDbEntity
  8
通り芯
  6
Continuous
 62
     3
370
     9
100
AcDbLine
 10
357.6616218704542
 20
219.8708818550028
 30
0.0
 11
357.6616218704542
 21
203.8708290678407
 31
0.0
  0
LINE
  5
6B
330
1F
100
AcDbEntity
  8
通り芯
  6
Continuous
 62
     3
370
     9
100
AcDbLine
 10
361.9903341276329
 20
228.7817837236684
 30
0.0
 11
363.3329426052512
 21
230.4600195767088
 31
0.0
  0
LINE
  5
6C
330
1F
100
AcDbEntity
  8
通り芯
  6
Continuous
 62
     3
370
     9
100
AcDbLine
 10
363.3329426052512
 20
233.2818233140401
 30
0.0
 11
361.9903341276329
 21
234.9600591670805
 31
0.0
  0
LINE
  5
6D
330
1F
100
AcDbEntity
  8
通り芯
  6
Continuous
 62
     3
370
     9
100
AcDbLine
 10
391.3273933548292
 20
227.7226423068609
 30
0.0
 11
373.1094879494237
 21
226.3650884639555
 31
0.0
  0
LINE
  5
6E
330
1F
100
AcDbEntity
  8
通り芯
  6
Continuous
 62
     3
370
     9
100
AcDbLine
 10
373.1094879494237
 20
237.3767544267934
 30
0.0
 11
391.3273933548292
 21
236.019200583888
 31
0.0
  0
LINE
  5
6F
330
1F
100
AcDbEntity
  8
躯体
  6
Continuous
 62
     2
370
     9
100
AcDbLine
 10
356.4615387306737
 20
390.8707036983305
 30
0.0
 11
356.4615387306737
 21
404.8709478389555
 31
0.0
  0
LINE
  5
70
330
1F
100
AcDbEntity
  8
躯体
  6
Continuous
 62
     2
370
     9
100
AcDbLine
 10
356.4615387306737
 20
390.8707036983305
 30
0.0
 11
358.0615835997617
 21
392.3458409449522
 31
0.0
  0
LINE
  5
71
330
1F
100
AcDbEntity
  8
躯体
  6
Continuous
 62
     2
370
     9
100
AcDbLine
 10
356.4615387306737
 20
404.8709478389555
 30
0.0
 11
358.0615835997617
 21
403.3958105923338
 31
0.0
  0
LINE
  5
72
330
1F
100
AcDbEntity
  8
躯体
  6
Continuous
 62
     2
370
     9
100
AcDbLine
 10
356.4615387306737
 20
395.1083581007799
 30
0.0
 11
361.6616350672446
 21
395.1083581007799
 31
0.0
  0
LINE
  5
73
330
1F
100
AcDbEntity
  8
躯体
  6
Continuous
 62
     2
370
     9
100
AcDbLine
 10
356.4615387306737
 20
400.6332934365061
 30
0.0
 11
361.6616350672446
 21
400.6332934365061
 31
0.0
  0
LINE
  5
74
330
1F
100
AcDbEntity
  8
躯体
  6
Continuous
 62
     2
370
     9
100
AcDbLine
 10
355.6616152720587
 20
390.8707036983305
 30
0.0
 11
356.4615387306737
 21
390.8707036983305
 31
0.0
  0
LINE
  5
75
330
1F
100
AcDbEntity
  8
躯体
  6
Continuous
 62
     2
370
     9
100
AcDbLine
 10
355.6616152720587
 20
404.8709478389555
 30
0.0
 11
356.4615387306737
 21
404.8709478389555
 31
0.0
  0
LINE
  5
76
330
1F
100
AcDbEntity
  8
躯体
  6
Continuous
 62
     2
370
     9
100
AcDbLine
 10
358.0615835997617
 20
392.3458409449522
 30
0.0
 11
361.6616350672446
 21
392.3458409449522
 31
0.0
  0
LINE
  5
77
330
1F
100
AcDbEntity
  8
躯体
  6
Continuous
 62
     2
370
     9
100
AcDbLine
 10
361.6616350672446
 20
392.3458409449522
 30
0.0
 11
361.6616350672446
 21
403.3958105923338
 31
0.0
  0
LINE
  5
78
330
1F
100
AcDbEntity
  8
躯体
  6
Continuous
 62
     2
370
     9
100
AcDbLine
 10
364.6614965009437
 20
394.8707168951211
 30
0.0
 11
364.6614965009437
 21
400.8708356662359
 31
0.0
  0
LINE
  5
79
330
1F
100
AcDbEntity
  8
躯体
  6
Continuous
 62
     2
370
     9
100
AcDbLine
 10
364.6614965009437
 20
394.8707168951211
 30
0.0
 11
365.661648264035
 21
395.8707696822832
 31
0.0
  0
LINE
  5
7A
330
1F
100
AcDbEntity
  8
躯体
  6
Continuous
 62
     2
370
     9
100
AcDbLine
 10
365.661648264035
 20
399.8707828790738
 30
0.0
 11
364.6614965009437
 21
400.8708356662359
 31
0.0
  0
LINE
  5
7B
330
1F
100
AcDbEntity
  8
躯体
  6
Continuous
 62
     2
370
     9
100
AcDbLine
 10
358.0615835997617
 20
403.3958105923338
 30
0.0
 11
361.6616350672446
 21
403.3958105923338
 31
0.0
  0
LINE
  5
7C
330
1F
100
AcDbEntity
  8
躯体
  6
Continuous
 62
     2
370
     9
100
AcDbLine
 10
365.661648264035
 20
395.8707696822832
 30
0.0
 11
365.661648264035
 21
399.8707828790738
 31
0.0
  0
LINE
  5
7D
330
1F
100
AcDbEntity
  8
躯体
  6
Continuous
 62
     2
370
     9
100
AcDbLine
 10
336.6616020752683
 20
387.8707432887022
 30
0.0
 11
336.6616020752683
 21
411.8708224694455
 31
0.0
  0
LINE
  5
7E
330
1F
100
AcDbEntity
  8
躯体
  6
Continuous
 62
     2
370
     9
100
AcDbLine
 10
341.6616680592208
 20
383.8707300919115
 30
0.0
 11
341.6616680592208
 21
411.8708224694455
 31
0.0
  0
LINE
  5
7F
330
1F
100
AcDbEntity
  8
躯体
  6
Continuous
 62
     2
370
     9
100
AcDbLine
 10
341.6616680592208
 20
387.8707432887022
 30
0.0
 11
321.6615030993391
 21
387.8707432887022
 31
0.0
  0
LINE
  5
80
330
1F
100
AcDbEntity
  8
躯体
  6
Continuous
 62
     2
370
     9
100
AcDbLine
 10
341.6616680592208
 20
383.8707300919115
 30
0.0
 11
321.6615030993391
 21
383.8707300919115
 31
0.0
  0
LINE
  5
81
330
1F
100
AcDbEntity
  8
躯体
  6
Continuous
 62
     2
370
     9
100
AcDbLine
 10
341.6616680592208
 20
411.8708224694455
 30
0.0
 11
336.6616020752683
 21
411.8708224694455
 31
0.0
  0
LINE
  5
82
330
1F
100
AcDbEntity
  8
躯体
  6
Continuous
 62
     2
370
     9
100
AcDbLine
 10
361.6616350672446
 20
400.8708356662359
 30
0.0
 11
364.6614965009437
 21
400.8708356662359
 31
0.0
  0
LINE
  5
83
330
1F
100
AcDbEntity
  8
躯体
  6
Continuous
 62
     2
370
     9
100
AcDbLine
 10
365.661648264035
 20
399.8707828790738
 30
0.0
 11
361.6616350672446
 21
399.8707828790738
 31
0.0
  0
LINE
  5
84
330
1F
100
AcDbEntity
  8
躯体
  6
Continuous
 62
     2
370
     9
100
AcDbLine
 10
361.6616350672446
 20
395.8707696822832
 30
0.0
 11
365.661648264035
 21
395.8707696822832
 31
0.0
  0
LINE
  5
85
330
1F
100
AcDbEntity
  8
躯体
  6
Continuous
 62
     2
370
     9
100
AcDbLine
 10
361.6616350672446
 20
394.8707168951211
 30
0.0
 11
364.6614965009437
 21
394.8707168951211
 31
0.0
  0
LINE
  5
86
330
1F
100
AcDbEntity
  8
通り芯
  6
Continuous
 62
     3
370
     9
100
AcDbLine
 10
341.6616680592208
 20
402.3707168951211
 30
0.0
 11
355.6616152720587
 21
402.3707168951211
 31
0.0
  0
LINE
  5
87
330
1F
100
AcDbEntity
  8
通り芯
  6
Continuous
 62
     3
370
     9
100
AcDbLine
 10
341.6616680592208
 20
393.3708356662359
 30
0.0
 11
355.6616152720587
 21
393.3708356662359
 31
0.0
  0
LINE
  5
88
330
1F
100
AcDbEntity
  8
通り芯
  6
Continuous
 62
     3
370
     9
100
AcDbLine
 10
354.3477098138662
 20
408.0351093148847
 30
0.0
 11
341.6616680592208
 21
409.6209016501886
 31
0.0
  0
LINE
  5
89
330
1F
100
AcDbEntity
  8
仕上
  6
Continuous
 62
     4
370
     9
100
AcDbLine
 10
352.6616548624304
 20
214.3708884533982
 30
0.0
 11
352.6616548624304
 21
209.3708224694455
 31
0.0
  0
LINE
  5
8A
330
1F
100
AcDbEntity
  8
仕上
  6
Continuous
 62
     4
370
     9
100
AcDbLine
 10
339.1615360913154
 20
214.3708884533982
 30
0.0
 11
339.1615360913154
 21
209.3708224694455
 31
0.0
  0
LINE
  5
8B
330
1F
100
AcDbEntity
  8
仕上
  6
Continuous
 62
     4
370
     9
100
AcDbLine
 10
324.6615624848966
 20
214.3708884533982
 30
0.0
 11
324.6615624848966
 21
209.3708224694455
 31
0.0
  0
LINE
  5
8C
330
1F
100
AcDbEntity
  8
仕上
  6
Continuous
 62
     2
370
     9
100
AcDbLine
 10
345.1616548624304
 20
215.3708422646311
 30
0.0
 11
352.1616284688491
 21
215.3708422646311
 31
0.0
  0
LINE
  5
8D
330
1F
100
AcDbEntity
  8
仕上
  6
Continuous
 62
     2
370
     9
100
AcDbLine
 10
345.1616548624304
 20
208.3708686582124
 30
0.0
 11
345.1616548624304
 21
215.3708422646311
 31
0.0
  0
LINE
  5
8E
330
1F
100
AcDbEntity
  8
仕上
  6
Continuous
 62
     2
370
     9
100
AcDbLine
 10
352.1616284688491
 20
215.3708422646311
 30
0.0
 11
352.1616284688491
 21
208.3708686582124
 31
0.0
  0
LINE
  5
8F
330
1F
100
AcDbEntity
  8
仕上
  6
Continuous
 62
     4
370
     9
100
AcDbLine
 10
324.6615624848966
 20
214.3708884533982
 30
0.0
 11
345.1616548624304
 21
214.3708884533982
 31
0.0
  0
LINE
  5
90
330
1F
100
AcDbEntity
  8
仕上
  6
Continuous
 62
     4
370
     9
100
AcDbLine
 10
352.1616284688491
 20
214.3708884533982
 30
0.0
 11
352.6616548624304
 21
214.3708884533982
 31
0.0
  0
LINE
  5
91
330
1F
100
AcDbEntity
  8
通り芯
  6
Continuous
 62
     3
370
     9
100
AcDbLine
 10
-374.1763446360917
 20
354.3708554614217
 30
0.0
 11
-376.1763512344869
 21
354.3708554614217
 31
0.0
  0
LINE
  5
92
330
1F
100
AcDbEntity
  8
通り芯
  6
Continuous
 62
     3
370
     9
100
AcDbLine
 10
-371.6763611320798
 20
356.870789477469
 30
0.0
 11
-378.6764337144277
 21
356.870789477469
 31
0.0
  0
LINE
  5
93
330
1F
100
AcDbEntity
  8
通り芯
  6
Continuous
 62
     3
370
     9
100
AcDbLine
 10
-371.6763611320798
 20
356.870789477469
 30
0.0
 11
-374.1763446360917
 21
354.3708554614217
 31
0.0
  0
LINE
  5
94
330
1F
100
AcDbEntity
  8
通り芯
  6
Continuous
 62
     3
370
     9
100
AcDbLine
 10
-376.1763512344869
 20
354.3708554614217
 30
0.0
 11
-378.6764337144277
 21
356.870789477469
 31
0.0
  0
LINE
  5
95
330
1F
100
AcDbEntity
  8
通り芯
  6
Continuous
 62
     3
370
     9
100
AcDbLine
 10
-497.6762819513367
 20
230.8708686582124
 30
0.0
 11
-497.6762819513367
 21
232.8708752566076
 31
0.0
  0
LINE
  5
96
330
1F
100
AcDbEntity
  8
通り芯
  6
Continuous
 62
     3
370
     9
100
AcDbLine
 10
-500.1762654553484
 20
228.3708356662359
 30
0.0
 11
-500.1762654553484
 21
235.3709082485838
 31
0.0
  0
LINE
  5
97
330
1F
100
AcDbEntity
  8
通り芯
  6
Continuous
 62
     3
370
     9
100
AcDbLine
 10
-500.1762654553484
 20
228.3708356662359
 30
0.0
 11
-497.6762819513367
 21
230.8708686582124
 31
0.0
  0
LINE
  5
98
330
1F
100
AcDbEntity
  8
通り芯
  6
Continuous
 62
     3
370
     9
100
AcDbLine
 10
-497.6762819513367
 20
232.8708752566076
 30
0.0
 11
-500.1762654553484
 21
235.3709082485838
 31
0.0
  0
LINE
  5
99
330
1F
100
AcDbEntity
  8
通り芯
  6
Continuous
 62
     3
370
     9
100
AcDbLine
 10
-371.6763611320798
 20
241.3708290678407
 30
0.0
 11
-371.6763611320798
 21
356.870789477469
 31
0.0
  0
LINE
  5
9A
330
1F
100
AcDbEntity
  8
通り芯
  6
Continuous
 62
     3
370
     9
100
AcDbLine
 10
-371.6763611320798
 20
222.3709148469792
 30
0.0
 11
-371.6763611320798
 21
61.37073009191153
 31
0.0
  0
LINE
  5
9B
330
1F
100
AcDbEntity
  8
通り芯
  6
Continuous
 62
     3
370
     9
100
AcDbLine
 10
-378.6764337144277
 20
222.3709148469792
 30
0.0
 11
-378.6764337144277
 21
61.37073009191153
 31
0.0
  0
LINE
  5
9C
330
1F
100
AcDbEntity
  8
通り芯
  6
Continuous
 62
     3
370
     9
100
AcDbLine
 10
-384.6764040216492
 20
228.3708356662359
 30
0.0
 11
-500.1762654553484
 21
228.3708356662359
 31
0.0
  0
LINE
  5
9D
330
1F
100
AcDbEntity
  8
通り芯
  6
Continuous
 62
     3
370
     9
100
AcDbLine
 10
-378.6764337144277
 20
241.3708290678407
 30
0.0
 11
-378.6764337144277
 21
356.870789477469
 31
0.0
  0
LINE
  5
9E
330
1F
100
AcDbEntity
  8
通り芯
  6
Continuous
 62
     3
370
     9
100
AcDbLine
 10
-384.6764040216492
 20
235.3709082485838
 30
0.0
 11
-500.1762654553484
 21
235.3709082485838
 31
0.0
  0
LINE
  5
9F
330
1F
100
AcDbEntity
  8
通り芯
  6
Continuous
 62
     3
370
     9
100
AcDbLine
 10
-374.1763446360917
 20
241.3708290678407
 30
0.0
 11
-374.1763446360917
 21
354.3708554614217
 31
0.0
  0
LINE
  5
A0
330
1F
100
AcDbEntity
  8
通り芯
  6
Continuous
 62
     3
370
     9
100
AcDbLine
 10
-374.1763446360917
 20
61.37073009191153
 30
0.0
 11
-374.1763446360917
 21
222.3709148469792
 31
0.0
  0
LINE
  5
A1
330
1F
100
AcDbEntity
  8
通り芯
  6
Continuous
 62
     3
370
     9
100
AcDbLine
 10
-376.1763512344869
 20
61.37073009191153
 30
0.0
 11
-376.1763512344869
 21
222.3709148469792
 31
0.0
  0
LINE
  5
A2
330
1F
100
AcDbEntity
  8
通り芯
  6
Continuous
 62
     3
370
     9
100
AcDbLine
 10
-384.6764040216492
 20
230.8708686582124
 30
0.0
 11
-497.6762819513367
 21
230.8708686582124
 31
0.0
  0
LINE
  5
A3
330
1F
100
AcDbEntity
  8
通り芯
  6
Continuous
 62
     3
370
     9
100
AcDbLine
 10
-384.6764040216492
 20
232.8708752566076
 30
0.0
 11
-497.6762819513367
 21
232.8708752566076
 31
0.0
  0
LINE
  5
A4
330
1F
100
AcDbEntity
  8
通り芯
  6
Continuous
 62
     3
370
     9
100
AcDbLine
 10
-376.1763512344869
 20
241.3708290678407
 30
0.0
 11
-376.1763512344869
 21
354.3708554614217
 31
0.0
  0
LINE
  5
A5
330
1F
100
AcDbEntity
  8
躯体
  6
Continuous
 62
     2
370
     9
100
AcDbLine
 10
355.6616152720587
 20
400.8708356662359
 30
0.0
 11
341.6616680592208
 21
400.8708356662359
 31
0.0
  0
LINE
  5
A6
330
1F
100
AcDbEntity
  8
躯体
  6
Continuous
 62
     2
370
     9
100
AcDbLine
 10
355.6616152720587
 20
399.8707828790738
 30
0.0
 11
341.6616680592208
 21
399.8707828790738
 31
0.0
  0
LINE
  5
A7
330
1F
100
AcDbEntity
  8
躯体
  6
Continuous
 62
     2
370
     9
100
AcDbLine
 10
355.6616152720587
 20
394.8709148469792
 30
0.0
 11
341.6616680592208
 21
394.8709148469792
 31
0.0
  0
LINE
  5
A8
330
1F
100
AcDbEntity
  8
躯体
  6
Continuous
 62
     2
370
     9
100
AcDbLine
 10
355.6616152720587
 20
395.8707696822832
 30
0.0
 11
341.6616680592208
 21
395.8707696822832
 31
0.0
  0
LINE
  5
A9
330
1F
100
AcDbEntity
  8
通り芯
  6
Continuous
 62
     3
370
     9
100
AcDbLine
 10
368.6615096977346
 20
221.3957050180097
 30
0.0
 11
368.6615096977346
 21
62.34593992088111
 31
0.0
  0
LINE
  5
AA
330
1F
100
AcDbEntity
  8
通り芯
  6
JWW_CENTER1
 62
     7
370
     9
100
AcDbLine
 10
338.5928204029708
 20
397.8708752566076
 30
0.0
 11
370.8845090642883
 21
397.8708752566076
 31
0.0
  0
LINE
  5
AB
330
1F
100
AcDbEntity
  8
通り芯
  6
Continuous
 62
     3
370
     9
100
AcDbLine
 10
-25.31959909660668
 20
221.9741203474015
 30
0.0
 11
-25.19419659449522
 21
222.8708422646311
 31
0.0
  0
LINE
  5
AC
330
1F
100
AcDbEntity
  8
通り芯
  6
Continuous
 62
     3
370
     9
100
AcDbLine
 10
-25.33404958224855
 20
221.7663698723169
 30
0.0
 11
-25.33404958224855
 21
221.3708620598169
 31
0.0
  0
LINE
  5
AD
330
1F
100
AcDbEntity
  8
通り芯
  6
Continuous
 62
     3
370
     9
100
AcDbLine
 10
340.8324477256062
 20
222.2854986202055
 30
0.0
 11
339.6615624848966
 21
222.8708422646311
 31
0.0
  0
LINE
  5
AE
330
1F
100
AcDbEntity
  8
通り芯
  6
Continuous
 62
     3
370
     9
100
AcDbLine
 10
341.6616680592208
 20
214.3708884533982
 30
0.0
 11
341.6616680592208
 21
220.9437809259488
 31
0.0
  0
LINE
  5
AF
330
1F
100
AcDbEntity
  8
躯体
  6
Continuous
 62
     2
370
     9
100
AcDbLine
 10
-551.1763594824808
 20
383.8707300919115
 30
0.0
 11
-19.17636113207982
 21
383.8707300919115
 31
0.0
  0
LINE
  5
B0
330
1F
100
AcDbEntity
  8
躯体
  6
Continuous
 62
     2
370
     9
100
AcDbLine
 10
-551.1763594824808
 20
387.8707432887022
 30
0.0
 11
-19.17636113207982
 21
387.8707432887022
 31
0.0
  0
LINE
  5
B1
330
1F
100
AcDbEntity
  8
通り芯
  6
Continuous
 62
     3
370
     9
100
AcDbLine
 10
-19.17636113207982
 20
221.8708884533982
 30
0.0
 11
-25.33048644880273
 21
221.8708884533982
 31
0.0
  0
LINE
  5
B2
330
1F
100
AcDbEntity
  8
通り芯
  6
Continuous
 62
     3
370
     9
100
AcDbLine
 10
-25.19419659449522
 20
222.8708422646311
 30
0.0
 11
-19.17636113207982
 21
222.8708422646311
 31
0.0
  0
LINE
  5
B3
330
1F
100
AcDbEntity
  8
通り芯
  6
Continuous
 62
     3
370
     9
100
AcDbLine
 10
361.9903341276329
 20
356.4599403959657
 30
0.0
 11
363.3329426052512
 21
354.7817045429251
 31
0.0
  0
LINE
  5
B4
330
1F
100
AcDbEntity
  8
通り芯
  6
Continuous
 62
     3
370
     9
100
AcDbLine
 10
-24.47483954213044
 20
218.8708290678407
 30
0.0
 11
-24.47483954213044
 21
214.3708884533982
 31
0.0
  0
LINE
  5
B5
330
1F
100
AcDbEntity
  8
通り芯
  6
Continuous
 62
     3
370
     9
100
AcDbLine
 10
-26.47989391290753
 20
204.5033842304251
 30
0.0
 11
-26.47989391290753
 21
208.3708686582124
 31
0.0
  0
LINE
  5
B6
330
1F
100
AcDbEntity
  8
通り芯
  6
Continuous
 62
     3
370
     9
100
AcDbLine
 10
-26.47989391290753
 20
219.3634322667428
 30
0.0
 11
-26.47989391290753
 21
215.3708422646311
 31
0.0
  0
LINE
  5
B7
330
1F
100
AcDbEntity
  8
通り芯
  6
Continuous
 62
     3
370
     9
100
AcDbLine
 10
-26.76563742008648
 20
73.87079607586423
 30
0.0
 11
-26.76563742008648
 21
209.8708488630265
 31
0.0
  0
LINE
  5
B8
330
1F
100
AcDbEntity
  8
通り芯
  6
Continuous
 62
     3
370
     9
100
AcDbLine
 10
-23.18904324778919
 20
219.6802542156447
 30
0.0
 11
-23.18904324778919
 21
214.3708884533982
 31
0.0
  0
LINE
  5
B9
330
1F
100
AcDbEntity
  8
通り芯
  6
Continuous
 62
     3
370
     9
100
AcDbLine
 10
-24.34854625665753
 20
221.1411389284826
 30
0.0
 11
-25.33404958224855
 21
221.3708620598169
 31
0.0
  0
LINE
  5
BA
330
1F
100
AcDbEntity
  8
通り芯
  6
Continuous
 62
     3
370
     9
100
AcDbLine
 10
-26.17188082169127
 20
220.2740108140401
 30
0.0
 11
-25.33404958224855
 21
221.3708620598169
 31
0.0
  0
LINE
  5
BB
330
1F
100
AcDbEntity
  8
通り芯
  6
Continuous
 62
     3
370
     9
100
AcDbLine
 10
-25.47479335336357
 20
219.8708818550028
 30
0.0
 11
-26.3915084082621
 21
219.8708818550028
 31
0.0
  0
LINE
  5
BC
330
1F
100
AcDbEntity
  8
通り芯
  6
Continuous
 62
     3
370
     9
100
AcDbLine
 10
-25.31959909660668
 20
201.7675905754419
 30
0.0
 11
-25.19419659449522
 21
200.8708686582124
 31
0.0
  0
LINE
  5
BD
330
1F
100
AcDbEntity
  8
通り芯
  6
Continuous
 62
     3
370
     9
100
AcDbLine
 10
-25.33404958224855
 20
201.9753410505265
 30
0.0
 11
-25.33404958224855
 21
202.3708488630265
 31
0.0
  0
LINE
  5
BE
330
1F
100
AcDbEntity
  8
通り芯
  6
Continuous
 62
     3
370
     9
100
AcDbLine
 10
-19.17636113207982
 20
201.8708224694455
 30
0.0
 11
-25.33048644880273
 21
201.8708224694455
 31
0.0
  0
LINE
  5
BF
330
1F
100
AcDbEntity
  8
通り芯
  6
Continuous
 62
     3
370
     9
100
AcDbLine
 10
-25.19419659449522
 20
200.8708686582124
 30
0.0
 11
-19.17636113207982
 21
200.8708686582124
 31
0.0
  0
LINE
  5
C0
330
1F
100
AcDbEntity
  8
通り芯
  6
Continuous
 62
     3
370
     9
100
AcDbLine
 10
-24.47483954213044
 20
204.8708818550028
 30
0.0
 11
-24.47483954213044
 21
209.3708224694455
 31
0.0
  0
LINE
  5
C1
330
1F
100
AcDbEntity
  8
通り芯
  6
Continuous
 62
     3
370
     9
100
AcDbLine
 10
-23.18904324778919
 20
204.0614567071988
 30
0.0
 11
-23.18904324778919
 21
209.3708224694455
 31
0.0
  0
LINE
  5
C2
330
1F
100
AcDbEntity
  8
通り芯
  6
Continuous
 62
     3
370
     9
100
AcDbLine
 10
-24.34854625665753
 20
202.6005719943609
 30
0.0
 11
-25.33404958224855
 21
202.3708488630265
 31
0.0
  0
LINE
  5
C3
330
1F
100
AcDbEntity
  8
通り芯
  6
Continuous
 62
     3
370
     9
100
AcDbLine
 10
-26.17188082169127
 20
203.4677001088034
 30
0.0
 11
-25.33404958224855
 21
202.3708488630265
 31
0.0
  0
LINE
  5
C4
330
1F
100
AcDbEntity
  8
通り芯
  6
Continuous
 62
     3
370
     9
100
AcDbLine
 10
-25.47479335336357
 20
203.8708290678407
 30
0.0
 11
-26.3915084082621
 21
203.8708290678407
 31
0.0
  0
LINE
  5
C5
330
1F
100
AcDbEntity
  8
通り芯
  6
Continuous
 62
     3
370
     9
100
AcDbLine
 10
-25.19419659449522
 20
200.8708686582124
 30
0.0
 11
-25.19419659449522
 21
82.8707762806784
 31
0.0
  0
LINE
  5
C6
330
1F
100
AcDbEntity
  8
通り芯
  6
Continuous
 62
     3
370
     9
100
AcDbLine
 10
357.9465735702008
 20
378.546814868094
 30
0.0
 11
339.6615624848966
 21
379.8530002038205
 31
0.0
  0
LINE
  5
C7
330
1F
100
AcDbEntity
  8
通り芯
  6
Continuous
 62
     3
370
     9
100
AcDbLine
 10
381.6616020752683
 20
349.4864923385332
 30
0.0
 11
381.6616020752683
 21
379.1576943022157
 31
0.0
  0
LINE
  5
C8
330
1F
100
AcDbEntity
  8
通り芯
  6
Continuous
 62
     3
370
     9
100
AcDbLine
 10
384.9558179219741
 20
347.653260180594
 30
0.0
 11
369.2011264629371
 21
356.4211418317765
 31
0.0
  0
LINE
  5
C9
330
1F
100
AcDbEntity
  8
通り芯
  6
Continuous
 62
     3
370
     9
100
AcDbLine
 10
392.6614899025487
 20
334.5463727756109
 30
0.0
 11
392.6614899025487
 21
-50.80472783672013
 31
0.0
  0
LINE
  5
CA
330
1F
100
AcDbEntity
  8
通り芯
  6
Continuous
 62
     3
370
     9
100
AcDbLine
 10
-26.76563742008648
 20
374.2814472055097
 30
0.0
 11
-26.76563742008648
 21
213.8708620598169
 31
0.0
  0
LINE
  5
CB
330
1F
100
AcDbEntity
  8
通り芯
  6
Continuous
 62
     3
370
     9
100
AcDbLine
 10
-25.19419659449522
 20
375.8529870070299
 30
0.0
 11
-25.19419659449522
 21
222.8708422646311
 31
0.0
  0
LINE
  5
CC
330
1F
100
AcDbEntity
  8
通り芯
  6
Continuous
 62
     3
370
     9
100
AcDbLine
 10
-29.19420979128586
 20
379.8530002038205
 30
0.0
 11
-541.1584860792925
 21
379.8530002038205
 31
0.0
  0
LINE
  5
CD
330
1F
100
AcDbEntity
  8
通り芯
  6
Continuous
 62
     3
370
     9
100
AcDbLine
 10
-30.76565061687711
 20
378.2814604023001
 30
0.0
 11
-539.5870947416659
 21
378.2814604023001
 31
0.0
  0
LINE
  5
CE
330
1F
100
AcDbEntity
  8
通り芯
  6
Continuous
 62
     3
370
     9
100
AcDbLine
 10
-545.0331215179538
 20
221.9741203474015
 30
0.0
 11
-545.1585240200654
 21
222.8708422646311
 31
0.0
  0
LINE
  5
CF
330
1F
100
AcDbEntity
  8
通り芯
  6
Continuous
 62
     3
370
     9
100
AcDbLine
 10
-545.0186710323121
 20
221.7663698723169
 30
0.0
 11
-545.0186710323121
 21
221.3708620598169
 31
0.0
  0
LINE
  5
D0
330
1F
100
AcDbEntity
  8
通り芯
  6
Continuous
 62
     3
370
     9
100
AcDbLine
 10
-551.1763594824808
 20
221.8708884533982
 30
0.0
 11
-545.0222589097405
 21
221.8708884533982
 31
0.0
  0
LINE
  5
D1
330
1F
100
AcDbEntity
  8
通り芯
  6
Continuous
 62
     3
370
     9
100
AcDbLine
 10
-545.1585240200654
 20
222.8708422646311
 30
0.0
 11
-551.1763594824808
 21
222.8708422646311
 31
0.0
  0
LINE
  5
D2
330
1F
100
AcDbEntity
  8
通り芯
  6
Continuous
 62
     3
370
     9
100
AcDbLine
 10
-545.8778563284479
 20
218.8708290678407
 30
0.0
 11
-545.8778563284479
 21
214.3708884533982
 31
0.0
  0
LINE
  5
D3
330
1F
100
AcDbEntity
  8
通り芯
  6
Continuous
 62
     3
370
     9
100
AcDbLine
 10
-543.8728267016534
 20
204.5033842304251
 30
0.0
 11
-543.8728267016534
 21
208.3708686582124
 31
0.0
  0
LINE
  5
D4
330
1F
100
AcDbEntity
  8
通り芯
  6
Continuous
 62
     3
370
     9
100
AcDbLine
 10
-543.8728267016534
 20
219.3634322667428
 30
0.0
 11
-543.8728267016534
 21
215.3708422646311
 31
0.0
  0
LINE
  5
D5
330
1F
100
AcDbEntity
  8
通り芯
  6
Continuous
 62
     3
370
     9
100
AcDbLine
 10
-543.5870831944742
 20
73.87079607586423
 30
0.0
 11
-543.5870831944742
 21
209.8708488630265
 31
0.0
  0
LINE
  5
D6
330
1F
100
AcDbEntity
  8
通り芯
  6
Continuous
 62
     3
370
     9
100
AcDbLine
 10
-547.1636031348246
 20
219.6802542156447
 30
0.0
 11
-547.1636031348246
 21
214.3708884533982
 31
0.0
  0
LINE
  5
D7
330
1F
100
AcDbEntity
  8
通り芯
  6
Continuous
 62
     3
370
     9
100
AcDbLine
 10
-546.0041496139208
 20
221.1411389284826
 30
0.0
 11
-545.0186710323121
 21
221.3708620598169
 31
0.0
  0
LINE
  5
D8
330
1F
100
AcDbEntity
  8
通り芯
  6
Continuous
 62
     3
370
     9
100
AcDbLine
 10
-544.1808150488871
 20
220.2740108140401
 30
0.0
 11
-545.0186710323121
 21
221.3708620598169
 31
0.0
  0
LINE
  5
D9
330
1F
100
AcDbEntity
  8
通り芯
  6
Continuous
 62
     3
370
     9
100
AcDbLine
 10
-544.8778530292504
 20
219.8708818550028
 30
0.0
 11
-543.9612369502809
 21
219.8708818550028
 31
0.0
  0
LINE
  5
DA
330
1F
100
AcDbEntity
  8
通り芯
  6
Continuous
 62
     3
370
     9
100
AcDbLine
 10
-545.0331215179538
 20
201.7675905754419
 30
0.0
 11
-545.1585240200654
 21
200.8708686582124
 31
0.0
  0
LINE
  5
DB
330
1F
100
AcDbEntity
  8
通り芯
  6
Continuous
 62
     3
370
     9
100
AcDbLine
 10
-545.0186710323121
 20
201.9753410505265
 30
0.0
 11
-545.0186710323121
 21
202.3708488630265
 31
0.0
  0
LINE
  5
DC
330
1F
100
AcDbEntity
  8
通り芯
  6
Continuous
 62
     3
370
     9
100
AcDbLine
 10
-551.1763594824808
 20
201.8708224694455
 30
0.0
 11
-545.0222589097405
 21
201.8708224694455
 31
0.0
  0
LINE
  5
DD
330
1F
100
AcDbEntity
  8
通り芯
  6
Continuous
 62
     3
370
     9
100
AcDbLine
 10
-545.1585240200654
 20
200.8708686582124
 30
0.0
 11
-551.1763594824808
 21
200.8708686582124
 31
0.0
  0
LINE
  5
DE
330
1F
100
AcDbEntity
  8
通り芯
  6
Continuous
 62
     3
370
     9
100
AcDbLine
 10
-545.8778563284479
 20
204.8708818550028
 30
0.0
 11
-545.8778563284479
 21
209.3708224694455
 31
0.0
  0
LINE
  5
DF
330
1F
100
AcDbEntity
  8
通り芯
  6
Continuous
 62
     3
370
     9
100
AcDbLine
 10
-547.1636031348246
 20
204.0614567071988
 30
0.0
 11
-547.1636031348246
 21
209.3708224694455
 31
0.0
  0
LINE
  5
E0
330
1F
100
AcDbEntity
  8
通り芯
  6
Continuous
 62
     3
370
     9
100
AcDbLine
 10
-546.0041496139208
 20
202.6005719943609
 30
0.0
 11
-545.0186710323121
 21
202.3708488630265
 31
0.0
  0
LINE
  5
E1
330
1F
100
AcDbEntity
  8
通り芯
  6
Continuous
 62
     3
370
     9
100
AcDbLine
 10
-544.1808150488871
 20
203.4677001088034
 30
0.0
 11
-545.0186710323121
 21
202.3708488630265
 31
0.0
  0
LINE
  5
E2
330
1F
100
AcDbEntity
  8
通り芯
  6
Continuous
 62
     3
370
     9
100
AcDbLine
 10
-544.8778530292504
 20
203.8708290678407
 30
0.0
 11
-543.9612369502809
 21
203.8708290678407
 31
0.0
  0
LINE
  5
E3
330
1F
100
AcDbEntity
  8
通り芯
  6
Continuous
 62
     3
370
     9
100
AcDbLine
 10
-545.1585240200654
 20
200.8708686582124
 30
0.0
 11
-545.1585240200654
 21
82.8707762806784
 31
0.0
  0
LINE
  5
E4
330
1F
100
AcDbEntity
  8
通り芯
  6
Continuous
 62
     3
370
     9
100
AcDbLine
 10
-543.5870831944742
 20
374.2814472055097
 30
0.0
 11
-543.5870831944742
 21
213.8708620598169
 31
0.0
  0
LINE
  5
E5
330
1F
100
AcDbEntity
  8
通り芯
  6
Continuous
 62
     3
370
     9
100
AcDbLine
 10
-545.1585240200654
 20
375.8529870070299
 30
0.0
 11
-545.1585240200654
 21
222.8708422646311
 31
0.0
  0
LINE
  5
E6
330
1F
100
AcDbEntity
  8
通り芯
  6
Continuous
 62
     3
370
     9
100
AcDbLine
 10
341.6616680592208
 20
202.8708752566076
 30
0.0
 11
357.6616218704542
 21
203.8708290678407
 31
0.0
  0
LINE
  5
E7
330
1F
100
AcDbEntity
  8
通り芯
  6
Continuous
 62
     3
370
     9
100
AcDbLine
 10
357.6616218704542
 20
203.8708290678407
 30
0.0
 11
341.6616680592208
 21
202.3708488630265
 31
0.0
  0
LINE
  5
E8
330
1F
100
AcDbEntity
  8
仕上
  6
Continuous
 62
     2
370
     9
100
AcDbLine
 10
345.1616548624304
 20
208.3708686582124
 30
0.0
 11
352.1616284688491
 21
208.3708686582124
 31
0.0
  0
LINE
  5
E9
330
1F
100
AcDbEntity
  8
仕上
  6
Continuous
 62
     4
370
     9
100
AcDbLine
 10
324.6615624848966
 20
209.3708224694455
 30
0.0
 11
345.1616548624304
 21
209.3708224694455
 31
0.0
  0
LINE
  5
EA
330
1F
100
AcDbEntity
  8
仕上
  6
Continuous
 62
     4
370
     9
100
AcDbLine
 10
352.1616284688491
 20
209.3708224694455
 30
0.0
 11
352.6616548624304
 21
209.3708224694455
 31
0.0
  0
LINE
  5
EB
330
1F
100
AcDbEntity
  8
通り芯
  6
Continuous
 62
     3
370
     9
100
AcDbLine
 10
340.8324477256062
 20
201.456212302638
 30
0.0
 11
339.6615624848966
 21
200.8708686582124
 31
0.0
  0
LINE
  5
EC
330
1F
100
AcDbEntity
  8
通り芯
  6
Continuous
 62
     3
370
     9
100
AcDbLine
 10
341.6616680592208
 20
209.3708224694455
 30
0.0
 11
341.6616680592208
 21
202.7979299968947
 31
0.0
  0
LINE
  5
ED
330
1F
100
AcDbEntity
  8
躯体
  6
Continuous
 62
     2
370
     9
100
AcDbLine
 10
336.6616020752683
 20
402.8707432887022
 30
0.0
 11
321.6615030993391
 21
402.8707432887022
 31
0.0
  0
LINE
  5
EE
330
1F
100
AcDbEntity
  8
躯体
  6
Continuous
 62
     2
370
     9
100
AcDbLine
 10
336.6616020752683
 20
398.8707300919115
 30
0.0
 11
321.6615030993391
 21
398.8707300919115
 31
0.0
  0
LINE
  5
EF
330
1F
100
AcDbEntity
  8
躯体
  6
Continuous
 62
     2
370
     9
100
AcDbLine
 10
-19.17636113207982
 20
-119.1290983498114
 30
0.0
 11
-19.17636113207982
 21
402.8707432887022
 31
0.0
  0
LINE
  5
F0
330
1F
100
AcDbEntity
  8
躯体
  6
Continuous
 62
     2
370
     9
100
AcDbLine
 10
-15.17634793528919
 20
402.8707432887022
 30
0.0
 11
-555.1763479352892
 21
402.8707432887022
 31
0.0
  0
LINE
  5
F1
330
1F
100
AcDbEntity
  8
躯体
  6
Continuous
 62
     2
370
     9
100
AcDbLine
 10
-15.17634793528919
 20
-119.1290983498114
 30
0.0
 11
-15.17634793528919
 21
402.8707432887022
 31
0.0
  0
LINE
  5
F2
330
1F
100
AcDbEntity
  8
躯体
  6
Continuous
 62
     2
370
     9
100
AcDbLine
 10
-555.1763479352892
 20
-119.1290983498114
 30
0.0
 11
-555.1763479352892
 21
402.8707432887022
 31
0.0
  0
LINE
  5
F3
330
1F
100
AcDbEntity
  8
躯体
  6
Continuous
 62
     2
370
     9
100
AcDbLine
 10
-551.1763594824808
 20
-119.1290983498114
 30
0.0
 11
-551.1763594824808
 21
402.8707432887022
 31
0.0
  0
LINE
  5
F4
330
1F
100
AcDbEntity
  8
躯体
  6
Continuous
 62
     2
370
     9
100
AcDbLine
 10
-19.17636113207982
 20
398.8707300919115
 30
0.0
 11
-551.1763594824808
 21
398.8707300919115
 31
0.0
  0
LINE
  5
F5
330
1F
100
AcDbEntity
  8
躯体
  6
Continuous
 62
     2
370
     9
100
AcDbLine
 10
-537.676339687295
 20
411.8709214453744
 30
0.0
 11
-512.6763314393008
 21
411.8709214453744
 31
0.0
  0
LINE
  5
F6
330
1F
100
AcDbEntity
  8
躯体
  6
Continuous
 62
     2
370
     9
100
AcDbLine
 10
-417.6763644312775
 20
411.8709214453744
 30
0.0
 11
-392.6763809272654
 21
411.8709214453744
 31
0.0
  0
LINE
  5
F7
330
1F
100
AcDbEntity
  8
躯体
  6
Continuous
 62
     2
370
     9
100
AcDbLine
 10
-177.6762654553484
 20
411.8709214453744
 30
0.0
 11
-152.6762819513365
 21
411.8709214453744
 31
0.0
  0
LINE
  5
F8
330
1F
100
AcDbEntity
  8
躯体
  6
Continuous
 62
     2
370
     9
100
AcDbLine
 10
-297.6763149433129
 20
411.8710204213036
 30
0.0
 11
-272.6763809272657
 21
411.8710204213036
 31
0.0
  0
LINE
  5
F9
330
1F
100
AcDbEntity
  8
躯体
  6
Continuous
 62
     2
370
     9
100
AcDbLine
 10
-57.67631494331295
 20
411.8709214453744
 30
0.0
 11
-32.67628195133648
 21
411.8709214453744
 31
0.0
  0
LINE
  5
FA
330
1F
100
AcDbEntity
  8
躯体
  6
Continuous
 62
     2
370
     9
100
AcDbLine
 10
-537.676339687295
 20
411.8709214453744
 30
0.0
 11
-537.676339687295
 21
402.8707432887022
 31
0.0
  0
LINE
  5
FB
330
1F
100
AcDbEntity
  8
躯体
  6
Continuous
 62
     2
370
     9
100
AcDbLine
 10
-537.676339687295
 20
398.8707300919115
 30
0.0
 11
-537.676339687295
 21
387.8707432887022
 31
0.0
  0
LINE
  5
FC
330
1F
100
AcDbEntity
  8
躯体
  6
Continuous
 62
     2
370
     9
100
AcDbLine
 10
-512.6763314393008
 20
411.8709214453744
 30
0.0
 11
-512.6763314393008
 21
402.8707432887022
 31
0.0
  0
LINE
  5
FD
330
1F
100
AcDbEntity
  8
躯体
  6
Continuous
 62
     2
370
     9
100
AcDbLine
 10
-512.6763314393008
 20
398.8707300919115
 30
0.0
 11
-512.6763314393008
 21
387.8707432887022
 31
0.0
  0
LINE
  5
FE
330
1F
100
AcDbEntity
  8
躯体
  6
Continuous
 62
     2
370
     9
100
AcDbLine
 10
-417.6763644312775
 20
411.8709214453744
 30
0.0
 11
-417.6763644312775
 21
402.8707432887022
 31
0.0
  0
LINE
  5
FF
330
1F
100
AcDbEntity
  8
躯体
  6
Continuous
 62
     2
370
     9
100
AcDbLine
 10
-417.6763644312775
 20
398.8707300919115
 30
0.0
 11
-417.6763644312775
 21
387.8707432887022
 31
0.0
  0
LINE
  5
100
330
1F
100
AcDbEntity
  8
躯体
  6
Continuous
 62
     2
370
     9
100
AcDbLine
 10
-392.6763809272654
 20
411.8709214453744
 30
0.0
 11
-392.6763809272654
 21
402.8707432887022
 31
0.0
  0
LINE
  5
101
330
1F
100
AcDbEntity
  8
躯体
  6
Continuous
 62
     2
370
     9
100
AcDbLine
 10
-392.6763809272654
 20
398.8707300919115
 30
0.0
 11
-392.6763809272654
 21
387.8707432887022
 31
0.0
  0
LINE
  5
102
330
1F
100
AcDbEntity
  8
躯体
  6
Continuous
 62
     2
370
     9
100
AcDbLine
 10
-297.6763149433129
 20
411.8710204213036
 30
0.0
 11
-297.6763149433129
 21
402.8707432887022
 31
0.0
  0
LINE
  5
103
330
1F
100
AcDbEntity
  8
躯体
  6
Continuous
 62
     2
370
     9
100
AcDbLine
 10
-297.6763149433129
 20
398.8707300919115
 30
0.0
 11
-297.6763149433129
 21
387.8708422646311
 31
0.0
  0
LINE
  5
104
330
1F
100
AcDbEntity
  8
躯体
  6
Continuous
 62
     2
370
     9
100
AcDbLine
 10
-272.6763809272657
 20
411.8710204213036
 30
0.0
 11
-272.6763809272657
 21
402.8707432887022
 31
0.0
  0
LINE
  5
105
330
1F
100
AcDbEntity
  8
躯体
  6
Continuous
 62
     2
370
     9
100
AcDbLine
 10
-272.6763809272657
 20
398.8707300919115
 30
0.0
 11
-272.6763809272657
 21
387.8708422646311
 31
0.0
  0
LINE
  5
106
330
1F
100
AcDbEntity
  8
躯体
  6
Continuous
 62
     2
370
     9
100
AcDbLine
 10
-177.6762654553484
 20
411.8709214453744
 30
0.0
 11
-177.6762654553484
 21
402.8707432887022
 31
0.0
  0
LINE
  5
107
330
1F
100
AcDbEntity
  8
躯体
  6
Continuous
 62
     2
370
     9
100
AcDbLine
 10
-177.6762654553484
 20
398.8707300919115
 30
0.0
 11
-177.6762654553484
 21
387.8707432887022
 31
0.0
  0
LINE
  5
108
330
1F
100
AcDbEntity
  8
躯体
  6
Continuous
 62
     2
370
     9
100
AcDbLine
 10
-152.6762819513365
 20
411.8709214453744
 30
0.0
 11
-152.6762819513365
 21
402.8707432887022
 31
0.0
  0
LINE
  5
109
330
1F
100
AcDbEntity
  8
躯体
  6
Continuous
 62
     2
370
     9
100
AcDbLine
 10
-152.6762819513365
 20
398.8707300919115
 30
0.0
 11
-152.6762819513365
 21
387.8707432887022
 31
0.0
  0
LINE
  5
10A
330
1F
100
AcDbEntity
  8
躯体
  6
Continuous
 62
     2
370
     9
100
AcDbLine
 10
-57.67631494331295
 20
411.8709214453744
 30
0.0
 11
-57.67631494331295
 21
402.8707432887022
 31
0.0
  0
LINE
  5
10B
330
1F
100
AcDbEntity
  8
躯体
  6
Continuous
 62
     2
370
     9
100
AcDbLine
 10
-57.67631494331295
 20
398.8707300919115
 30
0.0
 11
-57.67631494331295
 21
387.8707432887022
 31
0.0
  0
LINE
  5
10C
330
1F
100
AcDbEntity
  8
躯体
  6
Continuous
 62
     2
370
     9
100
AcDbLine
 10
-32.67628195133648
 20
411.8709214453744
 30
0.0
 11
-32.67628195133648
 21
402.8707432887022
 31
0.0
  0
LINE
  5
10D
330
1F
100
AcDbEntity
  8
躯体
  6
Continuous
 62
     2
370
     9
100
AcDbLine
 10
-32.67628195133648
 20
398.8707300919115
 30
0.0
 11
-32.67628195133648
 21
387.8707432887022
 31
0.0
  0
LINE
  5
10E
330
1F
100
AcDbEntity
  8
通り芯
  6
Continuous
 62
     3
370
     9
100
AcDbLine
 10
-196.1763512344869
 20
-70.62921052253097
 30
0.0
 11
-194.1763446360915
 21
-70.62921052253097
 31
0.0
  0
LINE
  5
10F
330
1F
100
AcDbEntity
  8
通り芯
  6
Continuous
 62
     3
370
     9
100
AcDbLine
 10
-198.6763347384986
 20
-73.12914453857826
 30
0.0
 11
-191.6762621561506
 21
-73.12914453857826
 31
0.0
  0
LINE
  5
110
330
1F
100
AcDbEntity
  8
通り芯
  6
Continuous
 62
     3
370
     9
100
AcDbLine
 10
-198.6763347384986
 20
-73.12914453857826
 30
0.0
 11
-196.1763512344869
 21
-70.62921052253097
 31
0.0
  0
LINE
  5
111
330
1F
100
AcDbEntity
  8
通り芯
  6
Continuous
 62
     3
370
     9
100
AcDbLine
 10
-194.1763446360915
 20
-70.62921052253097
 30
0.0
 11
-191.6762621561506
 21
-73.12914453857826
 31
0.0
  0
LINE
  5
112
330
1F
100
AcDbEntity
  8
通り芯
  6
Continuous
 62
     3
370
     9
100
AcDbLine
 10
-72.6764139192419
 20
52.8707762806784
 30
0.0
 11
-72.6764139192419
 21
50.8707696822832
 31
0.0
  0
LINE
  5
113
330
1F
100
AcDbEntity
  8
通り芯
  6
Continuous
 62
     3
370
     9
100
AcDbLine
 10
-70.17638092726565
 20
55.37080927265487
 30
0.0
 11
-70.17638092726565
 21
48.37073669030696
 31
0.0
  0
LINE
  5
114
330
1F
100
AcDbEntity
  8
通り芯
  6
Continuous
 62
     3
370
     9
100
AcDbLine
 10
-70.17638092726565
 20
55.37080927265487
 30
0.0
 11
-72.6764139192419
 21
52.8707762806784
 31
0.0
  0
LINE
  5
115
330
1F
100
AcDbEntity
  8
通り芯
  6
Continuous
 62
     3
370
     9
100
AcDbLine
 10
-72.6764139192419
 20
50.8707696822832
 30
0.0
 11
-70.17638092726565
 21
48.37073669030696
 31
0.0
  0
LINE
  5
116
330
1F
100
AcDbEntity
  8
通り芯
  6
Continuous
 62
     3
370
     9
100
AcDbLine
 10
-204.6763545336844
 20
48.37073669030696
 30
0.0
 11
-365.676341336894
 21
48.37073669030696
 31
0.0
  0
LINE
  5
117
330
1F
100
AcDbEntity
  8
通り芯
  6
Continuous
 62
     3
370
     9
100
AcDbLine
 10
-198.6763347384986
 20
42.37081587105007
 30
0.0
 11
-198.6763347384986
 21
-73.12914453857826
 31
0.0
  0
LINE
  5
118
330
1F
100
AcDbEntity
  8
通り芯
  6
Continuous
 62
     3
370
     9
100
AcDbLine
 10
-204.6763545336844
 20
55.37080927265487
 30
0.0
 11
-365.676341336894
 21
55.37080927265487
 31
0.0
  0
LINE
  5
119
330
1F
100
AcDbEntity
  8
通り芯
  6
Continuous
 62
     3
370
     9
100
AcDbLine
 10
-185.6762918489294
 20
55.37080927265487
 30
0.0
 11
-70.17638092726565
 21
55.37080927265487
 31
0.0
  0
LINE
  5
11A
330
1F
100
AcDbEntity
  8
通り芯
  6
Continuous
 62
     3
370
     9
100
AcDbLine
 10
-191.6762621561506
 20
42.37081587105007
 30
0.0
 11
-191.6762621561506
 21
-73.12914453857826
 31
0.0
  0
LINE
  5
11B
330
1F
100
AcDbEntity
  8
通り芯
  6
Continuous
 62
     3
370
     9
100
AcDbLine
 10
-185.6762918489294
 20
48.37073669030696
 30
0.0
 11
-70.17638092726565
 21
48.37073669030696
 31
0.0
  0
LINE
  5
11C
330
1F
100
AcDbEntity
  8
通り芯
  6
Continuous
 62
     3
370
     9
100
AcDbLine
 10
-365.676341336894
 20
50.8707696822832
 30
0.0
 11
-204.6763545336844
 21
50.8707696822832
 31
0.0
  0
LINE
  5
11D
330
1F
100
AcDbEntity
  8
通り芯
  6
Continuous
 62
     3
370
     9
100
AcDbLine
 10
-196.1763512344869
 20
42.37081587105007
 30
0.0
 11
-196.1763512344869
 21
-70.62921052253097
 31
0.0
  0
LINE
  5
11E
330
1F
100
AcDbEntity
  8
通り芯
  6
Continuous
 62
     3
370
     9
100
AcDbLine
 10
-365.676341336894
 20
52.8707762806784
 30
0.0
 11
-204.6763545336844
 21
52.8707762806784
 31
0.0
  0
LINE
  5
11F
330
1F
100
AcDbEntity
  8
通り芯
  6
Continuous
 62
     3
370
     9
100
AcDbLine
 10
-185.6762918489294
 20
52.8707762806784
 30
0.0
 11
-72.6764139192419
 21
52.8707762806784
 31
0.0
  0
LINE
  5
120
330
1F
100
AcDbEntity
  8
通り芯
  6
Continuous
 62
     3
370
     9
100
AcDbLine
 10
-185.6762918489294
 20
50.8707696822832
 30
0.0
 11
-72.6764139192419
 21
50.8707696822832
 31
0.0
  0
LINE
  5
121
330
1F
100
AcDbEntity
  8
通り芯
  6
Continuous
 62
     3
370
     9
100
AcDbLine
 10
-194.1763446360915
 20
42.37081587105007
 30
0.0
 11
-194.1763446360915
 21
-70.62921052253097
 31
0.0
  0
LINE
  5
122
330
1F
100
AcDbEntity
  8
通り芯
  6
Continuous
 62
     3
370
     9
100
AcDbLine
 10
-374.1763446360917
 20
-70.62921052253097
 30
0.0
 11
-376.1763512344869
 21
-70.62921052253097
 31
0.0
  0
LINE
  5
123
330
1F
100
AcDbEntity
  8
通り芯
  6
Continuous
 62
     3
370
     9
100
AcDbLine
 10
-371.6763611320798
 20
-73.12914453857826
 30
0.0
 11
-378.6764337144277
 21
-73.12914453857826
 31
0.0
  0
LINE
  5
124
330
1F
100
AcDbEntity
  8
通り芯
  6
Continuous
 62
     3
370
     9
100
AcDbLine
 10
-371.6763611320798
 20
-73.12914453857826
 30
0.0
 11
-374.1763446360917
 21
-70.62921052253097
 31
0.0
  0
LINE
  5
125
330
1F
100
AcDbEntity
  8
通り芯
  6
Continuous
 62
     3
370
     9
100
AcDbLine
 10
-376.1763512344869
 20
-70.62921052253097
 30
0.0
 11
-378.6764337144277
 21
-73.12914453857826
 31
0.0
  0
LINE
  5
126
330
1F
100
AcDbEntity
  8
通り芯
  6
Continuous
 62
     3
370
     9
100
AcDbLine
 10
-497.6762819513367
 20
52.8707762806784
 30
0.0
 11
-497.6762819513367
 21
50.8707696822832
 31
0.0
  0
LINE
  5
127
330
1F
100
AcDbEntity
  8
通り芯
  6
Continuous
 62
     3
370
     9
100
AcDbLine
 10
-500.1762654553484
 20
55.37080927265487
 30
0.0
 11
-500.1762654553484
 21
48.37073669030696
 31
0.0
  0
LINE
  5
128
330
1F
100
AcDbEntity
  8
通り芯
  6
Continuous
 62
     3
370
     9
100
AcDbLine
 10
-500.1762654553484
 20
55.37080927265487
 30
0.0
 11
-497.6762819513367
 21
52.8707762806784
 31
0.0
  0
LINE
  5
129
330
1F
100
AcDbEntity
  8
通り芯
  6
Continuous
 62
     3
370
     9
100
AcDbLine
 10
-497.6762819513367
 20
50.8707696822832
 30
0.0
 11
-500.1762654553484
 21
48.37073669030696
 31
0.0
  0
LINE
  5
12A
330
1F
100
AcDbEntity
  8
通り芯
  6
Continuous
 62
     3
370
     9
100
AcDbLine
 10
-371.6763611320798
 20
42.37081587105007
 30
0.0
 11
-371.6763611320798
 21
-73.12914453857826
 31
0.0
  0
LINE
  5
12B
330
1F
100
AcDbEntity
  8
通り芯
  6
Continuous
 62
     3
370
     9
100
AcDbLine
 10
-384.6764040216492
 20
55.37080927265487
 30
0.0
 11
-500.1762654553484
 21
55.37080927265487
 31
0.0
  0
LINE
  5
12C
330
1F
100
AcDbEntity
  8
通り芯
  6
Continuous
 62
     3
370
     9
100
AcDbLine
 10
-378.6764337144277
 20
42.37081587105007
 30
0.0
 11
-378.6764337144277
 21
-73.12914453857826
 31
0.0
  0
LINE
  5
12D
330
1F
100
AcDbEntity
  8
通り芯
  6
Continuous
 62
     3
370
     9
100
AcDbLine
 10
-384.6764040216492
 20
48.37073669030696
 30
0.0
 11
-500.1762654553484
 21
48.37073669030696
 31
0.0
  0
LINE
  5
12E
330
1F
100
AcDbEntity
  8
通り芯
  6
Continuous
 62
     3
370
     9
100
AcDbLine
 10
-374.1763446360917
 20
42.37081587105007
 30
0.0
 11
-374.1763446360917
 21
-70.62921052253097
 31
0.0
  0
LINE
  5
12F
330
1F
100
AcDbEntity
  8
通り芯
  6
Continuous
 62
     3
370
     9
100
AcDbLine
 10
-384.6764040216492
 20
52.8707762806784
 30
0.0
 11
-497.6762819513367
 21
52.8707762806784
 31
0.0
  0
LINE
  5
130
330
1F
100
AcDbEntity
  8
通り芯
  6
Continuous
 62
     3
370
     9
100
AcDbLine
 10
-384.6764040216492
 20
50.8707696822832
 30
0.0
 11
-497.6762819513367
 21
50.8707696822832
 31
0.0
  0
LINE
  5
131
330
1F
100
AcDbEntity
  8
通り芯
  6
Continuous
 62
     3
370
     9
100
AcDbLine
 10
-376.1763512344869
 20
42.37081587105007
 30
0.0
 11
-376.1763512344869
 21
-70.62921052253097
 31
0.0
  0
LINE
  5
132
330
1F
100
AcDbEntity
  8
通り芯
  6
Continuous
 62
     3
370
     9
100
AcDbLine
 10
-25.31959909660668
 20
61.76752459148923
 30
0.0
 11
-25.19419659449522
 21
60.87080267425966
 31
0.0
  0
LINE
  5
133
330
1F
100
AcDbEntity
  8
通り芯
  6
Continuous
 62
     3
370
     9
100
AcDbLine
 10
-25.33404958224855
 20
61.97527506657383
 30
0.0
 11
-25.33404958224855
 21
62.37078287907383
 31
0.0
  0
LINE
  5
134
330
1F
100
AcDbEntity
  8
躯体
  6
Continuous
 62
     2
370
     9
100
AcDbLine
 10
-551.1763594824808
 20
-100.129085153021
 30
0.0
 11
-19.17636113207982
 21
-100.129085153021
 31
0.0
  0
LINE
  5
135
330
1F
100
AcDbEntity
  8
躯体
  6
Continuous
 62
     2
370
     9
100
AcDbLine
 10
-551.1763594824808
 20
-104.1290983498114
 30
0.0
 11
-19.17636113207982
 21
-104.1290983498114
 31
0.0
  0
LINE
  5
136
330
1F
100
AcDbEntity
  8
通り芯
  6
Continuous
 62
     3
370
     9
100
AcDbLine
 10
-19.17636113207982
 20
61.87075648549279
 30
0.0
 11
-25.33048644880273
 21
61.87075648549279
 31
0.0
  0
LINE
  5
137
330
1F
100
AcDbEntity
  8
通り芯
  6
Continuous
 62
     3
370
     9
100
AcDbLine
 10
-25.19419659449522
 20
60.87080267425966
 30
0.0
 11
-19.17636113207982
 21
60.87080267425966
 31
0.0
  0
LINE
  5
138
330
1F
100
AcDbEntity
  8
通り芯
  6
Continuous
 62
     3
370
     9
100
AcDbLine
 10
-24.47483954213044
 20
64.87081587105007
 30
0.0
 11
-24.47483954213044
 21
69.37075648549279
 31
0.0
  0
LINE
  5
139
330
1F
100
AcDbEntity
  8
通り芯
  6
Continuous
 62
     3
370
     9
100
AcDbLine
 10
-26.47989391290753
 20
79.2382607084657
 30
0.0
 11
-26.47989391290753
 21
75.3707762806784
 31
0.0
  0
LINE
  5
13A
330
1F
100
AcDbEntity
  8
通り芯
  6
Continuous
 62
     3
370
     9
100
AcDbLine
 10
-26.47989391290753
 20
64.37821267214798
 30
0.0
 11
-26.47989391290753
 21
68.37080267425966
 31
0.0
  0
LINE
  5
13B
330
1F
100
AcDbEntity
  8
通り芯
  6
Continuous
 62
     3
370
     9
100
AcDbLine
 10
-23.18904324778919
 20
64.06139072324612
 30
0.0
 11
-23.18904324778919
 21
69.37075648549279
 31
0.0
  0
LINE
  5
13C
330
1F
100
AcDbEntity
  8
通り芯
  6
Continuous
 62
     3
370
     9
100
AcDbLine
 10
-24.34854625665753
 20
62.6005060104082
 30
0.0
 11
-25.33404958224855
 21
62.37078287907383
 31
0.0
  0
LINE
  5
13D
330
1F
100
AcDbEntity
  8
通り芯
  6
Continuous
 62
     3
370
     9
100
AcDbLine
 10
-26.17188082169127
 20
63.46763412485069
 30
0.0
 11
-25.33404958224855
 21
62.37078287907383
 31
0.0
  0
LINE
  5
13E
330
1F
100
AcDbEntity
  8
通り芯
  6
Continuous
 62
     3
370
     9
100
AcDbLine
 10
-25.47479335336357
 20
63.87076308388799
 30
0.0
 11
-26.3915084082621
 21
63.87076308388799
 31
0.0
  0
LINE
  5
13F
330
1F
100
AcDbEntity
  8
通り芯
  6
Continuous
 62
     3
370
     9
100
AcDbLine
 10
-25.31959909660668
 20
81.97405436344883
 30
0.0
 11
-25.19419659449522
 21
82.8707762806784
 31
0.0
  0
LINE
  5
140
330
1F
100
AcDbEntity
  8
通り芯
  6
Continuous
 62
     3
370
     9
100
AcDbLine
 10
-25.33404958224855
 20
81.76630388836423
 30
0.0
 11
-25.33404958224855
 21
81.37079607586423
 31
0.0
  0
LINE
  5
141
330
1F
100
AcDbEntity
  8
通り芯
  6
Continuous
 62
     3
370
     9
100
AcDbLine
 10
-19.17636113207982
 20
81.8708224694455
 30
0.0
 11
-25.33048644880273
 21
81.8708224694455
 31
0.0
  0
LINE
  5
142
330
1F
100
AcDbEntity
  8
通り芯
  6
Continuous
 62
     3
370
     9
100
AcDbLine
 10
-25.19419659449522
 20
82.8707762806784
 30
0.0
 11
-19.17636113207982
 21
82.8707762806784
 31
0.0
  0
LINE
  5
143
330
1F
100
AcDbEntity
  8
通り芯
  6
Continuous
 62
     3
370
     9
100
AcDbLine
 10
-24.47483954213044
 20
78.870763083888
 30
0.0
 11
-24.47483954213044
 21
74.37082246944527
 31
0.0
  0
LINE
  5
144
330
1F
100
AcDbEntity
  8
通り芯
  6
Continuous
 62
     3
370
     9
100
AcDbLine
 10
-23.18904324778919
 20
79.68018823169194
 30
0.0
 11
-23.18904324778919
 21
74.37082246944527
 31
0.0
  0
LINE
  5
145
330
1F
100
AcDbEntity
  8
通り芯
  6
Continuous
 62
     3
370
     9
100
AcDbLine
 10
-24.34854625665753
 20
81.14107294452987
 30
0.0
 11
-25.33404958224855
 21
81.37079607586423
 31
0.0
  0
LINE
  5
146
330
1F
100
AcDbEntity
  8
通り芯
  6
Continuous
 62
     3
370
     9
100
AcDbLine
 10
-26.17188082169127
 20
80.27394483008737
 30
0.0
 11
-25.33404958224855
 21
81.37079607586423
 31
0.0
  0
LINE
  5
147
330
1F
100
AcDbEntity
  8
通り芯
  6
Continuous
 62
     3
370
     9
100
AcDbLine
 10
-25.47479335336357
 20
79.87081587105007
 30
0.0
 11
-26.3915084082621
 21
79.87081587105007
 31
0.0
  0
LINE
  5
148
330
1F
100
AcDbEntity
  8
通り芯
  6
Continuous
 62
     3
370
     9
100
AcDbLine
 10
-26.76563742008648
 20
-90.53980226661889
 30
0.0
 11
-26.76563742008648
 21
69.87078287907383
 31
0.0
  0
LINE
  5
149
330
1F
100
AcDbEntity
  8
通り芯
  6
Continuous
 62
     3
370
     9
100
AcDbLine
 10
-25.19419659449522
 20
-92.1113420681391
 30
0.0
 11
-25.19419659449522
 21
60.87080267425966
 31
0.0
  0
LINE
  5
14A
330
1F
100
AcDbEntity
  8
通り芯
  6
Continuous
 62
     3
370
     9
100
AcDbLine
 10
-29.19420979128586
 20
-96.11135526492973
 30
0.0
 11
-541.1584860792925
 21
-96.11135526492973
 31
0.0
  0
LINE
  5
14B
330
1F
100
AcDbEntity
  8
通り芯
  6
Continuous
 62
     3
370
     9
100
AcDbLine
 10
-30.76565061687711
 20
-94.5398154634093
 30
0.0
 11
-539.5870947416659
 21
-94.5398154634093
 31
0.0
  0
LINE
  5
14C
330
1F
100
AcDbEntity
  8
通り芯
  6
Continuous
 62
     3
370
     9
100
AcDbLine
 10
-545.0331215179538
 20
61.76752459148923
 30
0.0
 11
-545.1585240200654
 21
60.87080267425966
 31
0.0
  0
LINE
  5
14D
330
1F
100
AcDbEntity
  8
通り芯
  6
Continuous
 62
     3
370
     9
100
AcDbLine
 10
-545.0186710323121
 20
61.97527506657383
 30
0.0
 11
-545.0186710323121
 21
62.37078287907383
 31
0.0
  0
LINE
  5
14E
330
1F
100
AcDbEntity
  8
通り芯
  6
Continuous
 62
     3
370
     9
100
AcDbLine
 10
-551.1763594824808
 20
61.87075648549279
 30
0.0
 11
-545.0222589097405
 21
61.87075648549279
 31
0.0
  0
LINE
  5
14F
330
1F
100
AcDbEntity
  8
通り芯
  6
Continuous
 62
     3
370
     9
100
AcDbLine
 10
-545.1585240200654
 20
60.87080267425966
 30
0.0
 11
-551.1763594824808
 21
60.87080267425966
 31
0.0
  0
LINE
  5
150
330
1F
100
AcDbEntity
  8
通り芯
  6
Continuous
 62
     3
370
     9
100
AcDbLine
 10
-545.8778563284479
 20
64.87081587105007
 30
0.0
 11
-545.8778563284479
 21
69.37075648549279
 31
0.0
  0
LINE
  5
151
330
1F
100
AcDbEntity
  8
通り芯
  6
Continuous
 62
     3
370
     9
100
AcDbLine
 10
-543.8728267016534
 20
79.2382607084657
 30
0.0
 11
-543.8728267016534
 21
75.3707762806784
 31
0.0
  0
LINE
  5
152
330
1F
100
AcDbEntity
  8
通り芯
  6
Continuous
 62
     3
370
     9
100
AcDbLine
 10
-543.8728267016534
 20
64.37821267214798
 30
0.0
 11
-543.8728267016534
 21
68.37080267425966
 31
0.0
  0
LINE
  5
153
330
1F
100
AcDbEntity
  8
通り芯
  6
Continuous
 62
     3
370
     9
100
AcDbLine
 10
-547.1636031348246
 20
64.06139072324612
 30
0.0
 11
-547.1636031348246
 21
69.37075648549279
 31
0.0
  0
LINE
  5
154
330
1F
100
AcDbEntity
  8
通り芯
  6
Continuous
 62
     3
370
     9
100
AcDbLine
 10
-546.0041496139208
 20
62.6005060104082
 30
0.0
 11
-545.0186710323121
 21
62.37078287907383
 31
0.0
  0
LINE
  5
155
330
1F
100
AcDbEntity
  8
通り芯
  6
Continuous
 62
     3
370
     9
100
AcDbLine
 10
-544.1808150488871
 20
63.46763412485069
 30
0.0
 11
-545.0186710323121
 21
62.37078287907383
 31
0.0
  0
LINE
  5
156
330
1F
100
AcDbEntity
  8
通り芯
  6
Continuous
 62
     3
370
     9
100
AcDbLine
 10
-544.8778530292504
 20
63.87076308388799
 30
0.0
 11
-543.9612369502809
 21
63.87076308388799
 31
0.0
  0
LINE
  5
157
330
1F
100
AcDbEntity
  8
通り芯
  6
Continuous
 62
     3
370
     9
100
AcDbLine
 10
-545.0331215179538
 20
81.97405436344883
 30
0.0
 11
-545.1585240200654
 21
82.8707762806784
 31
0.0
  0
LINE
  5
158
330
1F
100
AcDbEntity
  8
通り芯
  6
Continuous
 62
     3
370
     9
100
AcDbLine
 10
-545.0186710323121
 20
81.76630388836423
 30
0.0
 11
-545.0186710323121
 21
81.37079607586423
 31
0.0
  0
LINE
  5
159
330
1F
100
AcDbEntity
  8
通り芯
  6
Continuous
 62
     3
370
     9
100
AcDbLine
 10
-551.1763594824808
 20
81.8708224694455
 30
0.0
 11
-545.0222589097405
 21
81.8708224694455
 31
0.0
  0
LINE
  5
15A
330
1F
100
AcDbEntity
  8
通り芯
  6
Continuous
 62
     3
370
     9
100
AcDbLine
 10
-545.1585240200654
 20
82.8707762806784
 30
0.0
 11
-551.1763594824808
 21
82.8707762806784
 31
0.0
  0
LINE
  5
15B
330
1F
100
AcDbEntity
  8
通り芯
  6
Continuous
 62
     3
370
     9
100
AcDbLine
 10
-545.8778563284479
 20
78.870763083888
 30
0.0
 11
-545.8778563284479
 21
74.37082246944527
 31
0.0
  0
LINE
  5
15C
330
1F
100
AcDbEntity
  8
通り芯
  6
Continuous
 62
     3
370
     9
100
AcDbLine
 10
-547.1636031348246
 20
79.68018823169194
 30
0.0
 11
-547.1636031348246
 21
74.37082246944527
 31
0.0
  0
LINE
  5
15D
330
1F
100
AcDbEntity
  8
通り芯
  6
Continuous
 62
     3
370
     9
100
AcDbLine
 10
-546.0041496139208
 20
81.14107294452987
 30
0.0
 11
-545.0186710323121
 21
81.37079607586423
 31
0.0
  0
LINE
  5
15E
330
1F
100
AcDbEntity
  8
通り芯
  6
Continuous
 62
     3
370
     9
100
AcDbLine
 10
-544.1808150488871
 20
80.27394483008737
 30
0.0
 11
-545.0186710323121
 21
81.37079607586423
 31
0.0
  0
LINE
  5
15F
330
1F
100
AcDbEntity
  8
通り芯
  6
Continuous
 62
     3
370
     9
100
AcDbLine
 10
-544.8778530292504
 20
79.87081587105007
 30
0.0
 11
-543.9612369502809
 21
79.87081587105007
 31
0.0
  0
LINE
  5
160
330
1F
100
AcDbEntity
  8
通り芯
  6
Continuous
 62
     3
370
     9
100
AcDbLine
 10
-543.5870831944742
 20
-90.53980226661889
 30
0.0
 11
-543.5870831944742
 21
69.87078287907383
 31
0.0
  0
LINE
  5
161
330
1F
100
AcDbEntity
  8
通り芯
  6
Continuous
 62
     3
370
     9
100
AcDbLine
 10
-545.1585240200654
 20
-92.1113420681391
 30
0.0
 11
-545.1585240200654
 21
60.87080267425966
 31
0.0
  0
LINE
  5
162
330
1F
100
AcDbEntity
  8
躯体
  6
Continuous
 62
     2
370
     9
100
AcDbLine
 10
-15.17634793528919
 20
-119.1290983498114
 30
0.0
 11
-555.1763479352892
 21
-119.1290983498114
 31
0.0
  0
LINE
  5
163
330
1F
100
AcDbEntity
  8
躯体
  6
Continuous
 62
     2
370
     9
100
AcDbLine
 10
-19.17636113207982
 20
-115.129085153021
 30
0.0
 11
-551.1763594824808
 21
-115.129085153021
 31
0.0
  0
LINE
  5
164
330
1F
100
AcDbEntity
  8
躯体
  6
Continuous
 62
     2
370
     9
100
AcDbLine
 10
-537.676339687295
 20
-128.1292765064837
 30
0.0
 11
-512.6763314393008
 21
-128.1292765064837
 31
0.0
  0
LINE
  5
165
330
1F
100
AcDbEntity
  8
躯体
  6
Continuous
 62
     2
370
     9
100
AcDbLine
 10
-417.6763644312775
 20
-128.1292765064837
 30
0.0
 11
-392.6763809272654
 21
-128.1292765064837
 31
0.0
  0
LINE
  5
166
330
1F
100
AcDbEntity
  8
躯体
  6
Continuous
 62
     2
370
     9
100
AcDbLine
 10
-177.6762654553484
 20
-128.1292765064837
 30
0.0
 11
-152.6762819513365
 21
-128.1292765064837
 31
0.0
  0
LINE
  5
167
330
1F
100
AcDbEntity
  8
躯体
  6
Continuous
 62
     2
370
     9
100
AcDbLine
 10
-297.6763149433129
 20
-128.1293754824126
 30
0.0
 11
-272.6763809272657
 21
-128.1293754824126
 31
0.0
  0
LINE
  5
168
330
1F
100
AcDbEntity
  8
躯体
  6
Continuous
 62
     2
370
     9
100
AcDbLine
 10
-57.67631494331295
 20
-128.1292765064837
 30
0.0
 11
-32.67628195133648
 21
-128.1292765064837
 31
0.0
  0
LINE
  5
169
330
1F
100
AcDbEntity
  8
躯体
  6
Continuous
 62
     2
370
     9
100
AcDbLine
 10
-537.676339687295
 20
-128.1292765064837
 30
0.0
 11
-537.676339687295
 21
-119.1290983498114
 31
0.0
  0
LINE
  5
16A
330
1F
100
AcDbEntity
  8
躯体
  6
Continuous
 62
     2
370
     9
100
AcDbLine
 10
-537.676339687295
 20
-115.129085153021
 30
0.0
 11
-537.676339687295
 21
-104.1290983498114
 31
0.0
  0
LINE
  5
16B
330
1F
100
AcDbEntity
  8
躯体
  6
Continuous
 62
     2
370
     9
100
AcDbLine
 10
-512.6763314393008
 20
-128.1292765064837
 30
0.0
 11
-512.6763314393008
 21
-119.1290983498114
 31
0.0
  0
LINE
  5
16C
330
1F
100
AcDbEntity
  8
躯体
  6
Continuous
 62
     2
370
     9
100
AcDbLine
 10
-512.6763314393008
 20
-115.129085153021
 30
0.0
 11
-512.6763314393008
 21
-104.1290983498114
 31
0.0
  0
LINE
  5
16D
330
1F
100
AcDbEntity
  8
躯体
  6
Continuous
 62
     2
370
     9
100
AcDbLine
 10
-417.6763644312775
 20
-128.1292765064837
 30
0.0
 11
-417.6763644312775
 21
-119.1290983498114
 31
0.0
  0
LINE
  5
16E
330
1F
100
AcDbEntity
  8
躯体
  6
Continuous
 62
     2
370
     9
100
AcDbLine
 10
-417.6763644312775
 20
-115.129085153021
 30
0.0
 11
-417.6763644312775
 21
-104.1290983498114
 31
0.0
  0
LINE
  5
16F
330
1F
100
AcDbEntity
  8
躯体
  6
Continuous
 62
     2
370
     9
100
AcDbLine
 10
-392.6763809272654
 20
-128.1292765064837
 30
0.0
 11
-392.6763809272654
 21
-119.1290983498114
 31
0.0
  0
LINE
  5
170
330
1F
100
AcDbEntity
  8
躯体
  6
Continuous
 62
     2
370
     9
100
AcDbLine
 10
-392.6763809272654
 20
-115.129085153021
 30
0.0
 11
-392.6763809272654
 21
-104.1290983498114
 31
0.0
  0
LINE
  5
171
330
1F
100
AcDbEntity
  8
躯体
  6
Continuous
 62
     2
370
     9
100
AcDbLine
 10
-297.6763149433129
 20
-128.1293754824126
 30
0.0
 11
-297.6763149433129
 21
-119.1290983498114
 31
0.0
  0
LINE
  5
172
330
1F
100
AcDbEntity
  8
躯体
  6
Continuous
 62
     2
370
     9
100
AcDbLine
 10
-297.6763149433129
 20
-115.129085153021
 30
0.0
 11
-297.6763149433129
 21
-104.1291973257406
 31
0.0
  0
LINE
  5
173
330
1F
100
AcDbEntity
  8
躯体
  6
Continuous
 62
     2
370
     9
100
AcDbLine
 10
-272.6763809272657
 20
-128.1293754824126
 30
0.0
 11
-272.6763809272657
 21
-119.1290983498114
 31
0.0
  0
LINE
  5
174
330
1F
100
AcDbEntity
  8
躯体
  6
Continuous
 62
     2
370
     9
100
AcDbLine
 10
-272.6763809272657
 20
-115.129085153021
 30
0.0
 11
-272.6763809272657
 21
-104.1291973257406
 31
0.0
  0
LINE
  5
175
330
1F
100
AcDbEntity
  8
躯体
  6
Continuous
 62
     2
370
     9
100
AcDbLine
 10
-177.6762654553484
 20
-128.1292765064837
 30
0.0
 11
-177.6762654553484
 21
-119.1290983498114
 31
0.0
  0
LINE
  5
176
330
1F
100
AcDbEntity
  8
躯体
  6
Continuous
 62
     2
370
     9
100
AcDbLine
 10
-177.6762654553484
 20
-115.129085153021
 30
0.0
 11
-177.6762654553484
 21
-104.1290983498114
 31
0.0
  0
LINE
  5
177
330
1F
100
AcDbEntity
  8
躯体
  6
Continuous
 62
     2
370
     9
100
AcDbLine
 10
-152.6762819513365
 20
-128.1292765064837
 30
0.0
 11
-152.6762819513365
 21
-119.1290983498114
 31
0.0
  0
LINE
  5
178
330
1F
100
AcDbEntity
  8
躯体
  6
Continuous
 62
     2
370
     9
100
AcDbLine
 10
-152.6762819513365
 20
-115.129085153021
 30
0.0
 11
-152.6762819513365
 21
-104.1290983498114
 31
0.0
  0
LINE
  5
179
330
1F
100
AcDbEntity
  8
躯体
  6
Continuous
 62
     2
370
     9
100
AcDbLine
 10
-57.67631494331295
 20
-128.1292765064837
 30
0.0
 11
-57.67631494331295
 21
-119.1290983498114
 31
0.0
  0
LINE
  5
17A
330
1F
100
AcDbEntity
  8
躯体
  6
Continuous
 62
     2
370
     9
100
AcDbLine
 10
-57.67631494331295
 20
-115.129085153021
 30
0.0
 11
-57.67631494331295
 21
-104.1290983498114
 31
0.0
  0
LINE
  5
17B
330
1F
100
AcDbEntity
  8
躯体
  6
Continuous
 62
     2
370
     9
100
AcDbLine
 10
-32.67628195133648
 20
-128.1292765064837
 30
0.0
 11
-32.67628195133648
 21
-119.1290983498114
 31
0.0
  0
LINE
  5
17C
330
1F
100
AcDbEntity
  8
躯体
  6
Continuous
 62
     2
370
     9
100
AcDbLine
 10
-32.67628195133648
 20
-115.129085153021
 30
0.0
 11
-32.67628195133648
 21
-104.1290983498114
 31
0.0
  0
LINE
  5
17D
330
1F
100
AcDbEntity
  8
通り芯
  6
Continuous
 62
     3
370
     9
100
AcDbLine
 10
368.6615096977346
 20
371.5343702946142
 30
0.0
 11
368.6615096977346
 21
242.3461378727392
 31
0.0
  0
LINE
  5
17E
330
1F
100
AcDbEntity
  8
通り芯
  6
Continuous
 62
     3
370
     9
100
AcDbLine
 10
363.66164166564
 20
353.8446004466413
 30
0.0
 11
363.66164166564
 21
-70.10295550775055
 31
0.0
  0
LINE
  5
17F
330
1F
100
AcDbEntity
  8
通り芯
  6
Continuous
 62
     3
370
     9
100
AcDbLine
 10
339.6615624848966
 20
383.8707300919115
 30
0.0
 11
339.6615624848966
 21
214.3708884533982
 31
0.0
  0
LINE
  5
180
330
1F
100
AcDbEntity
  8
通り芯
  6
Continuous
 62
     3
370
     9
100
AcDbLine
 10
361.6616350672446
 20
374.5569961919961
 30
0.0
 11
361.6616350672446
 21
-90.81535125310535
 31
0.0
  0
LINE
  5
181
330
1F
100
AcDbEntity
  8
躯体
  6
Continuous
 62
     2
370
     9
100
AcDbLine
 10
321.6615030993391
 20
402.8707432887022
 30
0.0
 11
321.6615030993391
 21
-119.1290983498114
 31
0.0
  0
LINE
  5
182
330
1F
100
AcDbEntity
  8
通り芯
  6
Continuous
 62
     3
370
     9
100
AcDbLine
 10
355.6616152720587
 20
-122.8049653789499
 30
0.0
 11
355.6616152720587
 21
-105.7108326720243
 31
0.0
  0
LINE
  5
183
330
1F
100
AcDbEntity
  8
通り芯
  6
Continuous
 62
     3
370
     9
100
AcDbLine
 10
380.2684168979033
 20
-100.2286549376493
 30
0.0
 11
359.3765777931737
 21
-101.7209150199972
 31
0.0
  0
LINE
  5
184
330
1F
100
AcDbEntity
  8
通り芯
  6
Continuous
 62
     3
370
     9
100
AcDbLine
 10
381.6616020752683
 20
-95.43010394525055
 30
0.0
 11
381.6616020752683
 21
-98.73253479406804
 31
0.0
  0
LINE
  5
185
330
1F
100
AcDbEntity
  8
通り芯
  6
Continuous
 62
     3
370
     9
100
AcDbLine
 10
372.954491644525
 20
-92.7425115677168
 30
0.0
 11
380.3737272864171
 21
-93.94526705758159
 31
0.0
  0
LINE
  5
186
330
1F
100
AcDbEntity
  8
通り芯
  6
Continuous
 62
     3
370
     9
100
AcDbLine
 10
341.6616680592208
 20
62.87080927265487
 30
0.0
 11
357.6616218704542
 21
63.87076308388799
 31
0.0
  0
LINE
  5
187
330
1F
100
AcDbEntity
  8
通り芯
  6
Continuous
 62
     3
370
     9
100
AcDbLine
 10
357.6616218704542
 20
63.87076308388799
 30
0.0
 11
341.6616680592208
 21
62.37078287907383
 31
0.0
  0
LINE
  5
188
330
1F
100
AcDbEntity
  8
通り芯
  6
Continuous
 62
     3
370
     9
100
AcDbLine
 10
357.6616218704542
 20
63.87076308388799
 30
0.0
 11
357.6616218704542
 21
79.87081587105007
 31
0.0
  0
LINE
  5
189
330
1F
100
AcDbEntity
  8
通り芯
  6
Continuous
 62
     3
370
     9
100
AcDbLine
 10
361.9903341276329
 20
54.95986121522236
 30
0.0
 11
363.3329426052512
 21
53.28162536218196
 31
0.0
  0
LINE
  5
18A
330
1F
100
AcDbEntity
  8
通り芯
  6
Continuous
 62
     3
370
     9
100
AcDbLine
 10
363.3329426052512
 20
50.45982162485069
 30
0.0
 11
361.9903341276329
 21
48.78158577181028
 31
0.0
  0
LINE
  5
18B
330
1F
100
AcDbEntity
  8
通り芯
  6
Continuous
 62
     3
370
     9
100
AcDbLine
 10
391.3273933548292
 20
56.01900263202987
 30
0.0
 11
373.1094879494237
 21
57.37655647493528
 31
0.0
  0
LINE
  5
18C
330
1F
100
AcDbEntity
  8
通り芯
  6
Continuous
 62
     3
370
     9
100
AcDbLine
 10
373.1094879494237
 20
46.36489051209736
 30
0.0
 11
391.3273933548292
 21
47.72244435500278
 31
0.0
  0
LINE
  5
18D
330
1F
100
AcDbEntity
  8
躯体
  6
Continuous
 62
     2
370
     9
100
AcDbLine
 10
356.4615387306737
 20
-107.1290587594397
 30
0.0
 11
356.4615387306737
 21
-121.1293029000647
 31
0.0
  0
LINE
  5
18E
330
1F
100
AcDbEntity
  8
躯体
  6
Continuous
 62
     2
370
     9
100
AcDbLine
 10
356.4615387306737
 20
-107.1290587594397
 30
0.0
 11
358.0615835997617
 21
-108.6041960060614
 31
0.0
  0
LINE
  5
18F
330
1F
100
AcDbEntity
  8
躯体
  6
Continuous
 62
     2
370
     9
100
AcDbLine
 10
356.4615387306737
 20
-121.1293029000647
 30
0.0
 11
358.0615835997617
 21
-119.654165653443
 31
0.0
  0
LINE
  5
190
330
1F
100
AcDbEntity
  8
躯体
  6
Continuous
 62
     2
370
     9
100
AcDbLine
 10
356.4615387306737
 20
-111.3667131618891
 30
0.0
 11
361.6616350672446
 21
-111.3667131618891
 31
0.0
  0
LINE
  5
191
330
1F
100
AcDbEntity
  8
躯体
  6
Continuous
 62
     2
370
     9
100
AcDbLine
 10
356.4615387306737
 20
-116.8916484976156
 30
0.0
 11
361.6616350672446
 21
-116.8916484976156
 31
0.0
  0
LINE
  5
192
330
1F
100
AcDbEntity
  8
躯体
  6
Continuous
 62
     2
370
     9
100
AcDbLine
 10
355.6616152720587
 20
-107.1290587594397
 30
0.0
 11
356.4615387306737
 21
-107.1290587594397
 31
0.0
  0
LINE
  5
193
330
1F
100
AcDbEntity
  8
躯体
  6
Continuous
 62
     2
370
     9
100
AcDbLine
 10
355.6616152720587
 20
-121.1293029000647
 30
0.0
 11
356.4615387306737
 21
-121.1293029000647
 31
0.0
  0
LINE
  5
194
330
1F
100
AcDbEntity
  8
躯体
  6
Continuous
 62
     2
370
     9
100
AcDbLine
 10
358.0615835997617
 20
-108.6041960060614
 30
0.0
 11
361.6616350672446
 21
-108.6041960060614
 31
0.0
  0
LINE
  5
195
330
1F
100
AcDbEntity
  8
躯体
  6
Continuous
 62
     2
370
     9
100
AcDbLine
 10
361.6616350672446
 20
-108.6041960060614
 30
0.0
 11
361.6616350672446
 21
-119.654165653443
 31
0.0
  0
LINE
  5
196
330
1F
100
AcDbEntity
  8
躯体
  6
Continuous
 62
     2
370
     9
100
AcDbLine
 10
364.6614965009437
 20
-111.1290719562303
 30
0.0
 11
364.6614965009437
 21
-117.1291907273451
 31
0.0
  0
LINE
  5
197
330
1F
100
AcDbEntity
  8
躯体
  6
Continuous
 62
     2
370
     9
100
AcDbLine
 10
364.6614965009437
 20
-111.1290719562303
 30
0.0
 11
365.661648264035
 21
-112.1291247433924
 31
0.0
  0
LINE
  5
198
330
1F
100
AcDbEntity
  8
躯体
  6
Continuous
 62
     2
370
     9
100
AcDbLine
 10
365.661648264035
 20
-116.1291379401831
 30
0.0
 11
364.6614965009437
 21
-117.1291907273451
 31
0.0
  0
LINE
  5
199
330
1F
100
AcDbEntity
  8
躯体
  6
Continuous
 62
     2
370
     9
100
AcDbLine
 10
358.0615835997617
 20
-119.654165653443
 30
0.0
 11
361.6616350672446
 21
-119.654165653443
 31
0.0
  0
LINE
  5
19A
330
1F
100
AcDbEntity
  8
躯体
  6
Continuous
 62
     2
370
     9
100
AcDbLine
 10
365.661648264035
 20
-112.1291247433924
 30
0.0
 11
365.661648264035
 21
-116.1291379401831
 31
0.0
  0
LINE
  5
19B
330
1F
100
AcDbEntity
  8
躯体
  6
Continuous
 62
     2
370
     9
100
AcDbLine
 10
336.6616020752683
 20
-104.1290983498114
 30
0.0
 11
336.6616020752683
 21
-128.1291775305547
 31
0.0
  0
LINE
  5
19C
330
1F
100
AcDbEntity
  8
躯体
  6
Continuous
 62
     2
370
     9
100
AcDbLine
 10
341.6616680592208
 20
-100.129085153021
 30
0.0
 11
341.6616680592208
 21
-128.1291775305547
 31
0.0
  0
LINE
  5
19D
330
1F
100
AcDbEntity
  8
躯体
  6
Continuous
 62
     2
370
     9
100
AcDbLine
 10
341.6616680592208
 20
-104.1290983498114
 30
0.0
 11
321.6615030993391
 21
-104.1290983498114
 31
0.0
  0
LINE
  5
19E
330
1F
100
AcDbEntity
  8
躯体
  6
Continuous
 62
     2
370
     9
100
AcDbLine
 10
341.6616680592208
 20
-100.129085153021
 30
0.0
 11
321.6615030993391
 21
-100.129085153021
 31
0.0
  0
LINE
  5
19F
330
1F
100
AcDbEntity
  8
躯体
  6
Continuous
 62
     2
370
     9
100
AcDbLine
 10
341.6616680592208
 20
-128.1291775305547
 30
0.0
 11
336.6616020752683
 21
-128.1291775305547
 31
0.0
  0
LINE
  5
1A0
330
1F
100
AcDbEntity
  8
躯体
  6
Continuous
 62
     2
370
     9
100
AcDbLine
 10
361.6616350672446
 20
-117.1291907273451
 30
0.0
 11
364.6614965009437
 21
-117.1291907273451
 31
0.0
  0
LINE
  5
1A1
330
1F
100
AcDbEntity
  8
躯体
  6
Continuous
 62
     2
370
     9
100
AcDbLine
 10
365.661648264035
 20
-116.1291379401831
 30
0.0
 11
361.6616350672446
 21
-116.1291379401831
 31
0.0
  0
LINE
  5
1A2
330
1F
100
AcDbEntity
  8
躯体
  6
Continuous
 62
     2
370
     9
100
AcDbLine
 10
361.6616350672446
 20
-112.1291247433924
 30
0.0
 11
365.661648264035
 21
-112.1291247433924
 31
0.0
  0
LINE
  5
1A3
330
1F
100
AcDbEntity
  8
躯体
  6
Continuous
 62
     2
370
     9
100
AcDbLine
 10
361.6616350672446
 20
-111.1290719562303
 30
0.0
 11
364.6614965009437
 21
-111.1290719562303
 31
0.0
  0
LINE
  5
1A4
330
1F
100
AcDbEntity
  8
通り芯
  6
Continuous
 62
     3
370
     9
100
AcDbLine
 10
341.6616680592208
 20
-118.6290719562303
 30
0.0
 11
355.6616152720587
 21
-118.6290719562303
 31
0.0
  0
LINE
  5
1A5
330
1F
100
AcDbEntity
  8
通り芯
  6
Continuous
 62
     3
370
     9
100
AcDbLine
 10
341.6616680592208
 20
-109.6291907273451
 30
0.0
 11
355.6616152720587
 21
-109.6291907273451
 31
0.0
  0
LINE
  5
1A6
330
1F
100
AcDbEntity
  8
通り芯
  6
Continuous
 62
     3
370
     9
100
AcDbLine
 10
354.3477098138662
 20
-124.2934643759939
 30
0.0
 11
341.6616680592208
 21
-125.8792567112978
 31
0.0
  0
LINE
  5
1A7
330
1F
100
AcDbEntity
  8
仕上
  6
Continuous
 62
     4
370
     9
100
AcDbLine
 10
352.6616548624304
 20
69.37075648549279
 30
0.0
 11
352.6616548624304
 21
74.37082246944527
 31
0.0
  0
LINE
  5
1A8
330
1F
100
AcDbEntity
  8
仕上
  6
Continuous
 62
     4
370
     9
100
AcDbLine
 10
339.1615360913154
 20
69.37075648549279
 30
0.0
 11
339.1615360913154
 21
74.37082246944527
 31
0.0
  0
LINE
  5
1A9
330
1F
100
AcDbEntity
  8
仕上
  6
Continuous
 62
     4
370
     9
100
AcDbLine
 10
324.6615624848966
 20
69.37075648549279
 30
0.0
 11
324.6615624848966
 21
74.37082246944527
 31
0.0
  0
LINE
  5
1AA
330
1F
100
AcDbEntity
  8
仕上
  6
Continuous
 62
     2
370
     9
100
AcDbLine
 10
345.1616548624304
 20
68.37080267425966
 30
0.0
 11
352.1616284688491
 21
68.37080267425966
 31
0.0
  0
LINE
  5
1AB
330
1F
100
AcDbEntity
  8
仕上
  6
Continuous
 62
     2
370
     9
100
AcDbLine
 10
345.1616548624304
 20
75.3707762806784
 30
0.0
 11
345.1616548624304
 21
68.37080267425966
 31
0.0
  0
LINE
  5
1AC
330
1F
100
AcDbEntity
  8
仕上
  6
Continuous
 62
     2
370
     9
100
AcDbLine
 10
352.1616284688491
 20
68.37080267425966
 30
0.0
 11
352.1616284688491
 21
75.3707762806784
 31
0.0
  0
LINE
  5
1AD
330
1F
100
AcDbEntity
  8
仕上
  6
Continuous
 62
     4
370
     9
100
AcDbLine
 10
324.6615624848966
 20
69.37075648549279
 30
0.0
 11
345.1616548624304
 21
69.37075648549279
 31
0.0
  0
LINE
  5
1AE
330
1F
100
AcDbEntity
  8
仕上
  6
Continuous
 62
     4
370
     9
100
AcDbLine
 10
352.1616284688491
 20
69.37075648549279
 30
0.0
 11
352.6616548624304
 21
69.37075648549279
 31
0.0
  0
LINE
  5
1AF
330
1F
100
AcDbEntity
  8
躯体
  6
Continuous
 62
     2
370
     9
100
AcDbLine
 10
355.6616152720587
 20
-117.1291907273451
 30
0.0
 11
341.6616680592208
 21
-117.1291907273451
 31
0.0
  0
LINE
  5
1B0
330
1F
100
AcDbEntity
  8
躯体
  6
Continuous
 62
     2
370
     9
100
AcDbLine
 10
355.6616152720587
 20
-116.1291379401831
 30
0.0
 11
341.6616680592208
 21
-116.1291379401831
 31
0.0
  0
LINE
  5
1B1
330
1F
100
AcDbEntity
  8
躯体
  6
Continuous
 62
     2
370
     9
100
AcDbLine
 10
355.6616152720587
 20
-111.1292699080885
 30
0.0
 11
341.6616680592208
 21
-111.1292699080885
 31
0.0
  0
LINE
  5
1B2
330
1F
100
AcDbEntity
  8
躯体
  6
Continuous
 62
     2
370
     9
100
AcDbLine
 10
355.6616152720587
 20
-112.1291247433924
 30
0.0
 11
341.6616680592208
 21
-112.1291247433924
 31
0.0
  0
LINE
  5
1B3
330
1F
100
AcDbEntity
  8
通り芯
  6
JWW_CENTER1
 62
     7
370
     9
100
AcDbLine
 10
338.5928204029708
 20
-114.1292303177168
 30
0.0
 11
370.8845090642883
 21
-114.1292303177168
 31
0.0
  0
LINE
  5
1B4
330
1F
100
AcDbEntity
  8
通り芯
  6
Continuous
 62
     3
370
     9
100
AcDbLine
 10
340.8324477256062
 20
61.45614631868528
 30
0.0
 11
339.6615624848966
 21
60.87080267425966
 31
0.0
  0
LINE
  5
1B5
330
1F
100
AcDbEntity
  8
通り芯
  6
Continuous
 62
     3
370
     9
100
AcDbLine
 10
341.6616680592208
 20
69.37075648549279
 30
0.0
 11
341.6616680592208
 21
62.79786401294194
 31
0.0
  0
LINE
  5
1B6
330
1F
100
AcDbEntity
  8
通り芯
  6
Continuous
 62
     3
370
     9
100
AcDbLine
 10
361.9903341276329
 20
-72.71829545707493
 30
0.0
 11
363.3329426052512
 21
-71.0400596040343
 31
0.0
  0
LINE
  5
1B7
330
1F
100
AcDbEntity
  8
通り芯
  6
Continuous
 62
     3
370
     9
100
AcDbLine
 10
357.9465735702008
 20
-94.80516992920326
 30
0.0
 11
339.6615624848966
 21
-96.11135526492973
 31
0.0
  0
LINE
  5
1B8
330
1F
100
AcDbEntity
  8
通り芯
  6
Continuous
 62
     3
370
     9
100
AcDbLine
 10
381.6616020752683
 20
-65.74484739964242
 30
0.0
 11
381.6616020752683
 21
-95.41604936332493
 31
0.0
  0
LINE
  5
1B9
330
1F
100
AcDbEntity
  8
通り芯
  6
Continuous
 62
     3
370
     9
100
AcDbLine
 10
384.9558179219741
 20
-63.91161524170326
 30
0.0
 11
369.2011264629371
 21
-72.67949689288577
 31
0.0
  0
LINE
  5
1BA
330
1F
100
AcDbEntity
  8
通り芯
  6
Continuous
 62
     3
370
     9
100
AcDbLine
 10
341.6616680592208
 20
80.8707696822832
 30
0.0
 11
357.6616218704542
 21
79.87081587105007
 31
0.0
  0
LINE
  5
1BB
330
1F
100
AcDbEntity
  8
通り芯
  6
Continuous
 62
     3
370
     9
100
AcDbLine
 10
357.6616218704542
 20
79.87081587105007
 30
0.0
 11
341.6616680592208
 21
81.37079607586423
 31
0.0
  0
LINE
  5
1BC
330
1F
100
AcDbEntity
  8
仕上
  6
Continuous
 62
     2
370
     9
100
AcDbLine
 10
345.1616548624304
 20
75.3707762806784
 30
0.0
 11
352.1616284688491
 21
75.3707762806784
 31
0.0
  0
LINE
  5
1BD
330
1F
100
AcDbEntity
  8
仕上
  6
Continuous
 62
     4
370
     9
100
AcDbLine
 10
324.6615624848966
 20
74.37082246944527
 30
0.0
 11
345.1616548624304
 21
74.37082246944527
 31
0.0
  0
LINE
  5
1BE
330
1F
100
AcDbEntity
  8
仕上
  6
Continuous
 62
     4
370
     9
100
AcDbLine
 10
352.1616284688491
 20
74.37082246944527
 30
0.0
 11
352.6616548624304
 21
74.37082246944527
 31
0.0
  0
LINE
  5
1BF
330
1F
100
AcDbEntity
  8
通り芯
  6
Continuous
 62
     3
370
     9
100
AcDbLine
 10
340.8324477256062
 20
82.28543263625278
 30
0.0
 11
339.6615624848966
 21
82.8707762806784
 31
0.0
  0
LINE
  5
1C0
330
1F
100
AcDbEntity
  8
通り芯
  6
Continuous
 62
     3
370
     9
100
AcDbLine
 10
341.6616680592208
 20
74.37082246944527
 30
0.0
 11
341.6616680592208
 21
80.94371494199612
 31
0.0
  0
LINE
  5
1C1
330
1F
100
AcDbEntity
  8
躯体
  6
Continuous
 62
     2
370
     9
100
AcDbLine
 10
336.6616020752683
 20
-119.1290983498114
 30
0.0
 11
321.6615030993391
 21
-119.1290983498114
 31
0.0
  0
LINE
  5
1C2
330
1F
100
AcDbEntity
  8
躯体
  6
Continuous
 62
     2
370
     9
100
AcDbLine
 10
336.6616020752683
 20
-115.129085153021
 30
0.0
 11
321.6615030993391
 21
-115.129085153021
 31
0.0
  0
LINE
  5
1C3
330
1F
100
AcDbEntity
  8
通り芯
  6
Continuous
 62
     3
370
     9
100
AcDbLine
 10
368.6615096977346
 20
-87.79272535572346
 30
0.0
 11
368.6615096977346
 21
41.39550706615154
 31
0.0
  0
LINE
  5
1C4
330
1F
100
AcDbEntity
  8
通り芯
  6
Continuous
 62
     3
370
     9
100
AcDbLine
 10
339.6615624848966
 20
209.3708224694455
 30
0.0
 11
339.6615624848966
 21
74.37082246944527
 31
0.0
  0
LINE
  5
1C5
330
1F
100
AcDbEntity
  8
通り芯
  6
Continuous
 62
     3
370
     9
100
AcDbLine
 10
339.6615624848966
 20
-100.129085153021
 30
0.0
 11
339.6615624848966
 21
-17.37224261712555
 31
0.0
  0
LINE
  5
1C6
330
1F
100
AcDbEntity
  8
通り芯
  6
Continuous
 62
     3
370
     9
100
AcDbLine
 10
339.6615624848966
 20
16.42432555749446
 30
0.0
 11
339.6615624848966
 21
69.37075648549279
 31
0.0
  0
LINE
  5
1C7
330
1F
100
AcDbEntity
  8
躯体
  6
JWW_DASHED3
 62
     2
370
     9
100
AcDbLine
 10
-510.1763231913071
 20
366.8709214453744
 30
0.0
 11
-510.1763231913071
 21
-83.12927650648368
 31
0.0
  0
LINE
  5
1C8
330
1F
100
AcDbEntity
  8
躯体
  6
JWW_DASHED3
 62
     2
370
     9
100
AcDbLine
 10
-510.1763231913071
 20
-83.12927650648368
 30
0.0
 11
-60.17634793528919
 21
-83.12927650648368
 31
0.0
  0
LINE
  5
1C9
330
1F
100
AcDbEntity
  8
躯体
  6
JWW_DASHED3
 62
     2
370
     9
100
AcDbLine
 10
-510.1763231913071
 20
366.8709214453744
 30
0.0
 11
-60.17634793528919
 21
366.8709214453744
 31
0.0
  0
LINE
  5
1CA
330
1F
100
AcDbEntity
  8
躯体
  6
JWW_DASHED3
 62
     2
370
     9
100
AcDbLine
 10
-60.17634793528919
 20
366.8709214453744
 30
0.0
 11
-60.17634793528919
 21
-83.12927650648368
 31
0.0
  0
ARC
  5
1CB
330
1F
100
AcDbEntity
  8
通り芯
  6
Continuous
 62
     3
370
     9
100
AcDbCircle
 10
-204.6763545336844
 20
241.3708290678407
 30
0.0
 40
6.000000077324945
100
AcDbArc
 50
270.0
 51
0.0
  0
ARC
  5
1CC
330
1F
100
AcDbEntity
  8
通り芯
  6
Continuous
 62
     3
370
     9
100
AcDbCircle
 10
-204.6763545336844
 20
222.3709148469792
 30
0.0
 40
6.000000077324945
100
AcDbArc
 50
0.0
 51
90.0
  0
ARC
  5
1CD
330
1F
100
AcDbEntity
  8
通り芯
  6
Continuous
 62
     3
370
     9
100
AcDbCircle
 10
-185.6762918489294
 20
222.3709148469792
 30
0.0
 40
6.000000077324945
100
AcDbArc
 50
90.0
 51
180.0
  0
ARC
  5
1CE
330
1F
100
AcDbEntity
  8
通り芯
  6
Continuous
 62
     3
370
     9
100
AcDbCircle
 10
-204.6763545336844
 20
241.3708290678407
 30
0.0
 40
8.500000206199852
100
AcDbArc
 50
270.0
 51
0.0
  0
ARC
  5
1CF
330
1F
100
AcDbEntity
  8
通り芯
  6
Continuous
 62
     3
370
     9
100
AcDbCircle
 10
-185.6762918489294
 20
241.3708290678407
 30
0.0
 40
6.000000077324945
100
AcDbArc
 50
180.0
 51
270.0
  0
ARC
  5
1D0
330
1F
100
AcDbEntity
  8
通り芯
  6
Continuous
 62
     3
370
     9
100
AcDbCircle
 10
-185.6762918489294
 20
241.3708290678407
 30
0.0
 40
8.500000206199852
100
AcDbArc
 50
180.0
 51
270.0
  0
ARC
  5
1D1
330
1F
100
AcDbEntity
  8
通り芯
  6
Continuous
 62
     3
370
     9
100
AcDbCircle
 10
-185.6762918489294
 20
222.3709148469792
 30
0.0
 40
8.500000206199852
100
AcDbArc
 50
90.0
 51
180.0
  0
ARC
  5
1D2
330
1F
100
AcDbEntity
  8
通り芯
  6
Continuous
 62
     3
370
     9
100
AcDbCircle
 10
-204.6763545336844
 20
222.3709148469792
 30
0.0
 40
8.500000206199852
100
AcDbArc
 50
0.0
 51
90.0
  0
ARC
  5
1D3
330
1F
100
AcDbEntity
  8
通り芯
  6
Continuous
 62
     3
370
     9
100
AcDbCircle
 10
354.1616350672446
 20
406.5466103178407
 30
0.0
 40
1.500000019331236
100
AcDbArc
 50
0.0
 51
82.87521362304689
  0
ARC
  5
1D4
330
1F
100
AcDbEntity
  8
通り芯
  6
Continuous
 62
     3
370
     9
100
AcDbCircle
 10
359.6616284688491
 20
389.4524776109151
 30
0.0
 40
4.000000051549963
100
AcDbArc
 50
180.0
 51
265.9143371582032
  0
ARC
  5
1D5
330
1F
100
AcDbEntity
  8
通り芯
  6
Continuous
 62
     3
370
     9
100
AcDbCircle
 10
380.1616218704542
 20
382.4741797329588
 30
0.0
 40
1.500000019331236
100
AcDbArc
 50
0.0
 51
85.91424560546875
  0
ARC
  5
1D6
330
1F
100
AcDbEntity
  8
通り芯
  6
Continuous
 62
     3
370
     9
100
AcDbCircle
 10
380.1616218704542
 20
379.1717488841413
 30
0.0
 40
1.500000019331236
100
AcDbArc
 50
278.1293029785156
 51
0.0000000000000382
  0
ARC
  5
1D7
330
1F
100
AcDbEntity
  8
通り芯
  6
Continuous
 62
     3
370
     9
100
AcDbCircle
 10
373.6615756816871
 20
371.5343702946142
 30
0.0
 40
5.000000257749815
100
AcDbArc
 50
98.13034057617188
 51
180.0
  0
ARC
  5
1D8
330
1F
100
AcDbEntity
  8
通り芯
  6
Continuous
 62
     3
370
     9
100
AcDbCircle
 10
363.1616152720587
 20
227.8446796273847
 30
0.0
 40
1.500000019331236
100
AcDbArc
 50
141.3401184082032
 51
180.0
  0
ARC
  5
1D9
330
1F
100
AcDbEntity
  8
通り芯
  6
Continuous
 62
     3
370
     9
100
AcDbCircle
 10
362.1615624848966
 20
231.3970246970636
 30
0.0
 40
1.500000019331236
100
AcDbArc
 50
321.3401184082031
 51
0.0000000000000191
  0
ARC
  5
1DA
330
1F
100
AcDbEntity
  8
通り芯
  6
Continuous
 62
     3
370
     9
100
AcDbCircle
 10
362.1615624848966
 20
232.3447192177561
 30
0.0
 40
1.500000019331236
100
AcDbArc
 50
0.0
 51
38.65951538085938
  0
ARC
  5
1DB
330
1F
100
AcDbEntity
  8
通り芯
  6
Continuous
 62
     3
370
     9
100
AcDbCircle
 10
363.1616152720587
 20
235.8970642874353
 30
0.0
 40
1.500000019331236
100
AcDbArc
 50
180.0
 51
218.6595153808594
  0
ARC
  5
1DC
330
1F
100
AcDbEntity
  8
通り芯
  6
Continuous
 62
     3
370
     9
100
AcDbCircle
 10
391.1616086736633
 20
229.2134177502732
 30
0.0
 40
1.500000019331236
100
AcDbArc
 50
276.3402404785156
 51
0.0
  0
ARC
  5
1DD
330
1F
100
AcDbEntity
  8
通り芯
  6
Continuous
 62
     3
370
     9
100
AcDbCircle
 10
391.1616086736633
 20
234.5283261645467
 30
0.0
 40
1.500000019331236
100
AcDbArc
 50
0.0
 51
83.65986633300781
  0
ARC
  5
1DE
330
1F
100
AcDbEntity
  8
通り芯
  6
Continuous
 62
     3
370
     9
100
AcDbCircle
 10
373.6615756816871
 20
221.3957050180097
 30
0.0
 40
5.000000257749815
100
AcDbArc
 50
96.34025573730469
 51
180.0
  0
ARC
  5
1DF
330
1F
100
AcDbEntity
  8
通り芯
  6
Continuous
 62
     3
370
     9
100
AcDbCircle
 10
373.6615756816871
 20
242.3461378727392
 30
0.0
 40
5.000000257749815
100
AcDbArc
 50
180.0
 51
263.6597595214844
  0
CIRCLE
  5
1E0
330
1F
100
AcDbEntity
  8
仕上
  6
Continuous
 62
     2
370
     9
100
AcDbCircle
 10
348.66164166564
 20
211.8708554614217
 30
0.0
 40
2.000000025774982
  0
CIRCLE
  5
1E1
330
1F
100
AcDbEntity
  8
仕上
  6
Continuous
 62
     2
370
     9
100
AcDbCircle
 10
348.66164166564
 20
211.8708554614217
 30
0.0
 40
1.400000018042487
  0
ARC
  5
1E2
330
1F
100
AcDbEntity
  8
通り芯
  6
Continuous
 62
     3
370
     9
100
AcDbCircle
 10
-365.676341336894
 20
241.3708290678407
 30
0.0
 40
6.000000077324945
100
AcDbArc
 50
180.0
 51
270.0
  0
ARC
  5
1E3
330
1F
100
AcDbEntity
  8
通り芯
  6
Continuous
 62
     3
370
     9
100
AcDbCircle
 10
-365.676341336894
 20
222.3709148469792
 30
0.0
 40
6.000000077324945
100
AcDbArc
 50
90.0
 51
180.0
  0
ARC
  5
1E4
330
1F
100
AcDbEntity
  8
通り芯
  6
Continuous
 62
     3
370
     9
100
AcDbCircle
 10
-384.6764040216492
 20
222.3709148469792
 30
0.0
 40
6.000000077324945
100
AcDbArc
 50
0.0
 51
90.0
  0
ARC
  5
1E5
330
1F
100
AcDbEntity
  8
通り芯
  6
Continuous
 62
     3
370
     9
100
AcDbCircle
 10
-365.676341336894
 20
241.3708290678407
 30
0.0
 40
8.500000206199852
100
AcDbArc
 50
180.0
 51
270.0
  0
ARC
  5
1E6
330
1F
100
AcDbEntity
  8
通り芯
  6
Continuous
 62
     3
370
     9
100
AcDbCircle
 10
-384.6764040216492
 20
241.3708290678407
 30
0.0
 40
6.000000077324945
100
AcDbArc
 50
270.0
 51
0.0
  0
ARC
  5
1E7
330
1F
100
AcDbEntity
  8
通り芯
  6
Continuous
 62
     3
370
     9
100
AcDbCircle
 10
-384.6764040216492
 20
241.3708290678407
 30
0.0
 40
8.500000206199852
100
AcDbArc
 50
270.0
 51
0.0
  0
ARC
  5
1E8
330
1F
100
AcDbEntity
  8
通り芯
  6
Continuous
 62
     3
370
     9
100
AcDbCircle
 10
-384.6764040216492
 20
222.3709148469792
 30
0.0
 40
8.500000206199852
100
AcDbArc
 50
0.0
 51
90.0
  0
ARC
  5
1E9
330
1F
100
AcDbEntity
  8
通り芯
  6
Continuous
 62
     3
370
     9
100
AcDbCircle
 10
-365.676341336894
 20
222.3709148469792
 30
0.0
 40
8.500000206199852
100
AcDbArc
 50
90.0
 51
180.0
  0
ARC
  5
1EA
330
1F
100
AcDbEntity
  8
通り芯
  6
Continuous
 62
     3
370
     9
100
AcDbCircle
 10
-23.83406937743439
 20
221.7663698723169
 30
0.0
 40
1.500000019331236
100
AcDbArc
 50
172.0370483398438
 51
180.0
  0
ARC
  5
1EB
330
1F
100
AcDbEntity
  8
通り芯
  6
Continuous
 62
     3
370
     9
100
AcDbCircle
 10
340.1615888784775
 20
220.9437809259488
 30
0.0
 40
1.500000019331236
100
AcDbArc
 50
0.0
 51
63.43748474121094
  0
ARC
  5
1EC
330
1F
100
AcDbEntity
  8
躯体
  6
Continuous
 62
     3
370
     9
100
AcDbCircle
 10
363.1616152720587
 20
357.3969455163205
 30
0.0
 40
1.500000019331236
100
AcDbArc
 50
180.0
 51
218.6598052978516
  0
ARC
  5
1ED
330
1F
100
AcDbEntity
  8
躯体
  6
Continuous
 62
     3
370
     9
100
AcDbCircle
 10
362.1615624848966
 20
353.8446004466413
 30
0.0
 40
1.500000019331236
100
AcDbArc
 50
0.0
 51
38.65980529785156
  0
ARC
  5
1EE
330
1F
100
AcDbEntity
  8
躯体
  6
Continuous
 62
     3
370
     9
100
AcDbCircle
 10
370.1614899025487
 20
357.5734195978238
 30
0.0
 40
1.500000019331236
100
AcDbArc
 50
180.0
 51
230.1939392089844
  0
ARC
  5
1EF
330
1F
100
AcDbEntity
  8
通り芯
  6
Continuous
 62
     3
370
     9
100
AcDbCircle
 10
-25.47479335336357
 20
218.8708290678407
 30
0.0
 40
1.000000012887491
100
AcDbArc
 50
0.0
 51
90.0
  0
ARC
  5
1F0
330
1F
100
AcDbEntity
  8
通り芯
  6
Continuous
 62
     3
370
     9
100
AcDbCircle
 10
-24.68912242853253
 20
219.6802542156447
 30
0.0
 40
1.500000019331236
100
AcDbArc
 50
0.0
 51
76.87814331054688
  0
ARC
  5
1F1
330
1F
100
AcDbEntity
  8
通り芯
  6
Continuous
 62
     3
370
     9
100
AcDbCircle
 10
-24.97991370809314
 20
219.3634322667428
 30
0.0
 40
1.500000019331236
100
AcDbArc
 50
142.6251525878906
 51
180.0
  0
ARC
  5
1F2
330
1F
100
AcDbEntity
  8
通り芯
  6
Continuous
 62
     3
370
     9
100
AcDbCircle
 10
-23.83406937743439
 20
201.9753410505265
 30
0.0
 40
1.500000019331236
100
AcDbArc
 50
180.0
 51
187.9629516601562
  0
ARC
  5
1F3
330
1F
100
AcDbEntity
  8
通り芯
  6
Continuous
 62
     3
370
     9
100
AcDbCircle
 10
-25.47479335336357
 20
204.8708818550028
 30
0.0
 40
1.000000012887491
100
AcDbArc
 50
270.0
 51
0.0
  0
ARC
  5
1F4
330
1F
100
AcDbEntity
  8
通り芯
  6
Continuous
 62
     3
370
     9
100
AcDbCircle
 10
-24.68912242853253
 20
204.0614567071988
 30
0.0
 40
1.500000019331236
100
AcDbArc
 50
283.1218566894531
 51
0.0
  0
ARC
  5
1F5
330
1F
100
AcDbEntity
  8
通り芯
  6
Continuous
 62
     3
370
     9
100
AcDbCircle
 10
-24.97991370809314
 20
204.3781796801717
 30
0.0
 40
1.500000019331236
100
AcDbArc
 50
180.0
 51
217.3748474121094
  0
ARC
  5
1F6
330
1F
100
AcDbEntity
  8
通り芯
  6
Continuous
 62
     3
370
     9
100
AcDbCircle
 10
357.6616218704542
 20
374.5569961919961
 30
0.0
 40
4.000000051549963
100
AcDbArc
 50
0.0
 51
85.91427612304688
  0
ARC
  5
1F7
330
1F
100
AcDbEntity
  8
通り芯
  6
Continuous
 62
     3
370
     9
100
AcDbCircle
 10
377.6614899025487
 20
334.5463727756109
 30
0.0
 40
15.0
100
AcDbArc
 50
0.0
 51
60.90312194824219
  0
ARC
  5
1F8
330
1F
100
AcDbEntity
  8
通り芯
  6
Continuous
 62
     3
370
     9
100
AcDbCircle
 10
-30.76565061687711
 20
374.2814472055097
 30
0.0
 40
4.000000051549963
100
AcDbArc
 50
0.0
 51
90.0
  0
ARC
  5
1F9
330
1F
100
AcDbEntity
  8
通り芯
  6
Continuous
 62
     3
370
     9
100
AcDbCircle
 10
-29.19420979128586
 20
375.8529870070299
 30
0.0
 40
4.000000051549963
100
AcDbArc
 50
0.0
 51
90.0
  0
ARC
  5
1FA
330
1F
100
AcDbEntity
  8
通り芯
  6
Continuous
 62
     3
370
     9
100
AcDbCircle
 10
-546.5186264931438
 20
221.7663698723169
 30
0.0
 40
1.500000019331236
100
AcDbArc
 50
0.0
 51
7.962951660156251
  0
ARC
  5
1FB
330
1F
100
AcDbEntity
  8
通り芯
  6
Continuous
 62
     3
370
     9
100
AcDbCircle
 10
-544.8778530292504
 20
218.8708290678407
 30
0.0
 40
1.000000012887491
100
AcDbArc
 50
90.0
 51
180.0
  0
ARC
  5
1FC
330
1F
100
AcDbEntity
  8
通り芯
  6
Continuous
 62
     3
370
     9
100
AcDbCircle
 10
-545.6635981860284
 20
219.6802542156447
 30
0.0
 40
1.500000019331236
100
AcDbArc
 50
103.1218566894531
 51
180.0
  0
ARC
  5
1FD
330
1F
100
AcDbEntity
  8
通り芯
  6
Continuous
 62
     3
370
     9
100
AcDbCircle
 10
-545.3728316504496
 20
219.3634322667428
 30
0.0
 40
1.500000019331236
100
AcDbArc
 50
0.0
 51
37.37484741210938
  0
ARC
  5
1FE
330
1F
100
AcDbEntity
  8
通り芯
  6
Continuous
 62
     3
370
     9
100
AcDbCircle
 10
-546.5186264931438
 20
201.9753410505265
 30
0.0
 40
1.500000019331236
100
AcDbArc
 50
352.0370483398438
 51
0.0000000000000127
  0
ARC
  5
1FF
330
1F
100
AcDbEntity
  8
通り芯
  6
Continuous
 62
     3
370
     9
100
AcDbCircle
 10
-544.8778530292504
 20
204.8708818550028
 30
0.0
 40
1.000000012887491
100
AcDbArc
 50
180.0
 51
270.0
  0
ARC
  5
200
330
1F
100
AcDbEntity
  8
通り芯
  6
Continuous
 62
     3
370
     9
100
AcDbCircle
 10
-545.6635981860284
 20
204.0614567071988
 30
0.0
 40
1.500000019331236
100
AcDbArc
 50
180.0
 51
256.8781433105469
  0
ARC
  5
201
330
1F
100
AcDbEntity
  8
通り芯
  6
Continuous
 62
     3
370
     9
100
AcDbCircle
 10
-545.3728316504496
 20
204.3781796801717
 30
0.0
 40
1.500000019331236
100
AcDbArc
 50
322.6251525878906
 51
0.0
  0
ARC
  5
202
330
1F
100
AcDbEntity
  8
通り芯
  6
Continuous
 62
     3
370
     9
100
AcDbCircle
 10
-539.5870947416659
 20
374.2814472055097
 30
0.0
 40
4.000000051549963
100
AcDbArc
 50
90.0
 51
180.0
  0
ARC
  5
203
330
1F
100
AcDbEntity
  8
通り芯
  6
Continuous
 62
     3
370
     9
100
AcDbCircle
 10
-541.158510823275
 20
375.8529870070299
 30
0.0
 40
4.000000051549963
100
AcDbArc
 50
90.0
 51
180.0
  0
ARC
  5
204
330
1F
100
AcDbEntity
  8
通り芯
  6
Continuous
 62
     3
370
     9
100
AcDbCircle
 10
340.1615888784775
 20
202.7979299968947
 30
0.0
 40
1.500000019331236
100
AcDbArc
 50
296.5625152587891
 51
0.0
  0
ARC
  5
205
330
1F
100
AcDbEntity
  8
通り芯
  6
Continuous
 62
     3
370
     9
100
AcDbCircle
 10
-541.6763528840859
 20
390.8709016501886
 30
0.0
 40
4.000000051549963
100
AcDbArc
 50
311.4092559814453
 51
0.0000000000000191
  0
ARC
  5
206
330
1F
100
AcDbEntity
  8
通り芯
  6
Continuous
 62
     3
370
     9
100
AcDbCircle
 10
-508.676367730475
 20
390.8709016501886
 30
0.0
 40
4.000000051549963
100
AcDbArc
 50
180.0
 51
228.5907440185547
  0
ARC
  5
207
330
1F
100
AcDbEntity
  8
通り芯
  6
Continuous
 62
     3
370
     9
100
AcDbCircle
 10
-301.6763281401034
 20
390.8709016501886
 30
0.0
 40
4.000000051549963
100
AcDbArc
 50
311.4092559814453
 51
0.0000000000000191
  0
ARC
  5
208
330
1F
100
AcDbEntity
  8
通り芯
  6
Continuous
 62
     3
370
     9
100
AcDbCircle
 10
-268.676367730475
 20
390.8709016501886
 30
0.0
 40
4.000000051549963
100
AcDbArc
 50
180.0
 51
228.5907440185547
  0
ARC
  5
209
330
1F
100
AcDbEntity
  8
通り芯
  6
Continuous
 62
     3
370
     9
100
AcDbCircle
 10
-61.67632814010335
 20
390.8709016501886
 30
0.0
 40
4.000000051549963
100
AcDbArc
 50
311.4092559814453
 51
0.0000000000000191
  0
ARC
  5
20A
330
1F
100
AcDbEntity
  8
通り芯
  6
Continuous
 62
     3
370
     9
100
AcDbCircle
 10
-28.67626875454584
 20
390.8709016501886
 30
0.0
 40
4.000000051549963
100
AcDbArc
 50
180.0
 51
228.5907440185547
  0
ARC
  5
20B
330
1F
100
AcDbEntity
  8
通り芯
  6
Continuous
 62
     3
370
     9
100
AcDbCircle
 10
-204.6763545336844
 20
42.37081587105007
 30
0.0
 40
6.000000077324945
100
AcDbArc
 50
0.0
 51
90.0
  0
ARC
  5
20C
330
1F
100
AcDbEntity
  8
通り芯
  6
Continuous
 62
     3
370
     9
100
AcDbCircle
 10
-204.6763545336844
 20
61.37073009191153
 30
0.0
 40
6.000000077324945
100
AcDbArc
 50
270.0
 51
0.0
  0
ARC
  5
20D
330
1F
100
AcDbEntity
  8
通り芯
  6
Continuous
 62
     3
370
     9
100
AcDbCircle
 10
-185.6762918489294
 20
61.37073009191153
 30
0.0
 40
6.000000077324945
100
AcDbArc
 50
180.0
 51
270.0
  0
ARC
  5
20E
330
1F
100
AcDbEntity
  8
通り芯
  6
Continuous
 62
     3
370
     9
100
AcDbCircle
 10
-204.6763545336844
 20
42.37081587105007
 30
0.0
 40
8.500000206199852
100
AcDbArc
 50
0.0
 51
90.0
  0
ARC
  5
20F
330
1F
100
AcDbEntity
  8
通り芯
  6
Continuous
 62
     3
370
     9
100
AcDbCircle
 10
-185.6762918489294
 20
42.37081587105007
 30
0.0
 40
6.000000077324945
100
AcDbArc
 50
90.0
 51
180.0
  0
ARC
  5
210
330
1F
100
AcDbEntity
  8
通り芯
  6
Continuous
 62
     3
370
     9
100
AcDbCircle
 10
-185.6762918489294
 20
42.37081587105007
 30
0.0
 40
8.500000206199852
100
AcDbArc
 50
90.0
 51
180.0
  0
ARC
  5
211
330
1F
100
AcDbEntity
  8
通り芯
  6
Continuous
 62
     3
370
     9
100
AcDbCircle
 10
-185.6762918489294
 20
61.37073009191153
 30
0.0
 40
8.500000206199852
100
AcDbArc
 50
180.0
 51
270.0
  0
ARC
  5
212
330
1F
100
AcDbEntity
  8
通り芯
  6
Continuous
 62
     3
370
     9
100
AcDbCircle
 10
-204.6763545336844
 20
61.37073009191153
 30
0.0
 40
8.500000206199852
100
AcDbArc
 50
270.0
 51
0.0
  0
ARC
  5
213
330
1F
100
AcDbEntity
  8
通り芯
  6
Continuous
 62
     3
370
     9
100
AcDbCircle
 10
-365.676341336894
 20
42.37081587105007
 30
0.0
 40
6.000000077324945
100
AcDbArc
 50
90.0
 51
180.0
  0
ARC
  5
214
330
1F
100
AcDbEntity
  8
通り芯
  6
Continuous
 62
     3
370
     9
100
AcDbCircle
 10
-365.676341336894
 20
61.37073009191153
 30
0.0
 40
6.000000077324945
100
AcDbArc
 50
180.0
 51
270.0
  0
ARC
  5
215
330
1F
100
AcDbEntity
  8
通り芯
  6
Continuous
 62
     3
370
     9
100
AcDbCircle
 10
-384.6764040216492
 20
61.37073009191153
 30
0.0
 40
6.000000077324945
100
AcDbArc
 50
270.0
 51
0.0
  0
ARC
  5
216
330
1F
100
AcDbEntity
  8
通り芯
  6
Continuous
 62
     3
370
     9
100
AcDbCircle
 10
-365.676341336894
 20
42.37081587105007
 30
0.0
 40
8.500000206199852
100
AcDbArc
 50
90.0
 51
180.0
  0
ARC
  5
217
330
1F
100
AcDbEntity
  8
通り芯
  6
Continuous
 62
     3
370
     9
100
AcDbCircle
 10
-384.6764040216492
 20
42.37081587105007
 30
0.0
 40
6.000000077324945
100
AcDbArc
 50
0.0
 51
90.0
  0
ARC
  5
218
330
1F
100
AcDbEntity
  8
通り芯
  6
Continuous
 62
     3
370
     9
100
AcDbCircle
 10
-384.6764040216492
 20
42.37081587105007
 30
0.0
 40
8.500000206199852
100
AcDbArc
 50
0.0
 51
90.0
  0
ARC
  5
219
330
1F
100
AcDbEntity
  8
通り芯
  6
Continuous
 62
     3
370
     9
100
AcDbCircle
 10
-384.6764040216492
 20
61.37073009191153
 30
0.0
 40
8.500000206199852
100
AcDbArc
 50
270.0
 51
0.0
  0
ARC
  5
21A
330
1F
100
AcDbEntity
  8
通り芯
  6
Continuous
 62
     3
370
     9
100
AcDbCircle
 10
-365.676341336894
 20
61.37073009191153
 30
0.0
 40
8.500000206199852
100
AcDbArc
 50
180.0
 51
270.0
  0
ARC
  5
21B
330
1F
100
AcDbEntity
  8
通り芯
  6
Continuous
 62
     3
370
     9
100
AcDbCircle
 10
-23.83406937743439
 20
61.97527506657383
 30
0.0
 40
1.500000019331236
100
AcDbArc
 50
180.0
 51
187.9629516601562
  0
ARC
  5
21C
330
1F
100
AcDbEntity
  8
通り芯
  6
Continuous
 62
     3
370
     9
100
AcDbCircle
 10
-25.47479335336357
 20
64.87081587105007
 30
0.0
 40
1.000000012887491
100
AcDbArc
 50
270.0
 51
0.0
  0
ARC
  5
21D
330
1F
100
AcDbEntity
  8
通り芯
  6
Continuous
 62
     3
370
     9
100
AcDbCircle
 10
-24.68912242853253
 20
64.06139072324612
 30
0.0
 40
1.500000019331236
100
AcDbArc
 50
283.1218566894531
 51
0.0
  0
ARC
  5
21E
330
1F
100
AcDbEntity
  8
通り芯
  6
Continuous
 62
     3
370
     9
100
AcDbCircle
 10
-24.97991370809314
 20
64.37821267214798
 30
0.0
 40
1.500000019331236
100
AcDbArc
 50
180.0
 51
217.3748474121094
  0
ARC
  5
21F
330
1F
100
AcDbEntity
  8
通り芯
  6
Continuous
 62
     3
370
     9
100
AcDbCircle
 10
-23.83406937743439
 20
81.76630388836423
 30
0.0
 40
1.500000019331236
100
AcDbArc
 50
172.0370483398438
 51
180.0
  0
ARC
  5
220
330
1F
100
AcDbEntity
  8
通り芯
  6
Continuous
 62
     3
370
     9
100
AcDbCircle
 10
-25.47479335336357
 20
78.870763083888
 30
0.0
 40
1.000000012887491
100
AcDbArc
 50
0.0
 51
90.0
  0
ARC
  5
221
330
1F
100
AcDbEntity
  8
通り芯
  6
Continuous
 62
     3
370
     9
100
AcDbCircle
 10
-24.68912242853253
 20
79.68018823169194
 30
0.0
 40
1.500000019331236
100
AcDbArc
 50
0.0
 51
76.87814331054688
  0
ARC
  5
222
330
1F
100
AcDbEntity
  8
通り芯
  6
Continuous
 62
     3
370
     9
100
AcDbCircle
 10
-24.97991370809314
 20
79.36346525871903
 30
0.0
 40
1.500000019331236
100
AcDbArc
 50
142.6251525878906
 51
180.0
  0
ARC
  5
223
330
1F
100
AcDbEntity
  8
通り芯
  6
Continuous
 62
     3
370
     9
100
AcDbCircle
 10
-30.76565061687711
 20
-90.53980226661889
 30
0.0
 40
4.000000051549963
100
AcDbArc
 50
270.0
 51
0.0
  0
ARC
  5
224
330
1F
100
AcDbEntity
  8
通り芯
  6
Continuous
 62
     3
370
     9
100
AcDbCircle
 10
-29.19420979128586
 20
-92.1113420681391
 30
0.0
 40
4.000000051549963
100
AcDbArc
 50
270.0
 51
0.0
  0
ARC
  5
225
330
1F
100
AcDbEntity
  8
通り芯
  6
Continuous
 62
     3
370
     9
100
AcDbCircle
 10
-546.5186264931438
 20
61.97527506657383
 30
0.0
 40
1.500000019331236
100
AcDbArc
 50
352.0370483398438
 51
0.0000000000000127
  0
ARC
  5
226
330
1F
100
AcDbEntity
  8
通り芯
  6
Continuous
 62
     3
370
     9
100
AcDbCircle
 10
-544.8778530292504
 20
64.87081587105007
 30
0.0
 40
1.000000012887491
100
AcDbArc
 50
180.0
 51
270.0
  0
ARC
  5
227
330
1F
100
AcDbEntity
  8
通り芯
  6
Continuous
 62
     3
370
     9
100
AcDbCircle
 10
-545.6635981860284
 20
64.06139072324612
 30
0.0
 40
1.500000019331236
100
AcDbArc
 50
180.0
 51
256.8781433105469
  0
ARC
  5
228
330
1F
100
AcDbEntity
  8
通り芯
  6
Continuous
 62
     3
370
     9
100
AcDbCircle
 10
-545.3728316504496
 20
64.37821267214798
 30
0.0
 40
1.500000019331236
100
AcDbArc
 50
322.6251525878906
 51
0.0
  0
ARC
  5
229
330
1F
100
AcDbEntity
  8
通り芯
  6
Continuous
 62
     3
370
     9
100
AcDbCircle
 10
-546.5186264931438
 20
81.76630388836423
 30
0.0
 40
1.500000019331236
100
AcDbArc
 50
0.0
 51
7.962951660156251
  0
ARC
  5
22A
330
1F
100
AcDbEntity
  8
通り芯
  6
Continuous
 62
     3
370
     9
100
AcDbCircle
 10
-544.8778530292504
 20
78.870763083888
 30
0.0
 40
1.000000012887491
100
AcDbArc
 50
90.0
 51
180.0
  0
ARC
  5
22B
330
1F
100
AcDbEntity
  8
通り芯
  6
Continuous
 62
     3
370
     9
100
AcDbCircle
 10
-545.6635981860284
 20
79.68018823169194
 30
0.0
 40
1.500000019331236
100
AcDbArc
 50
103.1218566894531
 51
180.0
  0
ARC
  5
22C
330
1F
100
AcDbEntity
  8
通り芯
  6
Continuous
 62
     3
370
     9
100
AcDbCircle
 10
-545.3728316504496
 20
79.36346525871903
 30
0.0
 40
1.500000019331236
100
AcDbArc
 50
0.0
 51
37.37484741210938
  0
ARC
  5
22D
330
1F
100
AcDbEntity
  8
通り芯
  6
Continuous
 62
     3
370
     9
100
AcDbCircle
 10
-539.5870947416659
 20
-90.53980226661889
 30
0.0
 40
4.000000051549963
100
AcDbArc
 50
180.0
 51
270.0
  0
ARC
  5
22E
330
1F
100
AcDbEntity
  8
通り芯
  6
Continuous
 62
     3
370
     9
100
AcDbCircle
 10
-541.158510823275
 20
-92.1113420681391
 30
0.0
 40
4.000000051549963
100
AcDbArc
 50
180.0
 51
270.0
  0
ARC
  5
22F
330
1F
100
AcDbEntity
  8
通り芯
  6
Continuous
 62
     3
370
     9
100
AcDbCircle
 10
-541.6763528840859
 20
-107.1292567112978
 30
0.0
 40
4.000000051549963
100
AcDbArc
 50
0.0
 51
48.59074401855468
  0
ARC
  5
230
330
1F
100
AcDbEntity
  8
通り芯
  6
Continuous
 62
     3
370
     9
100
AcDbCircle
 10
-508.676367730475
 20
-107.1292567112978
 30
0.0
 40
4.000000051549963
100
AcDbArc
 50
131.4092559814453
 51
180.0
  0
ARC
  5
231
330
1F
100
AcDbEntity
  8
通り芯
  6
Continuous
 62
     3
370
     9
100
AcDbCircle
 10
-301.6763281401034
 20
-107.1292567112978
 30
0.0
 40
4.000000051549963
100
AcDbArc
 50
0.0
 51
48.59074401855468
  0
ARC
  5
232
330
1F
100
AcDbEntity
  8
通り芯
  6
Continuous
 62
     3
370
     9
100
AcDbCircle
 10
-268.676367730475
 20
-107.1292567112978
 30
0.0
 40
4.000000051549963
100
AcDbArc
 50
131.4092559814453
 51
180.0
  0
ARC
  5
233
330
1F
100
AcDbEntity
  8
通り芯
  6
Continuous
 62
     3
370
     9
100
AcDbCircle
 10
-61.67632814010335
 20
-107.1292567112978
 30
0.0
 40
4.000000051549963
100
AcDbArc
 50
0.0
 51
48.59074401855468
  0
ARC
  5
234
330
1F
100
AcDbEntity
  8
通り芯
  6
Continuous
 62
     3
370
     9
100
AcDbCircle
 10
-28.67626875454584
 20
-107.1292567112978
 30
0.0
 40
4.000000051549963
100
AcDbArc
 50
131.4092559814453
 51
180.0
  0
ARC
  5
235
330
1F
100
AcDbEntity
  8
通り芯
  6
Continuous
 62
     3
370
     9
100
AcDbCircle
 10
354.1616350672446
 20
-122.8049653789499
 30
0.0
 40
1.500000019331236
100
AcDbArc
 50
277.1247863769531
 51
0.0000000000000254
  0
ARC
  5
236
330
1F
100
AcDbEntity
  8
通り芯
  6
Continuous
 62
     3
370
     9
100
AcDbCircle
 10
359.6616284688491
 20
-105.7108326720243
 30
0.0
 40
4.000000051549963
100
AcDbArc
 50
94.08566284179689
 51
180.0
  0
ARC
  5
237
330
1F
100
AcDbEntity
  8
通り芯
  6
Continuous
 62
     3
370
     9
100
AcDbCircle
 10
380.1616218704542
 20
-98.73253479406804
 30
0.0
 40
1.500000019331236
100
AcDbArc
 50
274.0857543945312
 51
0.0
  0
ARC
  5
238
330
1F
100
AcDbEntity
  8
通り芯
  6
Continuous
 62
     3
370
     9
100
AcDbCircle
 10
380.1616218704542
 20
-95.43010394525055
 30
0.0
 40
1.500000019331236
100
AcDbArc
 50
0.0
 51
81.87069702148439
  0
ARC
  5
239
330
1F
100
AcDbEntity
  8
通り芯
  6
Continuous
 62
     3
370
     9
100
AcDbCircle
 10
373.6615756816871
 20
-87.79272535572346
 30
0.0
 40
5.000000257749815
100
AcDbArc
 50
180.0
 51
261.8696594238281
  0
ARC
  5
23A
330
1F
100
AcDbEntity
  8
通り芯
  6
Continuous
 62
     3
370
     9
100
AcDbCircle
 10
363.1616152720587
 20
55.89696531150611
 30
0.0
 40
1.500000019331236
100
AcDbArc
 50
180.0
 51
218.6598815917969
  0
ARC
  5
23B
330
1F
100
AcDbEntity
  8
通り芯
  6
Continuous
 62
     3
370
     9
100
AcDbCircle
 10
362.1615624848966
 20
52.34462024182716
 30
0.0
 40
1.500000019331236
100
AcDbArc
 50
0.0
 51
38.65988159179688
  0
ARC
  5
23C
330
1F
100
AcDbEntity
  8
通り芯
  6
Continuous
 62
     3
370
     9
100
AcDbCircle
 10
362.1615624848966
 20
51.39692572113466
 30
0.0
 40
1.500000019331236
100
AcDbArc
 50
321.3404846191407
 51
0.0000000000000382
  0
ARC
  5
23D
330
1F
100
AcDbEntity
  8
通り芯
  6
Continuous
 62
     3
370
     9
100
AcDbCircle
 10
363.1616152720587
 20
47.84458065145549
 30
0.0
 40
1.500000019331236
100
AcDbArc
 50
141.3404846191406
 51
180.0
  0
ARC
  5
23E
330
1F
100
AcDbEntity
  8
通り芯
  6
Continuous
 62
     3
370
     9
100
AcDbCircle
 10
391.1616086736633
 20
54.52822718861779
 30
0.0
 40
1.500000019331236
100
AcDbArc
 50
0.0
 51
83.65975952148438
  0
ARC
  5
23F
330
1F
100
AcDbEntity
  8
通り芯
  6
Continuous
 62
     3
370
     9
100
AcDbCircle
 10
391.1616086736633
 20
49.21331877434403
 30
0.0
 40
1.500000019331236
100
AcDbArc
 50
276.3401336669922
 51
0.0000000000000127
  0
ARC
  5
240
330
1F
100
AcDbEntity
  8
通り芯
  6
Continuous
 62
     3
370
     9
100
AcDbCircle
 10
373.6615756816871
 20
62.34593992088111
 30
0.0
 40
5.000000257749815
100
AcDbArc
 50
180.0
 51
263.6597442626953
  0
ARC
  5
241
330
1F
100
AcDbEntity
  8
通り芯
  6
Continuous
 62
     3
370
     9
100
AcDbCircle
 10
373.6615756816871
 20
41.39550706615154
 30
0.0
 40
5.000000257749815
100
AcDbArc
 50
96.34024047851561
 51
180.0
  0
CIRCLE
  5
242
330
1F
100
AcDbEntity
  8
仕上
  6
Continuous
 62
     2
370
     9
100
AcDbCircle
 10
348.66164166564
 20
71.87078947746903
 30
0.0
 40
2.000000025774982
  0
CIRCLE
  5
243
330
1F
100
AcDbEntity
  8
仕上
  6
Continuous
 62
     2
370
     9
100
AcDbCircle
 10
348.66164166564
 20
71.87078947746903
 30
0.0
 40
1.400000018042487
  0
ARC
  5
244
330
1F
100
AcDbEntity
  8
通り芯
  6
Continuous
 62
     3
370
     9
100
AcDbCircle
 10
340.1615888784775
 20
62.79786401294194
 30
0.0
 40
1.500000019331236
100
AcDbArc
 50
296.5625152587891
 51
0.0
  0
ARC
  5
245
330
1F
100
AcDbEntity
  8
躯体
  6
Continuous
 62
     3
370
     9
100
AcDbCircle
 10
363.1616152720587
 20
-73.6553005774295
 30
0.0
 40
1.500000019331236
100
AcDbArc
 50
141.3401947021484
 51
180.0
  0
ARC
  5
246
330
1F
100
AcDbEntity
  8
躯体
  6
Continuous
 62
     3
370
     9
100
AcDbCircle
 10
362.1615624848966
 20
-70.10295550775055
 30
0.0
 40
1.500000019331236
100
AcDbArc
 50
321.3401947021485
 51
0.0000000000000445
  0
ARC
  5
247
330
1F
100
AcDbEntity
  8
躯体
  6
Continuous
 62
     3
370
     9
100
AcDbCircle
 10
370.1614899025487
 20
-73.83177465893306
 30
0.0
 40
1.500000019331236
100
AcDbArc
 50
129.8060607910156
 51
180.0
  0
ARC
  5
248
330
1F
100
AcDbEntity
  8
通り芯
  6
Continuous
 62
     3
370
     9
100
AcDbCircle
 10
357.6616218704542
 20
-90.81535125310535
 30
0.0
 40
4.000000051549963
100
AcDbArc
 50
274.0857238769531
 51
0.0000000000000127
  0
ARC
  5
249
330
1F
100
AcDbEntity
  8
通り芯
  6
Continuous
 62
     3
370
     9
100
AcDbCircle
 10
377.6614899025487
 20
-50.80472783672013
 30
0.0
 40
15.0
100
AcDbArc
 50
299.0968780517579
 51
0.0000000000000382
  0
ARC
  5
24A
330
1F
100
AcDbEntity
  8
通り芯
  6
Continuous
 62
     3
370
     9
100
AcDbCircle
 10
340.1615888784775
 20
80.94371494199612
 30
0.0
 40
1.500000019331236
100
AcDbArc
 50
0.0
 51
63.43748474121094
  0
LINE
  5
24B
330
1F
100
AcDbEntity
  8
0-A
  6
Continuous
 62
     4
370
     9
100
AcDbLine
 10
-24.67635453368439
 20
209.3708224694455
 30
0.0
 11
-24.67635453368439
 21
214.3708884533982
 31
0.0
  0
LINE
  5
24C
330
1F
100
AcDbEntity
  8
0-A
  6
Continuous
 62
     4
370
     9
100
AcDbLine
 10
-20.67634133689398
 20
209.3708224694455
 30
0.0
 11
-20.67634133689398
 21
214.3708884533982
 31
0.0
  0
LINE
  5
24D
330
1F
100
AcDbEntity
  8
0-A
  6
Continuous
 62
     4
370
     9
100
AcDbLine
 10
-19.17636113207982
 20
209.3708224694455
 30
0.0
 11
-19.17636113207982
 21
214.3708884533982
 31
0.0
  0
LINE
  5
24E
330
1F
100
AcDbEntity
  8
0-A
  6
Continuous
 62
     2
370
     9
100
AcDbLine
 10
-28.01085358351565
 20
213.8708620598169
 30
0.0
 11
-28.01085358351565
 21
209.8708488630265
 31
0.0
  0
LINE
  5
24F
330
1F
100
AcDbEntity
  8
0-A
  6
Continuous
 62
     2
370
     9
100
AcDbLine
 10
-26.67636113207982
 20
215.3708422646311
 30
0.0
 11
-24.67635453368439
 21
215.3708422646311
 31
0.0
  0
LINE
  5
250
330
1F
100
AcDbEntity
  8
0-A
  6
Continuous
 62
     2
370
     9
100
AcDbLine
 10
-26.67636113207982
 20
215.3708422646311
 30
0.0
 11
-26.67636113207982
 21
208.3708686582124
 31
0.0
  0
LINE
  5
251
330
1F
100
AcDbEntity
  8
0-A
  6
Continuous
 62
     2
370
     9
100
AcDbLine
 10
-24.67635453368439
 20
215.3708422646311
 30
0.0
 11
-24.67635453368439
 21
208.3708686582124
 31
0.0
  0
LINE
  5
252
330
1F
100
AcDbEntity
  8
0-A
  6
Continuous
 62
     2
370
     9
100
AcDbLine
 10
-26.67636113207982
 20
213.8708620598169
 30
0.0
 11
-28.01085358351565
 21
213.8708620598169
 31
0.0
  0
LINE
  5
253
330
1F
100
AcDbEntity
  8
0-A
  6
Continuous
 62
     2
370
     9
100
AcDbLine
 10
-26.67636113207982
 20
213.2708699778913
 30
0.0
 11
-28.01085358351565
 21
213.2708699778913
 31
0.0
  0
LINE
  5
254
330
1F
100
AcDbEntity
  8
0-A
  6
Continuous
 62
     4
370
     9
100
AcDbLine
 10
-19.17636113207982
 20
214.3708884533982
 30
0.0
 11
-24.67635453368439
 21
214.3708884533982
 31
0.0
  0
LINE
  5
255
330
1F
100
AcDbEntity
  8
0-A
  6
Continuous
 62
     2
370
     9
100
AcDbLine
 10
-26.67636113207982
 20
208.3708686582124
 30
0.0
 11
-24.67635453368439
 21
208.3708686582124
 31
0.0
  0
LINE
  5
256
330
1F
100
AcDbEntity
  8
0-A
  6
Continuous
 62
     2
370
     9
100
AcDbLine
 10
-26.67636113207982
 20
209.8708488630265
 30
0.0
 11
-28.01085358351565
 21
209.8708488630265
 31
0.0
  0
LINE
  5
257
330
1F
100
AcDbEntity
  8
0-A
  6
Continuous
 62
     2
370
     9
100
AcDbLine
 10
-26.67636113207982
 20
210.4708409449522
 30
0.0
 11
-28.01085358351565
 21
210.4708409449522
 31
0.0
  0
LINE
  5
258
330
1F
100
AcDbEntity
  8
0-A
  6
Continuous
 62
     4
370
     9
100
AcDbLine
 10
-19.17636113207982
 20
209.3708224694455
 30
0.0
 11
-24.67635453368439
 21
209.3708224694455
 31
0.0
  0
LINE
  5
259
330
1F
100
AcDbEntity
  8
0-A
  6
Continuous
 62
     4
370
     9
100
AcDbLine
 10
-545.6763413368938
 20
209.3708224694455
 30
0.0
 11
-545.6763413368938
 21
214.3708884533982
 31
0.0
  0
LINE
  5
25A
330
1F
100
AcDbEntity
  8
0-A
  6
Continuous
 62
     4
370
     9
100
AcDbLine
 10
-549.6763545336846
 20
209.3708224694455
 30
0.0
 11
-549.6763545336846
 21
214.3708884533982
 31
0.0
  0
LINE
  5
25B
330
1F
100
AcDbEntity
  8
0-A
  6
Continuous
 62
     4
370
     9
100
AcDbLine
 10
-551.1763594824808
 20
209.3708224694455
 30
0.0
 11
-551.1763594824808
 21
214.3708884533982
 31
0.0
  0
LINE
  5
25C
330
1F
100
AcDbEntity
  8
0-A
  6
Continuous
 62
     2
370
     9
100
AcDbLine
 10
-542.341842287063
 20
213.8708620598169
 30
0.0
 11
-542.341842287063
 21
209.8708488630265
 31
0.0
  0
LINE
  5
25D
330
1F
100
AcDbEntity
  8
0-A
  6
Continuous
 62
     2
370
     9
100
AcDbLine
 10
-543.6763099945163
 20
215.3708422646311
 30
0.0
 11
-545.6763413368938
 21
215.3708422646311
 31
0.0
  0
LINE
  5
25E
330
1F
100
AcDbEntity
  8
0-A
  6
Continuous
 62
     2
370
     9
100
AcDbLine
 10
-543.6763099945163
 20
215.3708422646311
 30
0.0
 11
-543.6763099945163
 21
208.3708686582124
 31
0.0
  0
LINE
  5
25F
330
1F
100
AcDbEntity
  8
0-A
  6
Continuous
 62
     2
370
     9
100
AcDbLine
 10
-545.6763413368938
 20
215.3708422646311
 30
0.0
 11
-545.6763413368938
 21
208.3708686582124
 31
0.0
  0
LINE
  5
260
330
1F
100
AcDbEntity
  8
0-A
  6
Continuous
 62
     2
370
     9
100
AcDbLine
 10
-543.6763099945163
 20
213.8708620598169
 30
0.0
 11
-542.341842287063
 21
213.8708620598169
 31
0.0
  0
LINE
  5
261
330
1F
100
AcDbEntity
  8
0-A
  6
Continuous
 62
     2
370
     9
100
AcDbLine
 10
-543.6763099945163
 20
213.2708699778913
 30
0.0
 11
-542.341842287063
 21
213.2708699778913
 31
0.0
  0
LINE
  5
262
330
1F
100
AcDbEntity
  8
0-A
  6
Continuous
 62
     4
370
     9
100
AcDbLine
 10
-551.1763594824808
 20
214.3708884533982
 30
0.0
 11
-545.6763413368938
 21
214.3708884533982
 31
0.0
  0
LINE
  5
263
330
1F
100
AcDbEntity
  8
0-A
  6
Continuous
 62
     2
370
     9
100
AcDbLine
 10
-543.6763099945163
 20
208.3708686582124
 30
0.0
 11
-545.6763413368938
 21
208.3708686582124
 31
0.0
  0
LINE
  5
264
330
1F
100
AcDbEntity
  8
0-A
  6
Continuous
 62
     2
370
     9
100
AcDbLine
 10
-543.6763099945163
 20
209.8708488630265
 30
0.0
 11
-542.341842287063
 21
209.8708488630265
 31
0.0
  0
LINE
  5
265
330
1F
100
AcDbEntity
  8
0-A
  6
Continuous
 62
     2
370
     9
100
AcDbLine
 10
-543.6763099945163
 20
210.4708409449522
 30
0.0
 11
-542.341842287063
 21
210.4708409449522
 31
0.0
  0
LINE
  5
266
330
1F
100
AcDbEntity
  8
0-A
  6
Continuous
 62
     4
370
     9
100
AcDbLine
 10
-551.1763594824808
 20
209.3708224694455
 30
0.0
 11
-545.6763413368938
 21
209.3708224694455
 31
0.0
  0
LINE
  5
267
330
1F
100
AcDbEntity
  8
0-A
  6
Continuous
 62
     4
370
     9
100
AcDbLine
 10
-24.67635453368439
 20
74.37082246944527
 30
0.0
 11
-24.67635453368439
 21
69.37075648549279
 31
0.0
  0
LINE
  5
268
330
1F
100
AcDbEntity
  8
0-A
  6
Continuous
 62
     4
370
     9
100
AcDbLine
 10
-20.67634133689398
 20
74.37082246944527
 30
0.0
 11
-20.67634133689398
 21
69.37075648549279
 31
0.0
  0
LINE
  5
269
330
1F
100
AcDbEntity
  8
0-A
  6
Continuous
 62
     4
370
     9
100
AcDbLine
 10
-19.17636113207982
 20
74.37082246944527
 30
0.0
 11
-19.17636113207982
 21
69.37075648549279
 31
0.0
  0
LINE
  5
26A
330
1F
100
AcDbEntity
  8
0-A
  6
Continuous
 62
     2
370
     9
100
AcDbLine
 10
-28.01085358351565
 20
69.87078287907383
 30
0.0
 11
-28.01085358351565
 21
73.87079607586423
 31
0.0
  0
LINE
  5
26B
330
1F
100
AcDbEntity
  8
0-A
  6
Continuous
 62
     2
370
     9
100
AcDbLine
 10
-26.67636113207982
 20
68.37080267425966
 30
0.0
 11
-24.67635453368439
 21
68.37080267425966
 31
0.0
  0
LINE
  5
26C
330
1F
100
AcDbEntity
  8
0-A
  6
Continuous
 62
     2
370
     9
100
AcDbLine
 10
-26.67636113207982
 20
68.37080267425966
 30
0.0
 11
-26.67636113207982
 21
75.3707762806784
 31
0.0
  0
LINE
  5
26D
330
1F
100
AcDbEntity
  8
0-A
  6
Continuous
 62
     2
370
     9
100
AcDbLine
 10
-24.67635453368439
 20
68.37080267425966
 30
0.0
 11
-24.67635453368439
 21
75.3707762806784
 31
0.0
  0
LINE
  5
26E
330
1F
100
AcDbEntity
  8
0-A
  6
Continuous
 62
     2
370
     9
100
AcDbLine
 10
-26.67636113207982
 20
69.87078287907383
 30
0.0
 11
-28.01085358351565
 21
69.87078287907383
 31
0.0
  0
LINE
  5
26F
330
1F
100
AcDbEntity
  8
0-A
  6
Continuous
 62
     2
370
     9
100
AcDbLine
 10
-26.67636113207982
 20
70.47077496099945
 30
0.0
 11
-28.01085358351565
 21
70.47077496099945
 31
0.0
  0
LINE
  5
270
330
1F
100
AcDbEntity
  8
0-A
  6
Continuous
 62
     4
370
     9
100
AcDbLine
 10
-19.17636113207982
 20
69.37075648549279
 30
0.0
 11
-24.67635453368439
 21
69.37075648549279
 31
0.0
  0
LINE
  5
271
330
1F
100
AcDbEntity
  8
0-A
  6
Continuous
 62
     2
370
     9
100
AcDbLine
 10
-26.67636113207982
 20
75.3707762806784
 30
0.0
 11
-24.67635453368439
 21
75.3707762806784
 31
0.0
  0
LINE
  5
272
330
1F
100
AcDbEntity
  8
0-A
  6
Continuous
 62
     2
370
     9
100
AcDbLine
 10
-26.67636113207982
 20
73.87079607586423
 30
0.0
 11
-28.01085358351565
 21
73.87079607586423
 31
0.0
  0
LINE
  5
273
330
1F
100
AcDbEntity
  8
0-A
  6
Continuous
 62
     2
370
     9
100
AcDbLine
 10
-26.67636113207982
 20
73.27080399393861
 30
0.0
 11
-28.01085358351565
 21
73.27080399393861
 31
0.0
  0
LINE
  5
274
330
1F
100
AcDbEntity
  8
0-A
  6
Continuous
 62
     4
370
     9
100
AcDbLine
 10
-19.17636113207982
 20
74.37082246944527
 30
0.0
 11
-24.67635453368439
 21
74.37082246944527
 31
0.0
  0
LINE
  5
275
330
1F
100
AcDbEntity
  8
0-A
  6
Continuous
 62
     4
370
     9
100
AcDbLine
 10
-545.6763413368938
 20
74.37082246944527
 30
0.0
 11
-545.6763413368938
 21
69.37075648549279
 31
0.0
  0
LINE
  5
276
330
1F
100
AcDbEntity
  8
0-A
  6
Continuous
 62
     4
370
     9
100
AcDbLine
 10
-549.6763545336846
 20
74.37082246944527
 30
0.0
 11
-549.6763545336846
 21
69.37075648549279
 31
0.0
  0
LINE
  5
277
330
1F
100
AcDbEntity
  8
0-A
  6
Continuous
 62
     4
370
     9
100
AcDbLine
 10
-551.1763594824808
 20
74.37082246944527
 30
0.0
 11
-551.1763594824808
 21
69.37075648549279
 31
0.0
  0
LINE
  5
278
330
1F
100
AcDbEntity
  8
0-A
  6
Continuous
 62
     2
370
     9
100
AcDbLine
 10
-542.341842287063
 20
69.87078287907383
 30
0.0
 11
-542.341842287063
 21
73.87079607586423
 31
0.0
  0
LINE
  5
279
330
1F
100
AcDbEntity
  8
0-A
  6
Continuous
 62
     2
370
     9
100
AcDbLine
 10
-543.6763099945163
 20
68.37080267425966
 30
0.0
 11
-545.6763413368938
 21
68.37080267425966
 31
0.0
  0
LINE
  5
27A
330
1F
100
AcDbEntity
  8
0-A
  6
Continuous
 62
     2
370
     9
100
AcDbLine
 10
-543.6763099945163
 20
68.37080267425966
 30
0.0
 11
-543.6763099945163
 21
75.3707762806784
 31
0.0
  0
LINE
  5
27B
330
1F
100
AcDbEntity
  8
0-A
  6
Continuous
 62
     2
370
     9
100
AcDbLine
 10
-545.6763413368938
 20
68.37080267425966
 30
0.0
 11
-545.6763413368938
 21
75.3707762806784
 31
0.0
  0
LINE
  5
27C
330
1F
100
AcDbEntity
  8
0-A
  6
Continuous
 62
     2
370
     9
100
AcDbLine
 10
-543.6763099945163
 20
69.87078287907383
 30
0.0
 11
-542.341842287063
 21
69.87078287907383
 31
0.0
  0
LINE
  5
27D
330
1F
100
AcDbEntity
  8
0-A
  6
Continuous
 62
     2
370
     9
100
AcDbLine
 10
-543.6763099945163
 20
70.47077496099945
 30
0.0
 11
-542.341842287063
 21
70.47077496099945
 31
0.0
  0
LINE
  5
27E
330
1F
100
AcDbEntity
  8
0-A
  6
Continuous
 62
     4
370
     9
100
AcDbLine
 10
-551.1763594824808
 20
69.37075648549279
 30
0.0
 11
-545.6763413368938
 21
69.37075648549279
 31
0.0
  0
LINE
  5
27F
330
1F
100
AcDbEntity
  8
0-A
  6
Continuous
 62
     2
370
     9
100
AcDbLine
 10
-543.6763099945163
 20
75.3707762806784
 30
0.0
 11
-545.6763413368938
 21
75.3707762806784
 31
0.0
  0
LINE
  5
280
330
1F
100
AcDbEntity
  8
0-A
  6
Continuous
 62
     2
370
     9
100
AcDbLine
 10
-543.6763099945163
 20
73.87079607586423
 30
0.0
 11
-542.341842287063
 21
73.87079607586423
 31
0.0
  0
LINE
  5
281
330
1F
100
AcDbEntity
  8
0-A
  6
Continuous
 62
     2
370
     9
100
AcDbLine
 10
-543.6763099945163
 20
73.27080399393861
 30
0.0
 11
-542.341842287063
 21
73.27080399393861
 31
0.0
  0
LINE
  5
282
330
1F
100
AcDbEntity
  8
0-A
  6
Continuous
 62
     4
370
     9
100
AcDbLine
 10
-551.1763594824808
 20
74.37082246944527
 30
0.0
 11
-545.6763413368938
 21
74.37082246944527
 31
0.0
  0
LINE
  5
283
330
1F
100
AcDbEntity
  8
その他
  6
JWW_CENTER1
 62
     7
370
     9
100
AcDbLine
 10
301.6615360913154
 20
141.8708224694455
 30
0.0
 11
412.661456910572
 21
141.8708224694455
 31
0.0
  0
LINE
  5
284
330
1F
100
AcDbEntity
  8
その他
  6
Continuous
 62
     7
370
     9
100
AcDbLine
 10
236.6612721555045
 20
411.8705255416582
 30
0.0
 11
235.0950770541533
 21
399.9732229656447
 31
0.0
  0
LINE
  5
285
330
1F
100
AcDbEntity
  8
その他
  6
Continuous
 62
     7
370
     9
100
AcDbLine
 10
236.6612721555045
 20
411.8705255416582
 30
0.0
 11
238.2276652087141
 21
399.9732229656447
 31
0.0
  0
LINE
  5
286
330
1F
100
AcDbEntity
  8
その他
  6
Continuous
 62
     7
370
     9
100
AcDbLine
 10
273.6614437137816
 20
413.8708290678407
 30
0.0
 11
235.4614859435117
 21
413.8708290678407
 31
0.0
  0
LINE
  5
287
330
1F
100
AcDbEntity
  8
その他
  6
Continuous
 62
     7
370
     9
100
AcDbLine
 10
313.6613777298292
 20
-100.1289366891272
 30
0.0
 11
275.4614199595587
 21
-100.1289366891272
 31
0.0
  0
LINE
  5
288
330
1F
100
AcDbEntity
  8
その他
  6
Continuous
 62
     7
370
     9
100
AcDbLine
 10
276.66140412341
 20
-128.128930090732
 30
0.0
 11
275.0952090220587
 21
-116.2315780267539
 31
0.0
  0
LINE
  5
289
330
1F
100
AcDbEntity
  8
その他
  6
Continuous
 62
     7
370
     9
100
AcDbLine
 10
276.66140412341
 20
-128.128930090732
 30
0.0
 11
278.2275992247617
 21
-116.2315780267539
 31
0.0
  0
LINE
  5
28A
330
1F
100
AcDbEntity
  8
その他
  6
Continuous
 62
     7
370
     9
100
AcDbLine
 10
278.2275992247617
 20
-88.23158462514931
 30
0.0
 11
275.0952090220587
 21
-112.0262887531053
 31
0.0
  0
LINE
  5
28B
330
1F
100
AcDbEntity
  8
その他
  6
Continuous
 62
     7
370
     9
100
AcDbLine
 10
275.0952090220587
 20
-88.23158462514931
 30
0.0
 11
278.2275992247617
 21
-112.0262887531053
 31
0.0
  0
LINE
  5
28C
330
1F
100
AcDbEntity
  8
その他
  6
Continuous
 62
     7
370
     9
100
AcDbLine
 10
313.6613777298292
 20
-130.1292336169143
 30
0.0
 11
235.4614859435117
 21
-130.1292336169143
 31
0.0
  0
LINE
  5
28D
330
1F
100
AcDbEntity
  8
その他
  6
Continuous
 62
     7
370
     9
100
AcDbLine
 10
236.6612721555045
 20
-128.1288806027674
 30
0.0
 11
235.0950770541533
 21
-116.2315780267539
 31
0.0
  0
LINE
  5
28E
330
1F
100
AcDbEntity
  8
その他
  6
Continuous
 62
     7
370
     9
100
AcDbLine
 10
236.6612721555045
 20
-128.1288806027674
 30
0.0
 11
238.2276652087141
 21
-116.2315780267539
 31
0.0
  0
LINE
  5
28F
330
1F
100
AcDbEntity
  8
その他
  6
Continuous
 62
     7
370
     9
100
AcDbLine
 10
313.6613777298292
 20
-128.128930090732
 30
0.0
 11
235.4614859435117
 21
-128.128930090732
 31
0.0
  0
LINE
  5
290
330
1F
100
AcDbEntity
  8
その他
  6
Continuous
 62
     7
370
     9
100
AcDbLine
 10
276.66140412341
 20
-128.128930090732
 30
0.0
 11
276.66140412341
 21
435.9280107612528
 31
0.0
  0
LINE
  5
291
330
1F
100
AcDbEntity
  8
その他
  6
Continuous
 62
     7
370
     9
100
AcDbLine
 10
313.6613777298292
 20
383.8707300919115
 30
0.0
 11
275.4614199595587
 21
383.8707300919115
 31
0.0
  0
LINE
  5
292
330
1F
100
AcDbEntity
  8
その他
  6
Continuous
 62
     7
370
     9
100
AcDbLine
 10
313.6613777298292
 20
387.8708422646311
 30
0.0
 11
275.4614199595587
 21
387.8708422646311
 31
0.0
  0
LINE
  5
293
330
1F
100
AcDbEntity
  8
その他
  6
Continuous
 62
     7
370
     9
100
AcDbLine
 10
276.66140412341
 20
383.8707300919115
 30
0.0
 11
275.0950110702008
 21
371.9734275158982
 31
0.0
  0
LINE
  5
294
330
1F
100
AcDbEntity
  8
その他
  6
Continuous
 62
     7
370
     9
100
AcDbLine
 10
276.66140412341
 20
383.8707300919115
 30
0.0
 11
278.2275992247617
 21
371.9734275158982
 31
0.0
  0
LINE
  5
295
330
1F
100
AcDbEntity
  8
その他
  6
Continuous
 62
     7
370
     9
100
AcDbLine
 10
313.6613777298292
 20
398.8708290678407
 30
0.0
 11
275.4614199595587
 21
398.8708290678407
 31
0.0
  0
LINE
  5
296
330
1F
100
AcDbEntity
  8
その他
  6
Continuous
 62
     7
370
     9
100
AcDbLine
 10
313.6613777298292
 20
402.8708422646311
 30
0.0
 11
275.4614199595587
 21
402.8708422646311
 31
0.0
  0
LINE
  5
297
330
1F
100
AcDbEntity
  8
その他
  6
Continuous
 62
     7
370
     9
100
AcDbLine
 10
276.66140412341
 20
411.8702286138711
 30
0.0
 11
275.0950110702008
 21
423.7675311898847
 31
0.0
  0
LINE
  5
298
330
1F
100
AcDbEntity
  8
その他
  6
Continuous
 62
     7
370
     9
100
AcDbLine
 10
276.66140412341
 20
411.8702286138711
 30
0.0
 11
278.2275992247617
 21
423.7675311898847
 31
0.0
  0
LINE
  5
299
330
1F
100
AcDbEntity
  8
その他
  6
Continuous
 62
     7
370
     9
100
AcDbLine
 10
279.7751868514508
 20
413.8708290678407
 30
0.0
 11
313.6613777298292
 21
413.8708290678407
 31
0.0
  0
LINE
  5
29A
330
1F
100
AcDbEntity
  8
その他
  6
Continuous
 62
     7
370
     9
100
AcDbLine
 10
313.6613777298292
 20
411.8705255416582
 30
0.0
 11
235.4614859435117
 21
411.8705255416582
 31
0.0
  0
LINE
  5
29B
330
1F
100
AcDbEntity
  8
その他
  6
Continuous
 62
     7
370
     9
100
AcDbLine
 10
321.66140412341
 20
-8.164412961297842
 30
0.0
 11
333.5587066994237
 21
-6.598118884017424
 31
0.0
  0
LINE
  5
29C
330
1F
100
AcDbEntity
  8
その他
  6
Continuous
 62
     7
370
     9
100
AcDbLine
 10
321.66140412341
 20
-8.164412961297842
 30
0.0
 11
333.5587066994237
 21
-9.73070703857826
 31
0.0
  0
LINE
  5
29D
330
1F
100
AcDbEntity
  8
その他
  6
Continuous
 62
     7
370
     9
100
AcDbLine
 10
361.6613381394575
 20
-8.164412961297842
 30
0.0
 11
349.7640355634437
 21
-6.598118884017424
 31
0.0
  0
LINE
  5
29E
330
1F
100
AcDbEntity
  8
その他
  6
Continuous
 62
     7
370
     9
100
AcDbLine
 10
361.6613381394575
 20
-8.164412961297842
 30
0.0
 11
349.7640355634437
 21
-9.73070703857826
 31
0.0
  0
LINE
  5
29F
330
1F
100
AcDbEntity
  8
その他
  6
Continuous
 62
     7
370
     9
100
AcDbLine
 10
392.6614899025487
 20
-8.164412961297842
 30
0.0
 11
404.5587924785621
 21
-6.598118884017424
 31
0.0
  0
LINE
  5
2A0
330
1F
100
AcDbEntity
  8
その他
  6
Continuous
 62
     7
370
     9
100
AcDbLine
 10
392.6614899025487
 20
-8.164412961297842
 30
0.0
 11
404.5587924785621
 21
-9.73070703857826
 31
0.0
  0
LINE
  5
2A1
330
1F
100
AcDbEntity
  8
その他
  6
Continuous
 62
     7
370
     9
100
AcDbLine
 10
372.6617208463829
 20
12.72727767953819
 30
0.0
 11
385.2480938404708
 21
12.72727767953819
 31
0.0
  0
LINE
  5
2A2
330
1F
100
AcDbEntity
  8
その他
  6
Continuous
 62
     7
370
     9
100
AcDbLine
 10
372.6617208463829
 20
12.72727767953819
 30
0.0
 11
364.6134931753525
 21
-7.358155043223462
 31
0.0
  0
LINE
  5
2A3
330
1F
100
AcDbEntity
  8
その他
  6
Continuous
 62
     7
370
     9
100
AcDbLine
 10
321.66140412341
 20
-8.164412961297842
 30
0.0
 11
426.2249202762816
 21
-8.164412961297842
 31
0.0
  0
TEXT
  5
2A4
330
1F
100
AcDbEntity
  8
その他
  6
Continuous
 62
     2
370
     9
100
AcDbText
 10
232.4053645330383
 20
405.9176314854928
 30
0.0
 40
12.192
  1
2
 50
90.0
  7
ＭＳ ゴシック
100
AcDbText
  0
TEXT
  5
2A5
330
1F
100
AcDbEntity
  8
その他
  6
Continuous
 62
     2
370
     9
100
AcDbText
 10
272.4054965009437
 20
-122.6289333899297
 30
0.0
 40
12.192
  1
28
 50
90.0
 41
1.0625
  7
ＭＳ ゴシック
100
AcDbText
  0
TEXT
  5
2A6
330
1F
100
AcDbEntity
  8
その他
  6
Continuous
 62
     2
370
     9
100
AcDbText
 10
232.4053645330383
 20
-130.1760112905843
 30
0.0
 40
12.192
  1
2
 50
90.0
  7
ＭＳ ゴシック
100
AcDbText
  0
TEXT
  5
2A7
330
1F
100
AcDbEntity
  8
その他
  6
Continuous
 62
     2
370
     9
100
AcDbText
 10
272.4052985490858
 20
380.4815105501042
 30
0.0
 40
12.192
  1
4
 50
90.0
  7
ＭＳ ゴシック
100
AcDbText
  0
TEXT
  5
2A8
330
1F
100
AcDbEntity
  8
その他
  6
Continuous
 62
     2
370
     9
100
AcDbText
 10
254.931890082025
 20
386.2708851542006
 30
0.0
 40
12.192
  1
11
 50
90.0
 41
0.8874999999999886
  7
ＭＳ ゴシック
100
AcDbText
  0
TEXT
  5
2A9
330
1F
100
AcDbEntity
  8
その他
  6
Continuous
 62
     2
370
     9
100
AcDbText
 10
272.4052985490858
 20
396.8708356662359
 30
0.0
 40
12.192
  1
4
 50
90.0
  7
ＭＳ ゴシック
100
AcDbText
  0
TEXT
  5
2AA
330
1F
100
AcDbEntity
  8
その他
  6
Continuous
 62
     2
370
     9
100
AcDbText
 10
272.4052985490858
 20
426.5911296907292
 30
0.0
 40
12.192
  1
9
 50
90.0
  7
ＭＳ ゴシック
100
AcDbText
  0
TEXT
  5
2AB
330
1F
100
AcDbEntity
  8
その他
  6
Continuous
 62
     2
370
     9
100
AcDbText
 10
272.405397525015
 20
128.8709214453744
 30
0.0
 40
12.192
  1
484
 50
90.0
 41
1.083333333333333
  7
ＭＳ ゴシック
100
AcDbText
  0
TEXT
  5
2AC
330
1F
100
AcDbEntity
  8
その他
  6
Continuous
 62
     2
370
     9
100
AcDbText
 10
232.4052655571096
 20
128.8708224694453
 30
0.0
 40
12.192
  1
540
 50
90.0
 41
1.083333333333343
  7
ＭＳ ゴシック
100
AcDbText
  0
TEXT
  5
2AD
330
1F
100
AcDbEntity
  8
その他
  6
Continuous
 62
     2
370
     9
100
AcDbText
 10
333.1614206193983
 20
-3.908406362902639
 30
0.0
 40
12.192
  1
40
 41
1.0625
  7
ＭＳ ゴシック
100
AcDbText
  0
TEXT
  5
2AE
330
1F
100
AcDbEntity
  8
その他
  6
Continuous
 62
     2
370
     9
100
AcDbText
 10
407.3648623423712
 20
-3.908406362902639
 30
0.0
 40
12.192
  1
24
 41
1.0625
  7
ＭＳ ゴシック
100
AcDbText
  0
TEXT
  5
2AF
330
1F
100
AcDbEntity
  8
その他
  6
Continuous
 62
     2
370
     9
100
AcDbText
 10
375.3588281098966
 20
16.78132389469883
 30
0.0
 40
12.192
  1
7
  7
ＭＳ ゴシック
100
AcDbText
  0
LWPOLYLINE
  5
2B0
330
1F
100
AcDbEntity
  8
その他
  6
Continuous
 62
     7
370
     9
100
AcDbPolyline
 90
        4
 70
     1
 43
0.4
 10
236.8612721555045
 20
413.8708290678407
 42
0.4142135623731
 10
236.6612721555045
 20
414.0708290678407
 42
0.4142135623731
 10
236.4612721555046
 20
413.8708290678407
 42
0.4142135623731
 10
236.6612721555045
 20
413.6708290678407
 42
0.4142135623731
  0
LWPOLYLINE
  5
2B1
330
1F
100
AcDbEntity
  8
その他
  6
Continuous
 62
     7
370
     9
100
AcDbPolyline
 90
        4
 70
     1
 43
0.4
 10
236.8612721555045
 20
-130.1291841289499
 42
0.4142135623731
 10
236.6612721555045
 20
-129.9291841289499
 42
0.4142135623731
 10
236.4612721555046
 20
-130.1291841289499
 42
0.4142135623731
 10
236.6612721555045
 20
-130.3291841289499
 42
0.4142135623731
  0
LWPOLYLINE
  5
2B2
330
1F
100
AcDbEntity
  8
その他
  6
Continuous
 62
     7
370
     9
100
AcDbPolyline
 90
        4
 70
     1
 43
0.4
 10
276.86140412341
 20
402.8708422646311
 42
0.4142135623731
 10
276.66140412341
 20
403.0708422646311
 42
0.4142135623731
 10
276.46140412341
 20
402.8708422646311
 42
0.4142135623731
 10
276.66140412341
 20
402.6708422646311
 42
0.4142135623731
  0
LWPOLYLINE
  5
2B3
330
1F
100
AcDbEntity
  8
その他
  6
Continuous
 62
     7
370
     9
100
AcDbPolyline
 90
        4
 70
     1
 43
0.4
 10
276.86140412341
 20
398.8708290678407
 42
0.4142135623731
 10
276.66140412341
 20
399.0708290678407
 42
0.4142135623731
 10
276.46140412341
 20
398.8708290678407
 42
0.4142135623731
 10
276.66140412341
 20
398.6708290678407
 42
0.4142135623731
  0
LWPOLYLINE
  5
2B4
330
1F
100
AcDbEntity
  8
その他
  6
Continuous
 62
     7
370
     9
100
AcDbPolyline
 90
        4
 70
     1
 43
0.4
 10
276.86140412341
 20
387.8708422646311
 42
0.4142135623731
 10
276.66140412341
 20
388.0708422646311
 42
0.4142135623731
 10
276.46140412341
 20
387.8708422646311
 42
0.4142135623731
 10
276.66140412341
 20
387.6708422646311
 42
0.4142135623731
  0
LWPOLYLINE
  5
2B5
330
1F
100
AcDbEntity
  8
その他
  6
Continuous
 62
     7
370
     9
100
AcDbPolyline
 90
        4
 70
     1
 43
0.4
 10
368.8615096977346
 20
-8.164412961297842
 42
0.4142135623731
 10
368.6615096977346
 20
-7.964412961297842
 42
0.4142135623731
 10
368.4615096977346
 20
-8.164412961297842
 42
0.4142135623731
 10
368.6615096977346
 20
-8.364412961297841
 42
0.4142135623731
  0
LINE
  5
2B6
330
1F
100
AcDbEntity
  8
通り芯
  6
JWW_CENTER2
 62
     7
370
     9
100
AcDbLine
 10
-285.1763479352892
 20
-149.1292963016695
 30
0.0
 11
-285.1763479352892
 21
432.8709412405603
 31
0.0
  0
LINE
  5
2B7
330
1F
100
AcDbEntity
  8
通り芯
  6
JWW_CENTER2
 62
     7
370
     9
100
AcDbLine
 10
-576.1763182425104
 20
141.8708224694455
 30
0.0
 11
5.823671859896649
 21
141.8708224694455
 31
0.0
  0
LINE
  5
2B8
330
1F
100
AcDbEntity
  8
寸法
  6
Continuous
 62
     7
370
     9
100
AcDbLine
 10
321.66140412341
 20
-117.0492676646341
 30
0.0
 11
317.964257269525
 21
-128.4655472254447
 31
0.0
  0
LINE
  5
2B9
330
1F
100
AcDbEntity
  8
寸法
  6
Continuous
 62
     7
370
     9
100
AcDbLine
 10
321.66140412341
 20
-117.0492676646341
 30
0.0
 11
315.13552521716
 21
-127.1196725421678
 31
0.0
  0
LWPOLYLINE
  5
2BA
330
1F
100
AcDbEntity
  8
その他
  6
Continuous
 62
     7
370
     9
100
AcDbPolyline
 90
        4
 70
     1
 43
0.4
 10
-12.97624236096503
 20
-244.7240300610995
 42
0.4142135623731
 10
-13.17624236096503
 20
-244.5240300610996
 42
0.4142135623731
 10
-13.37624236096503
 20
-244.7240300610995
 42
0.4142135623731
 10
-13.17624236096503
 20
-244.9240300610995
 42
0.4142135623731
  0
TEXT
  5
2BB
330
1F
100
AcDbEntity
  8
その他
  6
Continuous
 62
     2
370
   211
100
AcDbText
 10
-0.1742996471896276
 20
-238.4680300610995
 30
0.0
 40
12.192
  1
3
  7
ＭＳ ゴシック
100
AcDbText
  0
TEXT
  5
2BC
330
1F
100
AcDbEntity
  8
その他
  6
Continuous
 62
     2
370
   211
100
AcDbText
 10
-31.2461650868695
 20
-238.4680300610995
 30
0.0
 40
12.192
  1
2
  7
ＭＳ ゴシック
100
AcDbText
  0
LINE
  5
2BD
330
1F
100
AcDbEntity
  8
その他
  6
Continuous
 62
     7
370
     9
100
AcDbLine
 10
-10.1762819513367
 20
-244.7240300610995
 30
0.0
 11
13.09714407271485
 21
-244.7240300610995
 31
0.0
  0
LINE
  5
2BE
330
1F
100
AcDbEntity
  8
その他
  6
Continuous
 62
     7
370
     9
100
AcDbLine
 10
-10.1762819513367
 20
-244.7240300610995
 30
0.0
 11
-0.2618333375985458
 21
-246.0292919833001
 31
0.0
  0
LINE
  5
2BF
330
1F
100
AcDbEntity
  8
その他
  6
Continuous
 62
     7
370
     9
100
AcDbLine
 10
-10.1762819513367
 20
-244.7240300610995
 30
0.0
 11
-0.2618333375985458
 21
-243.418768138899
 31
0.0
  0
LWPOLYLINE
  5
2C0
330
1F
100
AcDbEntity
  8
その他
  6
Continuous
 62
     7
370
     9
100
AcDbPolyline
 90
        4
 70
     1
 43
0.4
 10
-556.9764535096137
 20
-244.7240300610995
 42
0.4142135623731
 10
-557.1764535096138
 20
-244.5240300610996
 42
0.4142135623731
 10
-557.3764535096138
 20
-244.7240300610995
 42
0.4142135623731
 10
-557.1764535096138
 20
-244.9240300610995
 42
0.4142135623731
  0
LINE
  5
2C1
330
1F
100
AcDbEntity
  8
その他
  6
Continuous
 62
     7
370
     9
100
AcDbLine
 10
-560.1764139192421
 20
-244.7240300610995
 30
0.0
 11
-581.9477174711099
 21
-244.7240300610995
 31
0.0
  0
TEXT
  5
2C2
330
1F
100
AcDbEntity
  8
その他
  6
Continuous
 62
     2
370
   211
100
AcDbText
 10
-574.0822695414151
 20
-238.4680300610995
 30
0.0
 40
12.192
  1
3
  7
ＭＳ ゴシック
100
AcDbText
  0
TEXT
  5
2C3
330
1F
100
AcDbEntity
  8
その他
  6
Continuous
 62
     2
370
   211
100
AcDbText
 10
-550.3513736820248
 20
-238.4680300610995
 30
0.0
 40
12.192
  1
2
  7
ＭＳ ゴシック
100
AcDbText
  0
LINE
  5
2C4
330
1F
100
AcDbEntity
  8
その他
  6
Continuous
 62
     7
370
     9
100
AcDbLine
 10
-560.1764139192421
 20
-244.7240300610995
 30
0.0
 11
-570.09086253298
 21
-246.0292919833001
 31
0.0
  0
LINE
  5
2C5
330
1F
100
AcDbEntity
  8
その他
  6
Continuous
 62
     7
370
     9
100
AcDbLine
 10
-560.1764139192421
 20
-244.7240300610995
 30
0.0
 11
-570.09086253298
 21
-243.418768138899
 31
0.0
  0
TEXT
  5
2C6
330
1F
100
AcDbEntity
  8
その他
  6
Continuous
 62
     2
370
   211
100
AcDbText
 10
-298.1763479352892
 20
-278.4680300610995
 30
0.0
 40
12.192
  1
532
 41
1.083333333333333
  7
ＭＳ ゴシック
100
AcDbText
  0
LINE
  5
2C7
330
1F
100
AcDbEntity
  8
その他
  6
Continuous
 62
     7
370
     9
100
AcDbLine
 10
-19.17636113207982
 20
-283.5240300610995
 30
0.0
 11
-19.17636113207982
 21
-316.7240300610995
 31
0.0
  0
LINE
  5
2C8
330
1F
100
AcDbEntity
  8
その他
  6
Continuous
 62
     7
370
     9
100
AcDbLine
 10
-551.1763347384988
 20
-283.5240300610995
 30
0.0
 11
-551.1763347384988
 21
-316.7240300610995
 31
0.0
  0
LINE
  5
2C9
330
1F
100
AcDbEntity
  8
その他
  6
Continuous
 62
     7
370
     9
100
AcDbLine
 10
-19.17636113207982
 20
-284.7240300610995
 30
0.0
 11
-29.09080974581798
 21
-286.0292919833001
 31
0.0
  0
LINE
  5
2CA
330
1F
100
AcDbEntity
  8
その他
  6
Continuous
 62
     7
370
     9
100
AcDbLine
 10
-19.17636113207982
 20
-284.7240300610995
 30
0.0
 11
-29.09080974581798
 21
-283.418768138899
 31
0.0
  0
LINE
  5
2CB
330
1F
100
AcDbEntity
  8
その他
  6
Continuous
 62
     7
370
     9
100
AcDbLine
 10
-551.1763347384988
 20
-284.7240300610995
 30
0.0
 11
-541.2618861247604
 21
-286.0292919833001
 31
0.0
  0
LINE
  5
2CC
330
1F
100
AcDbEntity
  8
その他
  6
Continuous
 62
     7
370
     9
100
AcDbLine
 10
-551.1763347384988
 20
-284.7240300610995
 30
0.0
 11
-541.2618861247604
 21
-283.418768138899
 31
0.0
  0
LINE
  5
2CD
330
1F
100
AcDbEntity
  8
その他
  6
Continuous
 62
     7
370
     9
100
AcDbLine
 10
-551.1763347384988
 20
-284.7240300610995
 30
0.0
 11
-19.17636113207982
 21
-284.7240300610995
 31
0.0
  0
LINE
  5
2CE
330
1F
100
AcDbEntity
  8
その他
  6
Continuous
 62
     7
370
     9
100
AcDbLine
 10
-13.17624236096503
 20
-244.7240300610995
 30
0.0
 11
-10.1762819513367
 21
-244.7240300610995
 31
0.0
  0
LINE
  5
2CF
330
1F
100
AcDbEntity
  8
その他
  6
Continuous
 62
     7
370
     9
100
AcDbLine
 10
-13.17624236096503
 20
-243.5240300610995
 30
0.0
 11
-13.17624236096503
 21
-316.7240300610995
 31
0.0
  0
LINE
  5
2D0
330
1F
100
AcDbEntity
  8
その他
  6
Continuous
 62
     7
370
     9
100
AcDbLine
 10
-15.17634793528919
 20
-244.7240300610995
 30
0.0
 11
-13.17624236096503
 21
-244.7240300610995
 31
0.0
  0
TEXT
  5
2D1
330
1F
100
AcDbEntity
  8
その他
  6
Continuous
 62
     2
370
   211
100
AcDbText
 10
-298.1763479352892
 20
-238.4680300610995
 30
0.0
 40
12.192
  1
540
 41
1.083333333333333
  7
ＭＳ ゴシック
100
AcDbText
  0
LINE
  5
2D2
330
1F
100
AcDbEntity
  8
その他
  6
Continuous
 62
     7
370
     9
100
AcDbLine
 10
-15.17634793528919
 20
-243.5240300610995
 30
0.0
 11
-15.17634793528919
 21
-316.7240300610995
 31
0.0
  0
LINE
  5
2D3
330
1F
100
AcDbEntity
  8
その他
  6
Continuous
 62
     7
370
     9
100
AcDbLine
 10
-15.17634793528919
 20
-244.7240300610995
 30
0.0
 11
-25.09079654902735
 21
-246.0292919833001
 31
0.0
  0
LINE
  5
2D4
330
1F
100
AcDbEntity
  8
その他
  6
Continuous
 62
     7
370
     9
100
AcDbLine
 10
-15.17634793528919
 20
-244.7240300610995
 30
0.0
 11
-25.09079654902735
 21
-243.418768138899
 31
0.0
  0
LINE
  5
2D5
330
1F
100
AcDbEntity
  8
その他
  6
Continuous
 62
     7
370
     9
100
AcDbLine
 10
-555.1763479352892
 20
-244.7240300610995
 30
0.0
 11
-545.2618993215513
 21
-246.0292919833001
 31
0.0
  0
LINE
  5
2D6
330
1F
100
AcDbEntity
  8
その他
  6
Continuous
 62
     7
370
     9
100
AcDbLine
 10
-555.1763479352892
 20
-244.7240300610995
 30
0.0
 11
-545.2618993215513
 21
-243.418768138899
 31
0.0
  0
LINE
  5
2D7
330
1F
100
AcDbEntity
  8
その他
  6
Continuous
 62
     7
370
     9
100
AcDbLine
 10
-555.1763479352892
 20
-244.7240300610995
 30
0.0
 11
-15.17634793528919
 21
-244.7240300610995
 31
0.0
  0
LINE
  5
2D8
330
1F
100
AcDbEntity
  8
その他
  6
Continuous
 62
     7
370
     9
100
AcDbLine
 10
-555.1763479352892
 20
-243.5240300610995
 30
0.0
 11
-555.1763479352892
 21
-316.7240300610995
 31
0.0
  0
LINE
  5
2D9
330
1F
100
AcDbEntity
  8
その他
  6
Continuous
 62
     7
370
     9
100
AcDbLine
 10
-557.1764535096138
 20
-244.7240300610995
 30
0.0
 11
-555.1763479352892
 21
-244.7240300610995
 31
0.0
  0
LINE
  5
2DA
330
1F
100
AcDbEntity
  8
その他
  6
Continuous
 62
     7
370
     9
100
AcDbLine
 10
-557.1764535096138
 20
-243.5240300610995
 30
0.0
 11
-557.1764535096138
 21
-316.7240300610995
 31
0.0
  0
LINE
  5
2DB
330
1F
100
AcDbEntity
  8
その他
  6
Continuous
 62
     7
370
     9
100
AcDbLine
 10
-560.1764139192421
 20
-244.7240300610995
 30
0.0
 11
-557.1764535096138
 21
-244.7240300610995
 31
0.0
  0
TEXT
  5
2DC
330
1F
100
AcDbEntity
  8
その他
  6
Continuous
 62
     2
370
   211
100
AcDbText
 10
-298.1763479352892
 20
-198.4680300610995
 30
0.0
 40
12.192
  1
550
 41
1.083333333333333
  7
ＭＳ ゴシック
100
AcDbText
  0
LINE
  5
2DD
330
1F
100
AcDbEntity
  8
その他
  6
Continuous
 62
     7
370
     9
100
AcDbLine
 10
-10.1762819513367
 20
-203.5240300610995
 30
0.0
 11
-10.1762819513367
 21
-316.7240300610995
 31
0.0
  0
LINE
  5
2DE
330
1F
100
AcDbEntity
  8
その他
  6
Continuous
 62
     7
370
     9
100
AcDbLine
 10
-560.1764139192421
 20
-203.5240300610995
 30
0.0
 11
-560.1764139192421
 21
-316.7240300610995
 31
0.0
  0
LINE
  5
2DF
330
1F
100
AcDbEntity
  8
その他
  6
Continuous
 62
     7
370
     9
100
AcDbLine
 10
-10.1762819513367
 20
-204.7240300610995
 30
0.0
 11
-20.09073056507464
 21
-206.0292919833001
 31
0.0
  0
LINE
  5
2E0
330
1F
100
AcDbEntity
  8
その他
  6
Continuous
 62
     7
370
     9
100
AcDbLine
 10
-10.1762819513367
 20
-204.7240300610995
 30
0.0
 11
-20.09073056507464
 21
-203.418768138899
 31
0.0
  0
LINE
  5
2E1
330
1F
100
AcDbEntity
  8
その他
  6
Continuous
 62
     7
370
     9
100
AcDbLine
 10
-560.1764139192421
 20
-204.7240300610995
 30
0.0
 11
-550.2619653055037
 21
-206.0292919833001
 31
0.0
  0
LINE
  5
2E2
330
1F
100
AcDbEntity
  8
その他
  6
Continuous
 62
     7
370
     9
100
AcDbLine
 10
-560.1764139192421
 20
-204.7240300610995
 30
0.0
 11
-550.2619653055037
 21
-203.418768138899
 31
0.0
  0
LINE
  5
2E3
330
1F
100
AcDbEntity
  8
その他
  6
Continuous
 62
     7
370
     9
100
AcDbLine
 10
-560.1764139192421
 20
-204.7240300610995
 30
0.0
 11
-10.1762819513367
 21
-204.7240300610995
 31
0.0
  0
ARC
  5
2E4
330
1F
100
AcDbEntity
  8
通り芯
  6
Continuous
 62
     3
370
     9
100
AcDbCircle
 10
-477.8517497775613
 20
-380.7241158402381
 30
0.0
 40
15.0
100
AcDbArc
 50
209.0968780517578
 51
270.0
  0
ARC
  5
2E5
330
1F
100
AcDbEntity
  8
躯体
  6
Continuous
 62
     3
370
     9
100
AcDbCircle
 10
-539.862594240188
 20
-360.72409934425
 30
0.0
 40
4.000000051549963
100
AcDbArc
 50
184.0856628417969
 51
270.0
  0
ARC
  5
2E6
330
1F
100
AcDbEntity
  8
その他
  6
Continuous
 62
     4
370
     9
100
AcDbCircle
 10
-546.1763182425104
 20
-344.2241191394358
 30
0.0
 40
0.5000000064437454
100
AcDbArc
 50
0.0
 51
90.0
  0
ARC
  5
2E7
330
1F
100
AcDbEntity
  8
その他
  6
Continuous
 62
     4
370
     9
100
AcDbCircle
 10
-550.6764073208467
 20
-343.2241158402381
 30
0.0
 40
0.5000000064437454
100
AcDbArc
 50
180.0
 51
270.0
  0
ARC
  5
2E8
330
1F
100
AcDbEntity
  8
その他
  6
Continuous
 62
     4
370
     9
100
AcDbCircle
 10
-549.1763776280679
 20
-341.7240861474593
 30
0.0
 40
0.5000000064437454
100
AcDbArc
 50
180.0
 51
270.0
  0
ARC
  5
2E9
330
1F
100
AcDbEntity
  8
その他
  6
Continuous
 62
     4
370
     9
100
AcDbCircle
 10
-544.6763875256609
 20
-342.7241389346216
 30
0.0
 40
0.5000000064437454
100
AcDbArc
 50
0.0
 51
90.0
  0
ARC
  5
2EA
330
1F
100
AcDbEntity
  8
その他
  6
Continuous
 62
     2
370
     9
100
AcDbCircle
 10
-547.883455066835
 20
-351.7241191394358
 30
0.0
 40
6.499999020550702
100
AcDbArc
 50
184.4115295410157
 51
212.579345703125
  0
ARC
  5
2EB
330
1F
100
AcDbEntity
  8
その他
  6
Continuous
 62
     2
370
     9
100
AcDbCircle
 10
-547.883455066835
 20
-351.7241191394358
 30
0.0
 40
6.499999020550702
100
AcDbArc
 50
147.420654296875
 51
175.5882568359375
  0
ARC
  5
2EC
330
1F
100
AcDbEntity
  8
その他
  6
Continuous
 62
     2
370
     9
100
AcDbCircle
 10
-551.5835217106271
 20
-349.3740841679408
 30
0.0
 40
0.2000000025774982
100
AcDbArc
 50
180.0
 51
239.1401824951172
  0
ARC
  5
2ED
330
1F
100
AcDbEntity
  8
その他
  6
Continuous
 62
     2
370
     9
100
AcDbCircle
 10
-551.5835217106271
 20
-354.0741541109306
 30
0.0
 40
0.2000000025774982
100
AcDbArc
 50
120.8598175048828
 51
180.0
  0
ARC
  5
2EE
330
1F
100
AcDbEntity
  8
通り芯
  6
Continuous
 62
     3
370
     9
100
AcDbCircle
 10
-544.9465918119784
 20
-359.7240960450522
 30
0.0
 40
1.000000012887491
100
AcDbArc
 50
184.0856170654297
 51
270.0
  0
ARC
  5
2EF
330
1F
100
AcDbEntity
  8
通り芯
  6
Continuous
 62
     3
370
     9
100
AcDbCircle
 10
-500.4773502315309
 20
-383.2240498562854
 30
0.0
 40
1.500000019331236
100
AcDbArc
 50
270.0
 51
351.8697662353516
  0
ARC
  5
2F0
330
1F
100
AcDbEntity
  8
通り芯
  6
Continuous
 62
     3
370
     9
100
AcDbCircle
 10
-385.6516138506188
 20
-376.7241026434475
 30
0.0
 40
5.000000257749815
100
AcDbArc
 50
6.340240478515625
 51
90.0
  0
ARC
  5
2F1
330
1F
100
AcDbEntity
  8
通り芯
  6
Continuous
 62
     3
370
     9
100
AcDbCircle
 10
-364.701180995889
 20
-376.7241026434475
 30
0.0
 40
5.000000257749815
100
AcDbArc
 50
90.0
 51
173.6597442626953
  0
ARC
  5
2F2
330
1F
100
AcDbEntity
  8
通り芯
  6
Continuous
 62
     3
370
     9
100
AcDbCircle
 10
-536.8867839572488
 20
-376.7241026434475
 30
0.0
 40
5.000000257749815
100
AcDbArc
 50
90.0
 51
171.2540283203125
  0
ARC
  5
2F3
330
1F
100
AcDbEntity
  8
通り芯
  6
Continuous
 62
     3
370
     9
100
AcDbCircle
 10
-547.7796788052217
 20
-383.22409934425
 30
0.0
 40
1.500000019331236
100
AcDbArc
 50
184.085205078125
 51
270.0
  0
ARC
  5
2F4
330
1F
100
AcDbEntity
  8
通り芯
  6
Continuous
 62
     3
370
     9
100
AcDbCircle
 10
-544.4632428624429
 20
-383.22409934425
 30
0.0
 40
1.500000019331236
100
AcDbArc
 50
270.0
 51
351.2542266845703
  0
ARC
  5
2F5
330
1F
100
AcDbEntity
  8
通り芯
  6
Continuous
 62
     3
370
     9
100
AcDbCircle
 10
-377.8338021424261
 20
-394.2241356354239
 30
0.0
 40
1.500000019331236
100
AcDbArc
 50
186.3401336669922
 51
270.0
  0
ARC
  5
2F6
330
1F
100
AcDbEntity
  8
通り芯
  6
Continuous
 62
     3
370
     9
100
AcDbCircle
 10
-372.5189432161169
 20
-394.2241356354239
 30
0.0
 40
1.500000019331236
100
AcDbArc
 50
270.0
 51
353.6597595214844
  0
ARC
  5
2F7
330
1F
100
AcDbEntity
  8
通り芯
  6
Continuous
 62
     3
370
     9
100
AcDbCircle
 10
-500.7024709821642
 20
-366.2240927458545
 30
0.0
 40
1.500000019331236
100
AcDbArc
 50
51.34048461914062
 51
90.0
  0
ARC
  5
2F8
330
1F
100
AcDbEntity
  8
通り芯
  6
Continuous
 62
     3
370
     9
100
AcDbCircle
 10
-379.2025402653146
 20
-366.2240927458545
 30
0.0
 40
1.500000019331236
100
AcDbArc
 50
51.34048461914062
 51
90.0
  0
ARC
  5
2F9
330
1F
100
AcDbEntity
  8
通り芯
  6
Continuous
 62
     3
370
     9
100
AcDbCircle
 10
-375.6501951956354
 20
-365.224089446657
 30
0.0
 40
1.500000019331236
100
AcDbArc
 50
231.3404846191406
 51
270.0
  0
ARC
  5
2FA
330
1F
100
AcDbEntity
  8
通り芯
  6
Continuous
 62
     3
370
     9
100
AcDbCircle
 10
-374.7025501629075
 20
-365.224089446657
 30
0.0
 40
1.500000019331236
100
AcDbArc
 50
270.0
 51
308.6598815917969
  0
ARC
  5
2FB
330
1F
100
AcDbEntity
  8
通り芯
  6
Continuous
 62
     3
370
     9
100
AcDbCircle
 10
-371.1502050932284
 20
-366.2240927458545
 30
0.0
 40
1.500000019331236
100
AcDbArc
 50
90.0
 51
128.6598815917969
  0
ARC
  5
2FC
330
1F
100
AcDbEntity
  8
通り芯
  6
Continuous
 62
     3
370
     9
100
AcDbCircle
 10
-497.150125912485
 20
-365.224089446657
 30
0.0
 40
1.500000019331236
100
AcDbArc
 50
231.3404846191406
 51
270.0
  0
ARC
  5
2FD
330
1F
100
AcDbEntity
  8
通り芯
  6
Continuous
 62
     3
370
     9
100
AcDbCircle
 10
-500.8788460877388
 20
-373.2241158402381
 30
0.0
 40
1.500000019331236
100
AcDbArc
 50
39.80581665039062
 51
90.0
  0
ARC
  5
2FE
330
1F
100
AcDbEntity
  8
通り芯
  6
Continuous
 62
     3
370
     9
100
AcDbCircle
 10
-92.50094609301732
 20
-380.7241158402381
 30
0.0
 40
15.0
100
AcDbArc
 50
270.0
 51
330.9031219482422
  0
ARC
  5
2FF
330
1F
100
AcDbEntity
  8
躯体
  6
Continuous
 62
     3
370
     9
100
AcDbCircle
 10
-30.49010163039065
 20
-360.72409934425
 30
0.0
 40
4.000000051549963
100
AcDbArc
 50
270.0
 51
355.9143371582032
  0
ARC
  5
300
330
1F
100
AcDbEntity
  8
その他
  6
Continuous
 62
     4
370
     9
100
AcDbCircle
 10
-24.17642711603253
 20
-344.2241191394358
 30
0.0
 40
0.5000000064437454
100
AcDbArc
 50
90.0
 51
180.0
  0
ARC
  5
301
330
1F
100
AcDbEntity
  8
その他
  6
Continuous
 62
     4
370
     9
100
AcDbCircle
 10
-19.67628854973168
 20
-343.2241158402381
 30
0.0
 40
0.5000000064437454
100
AcDbArc
 50
270.0
 51
0.0
  0
ARC
  5
302
330
1F
100
AcDbEntity
  8
その他
  6
Continuous
 62
     4
370
     9
100
AcDbCircle
 10
-21.17626875454584
 20
-341.7240861474593
 30
0.0
 40
0.5000000064437454
100
AcDbArc
 50
270.0
 51
0.0
  0
ARC
  5
303
330
1F
100
AcDbEntity
  8
その他
  6
Continuous
 62
     4
370
     9
100
AcDbCircle
 10
-25.67630834491752
 20
-342.7241389346216
 30
0.0
 40
0.5000000064437454
100
AcDbArc
 50
90.0
 51
180.0
  0
ARC
  5
304
330
1F
100
AcDbEntity
  8
その他
  6
Continuous
 62
     2
370
     9
100
AcDbCircle
 10
-22.46929029170815
 20
-351.7241191394358
 30
0.0
 40
6.499999020550702
100
AcDbArc
 50
327.4206542968751
 51
355.5884704589844
  0
ARC
  5
305
330
1F
100
AcDbEntity
  8
その他
  6
Continuous
 62
     2
370
     9
100
AcDbCircle
 10
-22.46929029170815
 20
-351.7241191394358
 30
0.0
 40
6.499999020550702
100
AcDbArc
 50
4.4117431640625
 51
32.57934570312499
  0
ARC
  5
306
330
1F
100
AcDbEntity
  8
その他
  6
Continuous
 62
     2
370
     9
100
AcDbCircle
 10
-18.76917415995126
 20
-349.3740841679408
 30
0.0
 40
0.2000000025774982
100
AcDbArc
 50
300.8598175048829
 51
0.0000000000000509
  0
ARC
  5
307
330
1F
100
AcDbEntity
  8
その他
  6
Continuous
 62
     2
370
     9
100
AcDbCircle
 10
-18.76917415995126
 20
-354.0741541109306
 30
0.0
 40
0.2000000025774982
100
AcDbArc
 50
0.0
 51
59.14018249511719
  0
ARC
  5
308
330
1F
100
AcDbEntity
  8
通り芯
  6
Continuous
 62
     3
370
     9
100
AcDbCircle
 10
-25.40610405860002
 20
-359.7240960450522
 30
0.0
 40
1.000000012887491
100
AcDbArc
 50
270.0
 51
355.9143829345704
  0
ARC
  5
309
330
1F
100
AcDbEntity
  8
通り芯
  6
Continuous
 62
     3
370
     9
100
AcDbCircle
 10
-69.87534563904774
 20
-383.2240498562854
 30
0.0
 40
1.500000019331236
100
AcDbArc
 50
188.1302337646485
 51
270.0
  0
ARC
  5
30A
330
1F
100
AcDbEntity
  8
通り芯
  6
Continuous
 62
     3
370
     9
100
AcDbCircle
 10
-184.7010820199598
 20
-376.7241026434475
 30
0.0
 40
5.000000257749815
100
AcDbArc
 50
90.0
 51
173.6597595214844
  0
ARC
  5
30B
330
1F
100
AcDbEntity
  8
通り芯
  6
Continuous
 62
     3
370
     9
100
AcDbCircle
 10
-205.6515148746896
 20
-376.7241026434475
 30
0.0
 40
5.000000257749815
100
AcDbArc
 50
6.340255737304687
 51
90.00000000000001
  0
ARC
  5
30C
330
1F
100
AcDbEntity
  8
通り芯
  6
Continuous
 62
     3
370
     9
100
AcDbCircle
 10
-33.46591191332982
 20
-376.7241026434475
 30
0.0
 40
5.000000257749815
100
AcDbArc
 50
8.7459716796875
 51
90.0
  0
ARC
  5
30D
330
1F
100
AcDbEntity
  8
通り芯
  6
Continuous
 62
     3
370
     9
100
AcDbCircle
 10
-22.57301706535668
 20
-383.22409934425
 30
0.0
 40
1.500000019331236
100
AcDbArc
 50
270.0
 51
355.914794921875
  0
ARC
  5
30E
330
1F
100
AcDbEntity
  8
通り芯
  6
Continuous
 62
     3
370
     9
100
AcDbCircle
 10
-25.88950249610002
 20
-383.22409934425
 30
0.0
 40
1.500000019331236
100
AcDbArc
 50
188.7457733154297
 51
270.0
  0
ARC
  5
30F
330
1F
100
AcDbEntity
  8
通り芯
  6
Continuous
 62
     3
370
     9
100
AcDbCircle
 10
-192.5188937281525
 20
-394.2241356354239
 30
0.0
 40
1.500000019331236
100
AcDbArc
 50
270.0
 51
353.6598663330078
  0
ARC
  5
310
330
1F
100
AcDbEntity
  8
通り芯
  6
Continuous
 62
     3
370
     9
100
AcDbCircle
 10
-197.8337526544617
 20
-394.2241356354239
 30
0.0
 40
1.500000019331236
100
AcDbArc
 50
186.3402404785157
 51
270.0
  0
ARC
  5
311
330
1F
100
AcDbEntity
  8
通り芯
  6
Continuous
 62
     3
370
     9
100
AcDbCircle
 10
-69.65022488841419
 20
-366.2240927458545
 30
0.0
 40
1.500000019331236
100
AcDbArc
 50
90.0
 51
128.6595153808594
  0
ARC
  5
312
330
1F
100
AcDbEntity
  8
通り芯
  6
Continuous
 62
     3
370
     9
100
AcDbCircle
 10
-191.1501556052638
 20
-366.2240927458545
 30
0.0
 40
1.500000019331236
100
AcDbArc
 50
90.0
 51
128.6595153808594
  0
ARC
  5
313
330
1F
100
AcDbEntity
  8
通り芯
  6
Continuous
 62
     3
370
     9
100
AcDbCircle
 10
-194.7025006749429
 20
-365.224089446657
 30
0.0
 40
1.500000019331236
100
AcDbArc
 50
270.0
 51
308.6595153808594
  0
ARC
  5
314
330
1F
100
AcDbEntity
  8
通り芯
  6
Continuous
 62
     3
370
     9
100
AcDbCircle
 10
-195.6501457076708
 20
-365.224089446657
 30
0.0
 40
1.500000019331236
100
AcDbArc
 50
231.3401184082032
 51
270.0
  0
ARC
  5
315
330
1F
100
AcDbEntity
  8
通り芯
  6
Continuous
 62
     3
370
     9
100
AcDbCircle
 10
-199.20249077735
 20
-366.2240927458545
 30
0.0
 40
1.500000019331236
100
AcDbArc
 50
51.34011840820312
 51
90.0
  0
ARC
  5
316
330
1F
100
AcDbEntity
  8
通り芯
  6
Continuous
 62
     3
370
     9
100
AcDbCircle
 10
-73.20256995809336
 20
-365.224089446657
 30
0.0
 40
1.500000019331236
100
AcDbArc
 50
270.0
 51
308.6595153808594
  0
ARC
  5
317
330
1F
100
AcDbEntity
  8
通り芯
  6
Continuous
 62
     3
370
     9
100
AcDbCircle
 10
-69.47384978284003
 20
-373.2241158402381
 30
0.0
 40
1.500000019331236
100
AcDbArc
 50
90.0
 51
140.1941833496094
  0
LINE
  5
318
330
1F
100
AcDbEntity
  8
建具
  6
Continuous
 62
     4
370
     9
100
AcDbLine
 10
-557.1764535096138
 20
-324.7240300610995
 30
0.0
 11
-560.1764139192421
 21
-324.7240300610995
 31
0.0
  0
LINE
  5
319
330
1F
100
AcDbEntity
  8
建具
  6
Continuous
 62
     4
370
     9
100
AcDbLine
 10
-13.17624236096503
 20
-324.7240300610995
 30
0.0
 11
-10.1762819513367
 21
-324.7240300610995
 31
0.0
  0
LINE
  5
31A
330
1F
100
AcDbEntity
  8
通り芯
  6
Continuous
 62
     3
370
     9
100
AcDbLine
 10
-554.8191438073334
 20
-344.7240465570877
 30
0.0
 11
-553.9743842528567
 21
-349.4546505741908
 31
0.0
  0
LINE
  5
31B
330
1F
100
AcDbEntity
  8
通り芯
  6
Continuous
 62
     3
370
     9
100
AcDbLine
 10
-551.7120914424684
 20
-349.2240861474593
 30
0.0
 11
-552.0334662841067
 21
-344.7240465570877
 31
0.0
  0
LINE
  5
31C
330
1F
100
AcDbEntity
  8
躯体
  6
Continuous
 62
     3
370
     9
100
AcDbLine
 10
-546.6635767412438
 20
-349.7241125410404
 30
0.0
 11
-547.0921425140475
 21
-343.7240927458545
 31
0.0
  0
LINE
  5
31D
330
1F
100
AcDbEntity
  8
躯体
  6
Continuous
 62
     3
370
     9
100
AcDbLine
 10
-543.8524624042504
 20
-361.009100531961
 30
0.0
 11
-544.2300060856271
 21
-355.7241323362262
 31
0.0
  0
LINE
  5
31E
330
1F
100
AcDbEntity
  8
通り芯
  6
Continuous
 62
     3
370
     9
100
AcDbLine
 10
-490.9587856464379
 20
-388.0183943716991
 30
0.0
 11
-499.7265188337267
 21
-372.2638513765556
 31
0.0
  0
LINE
  5
31F
330
1F
100
AcDbEntity
  8
躯体
  6
Continuous
 62
     3
370
     9
100
AcDbLine
 10
-545.9441702009142
 20
-359.7953092260066
 30
0.0
 11
-546.3778827220292
 21
-353.724125737831
 31
0.0
  0
LINE
  5
320
330
1F
100
AcDbEntity
  8
通り芯
  6
Continuous
 62
     3
370
     9
100
AcDbLine
 10
-497.7714967950867
 20
-375.7767545385066
 30
0.0
 11
-498.9924638558975
 21
-383.4362047602127
 31
0.0
  0
LINE
  5
321
330
1F
100
AcDbEntity
  8
通り芯
  6
Continuous
 62
     3
370
     9
100
AcDbLine
 10
-544.9465918119784
 20
-360.72409934425
 30
0.0
 11
-543.8728019576708
 21
-360.72409934425
 31
0.0
  0
LINE
  5
322
330
1F
100
AcDbEntity
  8
通り芯
  6
Continuous
 62
     3
370
     9
100
AcDbLine
 10
-549.2758484367675
 20
-383.3309933476283
 30
0.0
 11
-551.3905186489717
 21
-353.725808328625
 31
0.0
  0
LINE
  5
323
330
1F
100
AcDbEntity
  8
通り芯
  6
Continuous
 62
     3
370
     9
100
AcDbLine
 10
-552.9441438073334
 20
-355.2241059426452
 30
0.0
 11
-550.1763809272659
 21
-371.7241356354239
 31
0.0
  0
LINE
  5
324
330
1F
100
AcDbEntity
  8
その他
  6
Continuous
 62
     3
370
     9
100
AcDbLine
 10
-551.3548873145121
 20
-354.2241026434475
 30
0.0
 11
-546.3446762978317
 21
-354.2241026434475
 31
0.0
  0
LINE
  5
325
330
1F
100
AcDbEntity
  8
その他
  6
Continuous
 62
     3
370
     9
100
AcDbLine
 10
-551.7120914424684
 20
-349.2240861474593
 30
0.0
 11
-546.7018309378229
 21
-349.2240861474593
 31
0.0
  0
LINE
  5
326
330
1F
100
AcDbEntity
  8
その他
  6
Continuous
 62
     2
370
     9
100
AcDbLine
 10
-550.3835375467759
 20
-353.724125737831
 30
0.0
 11
-544.17636113208
 21
-353.724125737831
 31
0.0
  0
LINE
  5
327
330
1F
100
AcDbEntity
  8
その他
  6
Continuous
 62
     2
370
     9
100
AcDbLine
 10
-550.3834385708467
 20
-353.1241336559054
 30
0.0
 11
-544.17636113208
 21
-353.1241336559054
 31
0.0
  0
LINE
  5
328
330
1F
100
AcDbEntity
  8
その他
  6
Continuous
 62
     2
370
     9
100
AcDbLine
 10
-550.3834385708467
 20
-350.3241046229662
 30
0.0
 11
-544.17636113208
 21
-350.3241046229662
 31
0.0
  0
LINE
  5
329
330
1F
100
AcDbEntity
  8
その他
  6
Continuous
 62
     2
370
     9
100
AcDbLine
 10
-550.3835375467759
 20
-349.7241125410404
 30
0.0
 11
-544.17636113208
 21
-349.7241125410404
 31
0.0
  0
LINE
  5
32A
330
1F
100
AcDbEntity
  8
その他
  6
Continuous
 62
     2
370
     9
100
AcDbLine
 10
-542.1763545336846
 20
-353.1241336559054
 30
0.0
 11
-540.8418620822488
 21
-353.1241336559054
 31
0.0
  0
LINE
  5
32B
330
1F
100
AcDbEntity
  8
その他
  6
Continuous
 62
     2
370
     9
100
AcDbLine
 10
-542.1763545336846
 20
-353.724125737831
 30
0.0
 11
-540.8418620822488
 21
-353.724125737831
 31
0.0
  0
LINE
  5
32C
330
1F
100
AcDbEntity
  8
その他
  6
Continuous
 62
     2
370
     9
100
AcDbLine
 10
-542.1763545336846
 20
-349.7241125410404
 30
0.0
 11
-540.8418620822488
 21
-349.7241125410404
 31
0.0
  0
LINE
  5
32D
330
1F
100
AcDbEntity
  8
その他
  6
Continuous
 62
     2
370
     9
100
AcDbLine
 10
-542.1763545336846
 20
-350.3241046229662
 30
0.0
 11
-540.8418620822488
 21
-350.3241046229662
 31
0.0
  0
LINE
  5
32E
330
1F
100
AcDbEntity
  8
その他
  6
Continuous
 62
     2
370
     9
100
AcDbLine
 10
-544.17636113208
 20
-349.7241125410404
 30
0.0
 11
-544.17636113208
 21
-353.724125737831
 31
0.0
  0
LINE
  5
32F
330
1F
100
AcDbEntity
  8
その他
  6
Continuous
 62
     2
370
     9
100
AcDbLine
 10
-542.1763545336846
 20
-348.2241323362262
 30
0.0
 11
-542.1763545336846
 21
-355.2241059426452
 31
0.0
  0
LINE
  5
330
330
1F
100
AcDbEntity
  8
その他
  6
Continuous
 62
     2
370
     9
100
AcDbLine
 10
-544.17636113208
 20
-355.2241059426452
 30
0.0
 11
-542.1763545336846
 21
-355.2241059426452
 31
0.0
  0
LINE
  5
331
330
1F
100
AcDbEntity
  8
その他
  6
Continuous
 62
     2
370
     9
100
AcDbLine
 10
-544.17636113208
 20
-348.2241323362262
 30
0.0
 11
-542.1763545336846
 21
-348.2241323362262
 31
0.0
  0
LINE
  5
332
330
1F
100
AcDbEntity
  8
その他
  6
Continuous
 62
     4
370
     9
100
AcDbLine
 10
-544.17636113208
 20
-342.7241389346216
 30
0.0
 11
-544.17636113208
 21
-349.7241125410404
 31
0.0
  0
LINE
  5
333
330
1F
100
AcDbEntity
  8
その他
  6
Continuous
 62
     4
370
     9
100
AcDbLine
 10
-545.6763413368942
 20
-353.724125737831
 30
0.0
 11
-545.6763413368942
 21
-355.7241323362262
 31
0.0
  0
LINE
  5
334
330
1F
100
AcDbEntity
  8
その他
  6
Continuous
 62
     4
370
     9
100
AcDbLine
 10
-545.6763413368942
 20
-344.2241191394358
 30
0.0
 11
-545.6763413368942
 21
-349.7241125410404
 31
0.0
  0
LINE
  5
335
330
1F
100
AcDbEntity
  8
その他
  6
Continuous
 62
     4
370
     9
100
AcDbLine
 10
-544.17636113208
 20
-353.724125737831
 30
0.0
 11
-544.17636113208
 21
-355.7241323362262
 31
0.0
  0
LINE
  5
336
330
1F
100
AcDbEntity
  8
その他
  6
Continuous
 62
     4
370
     9
100
AcDbLine
 10
-545.6763413368942
 20
-349.2240861474593
 30
0.0
 11
-544.17636113208
 21
-349.2240861474593
 31
0.0
  0
LINE
  5
337
330
1F
100
AcDbEntity
  8
その他
  6
Continuous
 62
     4
370
     9
100
AcDbLine
 10
-545.6763413368942
 20
-354.2241026434475
 30
0.0
 11
-544.17636113208
 21
-354.2241026434475
 31
0.0
  0
LINE
  5
338
330
1F
100
AcDbEntity
  8
その他
  6
Continuous
 62
     2
370
     9
100
AcDbLine
 10
-550.3835375467759
 20
-353.724125737831
 30
0.0
 11
-550.8942533406946
 21
-353.4292269572143
 31
0.0
  0
LINE
  5
339
330
1F
100
AcDbEntity
  8
その他
  6
Continuous
 62
     4
370
     9
100
AcDbLine
 10
-546.1763182425104
 20
-343.7240927458545
 30
0.0
 11
-550.6764073208467
 21
-343.7240927458545
 31
0.0
  0
LINE
  5
33A
330
1F
100
AcDbEntity
  8
その他
  6
Continuous
 62
     4
370
     9
100
AcDbLine
 10
-549.6763545336846
 20
-341.7240861474593
 30
0.0
 11
-549.6763545336846
 21
-327.724089446657
 31
0.0
  0
LINE
  5
33B
330
1F
100
AcDbEntity
  8
その他
  6
Continuous
 62
     4
370
     9
100
AcDbLine
 10
-549.1763776280679
 20
-342.2241125410404
 30
0.0
 11
-544.6763875256609
 21
-342.2241125410404
 31
0.0
  0
LINE
  5
33C
330
1F
100
AcDbEntity
  8
その他
  6
Continuous
 62
     4
370
     9
100
AcDbLine
 10
-549.6763545336846
 20
-327.724089446657
 30
0.0
 11
-551.1763347384988
 21
-327.724089446657
 31
0.0
  0
LINE
  5
33D
330
1F
100
AcDbEntity
  8
その他
  6
Continuous
 62
     4
370
     9
100
AcDbLine
 10
-544.17636113208
 20
-355.7241323362262
 30
0.0
 11
-545.6763413368942
 21
-355.7241323362262
 31
0.0
  0
LINE
  5
33E
330
1F
100
AcDbEntity
  8
その他
  6
Continuous
 62
     2
370
     9
100
AcDbLine
 10
-554.3641514614717
 20
-352.2240465570877
 30
0.0
 11
-553.9630020210159
 21
-352.2240465570877
 31
0.0
  0
LINE
  5
33F
330
1F
100
AcDbEntity
  8
その他
  6
Continuous
 62
     2
370
     9
100
AcDbLine
 10
-551.7835025752809
 20
-355.2241059426452
 30
0.0
 11
-553.3606840047571
 21
-355.2241059426452
 31
0.0
  0
LINE
  5
340
330
1F
100
AcDbEntity
  8
その他
  6
Continuous
 62
     2
370
     9
100
AcDbLine
 10
-553.3606840047571
 20
-348.2240333602973
 30
0.0
 11
-551.7835025752809
 21
-348.2240333602973
 31
0.0
  0
LINE
  5
341
330
1F
100
AcDbEntity
  8
その他
  6
Continuous
 62
     2
370
     9
100
AcDbLine
 10
-550.3834385708467
 20
-350.3241046229662
 30
0.0
 11
-551.6860607731271
 21
-349.545757916885
 31
0.0
  0
LINE
  5
342
330
1F
100
AcDbEntity
  8
その他
  6
Continuous
 62
     2
370
     9
100
AcDbLine
 10
-550.3834385708467
 20
-353.1241336559054
 30
0.0
 11
-551.6860607731271
 21
-353.9023813860572
 31
0.0
  0
LINE
  5
343
330
1F
100
AcDbEntity
  8
その他
  6
Continuous
 62
     2
370
     9
100
AcDbLine
 10
-550.3835375467759
 20
-349.7241125410404
 30
0.0
 11
-550.8942533406946
 21
-350.0189123457279
 31
0.0
  0
LINE
  5
344
330
1F
100
AcDbEntity
  8
その他
  6
Continuous
 62
     2
370
     9
100
AcDbLine
 10
-550.3835375467759
 20
-349.7241125410404
 30
0.0
 11
-550.3835375467759
 21
-353.724125737831
 31
0.0
  0
LINE
  5
345
330
1F
100
AcDbEntity
  8
その他
  6
Continuous
 62
     2
370
     9
100
AcDbLine
 10
-540.8418620822488
 20
-349.7241125410404
 30
0.0
 11
-540.8418620822488
 21
-353.724125737831
 31
0.0
  0
LINE
  5
346
330
1F
100
AcDbEntity
  8
その他
  6
Continuous
 62
     2
370
     9
100
AcDbLine
 10
-554.3641514614717
 20
-351.2240927458545
 30
0.0
 11
-553.9630020210159
 21
-351.2240927458545
 31
0.0
  0
LINE
  5
347
330
1F
100
AcDbEntity
  8
その他
  6
Continuous
 62
     2
370
     9
100
AcDbLine
 10
-553.9630020210159
 20
-352.2240465570877
 30
0.0
 11
-553.9630020210159
 21
-351.2240927458545
 31
0.0
  0
LINE
  5
348
330
1F
100
AcDbEntity
  8
その他
  6
Continuous
 62
     2
370
     9
100
AcDbLine
 10
-551.7835025752809
 20
-348.2240333602973
 30
0.0
 11
-551.7835025752809
 21
-355.2241059426452
 31
0.0
  0
LINE
  5
349
330
1F
100
AcDbEntity
  8
躯体
  6
Continuous
 62
     2
370
     9
100
AcDbLine
 10
-551.1763347384988
 20
-344.7240465570877
 30
0.0
 11
-555.1763479352892
 21
-344.7240465570877
 31
0.0
  0
LINE
  5
34A
330
1F
100
AcDbEntity
  8
躯体
  6
Continuous
 62
     2
370
     9
100
AcDbLine
 10
-551.1763347384988
 20
-344.7240465570877
 30
0.0
 11
-551.1763347384988
 21
-324.7240300610995
 31
0.0
  0
LINE
  5
34B
330
1F
100
AcDbEntity
  8
躯体
  6
Continuous
 62
     2
370
     9
100
AcDbLine
 10
-555.1763479352892
 20
-344.7240465570877
 30
0.0
 11
-555.1763479352892
 21
-324.7240300610995
 31
0.0
  0
LINE
  5
34C
330
1F
100
AcDbEntity
  8
通り芯
  6
Continuous
 62
     3
370
     9
100
AcDbLine
 10
-385.6516138506188
 20
-371.7241356354239
 30
0.0
 11
-550.1763809272659
 21
-371.7241356354239
 31
0.0
  0
LINE
  5
34D
330
1F
100
AcDbEntity
  8
通り芯
  6
Continuous
 62
     3
370
     9
100
AcDbLine
 10
-380.6821809167081
 20
-376.1719654232195
 30
0.0
 11
-379.3246270738027
 21
-394.3897223647312
 31
0.0
  0
LINE
  5
34E
330
1F
100
AcDbEntity
  8
通り芯
  6
Continuous
 62
     3
370
     9
100
AcDbLine
 10
-371.0281182847402
 20
-394.3897223647312
 30
0.0
 11
-369.6705644418348
 21
-376.1719654232195
 31
0.0
  0
LINE
  5
34F
330
1F
100
AcDbEntity
  8
通り芯
  6
Continuous
 62
     3
370
     9
100
AcDbLine
 10
-542.9807319091067
 20
-383.452189372755
 30
0.0
 11
-541.8286520949175
 21
-375.9638685323833
 31
0.0
  0
LINE
  5
350
330
1F
100
AcDbEntity
  8
通り芯
  6
Continuous
 62
     3
370
     9
100
AcDbLine
 10
-547.7796788052217
 20
-384.7240795490641
 30
0.0
 11
-500.4773502315309
 21
-384.7240795490641
 31
0.0
  0
LINE
  5
351
330
1F
100
AcDbEntity
  8
通り芯
  6
Continuous
 62
     3
370
     9
100
AcDbLine
 10
-498.08713103284
 20
-366.3954200790473
 30
0.0
 11
-499.7654658618096
 21
-365.0528116014289
 31
0.0
  0
LINE
  5
352
330
1F
100
AcDbEntity
  8
通り芯
  6
Continuous
 62
     3
370
     9
100
AcDbLine
 10
-376.5872003159902
 20
-366.3954200790473
 30
0.0
 11
-378.2655351449598
 21
-365.0528116014289
 31
0.0
  0
LINE
  5
353
330
1F
100
AcDbEntity
  8
通り芯
  6
Continuous
 62
     3
370
     9
100
AcDbLine
 10
-372.0872102135831
 20
-365.0528116014289
 30
0.0
 11
-373.7655450425527
 21
-366.3954200790473
 31
0.0
  0
LINE
  5
354
330
1F
100
AcDbEntity
  8
通り芯
  6
Continuous
 62
     3
370
     9
100
AcDbLine
 10
-15.53355206324545
 20
-344.7240465570877
 30
0.0
 11
-16.37831161772169
 21
-349.4546505741908
 31
0.0
  0
LINE
  5
355
330
1F
100
AcDbEntity
  8
通り芯
  6
Continuous
 62
     3
370
     9
100
AcDbLine
 10
-18.64060442811024
 20
-349.2240861474593
 30
0.0
 11
-18.31922958647169
 21
-344.7240465570877
 31
0.0
  0
LINE
  5
356
330
1F
100
AcDbEntity
  8
躯体
  6
Continuous
 62
     3
370
     9
100
AcDbLine
 10
-23.68906964137045
 20
-349.7241125410404
 30
0.0
 11
-23.26050386856627
 21
-343.7240927458545
 31
0.0
  0
LINE
  5
357
330
1F
100
AcDbEntity
  8
躯体
  6
Continuous
 62
     3
370
     9
100
AcDbLine
 10
-26.50018397836357
 20
-361.009100531961
 30
0.0
 11
-26.12268978495126
 21
-355.7241323362262
 31
0.0
  0
LINE
  5
358
330
1F
100
AcDbEntity
  8
通り芯
  6
Continuous
 62
     3
370
     9
100
AcDbLine
 10
-544.17636113208
 20
-342.724089446657
 30
0.0
 11
-26.17633473849878
 21
-342.724089446657
 31
0.0
  0
LINE
  5
359
330
1F
100
AcDbEntity
  8
通り芯
  6
Continuous
 62
     3
370
     9
100
AcDbLine
 10
-79.39391022414065
 20
-388.0183943716991
 30
0.0
 11
-70.62617703685169
 21
-372.2638513765556
 31
0.0
  0
LINE
  5
35A
330
1F
100
AcDbEntity
  8
躯体
  6
Continuous
 62
     3
370
     9
100
AcDbLine
 10
-24.40852566966419
 20
-359.7953092260066
 30
0.0
 11
-23.9748131485494
 21
-353.724125737831
 31
0.0
  0
LINE
  5
35B
330
1F
100
AcDbEntity
  8
通り芯
  6
Continuous
 62
     3
370
     9
100
AcDbLine
 10
-72.58119907549212
 20
-375.7767545385066
 30
0.0
 11
-71.36023201468129
 21
-383.4362047602127
 31
0.0
  0
LINE
  5
35C
330
1F
100
AcDbEntity
  8
通り芯
  6
Continuous
 62
     3
370
     9
100
AcDbLine
 10
-25.40610405860002
 20
-360.72409934425
 30
0.0
 11
-26.47989391290753
 21
-360.72409934425
 31
0.0
  0
LINE
  5
35D
330
1F
100
AcDbEntity
  8
躯体
  6
Continuous
 62
     3
370
     9
100
AcDbLine
 10
-30.49010163039065
 20
-364.724063053076
 30
0.0
 11
-539.862594240188
 21
-364.724063053076
 31
0.0
  0
LINE
  5
35E
330
1F
100
AcDbEntity
  8
通り芯
  6
Continuous
 62
     3
370
     9
100
AcDbLine
 10
-21.07689692177587
 20
-383.3309933476283
 30
0.0
 11
-18.96217722160668
 21
-353.725808328625
 31
0.0
  0
LINE
  5
35F
330
1F
100
AcDbEntity
  8
通り芯
  6
Continuous
 62
     3
370
     9
100
AcDbLine
 10
-17.40855206324545
 20
-355.2241059426452
 30
0.0
 11
-20.17631494331295
 21
-371.7241356354239
 31
0.0
  0
LINE
  5
360
330
1F
100
AcDbEntity
  8
その他
  6
Continuous
 62
     3
370
     9
100
AcDbLine
 10
-18.99780855606627
 20
-354.2241026434475
 30
0.0
 11
-24.00797008478253
 21
-354.2241026434475
 31
0.0
  0
LINE
  5
361
330
1F
100
AcDbEntity
  8
その他
  6
Continuous
 62
     3
370
     9
100
AcDbLine
 10
-18.64060442811024
 20
-349.2240861474593
 30
0.0
 11
-23.65086493275544
 21
-349.2240861474593
 31
0.0
  0
LINE
  5
362
330
1F
100
AcDbEntity
  8
その他
  6
Continuous
 62
     2
370
     9
100
AcDbLine
 10
-19.96915832380273
 20
-353.724125737831
 30
0.0
 11
-26.17633473849878
 21
-353.724125737831
 31
0.0
  0
LINE
  5
363
330
1F
100
AcDbEntity
  8
その他
  6
Continuous
 62
     2
370
     9
100
AcDbLine
 10
-19.96925729973168
 20
-353.1241336559054
 30
0.0
 11
-26.17633473849878
 21
-353.1241336559054
 31
0.0
  0
LINE
  5
364
330
1F
100
AcDbEntity
  8
その他
  6
Continuous
 62
     2
370
     9
100
AcDbLine
 10
-19.96925729973168
 20
-350.3241046229662
 30
0.0
 11
-26.17633473849878
 21
-350.3241046229662
 31
0.0
  0
LINE
  5
365
330
1F
100
AcDbEntity
  8
その他
  6
Continuous
 62
     2
370
     9
100
AcDbLine
 10
-19.96915832380273
 20
-349.7241125410404
 30
0.0
 11
-26.17633473849878
 21
-349.7241125410404
 31
0.0
  0
LINE
  5
366
330
1F
100
AcDbEntity
  8
その他
  6
Continuous
 62
     2
370
     9
100
AcDbLine
 10
-28.17634133689398
 20
-353.1241336559054
 30
0.0
 11
-29.51083378832982
 21
-353.1241336559054
 31
0.0
  0
LINE
  5
367
330
1F
100
AcDbEntity
  8
その他
  6
Continuous
 62
     2
370
     9
100
AcDbLine
 10
-28.17634133689398
 20
-353.724125737831
 30
0.0
 11
-29.51083378832982
 21
-353.724125737831
 31
0.0
  0
LINE
  5
368
330
1F
100
AcDbEntity
  8
その他
  6
Continuous
 62
     2
370
     9
100
AcDbLine
 10
-28.17634133689398
 20
-349.7241125410404
 30
0.0
 11
-29.51083378832982
 21
-349.7241125410404
 31
0.0
  0
LINE
  5
369
330
1F
100
AcDbEntity
  8
その他
  6
Continuous
 62
     2
370
     9
100
AcDbLine
 10
-28.17634133689398
 20
-350.3241046229662
 30
0.0
 11
-29.51083378832982
 21
-350.3241046229662
 31
0.0
  0
LINE
  5
36A
330
1F
100
AcDbEntity
  8
その他
  6
Continuous
 62
     2
370
     9
100
AcDbLine
 10
-26.17633473849878
 20
-349.7241125410404
 30
0.0
 11
-26.17633473849878
 21
-353.724125737831
 31
0.0
  0
LINE
  5
36B
330
1F
100
AcDbEntity
  8
その他
  6
Continuous
 62
     2
370
     9
100
AcDbLine
 10
-28.17634133689398
 20
-348.2241323362262
 30
0.0
 11
-28.17634133689398
 21
-355.2241059426452
 31
0.0
  0
LINE
  5
36C
330
1F
100
AcDbEntity
  8
その他
  6
Continuous
 62
     2
370
     9
100
AcDbLine
 10
-26.17633473849878
 20
-355.2241059426452
 30
0.0
 11
-28.17634133689398
 21
-355.2241059426452
 31
0.0
  0
LINE
  5
36D
330
1F
100
AcDbEntity
  8
その他
  6
Continuous
 62
     2
370
     9
100
AcDbLine
 10
-26.17633473849878
 20
-348.2241323362262
 30
0.0
 11
-28.17634133689398
 21
-348.2241323362262
 31
0.0
  0
LINE
  5
36E
330
1F
100
AcDbEntity
  8
その他
  6
Continuous
 62
     4
370
     9
100
AcDbLine
 10
-26.17633473849878
 20
-342.7241389346216
 30
0.0
 11
-26.17633473849878
 21
-349.7241125410404
 31
0.0
  0
LINE
  5
36F
330
1F
100
AcDbEntity
  8
その他
  6
Continuous
 62
     4
370
     9
100
AcDbLine
 10
-24.67635453368462
 20
-353.724125737831
 30
0.0
 11
-24.67635453368462
 21
-355.7241323362262
 31
0.0
  0
LINE
  5
370
330
1F
100
AcDbEntity
  8
その他
  6
Continuous
 62
     4
370
     9
100
AcDbLine
 10
-24.67635453368462
 20
-344.2241191394358
 30
0.0
 11
-24.67635453368462
 21
-349.7241125410404
 31
0.0
  0
LINE
  5
371
330
1F
100
AcDbEntity
  8
その他
  6
Continuous
 62
     4
370
     9
100
AcDbLine
 10
-26.17633473849878
 20
-353.724125737831
 30
0.0
 11
-26.17633473849878
 21
-355.7241323362262
 31
0.0
  0
LINE
  5
372
330
1F
100
AcDbEntity
  8
その他
  6
Continuous
 62
     4
370
     9
100
AcDbLine
 10
-24.67635453368462
 20
-349.2240861474593
 30
0.0
 11
-26.17633473849878
 21
-349.2240861474593
 31
0.0
  0
LINE
  5
373
330
1F
100
AcDbEntity
  8
その他
  6
Continuous
 62
     4
370
     9
100
AcDbLine
 10
-24.67635453368462
 20
-354.2241026434475
 30
0.0
 11
-26.17633473849878
 21
-354.2241026434475
 31
0.0
  0
LINE
  5
374
330
1F
100
AcDbEntity
  8
その他
  6
Continuous
 62
     2
370
     9
100
AcDbLine
 10
-19.96915832380273
 20
-353.724125737831
 30
0.0
 11
-19.45844252988377
 21
-353.4292269572143
 31
0.0
  0
LINE
  5
375
330
1F
100
AcDbEntity
  8
その他
  6
Continuous
 62
     4
370
     9
100
AcDbLine
 10
-24.17642711603253
 20
-343.7240927458545
 30
0.0
 11
-19.67628854973168
 21
-343.7240927458545
 31
0.0
  0
LINE
  5
376
330
1F
100
AcDbEntity
  8
その他
  6
Continuous
 62
     4
370
     9
100
AcDbLine
 10
-20.67634133689398
 20
-341.7240861474593
 30
0.0
 11
-20.67634133689398
 21
-327.724089446657
 31
0.0
  0
LINE
  5
377
330
1F
100
AcDbEntity
  8
その他
  6
Continuous
 62
     4
370
     9
100
AcDbLine
 10
-21.17626875454584
 20
-342.2241125410404
 30
0.0
 11
-25.67630834491752
 21
-342.2241125410404
 31
0.0
  0
LINE
  5
378
330
1F
100
AcDbEntity
  8
その他
  6
Continuous
 62
     4
370
     9
100
AcDbLine
 10
-20.67634133689398
 20
-327.724089446657
 30
0.0
 11
-19.17636113207982
 21
-327.724089446657
 31
0.0
  0
LINE
  5
379
330
1F
100
AcDbEntity
  8
その他
  6
Continuous
 62
     4
370
     9
100
AcDbLine
 10
-26.17633473849878
 20
-355.7241323362262
 30
0.0
 11
-24.67635453368462
 21
-355.7241323362262
 31
0.0
  0
LINE
  5
37A
330
1F
100
AcDbEntity
  8
その他
  6
Continuous
 62
     2
370
     9
100
AcDbLine
 10
-15.98854440910668
 20
-352.2240465570877
 30
0.0
 11
-16.38969384956295
 21
-352.2240465570877
 31
0.0
  0
LINE
  5
37B
330
1F
100
AcDbEntity
  8
その他
  6
Continuous
 62
     2
370
     9
100
AcDbLine
 10
-18.5692427832621
 20
-355.2241059426452
 30
0.0
 11
-16.99196237785668
 21
-355.2241059426452
 31
0.0
  0
LINE
  5
37C
330
1F
100
AcDbEntity
  8
その他
  6
Continuous
 62
     2
370
     9
100
AcDbLine
 10
-16.99196237785668
 20
-348.2240333602973
 30
0.0
 11
-18.5692427832621
 21
-348.2240333602973
 31
0.0
  0
LINE
  5
37D
330
1F
100
AcDbEntity
  8
その他
  6
Continuous
 62
     2
370
     9
100
AcDbLine
 10
-19.96925729973168
 20
-350.3241046229662
 30
0.0
 11
-18.66663509745126
 21
-349.545757916885
 31
0.0
  0
LINE
  5
37E
330
1F
100
AcDbEntity
  8
その他
  6
Continuous
 62
     2
370
     9
100
AcDbLine
 10
-19.96925729973168
 20
-353.1241336559054
 30
0.0
 11
-18.66663509745126
 21
-353.9023813860572
 31
0.0
  0
LINE
  5
37F
330
1F
100
AcDbEntity
  8
その他
  6
Continuous
 62
     2
370
     9
100
AcDbLine
 10
-19.96915832380273
 20
-349.7241125410404
 30
0.0
 11
-19.45844252988377
 21
-350.0189123457279
 31
0.0
  0
LINE
  5
380
330
1F
100
AcDbEntity
  8
その他
  6
Continuous
 62
     2
370
     9
100
AcDbLine
 10
-19.96915832380273
 20
-349.7241125410404
 30
0.0
 11
-19.96915832380273
 21
-353.724125737831
 31
0.0
  0
LINE
  5
381
330
1F
100
AcDbEntity
  8
その他
  6
Continuous
 62
     2
370
     9
100
AcDbLine
 10
-29.51083378832982
 20
-349.7241125410404
 30
0.0
 11
-29.51083378832982
 21
-353.724125737831
 31
0.0
  0
LINE
  5
382
330
1F
100
AcDbEntity
  8
その他
  6
Continuous
 62
     2
370
     9
100
AcDbLine
 10
-15.98854440910668
 20
-351.2240927458545
 30
0.0
 11
-16.38969384956295
 21
-351.2240927458545
 31
0.0
  0
LINE
  5
383
330
1F
100
AcDbEntity
  8
その他
  6
Continuous
 62
     2
370
     9
100
AcDbLine
 10
-16.38969384956295
 20
-352.2240465570877
 30
0.0
 11
-16.38969384956295
 21
-351.2240927458545
 31
0.0
  0
LINE
  5
384
330
1F
100
AcDbEntity
  8
その他
  6
Continuous
 62
     2
370
     9
100
AcDbLine
 10
-18.5692427832621
 20
-348.2240333602973
 30
0.0
 11
-18.5692427832621
 21
-355.2241059426452
 31
0.0
  0
LINE
  5
385
330
1F
100
AcDbEntity
  8
躯体
  6
Continuous
 62
     2
370
     9
100
AcDbLine
 10
-19.17636113207982
 20
-344.7240465570877
 30
0.0
 11
-15.17634793528919
 21
-344.7240465570877
 31
0.0
  0
LINE
  5
386
330
1F
100
AcDbEntity
  8
躯体
  6
Continuous
 62
     2
370
     9
100
AcDbLine
 10
-19.17636113207982
 20
-344.7240465570877
 30
0.0
 11
-19.17636113207982
 21
-324.7240300610995
 31
0.0
  0
LINE
  5
387
330
1F
100
AcDbEntity
  8
躯体
  6
Continuous
 62
     2
370
     9
100
AcDbLine
 10
-555.1763479352892
 20
-324.7240300610995
 30
0.0
 11
-15.17634793528919
 21
-324.7240300610995
 31
0.0
  0
LINE
  5
388
330
1F
100
AcDbEntity
  8
躯体
  6
Continuous
 62
     2
370
     9
100
AcDbLine
 10
-15.17634793528919
 20
-344.7240465570877
 30
0.0
 11
-15.17634793528919
 21
-324.7240300610995
 31
0.0
  0
LINE
  5
389
330
1F
100
AcDbEntity
  8
通り芯
  6
Continuous
 62
     3
370
     9
100
AcDbLine
 10
-184.7010820199598
 20
-371.7241356354239
 30
0.0
 11
-20.17631494331295
 21
-371.7241356354239
 31
0.0
  0
LINE
  5
38A
330
1F
100
AcDbEntity
  8
通り芯
  6
Continuous
 62
     3
370
     9
100
AcDbLine
 10
-364.701180995889
 20
-371.7241356354239
 30
0.0
 11
-205.6515148746896
 21
-371.7241356354239
 31
0.0
  0
LINE
  5
38B
330
1F
100
AcDbEntity
  8
通り芯
  6
Continuous
 62
     3
370
     9
100
AcDbLine
 10
-73.20256995809336
 20
-366.7241191394358
 30
0.0
 11
-497.150125912485
 21
-366.7241191394358
 31
0.0
  0
LINE
  5
38C
330
1F
100
AcDbEntity
  8
通り芯
  6
Continuous
 62
     3
370
     9
100
AcDbLine
 10
-189.6705149538705
 20
-376.1719654232195
 30
0.0
 11
-191.0280687967759
 21
-394.3897223647312
 31
0.0
  0
LINE
  5
38D
330
1F
100
AcDbEntity
  8
通り芯
  6
Continuous
 62
     3
370
     9
100
AcDbLine
 10
-199.3245775858384
 20
-394.3897223647312
 30
0.0
 11
-200.6821314287438
 21
-376.1719654232195
 31
0.0
  0
LINE
  5
38E
330
1F
100
AcDbEntity
  8
通り芯
  6
Continuous
 62
     3
370
     9
100
AcDbLine
 10
-27.37196396147169
 20
-383.452189372755
 30
0.0
 11
-28.52404377566086
 21
-375.9638685323833
 31
0.0
  0
LINE
  5
38F
330
1F
100
AcDbEntity
  8
通り芯
  6
Continuous
 62
     3
370
     9
100
AcDbLine
 10
-22.57301706535668
 20
-384.7240795490641
 30
0.0
 11
-69.87534563904774
 21
-384.7240795490641
 31
0.0
  0
LINE
  5
390
330
1F
100
AcDbEntity
  8
通り芯
  6
Continuous
 62
     3
370
     9
100
AcDbLine
 10
-72.26556483773857
 20
-366.3954200790473
 30
0.0
 11
-70.58723000876898
 21
-365.0528116014289
 31
0.0
  0
LINE
  5
391
330
1F
100
AcDbEntity
  8
通り芯
  6
Continuous
 62
     3
370
     9
100
AcDbLine
 10
-193.7654955545884
 20
-366.3954200790473
 30
0.0
 11
-192.0871607256188
 21
-365.0528116014289
 31
0.0
  0
LINE
  5
392
330
1F
100
AcDbEntity
  8
通り芯
  6
Continuous
 62
     3
370
     9
100
AcDbLine
 10
-198.2654856569955
 20
-365.0528116014289
 30
0.0
 11
-196.5871508280259
 21
-366.3954200790473
 31
0.0
  0
LINE
  5
393
330
1F
100
AcDbEntity
  8
通り芯
  6
Continuous
 62
     3
370
     9
100
AcDbLine
 10
-477.8517497775613
 20
-395.7241653282027
 30
0.0
 11
-92.50094609301732
 21
-395.7241653282027
 31
0.0
  0
LINE
  5
394
330
1F
100
AcDbEntity
  8
0-F
  6
JWW_CENTER1
 62
     7
370
     9
100
AcDbLine
 10
-285.1763479352892
 20
-304.7240135651114
 30
0.0
 11
-285.1763479352892
 21
-412.5876808980939
 31
0.0
  0
TEXT
  5
395
330
1F
100
AcDbEntity
  8
その他
  6
Continuous
 62
     2
370
   211
100
AcDbText
 10
-43.67631494331295
 20
-434.468089446657
 30
0.0
 40
12.192
  1
50
 41
1.0625
  7
ＭＳ ゴシック
100
AcDbText
  0
LINE
  5
396
330
1F
100
AcDbEntity
  8
その他
  6
Continuous
 62
     7
370
     9
100
AcDbLine
 10
-10.1762819513367
 20
-441.9240894466571
 30
0.0
 11
-10.1762819513367
 21
-395.7241290370287
 31
0.0
  0
LINE
  5
397
330
1F
100
AcDbEntity
  8
その他
  6
Continuous
 62
     7
370
     9
100
AcDbLine
 10
-10.1762819513367
 20
-440.724089446657
 30
0.0
 11
-20.09073056507464
 21
-442.0293513688576
 31
0.0
  0
LINE
  5
398
330
1F
100
AcDbEntity
  8
その他
  6
Continuous
 62
     7
370
     9
100
AcDbLine
 10
-10.1762819513367
 20
-440.724089446657
 30
0.0
 11
-20.09073056507464
 21
-439.4188275244565
 31
0.0
  0
LINE
  5
399
330
1F
100
AcDbEntity
  8
その他
  6
Continuous
 62
     7
370
     9
100
AcDbLine
 10
-60.17634793528919
 20
-440.724089446657
 30
0.0
 11
-50.26189932155125
 21
-442.0293513688576
 31
0.0
  0
LINE
  5
39A
330
1F
100
AcDbEntity
  8
その他
  6
Continuous
 62
     7
370
     9
100
AcDbLine
 10
-60.17634793528919
 20
-440.724089446657
 30
0.0
 11
-50.26189932155125
 21
-439.4188275244565
 31
0.0
  0
LINE
  5
39B
330
1F
100
AcDbEntity
  8
その他
  6
Continuous
 62
     7
370
     9
100
AcDbLine
 10
-60.17634793528919
 20
-440.724089446657
 30
0.0
 11
-10.1762819513367
 21
-440.724089446657
 31
0.0
  0
TEXT
  5
39C
330
1F
100
AcDbEntity
  8
その他
  6
Continuous
 62
     2
370
   211
100
AcDbText
 10
-298.1763479352892
 20
-434.468089446657
 30
0.0
 40
12.192
  1
450
 41
1.083333333333333
  7
ＭＳ ゴシック
100
AcDbText
  0
LINE
  5
39D
330
1F
100
AcDbEntity
  8
その他
  6
Continuous
 62
     7
370
     9
100
AcDbLine
 10
-60.17634793528919
 20
-441.9240894466571
 30
0.0
 11
-60.17634793528919
 21
-398.724089446657
 31
0.0
  0
LINE
  5
39E
330
1F
100
AcDbEntity
  8
その他
  6
Continuous
 62
     7
370
     9
100
AcDbLine
 10
-60.17634793528919
 20
-440.724089446657
 30
0.0
 11
-70.09079654902735
 21
-442.0293513688576
 31
0.0
  0
LINE
  5
39F
330
1F
100
AcDbEntity
  8
その他
  6
Continuous
 62
     7
370
     9
100
AcDbLine
 10
-60.17634793528919
 20
-440.724089446657
 30
0.0
 11
-70.09079654902735
 21
-439.4188275244565
 31
0.0
  0
LINE
  5
3A0
330
1F
100
AcDbEntity
  8
その他
  6
Continuous
 62
     7
370
     9
100
AcDbLine
 10
-510.1763479352892
 20
-440.724089446657
 30
0.0
 11
-500.2618993215513
 21
-442.0293513688576
 31
0.0
  0
LINE
  5
3A1
330
1F
100
AcDbEntity
  8
その他
  6
Continuous
 62
     7
370
     9
100
AcDbLine
 10
-510.1763479352892
 20
-440.724089446657
 30
0.0
 11
-500.2618993215513
 21
-439.4188275244565
 31
0.0
  0
LINE
  5
3A2
330
1F
100
AcDbEntity
  8
その他
  6
Continuous
 62
     7
370
     9
100
AcDbLine
 10
-510.1763479352892
 20
-440.724089446657
 30
0.0
 11
-60.17634793528919
 21
-440.724089446657
 31
0.0
  0
TEXT
  5
3A3
330
1F
100
AcDbEntity
  8
その他
  6
Continuous
 62
     2
370
   211
100
AcDbText
 10
-543.6763809272659
 20
-434.468089446657
 30
0.0
 40
12.192
  1
50
 41
1.0625
  7
ＭＳ ゴシック
100
AcDbText
  0
LINE
  5
3A4
330
1F
100
AcDbEntity
  8
その他
  6
Continuous
 62
     7
370
     9
100
AcDbLine
 10
-510.1763479352892
 20
-441.9240894466571
 30
0.0
 11
-510.1763479352892
 21
-398.724089446657
 31
0.0
  0
LINE
  5
3A5
330
1F
100
AcDbEntity
  8
その他
  6
Continuous
 62
     7
370
     9
100
AcDbLine
 10
-560.1764139192421
 20
-441.9240894466571
 30
0.0
 11
-560.1764139192421
 21
-395.7241290370287
 31
0.0
  0
LINE
  5
3A6
330
1F
100
AcDbEntity
  8
その他
  6
Continuous
 62
     7
370
     9
100
AcDbLine
 10
-510.1763479352892
 20
-440.724089446657
 30
0.0
 11
-520.0907965490276
 21
-442.0293513688576
 31
0.0
  0
LINE
  5
3A7
330
1F
100
AcDbEntity
  8
その他
  6
Continuous
 62
     7
370
     9
100
AcDbLine
 10
-510.1763479352892
 20
-440.724089446657
 30
0.0
 11
-520.0907965490276
 21
-439.4188275244565
 31
0.0
  0
LINE
  5
3A8
330
1F
100
AcDbEntity
  8
その他
  6
Continuous
 62
     7
370
     9
100
AcDbLine
 10
-560.1764139192421
 20
-440.724089446657
 30
0.0
 11
-550.2619653055037
 21
-442.0293513688576
 31
0.0
  0
LINE
  5
3A9
330
1F
100
AcDbEntity
  8
その他
  6
Continuous
 62
     7
370
     9
100
AcDbLine
 10
-560.1764139192421
 20
-440.724089446657
 30
0.0
 11
-550.2619653055037
 21
-439.4188275244565
 31
0.0
  0
LINE
  5
3AA
330
1F
100
AcDbEntity
  8
その他
  6
Continuous
 62
     7
370
     9
100
AcDbLine
 10
-560.1764139192421
 20
-440.724089446657
 30
0.0
 11
-510.1763479352892
 21
-440.724089446657
 31
0.0
  0
ARC
  5
3AB
330
1F
100
AcDbEntity
  8
建具
  6
Continuous
 62
     4
370
     9
100
AcDbCircle
 10
-557.1764535096138
 20
-387.7241290370287
 30
0.0
 40
3.000000038662472
100
AcDbArc
 50
180.0
 51
270.0
  0
ARC
  5
3AC
330
1F
100
AcDbEntity
  8
建具
  6
Continuous
 62
     4
370
     9
100
AcDbCircle
 10
-13.17624236096503
 20
-387.7241290370287
 30
0.0
 40
3.000000038662472
100
AcDbArc
 50
270.0
 51
0.0
  0
LINE
  5
3AD
330
1F
100
AcDbEntity
  8
建具
  6
Continuous
 62
     4
370
     9
100
AcDbLine
 10
-510.1763479352892
 20
-390.724089446657
 30
0.0
 11
-510.1763479352892
 21
-387.7241290370287
 31
0.0
  0
LINE
  5
3AE
330
1F
100
AcDbEntity
  8
建具
  6
Continuous
 62
     4
370
     9
100
AcDbLine
 10
-557.1764535096138
 20
-387.7241290370287
 30
0.0
 11
-557.1764535096138
 21
-324.7240300610995
 31
0.0
  0
LINE
  5
3AF
330
1F
100
AcDbEntity
  8
建具
  6
Continuous
 62
     4
370
     9
100
AcDbLine
 10
-510.1763479352892
 20
-387.7241290370287
 30
0.0
 11
-557.1764535096138
 21
-387.7241290370287
 31
0.0
  0
LINE
  5
3B0
330
1F
100
AcDbEntity
  8
建具
  6
Continuous
 62
     4
370
     9
100
AcDbLine
 10
-560.1764139192421
 20
-387.7241290370287
 30
0.0
 11
-560.1764139192421
 21
-324.7240300610995
 31
0.0
  0
LINE
  5
3B1
330
1F
100
AcDbEntity
  8
建具
  6
Continuous
 62
     4
370
     9
100
AcDbLine
 10
-557.1764535096138
 20
-390.724089446657
 30
0.0
 11
-510.1763479352892
 21
-390.724089446657
 31
0.0
  0
LINE
  5
3B2
330
1F
100
AcDbEntity
  8
建具
  6
Continuous
 62
     4
370
     9
100
AcDbLine
 10
-13.17624236096503
 20
-387.7241290370287
 30
0.0
 11
-13.17624236096503
 21
-324.7240300610995
 31
0.0
  0
LINE
  5
3B3
330
1F
100
AcDbEntity
  8
建具
  6
Continuous
 62
     4
370
     9
100
AcDbLine
 10
-60.17634793528919
 20
-387.7241290370287
 30
0.0
 11
-13.17624236096503
 21
-387.7241290370287
 31
0.0
  0
LINE
  5
3B4
330
1F
100
AcDbEntity
  8
建具
  6
Continuous
 62
     4
370
     9
100
AcDbLine
 10
-10.1762819513367
 20
-387.7241290370287
 30
0.0
 11
-10.1762819513367
 21
-324.7240300610995
 31
0.0
  0
LINE
  5
3B5
330
1F
100
AcDbEntity
  8
建具
  6
Continuous
 62
     4
370
     9
100
AcDbLine
 10
-13.17624236096503
 20
-390.724089446657
 30
0.0
 11
-60.17634793528919
 21
-390.724089446657
 31
0.0
  0
LINE
  5
3B6
330
1F
100
AcDbEntity
  8
建具
  6
Continuous
 62
     4
370
     9
100
AcDbLine
 10
-60.17634793528919
 20
-390.724089446657
 30
0.0
 11
-60.17634793528919
 21
-387.7241290370287
 31
0.0
  0
LINE
  5
3B7
330
1F
100
AcDbEntity
  8
ハッチ
  6
Continuous
 62
     6
370
     9
100
AcDbLine
 10
-553.6763479352901
 20
-384.7239310851701
 30
0.0
 11
-553.6763479352901
 21
-387.7239310851704
 31
0.0
  0
LINE
  5
3B8
330
1F
100
AcDbEntity
  8
ハッチ
  6
Continuous
 62
     6
370
     9
100
AcDbLine
 10
-515.9917697533344
 20
-384.7239310851701
 30
0.0
 11
-513.6763479352896
 21
-387.0393529032147
 31
0.0
  0
LINE
  5
3B9
330
1F
100
AcDbEntity
  8
ハッチ
  6
Continuous
 62
     6
370
     9
100
AcDbLine
 10
-521.6486240028278
 20
-384.7239310851701
 30
0.0
 11
-518.6486240028273
 21
-387.7239310851708
 31
0.0
  0
LINE
  5
3BA
330
1F
100
AcDbEntity
  8
ハッチ
  6
Continuous
 62
     6
370
     9
100
AcDbLine
 10
-527.305478252322
 20
-384.723931085169
 30
0.0
 11
-524.305478252322
 21
-387.7239310851697
 31
0.0
  0
LINE
  5
3BB
330
1F
100
AcDbEntity
  8
ハッチ
  6
Continuous
 62
     6
370
     9
100
AcDbLine
 10
-532.9623325018144
 20
-384.7239310851701
 30
0.0
 11
-529.9623325018144
 21
-387.7239310851704
 31
0.0
  0
LINE
  5
3BC
330
1F
100
AcDbEntity
  8
ハッチ
  6
Continuous
 62
     6
370
     9
100
AcDbLine
 10
-538.6191867513087
 20
-384.7239310851697
 30
0.0
 11
-535.6191867513082
 21
-387.7239310851697
 31
0.0
  0
LINE
  5
3BD
330
1F
100
AcDbEntity
  8
ハッチ
  6
Continuous
 62
     6
370
     9
100
AcDbLine
 10
-544.2760410008011
 20
-384.7239310851701
 30
0.0
 11
-541.2760410008029
 21
-387.7239310851681
 31
0.0
  0
LINE
  5
3BE
330
1F
100
AcDbEntity
  8
ハッチ
  6
Continuous
 62
     6
370
     9
100
AcDbLine
 10
-549.9328952502885
 20
-384.723931085169
 30
0.0
 11
-546.9328952502881
 21
-387.7239310851692
 31
0.0
  0
LINE
  5
3BF
330
1F
100
AcDbEntity
  8
ハッチ
  6
Continuous
 62
     6
370
     9
100
AcDbLine
 10
-553.6763479352892
 20
-386.6373326496617
 30
0.0
 11
-552.5897494997814
 21
-387.7239310851697
 31
0.0
  0
LINE
  5
3C0
330
1F
100
AcDbEntity
  8
ハッチ
  6
Continuous
 62
     6
370
     9
100
AcDbLine
 10
-513.6763479352896
 20
-384.7239310851701
 30
0.0
 11
-553.6763479352901
 21
-384.7239310851701
 31
0.0
  0
LINE
  5
3C1
330
1F
100
AcDbEntity
  8
ハッチ
  6
Continuous
 62
     6
370
     9
100
AcDbLine
 10
-513.6763479352896
 20
-387.7239310851704
 30
0.0
 11
-513.6763479352896
 21
-384.7239310851701
 31
0.0
  0
LINE
  5
3C2
330
1F
100
AcDbEntity
  8
ハッチ
  6
Continuous
 62
     6
370
     9
100
AcDbLine
 10
-553.6763479352901
 20
-387.7239310851704
 30
0.0
 11
-513.6763479352896
 21
-387.7239310851704
 31
0.0
  0
LINE
  5
3C3
330
1F
100
AcDbEntity
  8
ハッチ
  6
Continuous
 62
     6
370
     9
100
AcDbLine
 10
-56.6763289649034
 20
-384.7239310851701
 30
0.0
 11
-56.6763289649034
 21
-387.7239310851704
 31
0.0
  0
LINE
  5
3C4
330
1F
100
AcDbEntity
  8
ハッチ
  6
Continuous
 62
     6
370
     9
100
AcDbLine
 10
-18.9917507829482
 20
-384.7239310851701
 30
0.0
 11
-16.67632896490318
 21
-387.0393529032147
 31
0.0
  0
LINE
  5
3C5
330
1F
100
AcDbEntity
  8
ハッチ
  6
Continuous
 62
     6
370
     9
100
AcDbLine
 10
-24.64860503244176
 20
-384.7239310851701
 30
0.0
 11
-21.64860503244086
 21
-387.7239310851708
 31
0.0
  0
LINE
  5
3C6
330
1F
100
AcDbEntity
  8
ハッチ
  6
Continuous
 62
     6
370
     9
100
AcDbLine
 10
-30.30545928193578
 20
-384.723931085169
 30
0.0
 11
-27.30545928193601
 21
-387.7239310851697
 31
0.0
  0
LINE
  5
3C7
330
1F
100
AcDbEntity
  8
ハッチ
  6
Continuous
 62
     6
370
     9
100
AcDbLine
 10
-35.96231353142798
 20
-384.7239310851701
 30
0.0
 11
-32.96231353142798
 21
-387.7239310851704
 31
0.0
  0
LINE
  5
3C8
330
1F
100
AcDbEntity
  8
ハッチ
  6
Continuous
 62
     6
370
     9
100
AcDbLine
 10
-41.61916778092245
 20
-384.7239310851697
 30
0.0
 11
-38.61916778092177
 21
-387.7239310851697
 31
0.0
  0
LINE
  5
3C9
330
1F
100
AcDbEntity
  8
ハッチ
  6
Continuous
 62
     6
370
     9
100
AcDbLine
 10
-47.27602203041488
 20
-384.7239310851701
 30
0.0
 11
-44.2760220304167
 21
-387.7239310851681
 31
0.0
  0
LINE
  5
3CA
330
1F
100
AcDbEntity
  8
ハッチ
  6
Continuous
 62
     6
370
     9
100
AcDbLine
 10
-52.93287627990208
 20
-384.723931085169
 30
0.0
 11
-49.93287627990208
 21
-387.7239310851692
 31
0.0
  0
LINE
  5
3CB
330
1F
100
AcDbEntity
  8
ハッチ
  6
Continuous
 62
     6
370
     9
100
AcDbLine
 10
-56.6763289649025
 20
-386.6373326496617
 30
0.0
 11
-55.58973052939473
 21
-387.7239310851697
 31
0.0
  0
LINE
  5
3CC
330
1F
100
AcDbEntity
  8
ハッチ
  6
Continuous
 62
     6
370
     9
100
AcDbLine
 10
-16.67632896490318
 20
-384.7239310851701
 30
0.0
 11
-56.6763289649034
 21
-384.7239310851701
 31
0.0
  0
LINE
  5
3CD
330
1F
100
AcDbEntity
  8
ハッチ
  6
Continuous
 62
     6
370
     9
100
AcDbLine
 10
-16.67632896490318
 20
-387.7239310851704
 30
0.0
 11
-16.67632896490318
 21
-384.7239310851701
 31
0.0
  0
LINE
  5
3CE
330
1F
100
AcDbEntity
  8
ハッチ
  6
Continuous
 62
     6
370
     9
100
AcDbLine
 10
-56.6763289649034
 20
-387.7239310851704
 30
0.0
 11
-16.67632896490318
 21
-387.7239310851704
 31
0.0
  0
TEXT
  5
3CF
330
1F
100
AcDbEntity
  8
その他
  6
Continuous
 62
     2
370
   211
100
AcDbText
 10
-73.17622421537794
 20
503.1268884533982
 30
0.0
 40
12.192
  1
100
 41
1.083333333333333
  7
ＭＳ ゴシック
100
AcDbText
  0
LINE
  5
3D0
330
1F
100
AcDbEntity
  8
その他
  6
Continuous
 62
     7
370
     9
100
AcDbLine
 10
-10.1762819513367
 20
498.0708884533983
 30
0.0
 11
-10.1762819513367
 21
424.8708884533982
 31
0.0
  0
LINE
  5
3D1
330
1F
100
AcDbEntity
  8
その他
  6
Continuous
 62
     7
370
     9
100
AcDbLine
 10
-10.1762819513367
 20
496.8708884533982
 30
0.0
 11
-20.09073056507464
 21
495.5656265311977
 31
0.0
  0
LINE
  5
3D2
330
1F
100
AcDbEntity
  8
その他
  6
Continuous
 62
     7
370
     9
100
AcDbLine
 10
-10.1762819513367
 20
496.8708884533982
 30
0.0
 11
-20.09073056507464
 21
498.1761503755988
 31
0.0
  0
LINE
  5
3D3
330
1F
100
AcDbEntity
  8
その他
  6
Continuous
 62
     7
370
     9
100
AcDbLine
 10
-110.1761664794196
 20
496.8708884533982
 30
0.0
 11
-100.2617178656815
 21
495.5656265311977
 31
0.0
  0
LINE
  5
3D4
330
1F
100
AcDbEntity
  8
その他
  6
Continuous
 62
     7
370
     9
100
AcDbLine
 10
-110.1761664794196
 20
496.8708884533982
 30
0.0
 11
-100.2617178656815
 21
498.1761503755988
 31
0.0
  0
LINE
  5
3D5
330
1F
100
AcDbEntity
  8
その他
  6
Continuous
 62
     7
370
     9
100
AcDbLine
 10
-110.1761664794196
 20
496.8708884533982
 30
0.0
 11
-10.1762819513367
 21
496.8708884533982
 31
0.0
  0
TEXT
  5
3D6
330
1F
100
AcDbEntity
  8
その他
  6
Continuous
 62
     2
370
   211
100
AcDbText
 10
-298.1762407113661
 20
503.1268884533982
 30
0.0
 40
12.192
  1
350
 41
1.083333333333333
  7
ＭＳ ゴシック
100
AcDbText
  0
LINE
  5
3D7
330
1F
100
AcDbEntity
  8
その他
  6
Continuous
 62
     7
370
     9
100
AcDbLine
 10
-110.1761664794196
 20
498.0708884533983
 30
0.0
 11
-110.1761664794196
 21
455.6513312104341
 31
0.0
  0
LINE
  5
3D8
330
1F
100
AcDbEntity
  8
その他
  6
Continuous
 62
     7
370
     9
100
AcDbLine
 10
-110.1761664794196
 20
496.8708884533982
 30
0.0
 11
-120.0906150931576
 21
495.5656265311977
 31
0.0
  0
LINE
  5
3D9
330
1F
100
AcDbEntity
  8
その他
  6
Continuous
 62
     7
370
     9
100
AcDbLine
 10
-110.1761664794196
 20
496.8708884533982
 30
0.0
 11
-120.0906150931576
 21
498.1761503755988
 31
0.0
  0
LINE
  5
3DA
330
1F
100
AcDbEntity
  8
その他
  6
Continuous
 62
     7
370
     9
100
AcDbLine
 10
-460.1763149433125
 20
496.8708884533982
 30
0.0
 11
-450.2618663295746
 21
495.5656265311977
 31
0.0
  0
LINE
  5
3DB
330
1F
100
AcDbEntity
  8
その他
  6
Continuous
 62
     7
370
     9
100
AcDbLine
 10
-460.1763149433125
 20
496.8708884533982
 30
0.0
 11
-450.2618663295746
 21
498.1761503755988
 31
0.0
  0
LINE
  5
3DC
330
1F
100
AcDbEntity
  8
その他
  6
Continuous
 62
     7
370
     9
100
AcDbLine
 10
-460.1763149433125
 20
496.8708884533982
 30
0.0
 11
-110.1761664794196
 21
496.8708884533982
 31
0.0
  0
TEXT
  5
3DD
330
1F
100
AcDbEntity
  8
その他
  6
Continuous
 62
     2
370
   211
100
AcDbText
 10
-523.176314943313
 20
503.1268884533982
 30
0.0
 40
12.192
  1
100
 41
1.083333333333333
  7
ＭＳ ゴシック
100
AcDbText
  0
LINE
  5
3DE
330
1F
100
AcDbEntity
  8
その他
  6
Continuous
 62
     7
370
     9
100
AcDbLine
 10
-460.1763149433125
 20
498.0708884533983
 30
0.0
 11
-460.1763149433125
 21
455.6513312104341
 31
0.0
  0
LINE
  5
3DF
330
1F
100
AcDbEntity
  8
その他
  6
Continuous
 62
     7
370
     9
100
AcDbLine
 10
-560.176314943313
 20
498.0708884533983
 30
0.0
 11
-560.176314943313
 21
424.8708884533982
 31
0.0
  0
LINE
  5
3E0
330
1F
100
AcDbEntity
  8
その他
  6
Continuous
 62
     7
370
     9
100
AcDbLine
 10
-460.1763149433125
 20
496.8708884533982
 30
0.0
 11
-470.0907635570509
 21
495.5656265311977
 31
0.0
  0
LINE
  5
3E1
330
1F
100
AcDbEntity
  8
その他
  6
Continuous
 62
     7
370
     9
100
AcDbLine
 10
-460.1763149433125
 20
496.8708884533982
 30
0.0
 11
-470.0907635570509
 21
498.1761503755988
 31
0.0
  0
LINE
  5
3E2
330
1F
100
AcDbEntity
  8
その他
  6
Continuous
 62
     7
370
     9
100
AcDbLine
 10
-560.176314943313
 20
496.8708884533982
 30
0.0
 11
-550.261866329575
 21
495.5656265311977
 31
0.0
  0
LINE
  5
3E3
330
1F
100
AcDbEntity
  8
その他
  6
Continuous
 62
     7
370
     9
100
AcDbLine
 10
-560.176314943313
 20
496.8708884533982
 30
0.0
 11
-550.261866329575
 21
498.1761503755988
 31
0.0
  0
LINE
  5
3E4
330
1F
100
AcDbEntity
  8
その他
  6
Continuous
 62
     7
370
     9
100
AcDbLine
 10
-560.176314943313
 20
496.8708884533982
 30
0.0
 11
-460.1763149433125
 21
496.8708884533982
 31
0.0
  0
LINE
  5
3E5
330
1F
100
AcDbEntity
  8
躯体
  6
JWW_CENTER2
 62
     2
370
     9
100
AcDbLine
 10
-110.1761664794196
 20
-163.9096862715431
 30
0.0
 11
-110.1761664794196
 21
-124.1292900567594
 31
0.0
  0
CIRCLE
  5
3E6
330
1F
100
AcDbEntity
  8
躯体
  6
Continuous
 62
     2
370
     9
100
AcDbCircle
 10
-110.1761664794196
 20
-153.1291772948974
 30
0.0
 40
4.249999652037749
  0
LINE
  5
3E7
330
1F
100
AcDbEntity
  8
躯体
  6
JWW_DASHED1
 62
     2
370
     9
100
AcDbLine
 10
-103.4261969969978
 20
-133.9833219472751
 30
0.0
 11
-103.4261969969978
 21
-163.1292238371496
 31
0.0
  0
LINE
  5
3E8
330
1F
100
AcDbEntity
  8
躯体
  6
Continuous
 62
     2
370
     9
100
AcDbLine
 10
-101.4261876885469
 20
-134.1292375052543
 30
0.0
 11
-102.6761563461698
 21
-134.1292375052543
 31
0.0
  0
LINE
  5
3E9
330
1F
100
AcDbEntity
  8
躯体
  6
JWW_DASHED1
 62
     2
370
     9
100
AcDbLine
 10
-116.9261359618415
 20
-133.9833219472751
 30
0.0
 11
-116.9261359618415
 21
-163.1292238371496
 31
0.0
  0
LINE
  5
3EA
330
1F
100
AcDbEntity
  8
躯体
  6
Continuous
 62
     2
370
     9
100
AcDbLine
 10
-118.9261452702924
 20
-134.1292375052543
 30
0.0
 11
-117.6761766126695
 21
-134.1292375052543
 31
0.0
  0
LINE
  5
3EB
330
1F
100
AcDbEntity
  8
躯体
  6
Continuous
 62
     2
370
     9
100
AcDbLine
 10
-101.4261876885469
 20
-134.1292375052543
 30
0.0
 11
-101.4261876885469
 21
-163.1292238371496
 31
0.0
  0
LINE
  5
3EC
330
1F
100
AcDbEntity
  8
躯体
  6
Continuous
 62
     2
370
     9
100
AcDbLine
 10
-110.1761664794196
 20
-163.1292238371496
 30
0.0
 11
-101.4261876885469
 21
-163.1292238371496
 31
0.0
  0
LINE
  5
3ED
330
1F
100
AcDbEntity
  8
躯体
  6
Continuous
 62
     2
370
     9
100
AcDbLine
 10
-110.1761664794196
 20
-163.1292238371496
 30
0.0
 11
-118.9261452702924
 21
-163.1292238371496
 31
0.0
  0
LINE
  5
3EE
330
1F
100
AcDbEntity
  8
躯体
  6
Continuous
 62
     2
370
     9
100
AcDbLine
 10
-118.9261452702924
 20
-134.1292375052543
 30
0.0
 11
-118.9261452702924
 21
-163.1292238371496
 31
0.0
  0
LINE
  5
3EF
330
1F
100
AcDbEntity
  8
躯体
  6
JWW_CENTER2
 62
     2
370
     9
100
AcDbLine
 10
-110.1761664794196
 20
-153.1291772948974
 30
0.0
 11
-104.4000904461102
 21
-153.1291772948974
 31
0.0
  0
LINE
  5
3F0
330
1F
100
AcDbEntity
  8
躯体
  6
JWW_CENTER2
 62
     2
370
     9
100
AcDbLine
 10
-110.1761664794196
 20
-153.1291772948974
 30
0.0
 11
-115.9522425127282
 21
-153.1291772948974
 31
0.0
  0
ARC
  5
3F1
330
1F
100
AcDbEntity
  8
躯体
  6
Continuous
 62
     2
370
     9
100
AcDbCircle
 10
-117.6761766126695
 20
-132.1292281968038
 30
0.0
 40
1.999999824868206
100
AcDbArc
 50
270.0
 51
329.9994903964416
  0
ARC
  5
3F2
330
1F
100
AcDbEntity
  8
躯体
  6
Continuous
 62
     2
370
     9
100
AcDbCircle
 10
-102.6761563461698
 20
-132.1292281968038
 30
0.0
 40
1.999999824868206
100
AcDbArc
 50
210.0005096035584
 51
270.0
  0
LINE
  5
3F3
330
1F
100
AcDbEntity
  8
躯体
  6
JWW_CENTER2
 62
     2
370
     9
100
AcDbLine
 10
-460.1763149433125
 20
-163.9096862715431
 30
0.0
 11
-460.1763149433125
 21
-124.1292900567594
 31
0.0
  0
CIRCLE
  5
3F4
330
1F
100
AcDbEntity
  8
躯体
  6
Continuous
 62
     2
370
     9
100
AcDbCircle
 10
-460.1763149433125
 20
-153.1291772948974
 30
0.0
 40
4.249999652037749
  0
LINE
  5
3F5
330
1F
100
AcDbEntity
  8
躯体
  6
JWW_DASHED1
 62
     2
370
     9
100
AcDbLine
 10
-453.4263454608906
 20
-133.9833219472751
 30
0.0
 11
-453.4263454608906
 21
-163.1292238371496
 31
0.0
  0
LINE
  5
3F6
330
1F
100
AcDbEntity
  8
躯体
  6
Continuous
 62
     2
370
     9
100
AcDbLine
 10
-451.4263361524397
 20
-134.1292375052543
 30
0.0
 11
-452.6763048100627
 21
-134.1292375052543
 31
0.0
  0
LINE
  5
3F7
330
1F
100
AcDbEntity
  8
躯体
  6
JWW_DASHED1
 62
     2
370
     9
100
AcDbLine
 10
-466.9262844257344
 20
-133.9833219472751
 30
0.0
 11
-466.9262844257344
 21
-163.1292238371496
 31
0.0
  0
LINE
  5
3F8
330
1F
100
AcDbEntity
  8
躯体
  6
Continuous
 62
     2
370
     9
100
AcDbLine
 10
-468.9262937341853
 20
-134.1292375052543
 30
0.0
 11
-467.6763250765623
 21
-134.1292375052543
 31
0.0
  0
LINE
  5
3F9
330
1F
100
AcDbEntity
  8
躯体
  6
Continuous
 62
     2
370
     9
100
AcDbLine
 10
-451.4263361524397
 20
-134.1292375052543
 30
0.0
 11
-451.4263361524397
 21
-163.1292238371496
 31
0.0
  0
LINE
  5
3FA
330
1F
100
AcDbEntity
  8
躯体
  6
Continuous
 62
     2
370
     9
100
AcDbLine
 10
-460.1763149433125
 20
-163.1292238371496
 30
0.0
 11
-451.4263361524397
 21
-163.1292238371496
 31
0.0
  0
LINE
  5
3FB
330
1F
100
AcDbEntity
  8
躯体
  6
Continuous
 62
     2
370
     9
100
AcDbLine
 10
-460.1763149433125
 20
-163.1292238371496
 30
0.0
 11
-468.9262937341853
 21
-163.1292238371496
 31
0.0
  0
LINE
  5
3FC
330
1F
100
AcDbEntity
  8
躯体
  6
Continuous
 62
     2
370
     9
100
AcDbLine
 10
-468.9262937341853
 20
-134.1292375052543
 30
0.0
 11
-468.9262937341853
 21
-163.1292238371496
 31
0.0
  0
LINE
  5
3FD
330
1F
100
AcDbEntity
  8
躯体
  6
JWW_CENTER2
 62
     2
370
     9
100
AcDbLine
 10
-460.1763149433125
 20
-153.1291772948974
 30
0.0
 11
-454.4002389100031
 21
-153.1291772948974
 31
0.0
  0
LINE
  5
3FE
330
1F
100
AcDbEntity
  8
躯体
  6
JWW_CENTER2
 62
     2
370
     9
100
AcDbLine
 10
-460.1763149433125
 20
-153.1291772948974
 30
0.0
 11
-465.952390976621
 21
-153.1291772948974
 31
0.0
  0
ARC
  5
3FF
330
1F
100
AcDbEntity
  8
躯体
  6
Continuous
 62
     2
370
     9
100
AcDbCircle
 10
-467.6763250765623
 20
-132.1292281968038
 30
0.0
 40
1.999999824868206
100
AcDbArc
 50
270.0
 51
329.9994903964416
  0
ARC
  5
400
330
1F
100
AcDbEntity
  8
躯体
  6
Continuous
 62
     2
370
     9
100
AcDbCircle
 10
-452.6763048100627
 20
-132.1292281968038
 30
0.0
 40
1.999999824868206
100
AcDbArc
 50
210.0005096035584
 51
270.0
  0
LINE
  5
401
330
1F
100
AcDbEntity
  8
躯体
  6
JWW_CENTER2
 62
     2
370
     9
100
AcDbLine
 10
-110.1761664794196
 20
447.6513312104341
 30
0.0
 11
-110.1761664794196
 21
407.8709349956504
 31
0.0
  0
ARC
  5
402
330
1F
100
AcDbEntity
  8
躯体
  6
Continuous
 62
     2
370
     9
100
AcDbCircle
 10
-102.6761563461698
 20
415.8708731356948
 30
0.0
 40
1.999999824868206
100
AcDbArc
 50
90.0
 51
149.9994903964416
  0
ARC
  5
403
330
1F
100
AcDbEntity
  8
躯体
  6
Continuous
 62
     2
370
     9
100
AcDbCircle
 10
-117.6761766126695
 20
415.8708731356948
 30
0.0
 40
1.999999824868206
100
AcDbArc
 50
30.00050960355836
 51
90.0
  0
LINE
  5
404
330
1F
100
AcDbEntity
  8
躯体
  6
JWW_CENTER2
 62
     2
370
     9
100
AcDbLine
 10
-110.1761664794196
 20
436.8708222337884
 30
0.0
 11
-115.9522425127282
 21
436.8708222337884
 31
0.0
  0
LINE
  5
405
330
1F
100
AcDbEntity
  8
躯体
  6
JWW_CENTER2
 62
     2
370
     9
100
AcDbLine
 10
-110.1761664794196
 20
436.8708222337884
 30
0.0
 11
-104.4000904461102
 21
436.8708222337884
 31
0.0
  0
LINE
  5
406
330
1F
100
AcDbEntity
  8
躯体
  6
Continuous
 62
     2
370
     9
100
AcDbLine
 10
-118.9261452702924
 20
417.8708824441453
 30
0.0
 11
-118.9261452702924
 21
446.8708687760406
 31
0.0
  0
LINE
  5
407
330
1F
100
AcDbEntity
  8
躯体
  6
Continuous
 62
     2
370
     9
100
AcDbLine
 10
-110.1761664794196
 20
446.8708687760406
 30
0.0
 11
-118.9261452702924
 21
446.8708687760406
 31
0.0
  0
LINE
  5
408
330
1F
100
AcDbEntity
  8
躯体
  6
Continuous
 62
     2
370
     9
100
AcDbLine
 10
-110.1761664794196
 20
446.8708687760406
 30
0.0
 11
-101.4261876885469
 21
446.8708687760406
 31
0.0
  0
LINE
  5
409
330
1F
100
AcDbEntity
  8
躯体
  6
Continuous
 62
     2
370
     9
100
AcDbLine
 10
-101.4261876885469
 20
417.8708824441453
 30
0.0
 11
-101.4261876885469
 21
446.8708687760406
 31
0.0
  0
LINE
  5
40A
330
1F
100
AcDbEntity
  8
躯体
  6
Continuous
 62
     2
370
     9
100
AcDbLine
 10
-118.9261452702924
 20
417.8708824441453
 30
0.0
 11
-117.6761766126695
 21
417.8708824441453
 31
0.0
  0
LINE
  5
40B
330
1F
100
AcDbEntity
  8
躯体
  6
JWW_DASHED1
 62
     2
370
     9
100
AcDbLine
 10
-116.9261359618415
 20
417.7249668861661
 30
0.0
 11
-116.9261359618415
 21
446.8708687760406
 31
0.0
  0
LINE
  5
40C
330
1F
100
AcDbEntity
  8
躯体
  6
Continuous
 62
     2
370
     9
100
AcDbLine
 10
-101.4261876885469
 20
417.8708824441453
 30
0.0
 11
-102.6761563461698
 21
417.8708824441453
 31
0.0
  0
LINE
  5
40D
330
1F
100
AcDbEntity
  8
躯体
  6
JWW_DASHED1
 62
     2
370
     9
100
AcDbLine
 10
-103.4261969969978
 20
417.7249668861661
 30
0.0
 11
-103.4261969969978
 21
446.8708687760406
 31
0.0
  0
CIRCLE
  5
40E
330
1F
100
AcDbEntity
  8
躯体
  6
Continuous
 62
     2
370
     9
100
AcDbCircle
 10
-110.1761664794196
 20
436.8708222337884
 30
0.0
 40
4.249999652037749
  0
LINE
  5
40F
330
1F
100
AcDbEntity
  8
寸法
  6
Continuous
 62
     7
370
     9
100
AcDbLine
 10
-445.4301596530756
 20
462.4119124127796
 30
0.0
 11
-397.7000754597241
 21
462.4119124127796
 31
0.0
  0
TEXT
  5
410
330
1F
100
AcDbEntity
  8
寸法
  6
Continuous
 62
     2
370
     9
100
AcDbText
 10
-443.5919041577238
 20
466.6678200352459
 30
0.0
 40
12.192
  1
φ8.5
 41
1.1
  7
ＭＳ ゴシック
100
AcDbText
  0
LINE
  5
411
330
1F
100
AcDbEntity
  8
寸法
  6
Continuous
 62
     7
370
     9
100
AcDbLine
 10
-458.0513151172934
 20
440.5514298985281
 30
0.0
 11
-445.4301596530756
 21
462.4119124127796
 31
0.0
  0
LINE
  5
412
330
1F
100
AcDbEntity
  8
躯体
  6
JWW_CENTER2
 62
     2
370
     9
100
AcDbLine
 10
-460.1763149433125
 20
447.6513312104341
 30
0.0
 11
-460.1763149433125
 21
407.8709349956504
 31
0.0
  0
LINE
  5
413
330
1F
100
AcDbEntity
  8
寸法
  6
Continuous
 62
     7
370
     9
100
AcDbLine
 10
-458.0513151172934
 20
440.5514298985281
 30
0.0
 11
-451.9637008272064
 21
448.4849633014405
 31
0.0
  0
LINE
  5
414
330
1F
100
AcDbEntity
  8
寸法
  6
Continuous
 62
     7
370
     9
100
AcDbLine
 10
-458.0513151172934
 20
440.5514298985281
 30
0.0
 11
-454.2244807936429
 21
449.7902252236408
 31
0.0
  0
ARC
  5
415
330
1F
100
AcDbEntity
  8
躯体
  6
Continuous
 62
     2
370
     9
100
AcDbCircle
 10
-452.6763048100627
 20
415.8708731356948
 30
0.0
 40
1.999999824868206
100
AcDbArc
 50
90.0
 51
149.9994903964416
  0
ARC
  5
416
330
1F
100
AcDbEntity
  8
躯体
  6
Continuous
 62
     2
370
     9
100
AcDbCircle
 10
-467.6763250765623
 20
415.8708731356948
 30
0.0
 40
1.999999824868206
100
AcDbArc
 50
30.00050960355836
 51
90.0
  0
LINE
  5
417
330
1F
100
AcDbEntity
  8
躯体
  6
JWW_CENTER2
 62
     2
370
     9
100
AcDbLine
 10
-460.1763149433125
 20
436.8708222337884
 30
0.0
 11
-465.952390976621
 21
436.8708222337884
 31
0.0
  0
LINE
  5
418
330
1F
100
AcDbEntity
  8
躯体
  6
JWW_CENTER2
 62
     2
370
     9
100
AcDbLine
 10
-460.1763149433125
 20
436.8708222337884
 30
0.0
 11
-454.4002389100031
 21
436.8708222337884
 31
0.0
  0
LINE
  5
419
330
1F
100
AcDbEntity
  8
躯体
  6
Continuous
 62
     2
370
     9
100
AcDbLine
 10
-468.9262937341853
 20
417.8708824441453
 30
0.0
 11
-468.9262937341853
 21
446.8708687760406
 31
0.0
  0
LINE
  5
41A
330
1F
100
AcDbEntity
  8
躯体
  6
Continuous
 62
     2
370
     9
100
AcDbLine
 10
-460.1763149433125
 20
446.8708687760406
 30
0.0
 11
-468.9262937341853
 21
446.8708687760406
 31
0.0
  0
LINE
  5
41B
330
1F
100
AcDbEntity
  8
躯体
  6
Continuous
 62
     2
370
     9
100
AcDbLine
 10
-460.1763149433125
 20
446.8708687760406
 30
0.0
 11
-451.4263361524397
 21
446.8708687760406
 31
0.0
  0
LINE
  5
41C
330
1F
100
AcDbEntity
  8
躯体
  6
Continuous
 62
     2
370
     9
100
AcDbLine
 10
-451.4263361524397
 20
417.8708824441453
 30
0.0
 11
-451.4263361524397
 21
446.8708687760406
 31
0.0
  0
LINE
  5
41D
330
1F
100
AcDbEntity
  8
躯体
  6
Continuous
 62
     2
370
     9
100
AcDbLine
 10
-468.9262937341853
 20
417.8708824441453
 30
0.0
 11
-467.6763250765623
 21
417.8708824441453
 31
0.0
  0
LINE
  5
41E
330
1F
100
AcDbEntity
  8
躯体
  6
JWW_DASHED1
 62
     2
370
     9
100
AcDbLine
 10
-466.9262844257344
 20
417.7249668861661
 30
0.0
 11
-466.9262844257344
 21
446.8708687760406
 31
0.0
  0
LINE
  5
41F
330
1F
100
AcDbEntity
  8
躯体
  6
Continuous
 62
     2
370
     9
100
AcDbLine
 10
-451.4263361524397
 20
417.8708824441453
 30
0.0
 11
-452.6763048100627
 21
417.8708824441453
 31
0.0
  0
LINE
  5
420
330
1F
100
AcDbEntity
  8
躯体
  6
JWW_DASHED1
 62
     2
370
     9
100
AcDbLine
 10
-453.4263454608906
 20
417.7249668861661
 30
0.0
 11
-453.4263454608906
 21
446.8708687760406
 31
0.0
  0
CIRCLE
  5
421
330
1F
100
AcDbEntity
  8
躯体
  6
Continuous
 62
     2
370
     9
100
AcDbCircle
 10
-460.1763149433125
 20
436.8708222337884
 30
0.0
 40
4.249999652037749
  0
LINE
  5
422
330
1F
100
AcDbEntity
  8
建具
  6
Continuous
 62
     4
370
     9
100
AcDbLine
 10
-560.176314943313
 20
-133.1292435145072
 30
0.0
 11
-10.1762819513367
 21
-133.1292435145072
 31
0.0
  0
LINE
  5
423
330
1F
100
AcDbEntity
  8
建具
  6
Continuous
 62
     4
370
     9
100
AcDbLine
 10
-557.1763545336846
 20
-130.1292831048789
 30
0.0
 11
-13.17624236096503
 21
-130.1292831048789
 31
0.0
  0
LINE
  5
424
330
1F
100
AcDbEntity
  8
建具
  6
Continuous
 62
     4
370
     9
100
AcDbLine
 10
-560.176314943313
 20
416.8708884533982
 30
0.0
 11
-560.176314943313
 21
-133.1292435145072
 31
0.0
  0
LINE
  5
425
330
1F
100
AcDbEntity
  8
建具
  6
Continuous
 62
     4
370
     9
100
AcDbLine
 10
-560.176314943313
 20
416.8708884533982
 30
0.0
 11
-10.1762819513367
 21
416.8708884533982
 31
0.0
  0
LINE
  5
426
330
1F
100
AcDbEntity
  8
建具
  6
Continuous
 62
     4
370
     9
100
AcDbLine
 10
-10.1762819513367
 20
416.8708884533982
 30
0.0
 11
-10.1762819513367
 21
-133.1292435145072
 31
0.0
  0
LINE
  5
427
330
1F
100
AcDbEntity
  8
建具
  6
Continuous
 62
     4
370
     9
100
AcDbLine
 10
-13.17624236096503
 20
413.8709280437699
 30
0.0
 11
-13.17624236096503
 21
-130.1292831048789
 31
0.0
  0
LINE
  5
428
330
1F
100
AcDbEntity
  8
建具
  6
Continuous
 62
     4
370
     9
100
AcDbLine
 10
-557.1763545336846
 20
413.8709280437699
 30
0.0
 11
-557.1763545336846
 21
-130.1292831048789
 31
0.0
  0
LINE
  5
429
330
1F
100
AcDbEntity
  8
建具
  6
Continuous
 62
     4
370
     9
100
AcDbLine
 10
-557.1763545336846
 20
413.8709280437699
 30
0.0
 11
-13.17624236096503
 21
413.8709280437699
 31
0.0
  0
LINE
  5
42A
330
1F
100
AcDbEntity
  8
その他
  6
Continuous
 62
     7
370
     9
100
AcDbLine
 10
321.6615030993394
 20
-141.1292699080882
 30
0.0
 11
321.6615030993394
 21
-234.1294282695747
 31
0.0
  0
LINE
  5
42B
330
1F
100
AcDbEntity
  8
その他
  6
Continuous
 62
     7
370
     9
100
AcDbLine
 10
321.6615030993394
 20
-192.929411113747
 30
0.0
 11
333.5588056753531
 21
-191.3631170364666
 31
0.0
  0
LINE
  5
42C
330
1F
100
AcDbEntity
  8
その他
  6
Continuous
 62
     7
370
     9
100
AcDbLine
 10
321.6615030993394
 20
-192.929411113747
 30
0.0
 11
333.5588056753531
 21
-194.4957051910274
 31
0.0
  0
LINE
  5
42D
330
1F
100
AcDbEntity
  8
その他
  6
Continuous
 62
     7
370
     9
100
AcDbLine
 10
321.6615030993394
 20
-232.9294441057232
 30
0.0
 11
333.5588056753531
 21
-231.3631500284428
 31
0.0
  0
LINE
  5
42E
330
1F
100
AcDbEntity
  8
その他
  6
Continuous
 62
     7
370
     9
100
AcDbLine
 10
321.6615030993394
 20
-232.9294441057232
 30
0.0
 11
333.5588056753531
 21
-234.4957381830037
 31
0.0
  0
TEXT
  5
42F
330
1F
100
AcDbEntity
  8
その他
  6
Continuous
 62
     2
370
     9
100
AcDbText
 10
343.161552587304
 20
-188.6734045153516
 30
0.0
 40
12.192
  1
60
 41
1.0625
  7
ＭＳ ゴシック
100
AcDbText
  0
LINE
  5
430
330
1F
100
AcDbEntity
  8
寸法
  6
Continuous
 62
     7
370
     9
100
AcDbLine
 10
351.9391305803354
 20
416.8708884533983
 30
0.0
 11
345.9021927636124
 21
427.2417842515401
 31
0.0
  0
LINE
  5
431
330
1F
100
AcDbEntity
  8
寸法
  6
Continuous
 62
     7
370
     9
100
AcDbLine
 10
351.9391305803354
 20
416.8708884533983
 30
0.0
 11
343.4236375482408
 21
425.3259071928408
 31
0.0
  0
LINE
  5
432
330
1F
100
AcDbEntity
  8
建具
  6
Continuous
 62
     4
370
     9
100
AcDbLine
 10
321.6615030993391
 20
-130.1292831048789
 30
0.0
 11
321.6615030993391
 21
-133.1292435145072
 31
0.0
  0
LINE
  5
433
330
1F
100
AcDbEntity
  8
建具
  6
Continuous
 62
     4
370
     9
100
AcDbLine
 10
321.6615030993391
 20
413.8709280437698
 30
0.0
 11
321.6615030993391
 21
416.8708884533983
 31
0.0
  0
TEXT
  5
434
330
1F
100
AcDbEntity
  8
その他
  6
Continuous
 62
     2
370
   211
100
AcDbText
 10
471.4054635089675
 20
-156.629236876529
 30
0.0
 40
12.192
  1
30
 50
90.0
 41
1.0625
  7
ＭＳ ゴシック
100
AcDbText
  0
LINE
  5
435
330
1F
100
AcDbEntity
  8
その他
  6
Continuous
 62
     7
370
     9
100
AcDbLine
 10
478.8614635089675
 20
-163.1291906095167
 30
0.0
 11
396.1611929747614
 21
-163.1291906095167
 31
0.0
  0
LINE
  5
436
330
1F
100
AcDbEntity
  8
その他
  6
Continuous
 62
     7
370
     9
100
AcDbLine
 10
477.6614635089675
 20
-163.1291906095167
 30
0.0
 11
476.3562015867669
 21
-153.2147419957786
 31
0.0
  0
LINE
  5
437
330
1F
100
AcDbEntity
  8
その他
  6
Continuous
 62
     7
370
     9
100
AcDbLine
 10
477.6614635089675
 20
-163.1291906095167
 30
0.0
 11
478.966725431168
 21
-153.2147419957786
 31
0.0
  0
LINE
  5
438
330
1F
100
AcDbEntity
  8
その他
  6
Continuous
 62
     7
370
     9
100
AcDbLine
 10
477.6614635089675
 20
-133.1292831435414
 30
0.0
 11
476.3562015867669
 21
-143.0437317572795
 31
0.0
  0
LINE
  5
439
330
1F
100
AcDbEntity
  8
その他
  6
Continuous
 62
     7
370
     9
100
AcDbLine
 10
477.6614635089675
 20
-133.1292831435414
 30
0.0
 11
478.966725431168
 21
-143.0437317572795
 31
0.0
  0
LINE
  5
43A
330
1F
100
AcDbEntity
  8
その他
  6
Continuous
 62
     7
370
     9
100
AcDbLine
 10
477.6614635089675
 20
-133.1292831435414
 30
0.0
 11
477.6614635089675
 21
-163.1291906095167
 31
0.0
  0
TEXT
  5
43B
330
1F
100
AcDbEntity
  8
その他
  6
Continuous
 62
     2
370
   211
100
AcDbText
 10
471.4054635089675
 20
-116.6292303370479
 30
0.0
 40
12.192
  1
50
 50
89.99999999999993
 41
1.0625
  7
ＭＳ ゴシック
100
AcDbText
  0
LINE
  5
43C
330
1F
100
AcDbEntity
  8
その他
  6
Continuous
 62
     7
370
     9
100
AcDbLine
 10
478.8614635089675
 20
-133.1292831435414
 30
0.0
 11
392.6615030993391
 21
-133.1292831435414
 31
0.0
  0
LINE
  5
43D
330
1F
100
AcDbEntity
  8
その他
  6
Continuous
 62
     7
370
     9
100
AcDbLine
 10
477.6614635089675
 20
-133.1292831435414
 30
0.0
 11
476.3562015867669
 21
-123.2148345298033
 31
0.0
  0
LINE
  5
43E
330
1F
100
AcDbEntity
  8
その他
  6
Continuous
 62
     7
370
     9
100
AcDbLine
 10
477.6614635089675
 20
-133.1292831435414
 30
0.0
 11
478.966725431168
 21
-123.2148345298033
 31
0.0
  0
LINE
  5
43F
330
1F
100
AcDbEntity
  8
その他
  6
Continuous
 62
     7
370
     9
100
AcDbLine
 10
477.6614635089675
 20
-83.12917753055447
 30
0.0
 11
476.3562015867672
 21
-93.04362614429257
 31
0.0
  0
LINE
  5
440
330
1F
100
AcDbEntity
  8
その他
  6
Continuous
 62
     7
370
     9
100
AcDbLine
 10
477.6614635089675
 20
-83.12917753055447
 30
0.0
 11
478.9667254311682
 21
-93.04362614429257
 31
0.0
  0
LINE
  5
441
330
1F
100
AcDbEntity
  8
その他
  6
Continuous
 62
     7
370
     9
100
AcDbLine
 10
477.6614635089675
 20
-83.12917753055447
 30
0.0
 11
477.6614635089675
 21
-133.1292831435414
 31
0.0
  0
TEXT
  5
442
330
1F
100
AcDbEntity
  8
その他
  6
Continuous
 62
     2
370
   211
100
AcDbText
 10
471.4054635089675
 20
128.8708224694455
 30
0.0
 40
12.192
  1
450
 50
90.0
 41
1.083333333333333
  7
ＭＳ ゴシック
100
AcDbText
  0
LINE
  5
443
330
1F
100
AcDbEntity
  8
その他
  6
Continuous
 62
     7
370
     9
100
AcDbLine
 10
477.6614635089675
 20
-83.12917753055447
 30
0.0
 11
476.3562015867672
 21
-73.21472891681637
 31
0.0
  0
LINE
  5
444
330
1F
100
AcDbEntity
  8
その他
  6
Continuous
 62
     7
370
     9
100
AcDbLine
 10
477.6614635089675
 20
-83.12917753055447
 30
0.0
 11
478.9667254311682
 21
-73.21472891681637
 31
0.0
  0
LINE
  5
445
330
1F
100
AcDbEntity
  8
その他
  6
Continuous
 62
     7
370
     9
100
AcDbLine
 10
477.6614635089675
 20
366.8708224694456
 30
0.0
 11
476.3562015867672
 21
356.9563738557074
 31
0.0
  0
LINE
  5
446
330
1F
100
AcDbEntity
  8
その他
  6
Continuous
 62
     7
370
     9
100
AcDbLine
 10
477.6614635089675
 20
366.8708224694456
 30
0.0
 11
478.9667254311682
 21
356.9563738557074
 31
0.0
  0
LINE
  5
447
330
1F
100
AcDbEntity
  8
その他
  6
Continuous
 62
     7
370
     9
100
AcDbLine
 10
477.6614635089675
 20
366.8708224694456
 30
0.0
 11
477.6614635089675
 21
-83.12917753055447
 31
0.0
  0
TEXT
  5
448
330
1F
100
AcDbEntity
  8
その他
  6
Continuous
 62
     2
370
   211
100
AcDbText
 10
471.4054635089675
 20
383.3708752759389
 30
0.0
 40
12.192
  1
50
 50
90.0
 41
1.0625
  7
ＭＳ ゴシック
100
AcDbText
  0
LINE
  5
449
330
1F
100
AcDbEntity
  8
その他
  6
Continuous
 62
     7
370
     9
100
AcDbLine
 10
478.8614635089675
 20
366.8708224694456
 30
0.0
 11
395.6614635089675
 21
366.8708224694456
 31
0.0
  0
LINE
  5
44A
330
1F
100
AcDbEntity
  8
その他
  6
Continuous
 62
     7
370
     9
100
AcDbLine
 10
477.6614635089675
 20
366.8708224694456
 30
0.0
 11
476.3562015867672
 21
376.7852710831836
 31
0.0
  0
LINE
  5
44B
330
1F
100
AcDbEntity
  8
その他
  6
Continuous
 62
     7
370
     9
100
AcDbLine
 10
477.6614635089675
 20
366.8708224694456
 30
0.0
 11
478.9667254311682
 21
376.7852710831836
 31
0.0
  0
LINE
  5
44C
330
1F
100
AcDbEntity
  8
その他
  6
Continuous
 62
     7
370
     9
100
AcDbLine
 10
477.6614635089675
 20
416.8709280824322
 30
0.0
 11
476.3562015867672
 21
406.9564794686942
 31
0.0
  0
LINE
  5
44D
330
1F
100
AcDbEntity
  8
その他
  6
Continuous
 62
     7
370
     9
100
AcDbLine
 10
477.6614635089675
 20
416.8709280824322
 30
0.0
 11
478.9667254311682
 21
406.9564794686942
 31
0.0
  0
LINE
  5
44E
330
1F
100
AcDbEntity
  8
その他
  6
Continuous
 62
     7
370
     9
100
AcDbLine
 10
477.6614635089675
 20
416.8709280824322
 30
0.0
 11
477.6614635089675
 21
366.8708224694456
 31
0.0
  0
TEXT
  5
44F
330
1F
100
AcDbEntity
  8
その他
  6
Continuous
 62
     2
370
   211
100
AcDbText
 10
471.4054635089675
 20
423.3708818154198
 30
0.0
 40
12.192
  1
30
 50
90.0
 41
1.0625
  7
ＭＳ ゴシック
100
AcDbText
  0
LINE
  5
450
330
1F
100
AcDbEntity
  8
その他
  6
Continuous
 62
     7
370
     9
100
AcDbLine
 10
478.8614635089675
 20
416.8709280824322
 30
0.0
 11
392.6615030993391
 21
416.8709280824322
 31
0.0
  0
LINE
  5
451
330
1F
100
AcDbEntity
  8
その他
  6
Continuous
 62
     7
370
     9
100
AcDbLine
 10
478.8614635089675
 20
446.8708355484073
 30
0.0
 11
396.1611929747614
 21
446.8708355484073
 31
0.0
  0
LINE
  5
452
330
1F
100
AcDbEntity
  8
その他
  6
Continuous
 62
     7
370
     9
100
AcDbLine
 10
477.6614635089675
 20
416.8709280824322
 30
0.0
 11
476.3562015867672
 21
426.7853766961704
 31
0.0
  0
LINE
  5
453
330
1F
100
AcDbEntity
  8
その他
  6
Continuous
 62
     7
370
     9
100
AcDbLine
 10
477.6614635089675
 20
416.8709280824322
 30
0.0
 11
478.9667254311682
 21
426.7853766961704
 31
0.0
  0
LINE
  5
454
330
1F
100
AcDbEntity
  8
その他
  6
Continuous
 62
     7
370
     9
100
AcDbLine
 10
477.6614635089675
 20
446.8708355484073
 30
0.0
 11
476.3562015867672
 21
436.9563869346691
 31
0.0
  0
LINE
  5
455
330
1F
100
AcDbEntity
  8
その他
  6
Continuous
 62
     7
370
     9
100
AcDbLine
 10
477.6614635089675
 20
446.8708355484073
 30
0.0
 11
478.9667254311682
 21
436.9563869346691
 31
0.0
  0
LINE
  5
456
330
1F
100
AcDbEntity
  8
その他
  6
Continuous
 62
     7
370
     9
100
AcDbLine
 10
477.6614635089675
 20
446.8708355484073
 30
0.0
 11
477.6614635089675
 21
416.8709280824322
 31
0.0
  0
LINE
  5
457
330
1F
100
AcDbEntity
  8
躯体
  6
Continuous
 62
     2
370
     9
100
AcDbLine
 10
388.1611929747614
 20
-163.1291906095167
 30
0.0
 11
388.1611929747614
 21
-104.1291637446216
 31
0.0
  0
LINE
  5
458
330
1F
100
AcDbEntity
  8
躯体
  6
Continuous
 62
     2
370
     9
100
AcDbLine
 10
387.6614635089677
 20
-124.1292432788505
 30
0.0
 11
387.6614635089677
 21
-104.1291772948976
 31
0.0
  0
LINE
  5
459
330
1F
100
AcDbEntity
  8
躯体
  6
Continuous
 62
     2
370
     9
100
AcDbLine
 10
392.661189263164
 20
-111.3791393541247
 30
0.0
 11
392.661189263164
 21
-116.8791574997118
 31
0.0
  0
LINE
  5
45A
330
1F
100
AcDbEntity
  8
躯体
  6
Continuous
 62
     2
370
     9
100
AcDbLine
 10
392.661189263164
 20
-111.3791393541247
 30
0.0
 11
392.1614597973703
 21
-111.3791393541247
 31
0.0
  0
LINE
  5
45B
330
1F
100
AcDbEntity
  8
躯体
  6
Continuous
 62
     2
370
     9
100
AcDbLine
 10
392.661189263164
 20
-111.3791393541247
 30
0.0
 11
394.1610704920495
 21
-113.1292317316589
 31
0.0
  0
LINE
  5
45C
330
1F
100
AcDbEntity
  8
躯体
  6
Continuous
 62
     2
370
     9
100
AcDbLine
 10
394.1610704920495
 20
-113.1292317316589
 30
0.0
 11
394.1610704920495
 21
-115.1290156342134
 31
0.0
  0
LINE
  5
45D
330
1F
100
AcDbEntity
  8
躯体
  6
Continuous
 62
     2
370
     9
100
AcDbLine
 10
394.1610704920495
 20
-115.1290156342134
 30
0.0
 11
392.661189263164
 21
-116.8791574997118
 31
0.0
  0
LINE
  5
45E
330
1F
100
AcDbEntity
  8
躯体
  6
Continuous
 62
     2
370
     9
100
AcDbLine
 10
392.661189263164
 20
-116.8791574997118
 30
0.0
 11
392.1614597973703
 21
-116.8791574997118
 31
0.0
  0
LINE
  5
45F
330
1F
100
AcDbEntity
  8
躯体
  6
Continuous
 62
     2
370
     9
100
AcDbLine
 10
387.9610265302408
 20
-110.1290733701722
 30
0.0
 11
387.9610265302408
 21
-114.1292102868738
 31
0.0
  0
LINE
  5
460
330
1F
100
AcDbEntity
  8
躯体
  6
Continuous
 62
     2
370
     9
100
AcDbLine
 10
387.9610265302408
 20
-118.1289512998597
 30
0.0
 11
387.9610265302408
 21
-114.1292102868738
 31
0.0
  0
LINE
  5
461
330
1F
100
AcDbEntity
  8
躯体
  6
Continuous
 62
     2
370
     9
100
AcDbLine
 10
388.1611929747614
 20
-118.1289512998597
 30
0.0
 11
387.9610265302408
 21
-118.1289512998597
 31
0.0
  0
LINE
  5
462
330
1F
100
AcDbEntity
  8
躯体
  6
Continuous
 62
     2
370
     9
100
AcDbLine
 10
388.1611929747614
 20
-110.1290733701722
 30
0.0
 11
387.9610265302408
 21
-110.1290733701722
 31
0.0
  0
LINE
  5
463
330
1F
100
AcDbEntity
  8
躯体
  6
Continuous
 62
     2
370
     9
100
AcDbLine
 10
387.6614635089677
 20
-104.1291772948976
 30
0.0
 11
392.1614597973703
 21
-104.1291772948976
 31
0.0
  0
LINE
  5
464
330
1F
100
AcDbEntity
  8
躯体
  6
Continuous
 62
     2
370
     9
100
AcDbLine
 10
390.1614965009439
 20
-105.379218534868
 30
0.0
 11
390.1614965009439
 21
-104.1291772948976
 31
0.0
  0
LINE
  5
465
330
1F
100
AcDbEntity
  8
躯体
  6
Continuous
 62
     2
370
     9
100
AcDbLine
 10
390.1614965009439
 20
-122.8792020388801
 30
0.0
 11
390.1614965009439
 21
-124.1292432788505
 31
0.0
  0
LINE
  5
466
330
1F
100
AcDbEntity
  8
躯体
  6
JWW_DASHED1
 62
     2
370
     9
100
AcDbLine
 10
390.1612022832119
 20
-157.3791762344413
 30
0.0
 11
388.1611929747614
 21
-157.3791762344413
 31
0.0
  0
LINE
  5
467
330
1F
100
AcDbEntity
  8
躯体
  6
JWW_DASHED1
 62
     2
370
     9
100
AcDbLine
 10
390.1612022832119
 20
-148.879210993845
 30
0.0
 11
388.1611929747614
 21
-148.879210993845
 31
0.0
  0
LINE
  5
468
330
1F
100
AcDbEntity
  8
躯体
  6
Continuous
 62
     2
370
     9
100
AcDbLine
 10
390.1612022832119
 20
-130.1291856607205
 30
0.0
 11
388.1611929747614
 21
-130.1291856607205
 31
0.0
  0
LINE
  5
469
330
1F
100
AcDbEntity
  8
躯体
  6
JWW_CENTER2
 62
     2
370
     9
100
AcDbLine
 10
392.1612115916623
 20
-153.1291440672645
 30
0.0
 11
386.1612332131899
 21
-153.1291440672645
 31
0.0
  0
LINE
  5
46A
330
1F
100
AcDbEntity
  8
躯体
  6
JWW_DASHED1
 62
     2
370
     9
100
AcDbLine
 10
390.1612022832119
 20
-163.124186374761
 30
0.0
 11
390.1612022832119
 21
-134.134208512377
 31
0.0
  0
LINE
  5
46B
330
1F
100
AcDbEntity
  8
躯体
  6
Continuous
 62
     2
370
     9
100
AcDbLine
 10
390.9611861878407
 20
-163.1291906095167
 30
0.0
 11
388.1611929747614
 21
-163.1291906095167
 31
0.0
  0
LINE
  5
46C
330
1F
100
AcDbEntity
  8
躯体
  6
Continuous
 62
     2
370
     9
100
AcDbLine
 10
390.9611861878407
 20
-134.1292042776213
 30
0.0
 11
388.1611929747614
 21
-134.1292042776213
 31
0.0
  0
LINE
  5
46D
330
1F
100
AcDbEntity
  8
躯体
  6
Continuous
 62
     2
370
     9
100
AcDbLine
 10
393.9612001505161
 20
-137.1292182402968
 30
0.0
 11
393.9612001505161
 21
-160.1292261937197
 31
0.0
  0
ARC
  5
46E
330
1F
100
AcDbEntity
  8
躯体
  6
Continuous
 62
     2
370
     9
100
AcDbCircle
 10
390.9611861878407
 20
-160.1292261937197
 30
0.0
 40
3.000000414701042
100
AcDbArc
 50
270.0
 51
0.0
  0
ARC
  5
46F
330
1F
100
AcDbEntity
  8
躯体
  6
Continuous
 62
     2
370
     9
100
AcDbCircle
 10
390.9611861878407
 20
-137.1292182402968
 30
0.0
 40
3.000000414701042
100
AcDbArc
 50
0.0
 51
90.0
  0
LINE
  5
470
330
1F
100
AcDbEntity
  8
躯体
  6
Continuous
 62
     2
370
     9
100
AcDbLine
 10
390.1612022832119
 20
-134.134208512377
 30
0.0
 11
390.1612022832119
 21
-104.1291637446216
 31
0.0
  0
LINE
  5
471
330
1F
100
AcDbEntity
  8
躯体
  6
Continuous
 62
     2
370
     9
100
AcDbLine
 10
388.1611929747614
 20
-104.1291637446216
 30
0.0
 11
390.1612022832119
 21
-104.1291637446216
 31
0.0
  0
LINE
  5
472
330
1F
100
AcDbEntity
  8
躯体
  6
JWW_DASHED1
 62
     2
370
     9
100
AcDbLine
 10
389.9611815336152
 20
-111.8791874281474
 30
0.0
 11
388.1611929747614
 21
-110.1292907637308
 31
0.0
  0
LINE
  5
473
330
1F
100
AcDbEntity
  8
躯体
  6
JWW_DASHED1
 62
     2
370
     9
100
AcDbLine
 10
392.1612115916623
 20
-111.8791874281474
 30
0.0
 11
389.9611815336152
 21
-111.8791874281474
 31
0.0
  0
LINE
  5
474
330
1F
100
AcDbEntity
  8
躯体
  6
JWW_DASHED1
 62
     2
370
     9
100
AcDbLine
 10
389.9611815336152
 20
-116.3791835987218
 30
0.0
 11
389.9611815336152
 21
-111.8791874281474
 31
0.0
  0
LINE
  5
475
330
1F
100
AcDbEntity
  8
躯体
  6
JWW_DASHED1
 62
     2
370
     9
100
AcDbLine
 10
389.9611815336152
 20
-116.3791835987218
 30
0.0
 11
392.1612115916623
 21
-116.3791835987218
 31
0.0
  0
LINE
  5
476
330
1F
100
AcDbEntity
  8
躯体
  6
JWW_DASHED1
 62
     2
370
     9
100
AcDbLine
 10
389.9611815336152
 20
-116.3791835987218
 30
0.0
 11
388.1611929747614
 21
-118.1291298100173
 31
0.0
  0
LINE
  5
477
330
1F
100
AcDbEntity
  8
躯体
  6
Continuous
 62
     2
370
     9
100
AcDbLine
 10
392.1614597973703
 20
-124.1292432788505
 30
0.0
 11
392.1614597973703
 21
-104.1291772948976
 31
0.0
  0
LINE
  5
478
330
1F
100
AcDbEntity
  8
躯体
  6
Continuous
 62
     2
370
     9
100
AcDbLine
 10
387.6614635089677
 20
-124.1292432788505
 30
0.0
 11
388.1611929747614
 21
-124.1292432788505
 31
0.0
  0
LINE
  5
479
330
1F
100
AcDbEntity
  8
躯体
  6
Continuous
 62
     2
370
     9
100
AcDbLine
 10
390.1612022832119
 20
-124.1292432788505
 30
0.0
 11
392.1614597973703
 21
-124.1292432788505
 31
0.0
  0
LINE
  5
47A
330
1F
100
AcDbEntity
  8
躯体
  6
JWW_CENTER2
 62
     2
370
     9
100
AcDbLine
 10
395.7092643463038
 20
-114.1292102868738
 30
0.0
 11
386.6248886039843
 21
-114.1292102868738
 31
0.0
  0
LINE
  5
47B
330
1F
100
AcDbEntity
  8
建具
  6
Continuous
 62
     4
370
     9
100
AcDbLine
 10
387.6614635089675
 20
-130.1292831048789
 30
0.0
 11
387.6614635089675
 21
-83.1291775305545
 31
0.0
  0
ARC
  5
47C
330
1F
100
AcDbEntity
  8
建具
  6
Continuous
 62
     4
370
     9
100
AcDbCircle
 10
384.6615030993391
 20
-130.1292831048789
 30
0.0
 40
3.000000038662472
100
AcDbArc
 50
270.0
 51
0.0
  0
LINE
  5
47D
330
1F
100
AcDbEntity
  8
建具
  6
Continuous
 62
     4
370
     9
100
AcDbLine
 10
387.6614635089675
 20
-83.1291775305545
 30
0.0
 11
384.661701051197
 21
-83.1291775305545
 31
0.0
  0
LINE
  5
47E
330
1F
100
AcDbEntity
  8
建具
  6
Continuous
 62
     4
370
     9
100
AcDbLine
 10
384.6615030993391
 20
-133.1292435145072
 30
0.0
 11
321.6615030993391
 21
-133.1292435145072
 31
0.0
  0
LINE
  5
47F
330
1F
100
AcDbEntity
  8
建具
  6
Continuous
 62
     4
370
     9
100
AcDbLine
 10
384.6615030993391
 20
-130.1292831048789
 30
0.0
 11
384.6615030993391
 21
-83.1291775305545
 31
0.0
  0
LINE
  5
480
330
1F
100
AcDbEntity
  8
建具
  6
Continuous
 62
     4
370
     9
100
AcDbLine
 10
384.6615030993391
 20
-130.1292831048789
 30
0.0
 11
321.6615030993391
 21
-130.1292831048789
 31
0.0
  0
LINE
  5
481
330
1F
100
AcDbEntity
  8
その他
  6
Continuous
 62
     7
370
     9
100
AcDbLine
 10
394.1610704920492
 20
-234.1294441057233
 30
0.0
 11
394.1610704920492
 21
-122.1292102868738
 31
0.0
  0
LINE
  5
482
330
1F
100
AcDbEntity
  8
その他
  6
Continuous
 62
     7
370
     9
100
AcDbLine
 10
394.1610704920492
 20
-232.9294441057232
 30
0.0
 11
404.0755191057876
 21
-231.6241821835227
 31
0.0
  0
LINE
  5
483
330
1F
100
AcDbEntity
  8
その他
  6
Continuous
 62
     7
370
     9
100
AcDbLine
 10
394.1610704920492
 20
-232.9294441057232
 30
0.0
 11
404.0755191057876
 21
-234.2347060279238
 31
0.0
  0
LINE
  5
484
330
1F
100
AcDbEntity
  8
その他
  6
Continuous
 62
     7
370
     9
100
AcDbLine
 10
387.6614635089675
 20
-232.9294441057232
 30
0.0
 11
377.7470148952295
 21
-231.6241821835227
 31
0.0
  0
LINE
  5
485
330
1F
100
AcDbEntity
  8
その他
  6
Continuous
 62
     7
370
     9
100
AcDbLine
 10
387.6614635089675
 20
-232.9294441057232
 30
0.0
 11
377.7470148952295
 21
-234.2347060279238
 31
0.0
  0
LINE
  5
486
330
1F
100
AcDbEntity
  8
その他
  6
Continuous
 62
     7
370
     9
100
AcDbLine
 10
387.6614635089675
 20
-232.9294441057232
 30
0.0
 11
394.1610704920492
 21
-232.9294441057232
 31
0.0
  0
LINE
  5
487
330
1F
100
AcDbEntity
  8
その他
  6
Continuous
 62
     7
370
     9
100
AcDbLine
 10
387.6614635089675
 20
-167.165176488993
 30
0.0
 11
387.6614635089675
 21
-234.1294282695747
 31
0.0
  0
LINE
  5
488
330
1F
100
AcDbEntity
  8
その他
  6
Continuous
 62
     7
370
     9
100
AcDbLine
 10
387.6614635089675
 20
-232.9294441057232
 30
0.0
 11
375.7641609329537
 21
-234.4957381830037
 31
0.0
  0
LINE
  5
489
330
1F
100
AcDbEntity
  8
その他
  6
Continuous
 62
     7
370
     9
100
AcDbLine
 10
387.6614635089675
 20
-232.9294441057232
 30
0.0
 11
375.7641609329537
 21
-231.3631500284428
 31
0.0
  0
TEXT
  5
48A
330
1F
100
AcDbEntity
  8
その他
  6
Continuous
 62
     2
370
   211
100
AcDbText
 10
399.5335538003012
 20
-228.2734441057231
 30
0.0
 40
12.192
  1
6.5
 41
1.083333333333333
  7
ＭＳ ゴシック
100
AcDbText
  0
LINE
  5
48B
330
1F
100
AcDbEntity
  8
その他
  6
Continuous
 62
     7
370
     9
100
AcDbLine
 10
394.1610704920492
 20
-232.9294441057232
 30
0.0
 11
426.6192761529162
 21
-232.9294441057232
 31
0.0
  0
LINE
  5
48C
330
1F
100
AcDbEntity
  8
その他
  6
Continuous
 62
     7
370
     9
100
AcDbLine
 10
321.6615030993394
 20
-192.929411113747
 30
0.0
 11
381.6615030993394
 21
-192.929411113747
 31
0.0
  0
LINE
  5
48D
330
1F
100
AcDbEntity
  8
その他
  6
Continuous
 62
     7
370
     9
100
AcDbLine
 10
381.6615030993394
 20
-138.1293094984599
 30
0.0
 11
381.6615030993394
 21
-194.1293952775982
 31
0.0
  0
LINE
  5
48E
330
1F
100
AcDbEntity
  8
その他
  6
Continuous
 62
     7
370
     9
100
AcDbLine
 10
381.6615030993394
 20
-192.929411113747
 30
0.0
 11
369.7642005233261
 21
-191.3631170364666
 31
0.0
  0
LINE
  5
48F
330
1F
100
AcDbEntity
  8
その他
  6
Continuous
 62
     7
370
     9
100
AcDbLine
 10
381.6615030993394
 20
-192.929411113747
 30
0.0
 11
369.7642005233261
 21
-194.4957051910274
 31
0.0
  0
LINE
  5
490
330
1F
100
AcDbEntity
  8
寸法
  6
Continuous
 62
     7
370
     9
100
AcDbLine
 10
409.3796841973769
 20
484.3716779270241
 30
0.0
 11
390.1612022832119
 21
446.8658313136516
 31
0.0
  0
LINE
  5
491
330
1F
100
AcDbEntity
  8
寸法
  6
Continuous
 62
     7
370
     9
100
AcDbLine
 10
390.1612022832119
 20
446.8658313136516
 30
0.0
 11
396.9807427709652
 21
456.7397689720131
 31
0.0
  0
LINE
  5
492
330
1F
100
AcDbEntity
  8
寸法
  6
Continuous
 62
     7
370
     9
100
AcDbLine
 10
390.1612022832119
 20
446.8658313136516
 30
0.0
 11
394.1927888013706
 21
458.1682885560502
 31
0.0
  0
LINE
  5
493
330
1F
100
AcDbEntity
  8
躯体
  6
JWW_CENTER2
 62
     2
370
     9
100
AcDbLine
 10
392.1612115916623
 20
436.8707890061555
 30
0.0
 11
386.1612332131899
 21
436.8707890061555
 31
0.0
  0
LINE
  5
494
330
1F
100
AcDbEntity
  8
躯体
  6
Continuous
 62
     2
370
     9
100
AcDbLine
 10
388.1611929747614
 20
446.8708355484073
 30
0.0
 11
388.1611929747614
 21
387.8708086835127
 31
0.0
  0
LINE
  5
495
330
1F
100
AcDbEntity
  8
躯体
  6
Continuous
 62
     2
370
     9
100
AcDbLine
 10
387.6614635089677
 20
407.8708882177411
 30
0.0
 11
387.6614635089677
 21
387.8708222337887
 31
0.0
  0
LINE
  5
496
330
1F
100
AcDbEntity
  8
躯体
  6
Continuous
 62
     2
370
     9
100
AcDbLine
 10
392.661189263164
 20
395.1207842930157
 30
0.0
 11
392.661189263164
 21
400.6208024386028
 31
0.0
  0
LINE
  5
497
330
1F
100
AcDbEntity
  8
躯体
  6
Continuous
 62
     2
370
     9
100
AcDbLine
 10
392.661189263164
 20
395.1207842930157
 30
0.0
 11
392.1614597973703
 21
395.1207842930157
 31
0.0
  0
LINE
  5
498
330
1F
100
AcDbEntity
  8
躯体
  6
Continuous
 62
     2
370
     9
100
AcDbLine
 10
392.661189263164
 20
395.1207842930157
 30
0.0
 11
394.1610704920495
 21
396.8708766705495
 31
0.0
  0
LINE
  5
499
330
1F
100
AcDbEntity
  8
躯体
  6
Continuous
 62
     2
370
     9
100
AcDbLine
 10
394.1610704920495
 20
396.8708766705495
 30
0.0
 11
394.1610704920495
 21
398.8706605731045
 31
0.0
  0
LINE
  5
49A
330
1F
100
AcDbEntity
  8
躯体
  6
Continuous
 62
     2
370
     9
100
AcDbLine
 10
394.1610704920495
 20
398.8706605731045
 30
0.0
 11
392.661189263164
 21
400.6208024386028
 31
0.0
  0
LINE
  5
49B
330
1F
100
AcDbEntity
  8
躯体
  6
Continuous
 62
     2
370
     9
100
AcDbLine
 10
392.661189263164
 20
400.6208024386028
 30
0.0
 11
392.1614597973703
 21
400.6208024386028
 31
0.0
  0
LINE
  5
49C
330
1F
100
AcDbEntity
  8
躯体
  6
Continuous
 62
     2
370
     9
100
AcDbLine
 10
387.9610265302408
 20
393.8707183090632
 30
0.0
 11
387.9610265302408
 21
397.8708552257649
 31
0.0
  0
LINE
  5
49D
330
1F
100
AcDbEntity
  8
躯体
  6
Continuous
 62
     2
370
     9
100
AcDbLine
 10
387.9610265302408
 20
401.8705962387507
 30
0.0
 11
387.9610265302408
 21
397.8708552257649
 31
0.0
  0
LINE
  5
49E
330
1F
100
AcDbEntity
  8
躯体
  6
Continuous
 62
     2
370
     9
100
AcDbLine
 10
388.1611929747614
 20
401.8705962387507
 30
0.0
 11
387.9610265302408
 21
401.8705962387507
 31
0.0
  0
LINE
  5
49F
330
1F
100
AcDbEntity
  8
躯体
  6
Continuous
 62
     2
370
     9
100
AcDbLine
 10
388.1611929747614
 20
393.8707183090632
 30
0.0
 11
387.9610265302408
 21
393.8707183090632
 31
0.0
  0
LINE
  5
4A0
330
1F
100
AcDbEntity
  8
躯体
  6
Continuous
 62
     2
370
     9
100
AcDbLine
 10
387.6614635089677
 20
387.8708222337887
 30
0.0
 11
392.1614597973703
 21
387.8708222337887
 31
0.0
  0
LINE
  5
4A1
330
1F
100
AcDbEntity
  8
躯体
  6
Continuous
 62
     2
370
     9
100
AcDbLine
 10
390.1614965009439
 20
389.1208634737591
 30
0.0
 11
390.1614965009439
 21
387.8708222337887
 31
0.0
  0
LINE
  5
4A2
330
1F
100
AcDbEntity
  8
躯体
  6
Continuous
 62
     2
370
     9
100
AcDbLine
 10
390.1614965009439
 20
406.6208469777707
 30
0.0
 11
390.1614965009439
 21
407.8708882177411
 31
0.0
  0
LINE
  5
4A3
330
1F
100
AcDbEntity
  8
躯体
  6
JWW_CENTER2
 62
     2
370
     9
100
AcDbLine
 10
395.7092643463038
 20
397.8708552257649
 30
0.0
 11
386.6248886039843
 21
397.8708552257649
 31
0.0
  0
LINE
  5
4A4
330
1F
100
AcDbEntity
  8
躯体
  6
JWW_DASHED1
 62
     2
370
     9
100
AcDbLine
 10
390.1612022832119
 20
441.1208211733324
 30
0.0
 11
388.1611929747614
 21
441.1208211733324
 31
0.0
  0
LINE
  5
4A5
330
1F
100
AcDbEntity
  8
躯体
  6
JWW_DASHED1
 62
     2
370
     9
100
AcDbLine
 10
390.1612022832119
 20
432.6208559327356
 30
0.0
 11
388.1611929747614
 21
432.6208559327356
 31
0.0
  0
LINE
  5
4A6
330
1F
100
AcDbEntity
  8
躯体
  6
Continuous
 62
     2
370
     9
100
AcDbLine
 10
390.1612022832119
 20
413.8708305996111
 30
0.0
 11
388.1611929747614
 21
413.8708305996111
 31
0.0
  0
LINE
  5
4A7
330
1F
100
AcDbEntity
  8
躯体
  6
JWW_DASHED1
 62
     2
370
     9
100
AcDbLine
 10
390.1612022832119
 20
446.8658313136516
 30
0.0
 11
390.1612022832119
 21
417.8758534512676
 31
0.0
  0
LINE
  5
4A8
330
1F
100
AcDbEntity
  8
躯体
  6
Continuous
 62
     2
370
     9
100
AcDbLine
 10
390.9611861878407
 20
446.8708355484073
 30
0.0
 11
388.1611929747614
 21
446.8708355484073
 31
0.0
  0
LINE
  5
4A9
330
1F
100
AcDbEntity
  8
躯体
  6
Continuous
 62
     2
370
     9
100
AcDbLine
 10
390.9611861878407
 20
417.8708492165119
 30
0.0
 11
388.1611929747614
 21
417.8708492165119
 31
0.0
  0
LINE
  5
4AA
330
1F
100
AcDbEntity
  8
躯体
  6
Continuous
 62
     2
370
     9
100
AcDbLine
 10
393.9612001505161
 20
420.8708631791874
 30
0.0
 11
393.9612001505161
 21
443.8708711326103
 31
0.0
  0
ARC
  5
4AB
330
1F
100
AcDbEntity
  8
躯体
  6
Continuous
 62
     2
370
     9
100
AcDbCircle
 10
390.9611861878407
 20
443.8708711326103
 30
0.0
 40
3.000000414701042
100
AcDbArc
 50
0.0
 51
90.0
  0
ARC
  5
4AC
330
1F
100
AcDbEntity
  8
躯体
  6
Continuous
 62
     2
370
     9
100
AcDbCircle
 10
390.9611861878407
 20
420.8708631791874
 30
0.0
 40
3.000000414701042
100
AcDbArc
 50
270.0
 51
0.0
  0
LINE
  5
4AD
330
1F
100
AcDbEntity
  8
躯体
  6
Continuous
 62
     2
370
     9
100
AcDbLine
 10
390.1612022832119
 20
417.8758534512676
 30
0.0
 11
390.1612022832119
 21
387.8708086835127
 31
0.0
  0
LINE
  5
4AE
330
1F
100
AcDbEntity
  8
躯体
  6
Continuous
 62
     2
370
     9
100
AcDbLine
 10
388.1611929747614
 20
387.8708086835127
 30
0.0
 11
390.1612022832119
 21
387.8708086835127
 31
0.0
  0
LINE
  5
4AF
330
1F
100
AcDbEntity
  8
躯体
  6
JWW_DASHED1
 62
     2
370
     9
100
AcDbLine
 10
389.9611815336152
 20
395.6208323670385
 30
0.0
 11
388.1611929747614
 21
393.8709357026214
 31
0.0
  0
LINE
  5
4B0
330
1F
100
AcDbEntity
  8
躯体
  6
JWW_DASHED1
 62
     2
370
     9
100
AcDbLine
 10
392.1612115916623
 20
395.6208323670385
 30
0.0
 11
389.9611815336152
 21
395.6208323670385
 31
0.0
  0
LINE
  5
4B1
330
1F
100
AcDbEntity
  8
躯体
  6
JWW_DASHED1
 62
     2
370
     9
100
AcDbLine
 10
389.9611815336152
 20
400.1208285376129
 30
0.0
 11
389.9611815336152
 21
395.6208323670385
 31
0.0
  0
LINE
  5
4B2
330
1F
100
AcDbEntity
  8
躯体
  6
JWW_DASHED1
 62
     2
370
     9
100
AcDbLine
 10
389.9611815336152
 20
400.1208285376129
 30
0.0
 11
392.1612115916623
 21
400.1208285376129
 31
0.0
  0
LINE
  5
4B3
330
1F
100
AcDbEntity
  8
躯体
  6
JWW_DASHED1
 62
     2
370
     9
100
AcDbLine
 10
389.9611815336152
 20
400.1208285376129
 30
0.0
 11
388.1611929747614
 21
401.8707747489084
 31
0.0
  0
LINE
  5
4B4
330
1F
100
AcDbEntity
  8
躯体
  6
Continuous
 62
     2
370
     9
100
AcDbLine
 10
392.1614597973703
 20
407.8708882177411
 30
0.0
 11
392.1614597973703
 21
387.8708222337887
 31
0.0
  0
LINE
  5
4B5
330
1F
100
AcDbEntity
  8
躯体
  6
Continuous
 62
     2
370
     9
100
AcDbLine
 10
387.6614635089677
 20
407.8708882177411
 30
0.0
 11
388.1611929747614
 21
407.8708882177411
 31
0.0
  0
LINE
  5
4B6
330
1F
100
AcDbEntity
  8
躯体
  6
Continuous
 62
     2
370
     9
100
AcDbLine
 10
390.1612022832119
 20
407.8708882177411
 30
0.0
 11
392.1614597973703
 21
407.8708882177411
 31
0.0
  0
ARC
  5
4B7
330
1F
100
AcDbEntity
  8
建具
  6
Continuous
 62
     4
370
     9
100
AcDbCircle
 10
384.6615030993391
 20
413.8709280437698
 30
0.0
 40
3.000000038662472
100
AcDbArc
 50
0.0
 51
90.0
  0
LINE
  5
4B8
330
1F
100
AcDbEntity
  8
建具
  6
Continuous
 62
     4
370
     9
100
AcDbLine
 10
387.6614635089675
 20
366.8708224694456
 30
0.0
 11
384.661701051197
 21
366.8708224694456
 31
0.0
  0
LINE
  5
4B9
330
1F
100
AcDbEntity
  8
建具
  6
Continuous
 62
     4
370
     9
100
AcDbLine
 10
384.6615030993391
 20
416.8708884533983
 30
0.0
 11
321.6615030993391
 21
416.8708884533983
 31
0.0
  0
LINE
  5
4BA
330
1F
100
AcDbEntity
  8
建具
  6
Continuous
 62
     4
370
     9
100
AcDbLine
 10
384.6615030993391
 20
413.8709280437698
 30
0.0
 11
384.6615030993391
 21
366.8708224694456
 31
0.0
  0
LINE
  5
4BB
330
1F
100
AcDbEntity
  8
建具
  6
Continuous
 62
     4
370
     9
100
AcDbLine
 10
384.6615030993391
 20
413.8709280437698
 30
0.0
 11
321.6615030993391
 21
413.8709280437698
 31
0.0
  0
LINE
  5
4BC
330
1F
100
AcDbEntity
  8
建具
  6
Continuous
 62
     4
370
     9
100
AcDbLine
 10
387.6614635089675
 20
413.8863479217675
 30
0.0
 11
387.6614635089675
 21
366.8708224694456
 31
0.0
  0
LINE
  5
4BD
330
1F
100
AcDbEntity
  8
ハッチ
  6
Continuous
 62
     6
370
     9
100
AcDbLine
 10
381.6611071956227
 20
370.3707795798764
 30
0.0
 11
384.6611071956229
 21
370.3707795798764
 31
0.0
  0
LINE
  5
4BE
330
1F
100
AcDbEntity
  8
ハッチ
  6
Continuous
 62
     6
370
     9
100
AcDbLine
 10
381.6611071956227
 20
408.0553577618313
 30
0.0
 11
383.9765290136681
 21
410.3707795798764
 31
0.0
  0
LINE
  5
4BF
330
1F
100
AcDbEntity
  8
ハッチ
  6
Continuous
 62
     6
370
     9
100
AcDbLine
 10
381.6611071956233
 20
402.3985035123383
 30
0.0
 11
384.6611071956233
 21
405.3985035123387
 31
0.0
  0
LINE
  5
4C0
330
1F
100
AcDbEntity
  8
ハッチ
  6
Continuous
 62
     6
370
     9
100
AcDbLine
 10
381.6611071956224
 20
396.7416492628442
 30
0.0
 11
384.6611071956222
 21
399.7416492628444
 31
0.0
  0
LINE
  5
4C1
330
1F
100
AcDbEntity
  8
ハッチ
  6
Continuous
 62
     6
370
     9
100
AcDbLine
 10
381.6611071956227
 20
391.0847950133516
 30
0.0
 11
384.6611071956229
 21
394.0847950133517
 31
0.0
  0
LINE
  5
4C2
330
1F
100
AcDbEntity
  8
ハッチ
  6
Continuous
 62
     6
370
     9
100
AcDbLine
 10
381.6611071956224
 20
385.4279407638575
 30
0.0
 11
384.6611071956229
 21
388.4279407638579
 31
0.0
  0
LINE
  5
4C3
330
1F
100
AcDbEntity
  8
ハッチ
  6
Continuous
 62
     6
370
     9
100
AcDbLine
 10
381.6611071956227
 20
379.7710865143648
 30
0.0
 11
384.6611071956211
 21
382.771086514363
 31
0.0
  0
LINE
  5
4C4
330
1F
100
AcDbEntity
  8
ハッチ
  6
Continuous
 62
     6
370
     9
100
AcDbLine
 10
381.661107195622
 20
374.1142322648776
 30
0.0
 11
384.661107195622
 21
377.1142322648777
 31
0.0
  0
LINE
  5
4C5
330
1F
100
AcDbEntity
  8
ハッチ
  6
Continuous
 62
     6
370
     9
100
AcDbLine
 10
383.5745087601147
 20
370.3707795798772
 30
0.0
 11
384.6611071956222
 21
371.4573780153847
 31
0.0
  0
LINE
  5
4C6
330
1F
100
AcDbEntity
  8
ハッチ
  6
Continuous
 62
     6
370
     9
100
AcDbLine
 10
381.6611071956227
 20
410.3707795798764
 30
0.0
 11
381.6611071956227
 21
370.3707795798764
 31
0.0
  0
LINE
  5
4C7
330
1F
100
AcDbEntity
  8
ハッチ
  6
Continuous
 62
     6
370
     9
100
AcDbLine
 10
384.6611071956229
 20
410.3707795798764
 30
0.0
 11
381.6611071956227
 21
410.3707795798764
 31
0.0
  0
LINE
  5
4C8
330
1F
100
AcDbEntity
  8
ハッチ
  6
Continuous
 62
     6
370
     9
100
AcDbLine
 10
384.6611071956229
 20
370.3707795798764
 30
0.0
 11
384.6611071956229
 21
410.3707795798764
 31
0.0
  0
LINE
  5
4C9
330
1F
100
AcDbEntity
  8
ハッチ
  6
Continuous
 62
     6
370
     9
100
AcDbLine
 10
381.6613051474806
 20
-126.6291775305542
 30
0.0
 11
384.6613051474808
 21
-126.6291775305542
 31
0.0
  0
LINE
  5
4CA
330
1F
100
AcDbEntity
  8
ハッチ
  6
Continuous
 62
     6
370
     9
100
AcDbLine
 10
381.6613051474806
 20
-88.94459934859987
 30
0.0
 11
383.976726965526
 21
-86.62917753055473
 31
0.0
  0
LINE
  5
4CB
330
1F
100
AcDbEntity
  8
ハッチ
  6
Continuous
 62
     6
370
     9
100
AcDbLine
 10
381.6613051474812
 20
-94.60145359809252
 30
0.0
 11
384.6613051474812
 21
-91.6014535980924
 31
0.0
  0
LINE
  5
4CC
330
1F
100
AcDbEntity
  8
ハッチ
  6
Continuous
 62
     6
370
     9
100
AcDbLine
 10
381.6613051474803
 20
-100.2583078475869
 30
0.0
 11
384.6613051474801
 21
-97.25830784758676
 31
0.0
  0
LINE
  5
4CD
330
1F
100
AcDbEntity
  8
ハッチ
  6
Continuous
 62
     6
370
     9
100
AcDbLine
 10
381.6613051474806
 20
-105.9151620970795
 30
0.0
 11
384.6613051474808
 21
-102.9151620970794
 31
0.0
  0
LINE
  5
4CE
330
1F
100
AcDbEntity
  8
ハッチ
  6
Continuous
 62
     6
370
     9
100
AcDbLine
 10
381.6613051474803
 20
-111.5720163465733
 30
0.0
 11
384.6613051474808
 21
-108.5720163465732
 31
0.0
  0
LINE
  5
4CF
330
1F
100
AcDbEntity
  8
ハッチ
  6
Continuous
 62
     6
370
     9
100
AcDbLine
 10
381.6613051474806
 20
-117.228870596066
 30
0.0
 11
384.661305147479
 21
-114.2288705960681
 31
0.0
  0
LINE
  5
4D0
330
1F
100
AcDbEntity
  8
ハッチ
  6
Continuous
 62
     6
370
     9
100
AcDbLine
 10
381.6613051474799
 20
-122.8857248455535
 30
0.0
 11
384.6613051474799
 21
-119.8857248455528
 31
0.0
  0
LINE
  5
4D1
330
1F
100
AcDbEntity
  8
ハッチ
  6
Continuous
 62
     6
370
     9
100
AcDbLine
 10
383.5747067119726
 20
-126.6291775305536
 30
0.0
 11
384.6613051474801
 21
-125.5425790950461
 31
0.0
  0
LINE
  5
4D2
330
1F
100
AcDbEntity
  8
ハッチ
  6
Continuous
 62
     6
370
     9
100
AcDbLine
 10
381.6613051474806
 20
-86.62917753055473
 30
0.0
 11
381.6613051474806
 21
-126.6291775305542
 31
0.0
  0
LINE
  5
4D3
330
1F
100
AcDbEntity
  8
ハッチ
  6
Continuous
 62
     6
370
     9
100
AcDbLine
 10
384.6613051474808
 20
-86.62917753055473
 30
0.0
 11
381.6613051474806
 21
-86.62917753055473
 31
0.0
  0
LINE
  5
4D4
330
1F
100
AcDbEntity
  8
ハッチ
  6
Continuous
 62
     6
370
     9
100
AcDbLine
 10
384.6613051474808
 20
-126.6291775305542
 30
0.0
 11
384.6613051474808
 21
-86.62917753055473
 31
0.0
  0
LINE
  5
4D5
330
1F
100
AcDbEntity
  8
その他
  6
Continuous
 62
     7
370
     9
100
AcDbLine
 10
478.8614635089675
 20
-83.12917753055447
 30
0.0
 11
402.2993247611066
 21
-83.12917753055447
 31
0.0
  0
LINE
  5
4D6
330
1F
100
AcDbEntity
  8
寸法
  6
Continuous
 62
     7
370
     9
100
AcDbLine
 10
299.7610106449454
 20
484.3716779270241
 30
0.0
 11
351.9391305803354
 21
416.8708884533983
 31
0.0
  0
TEXT
  5
4D7
330
1F
100
AcDbEntity
  8
寸法
  6
Continuous
 62
     2
370
     9
100
AcDbText
 10
157.6269315324732
 20
467.8567203668391
 30
0.0
 40
12.192
  1
ＳＵＳ３０４
 41
0.8958333333333334
  7
ＭＳ ゴシック
100
AcDbText
  0
TEXT
  5
4D8
330
1F
100
AcDbEntity
  8
寸法
  6
Continuous
 62
     2
370
     9
100
AcDbText
 10
104.7447563430364
 20
489.5026622536512
 30
0.0
 40
12.192
  1
受枠：ＴＬ６０Ｐ，ｔ＝３.０
 41
0.8981481481481471
  7
ＭＳ ゴシック
100
AcDbText
  0
LINE
  5
4D9
330
1F
100
AcDbEntity
  8
寸法
  6
Continuous
 62
     7
370
     9
100
AcDbLine
 10
101.4928524200006
 20
484.3716779270241
 30
0.0
 11
299.7610106449454
 21
484.3716779270241
 31
0.0
  0
TEXT
  5
4DA
330
1F
100
AcDbEntity
  8
寸法
  6
Continuous
 62
     2
370
     9
100
AcDbText
 10
462.7273437709688
 20
468.0266118093555
 30
0.0
 40
12.192
  1
ＳＥＣＣ
 50
0.0002100335212918
 41
0.8937499999999982
  7
ＭＳ ゴシック
100
AcDbText
  0
LINE
  5
4DB
330
1F
100
AcDbEntity
  8
寸法
  6
Continuous
 62
     7
370
     9
100
AcDbLine
 10
409.3796841973769
 20
484.3716779270241
 30
0.0
 11
573.2750198841602
 21
484.3716779270241
 31
0.0
  0
TEXT
  5
4DC
330
1F
100
AcDbEntity
  8
寸法
  6
Continuous
 62
     2
370
     9
100
AcDbText
 10
410.8428114455897
 20
489.3139449233296
 30
0.0
 40
12.192
  1
回転アンカー：ｔ＝２.０
 50
359.9998356259527
 41
0.8978260869565231
  7
ＭＳ ゴシック
100
AcDbText
  0
TEXT
  5
4DD
330
1F
100
AcDbEntity
  8
寸法
  6
Continuous
 62
     7
370
     9
100
AcDbText
 10
410.8428049734227
 20
513.4781665853535
 30
0.0
 40
9.144
  1
境界部・壁際用として使用いただけます
 41
1.157407407407408
  7
ＭＳ ゴシック
100
AcDbText
  0
TEXT
  5
4DE
330
1F
100
AcDbEntity
  8
寸法
  6
Continuous
 62
     7
370
     9
100
AcDbText
 10
410.8428049734227
 20
528.6587335799221
 30
0.0
 40
9.144
  1
アンカーを回転・変形させることで
 41
1.156250000000001
  7
ＭＳ ゴシック
100
AcDbText
  0
TEXT
  5
4DF
330
1F
100
AcDbEntity
  8
寸法
  6
Continuous
 62
     7
370
     9
100
AcDbText
 10
396.8428049734227
 20
528.6587335799221
 30
0.0
 40
9.144
  1
※
  7
ＭＳ ゴシック
100
AcDbText
  0
LINE
  5
4E0
330
1F
100
AcDbEntity
  8
その他
  6
Continuous
 62
     7
370
     9
100
AcDbLine
 10
321.6615030993394
 20
-232.9294441057232
 30
0.0
 11
387.6614635089675
 21
-232.9294441057232
 31
0.0
  0
TEXT
  5
4E1
330
1F
100
AcDbEntity
  8
その他
  6
Continuous
 62
     2
370
   211
100
AcDbText
 10
346.1614833041535
 20
-228.673437507328
 30
0.0
 40
12.192
  1
66
 41
1.0625
  7
ＭＳ ゴシック
100
AcDbText
  0
LINE
  5
4E2
330
1F
100
AcDbEntity
  8
その他
  6
Continuous
 62
     7
370
     9
100
AcDbLine
 10
236.6612721555045
 20
411.8705255416582
 30
0.0
 11
236.6612721555045
 21
413.8708290678407
 31
0.0
  0
LINE
  5
4E3
330
1F
100
AcDbEntity
  8
その他
  6
Continuous
 62
     7
370
     9
100
AcDbLine
 10
236.6612721555045
 20
-130.1291841289499
 30
0.0
 11
236.6612721555045
 21
-128.128930090732
 31
0.0
  0
LINE
  5
4E4
330
1F
100
AcDbEntity
  8
その他
  6
Continuous
 62
     7
370
     9
100
AcDbLine
 10
236.6612721555045
 20
-128.128930090732
 30
0.0
 11
236.6612721555045
 21
411.8705255416582
 31
0.0
  0
LINE
  5
4E5
330
1F
100
AcDbEntity
  8
その他
  6
Continuous
 62
     7
370
     9
100
AcDbLine
 10
236.6612721555045
 20
416.8708884533983
 30
0.0
 11
235.0950770541533
 21
428.7681910294118
 31
0.0
  0
LINE
  5
4E6
330
1F
100
AcDbEntity
  8
その他
  6
Continuous
 62
     7
370
     9
100
AcDbLine
 10
236.6612721555045
 20
416.8708884533983
 30
0.0
 11
238.2276652087141
 21
428.7681910294118
 31
0.0
  0
LINE
  5
4E7
330
1F
100
AcDbEntity
  8
その他
  6
Continuous
 62
     7
370
     9
100
AcDbLine
 10
196.6613381394575
 20
416.8708884533983
 30
0.0
 11
195.0951430381062
 21
404.9735858773849
 31
0.0
  0
LINE
  5
4E8
330
1F
100
AcDbEntity
  8
その他
  6
Continuous
 62
     7
370
     9
100
AcDbLine
 10
196.6613381394575
 20
416.8708884533983
 30
0.0
 11
198.2277311926669
 21
404.9735858773849
 31
0.0
  0
LINE
  5
4E9
330
1F
100
AcDbEntity
  8
その他
  6
Continuous
 62
     7
370
     9
100
AcDbLine
 10
273.6614437137816
 20
416.8708884533983
 30
0.0
 11
195.4613539756062
 21
416.8708884533983
 31
0.0
  0
LINE
  5
4EA
330
1F
100
AcDbEntity
  8
その他
  6
Continuous
 62
     7
370
     9
100
AcDbLine
 10
279.7751868514508
 20
416.8708884533983
 30
0.0
 11
313.6613777298292
 21
416.8708884533983
 31
0.0
  0
LINE
  5
4EB
330
1F
100
AcDbEntity
  8
その他
  6
Continuous
 62
     7
370
     9
100
AcDbLine
 10
236.6612721555045
 20
416.8708884533983
 30
0.0
 11
236.6612721555045
 21
442.8507831430097
 31
0.0
  0
LINE
  5
4EC
330
1F
100
AcDbEntity
  8
その他
  6
Continuous
 62
     7
370
     9
100
AcDbLine
 10
313.6613777298292
 20
-133.1292435145072
 30
0.0
 11
195.4613539756062
 21
-133.1292435145072
 31
0.0
  0
LINE
  5
4ED
330
1F
100
AcDbEntity
  8
その他
  6
Continuous
 62
     7
370
     9
100
AcDbLine
 10
196.6613381394575
 20
-133.1292435145072
 30
0.0
 11
195.0951430381062
 21
-121.2318419625645
 31
0.0
  0
LINE
  5
4EE
330
1F
100
AcDbEntity
  8
その他
  6
Continuous
 62
     7
370
     9
100
AcDbLine
 10
196.6613381394575
 20
-133.1292435145072
 30
0.0
 11
198.2277311926669
 21
-121.2318419625645
 31
0.0
  0
LINE
  5
4EF
330
1F
100
AcDbEntity
  8
その他
  6
Continuous
 62
     7
370
     9
100
AcDbLine
 10
236.6612721555045
 20
-133.1292435145072
 30
0.0
 11
235.0950770541533
 21
-145.0265460905205
 31
0.0
  0
LINE
  5
4F0
330
1F
100
AcDbEntity
  8
その他
  6
Continuous
 62
     7
370
     9
100
AcDbLine
 10
236.6612721555045
 20
-133.1292435145072
 30
0.0
 11
238.2276652087141
 21
-145.0265460905205
 31
0.0
  0
LINE
  5
4F1
330
1F
100
AcDbEntity
  8
その他
  6
Continuous
 62
     7
370
     9
100
AcDbLine
 10
236.6612721555045
 20
-159.9475138111712
 30
0.0
 11
236.6612721555045
 21
-133.1292435145072
 31
0.0
  0
LINE
  5
4F2
330
1F
100
AcDbEntity
  8
その他
  6
Continuous
 62
     7
370
     9
100
AcDbLine
 10
236.6612721555045
 20
-133.1292435145072
 30
0.0
 11
236.6612721555045
 21
-130.1291841289499
 31
0.0
  0
TEXT
  5
4F3
330
1F
100
AcDbEntity
  8
その他
  6
Continuous
 62
     2
370
   211
100
AcDbText
 10
232.4053645330383
 20
-155.6690310131874
 30
0.0
 40
12.192
  1
3
 50
90.0
  7
ＭＳ ゴシック
100
AcDbText
  0
LINE
  5
4F4
330
1F
100
AcDbEntity
  8
その他
  6
Continuous
 62
     7
370
     9
100
AcDbLine
 10
196.6613381394575
 20
-133.1292435145072
 30
0.0
 11
196.6613381394575
 21
416.8708884533983
 31
0.0
  0
TEXT
  5
4F5
330
1F
100
AcDbEntity
  8
その他
  6
Continuous
 62
     2
370
   211
100
AcDbText
 10
192.4053315410623
 20
128.8708224694455
 30
0.0
 40
12.192
  1
550
 50
90.0
 41
1.083333333333333
  7
ＭＳ ゴシック
100
AcDbText
  0
LINE
  5
4F6
330
1F
100
AcDbEntity
  8
その他
  6
Continuous
 62
     7
370
     9
100
AcDbLine
 10
236.6612721555045
 20
413.8708290678407
 30
0.0
 11
236.6612721555045
 21
416.8708884533983
 31
0.0
  0
TEXT
  5
4F7
330
1F
100
AcDbEntity
  8
その他
  6
Continuous
 62
     2
370
   211
100
AcDbText
 10
232.4053645330383
 20
431.4106635800877
 30
0.0
 40
12.192
  1
3
 50
90.0
  7
ＭＳ ゴシック
100
AcDbText
  0
LINE
  5
4F8
330
1F
100
AcDbEntity
  8
寸法
  6
Continuous
 62
     7
370
     9
100
AcDbLine
 10
392.6614899025483
 20
258.1418053664049
 30
0.0
 11
404.2905677108254
 21
261.10182898866
 31
0.0
  0
LINE
  5
4F9
330
1F
100
AcDbEntity
  8
寸法
  6
Continuous
 62
     7
370
     9
100
AcDbLine
 10
392.6614899025483
 20
258.1418053664049
 30
0.0
 11
403.1281944000145
 21
264.0108305194877
 31
0.0
  0
LINE
  5
4FA
330
1F
100
AcDbEntity
  8
寸法
  6
Continuous
 62
     7
370
     9
100
AcDbLine
 10
511.0891794309005
 20
305.4625330314423
 30
0.0
 11
392.6614899025483
 21
258.1418053664049
 31
0.0
  0
TEXT
  5
4FB
330
1F
100
AcDbEntity
  8
寸法
  6
Continuous
 62
     2
370
     9
100
AcDbText
 10
547.0714867948982
 20
288.5817871342086
 30
0.0
 40
12.192
  1
樹脂系塗装
 41
0.8949999999999989
  7
ＭＳ ゴシック
100
AcDbText
  0
LINE
  5
4FC
330
1F
100
AcDbEntity
  8
寸法
  6
Continuous
 62
     7
370
     9
100
AcDbLine
 10
511.0891794309005
 20
305.4625330314423
 30
0.0
 11
654.6537941588963
 21
305.4625330314423
 31
0.0
  0
TEXT
  5
4FD
330
1F
100
AcDbEntity
  8
寸法
  6
Continuous
 62
     2
370
     9
100
AcDbText
 10
513.5128164035914
 20
311.2116354704211
 30
0.0
 40
12.192
  1
蓋本体：ＦＣＤ５００
 41
0.8975000000000023
  7
ＭＳ ゴシック
100
AcDbText
  0
TEXT
  5
4FE
330
1F
100
AcDbEntity
  8
寸法
  6
Continuous
 62
     2
370
     9
100
AcDbText
 10
112.6283664909793
 20
-225.2475026562743
 30
0.0
 40
12.192
  1
ＳＵＳ３０４
 41
0.8958333333333309
  7
ＭＳ ゴシック
100
AcDbText
  0
TEXT
  5
4FF
330
1F
100
AcDbEntity
  8
寸法
  6
Continuous
 62
     2
370
     9
100
AcDbText
 10
61.97846762910876
 20
-200.4848256645478
 30
0.0
 40
12.192
  1
排水口グレーチング（Ｐ＝１５）
 41
0.898333333333333
  7
ＭＳ ゴシック
100
AcDbText
  0
LINE
  5
500
330
1F
100
AcDbEntity
  8
寸法
  6
Continuous
 62
     7
370
     9
100
AcDbLine
 10
321.66140412341
 20
-117.0492676646341
 30
0.0
 11
279.186437509798
 21
-206.322550672746
 31
0.0
  0
LINE
  5
501
330
1F
100
AcDbEntity
  8
寸法
  6
Continuous
 62
     7
370
     9
100
AcDbLine
 10
60.02956316781069
 20
-206.322550672746
 30
0.0
 11
279.186437509798
 21
-206.322550672746
 31
0.0
  0
TEXT
  5
502
330
1F
100
AcDbEntity
  8
F-5ﾚｲﾔ
  6
Continuous
 62
     2
370
     9
100
AcDbText
 10
-327.9531342385218
 20
-548.1112208411942
 30
0.0
 40
12.192
  1
　　　　　　　　　　　　　　　ＳＥＷ－１４－４５０（Ｐ＝１５）＋ＴＬ６０Ｐ
 41
0.7743243243243244
  7
ＭＳ ゴシック
100
AcDbText
  0
ENDSEC
  0
SECTION
  2
OBJECTS
  0
DICTIONARY
  5
C
330
0
100
AcDbDictionary
281
     1
  3
ACAD_GROUP
350
D
  3
ACAD_LAYOUT
350
1A
  3
ACAD_MLEADERSTYLE
350
504
  3
ACAD_MLINESTYLE
350
17
  3
ACAD_PLOTSETTINGS
350
19
  3
ACAD_PLOTSTYLENAME
350
E
  3
ACAD_TABLESTYLE
350
503
  3
ACAD_VISUALSTYLE
350
2A
  0
DICTIONARY
  5
D
102
{ACAD_REACTORS
330
C
102
}
330
C
100
AcDbDictionary
281
     1
  0
DICTIONARY
  5
1A
102
{ACAD_REACTORS
330
C
102
}
330
C
100
AcDbDictionary
281
     1
  3
Layout1
350
1E
  3
Layout2
350
26
  3
Model
350
22
  0
DICTIONARY
  5
504
102
{ACAD_REACTORS
330
C
102
}
330
C
100
AcDbDictionary
281
     1
  0
DICTIONARY
  5
17
102
{ACAD_REACTORS
330
C
102
}
330
C
100
AcDbDictionary
281
     1
  3
Standard
350
18
  0
DICTIONARY
  5
19
102
{ACAD_REACTORS
330
C
102
}
330
C
100
AcDbDictionary
281
     1
  0
ACDBDICTIONARYWDFLT
  5
E
102
{ACAD_REACTORS
330
C
102
}
330
C
100
AcDbDictionary
281
     1
  3
Normal
350
F
100
AcDbDictionaryWithDefault
340
F
  0
DICTIONARY
  5
503
102
{ACAD_REACTORS
330
C
102
}
330
C
100
AcDbDictionary
281
     1
  0
DICTIONARY
  5
2A
102
{ACAD_REACTORS
330
C
102
}
330
C
100
AcDbDictionary
281
     1
  3
2dWireframe
350
2F
  3
3D Hidden
350
31
  3
3dWireframe
350
30
  3
Basic
350
32
  3
Brighten
350
36
  3
ColorChange
350
3A
  3
Conceptual
350
34
  3
Dim
350
35
  3
Facepattern
350
39
  3
Flat
350
2B
  3
FlatWithEdges
350
2C
  3
Gouraud
350
2D
  3
GouraudWithEdges
350
2E
  3
Linepattern
350
38
  3
Realistic
350
33
  3
Thicken
350
37
  0
LAYOUT
  5
1E
102
{ACAD_REACTORS
330
1A
102
}
330
1A
100
AcDbPlotSettings
  1

  2
none_device
  4

  6

 40
0.0
 41
0.0
 42
0.0
 43
0.0
 44
0.0
 45
0.0
 46
0.0
 47
0.0
 48
0.0
 49
0.0
140
0.0
141
0.0
142
1.0
143
1.0
 70
   688
 72
     0
 73
     0
 74
     5
  7

 75
    16
 76
     0
 77
     5
 78
   300
147
1.0
148
0.0
149
0.0
100
AcDbLayout
  1
Layout1
 70
     1
 71
     1
 10
0.0
 20
0.0
 11
420.0
 21
297.0
 12
0.0
 22
0.0
 32
0.0
 14
1.000000000000000E+20
 24
1.000000000000000E+20
 34
1.000000000000000E+20
 15
-1.000000000000000E+20
 25
-1.000000000000000E+20
 35
-1.000000000000000E+20
146
0.0
 13
0.0
 23
0.0
 33
0.0
 16
1.0
 26
0.0
 36
0.0
 17
0.0
 27
1.0
 37
0.0
 76
     0
330
1B
  0
LAYOUT
  5
26
102
{ACAD_REACTORS
330
1A
102
}
330
1A
100
AcDbPlotSettings
  1

  2
none_device
  4

  6

 40
0.0
 41
0.0
 42
0.0
 43
0.0
 44
0.0
 45
0.0
 46
0.0
 47
0.0
 48
0.0
 49
0.0
140
0.0
141
0.0
142
1.0
143
1.0
 70
   688
 72
     0
 73
     0
 74
     5
  7

 75
    16
 76
     0
 77
     5
 78
   300
147
1.0
148
0.0
149
0.0
100
AcDbLayout
  1
Layout2
 70
     1
 71
     2
 10
0.0
 20
0.0
 11
0.0
 21
0.0
 12
0.0
 22
0.0
 32
0.0
 14
0.0
 24
0.0
 34
0.0
 15
0.0
 25
0.0
 35
0.0
146
0.0
 13
0.0
 23
0.0
 33
0.0
 16
1.0
 26
0.0
 36
0.0
 17
0.0
 27
1.0
 37
0.0
 76
     0
330
23
  0
LAYOUT
  5
22
102
{ACAD_REACTORS
330
1A
102
}
330
1A
100
AcDbPlotSettings
  1

  2
none_device
  4

  6

 40
0.0
 41
0.0
 42
0.0
 43
0.0
 44
0.0
 45
0.0
 46
0.0
 47
0.0
 48
0.0
 49
0.0
140
0.0
141
0.0
142
1.0
143
1.0
 70
  1712
 72
     0
 73
     0
 74
     0
  7

 75
     0
 76
     0
 77
     5
 78
   300
147
1.0
148
0.0
149
0.0
100
AcDbLayout
  1
Model
 70
     1
 71
     0
 10
-840.0
 20
-594.0
 11
840.0
 21
594.0
 12
0.0
 22
0.0
 32
0.0
 14
-840.0
 24
-594.0
 34
0.0
 15
840.0
 25
594.0
 35
0.0
146
0.0
 13
0.0
 23
0.0
 33
0.0
 16
1.0
 26
0.0
 36
0.0
 17
0.0
 27
1.0
 37
0.0
 76
     0
330
1F
331
29
  0
MLINESTYLE
  5
18
102
{ACAD_REACTORS
330
17
102
}
330
17
100
AcDbMlineStyle
  2
Standard
 70
     0
  3

 62
   256
 51
90.0
 52
90.0
 71
     2
 49
0.5
 62
   256
  6
BYLAYER
 49
-0.5
 62
   256
  6
BYLAYER
  0
ACDBPLACEHOLDER
  5
F
102
{ACAD_REACTORS
330
E
102
}
330
E
  0
VISUALSTYLE
  5
2F
102
{ACAD_REACTORS
330
2A
102
}
330
2A
100
AcDbVisualStyle
  2
2dWireframe
 70
     4
 71
     0
 72
     2
 73
     0
 90
        0
 40
-0.6
 41
-30.0
 62
     5
 63
     7
421
 16777215
 74
     1
 91
        4
 64
     7
 65
   257
 75
     1
175
     1
 42
1.0
 92
        0
 66
   257
 43
1.0
 76
     1
 77
     6
 78
     2
 67
     7
 79
     5
170
     0
171
     0
290
     0
174
     0
 93
        1
 44
0.0
173
     0
291
     0
 45
0.0
  0
VISUALSTYLE
  5
31
102
{ACAD_REACTORS
330
2A
102
}
330
2A
100
AcDbVisualStyle
  2
3D Hidden
 70
     6
 71
     1
 72
     2
 73
     2
 90
        0
 40
-0.6
 41
-30.0
 62
     5
 63
     7
421
 16777215
 74
     2
 91
        2
 64
     7
 65
   257
 75
     2
175
     1
 42
40.0
 92
        0
 66
   257
 43
1.0
 76
     1
 77
     6
 78
     2
 67
     7
 79
     3
170
     0
171
     0
290
     0
174
     0
 93
        1
 44
0.0
173
     0
291
     0
 45
0.0
  0
VISUALSTYLE
  5
30
102
{ACAD_REACTORS
330
2A
102
}
330
2A
100
AcDbVisualStyle
  2
3dWireframe
 70
     5
 71
     0
 72
     2
 73
     0
 90
        0
 40
-0.6
 41
-30.0
 62
     5
 63
     7
421
 16777215
 74
     1
 91
        4
 64
     7
 65
   257
 75
     1
175
     1
 42
1.0
 92
        0
 66
   257
 43
1.0
 76
     1
 77
     6
 78
     2
 67
     7
 79
     5
170
     0
171
     0
290
     0
174
     0
 93
        1
 44
0.0
173
     0
291
     0
 45
0.0
  0
VISUALSTYLE
  5
32
102
{ACAD_REACTORS
330
2A
102
}
330
2A
100
AcDbVisualStyle
  2
Basic
 70
     7
 71
     1
 72
     0
 73
     1
 90
        0
 40
-0.6
 41
-30.0
 62
     5
 63
     7
421
 16777215
 74
     0
 91
        4
 64
     7
 65
   257
 75
     1
175
     1
 42
1.0
 92
        8
 66
     7
 43
1.0
 76
     1
 77
     6
 78
     2
 67
     7
 79
     5
170
     0
171
     0
290
     0
174
     0
 93
        1
 44
0.0
173
     0
291
     1
 45
0.0
  0
VISUALSTYLE
  5
36
102
{ACAD_REACTORS
330
2A
102
}
330
2A
100
AcDbVisualStyle
  2
Brighten
 70
    12
 71
     2
 72
     2
 73
     0
 90
        0
 40
-0.6
 41
-30.0
 62
     5
 63
     7
421
 16777215
 74
     1
 91
        4
 64
     7
 65
   257
 75
     1
175
     1
 42
1.0
 92
        8
 66
     7
 43
1.0
 76
     1
 77
     6
 78
     2
 67
     7
 79
     5
170
     0
171
     0
290
     0
174
     0
 93
        1
 44
50.0
173
     0
291
     1
 45
0.0
  0
VISUALSTYLE
  5
3A
102
{ACAD_REACTORS
330
2A
102
}
330
2A
100
AcDbVisualStyle
  2
ColorChange
 70
    16
 71
     2
 72
     2
 73
     3
 90
        0
 40
-0.6
 41
-30.0
 62
     5
 63
     8
421
  8421504
 74
     1
 91
        4
 64
     7
 65
   257
 75
     1
175
     1
 42
1.0
 92
        8
 66
     8
424
  8421504
 43
1.0
 76
     1
 77
     6
 78
     2
 67
     7
 79
     5
170
     0
171
     0
290
     0
174
     0
 93
        1
 44
0.0
173
     0
291
     1
 45
0.0
  0
VISUALSTYLE
  5
34
102
{ACAD_REACTORS
330
2A
102
}
330
2A
100
AcDbVisualStyle
  2
Conceptual
 70
     9
 71
     3
 72
     2
 73
     0
 90
        0
 40
-0.6
 41
-30.0
 62
     5
 63
     7
421
 16777215
 74
     2
 91
        2
 64
     7
 65
   257
 75
     1
175
     1
 42
40.0
 92
        8
 66
     7
 43
1.0
 76
     1
 77
     6
 78
     2
 67
     7
 79
     3
170
     0
171
     0
290
     0
174
     0
 93
        1
 44
0.0
173
     0
291
     0
 45
0.0
  0
VISUALSTYLE
  5
35
102
{ACAD_REACTORS
330
2A
102
}
330
2A
100
AcDbVisualStyle
  2
Dim
 70
    11
 71
     2
 72
     2
 73
     0
 90
        0
 40
-0.6
 41
-30.0
 62
     5
 63
     7
421
 16777215
 74
     1
 91
        4
 64
     7
 65
   257
 75
     1
175
     1
 42
1.0
 92
        8
 66
     7
 43
1.0
 76
     1
 77
     6
 78
     2
 67
     7
 79
     5
170
     0
171
     0
290
     0
174
     0
 93
        1
 44
-50.0
173
     0
291
     1
 45
0.0
  0
VISUALSTYLE
  5
39
102
{ACAD_REACTORS
330
2A
102
}
330
2A
100
AcDbVisualStyle
  2
Facepattern
 70
    15
 71
     2
 72
     2
 73
     0
 90
        0
 40
-0.6
 41
-30.0
 62
     5
 63
     7
421
 16777215
 74
     1
 91
        4
 64
     7
 65
   257
 75
     1
175
     1
 42
1.0
 92
        8
 66
     7
 43
1.0
 76
     1
 77
     6
 78
     2
 67
     7
 79
     5
170
     0
171
     0
290
     0
174
     0
 93
        1
 44
0.0
173
     0
291
     1
 45
0.0
  0
VISUALSTYLE
  5
2B
102
{ACAD_REACTORS
330
2A
102
}
330
2A
100
AcDbVisualStyle
  2
Flat
 70
     0
 71
     2
 72
     1
 73
     1
 90
        2
 40
-0.6
 41
30.0
 62
     5
 63
     7
421
 16777215
 74
     0
 91
        4
 64
     7
 65
   257
 75
     1
175
     1
 42
1.0
 92
        8
 66
     7
 43
1.0
 76
     1
 77
     6
 78
     2
 67
     7
 79
     5
170
     0
171
     0
290
     0
174
     0
 93
       13
 44
0.0
173
     0
291
     1
 45
0.0
  0
VISUALSTYLE
  5
2C
102
{ACAD_REACTORS
330
2A
102
}
330
2A
100
AcDbVisualStyle
  2
FlatWithEdges
 70
     1
 71
     2
 72
     1
 73
     1
 90
        2
 40
-0.6
 41
30.0
 62
     5
 63
     7
421
 16777215
 74
     1
 91
        4
 64
     7
 65
   257
 75
     1
175
     1
 42
1.0
 92
        0
 66
   257
 43
1.0
 76
     1
 77
     6
 78
     2
 67
     7
 79
     5
170
     0
171
     0
290
     0
174
     0
 93
       13
 44
0.0
173
     0
291
     1
 45
0.0
  0
VISUALSTYLE
  5
2D
102
{ACAD_REACTORS
330
2A
102
}
330
2A
100
AcDbVisualStyle
  2
Gouraud
 70
     2
 71
     2
 72
     2
 73
     1
 90
        2
 40
-0.6
 41
30.0
 62
     5
 63
     7
421
 16777215
 74
     0
 91
        4
 64
     7
 65
   257
 75
     1
175
     1
 42
1.0
 92
        0
 66
     7
 43
1.0
 76
     1
 77
     6
 78
     2
 67
     7
 79
     5
170
     0
171
     0
290
     0
174
     0
 93
       13
 44
0.0
173
     0
291
     1
 45
0.0
  0
VISUALSTYLE
  5
2E
102
{ACAD_REACTORS
330
2A
102
}
330
2A
100
AcDbVisualStyle
  2
GouraudWithEdges
 70
     3
 71
     2
 72
     2
 73
     1
 90
        2
 40
-0.6
 41
30.0
 62
     5
 63
     7
421
 16777215
 74
     1
 91
        4
 64
     7
 65
   257
 75
     1
175
     1
 42
1.0
 92
        0
 66
   257
 43
1.0
 76
     1
 77
     6
 78
     2
 67
     7
 79
     5
170
     0
171
     0
290
     0
174
     0
 93
       13
 44
0.0
173
     0
291
     1
 45
0.0
  0
VISUALSTYLE
  5
38
102
{ACAD_REACTORS
330
2A
102
}
330
2A
100
AcDbVisualStyle
  2
Linepattern
 70
    14
 71
     2
 72
     2
 73
     0
 90
        0
 40
-0.6
 41
-30.0
 62
     5
 63
     7
421
 16777215
 74
     1
 91
        4
 64
     7
 65
   257
 75
     7
175
     7
 42
1.0
 92
        8
 66
     7
 43
1.0
 76
     1
 77
     6
 78
     2
 67
     7
 79
     5
170
     0
171
     0
290
     0
174
     0
 93
        1
 44
0.0
173
     0
291
     1
 45
0.0
  0
VISUALSTYLE
  5
33
102
{ACAD_REACTORS
330
2A
102
}
330
2A
100
AcDbVisualStyle
  2
Realistic
 70
     8
 71
     2
 72
     2
 73
     0
 90
        0
 40
-0.6
 41
-30.0
 62
     5
 63
     7
421
 16777215
 74
     1
 91
        0
 64
     7
 65
   257
 75
     1
175
     1
 42
1.0
 92
        8
 66
     8
424
  7895160
 43
1.0
 76
     1
 77
     6
 78
     2
 67
     7
 79
     5
170
     0
171
     0
290
     0
174
     0
 93
       13
 44
0.0
173
     0
291
     0
 45
0.0
  0
VISUALSTYLE
  5
37
102
{ACAD_REACTORS
330
2A
102
}
330
2A
100
AcDbVisualStyle
  2
Thicken
 70
    13
 71
     2
 72
     2
 73
     0
 90
        0
 40
-0.6
 41
-30.0
 62
     5
 63
     7
421
 16777215
 74
     1
 91
        4
 64
     7
 65
   257
 75
     1
175
     1
 42
1.0
 92
       12
 66
     7
 43
1.0
 76
     1
 77
     6
 78
     2
 67
     7
 79
     5
170
     0
171
     0
290
     0
174
     0
 93
        1
 44
0.0
173
     0
291
     1
 45
0.0
  0
ENDSEC
  0
EOF
