  0
SECTION
  2
HEADER
  9
$ACADVER
  1
AC1015
  9
$ACADMAINTVER
 70
     6
  9
$DWGCODEPAGE
  3
ANSI_932
  9
$INSBASE
 10
0.0
 20
0.0
 30
0.0
  9
$EXTMIN
 10
-2100.0
 20
-1485.0
 30
0.0
  9
$EXTMAX
 10
2100.0
 20
1485.0
 30
0.0
  9
$LIMMIN
 10
-2100.0
 20
-1485.0
  9
$LIMMAX
 10
2100.0
 20
1485.0
  9
$ORTHOMODE
 70
     0
  9
$REGENMODE
 70
     1
  9
$FILLMODE
 70
     1
  9
$QTEXTMODE
 70
     0
  9
$MIRRTEXT
 70
     1
  9
$LTSCALE
 40
10.0
  9
$ATTMODE
 70
     1
  9
$TEXTSIZE
 40
2.5
  9
$TRACEWID
 40
1.0
  9
$TEXTSTYLE
  7
Standard
  9
$CLAYER
  8
0
  9
$CELTYPE
  6
ByLayer
  9
$CECOLOR
 62
   256
  9
$CELTSCALE
 40
1.0
  9
$DISPSILH
 70
     0
  9
$DIMSCALE
 40
1.0
  9
$DIMASZ
 40
2.5
  9
$DIMEXO
 40
0.625
  9
$DIMDLI
 40
3.75
  9
$DIMRND
 40
0.0
  9
$DIMDLE
 40
0.0
  9
$DIMEXE
 40
1.25
  9
$DIMTP
 40
0.0
  9
$DIMTM
 40
0.0
  9
$DIMTXT
 40
2.5
  9
$DIMCEN
 40
2.5
  9
$DIMTSZ
 40
0.0
  9
$DIMTOL
 70
     0
  9
$DIMLIM
 70
     0
  9
$DIMTIH
 70
     0
  9
$DIMTOH
 70
     0
  9
$DIMSE1
 70
     0
  9
$DIMSE2
 70
     0
  9
$DIMTAD
 70
     1
  9
$DIMZIN
 70
     8
  9
$DIMBLK
  1

  9
$DIMASO
 70
     1
  9
$DIMSHO
 70
     1
  9
$DIMPOST
  1

  9
$DIMAPOST
  1

  9
$DIMALT
 70
     0
  9
$DIMALTD
 70
     3
  9
$DIMALTF
 40
0.03937007874016
  9
$DIMLFAC
 40
1.0
  9
$DIMTOFL
 70
     1
  9
$DIMTVP
 40
0.0
  9
$DIMTIX
 70
     0
  9
$DIMSOXD
 70
     0
  9
$DIMSAH
 70
     0
  9
$DIMBLK1
  1

  9
$DIMBLK2
  1

  9
$DIMSTYLE
  2
ISO-25
  9
$DIMCLRD
 70
     0
  9
$DIMCLRE
 70
     0
  9
$DIMCLRT
 70
     0
  9
$DIMTFAC
 40
1.0
  9
$DIMGAP
 40
0.625
  9
$DIMJUST
 70
     0
  9
$DIMSD1
 70
     0
  9
$DIMSD2
 70
     0
  9
$DIMTOLJ
 70
     0
  9
$DIMTZIN
 70
     8
  9
$DIMALTZ
 70
     0
  9
$DIMALTTZ
 70
     0
  9
$DIMUPT
 70
     0
  9
$DIMDEC
 70
     2
  9
$DIMTDEC
 70
     2
  9
$DIMALTU
 70
     2
  9
$DIMALTTD
 70
     3
  9
$DIMTXSTY
  7
Standard
  9
$DIMAUNIT
 70
     0
  9
$DIMADEC
 70
     0
  9
$DIMALTRND
 40
0.0
  9
$DIMAZIN
 70
     0
  9
$DIMDSEP
 70
    44
  9
$DIMATFIT
 70
     3
  9
$DIMFRAC
 70
     0
  9
$DIMLDRBLK
  1

  9
$DIMLUNIT
 70
     2
  9
$DIMLWD
 70
    -2
  9
$DIMLWE
 70
    -2
  9
$DIMTMOVE
 70
     0
  9
$LUNITS
 70
     2
  9
$LUPREC
 70
     4
  9
$SKETCHINC
 40
1.0
  9
$FILLETRAD
 40
10.0
  9
$AUNITS
 70
     0
  9
$AUPREC
 70
     0
  9
$MENU
  1
.
  9
$ELEVATION
 40
0.0
  9
$PELEVATION
 40
0.0
  9
$THICKNESS
 40
0.0
  9
$LIMCHECK
 70
     0
  9
$CHAMFERA
 40
10.0
  9
$CHAMFERB
 40
10.0
  9
$CHAMFERC
 40
20.0
  9
$CHAMFERD
 40
0.0
  9
$SKPOLY
 70
     0
  9
$TDCREATE
 40
2456898.573125243
  9
$TDUCREATE
 40
2456898.198125243
  9
$TDUPDATE
 40
2456898.573125255
  9
$TDUUPDATE
 40
2456898.198125255
  9
$TDINDWG
 40
0.0000000116
  9
$TDUSRTIMER
 40
0.0000000116
  9
$USRTIMER
 70
     1
  9
$ANGBASE
 50
0.0
  9
$ANGDIR
 70
     0
  9
$PDMODE
 70
     0
  9
$PDSIZE
 40
0.0
  9
$PLINEWID
 40
0.0
  9
$SPLFRAME
 70
     0
  9
$SPLINETYPE
 70
     6
  9
$SPLINESEGS
 70
     8
  9
$HANDSEED
  5
4B8
  9
$SURFTAB1
 70
     6
  9
$SURFTAB2
 70
     6
  9
$SURFTYPE
 70
     6
  9
$SURFU
 70
     6
  9
$SURFV
 70
     6
  9
$UCSBASE
  2

  9
$UCSNAME
  2

  9
$UCSORG
 10
0.0
 20
0.0
 30
0.0
  9
$UCSXDIR
 10
1.0
 20
0.0
 30
0.0
  9
$UCSYDIR
 10
0.0
 20
1.0
 30
0.0
  9
$UCSORTHOREF
  2

  9
$UCSORTHOVIEW
 70
     0
  9
$UCSORGTOP
 10
0.0
 20
0.0
 30
0.0
  9
$UCSORGBOTTOM
 10
0.0
 20
0.0
 30
0.0
  9
$UCSORGLEFT
 10
0.0
 20
0.0
 30
0.0
  9
$UCSORGRIGHT
 10
0.0
 20
0.0
 30
0.0
  9
$UCSORGFRONT
 10
0.0
 20
0.0
 30
0.0
  9
$UCSORGBACK
 10
0.0
 20
0.0
 30
0.0
  9
$PUCSBASE
  2

  9
$PUCSNAME
  2

  9
$PUCSORG
 10
0.0
 20
0.0
 30
0.0
  9
$PUCSXDIR
 10
1.0
 20
0.0
 30
0.0
  9
$PUCSYDIR
 10
0.0
 20
1.0
 30
0.0
  9
$PUCSORTHOREF
  2

  9
$PUCSORTHOVIEW
 70
     0
  9
$PUCSORGTOP
 10
0.0
 20
0.0
 30
0.0
  9
$PUCSORGBOTTOM
 10
0.0
 20
0.0
 30
0.0
  9
$PUCSORGLEFT
 10
0.0
 20
0.0
 30
0.0
  9
$PUCSORGRIGHT
 10
0.0
 20
0.0
 30
0.0
  9
$PUCSORGFRONT
 10
0.0
 20
0.0
 30
0.0
  9
$PUCSORGBACK
 10
0.0
 20
0.0
 30
0.0
  9
$USERI1
 70
     0
  9
$USERI2
 70
     0
  9
$USERI3
 70
     0
  9
$USERI4
 70
     0
  9
$USERI5
 70
     0
  9
$USERR1
 40
0.0
  9
$USERR2
 40
0.0
  9
$USERR3
 40
0.0
  9
$USERR4
 40
0.0
  9
$USERR5
 40
0.0
  9
$WORLDVIEW
 70
     1
  9
$SHADEDGE
 70
     3
  9
$SHADEDIF
 70
    70
  9
$TILEMODE
 70
     1
  9
$MAXACTVP
 70
    64
  9
$PINSBASE
 10
0.0
 20
0.0
 30
0.0
  9
$PLIMCHECK
 70
     0
  9
$PEXTMIN
 10
1.000000000000000E+20
 20
1.000000000000000E+20
 30
1.000000000000000E+20
  9
$PEXTMAX
 10
-1.000000000000000E+20
 20
-1.000000000000000E+20
 30
-1.000000000000000E+20
  9
$PLIMMIN
 10
0.0
 20
0.0
  9
$PLIMMAX
 10
420.0
 20
297.0
  9
$UNITMODE
 70
     0
  9
$VISRETAIN
 70
     1
  9
$PLINEGEN
 70
     0
  9
$PSLTSCALE
 70
     1
  9
$TREEDEPTH
 70
  3020
  9
$CMLSTYLE
  2
Standard
  9
$CMLJUST
 70
     0
  9
$CMLSCALE
 40
20.0
  9
$PROXYGRAPHICS
 70
     1
  9
$MEASUREMENT
 70
     1
  9
$CELWEIGHT
370
    -1
  9
$ENDCAPS
280
     0
  9
$JOINSTYLE
280
     0
  9
$LWDISPLAY
290
     0
  9
$INSUNITS
 70
     4
  9
$HYPERLINKBASE
  1

  9
$STYLESHEET
  1

  9
$XEDIT
290
     1
  9
$CEPSNTYPE
380
     0
  9
$PSTYLEMODE
290
     1
  9
$FINGERPRINTGUID
  2
{53519FC7-0939-43FB-A859-9276FD3FC494}
  9
$VERSIONGUID
  2
{FAEB1C32-E019-11D5-929B-00C0DF256EC4}
  9
$EXTNAMES
290
     1
  9
$PSVPSCALE
 40
0.0
  9
$OLESTARTUP
290
     0
  0
ENDSEC
  0
SECTION
  2
CLASSES
  0
CLASS
  1
ACDBDICTIONARYWDFLT
  2
AcDbDictionaryWithDefault
  3
ObjectDBX Classes
 90
        0
280
     0
281
     0
  0
CLASS
  1
VISUALSTYLE
  2
AcDbVisualStyle
  3
ObjectDBX Classes
 90
     4095
280
     0
281
     0
  0
CLASS
  1
DICTIONARYVAR
  2
AcDbDictionaryVar
  3
ObjectDBX Classes
 90
        0
280
     0
281
     0
  0
CLASS
  1
ACDBPLACEHOLDER
  2
AcDbPlaceHolder
  3
ObjectDBX Classes
 90
        0
280
     0
281
     0
  0
CLASS
  1
LAYOUT
  2
AcDbLayout
  3
ObjectDBX Classes
 90
        0
280
     0
281
     0
  0
ENDSEC
  0
SECTION
  2
TABLES
  0
TABLE
  2
VPORT
  5
8
330
0
100
AcDbSymbolTable
 70
     1
  0
VPORT
  5
29
330
8
100
AcDbSymbolTableRecord
100
AcDbViewportTableRecord
  2
*Active
 70
     0
 10
0.0
 20
0.0
 11
1.0
 21
1.0
 12
0.0
 22
0.0
 13
0.0
 23
0.0
 14
10.0
 24
10.0
 15
10.0
 25
10.0
 16
0.0
 26
0.0
 36
1.0
 17
0.0
 27
0.0
 37
0.0
 40
3267.0
 41
1.414141414141414
 42
50.0
 43
0.0
 44
0.0
 50
0.0
 51
0.0
 71
     0
 72
 10000
 73
     1
 74
     3
 75
     0
 76
     0
 77
     0
 78
     0
281
     0
 65
     1
110
0.0
120
0.0
130
0.0
111
1.0
121
0.0
131
0.0
112
0.0
122
1.0
132
0.0
 79
     0
146
0.0
  0
ENDTAB
  0
TABLE
  2
LTYPE
  5
5
330
0
100
AcDbSymbolTable
 70
     5
  0
LTYPE
  5
14
330
5
100
AcDbSymbolTableRecord
100
AcDbLinetypeTableRecord
  2
ByBlock
 70
     0
  3

 72
    65
 73
     0
 40
0.0
  0
LTYPE
  5
15
330
5
100
AcDbSymbolTableRecord
100
AcDbLinetypeTableRecord
  2
ByLayer
 70
     0
  3

 72
    65
 73
     0
 40
0.0
  0
LTYPE
  5
16
330
5
100
AcDbSymbolTableRecord
100
AcDbLinetypeTableRecord
  2
Continuous
 70
     0
  3
Solid line
 72
    65
 73
     0
 40
0.0
  0
LTYPE
  5
3C
330
5
100
AcDbSymbolTableRecord
100
AcDbLinetypeTableRecord
  2
JWW_CENTER1
 70
     0
  3
-----  --  ----------  --  -----
 72
    65
 73
     4
 40
6.773333333333333
 49
4.233333333333333
 74
     0
 49
-0.8466666666666667
 74
     0
 49
0.8466666666666667
 74
     0
 49
-0.8466666666666667
 74
     0
  0
LTYPE
  5
3D
330
5
100
AcDbSymbolTableRecord
100
AcDbLinetypeTableRecord
  2
JWW_DASHED3
 70
     0
  3
---  ------  ------  ------  ---
 72
    65
 73
     2
 40
3.386666666666667
 49
2.54
 74
     0
 49
-0.8466666666666667
 74
     0
  0
LTYPE
  5
3E
330
5
100
AcDbSymbolTableRecord
100
AcDbLinetypeTableRecord
  2
JWW_CENTER2
 70
     0
  3
-------------  --  -------------
 72
    65
 73
     4
 40
13.54666666666667
 49
11.00666666666667
 74
     0
 49
-0.8466666666666667
 74
     0
 49
0.8466666666666667
 74
     0
 49
-0.8466666666666667
 74
     0
  0
LTYPE
  5
3F
330
5
100
AcDbSymbolTableRecord
100
AcDbLinetypeTableRecord
  2
JWW_DASHED2
 70
     0
  3
--    ----    ----    ----    --
 72
    65
 73
     2
 40
3.386666666666667
 49
1.693333333333333
 74
     0
 49
-1.693333333333333
 74
     0
  0
ENDTAB
  0
TABLE
  2
LAYER
  5
2
330
0
100
AcDbSymbolTable
 70
    17
  0
LAYER
  5
10
330
2
100
AcDbSymbolTableRecord
100
AcDbLayerTableRecord
  2
0
 70
     0
 62
     7
  6
Continuous
370
    -3
390
F
  0
LAYER
  5
40
330
2
100
AcDbSymbolTableRecord
100
AcDbLayerTableRecord
  2
C-A
 70
     0
 62
     7
  6
Continuous
370
    -3
390
F
  0
LAYER
  5
41
330
2
100
AcDbSymbolTableRecord
100
AcDbLayerTableRecord
  2
C-4
 70
     0
 62
     7
  6
Continuous
370
    -3
390
F
  0
LAYER
  5
42
330
2
100
AcDbSymbolTableRecord
100
AcDbLayerTableRecord
  2
C-5
 70
     0
 62
     7
  6
Continuous
370
    -3
390
F
  0
LAYER
  5
43
330
2
100
AcDbSymbolTableRecord
100
AcDbLayerTableRecord
  2
C-2
 70
     0
 62
     7
  6
Continuous
370
    -3
390
F
  0
LAYER
  5
44
330
2
100
AcDbSymbolTableRecord
100
AcDbLayerTableRecord
  2
C-9
 70
     0
 62
     7
  6
Continuous
370
    -3
390
F
  0
LAYER
  5
45
330
2
100
AcDbSymbolTableRecord
100
AcDbLayerTableRecord
  2
C-1
 70
     0
 62
     7
  6
Continuous
370
    -3
390
F
  0
LAYER
  5
46
330
2
100
AcDbSymbolTableRecord
100
AcDbLayerTableRecord
  2
D-4
 70
     0
 62
     7
  6
Continuous
370
    -3
390
F
  0
LAYER
  5
47
330
2
100
AcDbSymbolTableRecord
100
AcDbLayerTableRecord
  2
D-6
 70
     0
 62
     7
  6
Continuous
370
    -3
390
F
  0
LAYER
  5
48
330
2
100
AcDbSymbolTableRecord
100
AcDbLayerTableRecord
  2
D-5
 70
     0
 62
     7
  6
Continuous
370
    -3
390
F
  0
LAYER
  5
49
330
2
100
AcDbSymbolTableRecord
100
AcDbLayerTableRecord
  2
D-0
 70
     0
 62
     7
  6
Continuous
370
    -3
390
F
  0
LAYER
  5
4A
330
2
100
AcDbSymbolTableRecord
100
AcDbLayerTableRecord
  2
D-9
 70
     0
 62
     7
  6
Continuous
370
    -3
390
F
  0
LAYER
  5
4B
330
2
100
AcDbSymbolTableRecord
100
AcDbLayerTableRecord
  2
D-1
 70
     0
 62
     7
  6
Continuous
370
    -3
390
F
  0
LAYER
  5
4C
330
2
100
AcDbSymbolTableRecord
100
AcDbLayerTableRecord
  2
D-3
 70
     0
 62
     7
  6
Continuous
370
    -3
390
F
  0
LAYER
  5
4D
330
2
100
AcDbSymbolTableRecord
100
AcDbLayerTableRecord
  2
D-A
 70
     0
 62
     7
  6
Continuous
370
    -3
390
F
  0
LAYER
  5
4E
330
2
100
AcDbSymbolTableRecord
100
AcDbLayerTableRecord
  2
D-2
 70
     0
 62
     7
  6
Continuous
370
    -3
390
F
  0
LAYER
  5
4F
330
2
100
AcDbSymbolTableRecord
100
AcDbLayerTableRecord
  2
F-4
 70
     0
 62
     7
  6
Continuous
370
    -3
390
F
  0
ENDTAB
  0
TABLE
  2
STYLE
  5
3
330
0
100
AcDbSymbolTable
 70
     2
  0
STYLE
  5
11
330
3
100
AcDbSymbolTableRecord
100
AcDbTextStyleTableRecord
  2
Standard
 70
     0
 40
0.0
 41
1.0
 50
0.0
 71
     0
 42
2.5
  3
txt
  4

1001
ACAD
1000

1071
        0
  0
STYLE
  5
3B
330
3
100
AcDbSymbolTableRecord
100
AcDbTextStyleTableRecord
  2
ＭＳ ゴシック
 70
     0
 40
1.0
 41
1.0
 50
0.0
 71
     0
 42
10.0
  3

  4

1001
ACAD
1000
MS Gothic
1071
    32817
  0
ENDTAB
  0
TABLE
  2
VIEW
  5
6
330
0
100
AcDbSymbolTable
 70
     0
  0
ENDTAB
  0
TABLE
  2
UCS
  5
7
330
0
100
AcDbSymbolTable
 70
     0
  0
ENDTAB
  0
TABLE
  2
APPID
  5
9
330
0
100
AcDbSymbolTable
 70
     1
  0
APPID
  5
12
330
9
100
AcDbSymbolTableRecord
100
AcDbRegAppTableRecord
  2
ACAD
 70
     0
  0
ENDTAB
  0
TABLE
  2
DIMSTYLE
  5
A
330
0
100
AcDbSymbolTable
 70
     1
100
AcDbDimStyleTable
  0
DIMSTYLE
105
27
330
A
100
AcDbSymbolTableRecord
100
AcDbDimStyleTableRecord
  2
ISO-25
 70
     0
 41
2.5
 42
0.625
 43
3.75
 44
1.25
 73
     0
 74
     0
 77
     1
 78
     8
140
2.5
141
2.5
143
0.03937007874016
147
0.625
171
     3
172
     1
271
     2
272
     2
274
     3
278
    44
283
     0
284
     8
340
11
  0
ENDTAB
  0
TABLE
  2
BLOCK_RECORD
  5
1
330
0
100
AcDbSymbolTable
 70
     1
  0
BLOCK_RECORD
  5
1F
330
1
100
AcDbSymbolTableRecord
100
AcDbBlockTableRecord
  2
*Model_Space
340
22
  0
BLOCK_RECORD
  5
1B
330
1
100
AcDbSymbolTableRecord
100
AcDbBlockTableRecord
  2
*Paper_Space
340
1E
  0
BLOCK_RECORD
  5
23
330
1
100
AcDbSymbolTableRecord
100
AcDbBlockTableRecord
  2
*Paper_Space0
340
26
  0
ENDTAB
  0
ENDSEC
  0
SECTION
  2
BLOCKS
  0
BLOCK
  5
20
330
1F
100
AcDbEntity
  8
0
100
AcDbBlockBegin
  2
*Model_Space
 70
     0
 10
0.0
 20
0.0
 30
0.0
  3
*Model_Space
  1

  0
ENDBLK
  5
21
330
1F
100
AcDbEntity
  8
0
100
AcDbBlockEnd
  0
BLOCK
  5
1C
330
1B
100
AcDbEntity
 67
     1
  8
0
100
AcDbBlockBegin
  2
*Paper_Space
 70
     0
 10
0.0
 20
0.0
 30
0.0
  3
*Paper_Space
  1

  0
ENDBLK
  5
1D
330
1B
100
AcDbEntity
 67
     1
  8
0
100
AcDbBlockEnd
  0
BLOCK
  5
24
330
23
100
AcDbEntity
  8
0
100
AcDbBlockBegin
  2
*Paper_Space0
 70
     0
 10
0.0
 20
0.0
 30
0.0
  3
*Paper_Space0
  1

  0
ENDBLK
  5
25
330
23
100
AcDbEntity
  8
0
100
AcDbBlockEnd
  0
ENDSEC
  0
SECTION
  2
ENTITIES
  0
LINE
  5
50
330
1F
100
AcDbEntity
  8
C-A
  6
Continuous
 62
     3
370
     9
100
AcDbLine
 10
-309.372047441187
 20
763.0510951200722
 30
0.0
 11
-309.372047441187
 21
787.0506220976113
 31
0.0
  0
LINE
  5
51
330
1F
100
AcDbEntity
  8
C-4
  6
Continuous
 62
     7
370
     9
100
AcDbLine
 10
-737.3722305466558
 20
1012.551217190385
 30
0.0
 11
-736.3722458054449
 21
1012.551217190385
 31
0.0
  0
LINE
  5
52
330
1F
100
AcDbEntity
  8
C-4
  6
Continuous
 62
     7
370
     9
100
AcDbLine
 10
-237.3722458054451
 20
1012.551217190385
 30
0.0
 11
-236.3721542527108
 21
1012.551217190385
 31
0.0
  0
LINE
  5
53
330
1F
100
AcDbEntity
  8
C-4
  6
Continuous
 62
     7
370
     9
100
AcDbLine
 10
262.6278152297115
 20
1012.551217190385
 30
0.0
 11
263.6279373000238
 21
1012.551217190385
 31
0.0
  0
LINE
  5
54
330
1F
100
AcDbEntity
  8
C-4
  6
Continuous
 62
     7
370
     9
100
AcDbLine
 10
-987.372276323023
 20
1012.551217190385
 30
0.0
 11
-237.3722458054451
 21
1012.551217190385
 31
0.0
  0
LINE
  5
55
330
1F
100
AcDbEntity
  8
C-4
  6
Continuous
 62
     7
370
     9
100
AcDbLine
 10
-236.3721542527108
 20
1012.551217190385
 30
0.0
 11
513.6278152297111
 21
1012.551217190385
 31
0.0
  0
LINE
  5
56
330
1F
100
AcDbEntity
  8
C-4
  6
Continuous
 62
     7
370
     9
100
AcDbLine
 10
-736.3722458054449
 20
1012.551217190385
 30
0.0
 11
-736.3722458054449
 21
1095.55112563765
 31
0.0
  0
LINE
  5
57
330
1F
100
AcDbEntity
  8
C-4
  6
Continuous
 62
     7
370
     9
100
AcDbLine
 10
-236.3721542527108
 20
1012.551217190385
 30
0.0
 11
-236.3721542527108
 21
1095.55112563765
 31
0.0
  0
LINE
  5
58
330
1F
100
AcDbEntity
  8
C-4
  6
Continuous
 62
     7
370
     9
100
AcDbLine
 10
263.6279373000238
 20
1012.551217190385
 30
0.0
 11
263.6279373000238
 21
1095.55112563765
 31
0.0
  0
LINE
  5
59
330
1F
100
AcDbEntity
  8
C-4
  6
Continuous
 62
     7
370
     9
100
AcDbLine
 10
-236.3721542527108
 20
1092.551064602494
 30
0.0
 11
513.6278152297111
 21
1092.551064602494
 31
0.0
  0
LINE
  5
5A
330
1F
100
AcDbEntity
  8
C-4
  6
Continuous
 62
     7
370
     9
100
AcDbLine
 10
-987.372276323023
 20
1092.551064602494
 30
0.0
 11
-236.3721542527108
 21
1092.551064602494
 31
0.0
  0
LINE
  5
5B
330
1F
100
AcDbEntity
  8
C-5
  6
Continuous
 62
     7
370
     9
100
AcDbLine
 10
50.62787626486767
 20
604.5505000272987
 30
0.0
 11
50.62787626486767
 21
539.5509425321815
 31
0.0
  0
LINE
  5
5C
330
1F
100
AcDbEntity
  8
C-5
  6
Continuous
 62
     7
370
     9
100
AcDbLine
 10
50.62787626486767
 20
539.5509425321815
 30
0.0
 11
-524.3725509812261
 21
539.5509425321815
 31
0.0
  0
LINE
  5
5D
330
1F
100
AcDbEntity
  8
C-5
  6
Continuous
 62
     7
370
     9
100
AcDbLine
 10
-524.3725509812261
 20
604.5505000272987
 30
0.0
 11
50.62787626486767
 21
604.5505000272987
 31
0.0
  0
LINE
  5
5E
330
1F
100
AcDbEntity
  8
C-5
  6
Continuous
 62
     7
370
     9
100
AcDbLine
 10
-524.3725509812261
 20
539.5509425321815
 30
0.0
 11
-524.3725509812261
 21
604.5505000272987
 31
0.0
  0
LINE
  5
5F
330
1F
100
AcDbEntity
  8
C-2
  6
Continuous
 62
     3
370
     9
100
AcDbLine
 10
-1007.372367875757
 20
797.5509425321815
 30
0.0
 11
-967.3721847702888
 21
827.5515834013221
 31
0.0
  0
LINE
  5
60
330
1F
100
AcDbEntity
  8
C-2
  6
Continuous
 62
     3
370
     9
100
AcDbLine
 10
-1007.372367875757
 20
797.5509425321815
 30
0.0
 11
-987.372276323023
 21
797.5509425321815
 31
0.0
  0
LINE
  5
61
330
1F
100
AcDbEntity
  8
C-2
  6
Continuous
 62
     3
370
     9
100
AcDbLine
 10
-987.372276323023
 20
827.5515834013221
 30
0.0
 11
-967.3721847702888
 21
827.5515834013221
 31
0.0
  0
LINE
  5
62
330
1F
100
AcDbEntity
  8
C-2
  6
Continuous
 62
     3
370
     9
100
AcDbLine
 10
493.6277541945552
 20
797.5509425321815
 30
0.0
 11
533.6279373000239
 21
827.5515834013221
 31
0.0
  0
LINE
  5
63
330
1F
100
AcDbEntity
  8
C-2
  6
Continuous
 62
     3
370
     9
100
AcDbLine
 10
493.6277541945552
 20
797.5509425321815
 30
0.0
 11
513.6278152297111
 21
797.5509425321815
 31
0.0
  0
LINE
  5
64
330
1F
100
AcDbEntity
  8
C-2
  6
Continuous
 62
     3
370
     9
100
AcDbLine
 10
513.6278152297111
 20
827.5515834013221
 30
0.0
 11
533.6279373000239
 21
827.5515834013221
 31
0.0
  0
LINE
  5
65
330
1F
100
AcDbEntity
  8
C-5
  6
Continuous
 62
     7
370
     9
100
AcDbLine
 10
513.6278152297111
 20
539.5509425321815
 30
0.0
 11
513.6278152297111
 21
604.5505000272987
 31
0.0
  0
LINE
  5
66
330
1F
100
AcDbEntity
  8
C-5
  6
Continuous
 62
     7
370
     9
100
AcDbLine
 10
513.6278152297111
 20
604.5505000272987
 30
0.0
 11
1088.628791792212
 21
604.5505000272987
 31
0.0
  0
LINE
  5
67
330
1F
100
AcDbEntity
  8
C-5
  6
Continuous
 62
     7
370
     9
100
AcDbLine
 10
1088.628791792212
 20
604.5505000272987
 30
0.0
 11
1088.628791792212
 21
539.5509425321815
 31
0.0
  0
LINE
  5
68
330
1F
100
AcDbEntity
  8
C-5
  6
Continuous
 62
     7
370
     9
100
AcDbLine
 10
1088.628791792212
 20
539.5509425321815
 30
0.0
 11
513.6278152297111
 21
539.5509425321815
 31
0.0
  0
LINE
  5
69
330
1F
100
AcDbEntity
  8
C-2
  6
Continuous
 62
     3
370
     9
100
AcDbLine
 10
786.1280593703364
 20
660.3804179350135
 30
0.0
 11
786.1280593703364
 21
780.3804865995643
 31
0.0
  0
LINE
  5
6A
330
1F
100
AcDbEntity
  8
C-2
  6
Continuous
 62
     3
370
     9
100
AcDbLine
 10
816.1281814406484
 20
660.3804179350135
 30
0.0
 11
816.1281814406484
 21
780.3804865995643
 31
0.0
  0
LINE
  5
6B
330
1F
100
AcDbEntity
  8
C-2
  6
JWW_CENTER1
 62
     3
370
     9
100
AcDbLine
 10
801.1283035109616
 20
633.1950389066933
 30
0.0
 11
801.1283035109616
 21
810.2181178251503
 31
0.0
  0
LINE
  5
6C
330
1F
100
AcDbEntity
  8
C-2
  6
JWW_CENTER1
 62
     3
370
     9
100
AcDbLine
 10
829.6148757765864
 20
720.3802119413613
 30
0.0
 11
774.3056716750234
 21
720.3802119413613
 31
0.0
  0
LINE
  5
6D
330
1F
100
AcDbEntity
  8
C-4
  6
Continuous
 62
     7
370
     9
100
AcDbLine
 10
-539.4836054016971
 20
800.0506068388222
 30
0.0
 11
-539.4836054016971
 21
857.2019435087441
 31
0.0
  0
LINE
  5
6E
330
1F
100
AcDbEntity
  8
C-4
  6
Continuous
 62
     7
370
     9
100
AcDbLine
 10
-539.4836054016971
 20
740.4650202909705
 30
0.0
 11
-539.4836054016971
 21
800.0506068388222
 31
0.0
  0
LINE
  5
6F
330
1F
100
AcDbEntity
  8
C-4
  6
Continuous
 62
     7
370
     9
100
AcDbLine
 10
903.1307449172109
 20
645.3806010404822
 30
0.0
 11
903.1307449172109
 21
795.3803034940955
 31
0.0
  0
LINE
  5
70
330
1F
100
AcDbEntity
  8
C-4
  6
Continuous
 62
     7
370
     9
100
AcDbLine
 10
823.2694167922116
 20
645.3806010404822
 30
0.0
 11
906.1308669875236
 21
645.3806010404822
 31
0.0
  0
LINE
  5
71
330
1F
100
AcDbEntity
  8
C-4
  6
Continuous
 62
     7
370
     9
100
AcDbLine
 10
823.2694167922116
 20
795.3803034940955
 30
0.0
 11
906.1308669875236
 21
795.3803034940955
 31
0.0
  0
LINE
  5
72
330
1F
100
AcDbEntity
  8
C-4
  6
Continuous
 62
     7
370
     9
100
AcDbLine
 10
786.1280593703364
 20
841.3152247587441
 30
0.0
 11
816.1284255812736
 21
841.3152247587441
 31
0.0
  0
LINE
  5
73
330
1F
100
AcDbEntity
  8
C-4
  6
Continuous
 62
     7
370
     9
100
AcDbLine
 10
786.1280593703364
 20
799.2310877958533
 30
0.0
 11
786.1280593703364
 21
844.3152857939003
 31
0.0
  0
LINE
  5
74
330
1F
100
AcDbEntity
  8
C-4
  6
Continuous
 62
     7
370
     9
100
AcDbLine
 10
816.1284255812736
 20
799.2310877958533
 30
0.0
 11
816.1284255812736
 21
844.3152857939003
 31
0.0
  0
LINE
  5
75
330
1F
100
AcDbEntity
  8
C-9
  6
Continuous
 62
     6
370
     9
100
AcDbLine
 10
-237.3722458054451
 20
788.5507594267128
 30
0.0
 11
-259.372306840601
 21
788.5507594267128
 31
0.0
  0
LINE
  5
76
330
1F
100
AcDbEntity
  8
C-9
  6
Continuous
 62
     6
370
     9
100
AcDbLine
 10
-390.3301620652107
 20
812.5502711454628
 30
0.0
 11
-409.4141311814215
 21
812.5502711454628
 31
0.0
  0
LINE
  5
77
330
1F
100
AcDbEntity
  8
C-9
  6
Continuous
 62
     6
370
     9
100
AcDbLine
 10
-415.3300247361088
 20
812.5502711454628
 30
0.0
 11
-434.4140014817143
 21
812.5502711454628
 31
0.0
  0
LINE
  5
78
330
1F
100
AcDbEntity
  8
C-9
  6
Continuous
 62
     6
370
     9
100
AcDbLine
 10
-340.3299331833747
 20
812.5502711454628
 30
0.0
 11
-359.4143905808355
 21
812.5502711454628
 31
0.0
  0
LINE
  5
79
330
1F
100
AcDbEntity
  8
C-9
  6
Continuous
 62
     6
370
     9
100
AcDbLine
 10
-365.3302841355233
 20
812.5502711454628
 30
0.0
 11
-384.4142685105228
 21
812.5502711454628
 31
0.0
  0
LINE
  5
7A
330
1F
100
AcDbEntity
  8
C-9
  6
Continuous
 62
     6
370
     9
100
AcDbLine
 10
-290.3301925827887
 20
812.5502711454628
 30
0.0
 11
-309.4141616989995
 21
812.5502711454628
 31
0.0
  0
LINE
  5
7B
330
1F
100
AcDbEntity
  8
C-9
  6
Continuous
 62
     6
370
     9
100
AcDbLine
 10
-315.3300552536874
 20
812.5502711454628
 30
0.0
 11
-334.4140243698982
 21
812.5502711454628
 31
0.0
  0
LINE
  5
7C
330
1F
100
AcDbEntity
  8
C-9
  6
Continuous
 62
     6
370
     9
100
AcDbLine
 10
-237.3722458054451
 20
812.5502711454628
 30
0.0
 11
-259.4144210984135
 21
812.5502711454628
 31
0.0
  0
LINE
  5
7D
330
1F
100
AcDbEntity
  8
C-9
  6
Continuous
 62
     6
370
     9
100
AcDbLine
 10
-265.3303146531013
 20
812.5502711454628
 30
0.0
 11
-284.4142837693121
 21
812.5502711454628
 31
0.0
  0
LINE
  5
7E
330
1F
100
AcDbEntity
  8
C-9
  6
Continuous
 62
     6
370
     9
100
AcDbLine
 10
-515.3721122910408
 20
740.5507441679237
 30
0.0
 11
-518.95038844842
 21
740.5507441679237
 31
0.0
  0
LINE
  5
7F
330
1F
100
AcDbEntity
  8
C-9
  6
Continuous
 62
     6
370
     9
100
AcDbLine
 10
-390.3722763230232
 20
866.5504237333533
 30
0.0
 11
-392.9509353806404
 21
866.5504237333533
 31
0.0
  0
LINE
  5
80
330
1F
100
AcDbEntity
  8
C-9
  6
Continuous
 62
     6
370
     9
100
AcDbLine
 10
-415.3721389939213
 20
842.5509120146035
 30
0.0
 11
-416.9504547287849
 21
842.5509120146035
 31
0.0
  0
LINE
  5
81
330
1F
100
AcDbEntity
  8
C-9
  6
Continuous
 62
     6
370
     9
100
AcDbLine
 10
-440.3298950364021
 20
812.5502711454628
 30
0.0
 11
-446.9509658982182
 21
812.5502711454628
 31
0.0
  0
LINE
  5
82
330
1F
100
AcDbEntity
  8
C-9
  6
Continuous
 62
     6
370
     9
100
AcDbLine
 10
-440.3720092942146
 20
818.5504237333533
 30
0.0
 11
-440.9509658982185
 21
818.5504237333533
 31
0.0
  0
LINE
  5
83
330
1F
100
AcDbEntity
  8
C-9
  6
Continuous
 62
     6
370
     9
100
AcDbLine
 10
-183.3720932175541
 20
788.110406033158
 30
0.0
 11
-164.1790085007577
 21
788.110406033158
 31
0.0
  0
LINE
  5
84
330
1F
100
AcDbEntity
  8
C-9
  6
Continuous
 62
     6
370
     9
100
AcDbLine
 10
-158.5656051804452
 20
788.110406033158
 30
0.0
 11
-139.3720016648197
 21
788.110406033158
 31
0.0
  0
LINE
  5
85
330
1F
100
AcDbEntity
  8
C-9
  6
Continuous
 62
     6
370
     9
100
AcDbLine
 10
-133.3723678757573
 20
788.110406033158
 30
0.0
 11
-114.1787643601324
 21
788.110406033158
 31
0.0
  0
LINE
  5
86
330
1F
100
AcDbEntity
  8
C-9
  6
Continuous
 62
     6
370
     9
100
AcDbLine
 10
-236.3721542527108
 20
813.1103907743691
 30
0.0
 11
-214.3720932175543
 21
813.1103907743691
 31
0.0
  0
LINE
  5
87
330
1F
100
AcDbEntity
  8
C-9
  6
Continuous
 62
     6
370
     9
100
AcDbLine
 10
-108.3720016648201
 20
813.1103907743691
 30
0.0
 11
-89.17903901833569
 21
813.1103907743691
 31
0.0
  0
LINE
  5
88
330
1F
100
AcDbEntity
  8
C-9
  6
Continuous
 62
     6
370
     9
100
AcDbLine
 10
-58.56572725075722
 20
838.1103907743691
 30
0.0
 11
-39.37203218239773
 21
838.1103907743691
 31
0.0
  0
LINE
  5
89
330
1F
100
AcDbEntity
  8
C-9
  6
Continuous
 62
     6
370
     9
100
AcDbLine
 10
-236.3721542527108
 20
863.1103907743691
 30
0.0
 11
-214.3720932175543
 21
863.1103907743691
 31
0.0
  0
ARC
  5
8A
330
1F
100
AcDbEntity
  8
C-2
  6
Continuous
 62
     3
370
     9
100
AcDbCircle
 10
801.1283035109616
 20
660.3804179350135
 30
0.0
 40
14.99999809265137
100
AcDbArc
 50
180.0
 51
0.0
  0
ARC
  5
8B
330
1F
100
AcDbEntity
  8
C-2
  6
Continuous
 62
     3
370
     9
100
AcDbCircle
 10
801.1283035109616
 20
780.3804865995643
 30
0.0
 40
14.99999809265137
100
AcDbArc
 50
0.0
 51
180.0
  0
LWPOLYLINE
  5
8C
330
1F
100
AcDbEntity
  8
C-4
  6
Continuous
 62
     7
370
     9
100
AcDbPolyline
 90
        4
 70
     1
 43
1.0
 10
-736.8722305466558
 20
1012.551217190385
 42
0.4142135623731
 10
-737.3722305466558
 20
1013.051217190385
 42
0.4142135623731
 10
-737.8722305466557
 20
1012.551217190385
 42
0.4142135623731
 10
-737.3722305466558
 20
1012.051217190385
 42
0.4142135623731
  0
LWPOLYLINE
  5
8D
330
1F
100
AcDbEntity
  8
C-4
  6
Continuous
 62
     7
370
     9
100
AcDbPolyline
 90
        4
 70
     1
 43
1.0
 10
-735.8722458054449
 20
1012.551217190385
 42
0.4142135623731
 10
-736.3722458054449
 20
1013.051217190385
 42
0.4142135623731
 10
-736.8722458054448
 20
1012.551217190385
 42
0.4142135623731
 10
-736.3722458054449
 20
1012.051217190385
 42
0.4142135623731
  0
LWPOLYLINE
  5
8E
330
1F
100
AcDbEntity
  8
C-4
  6
Continuous
 62
     7
370
     9
100
AcDbPolyline
 90
        4
 70
     1
 43
1.0
 10
-236.8722458054451
 20
1012.551217190385
 42
0.4142135623731
 10
-237.3722458054451
 20
1013.051217190385
 42
0.4142135623731
 10
-237.8722458054451
 20
1012.551217190385
 42
0.4142135623731
 10
-237.3722458054451
 20
1012.051217190385
 42
0.4142135623731
  0
LWPOLYLINE
  5
8F
330
1F
100
AcDbEntity
  8
C-4
  6
Continuous
 62
     7
370
     9
100
AcDbPolyline
 90
        4
 70
     1
 43
1.0
 10
-235.8721542527108
 20
1012.551217190385
 42
0.4142135623731
 10
-236.3721542527108
 20
1013.051217190385
 42
0.4142135623731
 10
-236.8721542527108
 20
1012.551217190385
 42
0.4142135623731
 10
-236.3721542527108
 20
1012.051217190385
 42
0.4142135623731
  0
LWPOLYLINE
  5
90
330
1F
100
AcDbEntity
  8
C-4
  6
Continuous
 62
     7
370
     9
100
AcDbPolyline
 90
        4
 70
     1
 43
1.0
 10
263.1278152297115
 20
1012.551217190385
 42
0.4142135623731
 10
262.6278152297115
 20
1013.051217190385
 42
0.4142135623731
 10
262.1278152297115
 20
1012.551217190385
 42
0.4142135623731
 10
262.6278152297115
 20
1012.051217190385
 42
0.4142135623731
  0
LWPOLYLINE
  5
91
330
1F
100
AcDbEntity
  8
C-4
  6
Continuous
 62
     7
370
     9
100
AcDbPolyline
 90
        4
 70
     1
 43
1.0
 10
264.1279373000238
 20
1012.551217190385
 42
0.4142135623731
 10
263.6279373000238
 20
1013.051217190385
 42
0.4142135623731
 10
263.1279373000238
 20
1012.551217190385
 42
0.4142135623731
 10
263.6279373000238
 20
1012.051217190385
 42
0.4142135623731
  0
LWPOLYLINE
  5
92
330
1F
100
AcDbEntity
  8
C-4
  6
Continuous
 62
     7
370
     9
100
AcDbPolyline
 90
        4
 70
     1
 43
1.0
 10
-735.8722458054449
 20
1092.551064602494
 42
0.4142135623731
 10
-736.3722458054449
 20
1093.051064602494
 42
0.4142135623731
 10
-736.8722458054448
 20
1092.551064602494
 42
0.4142135623731
 10
-736.3722458054449
 20
1092.051064602494
 42
0.4142135623731
  0
LWPOLYLINE
  5
93
330
1F
100
AcDbEntity
  8
C-4
  6
Continuous
 62
     7
370
     9
100
AcDbPolyline
 90
        4
 70
     1
 43
1.0
 10
-235.8721542527108
 20
1092.551064602494
 42
0.4142135623731
 10
-236.3721542527108
 20
1093.051064602494
 42
0.4142135623731
 10
-236.8721542527108
 20
1092.551064602494
 42
0.4142135623731
 10
-236.3721542527108
 20
1092.051064602494
 42
0.4142135623731
  0
LWPOLYLINE
  5
94
330
1F
100
AcDbEntity
  8
C-4
  6
Continuous
 62
     7
370
     9
100
AcDbPolyline
 90
        4
 70
     1
 43
1.0
 10
264.1279373000238
 20
1092.551064602494
 42
0.4142135623731
 10
263.6279373000238
 20
1093.051064602494
 42
0.4142135623731
 10
263.1279373000238
 20
1092.551064602494
 42
0.4142135623731
 10
263.6279373000238
 20
1092.051064602494
 42
0.4142135623731
  0
LWPOLYLINE
  5
95
330
1F
100
AcDbEntity
  8
C-4
  6
Continuous
 62
     7
370
     9
100
AcDbPolyline
 90
        4
 70
     1
 43
1.0
 10
-538.9836054016972
 20
775.0507289091347
 42
0.4142135623731
 10
-539.4836054016971
 20
775.5507289091347
 42
0.4142135623731
 10
-539.9836054016971
 20
775.0507289091347
 42
0.4142135623731
 10
-539.4836054016971
 20
774.5507289091347
 42
0.4142135623731
  0
LWPOLYLINE
  5
96
330
1F
100
AcDbEntity
  8
C-4
  6
Continuous
 62
     7
370
     9
100
AcDbPolyline
 90
        4
 70
     1
 43
1.0
 10
-538.9836054016972
 20
800.0506068388222
 42
0.4142135623731
 10
-539.4836054016971
 20
800.5506068388222
 42
0.4142135623731
 10
-539.9836054016971
 20
800.0506068388222
 42
0.4142135623731
 10
-539.4836054016971
 20
799.5506068388222
 42
0.4142135623731
  0
LWPOLYLINE
  5
97
330
1F
100
AcDbEntity
  8
C-4
  6
Continuous
 62
     7
370
     9
100
AcDbPolyline
 90
        4
 70
     1
 43
1.0
 10
-538.9836054016972
 20
825.0504542509316
 42
0.4142135623731
 10
-539.4836054016971
 20
825.5504542509316
 42
0.4142135623731
 10
-539.9836054016971
 20
825.0504542509316
 42
0.4142135623731
 10
-539.4836054016971
 20
824.5504542509316
 42
0.4142135623731
  0
LWPOLYLINE
  5
98
330
1F
100
AcDbEntity
  8
C-4
  6
Continuous
 62
     7
370
     9
100
AcDbPolyline
 90
        4
 70
     1
 43
1.0
 10
903.6307449172109
 20
645.3806010404822
 42
0.4142135623731
 10
903.1307449172109
 20
645.8806010404822
 42
0.4142135623731
 10
902.630744917211
 20
645.3806010404822
 42
0.4142135623731
 10
903.1307449172109
 20
644.8806010404824
 42
0.4142135623731
  0
LWPOLYLINE
  5
99
330
1F
100
AcDbEntity
  8
C-4
  6
Continuous
 62
     7
370
     9
100
AcDbPolyline
 90
        4
 70
     1
 43
1.0
 10
903.6307449172109
 20
795.3803034940955
 42
0.4142135623731
 10
903.1307449172109
 20
795.8803034940955
 42
0.4142135623731
 10
902.630744917211
 20
795.3803034940955
 42
0.4142135623731
 10
903.1307449172109
 20
794.8803034940955
 42
0.4142135623731
  0
LWPOLYLINE
  5
9A
330
1F
100
AcDbEntity
  8
C-4
  6
Continuous
 62
     7
370
     9
100
AcDbPolyline
 90
        4
 70
     1
 43
1.0
 10
786.6280593703364
 20
841.3152247587441
 42
0.4142135623731
 10
786.1280593703364
 20
841.8152247587441
 42
0.4142135623731
 10
785.6280593703365
 20
841.3152247587441
 42
0.4142135623731
 10
786.1280593703364
 20
840.8152247587441
 42
0.4142135623731
  0
LWPOLYLINE
  5
9B
330
1F
100
AcDbEntity
  8
C-4
  6
Continuous
 62
     7
370
     9
100
AcDbPolyline
 90
        4
 70
     1
 43
1.0
 10
816.6284255812736
 20
841.3152247587441
 42
0.4142135623731
 10
816.1284255812736
 20
841.8152247587441
 42
0.4142135623731
 10
815.6284255812737
 20
841.3152247587441
 42
0.4142135623731
 10
816.1284255812736
 20
840.8152247587441
 42
0.4142135623731
  0
TEXT
  5
9C
330
1F
100
AcDbEntity
  8
C-4
  6
Continuous
 62
     2
370
     9
100
AcDbText
 10
-768.3773117234136
 20
1023.191003567338
 30
0.0
 40
30.48
  1
1
 41
0.9999999999999998
  7
ＭＳ ゴシック
100
AcDbText
  0
TEXT
  5
9D
330
1F
100
AcDbEntity
  8
C-4
  6
Continuous
 62
     2
370
     9
100
AcDbText
 10
-519.3722801377205
 20
1023.191003567338
 30
0.0
 40
30.48
  1
499
 41
1.083333333333333
  7
ＭＳ ゴシック
100
AcDbText
  0
TEXT
  5
9E
330
1F
100
AcDbEntity
  8
C-4
  6
Continuous
 62
     2
370
     9
100
AcDbText
 10
-268.37720491189
 20
1023.191003567338
 30
0.0
 40
30.48
  1
1
 41
0.9999999999999998
  7
ＭＳ ゴシック
100
AcDbText
  0
TEXT
  5
9F
330
1F
100
AcDbEntity
  8
C-4
  6
Continuous
 62
     2
370
     9
100
AcDbText
 10
-19.37218477028836
 20
1023.191003567338
 30
0.0
 40
30.48
  1
499
 41
1.083333333333333
  7
ＭＳ ゴシック
100
AcDbText
  0
TEXT
  5
A0
330
1F
100
AcDbEntity
  8
C-4
  6
Continuous
 62
     2
370
     9
100
AcDbText
 10
231.6228713820553
 20
1023.191003567338
 30
0.0
 40
30.48
  1
1
 41
0.9999999999999998
  7
ＭＳ ゴシック
100
AcDbText
  0
TEXT
  5
A1
330
1F
100
AcDbEntity
  8
C-4
  6
Continuous
 62
     2
370
     9
100
AcDbText
 10
-518.8722281624703
 20
1103.190881497025
 30
0.0
 40
30.48
  1
500
 41
1.083333333333333
  7
ＭＳ ゴシック
100
AcDbText
  0
TEXT
  5
A2
330
1F
100
AcDbEntity
  8
C-4
  6
Continuous
 62
     2
370
     9
100
AcDbText
 10
-18.87200166481961
 20
1103.190881497025
 30
0.0
 40
30.48
  1
500
 41
1.083333333333333
  7
ＭＳ ゴシック
100
AcDbText
  0
TEXT
  5
A3
330
1F
100
AcDbEntity
  8
C-5
  6
Continuous
 62
     2
370
     9
100
AcDbText
 10
-504.3724575211431
 20
557.6906287733314
 30
0.0
 40
30.48
  1
平面詳細図　Ｓ＝１：１０
 41
1.114583333333333
  7
ＭＳ ゴシック
100
AcDbText
  0
TEXT
  5
A4
330
1F
100
AcDbEntity
  8
C-5
  6
Continuous
 62
     2
370
     9
100
AcDbText
 10
556.1286697218989
 20
557.6906287733314
 30
0.0
 40
30.48
  1
排水穴詳細　Ｓ＝１：２
 41
1.113636363636364
  7
ＭＳ ゴシック
100
AcDbText
  0
TEXT
  5
A5
330
1F
100
AcDbEntity
  8
C-4
  6
Continuous
 62
     2
370
     9
100
AcDbText
 10
-550.123629243555
 20
740.0612114506883
 30
0.0
 40
30.48
  1
25
 50
90.0000025044782
 41
1.062500000000001
  7
ＭＳ ゴシック
100
AcDbText
  0
TEXT
  5
A6
330
1F
100
AcDbEntity
  8
C-4
  6
Continuous
 62
     2
370
     9
100
AcDbText
 10
-550.123629243555
 20
816.649788721196
 30
0.0
 40
30.48
  1
25
 50
90.0000025044782
 41
1.062500000000001
  7
ＭＳ ゴシック
100
AcDbText
  0
TEXT
  5
A7
330
1F
100
AcDbEntity
  8
C-4
  6
Continuous
 62
     2
370
     9
100
AcDbText
 10
892.4907449172109
 20
699.1305321293993
 30
0.0
 40
30.48
  1
30
 50
90.00000250447789
 41
1.062500000000001
  7
ＭＳ ゴシック
100
AcDbText
  0
TEXT
  5
A8
330
1F
100
AcDbEntity
  8
C-4
  6
Continuous
 62
     2
370
     9
100
AcDbText
 10
791.1283035109616
 20
851.954980618119
 30
0.0
 40
30.48
  1
6
 41
0.9999999999999998
  7
ＭＳ ゴシック
100
AcDbText
  0
LINE
  5
A9
330
1F
100
AcDbEntity
  8
C-2
  6
Continuous
 62
     3
370
     9
100
AcDbLine
 10
-737.3722305466558
 20
887.5512477079627
 30
0.0
 11
-987.372276323023
 21
887.5512477079627
 31
0.0
  0
LINE
  5
AA
330
1F
100
AcDbEntity
  8
C-2
  6
Continuous
 62
     3
370
     9
100
AcDbLine
 10
-736.3722458054449
 20
887.5512477079627
 30
0.0
 11
-237.3722458054451
 21
887.5512477079627
 31
0.0
  0
LINE
  5
AB
330
1F
100
AcDbEntity
  8
C-1
  6
Continuous
 62
     2
370
     9
100
AcDbLine
 10
-987.372276323023
 20
888.5515834013222
 30
0.0
 11
513.6278152297111
 21
888.5515834013222
 31
0.0
  0
LINE
  5
AC
330
1F
100
AcDbEntity
  8
C-2
  6
Continuous
 62
     3
370
     9
100
AcDbLine
 10
-236.3721542527108
 20
887.5512477079627
 30
0.0
 11
262.6278152297115
 21
887.5512477079627
 31
0.0
  0
LINE
  5
AD
330
1F
100
AcDbEntity
  8
C-2
  6
Continuous
 62
     3
370
     9
100
AcDbLine
 10
263.6279373000238
 20
887.5512477079627
 30
0.0
 11
513.6278152297111
 21
887.5512477079627
 31
0.0
  0
LINE
  5
AE
330
1F
100
AcDbEntity
  8
C-4
  6
Continuous
 62
     7
370
     9
100
AcDbLine
 10
-737.3722305466558
 20
907.5513392606972
 30
0.0
 11
-737.3722305466558
 21
1015.551278225541
 31
0.0
  0
LINE
  5
AF
330
1F
100
AcDbEntity
  8
C-4
  6
Continuous
 62
     7
370
     9
100
AcDbLine
 10
-736.3722458054449
 20
907.5513392606972
 30
0.0
 11
-736.3722458054449
 21
1015.551278225541
 31
0.0
  0
LINE
  5
B0
330
1F
100
AcDbEntity
  8
C-4
  6
Continuous
 62
     7
370
     9
100
AcDbLine
 10
-237.3722458054451
 20
907.5513392606972
 30
0.0
 11
-237.3722458054451
 21
1015.551278225541
 31
0.0
  0
LINE
  5
B1
330
1F
100
AcDbEntity
  8
C-4
  6
Continuous
 62
     7
370
     9
100
AcDbLine
 10
-236.3721542527108
 20
907.5513392606972
 30
0.0
 11
-236.3721542527108
 21
1015.551278225541
 31
0.0
  0
LINE
  5
B2
330
1F
100
AcDbEntity
  8
C-4
  6
Continuous
 62
     7
370
     9
100
AcDbLine
 10
262.6278152297115
 20
907.5513392606972
 30
0.0
 11
262.6278152297115
 21
1015.551278225541
 31
0.0
  0
LINE
  5
B3
330
1F
100
AcDbEntity
  8
C-4
  6
Continuous
 62
     7
370
     9
100
AcDbLine
 10
263.6279373000238
 20
907.5513392606972
 30
0.0
 11
263.6279373000238
 21
1015.551278225541
 31
0.0
  0
LINE
  5
B4
330
1F
100
AcDbEntity
  8
C-2
  6
Continuous
 62
     3
370
     9
100
AcDbLine
 10
513.6278152297111
 20
910.5514002958535
 30
0.0
 11
513.6278152297111
 21
827.5515834013221
 31
0.0
  0
LINE
  5
B5
330
1F
100
AcDbEntity
  8
C-2
  6
Continuous
 62
     3
370
     9
100
AcDbLine
 10
-987.372276323023
 20
827.5515834013221
 30
0.0
 11
-987.372276323023
 21
910.5514002958535
 31
0.0
  0
LINE
  5
B6
330
1F
100
AcDbEntity
  8
C-2
  6
Continuous
 62
     3
370
     9
100
AcDbLine
 10
-987.372276323023
 20
737.55080520308
 30
0.0
 11
-737.3722305466558
 21
737.55080520308
 31
0.0
  0
LINE
  5
B7
330
1F
100
AcDbEntity
  8
C-2
  6
Continuous
 62
     3
370
     9
100
AcDbLine
 10
263.6279373000238
 20
737.55080520308
 30
0.0
 11
513.6278152297111
 21
737.55080520308
 31
0.0
  0
LINE
  5
B8
330
1F
100
AcDbEntity
  8
C-2
  6
Continuous
 62
     3
370
     9
100
AcDbLine
 10
513.6278152297111
 20
797.5509425321815
 30
0.0
 11
513.6278152297111
 21
714.5506526151894
 31
0.0
  0
LINE
  5
B9
330
1F
100
AcDbEntity
  8
C-2
  6
Continuous
 62
     3
370
     9
100
AcDbLine
 10
262.6278152297115
 20
887.5512477079627
 30
0.0
 11
262.6278152297115
 21
737.55080520308
 31
0.0
  0
LINE
  5
BA
330
1F
100
AcDbEntity
  8
C-2
  6
Continuous
 62
     3
370
     9
100
AcDbLine
 10
263.6279373000238
 20
887.5512477079627
 30
0.0
 11
263.6279373000238
 21
737.55080520308
 31
0.0
  0
LINE
  5
BB
330
1F
100
AcDbEntity
  8
C-2
  6
Continuous
 62
     3
370
     9
100
AcDbLine
 10
-237.3722458054451
 20
887.5512477079627
 30
0.0
 11
-237.3722458054451
 21
737.55080520308
 31
0.0
  0
LINE
  5
BC
330
1F
100
AcDbEntity
  8
C-2
  6
Continuous
 62
     3
370
     9
100
AcDbLine
 10
-236.3721542527108
 20
887.5512477079627
 30
0.0
 11
-236.3721542527108
 21
737.55080520308
 31
0.0
  0
LINE
  5
BD
330
1F
100
AcDbEntity
  8
C-2
  6
Continuous
 62
     3
370
     9
100
AcDbLine
 10
-987.372276323023
 20
714.5506526151894
 30
0.0
 11
-987.372276323023
 21
797.5509425321815
 31
0.0
  0
LINE
  5
BE
330
1F
100
AcDbEntity
  8
C-2
  6
Continuous
 62
     3
370
     9
100
AcDbLine
 10
-736.3722458054449
 20
737.55080520308
 30
0.0
 11
-736.3722458054449
 21
887.5512477079627
 31
0.0
  0
LINE
  5
BF
330
1F
100
AcDbEntity
  8
C-2
  6
Continuous
 62
     3
370
     9
100
AcDbLine
 10
-737.3722305466558
 20
737.55080520308
 30
0.0
 11
-737.3722305466558
 21
887.5512477079627
 31
0.0
  0
LINE
  5
C0
330
1F
100
AcDbEntity
  8
C-A
  6
Continuous
 62
     3
370
     9
100
AcDbLine
 10
-214.3720932175543
 20
862.0507289091347
 30
0.0
 11
-214.3720932175543
 21
838.0511866728066
 31
0.0
  0
LINE
  5
C1
330
1F
100
AcDbEntity
  8
C-A
  6
Continuous
 62
     3
370
     9
100
AcDbLine
 10
-208.3722152878667
 20
862.0507289091347
 30
0.0
 11
-208.3722152878667
 21
838.0511866728066
 31
0.0
  0
LINE
  5
C2
330
1F
100
AcDbEntity
  8
C-A
  6
Continuous
 62
     3
370
     9
100
AcDbLine
 10
-158.3722458054447
 20
862.0507289091347
 30
0.0
 11
-158.3722458054447
 21
838.0511866728066
 31
0.0
  0
LINE
  5
C3
330
1F
100
AcDbEntity
  8
C-A
  6
Continuous
 62
     3
370
     9
100
AcDbLine
 10
-189.3722152878669
 20
837.0513392606972
 30
0.0
 11
-189.3722152878669
 21
813.0518275419472
 31
0.0
  0
LINE
  5
C4
330
1F
100
AcDbEntity
  8
C-A
  6
Continuous
 62
     3
370
     9
100
AcDbLine
 10
-183.3720932175541
 20
837.0513392606972
 30
0.0
 11
-183.3720932175541
 21
813.0518275419472
 31
0.0
  0
LINE
  5
C5
330
1F
100
AcDbEntity
  8
C-A
  6
Continuous
 62
     3
370
     9
100
AcDbLine
 10
-139.3720016648197
 20
837.0513392606972
 30
0.0
 11
-139.3720016648197
 21
813.0518275419472
 31
0.0
  0
LINE
  5
C6
330
1F
100
AcDbEntity
  8
C-A
  6
Continuous
 62
     3
370
     9
100
AcDbLine
 10
-133.3723678757573
 20
837.0513392606972
 30
0.0
 11
-133.3723678757573
 21
813.0518275419472
 31
0.0
  0
LINE
  5
C7
330
1F
100
AcDbEntity
  8
C-A
  6
Continuous
 62
     3
370
     9
100
AcDbLine
 10
-164.3723678757576
 20
862.0507289091347
 30
0.0
 11
-164.3723678757576
 21
838.0511866728066
 31
0.0
  0
LINE
  5
C8
330
1F
100
AcDbEntity
  8
C-A
  6
Continuous
 62
     3
370
     9
100
AcDbLine
 10
-108.3720016648201
 20
862.0507289091347
 30
0.0
 11
-108.3720016648201
 21
838.0511866728066
 31
0.0
  0
LINE
  5
C9
330
1F
100
AcDbEntity
  8
C-A
  6
Continuous
 62
     3
370
     9
100
AcDbLine
 10
-89.37175752419506
 20
837.0513392606972
 30
0.0
 11
-89.37175752419506
 21
813.0518275419472
 31
0.0
  0
LINE
  5
CA
330
1F
100
AcDbEntity
  8
C-A
  6
Continuous
 62
     3
370
     9
100
AcDbLine
 10
-83.3721237351321
 20
837.0513392606972
 30
0.0
 11
-83.3721237351321
 21
813.0518275419472
 31
0.0
  0
LINE
  5
CB
330
1F
100
AcDbEntity
  8
C-A
  6
Continuous
 62
     3
370
     9
100
AcDbLine
 10
-114.3721237351323
 20
862.0507289091347
 30
0.0
 11
-114.3721237351323
 21
838.0511866728066
 31
0.0
  0
LINE
  5
CC
330
1F
100
AcDbEntity
  8
C-A
  6
Continuous
 62
     3
370
     9
100
AcDbLine
 10
-58.37227632302273
 20
862.0507289091347
 30
0.0
 11
-58.37227632302273
 21
838.0511866728066
 31
0.0
  0
LINE
  5
CD
330
1F
100
AcDbEntity
  8
C-A
  6
Continuous
 62
     3
370
     9
100
AcDbLine
 10
-64.37239839333557
 20
862.0507289091347
 30
0.0
 11
-64.37239839333557
 21
838.0511866728066
 31
0.0
  0
LINE
  5
CE
330
1F
100
AcDbEntity
  8
C-A
  6
Continuous
 62
     3
370
     9
100
AcDbLine
 10
-214.3720932175543
 20
812.0509883085487
 30
0.0
 11
-214.3720932175543
 21
788.0514613310096
 31
0.0
  0
LINE
  5
CF
330
1F
100
AcDbEntity
  8
C-A
  6
Continuous
 62
     3
370
     9
100
AcDbLine
 10
-208.3722152878667
 20
812.0509883085487
 30
0.0
 11
-208.3722152878667
 21
788.0514613310096
 31
0.0
  0
LINE
  5
D0
330
1F
100
AcDbEntity
  8
C-A
  6
Continuous
 62
     3
370
     9
100
AcDbLine
 10
-158.3722458054447
 20
812.0509883085487
 30
0.0
 11
-158.3722458054447
 21
788.0514613310096
 31
0.0
  0
LINE
  5
D1
330
1F
100
AcDbEntity
  8
C-A
  6
Continuous
 62
     3
370
     9
100
AcDbLine
 10
-189.3722152878669
 20
787.0511103788613
 30
0.0
 11
-189.3722152878669
 21
763.0515986601113
 31
0.0
  0
LINE
  5
D2
330
1F
100
AcDbEntity
  8
C-A
  6
Continuous
 62
     3
370
     9
100
AcDbLine
 10
-183.3720932175541
 20
787.0511103788613
 30
0.0
 11
-183.3720932175541
 21
763.0515986601113
 31
0.0
  0
LINE
  5
D3
330
1F
100
AcDbEntity
  8
C-A
  6
Continuous
 62
     3
370
     9
100
AcDbLine
 10
-139.3720016648197
 20
787.0511103788613
 30
0.0
 11
-139.3720016648197
 21
763.0515986601113
 31
0.0
  0
LINE
  5
D4
330
1F
100
AcDbEntity
  8
C-A
  6
Continuous
 62
     3
370
     9
100
AcDbLine
 10
-133.3723678757573
 20
787.0511103788613
 30
0.0
 11
-133.3723678757573
 21
763.0515986601113
 31
0.0
  0
LINE
  5
D5
330
1F
100
AcDbEntity
  8
C-A
  6
Continuous
 62
     3
370
     9
100
AcDbLine
 10
-164.3723678757576
 20
812.0509883085487
 30
0.0
 11
-164.3723678757576
 21
788.0514613310096
 31
0.0
  0
LINE
  5
D6
330
1F
100
AcDbEntity
  8
C-A
  6
Continuous
 62
     3
370
     9
100
AcDbLine
 10
-108.3720016648201
 20
812.0509883085487
 30
0.0
 11
-108.3720016648201
 21
788.0514613310096
 31
0.0
  0
LINE
  5
D7
330
1F
100
AcDbEntity
  8
C-A
  6
Continuous
 62
     3
370
     9
100
AcDbLine
 10
-114.3721237351323
 20
812.0509883085487
 30
0.0
 11
-114.3721237351323
 21
788.0514613310096
 31
0.0
  0
LINE
  5
D8
330
1F
100
AcDbEntity
  8
C-A
  6
Continuous
 62
     3
370
     9
100
AcDbLine
 10
-259.372306840601
 20
763.0510951200722
 30
0.0
 11
-259.372306840601
 21
787.0506220976113
 31
0.0
  0
LINE
  5
D9
330
1F
100
AcDbEntity
  8
C-A
  6
Continuous
 62
     3
370
     9
100
AcDbLine
 10
-265.3721847702886
 20
763.0510951200722
 30
0.0
 11
-265.3721847702886
 21
787.0506220976113
 31
0.0
  0
LINE
  5
DA
330
1F
100
AcDbEntity
  8
C-A
  6
Continuous
 62
     3
370
     9
100
AcDbLine
 10
-315.3721695114999
 20
763.0510951200722
 30
0.0
 11
-315.3721695114999
 21
787.0506220976113
 31
0.0
  0
LINE
  5
DB
330
1F
100
AcDbEntity
  8
C-A
  6
Continuous
 62
     3
370
     9
100
AcDbLine
 10
-284.3721695114996
 20
788.0509730497596
 30
0.0
 11
-284.3721695114996
 21
812.0504847685096
 31
0.0
  0
LINE
  5
DC
330
1F
100
AcDbEntity
  8
C-A
  6
Continuous
 62
     3
370
     9
100
AcDbLine
 10
-290.3723068406012
 20
788.0509730497596
 30
0.0
 11
-290.3723068406012
 21
812.0504847685096
 31
0.0
  0
LINE
  5
DD
330
1F
100
AcDbEntity
  8
C-A
  6
Continuous
 62
     3
370
     9
100
AcDbLine
 10
-334.3724136521249
 20
788.0509730497596
 30
0.0
 11
-334.3724136521249
 21
812.0504847685096
 31
0.0
  0
LINE
  5
DE
330
1F
100
AcDbEntity
  8
C-A
  6
Continuous
 62
     3
370
     9
100
AcDbLine
 10
-340.3720474411872
 20
788.0509730497596
 30
0.0
 11
-340.3720474411872
 21
812.0504847685096
 31
0.0
  0
LINE
  5
DF
330
1F
100
AcDbEntity
  8
C-A
  6
Continuous
 62
     3
370
     9
100
AcDbLine
 10
-365.3723983933358
 20
763.0510951200722
 30
0.0
 11
-365.3723983933358
 21
787.0506220976113
 31
0.0
  0
LINE
  5
E0
330
1F
100
AcDbEntity
  8
C-A
  6
Continuous
 62
     3
370
     9
100
AcDbLine
 10
-384.3726425339608
 20
788.0509730497596
 30
0.0
 11
-384.3726425339608
 21
812.0504847685096
 31
0.0
  0
LINE
  5
E1
330
1F
100
AcDbEntity
  8
C-A
  6
Continuous
 62
     3
370
     9
100
AcDbLine
 10
-390.3722763230232
 20
788.0509730497596
 30
0.0
 11
-390.3722763230232
 21
812.0504847685096
 31
0.0
  0
LINE
  5
E2
330
1F
100
AcDbEntity
  8
C-A
  6
Continuous
 62
     3
370
     9
100
AcDbLine
 10
-359.372276323023
 20
763.0510951200722
 30
0.0
 11
-359.372276323023
 21
787.0506220976113
 31
0.0
  0
LINE
  5
E3
330
1F
100
AcDbEntity
  8
C-A
  6
Continuous
 62
     3
370
     9
100
AcDbLine
 10
-415.3721389939213
 20
763.0510951200722
 30
0.0
 11
-415.3721389939213
 21
787.0506220976113
 31
0.0
  0
LINE
  5
E4
330
1F
100
AcDbEntity
  8
C-A
  6
Continuous
 62
     3
370
     9
100
AcDbLine
 10
-434.3723831345463
 20
788.0509730497596
 30
0.0
 11
-434.3723831345463
 21
812.0504847685096
 31
0.0
  0
LINE
  5
E5
330
1F
100
AcDbEntity
  8
C-A
  6
Continuous
 62
     3
370
     9
100
AcDbLine
 10
-440.3720092942146
 20
788.0509730497596
 30
0.0
 11
-440.3720092942146
 21
812.0504847685096
 31
0.0
  0
LINE
  5
E6
330
1F
100
AcDbEntity
  8
C-A
  6
Continuous
 62
     3
370
     9
100
AcDbLine
 10
-409.372016923609
 20
763.0510951200722
 30
0.0
 11
-409.372016923609
 21
787.0506220976113
 31
0.0
  0
LINE
  5
E7
330
1F
100
AcDbEntity
  8
C-A
  6
Continuous
 62
     3
370
     9
100
AcDbLine
 10
-465.3723755051519
 20
763.0510951200722
 30
0.0
 11
-465.3723755051519
 21
787.0506220976113
 31
0.0
  0
LINE
  5
E8
330
1F
100
AcDbEntity
  8
C-A
  6
Continuous
 62
     3
370
     9
100
AcDbLine
 10
-459.3722458054449
 20
763.0510951200722
 30
0.0
 11
-459.3722458054449
 21
787.0506220976113
 31
0.0
  0
LINE
  5
E9
330
1F
100
AcDbEntity
  8
C-A
  6
Continuous
 62
     3
370
     9
100
AcDbLine
 10
-259.372306840601
 20
813.0513392606972
 30
0.0
 11
-259.372306840601
 21
837.0508509794472
 31
0.0
  0
LINE
  5
EA
330
1F
100
AcDbEntity
  8
C-A
  6
Continuous
 62
     3
370
     9
100
AcDbLine
 10
-265.3721847702886
 20
813.0513392606972
 30
0.0
 11
-265.3721847702886
 21
837.0508509794472
 31
0.0
  0
LINE
  5
EB
330
1F
100
AcDbEntity
  8
C-A
  6
Continuous
 62
     3
370
     9
100
AcDbLine
 10
-315.3721695114999
 20
813.0513392606972
 30
0.0
 11
-315.3721695114999
 21
837.0508509794472
 31
0.0
  0
LINE
  5
EC
330
1F
100
AcDbEntity
  8
C-A
  6
Continuous
 62
     3
370
     9
100
AcDbLine
 10
-284.3721695114996
 20
838.0506983915565
 30
0.0
 11
-284.3721695114996
 21
862.0502101103066
 31
0.0
  0
LINE
  5
ED
330
1F
100
AcDbEntity
  8
C-A
  6
Continuous
 62
     3
370
     9
100
AcDbLine
 10
-290.3723068406012
 20
838.0506983915565
 30
0.0
 11
-290.3723068406012
 21
862.0502101103066
 31
0.0
  0
LINE
  5
EE
330
1F
100
AcDbEntity
  8
C-A
  6
Continuous
 62
     3
370
     9
100
AcDbLine
 10
-334.3724136521249
 20
838.0506983915565
 30
0.0
 11
-334.3724136521249
 21
862.0502101103066
 31
0.0
  0
LINE
  5
EF
330
1F
100
AcDbEntity
  8
C-A
  6
Continuous
 62
     3
370
     9
100
AcDbLine
 10
-340.3720474411872
 20
838.0506983915565
 30
0.0
 11
-340.3720474411872
 21
862.0502101103066
 31
0.0
  0
LINE
  5
F0
330
1F
100
AcDbEntity
  8
C-A
  6
Continuous
 62
     3
370
     9
100
AcDbLine
 10
-309.372047441187
 20
813.0513392606972
 30
0.0
 11
-309.372047441187
 21
837.0508509794472
 31
0.0
  0
LINE
  5
F1
330
1F
100
AcDbEntity
  8
C-A
  6
Continuous
 62
     3
370
     9
100
AcDbLine
 10
-365.3723983933358
 20
813.0513392606972
 30
0.0
 11
-365.3723983933358
 21
837.0508509794472
 31
0.0
  0
LINE
  5
F2
330
1F
100
AcDbEntity
  8
C-A
  6
Continuous
 62
     3
370
     9
100
AcDbLine
 10
-384.3726425339608
 20
838.0506983915565
 30
0.0
 11
-384.3726425339608
 21
862.0502101103066
 31
0.0
  0
LINE
  5
F3
330
1F
100
AcDbEntity
  8
C-A
  6
Continuous
 62
     3
370
     9
100
AcDbLine
 10
-390.3722763230232
 20
838.0506983915565
 30
0.0
 11
-390.3722763230232
 21
862.0502101103066
 31
0.0
  0
LINE
  5
F4
330
1F
100
AcDbEntity
  8
C-A
  6
Continuous
 62
     3
370
     9
100
AcDbLine
 10
-359.372276323023
 20
813.0513392606972
 30
0.0
 11
-359.372276323023
 21
837.0508509794472
 31
0.0
  0
LINE
  5
F5
330
1F
100
AcDbEntity
  8
C-A
  6
Continuous
 62
     3
370
     9
100
AcDbLine
 10
-415.3721389939213
 20
813.0513392606972
 30
0.0
 11
-415.3721389939213
 21
837.0508509794472
 31
0.0
  0
LINE
  5
F6
330
1F
100
AcDbEntity
  8
C-A
  6
Continuous
 62
     3
370
     9
100
AcDbLine
 10
-409.372016923609
 20
813.0513392606972
 30
0.0
 11
-409.372016923609
 21
837.0508509794472
 31
0.0
  0
ARC
  5
F7
330
1F
100
AcDbEntity
  8
C-A
  6
Continuous
 62
     3
370
     9
100
AcDbCircle
 10
-211.3720321823982
 20
862.0507289091347
 30
0.0
 40
3.0
100
AcDbArc
 50
0.0
 51
180.0
  0
ARC
  5
F8
330
1F
100
AcDbEntity
  8
C-A
  6
Continuous
 62
     3
370
     9
100
AcDbCircle
 10
-211.3720321823982
 20
838.0511866728066
 30
0.0
 40
3.0
100
AcDbArc
 50
180.0
 51
0.0
  0
ARC
  5
F9
330
1F
100
AcDbEntity
  8
C-A
  6
Continuous
 62
     3
370
     9
100
AcDbCircle
 10
-161.3723068406014
 20
862.0507289091347
 30
0.0
 40
3.0
100
AcDbArc
 50
0.0
 51
180.0
  0
ARC
  5
FA
330
1F
100
AcDbEntity
  8
C-A
  6
Continuous
 62
     3
370
     9
100
AcDbCircle
 10
-161.3723068406014
 20
838.0511866728066
 30
0.0
 40
3.0
100
AcDbArc
 50
180.0
 51
0.0
  0
ARC
  5
FB
330
1F
100
AcDbEntity
  8
C-A
  6
Continuous
 62
     3
370
     9
100
AcDbCircle
 10
-186.3721542527108
 20
837.0513392606972
 30
0.0
 40
3.0
100
AcDbArc
 50
0.0
 51
180.0
  0
ARC
  5
FC
330
1F
100
AcDbEntity
  8
C-A
  6
Continuous
 62
     3
370
     9
100
AcDbCircle
 10
-186.3721542527108
 20
813.0518275419472
 30
0.0
 40
3.0
100
AcDbArc
 50
180.0
 51
0.0
  0
ARC
  5
FD
330
1F
100
AcDbEntity
  8
C-A
  6
Continuous
 62
     3
370
     9
100
AcDbCircle
 10
-136.3724289109135
 20
837.0513392606972
 30
0.0
 40
3.0
100
AcDbArc
 50
0.0
 51
180.0
  0
ARC
  5
FE
330
1F
100
AcDbEntity
  8
C-A
  6
Continuous
 62
     3
370
     9
100
AcDbCircle
 10
-136.3724289109135
 20
813.0518275419472
 30
0.0
 40
3.0
100
AcDbArc
 50
180.0
 51
0.0
  0
ARC
  5
FF
330
1F
100
AcDbEntity
  8
C-A
  6
Continuous
 62
     3
370
     9
100
AcDbCircle
 10
-111.3720626999762
 20
862.0507289091347
 30
0.0
 40
3.0
100
AcDbArc
 50
0.0
 51
180.0
  0
ARC
  5
100
330
1F
100
AcDbEntity
  8
C-A
  6
Continuous
 62
     3
370
     9
100
AcDbCircle
 10
-111.3720626999762
 20
838.0511866728066
 30
0.0
 40
3.0
100
AcDbArc
 50
180.0
 51
0.0
  0
ARC
  5
101
330
1F
100
AcDbEntity
  8
C-A
  6
Continuous
 62
     3
370
     9
100
AcDbCircle
 10
-86.37218477028881
 20
837.0513392606972
 30
0.0
 40
3.0
100
AcDbArc
 50
0.0
 51
180.0
  0
ARC
  5
102
330
1F
100
AcDbEntity
  8
C-A
  6
Continuous
 62
     3
370
     9
100
AcDbCircle
 10
-86.37218477028881
 20
813.0518275419472
 30
0.0
 40
3.0
100
AcDbArc
 50
180.0
 51
0.0
  0
ARC
  5
103
330
1F
100
AcDbEntity
  8
C-A
  6
Continuous
 62
     3
370
     9
100
AcDbCircle
 10
-61.37233735817944
 20
862.0507289091347
 30
0.0
 40
3.0
100
AcDbArc
 50
0.0
 51
180.0
  0
ARC
  5
104
330
1F
100
AcDbEntity
  8
C-A
  6
Continuous
 62
     3
370
     9
100
AcDbCircle
 10
-61.37233735817944
 20
838.0511866728066
 30
0.0
 40
3.0
100
AcDbArc
 50
180.0
 51
0.0
  0
ARC
  5
105
330
1F
100
AcDbEntity
  8
C-A
  6
Continuous
 62
     3
370
     9
100
AcDbCircle
 10
-36.37245942849148
 20
837.0513392606972
 30
0.0
 40
3.0
100
AcDbArc
 50
0.0
 51
180.0
  0
ARC
  5
106
330
1F
100
AcDbEntity
  8
C-A
  6
Continuous
 62
     3
370
     9
100
AcDbCircle
 10
-11.3720626999762
 20
862.0507289091347
 30
0.0
 40
3.0
100
AcDbArc
 50
0.0
 51
180.0
  0
ARC
  5
107
330
1F
100
AcDbEntity
  8
C-A
  6
Continuous
 62
     3
370
     9
100
AcDbCircle
 10
-211.3720321823982
 20
812.0509883085487
 30
0.0
 40
3.0
100
AcDbArc
 50
0.0
 51
180.0
  0
ARC
  5
108
330
1F
100
AcDbEntity
  8
C-A
  6
Continuous
 62
     3
370
     9
100
AcDbCircle
 10
-211.3720321823982
 20
788.0514613310096
 30
0.0
 40
3.0
100
AcDbArc
 50
180.0
 51
0.0
  0
ARC
  5
109
330
1F
100
AcDbEntity
  8
C-A
  6
Continuous
 62
     3
370
     9
100
AcDbCircle
 10
-161.3723068406014
 20
812.0509883085487
 30
0.0
 40
3.0
100
AcDbArc
 50
0.0
 51
180.0
  0
ARC
  5
10A
330
1F
100
AcDbEntity
  8
C-A
  6
Continuous
 62
     3
370
     9
100
AcDbCircle
 10
-161.3723068406014
 20
788.0514613310096
 30
0.0
 40
3.0
100
AcDbArc
 50
180.0
 51
0.0
  0
ARC
  5
10B
330
1F
100
AcDbEntity
  8
C-A
  6
Continuous
 62
     3
370
     9
100
AcDbCircle
 10
-186.3721542527108
 20
787.0511103788613
 30
0.0
 40
3.0
100
AcDbArc
 50
0.0
 51
180.0
  0
ARC
  5
10C
330
1F
100
AcDbEntity
  8
C-A
  6
Continuous
 62
     3
370
     9
100
AcDbCircle
 10
-186.3721542527108
 20
763.0515986601113
 30
0.0
 40
3.0
100
AcDbArc
 50
180.0
 51
0.0
  0
ARC
  5
10D
330
1F
100
AcDbEntity
  8
C-A
  6
Continuous
 62
     3
370
     9
100
AcDbCircle
 10
-136.3724289109135
 20
787.0511103788613
 30
0.0
 40
3.0
100
AcDbArc
 50
0.0
 51
180.0
  0
ARC
  5
10E
330
1F
100
AcDbEntity
  8
C-A
  6
Continuous
 62
     3
370
     9
100
AcDbCircle
 10
-136.3724289109135
 20
763.0515986601113
 30
0.0
 40
3.0
100
AcDbArc
 50
180.0
 51
0.0
  0
ARC
  5
10F
330
1F
100
AcDbEntity
  8
C-A
  6
Continuous
 62
     3
370
     9
100
AcDbCircle
 10
-111.3720626999762
 20
812.0509883085487
 30
0.0
 40
3.0
100
AcDbArc
 50
0.0
 51
180.0
  0
ARC
  5
110
330
1F
100
AcDbEntity
  8
C-A
  6
Continuous
 62
     3
370
     9
100
AcDbCircle
 10
-111.3720626999762
 20
788.0514613310096
 30
0.0
 40
3.0
100
AcDbArc
 50
180.0
 51
0.0
  0
ARC
  5
111
330
1F
100
AcDbEntity
  8
C-A
  6
Continuous
 62
     3
370
     9
100
AcDbCircle
 10
-86.37218477028881
 20
787.0511103788613
 30
0.0
 40
3.0
100
AcDbArc
 50
0.0
 51
180.0
  0
ARC
  5
112
330
1F
100
AcDbEntity
  8
C-A
  6
Continuous
 62
     3
370
     9
100
AcDbCircle
 10
-61.37233735817944
 20
812.0509883085487
 30
0.0
 40
3.0
100
AcDbArc
 50
0.0
 51
180.0
  0
ARC
  5
113
330
1F
100
AcDbEntity
  8
C-A
  6
Continuous
 62
     3
370
     9
100
AcDbCircle
 10
-262.3723678757577
 20
763.0510951200722
 30
0.0
 40
3.0
100
AcDbArc
 50
180.0
 51
0.0
  0
ARC
  5
114
330
1F
100
AcDbEntity
  8
C-A
  6
Continuous
 62
     3
370
     9
100
AcDbCircle
 10
-262.3723678757577
 20
787.0506220976113
 30
0.0
 40
3.0
100
AcDbArc
 50
0.0
 51
180.0
  0
ARC
  5
115
330
1F
100
AcDbEntity
  8
C-A
  6
Continuous
 62
     3
370
     9
100
AcDbCircle
 10
-312.3721084763432
 20
763.0510951200722
 30
0.0
 40
3.0
100
AcDbArc
 50
180.0
 51
0.0
  0
ARC
  5
116
330
1F
100
AcDbEntity
  8
C-A
  6
Continuous
 62
     3
370
     9
100
AcDbCircle
 10
-312.3721084763432
 20
787.0506220976113
 30
0.0
 40
3.0
100
AcDbArc
 50
0.0
 51
180.0
  0
ARC
  5
117
330
1F
100
AcDbEntity
  8
C-A
  6
Continuous
 62
     3
370
     9
100
AcDbCircle
 10
-287.3722458054451
 20
788.0509730497596
 30
0.0
 40
3.0
100
AcDbArc
 50
180.0
 51
0.0
  0
ARC
  5
118
330
1F
100
AcDbEntity
  8
C-A
  6
Continuous
 62
     3
370
     9
100
AcDbCircle
 10
-287.3722458054451
 20
812.0504847685096
 30
0.0
 40
3.0
100
AcDbArc
 50
0.0
 51
180.0
  0
ARC
  5
119
330
1F
100
AcDbEntity
  8
C-A
  6
Continuous
 62
     3
370
     9
100
AcDbCircle
 10
-337.3719711472418
 20
788.0509730497596
 30
0.0
 40
3.0
100
AcDbArc
 50
180.0
 51
0.0
  0
ARC
  5
11A
330
1F
100
AcDbEntity
  8
C-A
  6
Continuous
 62
     3
370
     9
100
AcDbCircle
 10
-337.3719711472418
 20
812.0504847685096
 30
0.0
 40
3.0
100
AcDbArc
 50
0.0
 51
180.0
  0
ARC
  5
11B
330
1F
100
AcDbEntity
  8
C-A
  6
Continuous
 62
     3
370
     9
100
AcDbCircle
 10
-362.3723373581791
 20
763.0510951200722
 30
0.0
 40
3.0
100
AcDbArc
 50
180.0
 51
0.0
  0
ARC
  5
11C
330
1F
100
AcDbEntity
  8
C-A
  6
Continuous
 62
     3
370
     9
100
AcDbCircle
 10
-362.3723373581791
 20
787.0506220976113
 30
0.0
 40
3.0
100
AcDbArc
 50
0.0
 51
180.0
  0
ARC
  5
11D
330
1F
100
AcDbEntity
  8
C-A
  6
Continuous
 62
     3
370
     9
100
AcDbCircle
 10
-387.372215287867
 20
788.0509730497596
 30
0.0
 40
3.0
100
AcDbArc
 50
180.0
 51
0.0
  0
ARC
  5
11E
330
1F
100
AcDbEntity
  8
C-A
  6
Continuous
 62
     3
370
     9
100
AcDbCircle
 10
-387.372215287867
 20
812.0504847685096
 30
0.0
 40
3.0
100
AcDbArc
 50
0.0
 51
180.0
  0
ARC
  5
11F
330
1F
100
AcDbEntity
  8
C-A
  6
Continuous
 62
     3
370
     9
100
AcDbCircle
 10
-412.3720779587651
 20
763.0510951200722
 30
0.0
 40
3.0
100
AcDbArc
 50
180.0
 51
0.0
  0
ARC
  5
120
330
1F
100
AcDbEntity
  8
C-A
  6
Continuous
 62
     3
370
     9
100
AcDbCircle
 10
-412.3720779587651
 20
787.0506220976113
 30
0.0
 40
3.0
100
AcDbArc
 50
0.0
 51
180.0
  0
ARC
  5
121
330
1F
100
AcDbEntity
  8
C-A
  6
Continuous
 62
     3
370
     9
100
AcDbCircle
 10
-437.3719482590585
 20
788.0509730497596
 30
0.0
 40
3.0
100
AcDbArc
 50
180.0
 51
0.0
  0
ARC
  5
122
330
1F
100
AcDbEntity
  8
C-A
  6
Continuous
 62
     3
370
     9
100
AcDbCircle
 10
-437.3719482590585
 20
812.0504847685096
 30
0.0
 40
3.0
100
AcDbArc
 50
0.0
 51
180.0
  0
ARC
  5
123
330
1F
100
AcDbEntity
  8
C-A
  6
Continuous
 62
     3
370
     9
100
AcDbCircle
 10
-462.3723106552987
 20
763.0510951200722
 30
0.0
 40
3.0
100
AcDbArc
 50
180.0
 51
0.0
  0
ARC
  5
124
330
1F
100
AcDbEntity
  8
C-A
  6
Continuous
 62
     3
370
     9
100
AcDbCircle
 10
-462.3723106552987
 20
787.0506220976113
 30
0.0
 40
3.0
100
AcDbArc
 50
0.0
 51
180.0
  0
ARC
  5
125
330
1F
100
AcDbEntity
  8
C-A
  6
Continuous
 62
     3
370
     9
100
AcDbCircle
 10
-262.3723678757577
 20
813.0513392606972
 30
0.0
 40
3.0
100
AcDbArc
 50
180.0
 51
0.0
  0
ARC
  5
126
330
1F
100
AcDbEntity
  8
C-A
  6
Continuous
 62
     3
370
     9
100
AcDbCircle
 10
-262.3723678757577
 20
837.0508509794472
 30
0.0
 40
3.0
100
AcDbArc
 50
0.0
 51
180.0
  0
ARC
  5
127
330
1F
100
AcDbEntity
  8
C-A
  6
Continuous
 62
     3
370
     9
100
AcDbCircle
 10
-312.3721084763432
 20
813.0513392606972
 30
0.0
 40
3.0
100
AcDbArc
 50
180.0
 51
0.0
  0
ARC
  5
128
330
1F
100
AcDbEntity
  8
C-A
  6
Continuous
 62
     3
370
     9
100
AcDbCircle
 10
-312.3721084763432
 20
837.0508509794472
 30
0.0
 40
3.0
100
AcDbArc
 50
0.0
 51
180.0
  0
ARC
  5
129
330
1F
100
AcDbEntity
  8
C-A
  6
Continuous
 62
     3
370
     9
100
AcDbCircle
 10
-287.3722458054451
 20
838.0506983915565
 30
0.0
 40
3.0
100
AcDbArc
 50
180.0
 51
0.0
  0
ARC
  5
12A
330
1F
100
AcDbEntity
  8
C-A
  6
Continuous
 62
     3
370
     9
100
AcDbCircle
 10
-287.3722458054451
 20
862.0502101103066
 30
0.0
 40
3.0
100
AcDbArc
 50
0.0
 51
180.0
  0
ARC
  5
12B
330
1F
100
AcDbEntity
  8
C-A
  6
Continuous
 62
     3
370
     9
100
AcDbCircle
 10
-337.3719711472418
 20
838.0506983915565
 30
0.0
 40
3.0
100
AcDbArc
 50
180.0
 51
0.0
  0
ARC
  5
12C
330
1F
100
AcDbEntity
  8
C-A
  6
Continuous
 62
     3
370
     9
100
AcDbCircle
 10
-337.3719711472418
 20
862.0502101103066
 30
0.0
 40
3.0
100
AcDbArc
 50
0.0
 51
180.0
  0
ARC
  5
12D
330
1F
100
AcDbEntity
  8
C-A
  6
Continuous
 62
     3
370
     9
100
AcDbCircle
 10
-362.3723373581791
 20
813.0513392606972
 30
0.0
 40
3.0
100
AcDbArc
 50
180.0
 51
0.0
  0
ARC
  5
12E
330
1F
100
AcDbEntity
  8
C-A
  6
Continuous
 62
     3
370
     9
100
AcDbCircle
 10
-362.3723373581791
 20
837.0508509794472
 30
0.0
 40
3.0
100
AcDbArc
 50
0.0
 51
180.0
  0
ARC
  5
12F
330
1F
100
AcDbEntity
  8
C-A
  6
Continuous
 62
     3
370
     9
100
AcDbCircle
 10
-387.372215287867
 20
838.0506983915565
 30
0.0
 40
3.0
100
AcDbArc
 50
180.0
 51
0.0
  0
ARC
  5
130
330
1F
100
AcDbEntity
  8
C-A
  6
Continuous
 62
     3
370
     9
100
AcDbCircle
 10
-387.372215287867
 20
862.0502101103066
 30
0.0
 40
3.0
100
AcDbArc
 50
0.0
 51
180.0
  0
ARC
  5
131
330
1F
100
AcDbEntity
  8
C-A
  6
Continuous
 62
     3
370
     9
100
AcDbCircle
 10
-412.3720779587651
 20
813.0513392606972
 30
0.0
 40
3.0
100
AcDbArc
 50
180.0
 51
0.0
  0
ARC
  5
132
330
1F
100
AcDbEntity
  8
C-A
  6
Continuous
 62
     3
370
     9
100
AcDbCircle
 10
-412.3720779587651
 20
837.0508509794472
 30
0.0
 40
3.0
100
AcDbArc
 50
0.0
 51
180.0
  0
LINE
  5
133
330
1F
100
AcDbEntity
  8
C-9
  6
Continuous
 62
     6
370
     9
100
AcDbLine
 10
-237.3722458054451
 20
884.5508204618691
 30
0.0
 11
-374.9505539109137
 21
884.5508204618691
 31
0.0
  0
LINE
  5
134
330
1F
100
AcDbEntity
  8
C-9
  6
Continuous
 62
     6
370
     9
100
AcDbLine
 10
-236.3721542527108
 20
883.1103907743691
 30
0.0
 11
43.76514433127369
 21
883.1103907743691
 31
0.0
  0
LINE
  5
135
330
1F
100
AcDbEntity
  8
C-9
  6
Continuous
 62
     6
370
     9
100
AcDbLine
 10
-8.372001664820061
 20
863.1103907743691
 30
0.0
 11
23.76520536643028
 21
863.1103907743691
 31
0.0
  0
LINE
  5
136
330
1F
100
AcDbEntity
  8
C-9
  6
Continuous
 62
     6
370
     9
100
AcDbLine
 10
-58.37227632302273
 20
863.1103907743691
 30
0.0
 11
-14.37215425271035
 21
863.1103907743691
 31
0.0
  0
LINE
  5
137
330
1F
100
AcDbEntity
  8
C-9
  6
Continuous
 62
     6
370
     9
100
AcDbLine
 10
-108.3720016648201
 20
863.1103907743691
 30
0.0
 11
-64.37239839333557
 21
863.1103907743691
 31
0.0
  0
LINE
  5
138
330
1F
100
AcDbEntity
  8
C-9
  6
Continuous
 62
     6
370
     9
100
AcDbLine
 10
-158.3722458054447
 20
863.1103907743691
 30
0.0
 11
-114.3721237351323
 21
863.1103907743691
 31
0.0
  0
LINE
  5
139
330
1F
100
AcDbEntity
  8
C-9
  6
Continuous
 62
     6
370
     9
100
AcDbLine
 10
-208.3722152878667
 20
863.1103907743691
 30
0.0
 11
-164.3723678757576
 21
863.1103907743691
 31
0.0
  0
LINE
  5
13A
330
1F
100
AcDbEntity
  8
C-1
  6
JWW_DASHED3
 62
     2
370
     9
100
AcDbLine
 10
-987.372276323023
 20
862.5513697782753
 30
0.0
 11
513.6278152297111
 21
862.5513697782753
 31
0.0
  0
LINE
  5
13B
330
1F
100
AcDbEntity
  8
C-9
  6
Continuous
 62
     6
370
     9
100
AcDbLine
 10
-236.3721542527108
 20
763.110406033158
 30
0.0
 11
-189.1789169480231
 21
763.110406033158
 31
0.0
  0
LINE
  5
13C
330
1F
100
AcDbEntity
  8
C-9
  6
Continuous
 62
     6
370
     9
100
AcDbLine
 10
-183.565391557398
 20
763.110406033158
 30
0.0
 11
-139.1791916062263
 21
763.110406033158
 31
0.0
  0
LINE
  5
13D
330
1F
100
AcDbEntity
  8
C-9
  6
Continuous
 62
     6
370
     9
100
AcDbLine
 10
-236.3721542527108
 20
738.110406033158
 30
0.0
 11
-101.2346115281011
 21
738.110406033158
 31
0.0
  0
LINE
  5
13E
330
1F
100
AcDbEntity
  8
C-2
  6
Continuous
 62
     3
370
     9
100
AcDbLine
 10
262.6278152297115
 20
737.55080520308
 30
0.0
 11
-236.3721542527108
 21
737.55080520308
 31
0.0
  0
LINE
  5
13F
330
1F
100
AcDbEntity
  8
C-1
  6
Continuous
 62
     2
370
     9
100
AcDbLine
 10
513.6278152297111
 20
736.5504542509315
 30
0.0
 11
-987.372276323023
 21
736.5504542509315
 31
0.0
  0
LINE
  5
140
330
1F
100
AcDbEntity
  8
C-1
  6
JWW_DASHED3
 62
     2
370
     9
100
AcDbLine
 10
513.6278152297111
 20
762.5506831327675
 30
0.0
 11
-987.372276323023
 21
762.5506831327675
 31
0.0
  0
LINE
  5
141
330
1F
100
AcDbEntity
  8
C-2
  6
Continuous
 62
     3
370
     9
100
AcDbLine
 10
-237.3722458054451
 20
737.55080520308
 30
0.0
 11
-736.3722458054449
 21
737.55080520308
 31
0.0
  0
LINE
  5
142
330
1F
100
AcDbEntity
  8
C-4
  6
Continuous
 62
     7
370
     9
100
AcDbLine
 10
-490.7629203965095
 20
663.1754923979042
 30
0.0
 11
-412.3719558884525
 21
663.1754923979042
 31
0.0
  0
LINE
  5
143
330
1F
100
AcDbEntity
  8
C-4
  6
Continuous
 62
     7
370
     9
100
AcDbLine
 10
-412.3719558884525
 20
663.1754923979042
 30
0.0
 11
-333.3870468308353
 21
663.1754923979042
 31
0.0
  0
LWPOLYLINE
  5
144
330
1F
100
AcDbEntity
  8
C-4
  6
Continuous
 62
     7
370
     9
100
AcDbPolyline
 90
        4
 70
     1
 43
1.0
 10
-436.8719482590585
 20
663.1754923979042
 42
0.4142135623731
 10
-437.3719482590585
 20
663.6754923979042
 42
0.4142135623731
 10
-437.8719482590584
 20
663.1754923979042
 42
0.4142135623731
 10
-437.3719482590585
 20
662.6754923979042
 42
0.4142135623731
  0
LWPOLYLINE
  5
145
330
1F
100
AcDbEntity
  8
C-4
  6
Continuous
 62
     7
370
     9
100
AcDbPolyline
 90
        4
 70
     1
 43
1.0
 10
-411.8719558884526
 20
663.1754923979042
 42
0.4142135623731
 10
-412.3719558884525
 20
663.6754923979042
 42
0.4142135623731
 10
-412.8719558884525
 20
663.1754923979042
 42
0.4142135623731
 10
-412.3719558884525
 20
662.6754923979042
 42
0.4142135623731
  0
LWPOLYLINE
  5
146
330
1F
100
AcDbEntity
  8
C-4
  6
Continuous
 62
     7
370
     9
100
AcDbPolyline
 90
        4
 70
     1
 43
1.0
 10
-386.8719558884526
 20
663.1754923979042
 42
0.4142135623731
 10
-387.3719558884525
 20
663.6754923979042
 42
0.4142135623731
 10
-387.8719558884525
 20
663.1754923979042
 42
0.4142135623731
 10
-387.3719558884525
 20
662.6754923979042
 42
0.4142135623731
  0
TEXT
  5
147
330
1F
100
AcDbEntity
  8
C-4
  6
Continuous
 62
     2
370
     9
100
AcDbText
 10
-487.3208999802497
 20
673.8152635160683
 30
0.0
 40
30.48
  1
25
 41
1.0625
  7
ＭＳ ゴシック
100
AcDbText
  0
TEXT
  5
148
330
1F
100
AcDbEntity
  8
C-4
  6
Continuous
 62
     2
370
     9
100
AcDbText
 10
-377.3781051804448
 20
673.8152635160683
 30
0.0
 40
30.48
  1
25
 41
1.0625
  7
ＭＳ ゴシック
100
AcDbText
  0
LINE
  5
149
330
1F
100
AcDbEntity
  8
C-4
  6
Continuous
 62
     7
370
     9
100
AcDbLine
 10
-387.3719558884525
 20
660.1754313627481
 30
0.0
 11
-387.3719558884525
 21
792.7965632597206
 31
0.0
  0
LINE
  5
14A
330
1F
100
AcDbEntity
  8
C-4
  6
Continuous
 62
     7
370
     9
100
AcDbLine
 10
-412.3719558884525
 20
660.1754313627481
 30
0.0
 11
-412.3719558884525
 21
768.8579951444863
 31
0.0
  0
LINE
  5
14B
330
1F
100
AcDbEntity
  8
C-9
  6
Continuous
 62
     6
370
     9
100
AcDbLine
 10
-237.3722458054451
 20
740.5507441679237
 30
0.0
 11
-515.3721122910408
 21
740.5507441679237
 31
0.0
  0
LINE
  5
14C
330
1F
100
AcDbEntity
  8
C-9
  6
Continuous
 62
     6
370
     9
100
AcDbLine
 10
-237.3722458054451
 20
746.5508662382363
 30
0.0
 11
-512.950323083556
 21
746.5508662382363
 31
0.0
  0
LINE
  5
14D
330
1F
100
AcDbEntity
  8
C-9
  6
Continuous
 62
     6
370
     9
100
AcDbLine
 10
-237.3722458054451
 20
752.5509883085488
 30
0.0
 11
-506.9502121142137
 21
752.5509883085488
 31
0.0
  0
LINE
  5
14E
330
1F
100
AcDbEntity
  8
C-9
  6
Continuous
 62
     6
370
     9
100
AcDbLine
 10
-237.3722458054451
 20
758.5506220976112
 30
0.0
 11
-500.9505894252183
 21
758.5506220976112
 31
0.0
  0
LINE
  5
14F
330
1F
100
AcDbEntity
  8
C-9
  6
Continuous
 62
     6
370
     9
100
AcDbLine
 10
-490.3722458054452
 20
764.5507594267127
 30
0.0
 11
-494.9504631971153
 21
764.5507594267127
 31
0.0
  0
LINE
  5
150
330
1F
100
AcDbEntity
  8
C-9
  6
Continuous
 62
     6
370
     9
100
AcDbLine
 10
-464.9703075748188
 20
788.5507594267128
 30
0.0
 11
-470.9504852463627
 21
788.5507594267128
 31
0.0
  0
LINE
  5
151
330
1F
100
AcDbEntity
  8
C-9
  6
Continuous
 62
     6
370
     9
100
AcDbLine
 10
-465.3723755051519
 20
782.5506373564002
 30
0.0
 11
-476.9507370163822
 21
782.5506373564002
 31
0.0
  0
LINE
  5
152
330
1F
100
AcDbEntity
  8
C-9
  6
Continuous
 62
     6
370
     9
100
AcDbLine
 10
-465.3723755051519
 20
776.5505152860878
 30
0.0
 11
-482.9506187607674
 21
776.5505152860878
 31
0.0
  0
LINE
  5
153
330
1F
100
AcDbEntity
  8
C-9
  6
Continuous
 62
     6
370
     9
100
AcDbLine
 10
-465.3723755051519
 20
770.5503779569863
 30
0.0
 11
-488.9508557668805
 21
770.5503779569863
 31
0.0
  0
LINE
  5
154
330
1F
100
AcDbEntity
  8
C-9
  6
Continuous
 62
     6
370
     9
100
AcDbLine
 10
-465.3723755051519
 20
764.5507594267127
 30
0.0
 11
-490.3722458054452
 21
764.5507594267127
 31
0.0
  0
LINE
  5
155
330
1F
100
AcDbEntity
  8
C-9
  6
Continuous
 62
     6
370
     9
100
AcDbLine
 10
-440.3720092942146
 20
806.5506373564003
 30
0.0
 11
-452.9505996872811
 21
806.5506373564003
 31
0.0
  0
LINE
  5
156
330
1F
100
AcDbEntity
  8
C-9
  6
Continuous
 62
     6
370
     9
100
AcDbLine
 10
-440.3720092942146
 20
800.5505152860877
 30
0.0
 11
-458.950729386988
 21
800.5505152860877
 31
0.0
  0
LINE
  5
157
330
1F
100
AcDbEntity
  8
C-9
  6
Continuous
 62
     6
370
     9
100
AcDbLine
 10
-440.3720092942146
 20
794.5508967558144
 30
0.0
 11
-464.9503813719901
 21
794.5508967558144
 31
0.0
  0
LINE
  5
158
330
1F
100
AcDbEntity
  8
C-9
  6
Continuous
 62
     6
370
     9
100
AcDbLine
 10
-440.3720092942146
 20
788.5507594267128
 30
0.0
 11
-459.3722458054449
 21
788.5507594267128
 31
0.0
  0
LINE
  5
159
330
1F
100
AcDbEntity
  8
C-9
  6
Continuous
 62
     6
370
     9
100
AcDbLine
 10
-415.3721389939213
 20
788.5507594267128
 30
0.0
 11
-434.3723831345463
 21
788.5507594267128
 31
0.0
  0
LINE
  5
15A
330
1F
100
AcDbEntity
  8
C-9
  6
Continuous
 62
     6
370
     9
100
AcDbLine
 10
-415.3721389939213
 20
764.5507594267127
 30
0.0
 11
-459.3722458054449
 21
764.5507594267127
 31
0.0
  0
LINE
  5
15B
330
1F
100
AcDbEntity
  8
C-9
  6
Continuous
 62
     6
370
     9
100
AcDbLine
 10
-415.3721389939213
 20
782.5506373564002
 30
0.0
 11
-459.3722458054449
 21
782.5506373564002
 31
0.0
  0
LINE
  5
15C
330
1F
100
AcDbEntity
  8
C-9
  6
Continuous
 62
     6
370
     9
100
AcDbLine
 10
-415.3721389939213
 20
776.5505152860878
 30
0.0
 11
-459.3722458054449
 21
776.5505152860878
 31
0.0
  0
LINE
  5
15D
330
1F
100
AcDbEntity
  8
C-9
  6
Continuous
 62
     6
370
     9
100
AcDbLine
 10
-415.3721389939213
 20
770.5503779569863
 30
0.0
 11
-459.3722458054449
 21
770.5503779569863
 31
0.0
  0
LINE
  5
15E
330
1F
100
AcDbEntity
  8
C-9
  6
Continuous
 62
     6
370
     9
100
AcDbLine
 10
-415.3721389939213
 20
824.550545803666
 30
0.0
 11
-434.3723831345463
 21
824.550545803666
 31
0.0
  0
LINE
  5
15F
330
1F
100
AcDbEntity
  8
C-9
  6
Continuous
 62
     6
370
     9
100
AcDbLine
 10
-390.3722763230232
 20
836.550789944291
 30
0.0
 11
-409.372016923609
 21
836.550789944291
 31
0.0
  0
LINE
  5
160
330
1F
100
AcDbEntity
  8
C-9
  6
Continuous
 62
     6
370
     9
100
AcDbLine
 10
-415.3721389939213
 20
830.5506678739783
 30
0.0
 11
-428.9506768578695
 21
830.5506678739783
 31
0.0
  0
LINE
  5
161
330
1F
100
AcDbEntity
  8
C-9
  6
Continuous
 62
     6
370
     9
100
AcDbLine
 10
-415.3721389939213
 20
836.550789944291
 30
0.0
 11
-422.9505658885273
 21
836.550789944291
 31
0.0
  0
LINE
  5
162
330
1F
100
AcDbEntity
  8
C-9
  6
Continuous
 62
     6
370
     9
100
AcDbLine
 10
-415.3721389939213
 20
818.5504237333533
 30
0.0
 11
-440.3720092942146
 21
818.5504237333533
 31
0.0
  0
LINE
  5
163
330
1F
100
AcDbEntity
  8
C-9
  6
Continuous
 62
     6
370
     9
100
AcDbLine
 10
-390.3722763230232
 20
860.5503016630407
 30
0.0
 11
-398.9510985718519
 21
860.5503016630407
 31
0.0
  0
LINE
  5
164
330
1F
100
AcDbEntity
  8
C-9
  6
Continuous
 62
     6
370
     9
100
AcDbLine
 10
-390.3722763230232
 20
842.5509120146035
 30
0.0
 11
-415.3721389939213
 21
842.5509120146035
 31
0.0
  0
LINE
  5
165
330
1F
100
AcDbEntity
  8
C-9
  6
Continuous
 62
     6
370
     9
100
AcDbLine
 10
-390.3722763230232
 20
848.5505458036658
 30
0.0
 11
-410.9508322301895
 21
848.5505458036658
 31
0.0
  0
LINE
  5
166
330
1F
100
AcDbEntity
  8
C-9
  6
Continuous
 62
     6
370
     9
100
AcDbLine
 10
-390.3722763230232
 20
854.5506678739785
 30
0.0
 11
-404.9507212608473
 21
854.5506678739785
 31
0.0
  0
LINE
  5
167
330
1F
100
AcDbEntity
  8
C-9
  6
Continuous
 62
     6
370
     9
100
AcDbLine
 10
-237.3722458054451
 20
872.5505763212439
 30
0.0
 11
-386.9508461156458
 21
872.5505763212439
 31
0.0
  0
LINE
  5
168
330
1F
100
AcDbEntity
  8
C-9
  6
Continuous
 62
     6
370
     9
100
AcDbLine
 10
-237.3722458054451
 20
878.5506983915565
 30
0.0
 11
-380.9507351463037
 21
878.5506983915565
 31
0.0
  0
LINE
  5
169
330
1F
100
AcDbEntity
  8
C-9
  6
Continuous
 62
     6
370
     9
100
AcDbLine
 10
-237.3722458054451
 20
866.5504237333533
 30
0.0
 11
-390.3722763230232
 21
866.5504237333533
 31
0.0
  0
LINE
  5
16A
330
1F
100
AcDbEntity
  8
C-9
  6
Continuous
 62
     6
370
     9
100
AcDbLine
 10
-365.3723983933358
 20
836.550789944291
 30
0.0
 11
-384.3726425339608
 21
836.550789944291
 31
0.0
  0
LINE
  5
16B
330
1F
100
AcDbEntity
  8
C-9
  6
Continuous
 62
     6
370
     9
100
AcDbLine
 10
-340.3720474411872
 20
836.550789944291
 30
0.0
 11
-359.372276323023
 21
836.550789944291
 31
0.0
  0
LINE
  5
16C
330
1F
100
AcDbEntity
  8
C-9
  6
Continuous
 62
     6
370
     9
100
AcDbLine
 10
-365.3723983933358
 20
764.5507594267127
 30
0.0
 11
-409.372016923609
 21
764.5507594267127
 31
0.0
  0
LINE
  5
16D
330
1F
100
AcDbEntity
  8
C-9
  6
Continuous
 62
     6
370
     9
100
AcDbLine
 10
-365.3723983933358
 20
788.5507594267128
 30
0.0
 11
-384.3726425339608
 21
788.5507594267128
 31
0.0
  0
LINE
  5
16E
330
1F
100
AcDbEntity
  8
C-9
  6
Continuous
 62
     6
370
     9
100
AcDbLine
 10
-315.3721695114999
 20
764.5507594267127
 30
0.0
 11
-359.372276323023
 21
764.5507594267127
 31
0.0
  0
LINE
  5
16F
330
1F
100
AcDbEntity
  8
C-9
  6
Continuous
 62
     6
370
     9
100
AcDbLine
 10
-314.9701053958632
 20
788.5507594267128
 30
0.0
 11
-334.7742386032965
 21
788.5507594267128
 31
0.0
  0
LINE
  5
170
330
1F
100
AcDbEntity
  8
C-9
  6
Continuous
 62
     6
370
     9
100
AcDbLine
 10
-340.3720474411872
 20
788.5507594267128
 30
0.0
 11
-359.372276323023
 21
788.5507594267128
 31
0.0
  0
LINE
  5
171
330
1F
100
AcDbEntity
  8
C-9
  6
Continuous
 62
     6
370
     9
100
AcDbLine
 10
-340.3720474411872
 20
794.5508967558144
 30
0.0
 11
-384.3726425339608
 21
794.5508967558144
 31
0.0
  0
LINE
  5
172
330
1F
100
AcDbEntity
  8
C-9
  6
Continuous
 62
     6
370
     9
100
AcDbLine
 10
-340.3720474411872
 20
800.5505152860877
 30
0.0
 11
-384.3726425339608
 21
800.5505152860877
 31
0.0
  0
LINE
  5
173
330
1F
100
AcDbEntity
  8
C-9
  6
Continuous
 62
     6
370
     9
100
AcDbLine
 10
-340.3720474411872
 20
806.5506373564003
 30
0.0
 11
-384.3726425339608
 21
806.5506373564003
 31
0.0
  0
LINE
  5
174
330
1F
100
AcDbEntity
  8
C-9
  6
Continuous
 62
     6
370
     9
100
AcDbLine
 10
-390.3722763230232
 20
806.5506373564003
 30
0.0
 11
-434.3723831345463
 21
806.5506373564003
 31
0.0
  0
LINE
  5
175
330
1F
100
AcDbEntity
  8
C-9
  6
Continuous
 62
     6
370
     9
100
AcDbLine
 10
-390.3722763230232
 20
800.5505152860877
 30
0.0
 11
-434.3723831345463
 21
800.5505152860877
 31
0.0
  0
LINE
  5
176
330
1F
100
AcDbEntity
  8
C-9
  6
Continuous
 62
     6
370
     9
100
AcDbLine
 10
-390.3722763230232
 20
794.5508967558144
 30
0.0
 11
-434.3723831345463
 21
794.5508967558144
 31
0.0
  0
LINE
  5
177
330
1F
100
AcDbEntity
  8
C-9
  6
Continuous
 62
     6
370
     9
100
AcDbLine
 10
-390.3722763230232
 20
788.5507594267128
 30
0.0
 11
-409.372016923609
 21
788.5507594267128
 31
0.0
  0
LINE
  5
178
330
1F
100
AcDbEntity
  8
C-9
  6
Continuous
 62
     6
370
     9
100
AcDbLine
 10
-315.3721695114999
 20
770.5503779569863
 30
0.0
 11
-359.372276323023
 21
770.5503779569863
 31
0.0
  0
LINE
  5
179
330
1F
100
AcDbEntity
  8
C-9
  6
Continuous
 62
     6
370
     9
100
AcDbLine
 10
-315.3721695114999
 20
776.5505152860878
 30
0.0
 11
-359.372276323023
 21
776.5505152860878
 31
0.0
  0
LINE
  5
17A
330
1F
100
AcDbEntity
  8
C-9
  6
Continuous
 62
     6
370
     9
100
AcDbLine
 10
-315.3721695114999
 20
782.5506373564002
 30
0.0
 11
-359.372276323023
 21
782.5506373564002
 31
0.0
  0
LINE
  5
17B
330
1F
100
AcDbEntity
  8
C-9
  6
Continuous
 62
     6
370
     9
100
AcDbLine
 10
-365.3723983933358
 20
782.5506373564002
 30
0.0
 11
-409.372016923609
 21
782.5506373564002
 31
0.0
  0
LINE
  5
17C
330
1F
100
AcDbEntity
  8
C-9
  6
Continuous
 62
     6
370
     9
100
AcDbLine
 10
-365.3723983933358
 20
776.5505152860878
 30
0.0
 11
-409.372016923609
 21
776.5505152860878
 31
0.0
  0
LINE
  5
17D
330
1F
100
AcDbEntity
  8
C-9
  6
Continuous
 62
     6
370
     9
100
AcDbLine
 10
-365.3723983933358
 20
770.5503779569863
 30
0.0
 11
-409.372016923609
 21
770.5503779569863
 31
0.0
  0
LINE
  5
17E
330
1F
100
AcDbEntity
  8
C-9
  6
Continuous
 62
     6
370
     9
100
AcDbLine
 10
-315.3721695114999
 20
818.5504237333533
 30
0.0
 11
-409.372016923609
 21
818.5504237333533
 31
0.0
  0
LINE
  5
17F
330
1F
100
AcDbEntity
  8
C-9
  6
Continuous
 62
     6
370
     9
100
AcDbLine
 10
-315.3721695114999
 20
824.550545803666
 30
0.0
 11
-409.372016923609
 21
824.550545803666
 31
0.0
  0
LINE
  5
180
330
1F
100
AcDbEntity
  8
C-9
  6
Continuous
 62
     6
370
     9
100
AcDbLine
 10
-315.3721695114999
 20
830.5506678739783
 30
0.0
 11
-409.372016923609
 21
830.5506678739783
 31
0.0
  0
LINE
  5
181
330
1F
100
AcDbEntity
  8
C-9
  6
Continuous
 62
     6
370
     9
100
AcDbLine
 10
-315.3721695114999
 20
836.550789944291
 30
0.0
 11
-334.3724136521249
 21
836.550789944291
 31
0.0
  0
LINE
  5
182
330
1F
100
AcDbEntity
  8
C-9
  6
Continuous
 62
     6
370
     9
100
AcDbLine
 10
-340.3720474411872
 20
842.5509120146035
 30
0.0
 11
-384.3726425339608
 21
842.5509120146035
 31
0.0
  0
LINE
  5
183
330
1F
100
AcDbEntity
  8
C-9
  6
Continuous
 62
     6
370
     9
100
AcDbLine
 10
-340.3720474411872
 20
848.5505458036658
 30
0.0
 11
-384.3726425339608
 21
848.5505458036658
 31
0.0
  0
LINE
  5
184
330
1F
100
AcDbEntity
  8
C-9
  6
Continuous
 62
     6
370
     9
100
AcDbLine
 10
-340.3720474411872
 20
854.5506678739785
 30
0.0
 11
-384.3726425339608
 21
854.5506678739785
 31
0.0
  0
LINE
  5
185
330
1F
100
AcDbEntity
  8
C-9
  6
Continuous
 62
     6
370
     9
100
AcDbLine
 10
-340.3720474411872
 20
860.5503016630407
 30
0.0
 11
-384.3726425339608
 21
860.5503016630407
 31
0.0
  0
LINE
  5
186
330
1F
100
AcDbEntity
  8
C-9
  6
Continuous
 62
     6
370
     9
100
AcDbLine
 10
-265.3721847702886
 20
764.5507594267127
 30
0.0
 11
-309.372047441187
 21
764.5507594267127
 31
0.0
  0
LINE
  5
187
330
1F
100
AcDbEntity
  8
C-9
  6
Continuous
 62
     6
370
     9
100
AcDbLine
 10
-265.3721847702886
 20
770.5503779569863
 30
0.0
 11
-309.372047441187
 21
770.5503779569863
 31
0.0
  0
LINE
  5
188
330
1F
100
AcDbEntity
  8
C-9
  6
Continuous
 62
     6
370
     9
100
AcDbLine
 10
-265.3721847702886
 20
776.5505152860878
 30
0.0
 11
-309.372047441187
 21
776.5505152860878
 31
0.0
  0
LINE
  5
189
330
1F
100
AcDbEntity
  8
C-9
  6
Continuous
 62
     6
370
     9
100
AcDbLine
 10
-265.3721847702886
 20
782.5506373564002
 30
0.0
 11
-309.372047441187
 21
782.5506373564002
 31
0.0
  0
LINE
  5
18A
330
1F
100
AcDbEntity
  8
C-9
  6
Continuous
 62
     6
370
     9
100
AcDbLine
 10
-237.3722458054451
 20
782.5506373564002
 30
0.0
 11
-259.372306840601
 21
782.5506373564002
 31
0.0
  0
LINE
  5
18B
330
1F
100
AcDbEntity
  8
C-9
  6
Continuous
 62
     6
370
     9
100
AcDbLine
 10
-237.3722458054451
 20
776.5505152860878
 30
0.0
 11
-259.372306840601
 21
776.5505152860878
 31
0.0
  0
LINE
  5
18C
330
1F
100
AcDbEntity
  8
C-9
  6
Continuous
 62
     6
370
     9
100
AcDbLine
 10
-237.3722458054451
 20
770.5503779569863
 30
0.0
 11
-259.372306840601
 21
770.5503779569863
 31
0.0
  0
LINE
  5
18D
330
1F
100
AcDbEntity
  8
C-9
  6
Continuous
 62
     6
370
     9
100
AcDbLine
 10
-237.3722458054451
 20
764.5507594267127
 30
0.0
 11
-259.372306840601
 21
764.5507594267127
 31
0.0
  0
LINE
  5
18E
330
1F
100
AcDbEntity
  8
C-9
  6
Continuous
 62
     6
370
     9
100
AcDbLine
 10
-265.3721847702886
 20
788.5507594267128
 30
0.0
 11
-284.3721695114996
 21
788.5507594267128
 31
0.0
  0
LINE
  5
18F
330
1F
100
AcDbEntity
  8
C-9
  6
Continuous
 62
     6
370
     9
100
AcDbLine
 10
-237.3722458054451
 20
794.5508967558144
 30
0.0
 11
-284.3721695114996
 21
794.5508967558144
 31
0.0
  0
LINE
  5
190
330
1F
100
AcDbEntity
  8
C-9
  6
Continuous
 62
     6
370
     9
100
AcDbLine
 10
-237.3722458054451
 20
800.5505152860877
 30
0.0
 11
-284.3721695114996
 21
800.5505152860877
 31
0.0
  0
LINE
  5
191
330
1F
100
AcDbEntity
  8
C-9
  6
Continuous
 62
     6
370
     9
100
AcDbLine
 10
-237.3722458054451
 20
806.5506373564003
 30
0.0
 11
-284.3721695114996
 21
806.5506373564003
 31
0.0
  0
LINE
  5
192
330
1F
100
AcDbEntity
  8
C-9
  6
Continuous
 62
     6
370
     9
100
AcDbLine
 10
-290.3723068406012
 20
806.5506373564003
 30
0.0
 11
-334.3724136521249
 21
806.5506373564003
 31
0.0
  0
LINE
  5
193
330
1F
100
AcDbEntity
  8
C-9
  6
Continuous
 62
     6
370
     9
100
AcDbLine
 10
-290.3723068406012
 20
800.5505152860877
 30
0.0
 11
-334.3724136521249
 21
800.5505152860877
 31
0.0
  0
LINE
  5
194
330
1F
100
AcDbEntity
  8
C-9
  6
Continuous
 62
     6
370
     9
100
AcDbLine
 10
-290.3723068406012
 20
794.5508967558144
 30
0.0
 11
-334.3724136521249
 21
794.5508967558144
 31
0.0
  0
LINE
  5
195
330
1F
100
AcDbEntity
  8
C-9
  6
Continuous
 62
     6
370
     9
100
AcDbLine
 10
-290.3723068406012
 20
788.5507594267128
 30
0.0
 11
-309.7741115568231
 21
788.5507594267128
 31
0.0
  0
LINE
  5
196
330
1F
100
AcDbEntity
  8
C-9
  6
Continuous
 62
     6
370
     9
100
AcDbLine
 10
-265.3721847702886
 20
818.5504237333533
 30
0.0
 11
-309.372047441187
 21
818.5504237333533
 31
0.0
  0
LINE
  5
197
330
1F
100
AcDbEntity
  8
C-9
  6
Continuous
 62
     6
370
     9
100
AcDbLine
 10
-265.3721847702886
 20
824.550545803666
 30
0.0
 11
-309.372047441187
 21
824.550545803666
 31
0.0
  0
LINE
  5
198
330
1F
100
AcDbEntity
  8
C-9
  6
Continuous
 62
     6
370
     9
100
AcDbLine
 10
-265.3721847702886
 20
830.5506678739783
 30
0.0
 11
-309.372047441187
 21
830.5506678739783
 31
0.0
  0
LINE
  5
199
330
1F
100
AcDbEntity
  8
C-9
  6
Continuous
 62
     6
370
     9
100
AcDbLine
 10
-265.3721847702886
 20
836.550789944291
 30
0.0
 11
-284.3721695114996
 21
836.550789944291
 31
0.0
  0
LINE
  5
19A
330
1F
100
AcDbEntity
  8
C-9
  6
Continuous
 62
     6
370
     9
100
AcDbLine
 10
-237.3722458054451
 20
836.550789944291
 30
0.0
 11
-259.372306840601
 21
836.550789944291
 31
0.0
  0
LINE
  5
19B
330
1F
100
AcDbEntity
  8
C-9
  6
Continuous
 62
     6
370
     9
100
AcDbLine
 10
-237.3722458054451
 20
830.5506678739783
 30
0.0
 11
-259.372306840601
 21
830.5506678739783
 31
0.0
  0
LINE
  5
19C
330
1F
100
AcDbEntity
  8
C-9
  6
Continuous
 62
     6
370
     9
100
AcDbLine
 10
-237.3722458054451
 20
824.550545803666
 30
0.0
 11
-259.372306840601
 21
824.550545803666
 31
0.0
  0
LINE
  5
19D
330
1F
100
AcDbEntity
  8
C-9
  6
Continuous
 62
     6
370
     9
100
AcDbLine
 10
-237.3722458054451
 20
818.5504237333533
 30
0.0
 11
-259.372306840601
 21
818.5504237333533
 31
0.0
  0
LINE
  5
19E
330
1F
100
AcDbEntity
  8
C-9
  6
Continuous
 62
     6
370
     9
100
AcDbLine
 10
-237.3722458054451
 20
842.5509120146035
 30
0.0
 11
-284.3721695114996
 21
842.5509120146035
 31
0.0
  0
LINE
  5
19F
330
1F
100
AcDbEntity
  8
C-9
  6
Continuous
 62
     6
370
     9
100
AcDbLine
 10
-237.3722458054451
 20
848.5505458036658
 30
0.0
 11
-284.3721695114996
 21
848.5505458036658
 31
0.0
  0
LINE
  5
1A0
330
1F
100
AcDbEntity
  8
C-9
  6
Continuous
 62
     6
370
     9
100
AcDbLine
 10
-237.3722458054451
 20
854.5506678739785
 30
0.0
 11
-284.3721695114996
 21
854.5506678739785
 31
0.0
  0
LINE
  5
1A1
330
1F
100
AcDbEntity
  8
C-9
  6
Continuous
 62
     6
370
     9
100
AcDbLine
 10
-237.3722458054451
 20
860.5503016630407
 30
0.0
 11
-284.3721695114996
 21
860.5503016630407
 31
0.0
  0
LINE
  5
1A2
330
1F
100
AcDbEntity
  8
C-9
  6
Continuous
 62
     6
370
     9
100
AcDbLine
 10
-290.3723068406012
 20
860.5503016630407
 30
0.0
 11
-334.3724136521249
 21
860.5503016630407
 31
0.0
  0
LINE
  5
1A3
330
1F
100
AcDbEntity
  8
C-9
  6
Continuous
 62
     6
370
     9
100
AcDbLine
 10
-290.3723068406012
 20
854.5506678739785
 30
0.0
 11
-334.3724136521249
 21
854.5506678739785
 31
0.0
  0
LINE
  5
1A4
330
1F
100
AcDbEntity
  8
C-9
  6
Continuous
 62
     6
370
     9
100
AcDbLine
 10
-290.3723068406012
 20
848.5505458036658
 30
0.0
 11
-334.3724136521249
 21
848.5505458036658
 31
0.0
  0
LINE
  5
1A5
330
1F
100
AcDbEntity
  8
C-9
  6
Continuous
 62
     6
370
     9
100
AcDbLine
 10
-290.3723068406012
 20
842.5509120146035
 30
0.0
 11
-334.3724136521249
 21
842.5509120146035
 31
0.0
  0
LINE
  5
1A6
330
1F
100
AcDbEntity
  8
C-9
  6
Continuous
 62
     6
370
     9
100
AcDbLine
 10
-290.3723068406012
 20
836.550789944291
 30
0.0
 11
-309.372047441187
 21
836.550789944291
 31
0.0
  0
LINE
  5
1A7
330
1F
100
AcDbEntity
  8
C-9
  6
Continuous
 62
     6
370
     9
100
AcDbLine
 10
-236.3721542527108
 20
878.1103907743691
 30
0.0
 11
38.76514373144786
 21
878.1103907743691
 31
0.0
  0
LINE
  5
1A8
330
1F
100
AcDbEntity
  8
C-9
  6
Continuous
 62
     6
370
     9
100
AcDbLine
 10
-236.3721542527108
 20
873.1103907743691
 30
0.0
 11
33.76515250523212
 21
873.1103907743691
 31
0.0
  0
LINE
  5
1A9
330
1F
100
AcDbEntity
  8
C-9
  6
Continuous
 62
     6
370
     9
100
AcDbLine
 10
-236.3721542527108
 20
868.1103907743691
 30
0.0
 11
28.76516127901642
 21
868.1103907743691
 31
0.0
  0
LINE
  5
1AA
330
1F
100
AcDbEntity
  8
C-9
  6
Continuous
 62
     6
370
     9
100
AcDbLine
 10
-236.3721542527108
 20
753.110406033158
 30
0.0
 11
-86.23462166518263
 21
753.110406033158
 31
0.0
  0
LINE
  5
1AB
330
1F
100
AcDbEntity
  8
C-9
  6
Continuous
 62
     6
370
     9
100
AcDbLine
 10
-236.3721542527108
 20
758.110406033158
 30
0.0
 11
-81.23463043896695
 21
758.110406033158
 31
0.0
  0
LINE
  5
1AC
330
1F
100
AcDbEntity
  8
C-9
  6
Continuous
 62
     6
370
     9
100
AcDbLine
 10
-236.3721542527108
 20
748.110406033158
 30
0.0
 11
-91.23461289139837
 21
748.110406033158
 31
0.0
  0
LINE
  5
1AD
330
1F
100
AcDbEntity
  8
C-9
  6
Continuous
 62
     6
370
     9
100
AcDbLine
 10
-236.3721542527108
 20
743.110406033158
 30
0.0
 11
-96.23460411761408
 21
743.110406033158
 31
0.0
  0
ARC
  5
1AE
330
1F
100
AcDbEntity
  8
C-A
  6
Continuous
 62
     3
370
     9
100
AcDbCircle
 10
-36.37218477028881
 20
813.0518275419472
 30
0.0
 40
3.0
100
AcDbArc
 50
180.0
 51
0.0
  0
ARC
  5
1AF
330
1F
100
AcDbEntity
  8
C-A
  6
Continuous
 62
     3
370
     9
100
AcDbCircle
 10
-11.37233735817944
 20
838.0511866728066
 30
0.0
 40
3.0
100
AcDbArc
 50
180.0
 51
0.0
  0
ARC
  5
1B0
330
1F
100
AcDbEntity
  8
C-A
  6
Continuous
 62
     3
370
     9
100
AcDbCircle
 10
-86.37242891091347
 20
763.0515986601113
 30
0.0
 40
3.0
100
AcDbArc
 50
180.0
 51
0.0
  0
ARC
  5
1B1
330
1F
100
AcDbEntity
  8
C-A
  6
Continuous
 62
     3
370
     9
100
AcDbCircle
 10
-61.3720626999762
 20
788.0514613310096
 30
0.0
 40
3.0
100
AcDbArc
 50
180.0
 51
0.0
  0
LINE
  5
1B2
330
1F
100
AcDbEntity
  8
C-A
  6
Continuous
 62
     3
370
     9
100
AcDbLine
 10
-89.37175752419506
 20
787.0511103788613
 30
0.0
 11
-89.37175752419506
 21
762.9881331612136
 31
0.0
  0
LINE
  5
1B3
330
1F
100
AcDbEntity
  8
C-A
  6
Continuous
 62
     3
370
     9
100
AcDbLine
 10
-58.37227632302273
 20
812.0509883085487
 30
0.0
 11
-58.37227632302273
 21
788.0156605957602
 31
0.0
  0
LINE
  5
1B4
330
1F
100
AcDbEntity
  8
C-A
  6
Continuous
 62
     3
370
     9
100
AcDbLine
 10
-39.37203218239773
 20
837.0513392606972
 30
0.0
 11
-39.37203218239773
 21
813.0215702442586
 31
0.0
  0
LINE
  5
1B5
330
1F
100
AcDbEntity
  8
C-A
  6
Continuous
 62
     3
370
     9
100
AcDbLine
 10
-14.37215425271035
 20
862.0507289091347
 30
0.0
 11
-14.37215425271035
 21
838.0180415481734
 31
0.0
  0
LINE
  5
1B6
330
1F
100
AcDbEntity
  8
C-A
  6
Continuous
 62
     3
370
     9
100
AcDbLine
 10
-83.3721237351321
 20
787.0511103788613
 30
0.0
 11
-83.3721237351321
 21
763.0515986601113
 31
0.0
  0
LINE
  5
1B7
330
1F
100
AcDbEntity
  8
C-A
  6
Continuous
 62
     3
370
     9
100
AcDbLine
 10
-64.37239839333557
 20
812.0509883085487
 30
0.0
 11
-64.37239839333557
 21
788.0514613310096
 31
0.0
  0
LINE
  5
1B8
330
1F
100
AcDbEntity
  8
C-A
  6
Continuous
 62
     3
370
     9
100
AcDbLine
 10
-33.37239839333535
 20
837.0513392606972
 30
0.0
 11
-33.37239839333535
 21
813.0518275419472
 31
0.0
  0
LINE
  5
1B9
330
1F
100
AcDbEntity
  8
C-A
  6
Continuous
 62
     3
370
     9
100
AcDbLine
 10
-8.372001664820061
 20
862.0507289091347
 30
0.0
 11
-8.372001664820061
 21
838.0511866728066
 31
0.0
  0
LINE
  5
1BA
330
1F
100
AcDbEntity
  8
C-9
  6
Continuous
 62
     6
370
     9
100
AcDbLine
 10
-236.3721542527108
 20
838.1103907743691
 30
0.0
 11
-214.3720932175543
 21
838.1103907743691
 31
0.0
  0
LINE
  5
1BB
330
1F
100
AcDbEntity
  8
C-9
  6
Continuous
 62
     6
370
     9
100
AcDbLine
 10
-208.3722152878667
 20
838.1103907743691
 30
0.0
 11
-189.3722152878669
 21
838.1103907743691
 31
0.0
  0
LINE
  5
1BC
330
1F
100
AcDbEntity
  8
C-9
  6
Continuous
 62
     6
370
     9
100
AcDbLine
 10
-236.3721542527108
 20
843.1103907743691
 30
0.0
 11
-214.3720932175543
 21
843.1103907743691
 31
0.0
  0
LINE
  5
1BD
330
1F
100
AcDbEntity
  8
C-9
  6
Continuous
 62
     6
370
     9
100
AcDbLine
 10
-236.3721542527108
 20
848.1103907743691
 30
0.0
 11
-214.3720932175543
 21
848.1103907743691
 31
0.0
  0
LINE
  5
1BE
330
1F
100
AcDbEntity
  8
C-9
  6
Continuous
 62
     6
370
     9
100
AcDbLine
 10
-236.3721542527108
 20
853.1103907743691
 30
0.0
 11
-214.3720932175543
 21
853.1103907743691
 31
0.0
  0
LINE
  5
1BF
330
1F
100
AcDbEntity
  8
C-9
  6
Continuous
 62
     6
370
     9
100
AcDbLine
 10
-236.3721542527108
 20
858.1103907743691
 30
0.0
 11
-214.3720932175543
 21
858.1103907743691
 31
0.0
  0
LINE
  5
1C0
330
1F
100
AcDbEntity
  8
C-9
  6
Continuous
 62
     6
370
     9
100
AcDbLine
 10
-183.3720932175541
 20
838.1103907743691
 30
0.0
 11
-164.3723678757576
 21
838.1103907743691
 31
0.0
  0
LINE
  5
1C1
330
1F
100
AcDbEntity
  8
C-9
  6
Continuous
 62
     6
370
     9
100
AcDbLine
 10
-208.3722152878667
 20
843.1103907743691
 30
0.0
 11
-164.3723678757576
 21
843.1103907743691
 31
0.0
  0
LINE
  5
1C2
330
1F
100
AcDbEntity
  8
C-9
  6
Continuous
 62
     6
370
     9
100
AcDbLine
 10
-208.3722152878667
 20
848.1103907743691
 30
0.0
 11
-164.3723678757576
 21
848.1103907743691
 31
0.0
  0
LINE
  5
1C3
330
1F
100
AcDbEntity
  8
C-9
  6
Continuous
 62
     6
370
     9
100
AcDbLine
 10
-208.3722152878667
 20
853.1103907743691
 30
0.0
 11
-164.3723678757576
 21
853.1103907743691
 31
0.0
  0
LINE
  5
1C4
330
1F
100
AcDbEntity
  8
C-9
  6
Continuous
 62
     6
370
     9
100
AcDbLine
 10
-208.3722152878667
 20
858.1103907743691
 30
0.0
 11
-164.3723678757576
 21
858.1103907743691
 31
0.0
  0
LINE
  5
1C5
330
1F
100
AcDbEntity
  8
C-9
  6
Continuous
 62
     6
370
     9
100
AcDbLine
 10
-158.3722458054447
 20
838.1103907743691
 30
0.0
 11
-139.3720016648197
 21
838.1103907743691
 31
0.0
  0
LINE
  5
1C6
330
1F
100
AcDbEntity
  8
C-9
  6
Continuous
 62
     6
370
     9
100
AcDbLine
 10
-183.3720932175541
 20
813.1103907743691
 30
0.0
 11
-164.3723678757576
 21
813.1103907743691
 31
0.0
  0
LINE
  5
1C7
330
1F
100
AcDbEntity
  8
C-9
  6
Continuous
 62
     6
370
     9
100
AcDbLine
 10
-208.3722152878667
 20
813.1103907743691
 30
0.0
 11
-189.3722152878669
 21
813.1103907743691
 31
0.0
  0
LINE
  5
1C8
330
1F
100
AcDbEntity
  8
C-9
  6
Continuous
 62
     6
370
     9
100
AcDbLine
 10
-236.3721542527108
 20
808.1103907743691
 30
0.0
 11
-214.3720932175543
 21
808.1103907743691
 31
0.0
  0
LINE
  5
1C9
330
1F
100
AcDbEntity
  8
C-9
  6
Continuous
 62
     6
370
     9
100
AcDbLine
 10
-236.3721542527108
 20
803.1103907743691
 30
0.0
 11
-214.3720932175543
 21
803.1103907743691
 31
0.0
  0
LINE
  5
1CA
330
1F
100
AcDbEntity
  8
C-9
  6
Continuous
 62
     6
370
     9
100
AcDbLine
 10
-236.3721542527108
 20
798.1103907743691
 30
0.0
 11
-214.3720932175543
 21
798.1103907743691
 31
0.0
  0
LINE
  5
1CB
330
1F
100
AcDbEntity
  8
C-9
  6
Continuous
 62
     6
370
     9
100
AcDbLine
 10
-236.3721542527108
 20
793.110406033158
 30
0.0
 11
-214.3720932175543
 21
793.110406033158
 31
0.0
  0
LINE
  5
1CC
330
1F
100
AcDbEntity
  8
C-9
  6
Continuous
 62
     6
370
     9
100
AcDbLine
 10
-236.3721542527108
 20
788.110406033158
 30
0.0
 11
-214.3720932175543
 21
788.110406033158
 31
0.0
  0
LINE
  5
1CD
330
1F
100
AcDbEntity
  8
C-9
  6
Continuous
 62
     6
370
     9
100
AcDbLine
 10
-208.3722152878667
 20
788.110406033158
 30
0.0
 11
-189.3722152878669
 21
788.110406033158
 31
0.0
  0
LINE
  5
1CE
330
1F
100
AcDbEntity
  8
C-9
  6
Continuous
 62
     6
370
     9
100
AcDbLine
 10
-236.3721542527108
 20
818.1103907743691
 30
0.0
 11
-189.3722152878669
 21
818.1103907743691
 31
0.0
  0
LINE
  5
1CF
330
1F
100
AcDbEntity
  8
C-9
  6
Continuous
 62
     6
370
     9
100
AcDbLine
 10
-236.3721542527108
 20
828.1103907743691
 30
0.0
 11
-189.3722152878669
 21
828.1103907743691
 31
0.0
  0
LINE
  5
1D0
330
1F
100
AcDbEntity
  8
C-9
  6
Continuous
 62
     6
370
     9
100
AcDbLine
 10
-236.3721542527108
 20
823.1103907743691
 30
0.0
 11
-189.3722152878669
 21
823.1103907743691
 31
0.0
  0
LINE
  5
1D1
330
1F
100
AcDbEntity
  8
C-9
  6
Continuous
 62
     6
370
     9
100
AcDbLine
 10
-236.3721542527108
 20
833.1103907743691
 30
0.0
 11
-189.3722152878669
 21
833.1103907743691
 31
0.0
  0
LINE
  5
1D2
330
1F
100
AcDbEntity
  8
C-9
  6
Continuous
 62
     6
370
     9
100
AcDbLine
 10
-208.3722152878667
 20
793.110406033158
 30
0.0
 11
-164.3723678757576
 21
793.110406033158
 31
0.0
  0
LINE
  5
1D3
330
1F
100
AcDbEntity
  8
C-9
  6
Continuous
 62
     6
370
     9
100
AcDbLine
 10
-208.3722152878667
 20
798.1103907743691
 30
0.0
 11
-164.3723678757576
 21
798.1103907743691
 31
0.0
  0
LINE
  5
1D4
330
1F
100
AcDbEntity
  8
C-9
  6
Continuous
 62
     6
370
     9
100
AcDbLine
 10
-208.3722152878667
 20
803.1103907743691
 30
0.0
 11
-164.3723678757576
 21
803.1103907743691
 31
0.0
  0
LINE
  5
1D5
330
1F
100
AcDbEntity
  8
C-9
  6
Continuous
 62
     6
370
     9
100
AcDbLine
 10
-208.3722152878667
 20
808.1103907743691
 30
0.0
 11
-164.3723678757576
 21
808.1103907743691
 31
0.0
  0
LINE
  5
1D6
330
1F
100
AcDbEntity
  8
C-9
  6
Continuous
 62
     6
370
     9
100
AcDbLine
 10
-236.3721542527108
 20
783.110406033158
 30
0.0
 11
-189.3722152878669
 21
783.110406033158
 31
0.0
  0
LINE
  5
1D7
330
1F
100
AcDbEntity
  8
C-9
  6
Continuous
 62
     6
370
     9
100
AcDbLine
 10
-236.3721542527108
 20
778.110406033158
 30
0.0
 11
-189.3722152878669
 21
778.110406033158
 31
0.0
  0
LINE
  5
1D8
330
1F
100
AcDbEntity
  8
C-9
  6
Continuous
 62
     6
370
     9
100
AcDbLine
 10
-236.3721542527108
 20
773.110406033158
 30
0.0
 11
-189.3722152878669
 21
773.110406033158
 31
0.0
  0
LINE
  5
1D9
330
1F
100
AcDbEntity
  8
C-9
  6
Continuous
 62
     6
370
     9
100
AcDbLine
 10
-236.3721542527108
 20
768.110406033158
 30
0.0
 11
-189.3722152878669
 21
768.110406033158
 31
0.0
  0
LINE
  5
1DA
330
1F
100
AcDbEntity
  8
C-9
  6
Continuous
 62
     6
370
     9
100
AcDbLine
 10
-183.3720932175541
 20
783.110406033158
 30
0.0
 11
-139.3720016648197
 21
783.110406033158
 31
0.0
  0
LINE
  5
1DB
330
1F
100
AcDbEntity
  8
C-9
  6
Continuous
 62
     6
370
     9
100
AcDbLine
 10
-183.3720932175541
 20
778.110406033158
 30
0.0
 11
-139.3720016648197
 21
778.110406033158
 31
0.0
  0
LINE
  5
1DC
330
1F
100
AcDbEntity
  8
C-9
  6
Continuous
 62
     6
370
     9
100
AcDbLine
 10
-183.3720932175541
 20
773.110406033158
 30
0.0
 11
-139.3720016648197
 21
773.110406033158
 31
0.0
  0
LINE
  5
1DD
330
1F
100
AcDbEntity
  8
C-9
  6
Continuous
 62
     6
370
     9
100
AcDbLine
 10
-183.3720932175541
 20
768.110406033158
 30
0.0
 11
-139.3720016648197
 21
768.110406033158
 31
0.0
  0
LINE
  5
1DE
330
1F
100
AcDbEntity
  8
C-9
  6
Continuous
 62
     6
370
     9
100
AcDbLine
 10
-183.3720932175541
 20
833.1103907743691
 30
0.0
 11
-139.3720016648197
 21
833.1103907743691
 31
0.0
  0
LINE
  5
1DF
330
1F
100
AcDbEntity
  8
C-9
  6
Continuous
 62
     6
370
     9
100
AcDbLine
 10
-183.3720932175541
 20
828.1103907743691
 30
0.0
 11
-139.3720016648197
 21
828.1103907743691
 31
0.0
  0
LINE
  5
1E0
330
1F
100
AcDbEntity
  8
C-9
  6
Continuous
 62
     6
370
     9
100
AcDbLine
 10
-183.3720932175541
 20
823.1103907743691
 30
0.0
 11
-139.3720016648197
 21
823.1103907743691
 31
0.0
  0
LINE
  5
1E1
330
1F
100
AcDbEntity
  8
C-9
  6
Continuous
 62
     6
370
     9
100
AcDbLine
 10
-183.3720932175541
 20
818.1103907743691
 30
0.0
 11
-139.3720016648197
 21
818.1103907743691
 31
0.0
  0
LINE
  5
1E2
330
1F
100
AcDbEntity
  8
C-9
  6
Continuous
 62
     6
370
     9
100
AcDbLine
 10
-158.3722458054447
 20
813.1103907743691
 30
0.0
 11
-139.3720016648197
 21
813.1103907743691
 31
0.0
  0
LINE
  5
1E3
330
1F
100
AcDbEntity
  8
C-9
  6
Continuous
 62
     6
370
     9
100
AcDbLine
 10
-133.3723678757573
 20
813.1103907743691
 30
0.0
 11
-114.3721237351323
 21
813.1103907743691
 31
0.0
  0
LINE
  5
1E4
330
1F
100
AcDbEntity
  8
C-9
  6
Continuous
 62
     6
370
     9
100
AcDbLine
 10
-108.3720016648201
 20
788.110406033158
 30
0.0
 11
-89.37175752419506
 21
788.110406033158
 31
0.0
  0
LINE
  5
1E5
330
1F
100
AcDbEntity
  8
C-9
  6
Continuous
 62
     6
370
     9
100
AcDbLine
 10
-158.3722458054447
 20
803.1103907743691
 30
0.0
 11
-114.3721237351323
 21
803.1103907743691
 31
0.0
  0
LINE
  5
1E6
330
1F
100
AcDbEntity
  8
C-9
  6
Continuous
 62
     6
370
     9
100
AcDbLine
 10
-158.3722458054447
 20
798.1103907743691
 30
0.0
 11
-114.3721237351323
 21
798.1103907743691
 31
0.0
  0
LINE
  5
1E7
330
1F
100
AcDbEntity
  8
C-9
  6
Continuous
 62
     6
370
     9
100
AcDbLine
 10
-158.3722458054447
 20
793.110406033158
 30
0.0
 11
-114.3721237351323
 21
793.110406033158
 31
0.0
  0
LINE
  5
1E8
330
1F
100
AcDbEntity
  8
C-9
  6
Continuous
 62
     6
370
     9
100
AcDbLine
 10
-158.3722458054447
 20
808.1103907743691
 30
0.0
 11
-114.3721237351323
 21
808.1103907743691
 31
0.0
  0
LINE
  5
1E9
330
1F
100
AcDbEntity
  8
C-9
  6
Continuous
 62
     6
370
     9
100
AcDbLine
 10
-158.3722458054447
 20
858.1103907743691
 30
0.0
 11
-114.3721237351323
 21
858.1103907743691
 31
0.0
  0
LINE
  5
1EA
330
1F
100
AcDbEntity
  8
C-9
  6
Continuous
 62
     6
370
     9
100
AcDbLine
 10
-158.3722458054447
 20
853.1103907743691
 30
0.0
 11
-114.3721237351323
 21
853.1103907743691
 31
0.0
  0
LINE
  5
1EB
330
1F
100
AcDbEntity
  8
C-9
  6
Continuous
 62
     6
370
     9
100
AcDbLine
 10
-158.3722458054447
 20
848.1103907743691
 30
0.0
 11
-114.3721237351323
 21
848.1103907743691
 31
0.0
  0
LINE
  5
1EC
330
1F
100
AcDbEntity
  8
C-9
  6
Continuous
 62
     6
370
     9
100
AcDbLine
 10
-158.3722458054447
 20
843.1103907743691
 30
0.0
 11
-114.3721237351323
 21
843.1103907743691
 31
0.0
  0
LINE
  5
1ED
330
1F
100
AcDbEntity
  8
C-9
  6
Continuous
 62
     6
370
     9
100
AcDbLine
 10
-133.3723678757573
 20
838.1103907743691
 30
0.0
 11
-114.3721237351323
 21
838.1103907743691
 31
0.0
  0
LINE
  5
1EE
330
1F
100
AcDbEntity
  8
C-9
  6
Continuous
 62
     6
370
     9
100
AcDbLine
 10
-108.3720016648201
 20
838.1103907743691
 30
0.0
 11
-89.37175752419506
 21
838.1103907743691
 31
0.0
  0
LINE
  5
1EF
330
1F
100
AcDbEntity
  8
C-9
  6
Continuous
 62
     6
370
     9
100
AcDbLine
 10
-83.3721237351321
 20
768.110406033158
 30
0.0
 11
-71.2346420456791
 21
768.110406033158
 31
0.0
  0
LINE
  5
1F0
330
1F
100
AcDbEntity
  8
C-9
  6
Continuous
 62
     6
370
     9
100
AcDbLine
 10
-83.3721237351321
 20
763.110406033158
 30
0.0
 11
-76.2346420456791
 21
763.110406033158
 31
0.0
  0
LINE
  5
1F1
330
1F
100
AcDbEntity
  8
C-9
  6
Continuous
 62
     6
370
     9
100
AcDbLine
 10
-83.3721237351321
 20
773.110406033158
 30
0.0
 11
-66.2346725632571
 21
773.110406033158
 31
0.0
  0
LINE
  5
1F2
330
1F
100
AcDbEntity
  8
C-9
  6
Continuous
 62
     6
370
     9
100
AcDbLine
 10
-83.3721237351321
 20
778.110406033158
 30
0.0
 11
-61.2346655341041
 21
778.110406033158
 31
0.0
  0
LINE
  5
1F3
330
1F
100
AcDbEntity
  8
C-9
  6
Continuous
 62
     6
370
     9
100
AcDbLine
 10
-83.3721237351321
 20
783.110406033158
 30
0.0
 11
-56.23467256325711
 21
783.110406033158
 31
0.0
  0
LINE
  5
1F4
330
1F
100
AcDbEntity
  8
C-9
  6
Continuous
 62
     6
370
     9
100
AcDbLine
 10
-133.3723678757573
 20
783.110406033158
 30
0.0
 11
-89.37175752419506
 21
783.110406033158
 31
0.0
  0
LINE
  5
1F5
330
1F
100
AcDbEntity
  8
C-9
  6
Continuous
 62
     6
370
     9
100
AcDbLine
 10
-133.3723678757573
 20
778.110406033158
 30
0.0
 11
-89.37175752419506
 21
778.110406033158
 31
0.0
  0
LINE
  5
1F6
330
1F
100
AcDbEntity
  8
C-9
  6
Continuous
 62
     6
370
     9
100
AcDbLine
 10
-133.3723678757573
 20
773.110406033158
 30
0.0
 11
-89.37175752419506
 21
773.110406033158
 31
0.0
  0
LINE
  5
1F7
330
1F
100
AcDbEntity
  8
C-9
  6
Continuous
 62
     6
370
     9
100
AcDbLine
 10
-133.3723678757573
 20
768.110406033158
 30
0.0
 11
-89.37175752419506
 21
768.110406033158
 31
0.0
  0
LINE
  5
1F8
330
1F
100
AcDbEntity
  8
C-9
  6
Continuous
 62
     6
370
     9
100
AcDbLine
 10
-133.5656662156012
 20
763.110406033158
 30
0.0
 11
-89.37175752419506
 21
763.110406033158
 31
0.0
  0
LINE
  5
1F9
330
1F
100
AcDbEntity
  8
C-9
  6
Continuous
 62
     6
370
     9
100
AcDbLine
 10
-133.3723678757573
 20
818.1103907743691
 30
0.0
 11
-89.37175752419506
 21
818.1103907743691
 31
0.0
  0
LINE
  5
1FA
330
1F
100
AcDbEntity
  8
C-9
  6
Continuous
 62
     6
370
     9
100
AcDbLine
 10
-133.3723678757573
 20
823.1103907743691
 30
0.0
 11
-89.37175752419506
 21
823.1103907743691
 31
0.0
  0
LINE
  5
1FB
330
1F
100
AcDbEntity
  8
C-9
  6
Continuous
 62
     6
370
     9
100
AcDbLine
 10
-133.3723678757573
 20
828.1103907743691
 30
0.0
 11
-89.37175752419506
 21
828.1103907743691
 31
0.0
  0
LINE
  5
1FC
330
1F
100
AcDbEntity
  8
C-9
  6
Continuous
 62
     6
370
     9
100
AcDbLine
 10
-133.3723678757573
 20
833.1103907743691
 30
0.0
 11
-89.37175752419506
 21
833.1103907743691
 31
0.0
  0
LINE
  5
1FD
330
1F
100
AcDbEntity
  8
C-9
  6
Continuous
 62
     6
370
     9
100
AcDbLine
 10
-83.3721237351321
 20
813.1103907743691
 30
0.0
 11
-64.37239839333557
 21
813.1103907743691
 31
0.0
  0
LINE
  5
1FE
330
1F
100
AcDbEntity
  8
C-9
  6
Continuous
 62
     6
370
     9
100
AcDbLine
 10
-58.37227632302273
 20
788.110406033158
 30
0.0
 11
-51.23467256325711
 21
788.110406033158
 31
0.0
  0
LINE
  5
1FF
330
1F
100
AcDbEntity
  8
C-9
  6
Continuous
 62
     6
370
     9
100
AcDbLine
 10
-83.3721237351321
 20
788.110406033158
 30
0.0
 11
-64.37239839333557
 21
788.110406033158
 31
0.0
  0
LINE
  5
200
330
1F
100
AcDbEntity
  8
C-9
  6
Continuous
 62
     6
370
     9
100
AcDbLine
 10
-108.3720016648201
 20
793.110406033158
 30
0.0
 11
-64.37239839333557
 21
793.110406033158
 31
0.0
  0
LINE
  5
201
330
1F
100
AcDbEntity
  8
C-9
  6
Continuous
 62
     6
370
     9
100
AcDbLine
 10
-108.3720016648201
 20
798.1103907743691
 30
0.0
 11
-64.37239839333557
 21
798.1103907743691
 31
0.0
  0
LINE
  5
202
330
1F
100
AcDbEntity
  8
C-9
  6
Continuous
 62
     6
370
     9
100
AcDbLine
 10
-108.3720016648201
 20
803.1103907743691
 30
0.0
 11
-64.37239839333557
 21
803.1103907743691
 31
0.0
  0
LINE
  5
203
330
1F
100
AcDbEntity
  8
C-9
  6
Continuous
 62
     6
370
     9
100
AcDbLine
 10
-108.3720016648201
 20
808.1103907743691
 30
0.0
 11
-64.37239839333557
 21
808.1103907743691
 31
0.0
  0
LINE
  5
204
330
1F
100
AcDbEntity
  8
C-9
  6
Continuous
 62
     6
370
     9
100
AcDbLine
 10
-58.37227632302273
 20
808.1103907743691
 30
0.0
 11
-31.23473343557208
 21
808.1103907743691
 31
0.0
  0
LINE
  5
205
330
1F
100
AcDbEntity
  8
C-9
  6
Continuous
 62
     6
370
     9
100
AcDbLine
 10
-58.37227632302273
 20
803.1103907743691
 30
0.0
 11
-36.23472466178779
 21
803.1103907743691
 31
0.0
  0
LINE
  5
206
330
1F
100
AcDbEntity
  8
C-9
  6
Continuous
 62
     6
370
     9
100
AcDbLine
 10
-58.37227632302273
 20
798.1103907743691
 30
0.0
 11
-41.23471588800349
 21
798.1103907743691
 31
0.0
  0
LINE
  5
207
330
1F
100
AcDbEntity
  8
C-9
  6
Continuous
 62
     6
370
     9
100
AcDbLine
 10
-58.37227632302273
 20
793.110406033158
 30
0.0
 11
-46.23470308083569
 21
793.110406033158
 31
0.0
  0
LINE
  5
208
330
1F
100
AcDbEntity
  8
C-9
  6
Continuous
 62
     6
370
     9
100
AcDbLine
 10
-108.3720016648201
 20
858.1103907743691
 30
0.0
 11
-64.37239839333557
 21
858.1103907743691
 31
0.0
  0
LINE
  5
209
330
1F
100
AcDbEntity
  8
C-9
  6
Continuous
 62
     6
370
     9
100
AcDbLine
 10
-108.3720016648201
 20
853.1103907743691
 30
0.0
 11
-64.37239839333557
 21
853.1103907743691
 31
0.0
  0
LINE
  5
20A
330
1F
100
AcDbEntity
  8
C-9
  6
Continuous
 62
     6
370
     9
100
AcDbLine
 10
-108.3720016648201
 20
848.1103907743691
 30
0.0
 11
-64.37239839333557
 21
848.1103907743691
 31
0.0
  0
LINE
  5
20B
330
1F
100
AcDbEntity
  8
C-9
  6
Continuous
 62
     6
370
     9
100
AcDbLine
 10
-108.3720016648201
 20
843.1103907743691
 30
0.0
 11
-64.37239839333557
 21
843.1103907743691
 31
0.0
  0
LINE
  5
20C
330
1F
100
AcDbEntity
  8
C-9
  6
Continuous
 62
     6
370
     9
100
AcDbLine
 10
-83.3721237351321
 20
838.1103907743691
 30
0.0
 11
-64.37239839333557
 21
838.1103907743691
 31
0.0
  0
LINE
  5
20D
330
1F
100
AcDbEntity
  8
C-9
  6
Continuous
 62
     6
370
     9
100
AcDbLine
 10
-83.3721237351321
 20
818.1103907743691
 30
0.0
 11
-39.37203218239773
 21
818.1103907743691
 31
0.0
  0
LINE
  5
20E
330
1F
100
AcDbEntity
  8
C-9
  6
Continuous
 62
     6
370
     9
100
AcDbLine
 10
-83.3721237351321
 20
823.1103907743691
 30
0.0
 11
-39.37203218239773
 21
823.1103907743691
 31
0.0
  0
LINE
  5
20F
330
1F
100
AcDbEntity
  8
C-9
  6
Continuous
 62
     6
370
     9
100
AcDbLine
 10
-83.3721237351321
 20
828.1103907743691
 30
0.0
 11
-39.37203218239773
 21
828.1103907743691
 31
0.0
  0
LINE
  5
210
330
1F
100
AcDbEntity
  8
C-9
  6
Continuous
 62
     6
370
     9
100
AcDbLine
 10
-83.3721237351321
 20
833.1103907743691
 30
0.0
 11
-39.37203218239773
 21
833.1103907743691
 31
0.0
  0
LINE
  5
211
330
1F
100
AcDbEntity
  8
C-9
  6
Continuous
 62
     6
370
     9
100
AcDbLine
 10
-58.37227632302273
 20
813.1103907743691
 30
0.0
 11
-39.37203218239773
 21
813.1103907743691
 31
0.0
  0
LINE
  5
212
330
1F
100
AcDbEntity
  8
C-9
  6
Continuous
 62
     6
370
     9
100
AcDbLine
 10
-33.37239839333535
 20
813.1103907743691
 30
0.0
 11
-26.23474220935636
 21
813.1103907743691
 31
0.0
  0
LINE
  5
213
330
1F
100
AcDbEntity
  8
C-9
  6
Continuous
 62
     6
370
     9
100
AcDbLine
 10
-33.37239839333535
 20
818.1103907743691
 30
0.0
 11
-21.2347335984137
 21
818.1103907743691
 31
0.0
  0
LINE
  5
214
330
1F
100
AcDbEntity
  8
C-9
  6
Continuous
 62
     6
370
     9
100
AcDbLine
 10
-33.37239839333535
 20
823.1103907743691
 30
0.0
 11
-16.23475975692497
 21
823.1103907743691
 31
0.0
  0
LINE
  5
215
330
1F
100
AcDbEntity
  8
C-9
  6
Continuous
 62
     6
370
     9
100
AcDbLine
 10
-33.37239839333535
 20
828.1103907743691
 30
0.0
 11
-11.23476853070922
 21
828.1103907743691
 31
0.0
  0
LINE
  5
216
330
1F
100
AcDbEntity
  8
C-9
  6
Continuous
 62
     6
370
     9
100
AcDbLine
 10
-33.37239839333535
 20
833.1103907743691
 30
0.0
 11
-6.234777304493555
 21
833.1103907743691
 31
0.0
  0
LINE
  5
217
330
1F
100
AcDbEntity
  8
C-9
  6
Continuous
 62
     6
370
     9
100
AcDbLine
 10
-8.372001664820061
 20
858.1103907743691
 30
0.0
 11
18.76520536643028
 21
858.1103907743691
 31
0.0
  0
LINE
  5
218
330
1F
100
AcDbEntity
  8
C-9
  6
Continuous
 62
     6
370
     9
100
AcDbLine
 10
-8.372001664820061
 20
853.1103907743691
 30
0.0
 11
13.76518760036927
 21
853.1103907743691
 31
0.0
  0
LINE
  5
219
330
1F
100
AcDbEntity
  8
C-9
  6
Continuous
 62
     6
370
     9
100
AcDbLine
 10
-8.372001664820061
 20
848.1103907743691
 30
0.0
 11
8.765196374153632
 21
848.1103907743691
 31
0.0
  0
LINE
  5
21A
330
1F
100
AcDbEntity
  8
C-9
  6
Continuous
 62
     6
370
     9
100
AcDbLine
 10
-8.372001664820061
 20
843.1103907743691
 30
0.0
 11
3.765205147937891
 21
843.1103907743691
 31
0.0
  0
LINE
  5
21B
330
1F
100
AcDbEntity
  8
C-9
  6
Continuous
 62
     6
370
     9
100
AcDbLine
 10
-8.372001664820061
 20
838.1103907743691
 30
0.0
 11
-1.234786078277823
 21
838.1103907743691
 31
0.0
  0
LINE
  5
21C
330
1F
100
AcDbEntity
  8
C-9
  6
Continuous
 62
     6
370
     9
100
AcDbLine
 10
-33.37239839333535
 20
838.1103907743691
 30
0.0
 11
-14.37215425271035
 21
838.1103907743691
 31
0.0
  0
LINE
  5
21D
330
1F
100
AcDbEntity
  8
C-9
  6
Continuous
 62
     6
370
     9
100
AcDbLine
 10
-58.37227632302273
 20
843.1103907743691
 30
0.0
 11
-14.37215425271035
 21
843.1103907743691
 31
0.0
  0
LINE
  5
21E
330
1F
100
AcDbEntity
  8
C-9
  6
Continuous
 62
     6
370
     9
100
AcDbLine
 10
-58.37227632302273
 20
848.1103907743691
 30
0.0
 11
-14.37215425271035
 21
848.1103907743691
 31
0.0
  0
LINE
  5
21F
330
1F
100
AcDbEntity
  8
C-9
  6
Continuous
 62
     6
370
     9
100
AcDbLine
 10
-58.37227632302273
 20
853.1103907743691
 30
0.0
 11
-14.37215425271035
 21
853.1103907743691
 31
0.0
  0
LINE
  5
220
330
1F
100
AcDbEntity
  8
C-9
  6
Continuous
 62
     6
370
     9
100
AcDbLine
 10
-58.37227632302273
 20
858.1103907743691
 30
0.0
 11
-14.37215425271035
 21
858.1103907743691
 31
0.0
  0
LINE
  5
221
330
1F
100
AcDbEntity
  8
C-5
  6
Continuous
 62
     7
370
     9
100
AcDbLine
 10
-204.4446335007572
 20
741.8083735624549
 30
0.0
 11
-190.2033920456793
 21
721.2607813993691
 31
0.0
  0
LINE
  5
222
330
1F
100
AcDbEntity
  8
C-5
  6
Continuous
 62
     7
370
     9
100
AcDbLine
 10
-204.4446335007572
 20
741.8083735624549
 30
0.0
 11
-196.006797807398
 21
718.2750941435097
 31
0.0
  0
LINE
  5
223
330
1F
100
AcDbEntity
  8
C-5
  6
Continuous
 62
     7
370
     9
100
AcDbLine
 10
-167.8421249558355
 20
670.6649943510291
 30
0.0
 11
-204.4446335007572
 21
741.8083735624549
 31
0.0
  0
TEXT
  5
224
330
1F
100
AcDbEntity
  8
C-5
  6
Continuous
 62
     2
370
     9
100
AcDbText
 10
-976.3721542527105
 20
477.4409425321813
 30
0.0
 40
30.48
  1
※表面の凹凸模様の線は蓋により異なるため、隣り合う蓋とは揃いません
 41
1.121212121212121
  7
ＭＳ ゴシック
100
AcDbText
  0
LINE
  5
225
330
1F
100
AcDbEntity
  8
C-5
  6
Continuous
 62
     7
370
     9
100
AcDbLine
 10
-11.07958223122608
 20
670.6649943510291
 30
0.0
 11
-167.8421249558355
 21
670.6649943510291
 31
0.0
  0
TEXT
  5
226
330
1F
100
AcDbEntity
  8
C-5
  6
Continuous
 62
     7
370
     9
100
AcDbText
 10
-157.363325827621
 20
680.9058967558051
 30
0.0
 40
22.86
  1
凹凸模様
 50
359.999880193421
 41
1.125000000000001
  7
ＭＳ ゴシック
100
AcDbText
  0
LINE
  5
227
330
1F
100
AcDbEntity
  8
C-1
  6
Continuous
 62
     2
370
     9
100
AcDbLine
 10
-987.372276323023
 20
893.5515834013222
 30
0.0
 11
513.6278152297111
 21
893.5515834013222
 31
0.0
  0
LINE
  5
228
330
1F
100
AcDbEntity
  8
C-1
  6
Continuous
 62
     2
370
     9
100
AcDbLine
 10
513.6278152297111
 20
731.5504542509315
 30
0.0
 11
-987.372276323023
 21
731.5504542509315
 31
0.0
  0
LINE
  5
229
330
1F
100
AcDbEntity
  8
C-4
  6
Continuous
 62
     7
370
     9
100
AcDbLine
 10
-542.4835453202152
 20
775.0507289091347
 30
0.0
 11
-463.4143096875244
 21
775.0507289091347
 31
0.0
  0
LINE
  5
22A
330
1F
100
AcDbEntity
  8
C-4
  6
Continuous
 62
     7
370
     9
100
AcDbLine
 10
-437.3719482590585
 20
660.1754313627481
 30
0.0
 11
-437.3719482590585
 21
792.1295584362719
 31
0.0
  0
LINE
  5
22B
330
1F
100
AcDbEntity
  8
C-4
  6
Continuous
 62
     7
370
     9
100
AcDbLine
 10
-542.4835453202152
 20
825.0504542509316
 30
0.0
 11
-413.0305447461114
 21
825.0504542509316
 31
0.0
  0
LINE
  5
22C
330
1F
100
AcDbEntity
  8
C-4
  6
Continuous
 62
     7
370
     9
100
AcDbLine
 10
-542.4835453202152
 20
800.0506068388222
 30
0.0
 11
-438.2224272168179
 21
800.0506068388222
 31
0.0
  0
LINE
  5
22D
330
1F
100
AcDbEntity
  8
C-A
  6
Continuous
 62
     3
370
     9
100
AcDbLine
 10
-521.9503674674826
 20
737.55080520308
 30
0.0
 11
-371.9502024820304
 21
887.5512477079627
 31
0.0
  0
LINE
  5
22E
330
1F
100
AcDbEntity
  8
C-A
  6
Continuous
 62
     3
370
     9
100
AcDbLine
 10
48.2059840986331
 20
887.5512477079627
 30
0.0
 11
-101.7941951919444
 21
737.55080520308
 31
0.0
  0
LINE
  5
22F
330
1F
100
AcDbEntity
  8
D-4
  6
Continuous
 62
     7
370
     9
100
AcDbLine
 10
-1096.948952038977
 20
-197.8382317614975
 30
0.0
 11
-524.2811721164918
 21
-197.8382317614975
 31
0.0
  0
LINE
  5
230
330
1F
100
AcDbEntity
  8
D-4
  6
Continuous
 62
     7
370
     9
100
AcDbLine
 10
-524.2811721164918
 20
-303.3017305922928
 30
0.0
 11
-524.2811721164918
 21
-194.8376671863022
 31
0.0
  0
LINE
  5
231
330
1F
100
AcDbEntity
  8
D-4
  6
Continuous
 62
     7
370
     9
100
AcDbLine
 10
-524.2811721164918
 20
-197.8382317614975
 30
0.0
 11
-399.2813342411256
 21
-197.8382317614975
 31
0.0
  0
LINE
  5
232
330
1F
100
AcDbEntity
  8
D-4
  6
Continuous
 62
     7
370
     9
100
AcDbLine
 10
-399.2813342411256
 20
-303.3017305922928
 30
0.0
 11
-399.2813342411256
 21
-86.0862366748276
 31
0.0
  0
LINE
  5
233
330
1F
100
AcDbEntity
  8
D-4
  6
Continuous
 62
     7
370
     9
100
AcDbLine
 10
-394.2810636360383
 20
-303.3017305922928
 30
0.0
 11
-394.2810636360383
 21
-86.0862366748276
 31
0.0
  0
LINE
  5
234
330
1F
100
AcDbEntity
  8
D-4
  6
Continuous
 62
     7
370
     9
100
AcDbLine
 10
-369.282185395453
 20
-303.3017305922928
 30
0.0
 11
-369.282185395453
 21
24.61042241330716
 31
0.0
  0
LINE
  5
235
330
1F
100
AcDbEntity
  8
D-4
  6
Continuous
 62
     7
370
     9
100
AcDbLine
 10
-524.2811721164918
 20
-878.8402382922593
 30
0.0
 11
-124.2803042728639
 21
-878.8402382922593
 31
0.0
  0
LINE
  5
236
330
1F
100
AcDbEntity
  8
D-4
  6
Continuous
 62
     7
370
     9
100
AcDbLine
 10
-124.2803042728639
 20
-638.6310402942124
 30
0.0
 11
-124.2803042728639
 21
-881.8398110461656
 31
0.0
  0
LINE
  5
237
330
1F
100
AcDbEntity
  8
D-4
  6
Continuous
 62
     7
370
     9
100
AcDbLine
 10
-524.2811721164918
 20
-724.3758599353257
 30
0.0
 11
-374.2819612819886
 21
-724.3758599353257
 31
0.0
  0
LINE
  5
238
330
1F
100
AcDbEntity
  8
D-4
  6
Continuous
 62
     7
370
     9
100
AcDbLine
 10
147.4040371578002
 20
-568.7570588183823
 30
0.0
 11
147.4040371578002
 21
-318.7573830676499
 31
0.0
  0
LINE
  5
239
330
1F
100
AcDbEntity
  8
D-4
  6
Continuous
 62
     7
370
     9
100
AcDbLine
 10
51.7488629024291
 20
-318.7573830676499
 30
0.0
 11
150.4036099117064
 21
-318.7573830676499
 31
0.0
  0
LINE
  5
23A
330
1F
100
AcDbEntity
  8
D-6
  6
Continuous
 62
     6
370
     9
100
AcDbLine
 10
-374.2819612819886
 20
-568.7570588183823
 30
0.0
 11
-374.2819612819886
 21
-818.7567345691148
 31
0.0
  0
LINE
  5
23B
330
1F
100
AcDbEntity
  8
D-6
  6
JWW_DASHED3
 62
     6
370
     9
100
AcDbLine
 10
-280.7800715763307
 20
-696.257039744896
 30
0.0
 11
-280.7800715763307
 21
-568.7570588183823
 31
0.0
  0
LINE
  5
23C
330
1F
100
AcDbEntity
  8
D-6
  6
JWW_DASHED3
 62
     6
370
     9
100
AcDbLine
 10
-235.7796138126588
 20
-568.7570588183823
 30
0.0
 11
-235.7796138126588
 21
-696.257039744896
 31
0.0
  0
LINE
  5
23D
330
1F
100
AcDbEntity
  8
D-6
  6
Continuous
 62
     6
370
     9
100
AcDbLine
 10
-124.2812960941529
 20
-468.7575833392563
 30
0.0
 11
40.71969572713613
 21
-468.7575833392563
 31
0.0
  0
LINE
  5
23E
330
1F
100
AcDbEntity
  8
D-6
  6
Continuous
 62
     6
370
     9
100
AcDbLine
 10
-124.2812960941529
 20
-468.7575833392563
 30
0.0
 11
-124.2812960941529
 21
-568.7570588183823
 31
0.0
  0
LINE
  5
23F
330
1F
100
AcDbEntity
  8
D-4
  6
Continuous
 62
     7
370
     9
100
AcDbLine
 10
-68.50241120645762
 20
-568.7570588183823
 30
0.0
 11
150.4036099117064
 21
-568.7570588183823
 31
0.0
  0
LINE
  5
240
330
1F
100
AcDbEntity
  8
D-6
  6
Continuous
 62
     6
370
     9
100
AcDbLine
 10
-374.2819612819886
 20
-568.7570588183823
 30
0.0
 11
-124.2812960941529
 21
-568.7570588183823
 31
0.0
  0
LINE
  5
241
330
1F
100
AcDbEntity
  8
D-6
  6
Continuous
 62
     6
370
     9
100
AcDbLine
 10
-280.7800715763307
 20
-371.2572543216172
 30
0.0
 11
-235.7796138126588
 21
-371.2572543216172
 31
0.0
  0
LINE
  5
242
330
1F
100
AcDbEntity
  8
D-6
  6
JWW_CENTER2
 62
     6
370
     9
100
AcDbLine
 10
-258.2798426944947
 20
-367.1780602527085
 30
0.0
 11
-258.2798426944947
 21
-696.257039744896
 31
0.0
  0
LINE
  5
243
330
1F
100
AcDbEntity
  8
D-4
  6
Continuous
 62
     7
370
     9
100
AcDbLine
 10
-369.282185395453
 20
-456.7246262622299
 30
0.0
 11
-369.282185395453
 21
-528.0671708178941
 31
0.0
  0
LINE
  5
244
330
1F
100
AcDbEntity
  8
D-6
  6
Continuous
 62
     6
370
     9
100
AcDbLine
 10
-280.7800715763307
 20
-403.7570302081528
 30
0.0
 11
-280.7800715763307
 21
-371.2572543216172
 31
0.0
  0
LINE
  5
245
330
1F
100
AcDbEntity
  8
D-6
  6
Continuous
 62
     6
370
     9
100
AcDbLine
 10
-235.7796138126588
 20
-403.7570302081528
 30
0.0
 11
-235.7796138126588
 21
-371.2572543216172
 31
0.0
  0
LINE
  5
246
330
1F
100
AcDbEntity
  8
D-6
  6
Continuous
 62
     6
370
     9
100
AcDbLine
 10
-280.7800715763307
 20
-568.7570588183823
 30
0.0
 11
-280.7800715763307
 21
-453.7567727160874
 31
0.0
  0
LINE
  5
247
330
1F
100
AcDbEntity
  8
D-6
  6
Continuous
 62
     6
370
     9
100
AcDbLine
 10
-235.7796138126588
 20
-568.7570588183823
 30
0.0
 11
-235.7796138126588
 21
-453.7567727160874
 31
0.0
  0
LINE
  5
248
330
1F
100
AcDbEntity
  8
D-4
  6
Continuous
 62
     7
370
     9
100
AcDbLine
 10
-669.7636836368775
 20
-443.7572209430161
 30
0.0
 11
-669.7636836368775
 21
-318.7573830676499
 31
0.0
  0
LINE
  5
249
330
1F
100
AcDbEntity
  8
D-4
  6
Continuous
 62
     7
370
     9
100
AcDbLine
 10
-397.4262991149163
 20
-318.7573830676499
 30
0.0
 11
-672.7642482120729
 21
-318.7573830676499
 31
0.0
  0
LINE
  5
24A
330
1F
100
AcDbEntity
  8
D-4
  6
Continuous
 62
     7
370
     9
100
AcDbLine
 10
-1096.948952038977
 20
21.60985783811185
 30
0.0
 11
-369.282185395453
 21
21.60985783811185
 31
0.0
  0
LINE
  5
24B
330
1F
100
AcDbEntity
  8
D-4
  6
Continuous
 62
     7
370
     9
100
AcDbLine
 10
-1096.948952038977
 20
-89.08580942873385
 30
0.0
 11
-333.1957095463014
 21
-89.08580942873385
 31
0.0
  0
LINE
  5
24C
330
1F
100
AcDbEntity
  8
D-4
  6
Continuous
 62
     7
370
     9
100
AcDbLine
 10
-369.282185395453
 20
-525.0666253161851
 30
0.0
 11
-224.2817538578248
 21
-525.0666253161851
 31
0.0
  0
LINE
  5
24D
330
1F
100
AcDbEntity
  8
D-5
  6
Continuous
 62
     2
370
     9
100
AcDbLine
 10
-866.2764972049931
 20
-1014.699536998314
 30
0.0
 11
-866.2764972049931
 21
-949.6999566150132
 31
0.0
  0
LINE
  5
24E
330
1F
100
AcDbEntity
  8
D-5
  6
Continuous
 62
     2
370
     9
100
AcDbLine
 10
-866.2764972049931
 20
-949.6999566150132
 30
0.0
 11
-291.2760775882936
 21
-949.6999566150132
 31
0.0
  0
LINE
  5
24F
330
1F
100
AcDbEntity
  8
D-5
  6
Continuous
 62
     2
370
     9
100
AcDbLine
 10
-291.2760775882936
 20
-949.6999566150132
 30
0.0
 11
-291.2760775882936
 21
-1014.699536998314
 31
0.0
  0
LINE
  5
250
330
1F
100
AcDbEntity
  8
D-5
  6
Continuous
 62
     2
370
     9
100
AcDbLine
 10
-291.2760775882936
 20
-1014.699536998314
 30
0.0
 11
-866.2764972049931
 21
-1014.699536998314
 31
0.0
  0
LINE
  5
251
330
1F
100
AcDbEntity
  8
D-4
  6
Continuous
 62
     7
370
     9
100
AcDbLine
 10
-524.2811721164918
 20
-843.7570778918687
 30
0.0
 11
-524.2811721164918
 21
-881.8398110461656
 31
0.0
  0
LINE
  5
252
330
1F
100
AcDbEntity
  8
D-5
  6
Continuous
 62
     7
370
     9
100
AcDbLine
 10
-184.936584790442
 20
-210.7085244250717
 30
0.0
 11
74.44627348592519
 21
-210.7085244250717
 31
0.0
  0
LINE
  5
253
330
1F
100
AcDbEntity
  8
D-5
  6
Continuous
 62
     7
370
     9
100
AcDbLine
 10
-376.2242000896669
 20
-318.7573830676499
 30
0.0
 11
-362.4135034877992
 21
-297.9189579081955
 31
0.0
  0
LINE
  5
254
330
1F
100
AcDbEntity
  8
D-5
  6
Continuous
 62
     7
370
     9
100
AcDbLine
 10
-376.2242000896669
 20
-318.7573830676499
 30
0.0
 11
-357.4905246097779
 21
-302.2032754016342
 31
0.0
  0
LINE
  5
255
330
1F
100
AcDbEntity
  8
D-5
  6
Continuous
 62
     7
370
     9
100
AcDbLine
 10
-234.4319384891725
 20
-155.8462540698471
 30
0.0
 11
-376.2242000896669
 21
-318.7573830676499
 31
0.0
  0
LINE
  5
256
330
1F
100
AcDbEntity
  8
D-5
  6
Continuous
 62
     7
370
     9
100
AcDbLine
 10
-184.936584790442
 20
-210.7085244250717
 30
0.0
 11
-399.7649117533302
 21
-457.5342194629135
 31
0.0
  0
LINE
  5
257
330
1F
100
AcDbEntity
  8
D-5
  6
Continuous
 62
     7
370
     9
100
AcDbLine
 10
-234.4319384891725
 20
-155.8462540698471
 30
0.0
 11
216.3584286372924
 21
-155.8462540698471
 31
0.0
  0
LINE
  5
258
330
1F
100
AcDbEntity
  8
D-6
  6
Continuous
 62
     6
370
     9
100
AcDbLine
 10
-124.2812960941529
 20
-516.0971467090073
 30
0.0
 11
-76.94124635050059
 21
-468.7570874286118
 31
0.0
  0
LINE
  5
259
330
1F
100
AcDbEntity
  8
D-6
  6
Continuous
 62
     6
370
     9
100
AcDbLine
 10
-374.2809718448854
 20
-766.0948388171616
 30
0.0
 11
-176.9417041141725
 21
-568.7570588183823
 31
0.0
  0
LINE
  5
25A
330
1F
100
AcDbEntity
  8
D-6
  6
Continuous
 62
     6
370
     9
100
AcDbLine
 10
-374.2809718448854
 20
-780.2355019641343
 30
0.0
 11
-162.8010218937135
 21
-568.7570588183823
 31
0.0
  0
LINE
  5
25B
330
1F
100
AcDbEntity
  8
D-6
  6
Continuous
 62
     6
370
     9
100
AcDbLine
 10
-124.2812960941529
 20
-530.2378289294663
 30
0.0
 11
-62.80054505655528
 21
-468.7570874286118
 31
0.0
  0
LINE
  5
25C
330
1F
100
AcDbEntity
  8
D-6
  6
Continuous
 62
     6
370
     9
100
AcDbLine
 10
-374.2809718448854
 20
-794.3762032580796
 30
0.0
 11
-148.6603396732545
 21
-568.7570588183823
 31
0.0
  0
LINE
  5
25D
330
1F
100
AcDbEntity
  8
D-6
  6
Continuous
 62
     6
370
     9
100
AcDbLine
 10
-124.2812960941529
 20
-544.3785111499253
 30
0.0
 11
-48.65988190958262
 21
-468.7570874286118
 31
0.0
  0
LINE
  5
25E
330
1F
100
AcDbEntity
  8
D-6
  6
Continuous
 62
     6
370
     9
100
AcDbLine
 10
-35.10881837198497
 20
-818.7567345691148
 30
0.0
 11
40.71969572713613
 21
-742.9287163806382
 31
0.0
  0
LINE
  5
25F
330
1F
100
AcDbEntity
  8
D-6
  6
Continuous
 62
     6
370
     9
100
AcDbLine
 10
-49.24948151895762
 20
-818.7567345691148
 30
0.0
 11
40.71969572713613
 21
-728.7880150866929
 31
0.0
  0
LINE
  5
260
330
1F
100
AcDbEntity
  8
D-6
  6
Continuous
 62
     6
370
     9
100
AcDbLine
 10
-20.96811707803965
 20
-818.7567345691148
 30
0.0
 11
40.71969572713613
 21
-757.0693795276109
 31
0.0
  0
LINE
  5
261
330
1F
100
AcDbEntity
  8
D-0
  6
Continuous
 62
     7
370
     9
100
AcDbLine
 10
-97.43580277750254
 20
-339.7067944598618
 30
0.0
 11
-97.43580277750254
 21
-338.2065145564499
 31
0.0
  0
LINE
  5
262
330
1F
100
AcDbEntity
  8
D-0
  6
Continuous
 62
     7
370
     9
100
AcDbLine
 10
-97.43580277750254
 20
-338.2065145564499
 30
0.0
 11
-95.93603547403575
 21
-338.2065145564499
 31
0.0
  0
LINE
  5
263
330
1F
100
AcDbEntity
  8
D-0
  6
Continuous
 62
     7
370
     9
100
AcDbLine
 10
-95.93603547403575
 20
-338.2065145564499
 30
0.0
 11
-95.93603547403575
 21
-339.7067944598618
 31
0.0
  0
LINE
  5
264
330
1F
100
AcDbEntity
  8
D-0
  6
Continuous
 62
     7
370
     9
100
AcDbLine
 10
-95.93603547403575
 20
-339.7067944598618
 30
0.0
 11
-97.43580277750254
 21
-339.7067944598618
 31
0.0
  0
LINE
  5
265
330
1F
100
AcDbEntity
  8
D-0
  6
Continuous
 62
     7
370
     9
100
AcDbLine
 10
-46.67997773477794
 20
-342.4140350413742
 30
0.0
 11
-46.67997773477794
 21
-340.9137551379624
 31
0.0
  0
LINE
  5
266
330
1F
100
AcDbEntity
  8
D-0
  6
Continuous
 62
     7
370
     9
100
AcDbLine
 10
-46.67997773477794
 20
-340.9137551379624
 30
0.0
 11
-45.17969544718028
 21
-340.9137551379624
 31
0.0
  0
LINE
  5
267
330
1F
100
AcDbEntity
  8
D-0
  6
Continuous
 62
     7
370
     9
100
AcDbLine
 10
-45.17969544718028
 20
-340.9137551379624
 30
0.0
 11
-45.17969544718028
 21
-342.4140350413742
 31
0.0
  0
LINE
  5
268
330
1F
100
AcDbEntity
  8
D-0
  6
Continuous
 62
     7
370
     9
100
AcDbLine
 10
-45.17969544718028
 20
-342.4140350413742
 30
0.0
 11
-46.67997773477794
 21
-342.4140350413742
 31
0.0
  0
LINE
  5
269
330
1F
100
AcDbEntity
  8
D-0
  6
Continuous
 62
     7
370
     9
100
AcDbLine
 10
18.28786436727285
 20
-340.3836052012863
 30
0.0
 11
18.28786436727285
 21
-338.8833252978745
 31
0.0
  0
LINE
  5
26A
330
1F
100
AcDbEntity
  8
D-0
  6
Continuous
 62
     7
370
     9
100
AcDbLine
 10
18.28786436727285
 20
-338.8833252978745
 30
0.0
 11
19.78765074422597
 21
-338.8833252978745
 31
0.0
  0
LINE
  5
26B
330
1F
100
AcDbEntity
  8
D-0
  6
Continuous
 62
     7
370
     9
100
AcDbLine
 10
19.78765074422597
 20
-338.8833252978745
 30
0.0
 11
19.78765074422597
 21
-340.3836052012863
 31
0.0
  0
LINE
  5
26C
330
1F
100
AcDbEntity
  8
D-0
  6
Continuous
 62
     7
370
     9
100
AcDbLine
 10
19.78765074422597
 20
-340.3836052012863
 30
0.0
 11
18.28786436727285
 21
-340.3836052012863
 31
0.0
  0
LINE
  5
26D
330
1F
100
AcDbEntity
  8
D-0
  6
Continuous
 62
     7
370
     9
100
AcDbLine
 10
-6.075348218176373
 20
-372.8675286364975
 30
0.0
 11
-6.075348218176373
 21
-371.3672463488999
 31
0.0
  0
LINE
  5
26E
330
1F
100
AcDbEntity
  8
D-0
  6
Continuous
 62
     7
370
     9
100
AcDbLine
 10
-6.075348218176373
 20
-371.3672463488999
 30
0.0
 11
-4.575065930578717
 21
-371.3672463488999
 31
0.0
  0
LINE
  5
26F
330
1F
100
AcDbEntity
  8
D-0
  6
Continuous
 62
     7
370
     9
100
AcDbLine
 10
-4.575065930578717
 20
-371.3672463488999
 30
0.0
 11
-4.575065930578717
 21
-372.8675286364975
 31
0.0
  0
LINE
  5
270
330
1F
100
AcDbEntity
  8
D-0
  6
Continuous
 62
     7
370
     9
100
AcDbLine
 10
-4.575065930578717
 20
-372.8675286364975
 30
0.0
 11
-6.075348218176373
 21
-372.8675286364975
 31
0.0
  0
LINE
  5
271
330
1F
100
AcDbEntity
  8
D-0
  6
Continuous
 62
     7
370
     9
100
AcDbLine
 10
-56.64038117716075
 20
-376.7985789370957
 30
0.0
 11
-56.64038117716075
 21
-375.298296649498
 31
0.0
  0
LINE
  5
272
330
1F
100
AcDbEntity
  8
D-0
  6
Continuous
 62
     7
370
     9
100
AcDbLine
 10
-56.64038117716075
 20
-375.298296649498
 30
0.0
 11
-55.14063294718028
 21
-375.298296649498
 31
0.0
  0
LINE
  5
273
330
1F
100
AcDbEntity
  8
D-0
  6
Continuous
 62
     7
370
     9
100
AcDbLine
 10
-55.14063294718028
 20
-375.298296649498
 30
0.0
 11
-55.14063294718028
 21
-376.7985789370957
 31
0.0
  0
LINE
  5
274
330
1F
100
AcDbEntity
  8
D-0
  6
Continuous
 62
     7
370
     9
100
AcDbLine
 10
-55.14063294718028
 20
-376.7985789370957
 30
0.0
 11
-56.64038117716075
 21
-376.7985789370957
 31
0.0
  0
LINE
  5
275
330
1F
100
AcDbEntity
  8
D-0
  6
Continuous
 62
     7
370
     9
100
AcDbLine
 10
-73.74990876505137
 20
-410.7654397082749
 30
0.0
 11
-73.74990876505137
 21
-409.2651574206772
 31
0.0
  0
LINE
  5
276
330
1F
100
AcDbEntity
  8
D-0
  6
Continuous
 62
     7
370
     9
100
AcDbLine
 10
-73.74990876505137
 20
-409.2651574206772
 30
0.0
 11
-72.24966462442637
 21
-409.2651574206772
 31
0.0
  0
LINE
  5
277
330
1F
100
AcDbEntity
  8
D-0
  6
Continuous
 62
     7
370
     9
100
AcDbLine
 10
-72.24966462442637
 20
-409.2651574206772
 30
0.0
 11
-72.24966462442637
 21
-410.7654397082749
 31
0.0
  0
LINE
  5
278
330
1F
100
AcDbEntity
  8
D-0
  6
Continuous
 62
     7
370
     9
100
AcDbLine
 10
-72.24966462442637
 20
-410.7654397082749
 30
0.0
 11
-73.74990876505137
 21
-410.7654397082749
 31
0.0
  0
LINE
  5
279
330
1F
100
AcDbEntity
  8
D-0
  6
Continuous
 62
     7
370
     9
100
AcDbLine
 10
-105.1061671573854
 20
-396.1937014651718
 30
0.0
 11
-105.1061671573854
 21
-394.6934239459458
 31
0.0
  0
LINE
  5
27A
330
1F
100
AcDbEntity
  8
D-0
  6
Continuous
 62
     7
370
     9
100
AcDbLine
 10
-105.1061671573854
 20
-394.6934239459458
 30
0.0
 11
-103.6063807804322
 21
-394.6934239459458
 31
0.0
  0
LINE
  5
27B
330
1F
100
AcDbEntity
  8
D-0
  6
Continuous
 62
     7
370
     9
100
AcDbLine
 10
-103.6063807804322
 20
-394.6934239459458
 30
0.0
 11
-103.6063807804322
 21
-396.1937014651718
 31
0.0
  0
LINE
  5
27C
330
1F
100
AcDbEntity
  8
D-0
  6
Continuous
 62
     7
370
     9
100
AcDbLine
 10
-103.6063807804322
 20
-396.1937014651718
 30
0.0
 11
-105.1061671573854
 21
-396.1937014651718
 31
0.0
  0
LINE
  5
27D
330
1F
100
AcDbEntity
  8
D-0
  6
Continuous
 62
     7
370
     9
100
AcDbLine
 10
-115.8305781681275
 20
-437.4137322497788
 30
0.0
 11
-115.8305781681275
 21
-435.9134499621811
 31
0.0
  0
LINE
  5
27E
330
1F
100
AcDbEntity
  8
D-0
  6
Continuous
 62
     7
370
     9
100
AcDbLine
 10
-115.8305781681275
 20
-435.9134499621811
 30
0.0
 11
-114.3302958805299
 21
-435.9134499621811
 31
0.0
  0
LINE
  5
27F
330
1F
100
AcDbEntity
  8
D-0
  6
Continuous
 62
     7
370
     9
100
AcDbLine
 10
-114.3302958805299
 20
-435.9134499621811
 30
0.0
 11
-114.3302958805299
 21
-437.4137322497788
 31
0.0
  0
LINE
  5
280
330
1F
100
AcDbEntity
  8
D-0
  6
Continuous
 62
     7
370
     9
100
AcDbLine
 10
-114.3302958805299
 20
-437.4137322497788
 30
0.0
 11
-115.8305781681275
 21
-437.4137322497788
 31
0.0
  0
LINE
  5
281
330
1F
100
AcDbEntity
  8
D-0
  6
Continuous
 62
     7
370
     9
100
AcDbLine
 10
-78.48711427042247
 20
-445.956107814354
 30
0.0
 11
-78.48711427042247
 21
-444.4558255267563
 31
0.0
  0
LINE
  5
282
330
1F
100
AcDbEntity
  8
D-0
  6
Continuous
 62
     7
370
     9
100
AcDbLine
 10
-78.48711427042247
 20
-444.4558255267563
 30
0.0
 11
-76.98683198282481
 21
-444.4558255267563
 31
0.0
  0
LINE
  5
283
330
1F
100
AcDbEntity
  8
D-0
  6
Continuous
 62
     7
370
     9
100
AcDbLine
 10
-76.98683198282481
 20
-444.4558255267563
 30
0.0
 11
-76.98683198282481
 21
-445.956107814354
 31
0.0
  0
LINE
  5
284
330
1F
100
AcDbEntity
  8
D-0
  6
Continuous
 62
     7
370
     9
100
AcDbLine
 10
-76.98683198282481
 20
-445.956107814354
 30
0.0
 11
-78.48711427042247
 21
-445.956107814354
 31
0.0
  0
LINE
  5
285
330
1F
100
AcDbEntity
  8
D-0
  6
Continuous
 62
     7
370
     9
100
AcDbLine
 10
-26.28202851602794
 20
-450.6808964801255
 30
0.0
 11
-26.28202851602794
 21
-449.180623729271
 31
0.0
  0
LINE
  5
286
330
1F
100
AcDbEntity
  8
D-0
  6
Continuous
 62
     7
370
     9
100
AcDbLine
 10
-26.28202851602794
 20
-449.180623729271
 30
0.0
 11
-24.78224213907481
 21
-449.180623729271
 31
0.0
  0
LINE
  5
287
330
1F
100
AcDbEntity
  8
D-0
  6
Continuous
 62
     7
370
     9
100
AcDbLine
 10
-24.78224213907481
 20
-449.180623729271
 30
0.0
 11
-24.78224213907481
 21
-450.6808964801255
 31
0.0
  0
LINE
  5
288
330
1F
100
AcDbEntity
  8
D-0
  6
Continuous
 62
     7
370
     9
100
AcDbLine
 10
-24.78224213907481
 20
-450.6808964801255
 30
0.0
 11
-26.28202851602794
 21
-450.6808964801255
 31
0.0
  0
LINE
  5
289
330
1F
100
AcDbEntity
  8
D-0
  6
Continuous
 62
     7
370
     9
100
AcDbLine
 10
28.43904081990956
 20
-443.9256779742661
 30
0.0
 11
28.43904081990956
 21
-442.4253956866684
 31
0.0
  0
LINE
  5
28A
330
1F
100
AcDbEntity
  8
D-0
  6
Continuous
 62
     7
370
     9
100
AcDbLine
 10
28.43904081990956
 20
-442.4253956866684
 30
0.0
 11
29.93878904989003
 21
-442.4253956866684
 31
0.0
  0
LINE
  5
28B
330
1F
100
AcDbEntity
  8
D-0
  6
Continuous
 62
     7
370
     9
100
AcDbLine
 10
29.93878904989003
 20
-442.4253956866684
 30
0.0
 11
29.93878904989003
 21
-443.9256779742661
 31
0.0
  0
LINE
  5
28C
330
1F
100
AcDbEntity
  8
D-0
  6
Continuous
 62
     7
370
     9
100
AcDbLine
 10
29.93878904989003
 20
-443.9256779742661
 30
0.0
 11
28.43904081990956
 21
-443.9256779742661
 31
0.0
  0
LINE
  5
28D
330
1F
100
AcDbEntity
  8
D-0
  6
Continuous
 62
     7
370
     9
100
AcDbLine
 10
16.25741545369863
 20
-403.9978329730454
 30
0.0
 11
16.25741545369863
 21
-402.4975506854477
 31
0.0
  0
LINE
  5
28E
330
1F
100
AcDbEntity
  8
D-0
  6
Continuous
 62
     7
370
     9
100
AcDbLine
 10
16.25741545369863
 20
-402.4975506854477
 30
0.0
 11
17.75769774129628
 21
-402.4975506854477
 31
0.0
  0
LINE
  5
28F
330
1F
100
AcDbEntity
  8
D-0
  6
Continuous
 62
     7
370
     9
100
AcDbLine
 10
17.75769774129628
 20
-402.4975506854477
 30
0.0
 11
17.75769774129628
 21
-403.9978329730454
 31
0.0
  0
LINE
  5
290
330
1F
100
AcDbEntity
  8
D-0
  6
Continuous
 62
     7
370
     9
100
AcDbLine
 10
17.75769774129628
 20
-403.9978329730454
 30
0.0
 11
16.25741545369863
 21
-403.9978329730454
 31
0.0
  0
LINE
  5
291
330
1F
100
AcDbEntity
  8
D-0
  6
Continuous
 62
     7
370
     9
100
AcDbLine
 10
-24.77133210489512
 20
-413.1154458117905
 30
0.0
 11
-24.77133210489512
 21
-411.6151635241928
 31
0.0
  0
LINE
  5
292
330
1F
100
AcDbEntity
  8
D-0
  6
Continuous
 62
     7
370
     9
100
AcDbLine
 10
-24.77133210489512
 20
-411.6151635241928
 30
0.0
 11
-23.27158387491465
 21
-411.6151635241928
 31
0.0
  0
LINE
  5
293
330
1F
100
AcDbEntity
  8
D-0
  6
Continuous
 62
     7
370
     9
100
AcDbLine
 10
-23.27158387491465
 20
-411.6151635241928
 30
0.0
 11
-23.27158387491465
 21
-413.1154458117905
 31
0.0
  0
LINE
  5
294
330
1F
100
AcDbEntity
  8
D-0
  6
Continuous
 62
     7
370
     9
100
AcDbLine
 10
-23.27158387491465
 20
-413.1154458117905
 30
0.0
 11
-24.77133210489512
 21
-413.1154458117905
 31
0.0
  0
LINE
  5
295
330
1F
100
AcDbEntity
  8
D-0
  6
Continuous
 62
     7
370
     9
100
AcDbLine
 10
35.71347777059316
 20
-373.6270825457993
 30
0.0
 11
35.71347777059316
 21
-372.1268002582016
 31
0.0
  0
LINE
  5
296
330
1F
100
AcDbEntity
  8
D-0
  6
Continuous
 62
     7
370
     9
100
AcDbLine
 10
35.71347777059316
 20
-372.1268002582016
 30
0.0
 11
37.21376005819081
 21
-372.1268002582016
 31
0.0
  0
LINE
  5
297
330
1F
100
AcDbEntity
  8
D-0
  6
Continuous
 62
     7
370
     9
100
AcDbLine
 10
37.21376005819081
 20
-372.1268002582016
 30
0.0
 11
37.21376005819081
 21
-373.6270825457993
 31
0.0
  0
LINE
  5
298
330
1F
100
AcDbEntity
  8
D-0
  6
Continuous
 62
     7
370
     9
100
AcDbLine
 10
37.21376005819081
 20
-373.6270825457993
 30
0.0
 11
35.71347777059316
 21
-373.6270825457993
 31
0.0
  0
LINE
  5
299
330
1F
100
AcDbEntity
  8
D-0
  6
Continuous
 62
     7
370
     9
100
AcDbLine
 10
-118.2871096927857
 20
-362.7342001986923
 30
0.0
 11
-118.2871096927857
 21
-361.2339226794663
 31
0.0
  0
LINE
  5
29A
330
1F
100
AcDbEntity
  8
D-0
  6
Continuous
 62
     7
370
     9
100
AcDbLine
 10
-118.2871096927857
 20
-361.2339226794663
 30
0.0
 11
-116.7868464786744
 21
-361.2339226794663
 31
0.0
  0
LINE
  5
29B
330
1F
100
AcDbEntity
  8
D-0
  6
Continuous
 62
     7
370
     9
100
AcDbLine
 10
-116.7868464786744
 20
-361.2339226794663
 30
0.0
 11
-116.7868464786744
 21
-362.7342001986923
 31
0.0
  0
LINE
  5
29C
330
1F
100
AcDbEntity
  8
D-0
  6
Continuous
 62
     7
370
     9
100
AcDbLine
 10
-116.7868464786744
 20
-362.7342001986923
 30
0.0
 11
-118.2871096927857
 21
-362.7342001986923
 31
0.0
  0
LINE
  5
29D
330
1F
100
AcDbEntity
  8
D-0
  6
Continuous
 62
     7
370
     9
100
AcDbLine
 10
-201.63685258219
 20
-485.984536845726
 30
0.0
 11
-201.63685258219
 21
-484.4842545581284
 31
0.0
  0
LINE
  5
29E
330
1F
100
AcDbEntity
  8
D-0
  6
Continuous
 62
     7
370
     9
100
AcDbLine
 10
-201.63685258219
 20
-484.4842545581284
 30
0.0
 11
-200.1365702945924
 21
-484.4842545581284
 31
0.0
  0
LINE
  5
29F
330
1F
100
AcDbEntity
  8
D-0
  6
Continuous
 62
     7
370
     9
100
AcDbLine
 10
-200.1365702945924
 20
-484.4842545581284
 30
0.0
 11
-200.1365702945924
 21
-485.984536845726
 31
0.0
  0
LINE
  5
2A0
330
1F
100
AcDbEntity
  8
D-0
  6
Continuous
 62
     7
370
     9
100
AcDbLine
 10
-200.1365702945924
 20
-485.984536845726
 30
0.0
 11
-201.63685258219
 21
-485.984536845726
 31
0.0
  0
LINE
  5
2A1
330
1F
100
AcDbEntity
  8
D-0
  6
Continuous
 62
     7
370
     9
100
AcDbLine
 10
-152.2723048526979
 20
-493.8828103137436
 30
0.0
 11
-152.2723048526979
 21
-492.382528026146
 31
0.0
  0
LINE
  5
2A2
330
1F
100
AcDbEntity
  8
D-0
  6
Continuous
 62
     7
370
     9
100
AcDbLine
 10
-152.2723048526979
 20
-492.382528026146
 30
0.0
 11
-150.7720416385865
 21
-492.382528026146
 31
0.0
  0
LINE
  5
2A3
330
1F
100
AcDbEntity
  8
D-0
  6
Continuous
 62
     7
370
     9
100
AcDbLine
 10
-150.7720416385865
 20
-492.382528026146
 30
0.0
 11
-150.7720416385865
 21
-493.8828103137436
 31
0.0
  0
LINE
  5
2A4
330
1F
100
AcDbEntity
  8
D-0
  6
Continuous
 62
     7
370
     9
100
AcDbLine
 10
-150.7720416385865
 20
-493.8828103137436
 30
0.0
 11
-152.2723048526979
 21
-493.8828103137436
 31
0.0
  0
LINE
  5
2A5
330
1F
100
AcDbEntity
  8
D-0
  6
Continuous
 62
     7
370
     9
100
AcDbLine
 10
-169.1534274418092
 20
-514.4635788989488
 30
0.0
 11
-169.1534274418092
 21
-512.9633156848374
 31
0.0
  0
LINE
  5
2A6
330
1F
100
AcDbEntity
  8
D-0
  6
Continuous
 62
     7
370
     9
100
AcDbLine
 10
-169.1534274418092
 20
-512.9633156848374
 30
0.0
 11
-167.6536410648561
 21
-512.9633156848374
 31
0.0
  0
LINE
  5
2A7
330
1F
100
AcDbEntity
  8
D-0
  6
Continuous
 62
     7
370
     9
100
AcDbLine
 10
-167.6536410648561
 20
-512.9633156848374
 30
0.0
 11
-167.6536410648561
 21
-514.4635788989488
 31
0.0
  0
LINE
  5
2A8
330
1F
100
AcDbEntity
  8
D-0
  6
Continuous
 62
     7
370
     9
100
AcDbLine
 10
-167.6536410648561
 20
-514.4635788989488
 30
0.0
 11
-169.1534274418092
 21
-514.4635788989488
 31
0.0
  0
LINE
  5
2A9
330
1F
100
AcDbEntity
  8
D-0
  6
Continuous
 62
     7
370
     9
100
AcDbLine
 10
-217.4333995182252
 20
-549.1716782641831
 30
0.0
 11
-217.4333995182252
 21
-547.6713959765855
 31
0.0
  0
LINE
  5
2AA
330
1F
100
AcDbEntity
  8
D-0
  6
Continuous
 62
     7
370
     9
100
AcDbLine
 10
-217.4333995182252
 20
-547.6713959765855
 30
0.0
 11
-215.9336131412721
 21
-547.6713959765855
 31
0.0
  0
LINE
  5
2AB
330
1F
100
AcDbEntity
  8
D-0
  6
Continuous
 62
     7
370
     9
100
AcDbLine
 10
-215.9336131412721
 20
-547.6713959765855
 30
0.0
 11
-215.9336131412721
 21
-549.1716782641831
 31
0.0
  0
LINE
  5
2AC
330
1F
100
AcDbEntity
  8
D-0
  6
Continuous
 62
     7
370
     9
100
AcDbLine
 10
-215.9336131412721
 20
-549.1716782641831
 30
0.0
 11
-217.4333995182252
 21
-549.1716782641831
 31
0.0
  0
LINE
  5
2AD
330
1F
100
AcDbEntity
  8
D-0
  6
Continuous
 62
     7
370
     9
100
AcDbLine
 10
-146.3484805423951
 20
-547.1967331958238
 30
0.0
 11
-146.3484805423951
 21
-545.6964509082261
 31
0.0
  0
LINE
  5
2AE
330
1F
100
AcDbEntity
  8
D-0
  6
Continuous
 62
     7
370
     9
100
AcDbLine
 10
-146.3484805423951
 20
-545.6964509082261
 30
0.0
 11
-144.8482173282838
 21
-545.6964509082261
 31
0.0
  0
LINE
  5
2AF
330
1F
100
AcDbEntity
  8
D-0
  6
Continuous
 62
     7
370
     9
100
AcDbLine
 10
-144.8482173282838
 20
-545.6964509082261
 30
0.0
 11
-144.8482173282838
 21
-547.1967331958238
 31
0.0
  0
LINE
  5
2B0
330
1F
100
AcDbEntity
  8
D-0
  6
Continuous
 62
     7
370
     9
100
AcDbLine
 10
-144.8482173282838
 20
-547.1967331958238
 30
0.0
 11
-146.3484805423951
 21
-547.1967331958238
 31
0.0
  0
LINE
  5
2B1
330
1F
100
AcDbEntity
  8
D-0
  6
Continuous
 62
     7
370
     9
100
AcDbLine
 10
-203.6113017399049
 20
-515.6036583972398
 30
0.0
 11
-203.6113017399049
 21
-514.1033761096421
 31
0.0
  0
LINE
  5
2B2
330
1F
100
AcDbEntity
  8
D-0
  6
Continuous
 62
     7
370
     9
100
AcDbLine
 10
-203.6113017399049
 20
-514.1033761096421
 30
0.0
 11
-202.1115153629518
 21
-514.1033761096421
 31
0.0
  0
LINE
  5
2B3
330
1F
100
AcDbEntity
  8
D-0
  6
Continuous
 62
     7
370
     9
100
AcDbLine
 10
-202.1115153629518
 20
-514.1033761096421
 30
0.0
 11
-202.1115153629518
 21
-515.6036583972398
 31
0.0
  0
LINE
  5
2B4
330
1F
100
AcDbEntity
  8
D-0
  6
Continuous
 62
     7
370
     9
100
AcDbLine
 10
-202.1115153629518
 20
-515.6036583972398
 30
0.0
 11
-203.6113017399049
 21
-515.6036583972398
 31
0.0
  0
LINE
  5
2B5
330
1F
100
AcDbEntity
  8
D-0
  6
Continuous
 62
     7
370
     9
100
AcDbLine
 10
-171.7442363102174
 20
-471.7249409747544
 30
0.0
 11
-171.7442363102174
 21
-470.2246682238999
 31
0.0
  0
LINE
  5
2B6
330
1F
100
AcDbEntity
  8
D-0
  6
Continuous
 62
     7
370
     9
100
AcDbLine
 10
-171.7442363102174
 20
-470.2246682238999
 30
0.0
 11
-170.2439540226197
 21
-470.2246682238999
 31
0.0
  0
LINE
  5
2B7
330
1F
100
AcDbEntity
  8
D-0
  6
Continuous
 62
     7
370
     9
100
AcDbLine
 10
-170.2439540226197
 20
-470.2246682238999
 30
0.0
 11
-170.2439540226197
 21
-471.7249409747544
 31
0.0
  0
LINE
  5
2B8
330
1F
100
AcDbEntity
  8
D-0
  6
Continuous
 62
     7
370
     9
100
AcDbLine
 10
-170.2439540226197
 20
-471.7249409747544
 30
0.0
 11
-171.7442363102174
 21
-471.7249409747544
 31
0.0
  0
LINE
  5
2B9
330
1F
100
AcDbEntity
  8
D-0
  6
Continuous
 62
     7
370
     9
100
AcDbLine
 10
-181.027836163733
 20
-543.1645981860581
 30
0.0
 11
-181.027836163733
 21
-541.6643349719468
 31
0.0
  0
LINE
  5
2BA
330
1F
100
AcDbEntity
  8
D-0
  6
Continuous
 62
     7
370
     9
100
AcDbLine
 10
-181.027836163733
 20
-541.6643349719468
 30
0.0
 11
-179.5275538761354
 21
-541.6643349719468
 31
0.0
  0
LINE
  5
2BB
330
1F
100
AcDbEntity
  8
D-0
  6
Continuous
 62
     7
370
     9
100
AcDbLine
 10
-179.5275538761354
 20
-541.6643349719468
 30
0.0
 11
-179.5275538761354
 21
-543.1645981860581
 31
0.0
  0
LINE
  5
2BC
330
1F
100
AcDbEntity
  8
D-0
  6
Continuous
 62
     7
370
     9
100
AcDbLine
 10
-179.5275538761354
 20
-543.1645981860581
 30
0.0
 11
-181.027836163733
 21
-543.1645981860581
 31
0.0
  0
LINE
  5
2BD
330
1F
100
AcDbEntity
  8
D-0
  6
Continuous
 62
     7
370
     9
100
AcDbLine
 10
-344.1534941990113
 20
-333.2884912085953
 30
0.0
 11
-344.1534941990113
 21
-331.7882113051834
 31
0.0
  0
LINE
  5
2BE
330
1F
100
AcDbEntity
  8
D-0
  6
Continuous
 62
     7
370
     9
100
AcDbLine
 10
-344.1534941990113
 20
-331.7882113051834
 30
0.0
 11
-342.6532166797853
 21
-331.7882113051834
 31
0.0
  0
LINE
  5
2BF
330
1F
100
AcDbEntity
  8
D-0
  6
Continuous
 62
     7
370
     9
100
AcDbLine
 10
-342.6532166797853
 20
-331.7882113051834
 30
0.0
 11
-342.6532166797853
 21
-333.2884912085953
 31
0.0
  0
LINE
  5
2C0
330
1F
100
AcDbEntity
  8
D-0
  6
Continuous
 62
     7
370
     9
100
AcDbLine
 10
-342.6532166797853
 20
-333.2884912085953
 30
0.0
 11
-344.1534941990113
 21
-333.2884912085953
 31
0.0
  0
LINE
  5
2C1
330
1F
100
AcDbEntity
  8
D-0
  6
Continuous
 62
     7
370
     9
100
AcDbLine
 10
-322.9087870914674
 20
-349.0870086741867
 30
0.0
 11
-322.9087870914674
 21
-347.5867287707749
 31
0.0
  0
LINE
  5
2C2
330
1F
100
AcDbEntity
  8
D-0
  6
Continuous
 62
     7
370
     9
100
AcDbLine
 10
-322.9087870914674
 20
-347.5867287707749
 30
0.0
 11
-321.4085048038697
 21
-347.5867287707749
 31
0.0
  0
LINE
  5
2C3
330
1F
100
AcDbEntity
  8
D-0
  6
Continuous
 62
     7
370
     9
100
AcDbLine
 10
-321.4085048038697
 20
-347.5867287707749
 30
0.0
 11
-321.4085048038697
 21
-349.0870086741867
 31
0.0
  0
LINE
  5
2C4
330
1F
100
AcDbEntity
  8
D-0
  6
Continuous
 62
     7
370
     9
100
AcDbLine
 10
-321.4085048038697
 20
-349.0870086741867
 30
0.0
 11
-322.9087870914674
 21
-349.0870086741867
 31
0.0
  0
LINE
  5
2C5
330
1F
100
AcDbEntity
  8
D-0
  6
Continuous
 62
     7
370
     9
100
AcDbLine
 10
-299.0425532657838
 20
-390.1673142505112
 30
0.0
 11
-299.0425532657838
 21
-388.6670367312851
 31
0.0
  0
LINE
  5
2C6
330
1F
100
AcDbEntity
  8
D-0
  6
Continuous
 62
     7
370
     9
100
AcDbLine
 10
-299.0425532657838
 20
-388.6670367312851
 30
0.0
 11
-297.5427668888307
 21
-388.6670367312851
 31
0.0
  0
LINE
  5
2C7
330
1F
100
AcDbEntity
  8
D-0
  6
Continuous
 62
     7
370
     9
100
AcDbLine
 10
-297.5427668888307
 20
-388.6670367312851
 30
0.0
 11
-297.5427668888307
 21
-390.1673142505112
 31
0.0
  0
LINE
  5
2C8
330
1F
100
AcDbEntity
  8
D-0
  6
Continuous
 62
     7
370
     9
100
AcDbLine
 10
-297.5427668888307
 20
-390.1673142505112
 30
0.0
 11
-299.0425532657838
 21
-390.1673142505112
 31
0.0
  0
LINE
  5
2C9
330
1F
100
AcDbEntity
  8
D-0
  6
Continuous
 62
     7
370
     9
100
AcDbLine
 10
-253.2780783970094
 20
-337.2111181807938
 30
0.0
 11
-253.2780783970094
 21
-335.7108382773819
 31
0.0
  0
LINE
  5
2CA
330
1F
100
AcDbEntity
  8
D-0
  6
Continuous
 62
     7
370
     9
100
AcDbLine
 10
-253.2780783970094
 20
-335.7108382773819
 30
0.0
 11
-251.7783015567994
 21
-335.7108382773819
 31
0.0
  0
LINE
  5
2CB
330
1F
100
AcDbEntity
  8
D-0
  6
Continuous
 62
     7
370
     9
100
AcDbLine
 10
-251.7783015567994
 20
-335.7108382773819
 30
0.0
 11
-251.7783015567994
 21
-337.2111181807938
 31
0.0
  0
LINE
  5
2CC
330
1F
100
AcDbEntity
  8
D-0
  6
Continuous
 62
     7
370
     9
100
AcDbLine
 10
-251.7783015567994
 20
-337.2111181807938
 30
0.0
 11
-253.2780783970094
 21
-337.2111181807938
 31
0.0
  0
LINE
  5
2CD
330
1F
100
AcDbEntity
  8
D-0
  6
Continuous
 62
     7
370
     9
100
AcDbLine
 10
-205.7200091678834
 20
-331.8129853797379
 30
0.0
 11
-205.7200091678834
 21
-330.312705476326
 31
0.0
  0
LINE
  5
2CE
330
1F
100
AcDbEntity
  8
D-0
  6
Continuous
 62
     7
370
     9
100
AcDbLine
 10
-205.7200091678834
 20
-330.312705476326
 30
0.0
 11
-204.2202227909303
 21
-330.312705476326
 31
0.0
  0
LINE
  5
2CF
330
1F
100
AcDbEntity
  8
D-0
  6
Continuous
 62
     7
370
     9
100
AcDbLine
 10
-204.2202227909303
 20
-330.312705476326
 30
0.0
 11
-204.2202227909303
 21
-331.8129853797379
 31
0.0
  0
LINE
  5
2D0
330
1F
100
AcDbEntity
  8
D-0
  6
Continuous
 62
     7
370
     9
100
AcDbLine
 10
-204.2202227909303
 20
-331.8129853797379
 30
0.0
 11
-205.7200091678834
 21
-331.8129853797379
 31
0.0
  0
LINE
  5
2D1
330
1F
100
AcDbEntity
  8
D-0
  6
Continuous
 62
     7
370
     9
100
AcDbLine
 10
-225.3336375553346
 20
-353.3876769137802
 30
0.0
 11
-225.3336375553346
 21
-351.8873993945542
 31
0.0
  0
LINE
  5
2D2
330
1F
100
AcDbEntity
  8
D-0
  6
Continuous
 62
     7
370
     9
100
AcDbLine
 10
-225.3336375553346
 20
-351.8873993945542
 30
0.0
 11
-223.8333552677369
 21
-351.8873993945542
 31
0.0
  0
LINE
  5
2D3
330
1F
100
AcDbEntity
  8
D-0
  6
Continuous
 62
     7
370
     9
100
AcDbLine
 10
-223.8333552677369
 20
-351.8873993945542
 30
0.0
 11
-223.8333552677369
 21
-353.3876769137802
 31
0.0
  0
LINE
  5
2D4
330
1F
100
AcDbEntity
  8
D-0
  6
Continuous
 62
     7
370
     9
100
AcDbLine
 10
-223.8333552677369
 20
-353.3876769137802
 30
0.0
 11
-225.3336375553346
 21
-353.3876769137802
 31
0.0
  0
LINE
  5
2D5
330
1F
100
AcDbEntity
  8
D-0
  6
Continuous
 62
     7
370
     9
100
AcDbLine
 10
-200.9758990604615
 20
-389.5137946200791
 30
0.0
 11
-200.9758990604615
 21
-388.0135123324814
 31
0.0
  0
LINE
  5
2D6
330
1F
100
AcDbEntity
  8
D-0
  6
Continuous
 62
     7
370
     9
100
AcDbLine
 10
-200.9758990604615
 20
-388.0135123324814
 30
0.0
 11
-199.4756167728639
 21
-388.0135123324814
 31
0.0
  0
LINE
  5
2D7
330
1F
100
AcDbEntity
  8
D-0
  6
Continuous
 62
     7
370
     9
100
AcDbLine
 10
-199.4756167728639
 20
-388.0135123324814
 30
0.0
 11
-199.4756167728639
 21
-389.5137946200791
 31
0.0
  0
LINE
  5
2D8
330
1F
100
AcDbEntity
  8
D-0
  6
Continuous
 62
     7
370
     9
100
AcDbLine
 10
-199.4756167728639
 20
-389.5137946200791
 30
0.0
 11
-200.9758990604615
 21
-389.5137946200791
 31
0.0
  0
LINE
  5
2D9
330
1F
100
AcDbEntity
  8
D-0
  6
Continuous
 62
     7
370
     9
100
AcDbLine
 10
-197.0527880985475
 20
-428.0865304065171
 30
0.0
 11
-197.0527880985475
 21
-426.5862481189194
 31
0.0
  0
LINE
  5
2DA
330
1F
100
AcDbEntity
  8
D-0
  6
Continuous
 62
     7
370
     9
100
AcDbLine
 10
-197.0527880985475
 20
-426.5862481189194
 30
0.0
 11
-195.5530017215943
 21
-426.5862481189194
 31
0.0
  0
LINE
  5
2DB
330
1F
100
AcDbEntity
  8
D-0
  6
Continuous
 62
     7
370
     9
100
AcDbLine
 10
-195.5530017215943
 20
-426.5862481189194
 30
0.0
 11
-195.5530017215943
 21
-428.0865304065171
 31
0.0
  0
LINE
  5
2DC
330
1F
100
AcDbEntity
  8
D-0
  6
Continuous
 62
     7
370
     9
100
AcDbLine
 10
-195.5530017215943
 20
-428.0865304065171
 30
0.0
 11
-197.0527880985475
 21
-428.0865304065171
 31
0.0
  0
LINE
  5
2DD
330
1F
100
AcDbEntity
  8
D-0
  6
Continuous
 62
     7
370
     9
100
AcDbLine
 10
-272.721762021277
 20
-351.7124979091111
 30
0.0
 11
-272.721762021277
 21
-350.2122180056992
 31
0.0
  0
LINE
  5
2DE
330
1F
100
AcDbEntity
  8
D-0
  6
Continuous
 62
     7
370
     9
100
AcDbLine
 10
-272.721762021277
 20
-350.2122180056992
 30
0.0
 11
-271.2214797336793
 21
-350.2122180056992
 31
0.0
  0
LINE
  5
2DF
330
1F
100
AcDbEntity
  8
D-0
  6
Continuous
 62
     7
370
     9
100
AcDbLine
 10
-271.2214797336793
 20
-350.2122180056992
 30
0.0
 11
-271.2214797336793
 21
-351.7124979091111
 31
0.0
  0
LINE
  5
2E0
330
1F
100
AcDbEntity
  8
D-0
  6
Continuous
 62
     7
370
     9
100
AcDbLine
 10
-271.2214797336793
 20
-351.7124979091111
 30
0.0
 11
-272.721762021277
 21
-351.7124979091111
 31
0.0
  0
LINE
  5
2E1
330
1F
100
AcDbEntity
  8
D-0
  6
Continuous
 62
     7
370
     9
100
AcDbLine
 10
-351.0038464863038
 20
-479.1515175891342
 30
0.0
 11
-351.0038464863038
 21
-477.6512448382798
 31
0.0
  0
LINE
  5
2E2
330
1F
100
AcDbEntity
  8
D-0
  6
Continuous
 62
     7
370
     9
100
AcDbLine
 10
-351.0038464863038
 20
-477.6512448382798
 30
0.0
 11
-349.5035689670777
 21
-477.6512448382798
 31
0.0
  0
LINE
  5
2E3
330
1F
100
AcDbEntity
  8
D-0
  6
Continuous
 62
     7
370
     9
100
AcDbLine
 10
-349.5035689670777
 20
-477.6512448382798
 30
0.0
 11
-349.5035689670777
 21
-479.1515175891342
 31
0.0
  0
LINE
  5
2E4
330
1F
100
AcDbEntity
  8
D-0
  6
Continuous
 62
     7
370
     9
100
AcDbLine
 10
-349.5035689670777
 20
-479.1515175891342
 30
0.0
 11
-351.0038464863038
 21
-479.1515175891342
 31
0.0
  0
LINE
  5
2E5
330
1F
100
AcDbEntity
  8
D-0
  6
Continuous
 62
     7
370
     9
100
AcDbLine
 10
-501.7749923069215
 20
-468.2130639148178
 30
0.0
 11
-501.7749923069215
 21
-466.7127816272202
 31
0.0
  0
LINE
  5
2E6
330
1F
100
AcDbEntity
  8
D-0
  6
Continuous
 62
     7
370
     9
100
AcDbLine
 10
-501.7749923069215
 20
-466.7127816272202
 30
0.0
 11
-500.274719556067
 21
-466.7127816272202
 31
0.0
  0
LINE
  5
2E7
330
1F
100
AcDbEntity
  8
D-0
  6
Continuous
 62
     7
370
     9
100
AcDbLine
 10
-500.274719556067
 20
-466.7127816272202
 30
0.0
 11
-500.274719556067
 21
-468.2130639148178
 31
0.0
  0
LINE
  5
2E8
330
1F
100
AcDbEntity
  8
D-0
  6
Continuous
 62
     7
370
     9
100
AcDbLine
 10
-500.274719556067
 20
-468.2130639148178
 30
0.0
 11
-501.7749923069215
 21
-468.2130639148178
 31
0.0
  0
LINE
  5
2E9
330
1F
100
AcDbEntity
  8
D-0
  6
Continuous
 62
     7
370
     9
100
AcDbLine
 10
-442.5367492038941
 20
-572.8664795947495
 30
0.0
 11
-442.5367492038941
 21
-571.3661973071519
 31
0.0
  0
LINE
  5
2EA
330
1F
100
AcDbEntity
  8
D-0
  6
Continuous
 62
     7
370
     9
100
AcDbLine
 10
-442.5367492038941
 20
-571.3661973071519
 30
0.0
 11
-441.0369675953126
 21
-571.3661973071519
 31
0.0
  0
LINE
  5
2EB
330
1F
100
AcDbEntity
  8
D-0
  6
Continuous
 62
     7
370
     9
100
AcDbLine
 10
-441.0369675953126
 20
-571.3661973071519
 30
0.0
 11
-441.0369675953126
 21
-572.8664795947495
 31
0.0
  0
LINE
  5
2EC
330
1F
100
AcDbEntity
  8
D-0
  6
Continuous
 62
     7
370
     9
100
AcDbLine
 10
-441.0369675953126
 20
-572.8664795947495
 30
0.0
 11
-442.5367492038941
 21
-572.8664795947495
 31
0.0
  0
LINE
  5
2ED
330
1F
100
AcDbEntity
  8
D-0
  6
Continuous
 62
     7
370
     9
100
AcDbLine
 10
-456.3593381244874
 20
-632.1042267871323
 30
0.0
 11
-456.3593381244874
 21
-630.6039444995347
 31
0.0
  0
LINE
  5
2EE
330
1F
100
AcDbEntity
  8
D-0
  6
Continuous
 62
     7
370
     9
100
AcDbLine
 10
-456.3593381244874
 20
-630.6039444995347
 30
0.0
 11
-454.8590558368898
 21
-630.6039444995347
 31
0.0
  0
LINE
  5
2EF
330
1F
100
AcDbEntity
  8
D-0
  6
Continuous
 62
     7
370
     9
100
AcDbLine
 10
-454.8590558368898
 20
-630.6039444995347
 30
0.0
 11
-454.8590558368898
 21
-632.1042267871323
 31
0.0
  0
LINE
  5
2F0
330
1F
100
AcDbEntity
  8
D-0
  6
Continuous
 62
     7
370
     9
100
AcDbLine
 10
-454.8590558368898
 20
-632.1042267871323
 30
0.0
 11
-456.3593381244874
 21
-632.1042267871323
 31
0.0
  0
LINE
  5
2F1
330
1F
100
AcDbEntity
  8
D-0
  6
Continuous
 62
     7
370
     9
100
AcDbLine
 10
-486.9654315311647
 20
-642.9644219470445
 30
0.0
 11
-486.9654315311647
 21
-641.4641396594468
 31
0.0
  0
LINE
  5
2F2
330
1F
100
AcDbEntity
  8
D-0
  6
Continuous
 62
     7
370
     9
100
AcDbLine
 10
-486.9654315311647
 20
-641.4641396594468
 30
0.0
 11
-485.4651587803102
 21
-641.4641396594468
 31
0.0
  0
LINE
  5
2F3
330
1F
100
AcDbEntity
  8
D-0
  6
Continuous
 62
     7
370
     9
100
AcDbLine
 10
-485.4651587803102
 20
-641.4641396594468
 30
0.0
 11
-485.4651587803102
 21
-642.9644219470445
 31
0.0
  0
LINE
  5
2F4
330
1F
100
AcDbEntity
  8
D-0
  6
Continuous
 62
     7
370
     9
100
AcDbLine
 10
-485.4651587803102
 20
-642.9644219470445
 30
0.0
 11
-486.9654315311647
 21
-642.9644219470445
 31
0.0
  0
LINE
  5
2F5
330
1F
100
AcDbEntity
  8
D-0
  6
Continuous
 62
     7
370
     9
100
AcDbLine
 10
-509.818929990027
 20
-576.8158547473374
 30
0.0
 11
-509.818929990027
 21
-575.3155724597398
 31
0.0
  0
LINE
  5
2F6
330
1F
100
AcDbEntity
  8
D-0
  6
Continuous
 62
     7
370
     9
100
AcDbLine
 10
-509.818929990027
 20
-575.3155724597398
 30
0.0
 11
-508.3191436130738
 21
-575.3155724597398
 31
0.0
  0
LINE
  5
2F7
330
1F
100
AcDbEntity
  8
D-0
  6
Continuous
 62
     7
370
     9
100
AcDbLine
 10
-508.3191436130738
 20
-575.3155724597398
 30
0.0
 11
-508.3191436130738
 21
-576.8158547473374
 31
0.0
  0
LINE
  5
2F8
330
1F
100
AcDbEntity
  8
D-0
  6
Continuous
 62
     7
370
     9
100
AcDbLine
 10
-508.3191436130738
 20
-576.8158547473374
 30
0.0
 11
-509.818929990027
 21
-576.8158547473374
 31
0.0
  0
LINE
  5
2F9
330
1F
100
AcDbEntity
  8
D-0
  6
Continuous
 62
     7
370
     9
100
AcDbLine
 10
-484.0035193760133
 20
-555.0955025744859
 30
0.0
 11
-484.0035193760133
 21
-553.5952202868882
 31
0.0
  0
LINE
  5
2FA
330
1F
100
AcDbEntity
  8
D-0
  6
Continuous
 62
     7
370
     9
100
AcDbLine
 10
-484.0035193760133
 20
-553.5952202868882
 30
0.0
 11
-482.5032466251588
 21
-553.5952202868882
 31
0.0
  0
LINE
  5
2FB
330
1F
100
AcDbEntity
  8
D-0
  6
Continuous
 62
     7
370
     9
100
AcDbLine
 10
-482.5032466251588
 20
-553.5952202868882
 30
0.0
 11
-482.5032466251588
 21
-555.0955025744859
 31
0.0
  0
LINE
  5
2FC
330
1F
100
AcDbEntity
  8
D-0
  6
Continuous
 62
     7
370
     9
100
AcDbLine
 10
-482.5032466251588
 20
-555.0955025744859
 30
0.0
 11
-484.0035193760133
 21
-555.0955025744859
 31
0.0
  0
LINE
  5
2FD
330
1F
100
AcDbEntity
  8
D-0
  6
Continuous
 62
     7
370
     9
100
AcDbLine
 10
-420.8163898784852
 20
-607.5884263110581
 30
0.0
 11
-420.8163898784852
 21
-606.0881440234605
 31
0.0
  0
LINE
  5
2FE
330
1F
100
AcDbEntity
  8
D-0
  6
Continuous
 62
     7
370
     9
100
AcDbLine
 10
-420.8163898784852
 20
-606.0881440234605
 30
0.0
 11
-419.3166058857179
 21
-606.0881440234605
 31
0.0
  0
LINE
  5
2FF
330
1F
100
AcDbEntity
  8
D-0
  6
Continuous
 62
     7
370
     9
100
AcDbLine
 10
-419.3166058857179
 20
-606.0881440234605
 30
0.0
 11
-419.3166058857179
 21
-607.5884263110581
 31
0.0
  0
LINE
  5
300
330
1F
100
AcDbEntity
  8
D-0
  6
Continuous
 62
     7
370
     9
100
AcDbLine
 10
-419.3166058857179
 20
-607.5884263110581
 30
0.0
 11
-420.8163898784852
 21
-607.5884263110581
 31
0.0
  0
LINE
  5
301
330
1F
100
AcDbEntity
  8
D-0
  6
Continuous
 62
     7
370
     9
100
AcDbLine
 10
-497.8256171543336
 20
-745.467473704857
 30
0.0
 11
-497.8256171543336
 21
-743.9671914172593
 31
0.0
  0
LINE
  5
302
330
1F
100
AcDbEntity
  8
D-0
  6
Continuous
 62
     7
370
     9
100
AcDbLine
 10
-497.8256171543336
 20
-743.9671914172593
 30
0.0
 11
-496.3258307773805
 21
-743.9671914172593
 31
0.0
  0
LINE
  5
303
330
1F
100
AcDbEntity
  8
D-0
  6
Continuous
 62
     7
370
     9
100
AcDbLine
 10
-496.3258307773805
 20
-743.9671914172593
 30
0.0
 11
-496.3258307773805
 21
-745.467473704857
 31
0.0
  0
LINE
  5
304
330
1F
100
AcDbEntity
  8
D-0
  6
Continuous
 62
     7
370
     9
100
AcDbLine
 10
-496.3258307773805
 20
-745.467473704857
 30
0.0
 11
-497.8256171543336
 21
-745.467473704857
 31
0.0
  0
LINE
  5
305
330
1F
100
AcDbEntity
  8
D-0
  6
Continuous
 62
     7
370
     9
100
AcDbLine
 10
-427.4353569347596
 20
-749.179517467064
 30
0.0
 11
-427.4353569347596
 21
-747.6792351794663
 31
0.0
  0
LINE
  5
306
330
1F
100
AcDbEntity
  8
D-0
  6
Continuous
 62
     7
370
     9
100
AcDbLine
 10
-427.4353569347596
 20
-747.6792351794663
 30
0.0
 11
-425.9355729419923
 21
-747.6792351794663
 31
0.0
  0
LINE
  5
307
330
1F
100
AcDbEntity
  8
D-0
  6
Continuous
 62
     7
370
     9
100
AcDbLine
 10
-425.9355729419923
 20
-747.6792351794663
 30
0.0
 11
-425.9355729419923
 21
-749.179517467064
 31
0.0
  0
LINE
  5
308
330
1F
100
AcDbEntity
  8
D-0
  6
Continuous
 62
     7
370
     9
100
AcDbLine
 10
-425.9355729419923
 20
-749.179517467064
 30
0.0
 11
-427.4353569347596
 21
-749.179517467064
 31
0.0
  0
LINE
  5
309
330
1F
100
AcDbEntity
  8
D-0
  6
Continuous
 62
     7
370
     9
100
AcDbLine
 10
-403.0449151594377
 20
-775.0861184192124
 30
0.0
 11
-403.0449151594377
 21
-773.5858361316148
 31
0.0
  0
LINE
  5
30A
330
1F
100
AcDbEntity
  8
D-0
  6
Continuous
 62
     7
370
     9
100
AcDbLine
 10
-403.0449151594377
 20
-773.5858361316148
 30
0.0
 11
-401.5451310176587
 21
-773.5858361316148
 31
0.0
  0
LINE
  5
30B
330
1F
100
AcDbEntity
  8
D-0
  6
Continuous
 62
     7
370
     9
100
AcDbLine
 10
-401.5451310176587
 20
-773.5858361316148
 30
0.0
 11
-401.5451310176587
 21
-775.0861184192124
 31
0.0
  0
LINE
  5
30C
330
1F
100
AcDbEntity
  8
D-0
  6
Continuous
 62
     7
370
     9
100
AcDbLine
 10
-401.5451310176587
 20
-775.0861184192124
 30
0.0
 11
-403.0449151594377
 21
-775.0861184192124
 31
0.0
  0
LINE
  5
30D
330
1F
100
AcDbEntity
  8
D-0
  6
Continuous
 62
     7
370
     9
100
AcDbLine
 10
-396.7663347322679
 20
-813.2981316638413
 30
0.0
 11
-396.7663347322679
 21
-811.7978493762437
 31
0.0
  0
LINE
  5
30E
330
1F
100
AcDbEntity
  8
D-0
  6
Continuous
 62
     7
370
     9
100
AcDbLine
 10
-396.7663347322679
 20
-811.7978493762437
 30
0.0
 11
-395.2660554249024
 21
-811.7978493762437
 31
0.0
  0
LINE
  5
30F
330
1F
100
AcDbEntity
  8
D-0
  6
Continuous
 62
     7
370
     9
100
AcDbLine
 10
-395.2660554249024
 20
-811.7978493762437
 30
0.0
 11
-395.2660554249024
 21
-813.2981316638413
 31
0.0
  0
LINE
  5
310
330
1F
100
AcDbEntity
  8
D-0
  6
Continuous
 62
     7
370
     9
100
AcDbLine
 10
-395.2660554249024
 20
-813.2981316638413
 30
0.0
 11
-396.7663347322679
 21
-813.2981316638413
 31
0.0
  0
LINE
  5
311
330
1F
100
AcDbEntity
  8
D-0
  6
Continuous
 62
     7
370
     9
100
AcDbLine
 10
-470.994991620276
 20
-818.7567345691148
 30
0.0
 11
-470.994991620276
 21
-817.2564522815171
 31
0.0
  0
LINE
  5
312
330
1F
100
AcDbEntity
  8
D-0
  6
Continuous
 62
     7
370
     9
100
AcDbLine
 10
-470.994991620276
 20
-817.2564522815171
 30
0.0
 11
-469.4947093326783
 21
-817.2564522815171
 31
0.0
  0
LINE
  5
313
330
1F
100
AcDbEntity
  8
D-0
  6
Continuous
 62
     7
370
     9
100
AcDbLine
 10
-469.4947093326783
 20
-817.2564522815171
 30
0.0
 11
-469.4947093326783
 21
-818.7567345691148
 31
0.0
  0
LINE
  5
314
330
1F
100
AcDbEntity
  8
D-0
  6
Continuous
 62
     7
370
     9
100
AcDbLine
 10
-469.4947093326783
 20
-818.7567345691148
 30
0.0
 11
-470.994991620276
 21
-818.7567345691148
 31
0.0
  0
LINE
  5
315
330
1F
100
AcDbEntity
  8
D-0
  6
Continuous
 62
     7
370
     9
100
AcDbLine
 10
-505.723881085608
 20
-809.4602410388413
 30
0.0
 11
-505.723881085608
 21
-807.9599587512437
 31
0.0
  0
LINE
  5
316
330
1F
100
AcDbEntity
  8
D-0
  6
Continuous
 62
     7
370
     9
100
AcDbLine
 10
-505.723881085608
 20
-807.9599587512437
 30
0.0
 11
-504.2235987980104
 21
-807.9599587512437
 31
0.0
  0
LINE
  5
317
330
1F
100
AcDbEntity
  8
D-0
  6
Continuous
 62
     7
370
     9
100
AcDbLine
 10
-504.2235987980104
 20
-807.9599587512437
 30
0.0
 11
-504.2235987980104
 21
-809.4602410388413
 31
0.0
  0
LINE
  5
318
330
1F
100
AcDbEntity
  8
D-0
  6
Continuous
 62
     7
370
     9
100
AcDbLine
 10
-504.2235987980104
 20
-809.4602410388413
 30
0.0
 11
-505.723881085608
 21
-809.4602410388413
 31
0.0
  0
LINE
  5
319
330
1F
100
AcDbEntity
  8
D-0
  6
Continuous
 62
     7
370
     9
100
AcDbLine
 10
-507.935156186316
 20
-769.1622750354234
 30
0.0
 11
-507.935156186316
 21
-767.6619927478257
 31
0.0
  0
LINE
  5
31A
330
1F
100
AcDbEntity
  8
D-0
  6
Continuous
 62
     7
370
     9
100
AcDbLine
 10
-507.935156186316
 20
-767.6619927478257
 30
0.0
 11
-506.4353793461061
 21
-767.6619927478257
 31
0.0
  0
LINE
  5
31B
330
1F
100
AcDbEntity
  8
D-0
  6
Continuous
 62
     7
370
     9
100
AcDbLine
 10
-506.4353793461061
 20
-767.6619927478257
 30
0.0
 11
-506.4353793461061
 21
-769.1622750354234
 31
0.0
  0
LINE
  5
31C
330
1F
100
AcDbEntity
  8
D-0
  6
Continuous
 62
     7
370
     9
100
AcDbLine
 10
-506.4353793461061
 20
-769.1622750354234
 30
0.0
 11
-507.935156186316
 21
-769.1622750354234
 31
0.0
  0
LINE
  5
31D
330
1F
100
AcDbEntity
  8
D-0
  6
Continuous
 62
     7
370
     9
100
AcDbLine
 10
-450.4355138141847
 20
-788.9082161975327
 30
0.0
 11
-450.4355138141847
 21
-787.4079339099351
 31
0.0
  0
LINE
  5
31E
330
1F
100
AcDbEntity
  8
D-0
  6
Continuous
 62
     7
370
     9
100
AcDbLine
 10
-450.4355138141847
 20
-787.4079339099351
 30
0.0
 11
-448.935231526587
 21
-787.4079339099351
 31
0.0
  0
LINE
  5
31F
330
1F
100
AcDbEntity
  8
D-0
  6
Continuous
 62
     7
370
     9
100
AcDbLine
 10
-448.935231526587
 20
-787.4079339099351
 30
0.0
 11
-448.935231526587
 21
-788.9082161975327
 31
0.0
  0
LINE
  5
320
330
1F
100
AcDbEntity
  8
D-0
  6
Continuous
 62
     7
370
     9
100
AcDbLine
 10
-448.935231526587
 20
-788.9082161975327
 30
0.0
 11
-450.4355138141847
 21
-788.9082161975327
 31
0.0
  0
LINE
  5
321
330
1F
100
AcDbEntity
  8
D-0
  6
Continuous
 62
     7
370
     9
100
AcDbLine
 10
-462.2831624347901
 20
-755.340177257103
 30
0.0
 11
-462.2831624347901
 21
-753.8398949695054
 31
0.0
  0
LINE
  5
322
330
1F
100
AcDbEntity
  8
D-0
  6
Continuous
 62
     7
370
     9
100
AcDbLine
 10
-462.2831624347901
 20
-753.8398949695054
 30
0.0
 11
-460.7828801471925
 21
-753.8398949695054
 31
0.0
  0
LINE
  5
323
330
1F
100
AcDbEntity
  8
D-0
  6
Continuous
 62
     7
370
     9
100
AcDbLine
 10
-460.7828801471925
 20
-753.8398949695054
 30
0.0
 11
-460.7828801471925
 21
-755.340177257103
 31
0.0
  0
LINE
  5
324
330
1F
100
AcDbEntity
  8
D-0
  6
Continuous
 62
     7
370
     9
100
AcDbLine
 10
-460.7828801471925
 20
-755.340177257103
 30
0.0
 11
-462.2831624347901
 21
-755.340177257103
 31
0.0
  0
LINE
  5
325
330
1F
100
AcDbEntity
  8
D-0
  6
Continuous
 62
     7
370
     9
100
AcDbLine
 10
-406.9942968685365
 20
-641.1564461780015
 30
0.0
 11
-406.9942968685365
 21
-639.6561638904038
 31
0.0
  0
LINE
  5
326
330
1F
100
AcDbEntity
  8
D-0
  6
Continuous
 62
     7
370
     9
100
AcDbLine
 10
-406.9942968685365
 20
-639.6561638904038
 30
0.0
 11
-405.4945128757691
 21
-639.6561638904038
 31
0.0
  0
LINE
  5
327
330
1F
100
AcDbEntity
  8
D-0
  6
Continuous
 62
     7
370
     9
100
AcDbLine
 10
-405.4945128757691
 20
-639.6561638904038
 30
0.0
 11
-405.4945128757691
 21
-641.1564461780015
 31
0.0
  0
LINE
  5
328
330
1F
100
AcDbEntity
  8
D-0
  6
Continuous
 62
     7
370
     9
100
AcDbLine
 10
-405.4945128757691
 20
-641.1564461780015
 30
0.0
 11
-406.9942968685365
 21
-641.1564461780015
 31
0.0
  0
LINE
  5
329
330
1F
100
AcDbEntity
  8
D-0
  6
Continuous
 62
     7
370
     9
100
AcDbLine
 10
-395.1471426684594
 20
-541.272908885521
 30
0.0
 11
-395.1471426684594
 21
-539.7726265979234
 31
0.0
  0
LINE
  5
32A
330
1F
100
AcDbEntity
  8
D-0
  6
Continuous
 62
     7
370
     9
100
AcDbLine
 10
-395.1471426684594
 20
-539.7726265979234
 30
0.0
 11
-393.6468630630708
 21
-539.7726265979234
 31
0.0
  0
LINE
  5
32B
330
1F
100
AcDbEntity
  8
D-0
  6
Continuous
 62
     7
370
     9
100
AcDbLine
 10
-393.6468630630708
 20
-539.7726265979234
 30
0.0
 11
-393.6468630630708
 21
-541.272908885521
 31
0.0
  0
LINE
  5
32C
330
1F
100
AcDbEntity
  8
D-0
  6
Continuous
 62
     7
370
     9
100
AcDbLine
 10
-393.6468630630708
 20
-541.272908885521
 30
0.0
 11
-395.1471426684594
 21
-541.272908885521
 31
0.0
  0
LINE
  5
32D
330
1F
100
AcDbEntity
  8
D-0
  6
Continuous
 62
     7
370
     9
100
AcDbLine
 10
-299.0361064274049
 20
-552.4972550464097
 30
0.0
 11
-299.0361064274049
 21
-550.996972758812
 31
0.0
  0
LINE
  5
32E
330
1F
100
AcDbEntity
  8
D-0
  6
Continuous
 62
     7
370
     9
100
AcDbLine
 10
-299.0361064274049
 20
-550.996972758812
 30
0.0
 11
-297.5363295871949
 21
-550.996972758812
 31
0.0
  0
LINE
  5
32F
330
1F
100
AcDbEntity
  8
D-0
  6
Continuous
 62
     7
370
     9
100
AcDbLine
 10
-297.5363295871949
 20
-550.996972758812
 30
0.0
 11
-297.5363295871949
 21
-552.4972550464097
 31
0.0
  0
LINE
  5
330
330
1F
100
AcDbEntity
  8
D-0
  6
Continuous
 62
     7
370
     9
100
AcDbLine
 10
-297.5363295871949
 20
-552.4972550464097
 30
0.0
 11
-299.0361064274049
 21
-552.4972550464097
 31
0.0
  0
LINE
  5
331
330
1F
100
AcDbEntity
  8
D-0
  6
Continuous
 62
     7
370
     9
100
AcDbLine
 10
-351.5706628162599
 20
-543.8721291613999
 30
0.0
 11
-351.5706628162599
 21
-542.3718468738023
 31
0.0
  0
LINE
  5
332
330
1F
100
AcDbEntity
  8
D-0
  6
Continuous
 62
     7
370
     9
100
AcDbLine
 10
-351.5706628162599
 20
-542.3718468738023
 30
0.0
 11
-350.0708812076783
 21
-542.3718468738023
 31
0.0
  0
LINE
  5
333
330
1F
100
AcDbEntity
  8
D-0
  6
Continuous
 62
     7
370
     9
100
AcDbLine
 10
-350.0708812076783
 20
-542.3718468738023
 30
0.0
 11
-350.0708812076783
 21
-543.8721291613999
 31
0.0
  0
LINE
  5
334
330
1F
100
AcDbEntity
  8
D-0
  6
Continuous
 62
     7
370
     9
100
AcDbLine
 10
-350.0708812076783
 20
-543.8721291613999
 30
0.0
 11
-351.5706628162599
 21
-543.8721291613999
 31
0.0
  0
LINE
  5
335
330
1F
100
AcDbEntity
  8
D-0
  6
Continuous
 62
     7
370
     9
100
AcDbLine
 10
-487.9524081546998
 20
-604.4600312304917
 30
0.0
 11
-487.9524081546998
 21
-602.9597680163804
 31
0.0
  0
LINE
  5
336
330
1F
100
AcDbEntity
  8
D-0
  6
Continuous
 62
     7
370
     9
100
AcDbLine
 10
-487.9524081546998
 20
-602.9597680163804
 30
0.0
 11
-486.4526217777467
 21
-602.9597680163804
 31
0.0
  0
LINE
  5
337
330
1F
100
AcDbEntity
  8
D-0
  6
Continuous
 62
     7
370
     9
100
AcDbLine
 10
-486.4526217777467
 20
-602.9597680163804
 30
0.0
 11
-486.4526217777467
 21
-604.4600312304917
 31
0.0
  0
LINE
  5
338
330
1F
100
AcDbEntity
  8
D-0
  6
Continuous
 62
     7
370
     9
100
AcDbLine
 10
-486.4526217777467
 20
-604.4600312304917
 30
0.0
 11
-487.9524081546998
 21
-604.4600312304917
 31
0.0
  0
LINE
  5
339
330
1F
100
AcDbEntity
  8
D-0
  6
Continuous
 62
     7
370
     9
100
AcDbLine
 10
-456.8320124942994
 20
-462.6890770984116
 30
0.0
 11
-456.8320124942994
 21
-461.1888043475571
 31
0.0
  0
LINE
  5
33A
330
1F
100
AcDbEntity
  8
D-0
  6
Continuous
 62
     7
370
     9
100
AcDbLine
 10
-456.8320124942994
 20
-461.1888043475571
 30
0.0
 11
-455.3317349750733
 21
-461.1888043475571
 31
0.0
  0
LINE
  5
33B
330
1F
100
AcDbEntity
  8
D-0
  6
Continuous
 62
     7
370
     9
100
AcDbLine
 10
-455.3317349750733
 20
-461.1888043475571
 30
0.0
 11
-455.3317349750733
 21
-462.6890770984116
 31
0.0
  0
LINE
  5
33C
330
1F
100
AcDbEntity
  8
D-0
  6
Continuous
 62
     7
370
     9
100
AcDbLine
 10
-455.3317349750733
 20
-462.6890770984116
 30
0.0
 11
-456.8320124942994
 21
-462.6890770984116
 31
0.0
  0
LINE
  5
33D
330
1F
100
AcDbEntity
  8
D-0
  6
Continuous
 62
     7
370
     9
100
AcDbLine
 10
-401.070967425797
 20
-574.0204255176011
 30
0.0
 11
-401.070967425797
 21
-572.5201432300034
 31
0.0
  0
LINE
  5
33E
330
1F
100
AcDbEntity
  8
D-0
  6
Continuous
 62
     7
370
     9
100
AcDbLine
 10
-401.070967425797
 20
-572.5201432300034
 30
0.0
 11
-399.5706880066729
 21
-572.5201432300034
 31
0.0
  0
LINE
  5
33F
330
1F
100
AcDbEntity
  8
D-0
  6
Continuous
 62
     7
370
     9
100
AcDbLine
 10
-399.5706880066729
 20
-572.5201432300034
 30
0.0
 11
-399.5706880066729
 21
-574.0204255176011
 31
0.0
  0
LINE
  5
340
330
1F
100
AcDbEntity
  8
D-0
  6
Continuous
 62
     7
370
     9
100
AcDbLine
 10
-399.5706880066729
 20
-574.0204255176011
 30
0.0
 11
-401.070967425797
 21
-574.0204255176011
 31
0.0
  0
LINE
  5
341
330
1F
100
AcDbEntity
  8
D-0
  6
Continuous
 62
     7
370
     9
100
AcDbLine
 10
-460.3082221348023
 20
-596.5617768359605
 30
0.0
 11
-460.3082221348023
 21
-595.0614945483628
 31
0.0
  0
LINE
  5
342
330
1F
100
AcDbEntity
  8
D-0
  6
Continuous
 62
     7
370
     9
100
AcDbLine
 10
-460.3082221348023
 20
-595.0614945483628
 30
0.0
 11
-458.8084405262208
 21
-595.0614945483628
 31
0.0
  0
LINE
  5
343
330
1F
100
AcDbEntity
  8
D-0
  6
Continuous
 62
     7
370
     9
100
AcDbLine
 10
-458.8084405262208
 20
-595.0614945483628
 30
0.0
 11
-458.8084405262208
 21
-596.5617768359605
 31
0.0
  0
LINE
  5
344
330
1F
100
AcDbEntity
  8
D-0
  6
Continuous
 62
     7
370
     9
100
AcDbLine
 10
-458.8084405262208
 20
-596.5617768359605
 30
0.0
 11
-460.3082221348023
 21
-596.5617768359605
 31
0.0
  0
LINE
  5
345
330
1F
100
AcDbEntity
  8
D-0
  6
Continuous
 62
     7
370
     9
100
AcDbLine
 10
-448.4605735141969
 20
-669.6216027331773
 30
0.0
 11
-448.4605735141969
 21
-668.1213204455796
 31
0.0
  0
LINE
  5
346
330
1F
100
AcDbEntity
  8
D-0
  6
Continuous
 62
     7
370
     9
100
AcDbLine
 10
-448.4605735141969
 20
-668.1213204455796
 30
0.0
 11
-446.9607919056153
 21
-668.1213204455796
 31
0.0
  0
LINE
  5
347
330
1F
100
AcDbEntity
  8
D-0
  6
Continuous
 62
     7
370
     9
100
AcDbLine
 10
-446.9607919056153
 20
-668.1213204455796
 30
0.0
 11
-446.9607919056153
 21
-669.6216027331773
 31
0.0
  0
LINE
  5
348
330
1F
100
AcDbEntity
  8
D-0
  6
Continuous
 62
     7
370
     9
100
AcDbLine
 10
-446.9607919056153
 20
-669.6216027331773
 30
0.0
 11
-448.4605735141969
 21
-669.6216027331773
 31
0.0
  0
LINE
  5
349
330
1F
100
AcDbEntity
  8
D-0
  6
Continuous
 62
     7
370
     9
100
AcDbLine
 10
-496.8381446201539
 20
-668.6341301989976
 30
0.0
 11
-496.8381446201539
 21
-667.1338479113999
 31
0.0
  0
LINE
  5
34A
330
1F
100
AcDbEntity
  8
D-0
  6
Continuous
 62
     7
370
     9
100
AcDbLine
 10
-496.8381446201539
 20
-667.1338479113999
 30
0.0
 11
-495.3378623325563
 21
-667.1338479113999
 31
0.0
  0
LINE
  5
34B
330
1F
100
AcDbEntity
  8
D-0
  6
Continuous
 62
     7
370
     9
100
AcDbLine
 10
-495.3378623325563
 20
-667.1338479113999
 30
0.0
 11
-495.3378623325563
 21
-668.6341301989976
 31
0.0
  0
LINE
  5
34C
330
1F
100
AcDbEntity
  8
D-0
  6
Continuous
 62
     7
370
     9
100
AcDbLine
 10
-495.3378623325563
 20
-668.6341301989976
 30
0.0
 11
-496.8381446201539
 21
-668.6341301989976
 31
0.0
  0
LINE
  5
34D
330
1F
100
AcDbEntity
  8
D-0
  6
Continuous
 62
     7
370
     9
100
AcDbLine
 10
-483.8851016361451
 20
-787.7398888659898
 30
0.0
 11
-483.8851016361451
 21
-786.2396065783921
 31
0.0
  0
LINE
  5
34E
330
1F
100
AcDbEntity
  8
D-0
  6
Continuous
 62
     7
370
     9
100
AcDbLine
 10
-483.8851016361451
 20
-786.2396065783921
 30
0.0
 11
-482.3853247959352
 21
-786.2396065783921
 31
0.0
  0
LINE
  5
34F
330
1F
100
AcDbEntity
  8
D-0
  6
Continuous
 62
     7
370
     9
100
AcDbLine
 10
-482.3853247959352
 20
-786.2396065783921
 30
0.0
 11
-482.3853247959352
 21
-787.7398888659898
 31
0.0
  0
LINE
  5
350
330
1F
100
AcDbEntity
  8
D-0
  6
Continuous
 62
     7
370
     9
100
AcDbLine
 10
-482.3853247959352
 20
-787.7398888659898
 30
0.0
 11
-483.8851016361451
 21
-787.7398888659898
 31
0.0
  0
LINE
  5
351
330
1F
100
AcDbEntity
  8
D-0
  6
Continuous
 62
     7
370
     9
100
AcDbLine
 10
-433.3591812450624
 20
-817.2475258899156
 30
0.0
 11
-433.3591812450624
 21
-815.7472436023179
 31
0.0
  0
LINE
  5
352
330
1F
100
AcDbEntity
  8
D-0
  6
Continuous
 62
     7
370
     9
100
AcDbLine
 10
-433.3591812450624
 20
-815.7472436023179
 30
0.0
 11
-431.859397252295
 21
-815.7472436023179
 31
0.0
  0
LINE
  5
353
330
1F
100
AcDbEntity
  8
D-0
  6
Continuous
 62
     7
370
     9
100
AcDbLine
 10
-431.859397252295
 20
-815.7472436023179
 30
0.0
 11
-431.859397252295
 21
-817.2475258899156
 31
0.0
  0
LINE
  5
354
330
1F
100
AcDbEntity
  8
D-0
  6
Continuous
 62
     7
370
     9
100
AcDbLine
 10
-431.859397252295
 20
-817.2475258899156
 30
0.0
 11
-433.3591812450624
 21
-817.2475258899156
 31
0.0
  0
LINE
  5
355
330
1F
100
AcDbEntity
  8
D-0
  6
Continuous
 62
     7
370
     9
100
AcDbLine
 10
-397.1215858657098
 20
-741.5180794787827
 30
0.0
 11
-397.1215858657098
 21
-740.0178353381577
 31
0.0
  0
LINE
  5
356
330
1F
100
AcDbEntity
  8
D-0
  6
Continuous
 62
     7
370
     9
100
AcDbLine
 10
-397.1215858657098
 20
-740.0178353381577
 30
0.0
 11
-395.6213062603211
 21
-740.0178353381577
 31
0.0
  0
LINE
  5
357
330
1F
100
AcDbEntity
  8
D-0
  6
Continuous
 62
     7
370
     9
100
AcDbLine
 10
-395.6213062603211
 20
-740.0178353381577
 30
0.0
 11
-395.6213062603211
 21
-741.5180794787827
 31
0.0
  0
LINE
  5
358
330
1F
100
AcDbEntity
  8
D-0
  6
Continuous
 62
     7
370
     9
100
AcDbLine
 10
-395.6213062603211
 20
-741.5180794787827
 30
0.0
 11
-397.1215858657098
 21
-741.5180794787827
 31
0.0
  0
LINE
  5
359
330
1F
100
AcDbEntity
  8
D-0
  6
Continuous
 62
     7
370
     9
100
AcDbLine
 10
-514.154285748694
 20
-623.4548203540269
 30
0.0
 11
-514.154285748694
 21
-621.9545380664292
 31
0.0
  0
LINE
  5
35A
330
1F
100
AcDbEntity
  8
D-0
  6
Continuous
 62
     7
370
     9
100
AcDbLine
 10
-514.154285748694
 20
-621.9545380664292
 30
0.0
 11
-512.6540034610963
 21
-621.9545380664292
 31
0.0
  0
LINE
  5
35B
330
1F
100
AcDbEntity
  8
D-0
  6
Continuous
 62
     7
370
     9
100
AcDbLine
 10
-512.6540034610963
 20
-621.9545380664292
 30
0.0
 11
-512.6540034610963
 21
-623.4548203540269
 31
0.0
  0
LINE
  5
35C
330
1F
100
AcDbEntity
  8
D-0
  6
Continuous
 62
     7
370
     9
100
AcDbLine
 10
-512.6540034610963
 20
-623.4548203540269
 30
0.0
 11
-514.154285748694
 21
-623.4548203540269
 31
0.0
  0
LINE
  5
35D
330
1F
100
AcDbEntity
  8
D-0
  6
Continuous
 62
     7
370
     9
100
AcDbLine
 10
-397.2325709063745
 20
-667.1888558459702
 30
0.0
 11
-397.2325709063745
 21
-665.6885735583726
 31
0.0
  0
LINE
  5
35E
330
1F
100
AcDbEntity
  8
D-0
  6
Continuous
 62
     7
370
     9
100
AcDbLine
 10
-397.2325709063745
 20
-665.6885735583726
 30
0.0
 11
-395.7322913009858
 21
-665.6885735583726
 31
0.0
  0
LINE
  5
35F
330
1F
100
AcDbEntity
  8
D-0
  6
Continuous
 62
     7
370
     9
100
AcDbLine
 10
-395.7322913009858
 20
-665.6885735583726
 30
0.0
 11
-395.7322913009858
 21
-667.1888558459702
 31
0.0
  0
LINE
  5
360
330
1F
100
AcDbEntity
  8
D-0
  6
Continuous
 62
     7
370
     9
100
AcDbLine
 10
-395.7322913009858
 20
-667.1888558459702
 30
0.0
 11
-397.2325709063745
 21
-667.1888558459702
 31
0.0
  0
LINE
  5
361
330
1F
100
AcDbEntity
  8
D-0
  6
Continuous
 62
     7
370
     9
100
AcDbLine
 10
-421.9629042942262
 20
-790.5348412585679
 30
0.0
 11
-421.9629042942262
 21
-789.0345589709702
 31
0.0
  0
LINE
  5
362
330
1F
100
AcDbEntity
  8
D-0
  6
Continuous
 62
     7
370
     9
100
AcDbLine
 10
-421.9629042942262
 20
-789.0345589709702
 30
0.0
 11
-420.4626243908143
 21
-789.0345589709702
 31
0.0
  0
LINE
  5
363
330
1F
100
AcDbEntity
  8
D-0
  6
Continuous
 62
     7
370
     9
100
AcDbLine
 10
-420.4626243908143
 20
-789.0345589709702
 30
0.0
 11
-420.4626243908143
 21
-790.5348412585679
 31
0.0
  0
LINE
  5
364
330
1F
100
AcDbEntity
  8
D-0
  6
Continuous
 62
     7
370
     9
100
AcDbLine
 10
-420.4626243908143
 20
-790.5348412585679
 30
0.0
 11
-421.9629042942262
 21
-790.5348412585679
 31
0.0
  0
LINE
  5
365
330
1F
100
AcDbEntity
  8
D-0
  6
Continuous
 62
     7
370
     9
100
AcDbLine
 10
-390.119125803206
 20
-478.0728928637924
 30
0.0
 11
-390.119125803206
 21
-476.5726105761948
 31
0.0
  0
LINE
  5
366
330
1F
100
AcDbEntity
  8
D-0
  6
Continuous
 62
     7
370
     9
100
AcDbLine
 10
-390.119125803206
 20
-476.5726105761948
 30
0.0
 11
-388.6188464958406
 21
-476.5726105761948
 31
0.0
  0
LINE
  5
367
330
1F
100
AcDbEntity
  8
D-0
  6
Continuous
 62
     7
370
     9
100
AcDbLine
 10
-388.6188464958406
 20
-476.5726105761948
 30
0.0
 11
-388.6188464958406
 21
-478.0728928637924
 31
0.0
  0
LINE
  5
368
330
1F
100
AcDbEntity
  8
D-0
  6
Continuous
 62
     7
370
     9
100
AcDbLine
 10
-388.6188464958406
 20
-478.0728928637924
 30
0.0
 11
-390.119125803206
 21
-478.0728928637924
 31
0.0
  0
LINE
  5
369
330
1F
100
AcDbEntity
  8
D-4
  6
Continuous
 62
     7
370
     9
100
AcDbLine
 10
-224.2817538578248
 20
-465.5836121631089
 30
0.0
 11
-224.2817538578248
 21
-528.0671708178941
 31
0.0
  0
LINE
  5
36A
330
1F
100
AcDbEntity
  8
D-5
  6
Continuous
 62
     7
370
     9
100
AcDbLine
 10
-234.2823069889283
 20
-403.7575738025131
 30
0.0
 11
-220.4706233341432
 21
-382.9181592059555
 31
0.0
  0
LINE
  5
36B
330
1F
100
AcDbEntity
  8
D-5
  6
Continuous
 62
     7
370
     9
100
AcDbLine
 10
-234.2823069889283
 20
-403.7575738025131
 30
0.0
 11
-215.5476420719361
 21
-387.2034709048691
 31
0.0
  0
LINE
  5
36C
330
1F
100
AcDbEntity
  8
D-5
  6
Continuous
 62
     7
370
     9
100
AcDbLine
 10
-234.2823069889283
 20
-403.7575738025131
 30
0.0
 11
-112.5357096988893
 21
-263.8768307757798
 31
0.0
  0
LINE
  5
36D
330
1F
100
AcDbEntity
  8
D-5
  6
Continuous
 62
     7
370
     9
100
AcDbLine
 10
-112.5357096988893
 20
-263.8768307757798
 30
0.0
 11
274.1677624385619
 21
-263.8768307757798
 31
0.0
  0
LINE
  5
36E
330
1F
100
AcDbEntity
  8
D-4
  6
Continuous
 62
     7
370
     9
100
AcDbLine
 10
-212.4549144108033
 20
-453.7577645373764
 30
0.0
 11
-122.7078669864869
 21
-453.7577645373764
 31
0.0
  0
LINE
  5
36F
330
1F
100
AcDbEntity
  8
D-4
  6
Continuous
 62
     7
370
     9
100
AcDbLine
 10
-212.4549144108033
 20
-403.7575261187973
 30
0.0
 11
-122.7078669864869
 21
-403.7575261187973
 31
0.0
  0
LINE
  5
370
330
1F
100
AcDbEntity
  8
D-4
  6
Continuous
 62
     7
370
     9
100
AcDbLine
 10
-125.7084124881959
 20
-403.7575261187973
 30
0.0
 11
-125.7084124881959
 21
-318.7573830676499
 31
0.0
  0
LINE
  5
371
330
1F
100
AcDbEntity
  8
D-4
  6
Continuous
 62
     7
370
     9
100
AcDbLine
 10
-125.7084124881959
 20
-453.7577645373764
 30
0.0
 11
-125.7084124881959
 21
-403.7575261187973
 31
0.0
  0
LINE
  5
372
330
1F
100
AcDbEntity
  8
D-4
  6
Continuous
 62
     7
370
     9
100
AcDbLine
 10
-369.282185395453
 20
-525.0666253161851
 30
0.0
 11
-524.2811721164918
 21
-525.0666253161851
 31
0.0
  0
LINE
  5
373
330
1F
100
AcDbEntity
  8
D-9
  6
Continuous
 62
     4
370
     9
100
AcDbLine
 10
-509.2818110782838
 20
-396.2580506396714
 30
0.0
 11
-394.2820542652345
 21
-396.2580506396714
 31
0.0
  0
LINE
  5
374
330
1F
100
AcDbEntity
  8
D-1
  6
Continuous
 62
     2
370
     9
100
AcDbLine
 10
-369.2822187740541
 20
-321.7573831868592
 30
0.0
 11
-369.2822187740541
 21
-346.2572662425461
 31
0.0
  0
LINE
  5
375
330
1F
100
AcDbEntity
  8
D-1
  6
Continuous
 62
     2
370
     9
100
AcDbLine
 10
-369.2822187740541
 20
-440.7570092273178
 30
0.0
 11
-369.2822187740541
 21
-416.2571255755844
 31
0.0
  0
LINE
  5
376
330
1F
100
AcDbEntity
  8
D-1
  6
Continuous
 62
     2
370
     9
100
AcDbLine
 10
-391.2819701034761
 20
-318.7577938564297
 30
0.0
 11
-372.2816842395997
 21
-318.7577938564297
 31
0.0
  0
LINE
  5
377
330
1F
100
AcDbEntity
  8
D-1
  6
Continuous
 62
     2
370
     9
100
AcDbLine
 10
-519.2818492252565
 20
-413.7573067737046
 30
0.0
 11
-519.2818492252565
 21
-406.2574021411362
 31
0.0
  0
LINE
  5
378
330
1F
100
AcDbEntity
  8
D-1
  6
Continuous
 62
     2
370
     9
100
AcDbLine
 10
-524.2822402317262
 20
-413.7573067737046
 30
0.0
 11
-524.2822402317262
 21
-406.2574021411362
 31
0.0
  0
LINE
  5
379
330
1F
100
AcDbEntity
  8
D-1
  6
Continuous
 62
     2
370
     9
100
AcDbLine
 10
-389.2822849352098
 20
-438.7573258471909
 30
0.0
 11
-374.2819875080323
 21
-438.7573258471909
 31
0.0
  0
LINE
  5
37A
330
1F
100
AcDbEntity
  8
D-1
  6
Continuous
 62
     2
370
     9
100
AcDbLine
 10
-389.2820375759339
 20
-443.7575833392563
 30
0.0
 11
-372.2816842395997
 21
-443.7575833392563
 31
0.0
  0
LINE
  5
37B
330
1F
100
AcDbEntity
  8
D-1
  6
Continuous
 62
     2
370
     9
100
AcDbLine
 10
-394.2820542652345
 20
-408.757039744896
 30
0.0
 11
-394.2820542652345
 21
-321.7573831868592
 31
0.0
  0
LINE
  5
37C
330
1F
100
AcDbEntity
  8
D-1
  6
Continuous
 62
     2
370
     9
100
AcDbLine
 10
-394.2820542652345
 20
-408.757039744896
 30
0.0
 11
-444.2817252475953
 21
-408.757039744896
 31
0.0
  0
LINE
  5
37D
330
1F
100
AcDbEntity
  8
D-1
  6
Continuous
 62
     2
370
     9
100
AcDbLine
 10
-519.2818492252565
 20
-418.75756426577
 30
0.0
 11
-394.2820542652345
 21
-418.75756426577
 31
0.0
  0
LINE
  5
37E
330
1F
100
AcDbEntity
  8
D-1
  6
Continuous
 62
     2
370
     9
100
AcDbLine
 10
-394.2820542652345
 20
-438.7575738025131
 30
0.0
 11
-394.2820542652345
 21
-418.75756426577
 31
0.0
  0
LINE
  5
37F
330
1F
100
AcDbEntity
  8
D-1
  6
Continuous
 62
     2
370
     9
100
AcDbLine
 10
-389.2822849352098
 20
-418.7573163104477
 30
0.0
 11
-389.2822849352098
 21
-438.7573258471909
 31
0.0
  0
LINE
  5
380
330
1F
100
AcDbEntity
  8
D-1
  6
Continuous
 62
     2
370
     9
100
AcDbLine
 10
-394.2823016245103
 20
-413.7573067737046
 30
0.0
 11
-519.2818492252565
 21
-413.7573067737046
 31
0.0
  0
LINE
  5
381
330
1F
100
AcDbEntity
  8
D-1
  6
Continuous
 62
     2
370
     9
100
AcDbLine
 10
-389.2822849352098
 20
-408.7572877002182
 30
0.0
 11
-389.2822849352098
 21
-323.7570680571022
 31
0.0
  0
LINE
  5
382
330
1F
100
AcDbEntity
  8
D-9
  6
Continuous
 62
     4
370
     9
100
AcDbLine
 10
-394.2820542652345
 20
-401.8484608722153
 30
0.0
 11
-401.1906359691358
 21
-408.757039744896
 31
0.0
  0
LINE
  5
383
330
1F
100
AcDbEntity
  8
D-9
  6
Continuous
 62
     4
370
     9
100
AcDbLine
 10
-395.761991699431
 20
-396.2580506396714
 30
0.0
 11
-408.2611667711473
 21
-408.757039744896
 31
0.0
  0
LINE
  5
384
330
1F
100
AcDbEntity
  8
D-9
  6
Continuous
 62
     4
370
     9
100
AcDbLine
 10
-402.8333270151353
 20
-396.2580506396714
 30
0.0
 11
-415.3325026828981
 21
-408.757039744896
 31
0.0
  0
LINE
  5
385
330
1F
100
AcDbEntity
  8
D-9
  6
Continuous
 62
     4
370
     9
100
AcDbLine
 10
-409.9041670162416
 20
-396.2580506396714
 30
0.0
 11
-422.4033420879579
 21
-408.757039744896
 31
0.0
  0
LINE
  5
386
330
1F
100
AcDbEntity
  8
D-9
  6
Continuous
 62
     4
370
     9
100
AcDbLine
 10
-416.9755023319459
 20
-396.2580506396714
 30
0.0
 11
-429.4746774036622
 21
-408.757039744896
 31
0.0
  0
LINE
  5
387
330
1F
100
AcDbEntity
  8
D-9
  6
Continuous
 62
     4
370
     9
100
AcDbLine
 10
-424.0463441211915
 20
-396.2580506396714
 30
0.0
 11
-436.5457027752137
 21
-408.757039744896
 31
0.0
  0
LINE
  5
388
330
1F
100
AcDbEntity
  8
D-9
  6
Continuous
 62
     4
370
     9
100
AcDbLine
 10
-431.1176794368959
 20
-396.2580506396714
 30
0.0
 11
-443.6170380909181
 21
-408.757039744896
 31
0.0
  0
LINE
  5
389
330
1F
100
AcDbEntity
  8
D-9
  6
Continuous
 62
     4
370
     9
100
AcDbLine
 10
-466.4733641941285
 20
-396.2580506396714
 30
0.0
 11
-471.4724534351564
 21
-401.2571351123276
 31
0.0
  0
LINE
  5
38A
330
1F
100
AcDbEntity
  8
D-9
  6
Continuous
 62
     4
370
     9
100
AcDbLine
 10
-473.5442059833741
 20
-396.2580506396714
 30
0.0
 11
-478.5433572132325
 21
-401.2571351123276
 31
0.0
  0
LINE
  5
38B
330
1F
100
AcDbEntity
  8
D-9
  6
Continuous
 62
     4
370
     9
100
AcDbLine
 10
-508.8998931247926
 20
-396.2580506396714
 30
0.0
 11
-513.8993495304322
 21
-401.2571351123276
 31
0.0
  0
LINE
  5
38C
330
1F
100
AcDbEntity
  8
D-9
  6
Continuous
 62
     4
370
     9
100
AcDbLine
 10
-459.40203126261
 20
-396.2580506396714
 30
0.0
 11
-464.4012969333863
 21
-401.2571351123276
 31
0.0
  0
LINE
  5
38D
330
1F
100
AcDbEntity
  8
D-9
  6
Continuous
 62
     4
370
     9
100
AcDbLine
 10
-445.2598517734742
 20
-396.2580506396714
 30
0.0
 11
-450.2590459186769
 21
-401.2571351123276
 31
0.0
  0
LINE
  5
38E
330
1F
100
AcDbEntity
  8
D-9
  6
Continuous
 62
     4
370
     9
100
AcDbLine
 10
-452.3311894733644
 20
-396.2580506396714
 30
0.0
 11
-457.3303645450807
 21
-401.2571351123276
 31
0.0
  0
LINE
  5
38F
330
1F
100
AcDbEntity
  8
D-9
  6
Continuous
 62
     4
370
     9
100
AcDbLine
 10
-480.6155436832643
 20
-396.2580506396714
 30
0.0
 11
-485.6146281559205
 21
-401.2571351123276
 31
0.0
  0
LINE
  5
390
330
1F
100
AcDbEntity
  8
D-9
  6
Continuous
 62
     4
370
     9
100
AcDbLine
 10
-487.6863807041383
 20
-396.2580506396714
 30
0.0
 11
-492.6855605442262
 21
-401.2571351123276
 31
0.0
  0
LINE
  5
391
330
1F
100
AcDbEntity
  8
D-9
  6
Continuous
 62
     4
370
     9
100
AcDbLine
 10
-494.7572177250123
 20
-396.2580506396714
 30
0.0
 11
-499.7564261753297
 21
-401.2571351123276
 31
0.0
  0
LINE
  5
392
330
1F
100
AcDbEntity
  8
D-9
  6
Continuous
 62
     4
370
     9
100
AcDbLine
 10
-501.828560193274
 20
-396.2580506396714
 30
0.0
 11
-506.8278258640504
 21
-401.2571351123276
 31
0.0
  0
LINE
  5
393
330
1F
100
AcDbEntity
  8
D-1
  6
Continuous
 62
     2
370
     9
100
AcDbLine
 10
-449.2820542652345
 20
-406.2574021411362
 30
0.0
 11
-519.2818492252565
 21
-406.2574021411362
 31
0.0
  0
LINE
  5
394
330
1F
100
AcDbEntity
  8
D-1
  6
Continuous
 62
     2
370
     9
100
AcDbLine
 10
-449.2820542652345
 20
-408.7573067737046
 30
0.0
 11
-449.2820542652345
 21
-406.2574021411362
 31
0.0
  0
LINE
  5
395
330
1F
100
AcDbEntity
  8
D-1
  6
Continuous
 62
     2
370
     9
100
AcDbLine
 10
-449.2820542652345
 20
-401.2571351123276
 30
0.0
 11
-519.2818492252565
 21
-401.2571351123276
 31
0.0
  0
LINE
  5
396
330
1F
100
AcDbEntity
  8
D-1
  6
Continuous
 62
     2
370
     9
100
AcDbLine
 10
-444.2820542652345
 20
-406.2571351123276
 30
0.0
 11
-444.2820542652345
 21
-408.757039744896
 31
0.0
  0
LINE
  5
397
330
1F
100
AcDbEntity
  8
D-9
  6
Continuous
 62
     4
370
     9
100
AcDbLine
 10
-438.1890147526002
 20
-396.2580506396714
 30
0.0
 11
-445.2421134311891
 21
-403.3111493182602
 31
0.0
  0
LINE
  5
398
330
1F
100
AcDbEntity
  8
D-3
  6
Continuous
 62
     3
370
     9
100
AcDbLine
 10
-385.7820015747285
 20
-323.7570680571022
 30
0.0
 11
-385.7820015747285
 21
-436.2570683551255
 31
0.0
  0
LINE
  5
399
330
1F
100
AcDbEntity
  8
D-3
  6
Continuous
 62
     3
370
     9
100
AcDbLine
 10
-224.282116254065
 20
-413.7569920611801
 30
0.0
 11
-224.282116254065
 21
-453.7570015979233
 31
0.0
  0
LINE
  5
39A
330
1F
100
AcDbEntity
  8
D-3
  6
Continuous
 62
     3
370
     9
100
AcDbLine
 10
-349.2820304233766
 20
-435.5767361712876
 30
0.0
 11
-349.2820304233766
 21
-453.7570015979233
 31
0.0
  0
LINE
  5
39B
330
1F
100
AcDbEntity
  8
D-3
  6
Continuous
 62
     3
370
     9
100
AcDbLine
 10
-352.2109740574098
 20
-428.5056416583481
 30
0.0
 11
-374.2819875080323
 21
-406.4346329760971
 31
0.0
  0
LINE
  5
39C
330
1F
100
AcDbEntity
  8
D-3
  6
JWW_CENTER1
 62
     3
370
     9
100
AcDbLine
 10
-324.3435614902711
 20
-375.256964404625
 30
0.0
 11
-393.0145436126924
 21
-375.256964404625
 31
0.0
  0
LINE
  5
39D
330
1F
100
AcDbEntity
  8
D-3
  6
Continuous
 62
     3
370
     9
100
AcDbLine
 10
-331.6044324238038
 20
-396.4345995974961
 30
0.0
 11
-334.7818082172608
 21
-393.257223804039
 31
0.0
  0
LINE
  5
39E
330
1F
100
AcDbEntity
  8
D-3
  6
Continuous
 62
     3
370
     9
100
AcDbLine
 10
-362.7824705440736
 20
-365.2564398837509
 30
0.0
 11
-374.2819875080323
 21
-353.7569205356064
 31
0.0
  0
LINE
  5
39F
330
1F
100
AcDbEntity
  8
D-A
  6
Continuous
 62
     7
370
     9
100
AcDbLine
 10
-388.0327146846986
 20
-385.2565018725815
 30
0.0
 11
-388.0327146846986
 21
-365.2564398837509
 31
0.0
  0
LINE
  5
3A0
330
1F
100
AcDbEntity
  8
D-A
  6
Continuous
 62
     7
370
     9
100
AcDbLine
 10
-388.0327146846986
 20
-365.2564398837509
 30
0.0
 11
-389.2822849352098
 21
-366.5065018725815
 31
0.0
  0
LINE
  5
3A1
330
1F
100
AcDbEntity
  8
D-A
  6
Continuous
 62
     7
370
     9
100
AcDbLine
 10
-388.0327146846986
 20
-385.2565018725815
 30
0.0
 11
-389.2822849352098
 21
-384.0069310260239
 31
0.0
  0
LINE
  5
3A2
330
1F
100
AcDbEntity
  8
D-A
  6
Continuous
 62
     7
370
     9
100
AcDbLine
 10
-326.2822526294923
 20
-386.7572276187363
 30
0.0
 11
-326.2822526294923
 21
-363.7567059588852
 31
0.0
  0
LINE
  5
3A3
330
1F
100
AcDbEntity
  8
D-A
  6
Continuous
 62
     7
370
     9
100
AcDbLine
 10
-332.782248814795
 20
-393.257223804039
 30
0.0
 11
-339.2822450000978
 21
-393.257223804039
 31
0.0
  0
LINE
  5
3A4
330
1F
100
AcDbEntity
  8
D-A
  6
Continuous
 62
     7
370
     9
100
AcDbLine
 10
-332.782248814795
 20
-357.2567073893967
 30
0.0
 11
-339.2822450000978
 21
-357.2567073893967
 31
0.0
  0
LINE
  5
3A5
330
1F
100
AcDbEntity
  8
D-A
  6
Continuous
 62
     7
370
     9
100
AcDbLine
 10
-339.2822450000978
 20
-357.2567073893967
 30
0.0
 11
-339.2822450000978
 21
-393.257223804039
 31
0.0
  0
LINE
  5
3A6
330
1F
100
AcDbEntity
  8
D-A
  6
Continuous
 62
     7
370
     9
100
AcDbLine
 10
-339.2822450000978
 20
-365.2564398837509
 30
0.0
 11
-374.2819875080323
 21
-365.2564398837509
 31
0.0
  0
LINE
  5
3A7
330
1F
100
AcDbEntity
  8
D-A
  6
Continuous
 62
     7
370
     9
100
AcDbLine
 10
-339.2822450000978
 20
-366.5065018725815
 30
0.0
 11
-374.2819875080323
 21
-366.5065018725815
 31
0.0
  0
LINE
  5
3A8
330
1F
100
AcDbEntity
  8
D-A
  6
Continuous
 62
     7
370
     9
100
AcDbLine
 10
-339.2822450000978
 20
-384.0069310260239
 30
0.0
 11
-374.2819875080323
 21
-384.0069310260239
 31
0.0
  0
LINE
  5
3A9
330
1F
100
AcDbEntity
  8
D-A
  6
Continuous
 62
     7
370
     9
100
AcDbLine
 10
-339.2822450000978
 20
-385.2565018725815
 30
0.0
 11
-374.2819875080323
 21
-385.2565018725815
 31
0.0
  0
LINE
  5
3AA
330
1F
100
AcDbEntity
  8
D-A
  6
Continuous
 62
     7
370
     9
100
AcDbLine
 10
-385.7820015747285
 20
-384.0069310260239
 30
0.0
 11
-389.2822849352098
 21
-384.0069310260239
 31
0.0
  0
LINE
  5
3AB
330
1F
100
AcDbEntity
  8
D-A
  6
Continuous
 62
     7
370
     9
100
AcDbLine
 10
-385.7820015747285
 20
-385.2565018725815
 30
0.0
 11
-388.0327146846986
 21
-385.2565018725815
 31
0.0
  0
LINE
  5
3AC
330
1F
100
AcDbEntity
  8
D-A
  6
Continuous
 62
     7
370
     9
100
AcDbLine
 10
-385.7820015747285
 20
-366.5065018725815
 30
0.0
 11
-389.2822849352098
 21
-366.5065018725815
 31
0.0
  0
LINE
  5
3AD
330
1F
100
AcDbEntity
  8
D-A
  6
Continuous
 62
     7
370
     9
100
AcDbLine
 10
-385.7820015747285
 20
-365.2564398837509
 30
0.0
 11
-388.0327146846986
 21
-365.2564398837509
 31
0.0
  0
LINE
  5
3AE
330
1F
100
AcDbEntity
  8
D-3
  6
JWW_DASHED2
 62
     3
370
     9
100
AcDbLine
 10
-349.2820304233766
 20
-442.2569863391342
 30
0.0
 11
-224.282116254065
 21
-442.2569863391342
 31
0.0
  0
LINE
  5
3AF
330
1F
100
AcDbEntity
  8
D-3
  6
Continuous
 62
     3
370
     9
100
AcDbLine
 10
-234.2820208866334
 20
-403.7570874286118
 30
0.0
 11
-313.9267104465699
 21
-403.7570874286118
 31
0.0
  0
LINE
  5
3B0
330
1F
100
AcDbEntity
  8
D-3
  6
Continuous
 62
     3
370
     9
100
AcDbLine
 10
-349.2820304233766
 20
-453.7570015979233
 30
0.0
 11
-224.282116254065
 21
-453.7570015979233
 31
0.0
  0
LINE
  5
3B1
330
1F
100
AcDbEntity
  8
D-1
  6
Continuous
 62
     2
370
     9
100
AcDbLine
 10
-389.2822849352098
 20
-323.7570680571022
 30
0.0
 11
-374.2819875080323
 21
-323.7570680571022
 31
0.0
  0
LINE
  5
3B2
330
1F
100
AcDbEntity
  8
D-1
  6
Continuous
 62
     2
370
     9
100
AcDbLine
 10
-369.2822187740541
 20
-346.2572662425461
 30
0.0
 11
-374.2819875080323
 21
-346.2572662425461
 31
0.0
  0
LINE
  5
3B3
330
1F
100
AcDbEntity
  8
D-1
  6
Continuous
 62
     2
370
     9
100
AcDbLine
 10
-374.2819875080323
 20
-346.2572662425461
 30
0.0
 11
-374.2819875080323
 21
-323.7570680571022
 31
0.0
  0
LINE
  5
3B4
330
1F
100
AcDbEntity
  8
D-3
  6
Continuous
 62
     3
370
     9
100
AcDbLine
 10
-385.7820015747285
 20
-323.7570680571022
 30
0.0
 11
-374.2819875080323
 21
-323.7570680571022
 31
0.0
  0
LINE
  5
3B5
330
1F
100
AcDbEntity
  8
D-1
  6
Continuous
 62
     2
370
     9
100
AcDbLine
 10
-369.2822187740541
 20
-416.2571255755844
 30
0.0
 11
-374.2819875080323
 21
-416.2571255755844
 31
0.0
  0
LINE
  5
3B6
330
1F
100
AcDbEntity
  8
D-1
  6
Continuous
 62
     2
370
     9
100
AcDbLine
 10
-374.2819875080323
 20
-438.7573258471909
 30
0.0
 11
-374.2819875080323
 21
-416.2571255755844
 31
0.0
  0
LINE
  5
3B7
330
1F
100
AcDbEntity
  8
D-3
  6
Continuous
 62
     3
370
     9
100
AcDbLine
 10
-385.7820015747285
 20
-436.2570683551255
 30
0.0
 11
-374.2819875080323
 21
-436.2570683551255
 31
0.0
  0
LINE
  5
3B8
330
1F
100
AcDbEntity
  8
D-3
  6
Continuous
 62
     3
370
     9
100
AcDbLine
 10
-374.2819875080323
 20
-323.7570680571022
 30
0.0
 11
-374.2819875080323
 21
-436.2570683551255
 31
0.0
  0
LINE
  5
3B9
330
1F
100
AcDbEntity
  8
D-6
  6
Continuous
 62
     6
370
     9
100
AcDbLine
 10
-372.2816842395997
 20
-318.7573830676499
 30
0.0
 11
40.71969572713613
 21
-318.7573830676499
 31
0.0
  0
LINE
  5
3BA
330
1F
100
AcDbEntity
  8
D-6
  6
Continuous
 62
     6
370
     9
100
AcDbLine
 10
-524.2811721164918
 20
-413.7573067737046
 30
0.0
 11
-524.2811721164918
 21
-818.7567345691148
 31
0.0
  0
LINE
  5
3BB
330
1F
100
AcDbEntity
  8
D-4
  6
Continuous
 62
     7
370
     9
100
AcDbLine
 10
-441.1360495884156
 20
-443.7572209430161
 30
0.0
 11
-672.7642482120729
 21
-443.7572209430161
 31
0.0
  0
LINE
  5
3BC
330
1F
100
AcDbEntity
  8
D-5
  6
Continuous
 62
     7
370
     9
100
AcDbLine
 10
-399.7649117533302
 20
-457.5342194629135
 30
0.0
 11
-464.8134034473634
 21
-400.9172169757309
 31
0.0
  0
LINE
  5
3BD
330
1F
100
AcDbEntity
  8
D-5
  6
Continuous
 62
     7
370
     9
100
AcDbLine
 10
-464.8134034473634
 20
-400.9172169757309
 30
0.0
 11
-448.2597916919923
 21
-419.6513859820786
 31
0.0
  0
LINE
  5
3BE
330
1F
100
AcDbEntity
  8
D-5
  6
Continuous
 62
     7
370
     9
100
AcDbLine
 10
-464.8134034473634
 20
-400.9172169757309
 30
0.0
 11
-443.9749806720948
 21
-414.7289101672592
 31
0.0
  0
ARC
  5
3BF
330
1F
100
AcDbEntity
  8
D-9
  6
Continuous
 62
     4
370
     9
100
AcDbCircle
 10
-509.2818110782838
 20
-401.2573258471909
 30
0.0
 40
5.0
100
AcDbArc
 50
90.0
 51
180.0
  0
ARC
  5
3C0
330
1F
100
AcDbEntity
  8
D-1
  6
Continuous
 62
     2
370
     9
100
AcDbCircle
 10
-519.2818492252565
 20
-406.2574021411362
 30
0.0
 40
5.0
100
AcDbArc
 50
90.0
 51
180.0
  0
ARC
  5
3C1
330
1F
100
AcDbEntity
  8
D-1
  6
Continuous
 62
     2
370
     9
100
AcDbCircle
 10
-372.2816842395997
 20
-321.7573831868592
 30
0.0
 40
3.00000011920929
100
AcDbArc
 50
0.0
 51
90.0
  0
ARC
  5
3C2
330
1F
100
AcDbEntity
  8
D-1
  6
Continuous
 62
     2
370
     9
100
AcDbCircle
 10
-391.2819701034761
 20
-321.7573831868592
 30
0.0
 40
3.00000011920929
100
AcDbArc
 50
90.0
 51
180.0
  0
ARC
  5
3C3
330
1F
100
AcDbEntity
  8
D-1
  6
Continuous
 62
     2
370
     9
100
AcDbCircle
 10
-372.2816842395997
 20
-440.7570092273178
 30
0.0
 40
3.00000011920929
100
AcDbArc
 50
270.0
 51
0.0
  0
ARC
  5
3C4
330
1F
100
AcDbEntity
  8
D-1
  6
Continuous
 62
     2
370
     9
100
AcDbCircle
 10
-519.2818492252565
 20
-413.7573067737046
 30
0.0
 40
5.0
100
AcDbArc
 50
180.0
 51
270.0
  0
ARC
  5
3C5
330
1F
100
AcDbEntity
  8
D-1
  6
Continuous
 62
     2
370
     9
100
AcDbCircle
 10
-389.2820375759339
 20
-438.7575738025131
 30
0.0
 40
5.0
100
AcDbArc
 50
180.0
 51
270.0
  0
ARC
  5
3C6
330
1F
100
AcDbEntity
  8
D-1
  6
Continuous
 62
     2
370
     9
100
AcDbCircle
 10
-394.2823016245103
 20
-418.7573163104477
 30
0.0
 40
5.0
100
AcDbArc
 50
0.0
 51
90.0
  0
ARC
  5
3C7
330
1F
100
AcDbEntity
  8
D-1
  6
Continuous
 62
     2
370
     9
100
AcDbCircle
 10
-394.2823016245103
 20
-408.7572877002182
 30
0.0
 40
5.0
100
AcDbArc
 50
270.0
 51
0.0
  0
ARC
  5
3C8
330
1F
100
AcDbEntity
  8
D-1
  6
Continuous
 62
     2
370
     9
100
AcDbCircle
 10
-444.2820542652345
 20
-408.7573067737046
 30
0.0
 40
5.0
100
AcDbArc
 50
180.0
 51
270.0
  0
ARC
  5
3C9
330
1F
100
AcDbEntity
  8
D-1
  6
Continuous
 62
     2
370
     9
100
AcDbCircle
 10
-449.2820542652345
 20
-406.2571351123276
 30
0.0
 40
5.0
100
AcDbArc
 50
0.0
 51
90.0
  0
ARC
  5
3CA
330
1F
100
AcDbEntity
  8
D-3
  6
Continuous
 62
     3
370
     9
100
AcDbCircle
 10
-313.9267104465699
 20
-378.7570015979233
 30
0.0
 40
25.0
100
AcDbArc
 50
225.0
 51
270.0
  0
ARC
  5
3CB
330
1F
100
AcDbEntity
  8
D-3
  6
Continuous
 62
     3
370
     9
100
AcDbCircle
 10
-234.2820208866334
 20
-413.7569920611801
 30
0.0
 40
10.0
100
AcDbArc
 50
0.0
 51
90.0
  0
ARC
  5
3CC
330
1F
100
AcDbEntity
  8
D-3
  6
Continuous
 62
     3
370
     9
100
AcDbCircle
 10
-359.2820614177919
 20
-435.5767361712876
 30
0.0
 40
10.0
100
AcDbArc
 50
0.0
 51
45.000244140625
  0
ARC
  5
3CD
330
1F
100
AcDbEntity
  8
D-A
  6
Continuous
 62
     7
370
     9
100
AcDbCircle
 10
-332.782248814795
 20
-363.7567059588852
 30
0.0
 40
6.499999761581421
100
AcDbArc
 50
0.0
 51
90.0
  0
ARC
  5
3CE
330
1F
100
AcDbEntity
  8
D-A
  6
Continuous
 62
     7
370
     9
100
AcDbCircle
 10
-332.782248814795
 20
-386.7572276187363
 30
0.0
 40
6.499999761581421
100
AcDbArc
 50
270.0
 51
0.0
  0
LWPOLYLINE
  5
3CF
330
1F
100
AcDbEntity
  8
D-4
  6
Continuous
 62
     7
370
     9
100
AcDbPolyline
 90
        4
 70
     1
 43
1.0
 10
-368.782185395453
 20
21.60985783811185
 42
0.4142135623731
 10
-369.282185395453
 20
22.10985783811185
 42
0.4142135623731
 10
-369.782185395453
 20
21.60985783811185
 42
0.4142135623731
 10
-369.282185395453
 20
21.10985783811185
 42
0.4142135623731
  0
LWPOLYLINE
  5
3D0
330
1F
100
AcDbEntity
  8
D-4
  6
Continuous
 62
     7
370
     9
100
AcDbPolyline
 90
        4
 70
     1
 43
1.0
 10
-523.7811721164918
 20
-197.8382317614975
 42
0.4142135623731
 10
-524.2811721164918
 20
-197.3382317614975
 42
0.4142135623731
 10
-524.7811721164918
 20
-197.8382317614975
 42
0.4142135623731
 10
-524.2811721164918
 20
-198.3382317614975
 42
0.4142135623731
  0
LWPOLYLINE
  5
3D1
330
1F
100
AcDbEntity
  8
D-4
  6
Continuous
 62
     7
370
     9
100
AcDbPolyline
 90
        4
 70
     1
 43
1.0
 10
-398.7813342411256
 20
-197.8382317614975
 42
0.4142135623731
 10
-399.2813342411256
 20
-197.3382317614975
 42
0.4142135623731
 10
-399.7813342411256
 20
-197.8382317614975
 42
0.4142135623731
 10
-399.2813342411256
 20
-198.3382317614975
 42
0.4142135623731
  0
LWPOLYLINE
  5
3D2
330
1F
100
AcDbEntity
  8
D-4
  6
Continuous
 62
     7
370
     9
100
AcDbPolyline
 90
        4
 70
     1
 43
1.0
 10
-398.7813342411256
 20
-89.08580942873385
 42
0.4142135623731
 10
-399.2813342411256
 20
-88.58580942873385
 42
0.4142135623731
 10
-399.7813342411256
 20
-89.08580942873385
 42
0.4142135623731
 10
-399.2813342411256
 20
-89.58580942873385
 42
0.4142135623731
  0
LWPOLYLINE
  5
3D3
330
1F
100
AcDbEntity
  8
D-4
  6
Continuous
 62
     7
370
     9
100
AcDbPolyline
 90
        4
 70
     1
 43
1.0
 10
-393.7810636360383
 20
-89.08580942873385
 42
0.4142135623731
 10
-394.2810636360383
 20
-88.58580942873385
 42
0.4142135623731
 10
-394.7810636360383
 20
-89.08580942873385
 42
0.4142135623731
 10
-394.2810636360383
 20
-89.58580942873385
 42
0.4142135623731
  0
LWPOLYLINE
  5
3D4
330
1F
100
AcDbEntity
  8
D-4
  6
Continuous
 62
     7
370
     9
100
AcDbPolyline
 90
        4
 70
     1
 43
1.0
 10
-368.782185395453
 20
-89.08580942873385
 42
0.4142135623731
 10
-369.282185395453
 20
-88.58580942873385
 42
0.4142135623731
 10
-369.782185395453
 20
-89.08580942873385
 42
0.4142135623731
 10
-369.282185395453
 20
-89.58580942873385
 42
0.4142135623731
  0
LWPOLYLINE
  5
3D5
330
1F
100
AcDbEntity
  8
D-4
  6
Continuous
 62
     7
370
     9
100
AcDbPolyline
 90
        4
 70
     1
 43
1.0
 10
-669.2636836368775
 20
-443.7572209430161
 42
0.4142135623731
 10
-669.7636836368775
 20
-443.2572209430161
 42
0.4142135623731
 10
-670.2636836368775
 20
-443.7572209430161
 42
0.4142135623731
 10
-669.7636836368775
 20
-444.257220943016
 42
0.4142135623731
  0
LWPOLYLINE
  5
3D6
330
1F
100
AcDbEntity
  8
D-4
  6
Continuous
 62
     7
370
     9
100
AcDbPolyline
 90
        4
 70
     1
 43
1.0
 10
-669.2636836368775
 20
-318.7573830676499
 42
0.4142135623731
 10
-669.7636836368775
 20
-318.2573830676499
 42
0.4142135623731
 10
-670.2636836368775
 20
-318.7573830676499
 42
0.4142135623731
 10
-669.7636836368775
 20
-319.2573830676499
 42
0.4142135623731
  0
LWPOLYLINE
  5
3D7
330
1F
100
AcDbEntity
  8
D-4
  6
Continuous
 62
     7
370
     9
100
AcDbPolyline
 90
        4
 70
     1
 43
1.0
 10
-368.782185395453
 20
-525.0666253161851
 42
0.4142135623731
 10
-369.282185395453
 20
-524.5666253161851
 42
0.4142135623731
 10
-369.782185395453
 20
-525.0666253161851
 42
0.4142135623731
 10
-369.282185395453
 20
-525.566625316185
 42
0.4142135623731
  0
LWPOLYLINE
  5
3D8
330
1F
100
AcDbEntity
  8
D-4
  6
Continuous
 62
     7
370
     9
100
AcDbPolyline
 90
        4
 70
     1
 43
1.0
 10
-223.7817538578248
 20
-525.0666253161851
 42
0.4142135623731
 10
-224.2817538578248
 20
-524.5666253161851
 42
0.4142135623731
 10
-224.7817538578248
 20
-525.0666253161851
 42
0.4142135623731
 10
-224.2817538578248
 20
-525.566625316185
 42
0.4142135623731
  0
LWPOLYLINE
  5
3D9
330
1F
100
AcDbEntity
  8
D-4
  6
Continuous
 62
     7
370
     9
100
AcDbPolyline
 90
        4
 70
     1
 43
1.0
 10
-523.7811721164918
 20
-724.3758599353257
 42
0.4142135623731
 10
-524.2811721164918
 20
-723.8758599353257
 42
0.4142135623731
 10
-524.7811721164918
 20
-724.3758599353257
 42
0.4142135623731
 10
-524.2811721164918
 20
-724.8758599353256
 42
0.4142135623731
  0
LWPOLYLINE
  5
3DA
330
1F
100
AcDbEntity
  8
D-4
  6
Continuous
 62
     7
370
     9
100
AcDbPolyline
 90
        4
 70
     1
 43
1.0
 10
-373.7819612819886
 20
-724.3758599353257
 42
0.4142135623731
 10
-374.2819612819886
 20
-723.8758599353257
 42
0.4142135623731
 10
-374.7819612819886
 20
-724.3758599353257
 42
0.4142135623731
 10
-374.2819612819886
 20
-724.8758599353256
 42
0.4142135623731
  0
LWPOLYLINE
  5
3DB
330
1F
100
AcDbEntity
  8
D-4
  6
Continuous
 62
     7
370
     9
100
AcDbPolyline
 90
        4
 70
     1
 43
1.0
 10
-523.7811721164918
 20
-878.8402382922593
 42
0.4142135623731
 10
-524.2811721164918
 20
-878.3402382922593
 42
0.4142135623731
 10
-524.7811721164918
 20
-878.8402382922593
 42
0.4142135623731
 10
-524.2811721164918
 20
-879.3402382922592
 42
0.4142135623731
  0
LWPOLYLINE
  5
3DC
330
1F
100
AcDbEntity
  8
D-4
  6
Continuous
 62
     7
370
     9
100
AcDbPolyline
 90
        4
 70
     1
 43
1.0
 10
-123.7803042728639
 20
-878.8402382922593
 42
0.4142135623731
 10
-124.2803042728639
 20
-878.3402382922593
 42
0.4142135623731
 10
-124.7803042728639
 20
-878.8402382922593
 42
0.4142135623731
 10
-124.2803042728639
 20
-879.3402382922592
 42
0.4142135623731
  0
LWPOLYLINE
  5
3DD
330
1F
100
AcDbEntity
  8
D-4
  6
Continuous
 62
     7
370
     9
100
AcDbPolyline
 90
        4
 70
     1
 43
1.0
 10
147.9040371578002
 20
-318.7573830676499
 42
0.4142135623731
 10
147.4040371578002
 20
-318.2573830676499
 42
0.4142135623731
 10
146.9040371578002
 20
-318.7573830676499
 42
0.4142135623731
 10
147.4040371578002
 20
-319.2573830676499
 42
0.4142135623731
  0
LWPOLYLINE
  5
3DE
330
1F
100
AcDbEntity
  8
D-4
  6
Continuous
 62
     7
370
     9
100
AcDbPolyline
 90
        4
 70
     1
 43
1.0
 10
147.9040371578002
 20
-568.7570588183823
 42
0.4142135623731
 10
147.4040371578002
 20
-568.2570588183823
 42
0.4142135623731
 10
146.9040371578002
 20
-568.7570588183823
 42
0.4142135623731
 10
147.4040371578002
 20
-569.2570588183822
 42
0.4142135623731
  0
LWPOLYLINE
  5
3DF
330
1F
100
AcDbEntity
  8
D-4
  6
Continuous
 62
     7
370
     9
100
AcDbPolyline
 90
        4
 70
     1
 43
1.0
 10
-125.2084124881959
 20
-318.7573830676499
 42
0.4142135623731
 10
-125.7084124881959
 20
-318.2573830676499
 42
0.4142135623731
 10
-126.2084124881959
 20
-318.7573830676499
 42
0.4142135623731
 10
-125.7084124881959
 20
-319.2573830676499
 42
0.4142135623731
  0
LWPOLYLINE
  5
3E0
330
1F
100
AcDbEntity
  8
D-4
  6
Continuous
 62
     7
370
     9
100
AcDbPolyline
 90
        4
 70
     1
 43
1.0
 10
-125.2084124881959
 20
-403.7575261187973
 42
0.4142135623731
 10
-125.7084124881959
 20
-403.2575261187974
 42
0.4142135623731
 10
-126.2084124881959
 20
-403.7575261187973
 42
0.4142135623731
 10
-125.7084124881959
 20
-404.2575261187973
 42
0.4142135623731
  0
LWPOLYLINE
  5
3E1
330
1F
100
AcDbEntity
  8
D-4
  6
Continuous
 62
     7
370
     9
100
AcDbPolyline
 90
        4
 70
     1
 43
1.0
 10
-125.2084124881959
 20
-453.7577645373764
 42
0.4142135623731
 10
-125.7084124881959
 20
-453.2577645373765
 42
0.4142135623731
 10
-126.2084124881959
 20
-453.7577645373764
 42
0.4142135623731
 10
-125.7084124881959
 20
-454.2577645373764
 42
0.4142135623731
  0
LWPOLYLINE
  5
3E2
330
1F
100
AcDbEntity
  8
D-4
  6
Continuous
 62
     7
370
     9
100
AcDbPolyline
 90
        4
 70
     1
 43
1.0
 10
-368.782185395453
 20
-525.0666253161851
 42
0.4142135623731
 10
-369.282185395453
 20
-524.5666253161851
 42
0.4142135623731
 10
-369.782185395453
 20
-525.0666253161851
 42
0.4142135623731
 10
-369.282185395453
 20
-525.566625316185
 42
0.4142135623731
  0
LWPOLYLINE
  5
3E3
330
1F
100
AcDbEntity
  8
D-4
  6
Continuous
 62
     7
370
     9
100
AcDbPolyline
 90
        4
 70
     1
 43
1.0
 10
-523.7811721164918
 20
-525.0666253161851
 42
0.4142135623731
 10
-524.2811721164918
 20
-524.5666253161851
 42
0.4142135623731
 10
-524.7811721164918
 20
-525.0666253161851
 42
0.4142135623731
 10
-524.2811721164918
 20
-525.566625316185
 42
0.4142135623731
  0
TEXT
  5
3E4
330
1F
100
AcDbEntity
  8
D-4
  6
Continuous
 62
     2
370
     9
100
AcDbText
 10
-432.2260444957948
 20
-78.44653422121432
 30
0.0
 40
30.48
  1
1
 41
0.9999999999999998
  7
ＭＳ ゴシック
100
AcDbText
  0
TEXT
  5
3E5
330
1F
100
AcDbEntity
  8
D-4
  6
Continuous
 62
     2
370
     9
100
AcDbText
 10
-483.0304187137818
 20
-187.1979551959458
 30
0.0
 40
30.48
  1
25
 41
1.0625
  7
ＭＳ ゴシック
100
AcDbText
  0
TEXT
  5
3E6
330
1F
100
AcDbEntity
  8
D-4
  6
Continuous
 62
     2
370
     9
100
AcDbText
 10
-515.5311911899781
 20
-713.7365847278062
 30
0.0
 40
30.48
  1
25～30
 41
1.104166666666667
  7
ＭＳ ゴシック
100
AcDbText
  0
TEXT
  5
3E7
330
1F
100
AcDbEntity
  8
D-4
  6
Continuous
 62
     2
370
     9
100
AcDbText
 10
-392.149535726435
 20
-868.1999712634902
 30
0.0
 40
30.48
  1
75～80
 50
359.9997855578312
 41
1.104166666666665
  7
ＭＳ ゴシック
100
AcDbText
  0
TEXT
  5
3E8
330
1F
100
AcDbEntity
  8
D-4
  6
Continuous
 62
     2
370
     9
100
AcDbText
 10
136.7647619502807
 20
-510.0073451672094
 30
0.0
 40
30.48
  1
40～50
 50
90.00000250447829
 41
1.104166666666666
  7
ＭＳ ゴシック
100
AcDbText
  0
TEXT
  5
3E9
330
1F
100
AcDbEntity
  8
D-4
  6
Continuous
 62
     2
370
     9
100
AcDbText
 10
-333.6981805231882
 20
-514.4273310355632
 30
0.0
 40
30.48
  1
29
 50
0.0006685549992706
 41
1.062499999999998
  7
ＭＳ ゴシック
100
AcDbText
  0
TEXT
  5
3EA
330
1F
100
AcDbEntity
  8
D-4
  6
Continuous
 62
     2
370
     9
100
AcDbText
 10
-360.3687041599488
 20
-78.44653422121432
 30
0.0
 40
30.48
  1
5
 41
0.9999999999999998
  7
ＭＳ ゴシック
100
AcDbText
  0
TEXT
  5
3EB
330
1F
100
AcDbEntity
  8
D-5
  6
Continuous
 62
     2
370
     9
100
AcDbText
 10
-823.7752028423995
 20
-996.5598421740958
 30
0.0
 40
30.48
  1
断面詳細図　Ｓ＝１：２
 50
0.0000267631904831
 41
1.113636363636364
  7
ＭＳ ゴシック
100
AcDbText
  0
TEXT
  5
3EC
330
1F
100
AcDbEntity
  8
D-5
  6
Continuous
 62
     2
370
     9
100
AcDbText
 10
537.1922881707864
 20
-890.8005266833746
 30
0.0
 40
30.48
  1
定尺：３０００
 50
359.9999506463765
 41
1.10714285714286
  7
ＭＳ ゴシック
100
AcDbText
  0
TEXT
  5
3ED
330
1F
100
AcDbEntity
  8
D-5
  6
Continuous
 62
     2
370
     9
100
AcDbText
 10
477.4803692500851
 20
-760.8001833606187
 30
0.0
 40
30.48
  1
ステンレス製受枠　ＳＦ１５Ｂ
 41
1.116071428571428
  7
ＭＳ ゴシック
100
AcDbText
  0
TEXT
  5
3EE
330
1F
100
AcDbEntity
  8
D-5
  6
Continuous
 62
     7
370
     9
100
AcDbText
 10
-175.3046649296022
 20
-202.9567291522446
 30
0.0
 40
22.86
  1
塩ビクッション
 41
1.142857142857143
  7
ＭＳ ゴシック
100
AcDbText
  0
TEXT
  5
3EF
330
1F
100
AcDbEntity
  8
D-5
  6
Continuous
 62
     7
370
     9
100
AcDbText
 10
-234.7926371891236
 20
-146.8577816272202
 30
0.0
 40
22.86
  1
ステンレス製受枠ＳＦ１５Ｂ
 41
1.153846153846154
  7
ＭＳ ゴシック
100
AcDbText
  0
TEXT
  5
3F0
330
1F
100
AcDbEntity
  8
D-5
  6
Continuous
 62
     2
370
     9
100
AcDbText
 10
537.192283312585
 20
-825.7997255969468
 30
0.0
 40
30.48
  1
材質：冷間圧延ステンレス鋼板（ＳＵＳ３０４－２Ｂ）
 41
1.12
  7
ＭＳ ゴシック
100
AcDbText
  0
TEXT
  5
3F1
330
1F
100
AcDbEntity
  8
D-5
  6
Continuous
 62
     7
370
     9
100
AcDbText
 10
-112.0937579471803
 20
-252.1830894732895
 30
0.0
 40
22.86
  1
溶接用アンカー＠５００
 41
1.151515151515152
  7
ＭＳ ゴシック
100
AcDbText
  0
TEXT
  5
3F2
330
1F
100
AcDbEntity
  8
D-5
  6
Continuous
 62
     7
370
     9
100
AcDbText
 10
-112.0937579471803
 20
-293.4065868640366
 30
0.0
 40
22.86
  1
ｔ＝２．３（ＳＰＨＣ）
 41
1.151515151515152
  7
ＭＳ ゴシック
100
AcDbText
  0
TEXT
  5
3F3
330
1F
100
AcDbEntity
  8
D-4
  6
Continuous
 62
     2
370
     9
100
AcDbText
 10
-136.3486985904908
 20
-450.0070590649146
 30
0.0
 40
30.48
  1
10
 50
90.00000250447867
 41
1.062500000000001
  7
ＭＳ ゴシック
100
AcDbText
  0
TEXT
  5
3F4
330
1F
100
AcDbEntity
  8
D-4
  6
Continuous
 62
     2
370
     9
100
AcDbText
 10
-136.3486985904908
 20
-382.5073690090674
 30
0.0
 40
30.48
  1
17
 50
90.00000250447867
 41
1.062500000000001
  7
ＭＳ ゴシック
100
AcDbText
  0
TEXT
  5
3F5
330
1F
100
AcDbEntity
  8
D-4
  6
Continuous
 62
     2
370
     9
100
AcDbText
 10
-468.0316775638795
 20
-513.4266215014878
 30
0.0
 40
30.48
  1
31
 41
1.0625
  7
ＭＳ ゴシック
100
AcDbText
  0
TEXT
  5
3F6
330
1F
100
AcDbEntity
  8
D-4
  6
Continuous
 62
     2
370
     9
100
AcDbText
 10
-680.2228368113118
 20
-455.6296648479449
 30
0.0
 40
30.48
  1
25
 50
90.00000250000025
 41
1.062499999999997
  7
ＭＳ ゴシック
100
AcDbText
  0
LINE
  5
3F7
330
1F
100
AcDbEntity
  8
D-2
  6
Continuous
 62
     3
370
     9
100
AcDbLine
 10
-1071.950783093665
 20
-336.2573449206772
 30
0.0
 11
-429.2811363537049
 21
-336.2573449206772
 31
0.0
  0
LINE
  5
3F8
330
1F
100
AcDbEntity
  8
D-5
  6
Continuous
 62
     7
370
     9
100
AcDbLine
 10
-1184.403709729407
 20
-660.770780284447
 30
0.0
 11
-1184.403709729407
 21
-489.9154107165756
 31
0.0
  0
LINE
  5
3F9
330
1F
100
AcDbEntity
  8
D-5
  6
Continuous
 62
     7
370
     9
100
AcDbLine
 10
-1443.037666638586
 20
-518.7999169421619
 30
0.0
 11
-1281.037620862219
 21
-518.7999169421619
 31
0.0
  0
LINE
  5
3FA
330
1F
100
AcDbEntity
  8
D-2
  6
Continuous
 62
     3
370
     9
100
AcDbLine
 10
-399.2811363537049
 20
-396.2573449206772
 30
0.0
 11
-414.2811363537049
 21
-396.2573449206772
 31
0.0
  0
LINE
  5
3FB
330
1F
100
AcDbEntity
  8
D-2
  6
Continuous
 62
     3
370
     9
100
AcDbLine
 10
-414.2811363537049
 20
-351.2573449206772
 30
0.0
 11
-414.2811363537049
 21
-396.2573449206772
 31
0.0
  0
LINE
  5
3FC
330
1F
100
AcDbEntity
  8
D-4
  6
Continuous
 62
     7
370
     9
100
AcDbLine
 10
-586.7812579471803
 20
-321.2573449206772
 30
0.0
 11
-586.7812579471803
 21
-396.2573449206772
 31
0.0
  0
LINE
  5
3FD
330
1F
100
AcDbEntity
  8
D-4
  6
Continuous
 62
     7
370
     9
100
AcDbLine
 10
-589.7812503177857
 20
-396.2573449206772
 30
0.0
 11
-444.2811339695191
 21
-396.2573449206772
 31
0.0
  0
LINE
  5
3FE
330
1F
100
AcDbEntity
  8
D-4
  6
Continuous
 62
     7
370
     9
100
AcDbLine
 10
-725.0203555423955
 20
-336.2573449206772
 30
0.0
 11
-725.0203555423955
 21
-277.0729701114121
 31
0.0
  0
LINE
  5
3FF
330
1F
100
AcDbEntity
  8
D-5
  6
Continuous
 62
     2
370
     9
100
AcDbLine
 10
600.3903729121944
 20
-346.2576691699448
 30
0.0
 11
375.3903729121947
 21
-346.2576691699448
 31
0.0
  0
LINE
  5
400
330
1F
100
AcDbEntity
  8
D-5
  6
Continuous
 62
     2
370
     9
100
AcDbLine
 10
600.3903729121944
 20
-296.2573830676499
 30
0.0
 11
600.3903729121944
 21
-346.2576691699448
 31
0.0
  0
LINE
  5
401
330
1F
100
AcDbEntity
  8
D-5
  6
Continuous
 62
     2
370
     9
100
AcDbLine
 10
375.3903729121947
 20
-296.2573830676499
 30
0.0
 11
600.3903729121944
 21
-296.2573830676499
 31
0.0
  0
LINE
  5
402
330
1F
100
AcDbEntity
  8
D-5
  6
Continuous
 62
     2
370
     9
100
AcDbLine
 10
375.3903729121947
 20
-346.2576691699448
 30
0.0
 11
375.3903729121947
 21
-296.2573830676499
 31
0.0
  0
LINE
  5
403
330
1F
100
AcDbEntity
  8
D-5
  6
Continuous
 62
     7
370
     9
100
AcDbLine
 10
-271.0183566410279
 20
-92.51135035280612
 30
0.0
 11
-468.5311358768678
 21
-321.2573449206772
 31
0.0
  0
LINE
  5
404
330
1F
100
AcDbEntity
  8
D-5
  6
Continuous
 62
     7
370
     9
100
AcDbLine
 10
-468.5311358768678
 20
-321.2573449206772
 30
0.0
 11
-454.8026793796754
 21
-300.3643922400894
 31
0.0
  0
LINE
  5
405
330
1F
100
AcDbEntity
  8
D-5
  6
Continuous
 62
     7
370
     9
100
AcDbLine
 10
-468.5311358768678
 20
-321.2573449206772
 30
0.0
 11
-449.8627894718385
 21
-304.6293882918778
 31
0.0
  0
LINE
  5
406
330
1F
100
AcDbEntity
  8
D-5
  6
Continuous
 62
     7
370
     9
100
AcDbLine
 10
-1184.403709729407
 20
-600.7707993579334
 30
0.0
 11
-1181.140617688391
 21
-575.9846703601306
 31
0.0
  0
LINE
  5
407
330
1F
100
AcDbEntity
  8
D-5
  6
Continuous
 62
     7
370
     9
100
AcDbLine
 10
-1184.403709729407
 20
-600.7707993579334
 30
0.0
 11
-1187.666878064368
 21
-575.9846703601306
 31
0.0
  0
LINE
  5
408
330
1F
100
AcDbEntity
  8
D-5
  6
Continuous
 62
     7
370
     9
100
AcDbLine
 10
-1181.403755505774
 20
-600.7707993579334
 30
0.0
 11
-1254.037651379797
 21
-600.7707993579334
 31
0.0
  0
LINE
  5
409
330
1F
100
AcDbEntity
  8
D-5
  6
Continuous
 62
     7
370
     9
100
AcDbLine
 10
-1184.403709729407
 20
-606.7707840991443
 30
0.0
 11
-1181.140617688391
 21
-631.556913096947
 31
0.0
  0
LINE
  5
40A
330
1F
100
AcDbEntity
  8
D-5
  6
Continuous
 62
     7
370
     9
100
AcDbLine
 10
-1184.403709729407
 20
-606.7707840991443
 30
0.0
 11
-1187.666878064368
 21
-631.556913096947
 31
0.0
  0
LINE
  5
40B
330
1F
100
AcDbEntity
  8
D-5
  6
Continuous
 62
     7
370
     9
100
AcDbLine
 10
-1443.037666638586
 20
-518.7999169421619
 30
0.0
 11
-1418.251518567297
 21
-515.5367486072009
 31
0.0
  0
LINE
  5
40C
330
1F
100
AcDbEntity
  8
D-5
  6
Continuous
 62
     7
370
     9
100
AcDbLine
 10
-1443.037666638586
 20
-518.7999169421619
 30
0.0
 11
-1418.251518567297
 21
-522.0630662036365
 31
0.0
  0
LINE
  5
40D
330
1F
100
AcDbEntity
  8
D-5
  6
Continuous
 62
     7
370
     9
100
AcDbLine
 10
-1443.037666638586
 20
-515.7999054980701
 30
0.0
 11
-1443.037666638586
 21
-590.7707993579334
 31
0.0
  0
LINE
  5
40E
330
1F
100
AcDbEntity
  8
D-5
  6
Continuous
 62
     7
370
     9
100
AcDbLine
 10
-1383.037666638586
 20
-518.7999169421619
 30
0.0
 11
-1407.82373841593
 21
-515.5367486072009
 31
0.0
  0
LINE
  5
40F
330
1F
100
AcDbEntity
  8
D-5
  6
Continuous
 62
     7
370
     9
100
AcDbLine
 10
-1383.037666638586
 20
-518.7999169421619
 30
0.0
 11
-1407.82373841593
 21
-522.0630662036365
 31
0.0
  0
LINE
  5
410
330
1F
100
AcDbEntity
  8
D-5
  6
Continuous
 62
     7
370
     9
100
AcDbLine
 10
-1383.037666638586
 20
-515.7999054980701
 30
0.0
 11
-1383.037666638586
 21
-590.7707993579334
 31
0.0
  0
LINE
  5
411
330
1F
100
AcDbEntity
  8
D-5
  6
Continuous
 62
     7
370
     9
100
AcDbLine
 10
-1323.037666638586
 20
-518.7999169421619
 30
0.0
 11
-1298.251518567297
 21
-522.0630662036365
 31
0.0
  0
LINE
  5
412
330
1F
100
AcDbEntity
  8
D-5
  6
Continuous
 62
     7
370
     9
100
AcDbLine
 10
-1323.037666638586
 20
-518.7999169421619
 30
0.0
 11
-1298.251518567297
 21
-515.5367486072009
 31
0.0
  0
LINE
  5
413
330
1F
100
AcDbEntity
  8
D-5
  6
Continuous
 62
     7
370
     9
100
AcDbLine
 10
-1323.037666638586
 20
-515.7999054980701
 30
0.0
 11
-1323.037666638586
 21
-590.7707993579334
 31
0.0
  0
LINE
  5
414
330
1F
100
AcDbEntity
  8
D-5
  6
Continuous
 62
     3
370
     9
100
AcDbLine
 10
-1596.87143739054
 20
-660.770780284447
 30
0.0
 11
-1288.369545300696
 21
-660.770780284447
 31
0.0
  0
LINE
  5
415
330
1F
100
AcDbEntity
  8
D-5
  6
Continuous
 62
     7
370
     9
100
AcDbLine
 10
-1181.403755505774
 20
-606.7707840991443
 30
0.0
 11
-1299.647926648352
 21
-606.7707840991443
 31
0.0
  0
LINE
  5
416
330
1F
100
AcDbEntity
  8
D-5
  6
Continuous
 62
     7
370
     9
100
AcDbLine
 10
-1712.703575452063
 20
-660.770780284447
 30
0.0
 11
-1712.703575452063
 21
-600.7707993579334
 31
0.0
  0
LINE
  5
417
330
1F
100
AcDbEntity
  8
D-5
  6
Continuous
 62
     7
370
     9
100
AcDbLine
 10
-1712.703575452063
 20
-660.770780284447
 30
0.0
 11
-1715.966820080969
 21
-635.9846703601306
 31
0.0
  0
LINE
  5
418
330
1F
100
AcDbEntity
  8
D-5
  6
Continuous
 62
     7
370
     9
100
AcDbLine
 10
-1712.703575452063
 20
-660.770780284447
 30
0.0
 11
-1709.440483411047
 21
-635.9846703601306
 31
0.0
  0
LINE
  5
419
330
1F
100
AcDbEntity
  8
D-5
  6
Continuous
 62
     7
370
     9
100
AcDbLine
 10
-1712.703575452063
 20
-600.7707993579334
 30
0.0
 11
-1715.966820080969
 21
-625.5569092822498
 31
0.0
  0
LINE
  5
41A
330
1F
100
AcDbEntity
  8
D-5
  6
Continuous
 62
     7
370
     9
100
AcDbLine
 10
-1712.703575452063
 20
-600.7707993579334
 30
0.0
 11
-1709.440483411047
 21
-625.5569092822498
 31
0.0
  0
LINE
  5
41B
330
1F
100
AcDbEntity
  8
D-5
  6
Continuous
 62
     7
370
     9
100
AcDbLine
 10
-1715.703605969641
 20
-660.770780284447
 30
0.0
 11
-1616.87143739054
 21
-660.770780284447
 31
0.0
  0
LINE
  5
41C
330
1F
100
AcDbEntity
  8
D-5
  6
Continuous
 62
     7
370
     9
100
AcDbLine
 10
-1715.703605969641
 20
-600.7707993579334
 30
0.0
 11
-1583.037666638586
 21
-600.7707993579334
 31
0.0
  0
LINE
  5
41D
330
1F
100
AcDbEntity
  8
D-5
  6
Continuous
 62
     3
370
     9
100
AcDbLine
 10
-1438.037666638586
 20
-600.7707993579334
 30
0.0
 11
-1443.037666638586
 21
-606.7707840991443
 31
0.0
  0
LINE
  5
41E
330
1F
100
AcDbEntity
  8
D-5
  6
Continuous
 62
     3
370
     9
100
AcDbLine
 10
-1388.037666638586
 20
-600.7707993579334
 30
0.0
 11
-1383.037666638586
 21
-606.7707840991443
 31
0.0
  0
LINE
  5
41F
330
1F
100
AcDbEntity
  8
D-5
  6
Continuous
 62
     3
370
     9
100
AcDbLine
 10
-1438.037666638586
 20
-600.7707993579334
 30
0.0
 11
-1388.037666638586
 21
-600.7707993579334
 31
0.0
  0
LINE
  5
420
330
1F
100
AcDbEntity
  8
D-5
  6
Continuous
 62
     3
370
     9
100
AcDbLine
 10
-1318.037666638586
 20
-600.7707993579334
 30
0.0
 11
-1323.037666638586
 21
-606.7707840991443
 31
0.0
  0
LINE
  5
421
330
1F
100
AcDbEntity
  8
D-5
  6
Continuous
 62
     3
370
     9
100
AcDbLine
 10
-1318.037666638586
 20
-600.7707993579334
 30
0.0
 11
-1288.369545300696
 21
-600.7707993579334
 31
0.0
  0
LINE
  5
422
330
1F
100
AcDbEntity
  8
D-5
  6
Continuous
 62
     3
370
     9
100
AcDbLine
 10
-1323.037666638586
 20
-606.7707840991443
 30
0.0
 11
-1383.037666638586
 21
-606.7707840991443
 31
0.0
  0
LINE
  5
423
330
1F
100
AcDbEntity
  8
D-5
  6
Continuous
 62
     3
370
     9
100
AcDbLine
 10
-1508.037666638586
 20
-600.7707993579334
 30
0.0
 11
-1503.037666638586
 21
-606.7707840991443
 31
0.0
  0
LINE
  5
424
330
1F
100
AcDbEntity
  8
D-5
  6
Continuous
 62
     3
370
     9
100
AcDbLine
 10
-1443.037666638586
 20
-606.7707840991443
 30
0.0
 11
-1503.037666638586
 21
-606.7707840991443
 31
0.0
  0
LINE
  5
425
330
1F
100
AcDbEntity
  8
D-5
  6
Continuous
 62
     3
370
     9
100
AcDbLine
 10
-1558.037666638586
 20
-600.7707993579334
 30
0.0
 11
-1563.037666638586
 21
-606.7707840991443
 31
0.0
  0
LINE
  5
426
330
1F
100
AcDbEntity
  8
D-5
  6
Continuous
 62
     3
370
     9
100
AcDbLine
 10
-1563.037666638586
 20
-606.7707840991443
 30
0.0
 11
-1596.87143739054
 21
-606.7707840991443
 31
0.0
  0
LINE
  5
427
330
1F
100
AcDbEntity
  8
D-5
  6
Continuous
 62
     3
370
     9
100
AcDbLine
 10
-1558.037666638586
 20
-600.7707993579334
 30
0.0
 11
-1508.037666638586
 21
-600.7707993579334
 31
0.0
  0
LINE
  5
428
330
1F
100
AcDbEntity
  8
D-5
  6
Continuous
 62
     7
370
     9
100
AcDbLine
 10
-1705.62044556925
 20
-696.6004387927478
 30
0.0
 11
-1179.620537121985
 21
-696.6004387927478
 31
0.0
  0
LINE
  5
429
330
1F
100
AcDbEntity
  8
D-5
  6
Continuous
 62
     7
370
     9
100
AcDbLine
 10
-1705.62044556925
 20
-766.6004387927478
 30
0.0
 11
-1179.620537121985
 21
-766.6004387927478
 31
0.0
  0
LINE
  5
42A
330
1F
100
AcDbEntity
  8
D-5
  6
Continuous
 62
     7
370
     9
100
AcDbLine
 10
-1705.62044556925
 20
-696.6004387927478
 30
0.0
 11
-1705.62044556925
 21
-766.6004387927478
 31
0.0
  0
LINE
  5
42B
330
1F
100
AcDbEntity
  8
D-5
  6
Continuous
 62
     7
370
     9
100
AcDbLine
 10
-1179.620537121985
 20
-696.6004387927478
 30
0.0
 11
-1179.620537121985
 21
-766.6004387927478
 31
0.0
  0
LINE
  5
42C
330
1F
100
AcDbEntity
  8
D-5
  6
Continuous
 62
     7
370
     9
100
AcDbLine
 10
-271.0183566410279
 20
-92.51135035280612
 30
0.0
 11
497.9235607784054
 21
-92.51135035280612
 31
0.0
  0
LINE
  5
42D
330
1F
100
AcDbEntity
  8
D-2
  6
Continuous
 62
     3
370
     9
100
AcDbLine
 10
-1044.781135876868
 20
-321.2573449206772
 30
0.0
 11
-1032.281135876868
 21
-321.2573449206772
 31
0.0
  0
LINE
  5
42E
330
1F
100
AcDbEntity
  8
D-2
  6
Continuous
 62
     3
370
     9
100
AcDbLine
 10
-1003.781151135657
 20
-321.2573449206772
 30
0.0
 11
-1016.281151135657
 21
-321.2573449206772
 31
0.0
  0
LINE
  5
42F
330
1F
100
AcDbEntity
  8
D-2
  6
Continuous
 62
     3
370
     9
100
AcDbLine
 10
-975.2811282474734
 20
-321.2573449206772
 30
0.0
 11
-987.7811282474734
 21
-321.2573449206772
 31
0.0
  0
LINE
  5
430
330
1F
100
AcDbEntity
  8
D-2
  6
Continuous
 62
     3
370
     9
100
AcDbLine
 10
-946.7811435062624
 20
-321.2573449206772
 30
0.0
 11
-959.2811435062624
 21
-321.2573449206772
 31
0.0
  0
LINE
  5
431
330
1F
100
AcDbEntity
  8
D-2
  6
Continuous
 62
     3
370
     9
100
AcDbLine
 10
-918.2811206180788
 20
-321.2573449206772
 30
0.0
 11
-930.7811206180788
 21
-321.2573449206772
 31
0.0
  0
LINE
  5
432
330
1F
100
AcDbEntity
  8
D-2
  6
Continuous
 62
     3
370
     9
100
AcDbLine
 10
-889.7811358768681
 20
-321.2573449206772
 30
0.0
 11
-902.2811358768679
 21
-321.2573449206772
 31
0.0
  0
LINE
  5
433
330
1F
100
AcDbEntity
  8
D-2
  6
Continuous
 62
     3
370
     9
100
AcDbLine
 10
-861.2811511356572
 20
-321.2573449206772
 30
0.0
 11
-873.7811511356572
 21
-321.2573449206772
 31
0.0
  0
LINE
  5
434
330
1F
100
AcDbEntity
  8
D-2
  6
Continuous
 62
     3
370
     9
100
AcDbLine
 10
-832.7811282474736
 20
-321.2573449206772
 30
0.0
 11
-845.2811282474736
 21
-321.2573449206772
 31
0.0
  0
LINE
  5
435
330
1F
100
AcDbEntity
  8
D-2
  6
Continuous
 62
     3
370
     9
100
AcDbLine
 10
-804.2811435062627
 20
-321.2573449206772
 30
0.0
 11
-816.7811435062627
 21
-321.2573449206772
 31
0.0
  0
LINE
  5
436
330
1F
100
AcDbEntity
  8
D-2
  6
Continuous
 62
     3
370
     9
100
AcDbLine
 10
-775.7811206180791
 20
-321.2573449206772
 30
0.0
 11
-788.2811206180791
 21
-321.2573449206772
 31
0.0
  0
LINE
  5
437
330
1F
100
AcDbEntity
  8
D-2
  6
Continuous
 62
     3
370
     9
100
AcDbLine
 10
-747.2811358768681
 20
-321.2573449206772
 30
0.0
 11
-759.7811358768681
 21
-321.2573449206772
 31
0.0
  0
LINE
  5
438
330
1F
100
AcDbEntity
  8
D-2
  6
Continuous
 62
     3
370
     9
100
AcDbLine
 10
-718.7811320621709
 20
-321.2573449206772
 30
0.0
 11
-731.2811511356572
 21
-321.2573449206772
 31
0.0
  0
LINE
  5
439
330
1F
100
AcDbEntity
  8
D-2
  6
Continuous
 62
     3
370
     9
100
AcDbLine
 10
-690.2811282474732
 20
-321.2573449206772
 30
0.0
 11
-702.7811282474736
 21
-321.2573449206772
 31
0.0
  0
LINE
  5
43A
330
1F
100
AcDbEntity
  8
D-2
  6
Continuous
 62
     3
370
     9
100
AcDbLine
 10
-661.7811435062623
 20
-321.2573449206772
 30
0.0
 11
-674.2811435062623
 21
-321.2573449206772
 31
0.0
  0
LINE
  5
43B
330
1F
100
AcDbEntity
  8
D-2
  6
Continuous
 62
     3
370
     9
100
AcDbLine
 10
-633.281139691565
 20
-321.2573449206772
 30
0.0
 11
-645.781139691565
 21
-321.2573449206772
 31
0.0
  0
LINE
  5
43C
330
1F
100
AcDbEntity
  8
D-2
  6
Continuous
 62
     3
370
     9
100
AcDbLine
 10
-604.7811358768678
 20
-321.2573449206772
 30
0.0
 11
-617.2811358768678
 21
-321.2573449206772
 31
0.0
  0
LINE
  5
43D
330
1F
100
AcDbEntity
  8
D-2
  6
Continuous
 62
     3
370
     9
100
AcDbLine
 10
-576.2811320621705
 20
-321.2573449206772
 30
0.0
 11
-588.7811320621705
 21
-321.2573449206772
 31
0.0
  0
LINE
  5
43E
330
1F
100
AcDbEntity
  8
D-2
  6
Continuous
 62
     3
370
     9
100
AcDbLine
 10
-547.7811377842164
 20
-321.2573449206772
 30
0.0
 11
-560.2811282474732
 21
-321.2573449206772
 31
0.0
  0
LINE
  5
43F
330
1F
100
AcDbEntity
  8
D-2
  6
Continuous
 62
     3
370
     9
100
AcDbLine
 10
-519.2811339695191
 20
-321.2573449206772
 30
0.0
 11
-531.7811339695191
 21
-321.2573449206772
 31
0.0
  0
LINE
  5
440
330
1F
100
AcDbEntity
  8
D-2
  6
Continuous
 62
     3
370
     9
100
AcDbLine
 10
-490.781139691565
 20
-321.2573449206772
 30
0.0
 11
-503.281139691565
 21
-321.2573449206772
 31
0.0
  0
LINE
  5
441
330
1F
100
AcDbEntity
  8
D-2
  6
Continuous
 62
     3
370
     9
100
AcDbLine
 10
-462.2811358768678
 20
-321.2573449206772
 30
0.0
 11
-474.7811358768678
 21
-321.2573449206772
 31
0.0
  0
LINE
  5
442
330
1F
100
AcDbEntity
  8
D-2
  6
Continuous
 62
     3
370
     9
100
AcDbLine
 10
-433.7811368305421
 20
-321.2573449206772
 30
0.0
 11
-446.2811368305421
 21
-321.2573449206772
 31
0.0
  0
LINE
  5
443
330
1F
100
AcDbEntity
  8
D-2
  6
Continuous
 62
     3
370
     9
100
AcDbLine
 10
-1071.950783093665
 20
-321.2573449206772
 30
0.0
 11
-1060.781120618079
 21
-321.2573449206772
 31
0.0
  0
LINE
  5
444
330
1F
100
AcDbEntity
  8
D-2
  6
Continuous
 62
     3
370
     9
100
AcDbLine
 10
-1030.531143506262
 20
-322.7573449802819
 30
0.0
 11
-1018.031143506262
 21
-322.7573449802819
 31
0.0
  0
LINE
  5
445
330
1F
100
AcDbEntity
  8
D-2
  6
Continuous
 62
     3
370
     9
100
AcDbLine
 10
-1032.281135876868
 20
-321.2573449206772
 30
0.0
 11
-1030.531143506262
 21
-322.7573449802819
 31
0.0
  0
LINE
  5
446
330
1F
100
AcDbEntity
  8
D-2
  6
Continuous
 62
     3
370
     9
100
AcDbLine
 10
-1060.781120618079
 20
-321.2573449206772
 30
0.0
 11
-1059.031166394446
 21
-322.7573449802819
 31
0.0
  0
LINE
  5
447
330
1F
100
AcDbEntity
  8
D-2
  6
Continuous
 62
     3
370
     9
100
AcDbLine
 10
-1046.531166394446
 20
-322.7573449802819
 30
0.0
 11
-1044.781135876868
 21
-321.2573449206772
 31
0.0
  0
LINE
  5
448
330
1F
100
AcDbEntity
  8
D-2
  6
Continuous
 62
     3
370
     9
100
AcDbLine
 10
-1046.531166394446
 20
-322.7573449802819
 30
0.0
 11
-1059.031166394446
 21
-322.7573449802819
 31
0.0
  0
LINE
  5
449
330
1F
100
AcDbEntity
  8
D-2
  6
Continuous
 62
     3
370
     9
100
AcDbLine
 10
-1016.281151135657
 20
-321.2573449206772
 30
0.0
 11
-1018.031143506262
 21
-322.7573449802819
 31
0.0
  0
LINE
  5
44A
330
1F
100
AcDbEntity
  8
D-2
  6
Continuous
 62
     3
370
     9
100
AcDbLine
 10
-973.5311358768679
 20
-322.7573449802819
 30
0.0
 11
-975.2811282474734
 21
-321.2573449206772
 31
0.0
  0
LINE
  5
44B
330
1F
100
AcDbEntity
  8
D-2
  6
Continuous
 62
     3
370
     9
100
AcDbLine
 10
-987.7811282474734
 20
-321.2573449206772
 30
0.0
 11
-989.5311206180788
 21
-322.7573449802819
 31
0.0
  0
LINE
  5
44C
330
1F
100
AcDbEntity
  8
D-2
  6
Continuous
 62
     3
370
     9
100
AcDbLine
 10
-1002.031120618079
 20
-322.7573449802819
 30
0.0
 11
-1003.781151135657
 21
-321.2573449206772
 31
0.0
  0
LINE
  5
44D
330
1F
100
AcDbEntity
  8
D-2
  6
Continuous
 62
     3
370
     9
100
AcDbLine
 10
-1002.031120618079
 20
-322.7573449802819
 30
0.0
 11
-989.5311206180788
 21
-322.7573449802819
 31
0.0
  0
LINE
  5
44E
330
1F
100
AcDbEntity
  8
D-2
  6
Continuous
 62
     3
370
     9
100
AcDbLine
 10
-945.031151135657
 20
-322.7573449802819
 30
0.0
 11
-946.7811435062624
 21
-321.2573449206772
 31
0.0
  0
LINE
  5
44F
330
1F
100
AcDbEntity
  8
D-2
  6
Continuous
 62
     3
370
     9
100
AcDbLine
 10
-959.2811435062624
 20
-321.2573449206772
 30
0.0
 11
-961.0311358768679
 21
-322.7573449802819
 31
0.0
  0
LINE
  5
450
330
1F
100
AcDbEntity
  8
D-2
  6
Continuous
 62
     3
370
     9
100
AcDbLine
 10
-973.5311358768679
 20
-322.7573449802819
 30
0.0
 11
-961.0311358768679
 21
-322.7573449802819
 31
0.0
  0
LINE
  5
451
330
1F
100
AcDbEntity
  8
D-2
  6
Continuous
 62
     3
370
     9
100
AcDbLine
 10
-916.5311282474734
 20
-322.7573449802819
 30
0.0
 11
-918.2811206180788
 21
-321.2573449206772
 31
0.0
  0
LINE
  5
452
330
1F
100
AcDbEntity
  8
D-2
  6
Continuous
 62
     3
370
     9
100
AcDbLine
 10
-930.7811206180788
 20
-321.2573449206772
 30
0.0
 11
-932.531151135657
 21
-322.7573449802819
 31
0.0
  0
LINE
  5
453
330
1F
100
AcDbEntity
  8
D-2
  6
Continuous
 62
     3
370
     9
100
AcDbLine
 10
-945.031151135657
 20
-322.7573449802819
 30
0.0
 11
-932.531151135657
 21
-322.7573449802819
 31
0.0
  0
LINE
  5
454
330
1F
100
AcDbEntity
  8
D-2
  6
Continuous
 62
     3
370
     9
100
AcDbLine
 10
-888.0311435062627
 20
-322.7573449802819
 30
0.0
 11
-889.7811358768681
 21
-321.2573449206772
 31
0.0
  0
LINE
  5
455
330
1F
100
AcDbEntity
  8
D-2
  6
Continuous
 62
     3
370
     9
100
AcDbLine
 10
-902.2811358768679
 20
-321.2573449206772
 30
0.0
 11
-904.0311282474734
 21
-322.7573449802819
 31
0.0
  0
LINE
  5
456
330
1F
100
AcDbEntity
  8
D-2
  6
Continuous
 62
     3
370
     9
100
AcDbLine
 10
-916.5311282474734
 20
-322.7573449802819
 30
0.0
 11
-904.0311282474734
 21
-322.7573449802819
 31
0.0
  0
LINE
  5
457
330
1F
100
AcDbEntity
  8
D-2
  6
Continuous
 62
     3
370
     9
100
AcDbLine
 10
-859.5311206180791
 20
-322.7573449802819
 30
0.0
 11
-861.2811511356572
 21
-321.2573449206772
 31
0.0
  0
LINE
  5
458
330
1F
100
AcDbEntity
  8
D-2
  6
Continuous
 62
     3
370
     9
100
AcDbLine
 10
-873.7811511356572
 20
-321.2573449206772
 30
0.0
 11
-875.5311435062627
 21
-322.7573449802819
 31
0.0
  0
LINE
  5
459
330
1F
100
AcDbEntity
  8
D-2
  6
Continuous
 62
     3
370
     9
100
AcDbLine
 10
-888.0311435062627
 20
-322.7573449802819
 30
0.0
 11
-875.5311435062627
 21
-322.7573449802819
 31
0.0
  0
LINE
  5
45A
330
1F
100
AcDbEntity
  8
D-2
  6
Continuous
 62
     3
370
     9
100
AcDbLine
 10
-831.0311358768681
 20
-322.7573449802819
 30
0.0
 11
-832.7811282474736
 21
-321.2573449206772
 31
0.0
  0
LINE
  5
45B
330
1F
100
AcDbEntity
  8
D-2
  6
Continuous
 62
     3
370
     9
100
AcDbLine
 10
-845.2811282474736
 20
-321.2573449206772
 30
0.0
 11
-847.0311206180791
 21
-322.7573449802819
 31
0.0
  0
LINE
  5
45C
330
1F
100
AcDbEntity
  8
D-2
  6
Continuous
 62
     3
370
     9
100
AcDbLine
 10
-859.5311206180791
 20
-322.7573449802819
 30
0.0
 11
-847.0311206180791
 21
-322.7573449802819
 31
0.0
  0
LINE
  5
45D
330
1F
100
AcDbEntity
  8
D-2
  6
Continuous
 62
     3
370
     9
100
AcDbLine
 10
-802.5311511356572
 20
-322.7573449802819
 30
0.0
 11
-804.2811435062627
 21
-321.2573449206772
 31
0.0
  0
LINE
  5
45E
330
1F
100
AcDbEntity
  8
D-2
  6
Continuous
 62
     3
370
     9
100
AcDbLine
 10
-816.7811435062627
 20
-321.2573449206772
 30
0.0
 11
-818.5311358768681
 21
-322.7573449802819
 31
0.0
  0
LINE
  5
45F
330
1F
100
AcDbEntity
  8
D-2
  6
Continuous
 62
     3
370
     9
100
AcDbLine
 10
-831.0311358768681
 20
-322.7573449802819
 30
0.0
 11
-818.5311358768681
 21
-322.7573449802819
 31
0.0
  0
LINE
  5
460
330
1F
100
AcDbEntity
  8
D-2
  6
Continuous
 62
     3
370
     9
100
AcDbLine
 10
-774.0311282474736
 20
-322.7573449802819
 30
0.0
 11
-775.7811206180791
 21
-321.2573449206772
 31
0.0
  0
LINE
  5
461
330
1F
100
AcDbEntity
  8
D-2
  6
Continuous
 62
     3
370
     9
100
AcDbLine
 10
-788.2811206180791
 20
-321.2573449206772
 30
0.0
 11
-790.0311511356572
 21
-322.7573449802819
 31
0.0
  0
LINE
  5
462
330
1F
100
AcDbEntity
  8
D-2
  6
Continuous
 62
     3
370
     9
100
AcDbLine
 10
-802.5311511356572
 20
-322.7573449802819
 30
0.0
 11
-790.0311511356572
 21
-322.7573449802819
 31
0.0
  0
LINE
  5
463
330
1F
100
AcDbEntity
  8
D-2
  6
Continuous
 62
     3
370
     9
100
AcDbLine
 10
-745.5311435062627
 20
-322.7573449802819
 30
0.0
 11
-747.2811358768681
 21
-321.2573449206772
 31
0.0
  0
LINE
  5
464
330
1F
100
AcDbEntity
  8
D-2
  6
Continuous
 62
     3
370
     9
100
AcDbLine
 10
-759.7811358768681
 20
-321.2573449206772
 30
0.0
 11
-761.5311282474736
 21
-322.7573449802819
 31
0.0
  0
LINE
  5
465
330
1F
100
AcDbEntity
  8
D-2
  6
Continuous
 62
     3
370
     9
100
AcDbLine
 10
-774.0311282474736
 20
-322.7573449802819
 30
0.0
 11
-761.5311282474736
 21
-322.7573449802819
 31
0.0
  0
LINE
  5
466
330
1F
100
AcDbEntity
  8
D-2
  6
Continuous
 62
     3
370
     9
100
AcDbLine
 10
-717.0311396915654
 20
-322.7573449802819
 30
0.0
 11
-718.7811320621709
 21
-321.2573449206772
 31
0.0
  0
LINE
  5
467
330
1F
100
AcDbEntity
  8
D-2
  6
Continuous
 62
     3
370
     9
100
AcDbLine
 10
-731.2811511356572
 20
-321.2573449206772
 30
0.0
 11
-733.0311435062627
 21
-322.7573449802819
 31
0.0
  0
LINE
  5
468
330
1F
100
AcDbEntity
  8
D-2
  6
Continuous
 62
     3
370
     9
100
AcDbLine
 10
-745.5311435062627
 20
-322.7573449802819
 30
0.0
 11
-733.0311435062627
 21
-322.7573449802819
 31
0.0
  0
LINE
  5
469
330
1F
100
AcDbEntity
  8
D-2
  6
Continuous
 62
     3
370
     9
100
AcDbLine
 10
-688.5311358768678
 20
-322.7573449802819
 30
0.0
 11
-690.2811282474732
 21
-321.2573449206772
 31
0.0
  0
LINE
  5
46A
330
1F
100
AcDbEntity
  8
D-2
  6
Continuous
 62
     3
370
     9
100
AcDbLine
 10
-702.7811282474736
 20
-321.2573449206772
 30
0.0
 11
-704.5311396915654
 21
-322.7573449802819
 31
0.0
  0
LINE
  5
46B
330
1F
100
AcDbEntity
  8
D-2
  6
Continuous
 62
     3
370
     9
100
AcDbLine
 10
-717.0311396915654
 20
-322.7573449802819
 30
0.0
 11
-704.5311396915654
 21
-322.7573449802819
 31
0.0
  0
LINE
  5
46C
330
1F
100
AcDbEntity
  8
D-2
  6
Continuous
 62
     3
370
     9
100
AcDbLine
 10
-660.0311320621705
 20
-322.7573449802819
 30
0.0
 11
-661.7811435062623
 21
-321.2573449206772
 31
0.0
  0
LINE
  5
46D
330
1F
100
AcDbEntity
  8
D-2
  6
Continuous
 62
     3
370
     9
100
AcDbLine
 10
-674.2811435062623
 20
-321.2573449206772
 30
0.0
 11
-676.0311358768678
 21
-322.7573449802819
 31
0.0
  0
LINE
  5
46E
330
1F
100
AcDbEntity
  8
D-2
  6
Continuous
 62
     3
370
     9
100
AcDbLine
 10
-688.5311358768678
 20
-322.7573449802819
 30
0.0
 11
-676.0311358768678
 21
-322.7573449802819
 31
0.0
  0
LINE
  5
46F
330
1F
100
AcDbEntity
  8
D-2
  6
Continuous
 62
     3
370
     9
100
AcDbLine
 10
-631.5311282474732
 20
-322.7573449802819
 30
0.0
 11
-633.281139691565
 21
-321.2573449206772
 31
0.0
  0
LINE
  5
470
330
1F
100
AcDbEntity
  8
D-2
  6
Continuous
 62
     3
370
     9
100
AcDbLine
 10
-645.781139691565
 20
-321.2573449206772
 30
0.0
 11
-647.5311320621705
 21
-322.7573449802819
 31
0.0
  0
LINE
  5
471
330
1F
100
AcDbEntity
  8
D-2
  6
Continuous
 62
     3
370
     9
100
AcDbLine
 10
-660.0311320621705
 20
-322.7573449802819
 30
0.0
 11
-647.5311320621705
 21
-322.7573449802819
 31
0.0
  0
LINE
  5
472
330
1F
100
AcDbEntity
  8
D-2
  6
Continuous
 62
     3
370
     9
100
AcDbLine
 10
-603.0311435062623
 20
-322.7573449802819
 30
0.0
 11
-604.7811358768678
 21
-321.2573449206772
 31
0.0
  0
LINE
  5
473
330
1F
100
AcDbEntity
  8
D-2
  6
Continuous
 62
     3
370
     9
100
AcDbLine
 10
-617.2811358768678
 20
-321.2573449206772
 30
0.0
 11
-619.0311282474732
 21
-322.7573449802819
 31
0.0
  0
LINE
  5
474
330
1F
100
AcDbEntity
  8
D-2
  6
Continuous
 62
     3
370
     9
100
AcDbLine
 10
-631.5311282474732
 20
-322.7573449802819
 30
0.0
 11
-619.0311282474732
 21
-322.7573449802819
 31
0.0
  0
LINE
  5
475
330
1F
100
AcDbEntity
  8
D-2
  6
Continuous
 62
     3
370
     9
100
AcDbLine
 10
-574.531139691565
 20
-322.7573449802819
 30
0.0
 11
-576.2811320621705
 21
-321.2573449206772
 31
0.0
  0
LINE
  5
476
330
1F
100
AcDbEntity
  8
D-2
  6
Continuous
 62
     3
370
     9
100
AcDbLine
 10
-588.7811320621705
 20
-321.2573449206772
 30
0.0
 11
-590.5311435062623
 21
-322.7573449802819
 31
0.0
  0
LINE
  5
477
330
1F
100
AcDbEntity
  8
D-2
  6
Continuous
 62
     3
370
     9
100
AcDbLine
 10
-603.0311435062623
 20
-322.7573449802819
 30
0.0
 11
-590.5311435062623
 21
-322.7573449802819
 31
0.0
  0
LINE
  5
478
330
1F
100
AcDbEntity
  8
D-2
  6
Continuous
 62
     3
370
     9
100
AcDbLine
 10
-546.0311358768678
 20
-322.7573449802819
 30
0.0
 11
-547.7811377842164
 21
-321.2573449206772
 31
0.0
  0
LINE
  5
479
330
1F
100
AcDbEntity
  8
D-2
  6
Continuous
 62
     3
370
     9
100
AcDbLine
 10
-560.2811282474732
 20
-321.2573449206772
 30
0.0
 11
-562.031139691565
 21
-322.7573449802819
 31
0.0
  0
LINE
  5
47A
330
1F
100
AcDbEntity
  8
D-2
  6
Continuous
 62
     3
370
     9
100
AcDbLine
 10
-574.531139691565
 20
-322.7573449802819
 30
0.0
 11
-562.031139691565
 21
-322.7573449802819
 31
0.0
  0
LINE
  5
47B
330
1F
100
AcDbEntity
  8
D-2
  6
Continuous
 62
     3
370
     9
100
AcDbLine
 10
-517.5311320621705
 20
-322.7573449802819
 30
0.0
 11
-519.2811339695191
 21
-321.2573449206772
 31
0.0
  0
LINE
  5
47C
330
1F
100
AcDbEntity
  8
D-2
  6
Continuous
 62
     3
370
     9
100
AcDbLine
 10
-531.7811339695191
 20
-321.2573449206772
 30
0.0
 11
-533.5311358768678
 21
-322.7573449802819
 31
0.0
  0
LINE
  5
47D
330
1F
100
AcDbEntity
  8
D-2
  6
Continuous
 62
     3
370
     9
100
AcDbLine
 10
-546.0311358768678
 20
-322.7573449802819
 30
0.0
 11
-533.5311358768678
 21
-322.7573449802819
 31
0.0
  0
LINE
  5
47E
330
1F
100
AcDbEntity
  8
D-2
  6
Continuous
 62
     3
370
     9
100
AcDbLine
 10
-489.0311377842164
 20
-322.7573449802819
 30
0.0
 11
-490.781139691565
 21
-321.2573449206772
 31
0.0
  0
LINE
  5
47F
330
1F
100
AcDbEntity
  8
D-2
  6
Continuous
 62
     3
370
     9
100
AcDbLine
 10
-503.281139691565
 20
-321.2573449206772
 30
0.0
 11
-505.0311320621705
 21
-322.7573449802819
 31
0.0
  0
LINE
  5
480
330
1F
100
AcDbEntity
  8
D-2
  6
Continuous
 62
     3
370
     9
100
AcDbLine
 10
-517.5311320621705
 20
-322.7573449802819
 30
0.0
 11
-505.0311320621705
 21
-322.7573449802819
 31
0.0
  0
LINE
  5
481
330
1F
100
AcDbEntity
  8
D-2
  6
Continuous
 62
     3
370
     9
100
AcDbLine
 10
-460.5311339695191
 20
-322.7573449802819
 30
0.0
 11
-462.2811358768678
 21
-321.2573449206772
 31
0.0
  0
LINE
  5
482
330
1F
100
AcDbEntity
  8
D-2
  6
Continuous
 62
     3
370
     9
100
AcDbLine
 10
-474.7811358768678
 20
-321.2573449206772
 30
0.0
 11
-476.5311377842164
 21
-322.7573449802819
 31
0.0
  0
LINE
  5
483
330
1F
100
AcDbEntity
  8
D-2
  6
Continuous
 62
     3
370
     9
100
AcDbLine
 10
-489.0311377842164
 20
-322.7573449802819
 30
0.0
 11
-476.5311377842164
 21
-322.7573449802819
 31
0.0
  0
LINE
  5
484
330
1F
100
AcDbEntity
  8
D-2
  6
Continuous
 62
     3
370
     9
100
AcDbLine
 10
-432.0311373073793
 20
-322.7573449802819
 30
0.0
 11
-433.7811368305421
 21
-321.2573449206772
 31
0.0
  0
LINE
  5
485
330
1F
100
AcDbEntity
  8
D-2
  6
Continuous
 62
     3
370
     9
100
AcDbLine
 10
-446.2811368305421
 20
-321.2573449206772
 30
0.0
 11
-448.0311339695191
 21
-322.7573449802819
 31
0.0
  0
LINE
  5
486
330
1F
100
AcDbEntity
  8
D-2
  6
Continuous
 62
     3
370
     9
100
AcDbLine
 10
-460.5311339695191
 20
-322.7573449802819
 30
0.0
 11
-448.0311339695191
 21
-322.7573449802819
 31
0.0
  0
LINE
  5
487
330
1F
100
AcDbEntity
  8
D-2
  6
Continuous
 62
     3
370
     9
100
AcDbLine
 10
-400.7734067339635
 20
-343.7658111644211
 30
0.0
 11
-399.3698716789669
 21
-341.9375340533676
 31
0.0
  0
LINE
  5
488
330
1F
100
AcDbEntity
  8
D-2
  6
Continuous
 62
     3
370
     9
100
AcDbLine
 10
-432.0311373073793
 20
-322.7573449802819
 30
0.0
 11
-421.5229934055543
 21
-323.7825296712342
 31
0.0
  0
LINE
  5
489
330
1F
100
AcDbEntity
  8
D-2
  6
Continuous
 62
     3
370
     9
100
AcDbLine
 10
-419.974381287787
 20
-322.7374516320648
 30
0.0
 11
-421.5229934055543
 21
-323.7825296712342
 31
0.0
  0
LINE
  5
48A
330
1F
100
AcDbEntity
  8
D-2
  6
Continuous
 62
     3
370
     9
100
AcDbLine
 10
-400.7811364133096
 20
-343.7573449206772
 30
0.0
 11
-400.7811364133096
 21
-359.5073430133286
 31
0.0
  0
LINE
  5
48B
330
1F
100
AcDbEntity
  8
D-2
  6
Continuous
 62
     3
370
     9
100
AcDbLine
 10
-399.2811363537049
 20
-373.7573449206772
 30
0.0
 11
-399.2811363537049
 21
-361.2573449206772
 31
0.0
  0
LINE
  5
48C
330
1F
100
AcDbEntity
  8
D-2
  6
Continuous
 62
     3
370
     9
100
AcDbLine
 10
-399.2811363537049
 20
-361.2573449206772
 30
0.0
 11
-400.7811364133096
 21
-359.5073430133286
 31
0.0
  0
LINE
  5
48D
330
1F
100
AcDbEntity
  8
D-2
  6
Continuous
 62
     3
370
     9
100
AcDbLine
 10
-400.7811364133096
 20
-375.5073468280258
 30
0.0
 11
-399.2811363537049
 21
-373.7573449206772
 31
0.0
  0
LINE
  5
48E
330
1F
100
AcDbEntity
  8
D-2
  6
Continuous
 62
     3
370
     9
100
AcDbLine
 10
-400.7811364133096
 20
-375.5073468280258
 30
0.0
 11
-400.7811364133096
 21
-388.0073468280258
 31
0.0
  0
LINE
  5
48F
330
1F
100
AcDbEntity
  8
D-2
  6
Continuous
 62
     3
370
     9
100
AcDbLine
 10
-399.2811363537049
 20
-389.7573439670029
 30
0.0
 11
-400.7811364133096
 21
-388.0073468280258
 31
0.0
  0
LINE
  5
490
330
1F
100
AcDbEntity
  8
D-2
  6
Continuous
 62
     3
370
     9
100
AcDbLine
 10
-399.2811363537049
 20
-396.2573449206772
 30
0.0
 11
-399.2811363537049
 21
-389.7573439670029
 31
0.0
  0
ARC
  5
491
330
1F
100
AcDbEntity
  8
D-2
  6
Continuous
 62
     3
370
     9
100
AcDbCircle
 10
-429.2811363537049
 20
-351.2573449206772
 30
0.0
 40
15.0
100
AcDbArc
 50
0.0
 51
90.0
  0
CIRCLE
  5
492
330
1F
100
AcDbEntity
  8
D-5
  6
Continuous
 62
     7
370
     9
100
AcDbCircle
 10
-982.0359652836062
 20
-311.709161837143
 30
0.0
 40
60.0
  0
ARC
  5
493
330
1F
100
AcDbEntity
  8
D-2
  6
Continuous
 62
     3
370
     9
100
AcDbCircle
 10
-427.7310293514466
 20
-351.7173497271958
 30
0.0
 40
30.0
100
AcDbArc
 50
19.02577209472656
 51
75.01564025878906
  0
LWPOLYLINE
  5
494
330
1F
100
AcDbEntity
  8
D-4
  6
Continuous
 62
     7
370
     9
100
AcDbPolyline
 90
        4
 70
     1
 43
1.0
 10
-586.2812579471803
 20
-321.2573449206772
 42
0.4142135623731
 10
-586.7812579471803
 20
-320.7573449206773
 42
0.4142135623731
 10
-587.2812579471803
 20
-321.2573449206772
 42
0.4142135623731
 10
-586.7812579471803
 20
-321.7573449206772
 42
0.4142135623731
  0
LWPOLYLINE
  5
495
330
1F
100
AcDbEntity
  8
D-4
  6
Continuous
 62
     7
370
     9
100
AcDbPolyline
 90
        4
 70
     1
 43
1.0
 10
-586.2812579471803
 20
-396.2573449206772
 42
0.4142135623731
 10
-586.7812579471803
 20
-395.7573449206773
 42
0.4142135623731
 10
-587.2812579471803
 20
-396.2573449206772
 42
0.4142135623731
 10
-586.7812579471803
 20
-396.7573449206772
 42
0.4142135623731
  0
LWPOLYLINE
  5
496
330
1F
100
AcDbEntity
  8
D-4
  6
Continuous
 62
     7
370
     9
100
AcDbPolyline
 90
        4
 70
     1
 43
1.0
 10
-724.5203555423955
 20
-336.2573449206772
 42
0.4142135623731
 10
-725.0203555423955
 20
-335.7573449206773
 42
0.4142135623731
 10
-725.5203555423954
 20
-336.2573449206772
 42
0.4142135623731
 10
-725.0203555423955
 20
-336.7573449206772
 42
0.4142135623731
  0
LWPOLYLINE
  5
497
330
1F
100
AcDbEntity
  8
D-4
  6
Continuous
 62
     7
370
     9
100
AcDbPolyline
 90
        4
 70
     1
 43
1.0
 10
-724.5203555423955
 20
-321.2573449206772
 42
0.4142135623731
 10
-725.0203555423955
 20
-320.7573449206773
 42
0.4142135623731
 10
-725.5203555423954
 20
-321.2573449206772
 42
0.4142135623731
 10
-725.0203555423955
 20
-321.7573449206772
 42
0.4142135623731
  0
TEXT
  5
498
330
1F
100
AcDbEntity
  8
D-4
  6
Continuous
 62
     2
370
     9
100
AcDbText
 10
-736.6603784305793
 20
-307.3998672638432
 30
0.0
 40
30.48
  1
3
 50
90.00000250447685
 41
1.000000000000001
  7
ＭＳ ゴシック
100
AcDbText
  0
TEXT
  5
499
330
1F
100
AcDbEntity
  8
D-5
  6
Continuous
 62
     2
370
     9
100
AcDbText
 10
422.8906780879757
 20
-335.6172829318467
 30
0.0
 40
30.48
  1
仕　様
 41
1.083333333333333
  7
ＭＳ ゴシック
100
AcDbText
  0
TEXT
  5
49A
330
1F
100
AcDbEntity
  8
D-5
  6
Continuous
 62
     7
370
     9
100
AcDbText
 10
-265.8714907963014
 20
-48.66005442385104
 30
0.0
 40
22.86
  1
ノンスリップタイプ
 41
1.148148148148148
  7
ＭＳ ゴシック
100
AcDbText
  0
TEXT
  5
49B
330
1F
100
AcDbEntity
  8
D-5
  6
Continuous
 62
     2
370
     9
100
AcDbText
 10
537.1932751338741
 20
-528.5380678821033
 30
0.0
 40
30.48
  1
材質：ＳＵＳ３０４
 41
1.111111111111111
  7
ＭＳ ゴシック
100
AcDbText
  0
TEXT
  5
49C
330
1F
100
AcDbEntity
  8
D-5
  6
Continuous
 62
     2
370
     9
100
AcDbText
 10
-1063.533119519446
 20
-255.6027966189804
 30
0.0
 40
30.48
  1
Ａ
 41
0.9999999999999998
  7
ＭＳ ゴシック
100
AcDbText
  0
TEXT
  5
49D
330
1F
100
AcDbEntity
  8
D-5
  6
Continuous
 62
     2
370
     9
100
AcDbText
 10
-1362.382530530188
 20
-508.5139208484119
 30
0.0
 40
30.48
  1
3
 41
0.9999999999999998
  7
ＭＳ ゴシック
100
AcDbText
  0
TEXT
  5
49E
330
1F
100
AcDbEntity
  8
D-5
  6
Continuous
 62
     2
370
     9
100
AcDbText
 10
-1423.037666638586
 20
-510.8874064135974
 30
0.0
 40
30.48
  1
3
 41
0.9999999999999998
  7
ＭＳ ゴシック
100
AcDbText
  0
TEXT
  5
49F
330
1F
100
AcDbEntity
  8
D-5
  6
Continuous
 62
     2
370
     9
100
AcDbText
 10
-1723.343575452063
 20
-640.7707805309793
 30
0.0
 40
30.48
  1
3
 50
90.00000250447847
 41
1.000000000000001
  7
ＭＳ ゴシック
100
AcDbText
  0
TEXT
  5
4A0
330
1F
100
AcDbEntity
  8
D-5
  6
Continuous
 62
     2
370
     9
100
AcDbText
 10
-1687.620567639563
 20
-745.9604387927478
 30
0.0
 40
30.48
  1
Ａ部詳細図　Ｓ＝２：１
 41
1.113636363636364
  7
ＭＳ ゴシック
100
AcDbText
  0
TEXT
  5
4A1
330
1F
100
AcDbEntity
  8
D-5
  6
Continuous
 62
     7
370
     9
100
AcDbText
 10
-267.0764010746214
 20
-83.28753016237643
 30
0.0
 40
22.86
  1
ステンレス製排水用蓋ＳＧ－Ｂ－１５（ｔ＝３）
 41
1.159090909090908
  7
ＭＳ ゴシック
100
AcDbText
  0
TEXT
  5
4A2
330
1F
100
AcDbEntity
  8
D-5
  6
Continuous
 62
     2
370
     9
100
AcDbText
 10
537.1932751338741
 20
-587.7129488635486
 30
0.0
 40
30.48
  1
定尺：４９９
 41
1.104166666666667
  7
ＭＳ ゴシック
100
AcDbText
  0
TEXT
  5
4A3
330
1F
100
AcDbEntity
  8
D-5
  6
Continuous
 62
     2
370
     9
100
AcDbText
 10
-1204.348443005774
 20
-552.3072833691141
 30
0.0
 40
30.48
  1
0.3
 50
90.00000250447822
 41
1.083333333333339
  7
ＭＳ ゴシック
100
AcDbText
  0
TEXT
  5
4A4
330
1F
100
AcDbEntity
  8
D-4
  6
Continuous
 62
     2
370
     9
100
AcDbText
 10
-598.1391637968799
 20
-382.6917121771162
 30
0.0
 40
30.48
  1
15
 50
90.00000250000025
 41
1.062499999999999
  7
ＭＳ ゴシック
100
AcDbText
  0
TEXT
  5
4A5
330
1F
100
AcDbEntity
  8
F-4
  6
Continuous
 62
     2
370
     9
100
AcDbText
 10
-355.9443591532108
 20
-1376.97820239927
 30
0.0
 40
30.48
  1
ＳＧ－Ｂ－１５　１５０×５００×１５＋ＳＦ１５Ｂ
 41
0.7739583333333334
  7
ＭＳ ゴシック
100
AcDbText
  0
TEXT
  5
4A6
330
1F
100
AcDbEntity
  8
D-5
  6
Continuous
 62
     2
370
     9
100
AcDbText
 10
477.4808270137569
 20
-463.5379725146715
 30
0.0
 40
30.48
  1
ステンレス製排水用蓋　ＳＧ－Ｂ－１５　１５０×５００×１５
 41
1.120689655172413
  7
ＭＳ ゴシック
100
AcDbText
  0
TEXT
  5
4A7
330
1F
100
AcDbEntity
  8
D-4
  6
Continuous
 62
     2
370
     9
100
AcDbText
 10
-1096.948952038977
 20
-187.1979551959458
 30
0.0
 40
30.48
  1
100
 41
1.083333333333333
  7
ＭＳ ゴシック
100
AcDbText
  0
TEXT
  5
4A8
330
1F
100
AcDbEntity
  8
D-4
  6
Continuous
 62
     2
370
     9
100
AcDbText
 10
-1096.948952038977
 20
-78.4455328631821
 30
0.0
 40
30.48
  1
150
 41
1.083333333333333
  7
ＭＳ ゴシック
100
AcDbText
  0
TEXT
  5
4A9
330
1F
100
AcDbEntity
  8
D-4
  6
Continuous
 62
     2
370
     9
100
AcDbText
 10
-1096.948952038977
 20
32.25013440366361
 30
0.0
 40
30.48
  1
162
 41
1.083333333333333
  7
ＭＳ ゴシック
100
AcDbText
  0
TEXT
  5
4AA
330
1F
100
AcDbEntity
  8
D-5
  6
Continuous
 62
     2
370
     9
100
AcDbText
 10
477.4808270137569
 20
-398.5378866839829
 30
0.0
 40
30.48
  1
かさあげノンスリップタイプ
 41
1.115384615384615
  7
ＭＳ ゴシック
100
AcDbText
  0
TEXT
  5
4AB
330
1F
100
AcDbEntity
  8
F-4
  6
Continuous
 62
     2
370
     9
100
AcDbText
 10
-844.2379435023946
 20
-1324.955819364129
 30
0.0
 40
30.48
  1
ステンレス製　かさあげノンスリップタイプ排水ピット蓋（板厚３ｍｍ　高さ１５ｍｍ）
 41
0.7743749999999999
  7
ＭＳ ゴシック
100
AcDbText
  0
LINE
  5
4AC
330
1F
100
AcDbEntity
  8
D-2
  6
Continuous
 62
     3
370
     9
100
AcDbLine
 10
-1071.950783093665
 20
-302.4843506408158
 30
0.0
 11
-1071.950783093665
 21
-367.0208642514186
 31
0.0
  0
ENDSEC
  0
SECTION
  2
OBJECTS
  0
DICTIONARY
  5
C
330
0
100
AcDbDictionary
281
     1
  3
ACAD_GROUP
350
D
  3
ACAD_LAYOUT
350
1A
  3
ACAD_MLEADERSTYLE
350
4AE
  3
ACAD_MLINESTYLE
350
17
  3
ACAD_PLOTSETTINGS
350
19
  3
ACAD_PLOTSTYLENAME
350
E
  3
ACAD_TABLESTYLE
350
4AD
  3
ACAD_VISUALSTYLE
350
2A
  3
AcDbVariableDictionary
350
4AF
  0
DICTIONARY
  5
D
102
{ACAD_REACTORS
330
C
102
}
330
C
100
AcDbDictionary
281
     1
  0
DICTIONARY
  5
1A
102
{ACAD_REACTORS
330
C
102
}
330
C
100
AcDbDictionary
281
     1
  3
Layout1
350
1E
  3
Layout2
350
26
  3
Model
350
22
  0
DICTIONARY
  5
4AE
102
{ACAD_REACTORS
330
C
102
}
330
C
100
AcDbDictionary
281
     1
  0
DICTIONARY
  5
17
102
{ACAD_REACTORS
330
C
102
}
330
C
100
AcDbDictionary
281
     1
  3
Standard
350
18
  0
DICTIONARY
  5
19
102
{ACAD_REACTORS
330
C
102
}
330
C
100
AcDbDictionary
281
     1
  0
ACDBDICTIONARYWDFLT
  5
E
102
{ACAD_REACTORS
330
C
102
}
330
C
100
AcDbDictionary
281
     1
  3
Normal
350
F
100
AcDbDictionaryWithDefault
340
F
  0
DICTIONARY
  5
4AD
102
{ACAD_REACTORS
330
C
102
}
330
C
100
AcDbDictionary
281
     1
  0
DICTIONARY
  5
2A
102
{ACAD_REACTORS
330
C
102
}
330
C
100
AcDbDictionary
281
     1
  3
2dWireframe
350
2F
  3
3D Hidden
350
31
  3
3dWireframe
350
30
  3
Basic
350
32
  3
Brighten
350
36
  3
ColorChange
350
3A
  3
Conceptual
350
34
  3
Dim
350
35
  3
Facepattern
350
39
  3
Flat
350
2B
  3
FlatWithEdges
350
2C
  3
Gouraud
350
2D
  3
GouraudWithEdges
350
2E
  3
Linepattern
350
38
  3
Realistic
350
33
  3
Thicken
350
37
  0
DICTIONARY
  5
4AF
102
{ACAD_REACTORS
330
C
102
}
330
C
100
AcDbDictionary
281
     1
  3
PSOLHEIGHT
350
4B1
  3
PSOLWIDTH
350
4B0
  0
LAYOUT
  5
1E
102
{ACAD_REACTORS
330
1A
102
}
102
{ACAD_XDICTIONARY
360
4B2
102
}
330
1A
100
AcDbPlotSettings
  1

  2
none_device
  4

  6

 40
0.0
 41
0.0
 42
0.0
 43
0.0
 44
0.0
 45
0.0
 46
0.0
 47
0.0
 48
0.0
 49
0.0
140
0.0
141
0.0
142
1.0
143
1.0
 70
   688
 72
     0
 73
     0
 74
     5
  7

 75
    16
147
1.0
148
0.0
149
0.0
100
AcDbLayout
  1
Layout1
 70
     1
 71
     1
 10
0.0
 20
0.0
 11
420.0
 21
297.0
 12
0.0
 22
0.0
 32
0.0
 14
1.000000000000000E+20
 24
1.000000000000000E+20
 34
1.000000000000000E+20
 15
-1.000000000000000E+20
 25
-1.000000000000000E+20
 35
-1.000000000000000E+20
146
0.0
 13
0.0
 23
0.0
 33
0.0
 16
1.0
 26
0.0
 36
0.0
 17
0.0
 27
1.0
 37
0.0
 76
     0
330
1B
  0
LAYOUT
  5
26
102
{ACAD_REACTORS
330
1A
102
}
102
{ACAD_XDICTIONARY
360
4B6
102
}
330
1A
100
AcDbPlotSettings
  1

  2
none_device
  4

  6

 40
0.0
 41
0.0
 42
0.0
 43
0.0
 44
0.0
 45
0.0
 46
0.0
 47
0.0
 48
0.0
 49
0.0
140
0.0
141
0.0
142
1.0
143
1.0
 70
   688
 72
     0
 73
     0
 74
     5
  7

 75
    16
147
1.0
148
0.0
149
0.0
100
AcDbLayout
  1
Layout2
 70
     1
 71
     2
 10
0.0
 20
0.0
 11
0.0
 21
0.0
 12
0.0
 22
0.0
 32
0.0
 14
0.0
 24
0.0
 34
0.0
 15
0.0
 25
0.0
 35
0.0
146
0.0
 13
0.0
 23
0.0
 33
0.0
 16
1.0
 26
0.0
 36
0.0
 17
0.0
 27
1.0
 37
0.0
 76
     0
330
23
  0
LAYOUT
  5
22
102
{ACAD_REACTORS
330
1A
102
}
102
{ACAD_XDICTIONARY
360
4B4
102
}
330
1A
100
AcDbPlotSettings
  1

  2
none_device
  4

  6

 40
0.0
 41
0.0
 42
0.0
 43
0.0
 44
0.0
 45
0.0
 46
0.0
 47
0.0
 48
0.0
 49
0.0
140
0.0
141
0.0
142
1.0
143
1.0
 70
  1712
 72
     0
 73
     0
 74
     0
  7

 75
     0
147
1.0
148
0.0
149
0.0
100
AcDbLayout
  1
Model
 70
     1
 71
     0
 10
-2100.0
 20
-1485.0
 11
2100.0
 21
1485.0
 12
0.0
 22
0.0
 32
0.0
 14
-2100.0
 24
-1485.0
 34
0.0
 15
2100.0
 25
1485.0
 35
0.0
146
0.0
 13
0.0
 23
0.0
 33
0.0
 16
1.0
 26
0.0
 36
0.0
 17
0.0
 27
1.0
 37
0.0
 76
     0
330
1F
331
29
  0
MLINESTYLE
  5
18
102
{ACAD_REACTORS
330
17
102
}
330
17
100
AcDbMlineStyle
  2
Standard
 70
     0
  3

 62
   256
 51
90.0
 52
90.0
 71
     2
 49
0.5
 62
   256
  6
BYLAYER
 49
-0.5
 62
   256
  6
BYLAYER
  0
ACDBPLACEHOLDER
  5
F
102
{ACAD_REACTORS
330
E
102
}
330
E
  0
VISUALSTYLE
  5
2F
102
{ACAD_REACTORS
330
2A
102
}
330
2A
100
AcDbVisualStyle
  2
2dWireframe
 70
     4
 71
     0
 72
     2
 73
     0
 90
        0
 40
-0.6
 41
-30.0
 62
     5
 63
     7
 74
     1
 91
        4
 64
     7
 65
   257
 75
     1
175
     1
 42
1.0
 92
        0
 66
   257
 43
1.0
 76
     1
 77
     6
 78
     2
 67
     7
 79
     5
170
     0
171
     0
290
     0
174
     0
 93
        1
 44
0.0
173
     0
291
     0
 45
0.0
1001
ACAD
1000
AcDbSavedByObjectVersion
1070
     0
  0
VISUALSTYLE
  5
31
102
{ACAD_REACTORS
330
2A
102
}
330
2A
100
AcDbVisualStyle
  2
3D Hidden
 70
     6
 71
     1
 72
     2
 73
     2
 90
        0
 40
-0.6
 41
-30.0
 62
     5
 63
     7
 74
     2
 91
        2
 64
     7
 65
   257
 75
     2
175
     1
 42
40.0
 92
        0
 66
   257
 43
1.0
 76
     1
 77
     6
 78
     2
 67
     7
 79
     3
170
     0
171
     0
290
     0
174
     0
 93
        1
 44
0.0
173
     0
291
     0
 45
0.0
1001
ACAD
1000
AcDbSavedByObjectVersion
1070
     0
  0
VISUALSTYLE
  5
30
102
{ACAD_REACTORS
330
2A
102
}
330
2A
100
AcDbVisualStyle
  2
3dWireframe
 70
     5
 71
     0
 72
     2
 73
     0
 90
        0
 40
-0.6
 41
-30.0
 62
     5
 63
     7
 74
     1
 91
        4
 64
     7
 65
   257
 75
     1
175
     1
 42
1.0
 92
        0
 66
   257
 43
1.0
 76
     1
 77
     6
 78
     2
 67
     7
 79
     5
170
     0
171
     0
290
     0
174
     0
 93
        1
 44
0.0
173
     0
291
     0
 45
0.0
1001
ACAD
1000
AcDbSavedByObjectVersion
1070
     0
  0
VISUALSTYLE
  5
32
102
{ACAD_REACTORS
330
2A
102
}
330
2A
100
AcDbVisualStyle
  2
Basic
 70
     7
 71
     1
 72
     0
 73
     1
 90
        0
 40
-0.6
 41
-30.0
 62
     5
 63
     7
 74
     0
 91
        4
 64
     7
 65
   257
 75
     1
175
     1
 42
1.0
 92
        8
 66
     7
 43
1.0
 76
     1
 77
     6
 78
     2
 67
     7
 79
     5
170
     0
171
     0
290
     0
174
     0
 93
        1
 44
0.0
173
     0
291
     1
 45
0.0
1001
ACAD
1000
AcDbSavedByObjectVersion
1070
     0
  0
VISUALSTYLE
  5
36
102
{ACAD_REACTORS
330
2A
102
}
330
2A
100
AcDbVisualStyle
  2
Brighten
 70
    12
 71
     2
 72
     2
 73
     0
 90
        0
 40
-0.6
 41
-30.0
 62
     5
 63
     7
 74
     1
 91
        4
 64
     7
 65
   257
 75
     1
175
     1
 42
1.0
 92
        8
 66
     7
 43
1.0
 76
     1
 77
     6
 78
     2
 67
     7
 79
     5
170
     0
171
     0
290
     0
174
     0
 93
        1
 44
50.0
173
     0
291
     1
 45
0.0
1001
ACAD
1000
AcDbSavedByObjectVersion
1070
     0
  0
VISUALSTYLE
  5
3A
102
{ACAD_REACTORS
330
2A
102
}
330
2A
100
AcDbVisualStyle
  2
ColorChange
 70
    16
 71
     2
 72
     2
 73
     3
 90
        0
 40
-0.6
 41
-30.0
 62
     5
 63
     8
 74
     1
 91
        4
 64
     7
 65
   257
 75
     1
175
     1
 42
1.0
 92
        8
 66
     8
 43
1.0
 76
     1
 77
     6
 78
     2
 67
     7
 79
     5
170
     0
171
     0
290
     0
174
     0
 93
        1
 44
0.0
173
     0
291
     1
 45
0.0
1001
ACAD
1000
AcDbSavedByObjectVersion
1070
     0
  0
VISUALSTYLE
  5
34
102
{ACAD_REACTORS
330
2A
102
}
330
2A
100
AcDbVisualStyle
  2
Conceptual
 70
     9
 71
     3
 72
     2
 73
     0
 90
        0
 40
-0.6
 41
-30.0
 62
     5
 63
     7
 74
     2
 91
        2
 64
     7
 65
   257
 75
     1
175
     1
 42
40.0
 92
        8
 66
     7
 43
1.0
 76
     1
 77
     6
 78
     2
 67
     7
 79
     3
170
     0
171
     0
290
     0
174
     0
 93
        1
 44
0.0
173
     0
291
     0
 45
0.0
1001
ACAD
1000
AcDbSavedByObjectVersion
1070
     0
  0
VISUALSTYLE
  5
35
102
{ACAD_REACTORS
330
2A
102
}
330
2A
100
AcDbVisualStyle
  2
Dim
 70
    11
 71
     2
 72
     2
 73
     0
 90
        0
 40
-0.6
 41
-30.0
 62
     5
 63
     7
 74
     1
 91
        4
 64
     7
 65
   257
 75
     1
175
     1
 42
1.0
 92
        8
 66
     7
 43
1.0
 76
     1
 77
     6
 78
     2
 67
     7
 79
     5
170
     0
171
     0
290
     0
174
     0
 93
        1
 44
-50.0
173
     0
291
     1
 45
0.0
1001
ACAD
1000
AcDbSavedByObjectVersion
1070
     0
  0
VISUALSTYLE
  5
39
102
{ACAD_REACTORS
330
2A
102
}
330
2A
100
AcDbVisualStyle
  2
Facepattern
 70
    15
 71
     2
 72
     2
 73
     0
 90
        0
 40
-0.6
 41
-30.0
 62
     5
 63
     7
 74
     1
 91
        4
 64
     7
 65
   257
 75
     1
175
     1
 42
1.0
 92
        8
 66
     7
 43
1.0
 76
     1
 77
     6
 78
     2
 67
     7
 79
     5
170
     0
171
     0
290
     0
174
     0
 93
        1
 44
0.0
173
     0
291
     1
 45
0.0
1001
ACAD
1000
AcDbSavedByObjectVersion
1070
     0
  0
VISUALSTYLE
  5
2B
102
{ACAD_REACTORS
330
2A
102
}
330
2A
100
AcDbVisualStyle
  2
Flat
 70
     0
 71
     2
 72
     1
 73
     1
 90
        2
 40
-0.6
 41
30.0
 62
     5
 63
     7
 74
     0
 91
        4
 64
     7
 65
   257
 75
     1
175
     1
 42
1.0
 92
        8
 66
     7
 43
1.0
 76
     1
 77
     6
 78
     2
 67
     7
 79
     5
170
     0
171
     0
290
     0
174
     0
 93
       13
 44
0.0
173
     0
291
     1
 45
0.0
1001
ACAD
1000
AcDbSavedByObjectVersion
1070
     0
  0
VISUALSTYLE
  5
2C
102
{ACAD_REACTORS
330
2A
102
}
330
2A
100
AcDbVisualStyle
  2
FlatWithEdges
 70
     1
 71
     2
 72
     1
 73
     1
 90
        2
 40
-0.6
 41
30.0
 62
     5
 63
     7
 74
     1
 91
        4
 64
     7
 65
   257
 75
     1
175
     1
 42
1.0
 92
        0
 66
   257
 43
1.0
 76
     1
 77
     6
 78
     2
 67
     7
 79
     5
170
     0
171
     0
290
     0
174
     0
 93
       13
 44
0.0
173
     0
291
     1
 45
0.0
1001
ACAD
1000
AcDbSavedByObjectVersion
1070
     0
  0
VISUALSTYLE
  5
2D
102
{ACAD_REACTORS
330
2A
102
}
330
2A
100
AcDbVisualStyle
  2
Gouraud
 70
     2
 71
     2
 72
     2
 73
     1
 90
        2
 40
-0.6
 41
30.0
 62
     5
 63
     7
 74
     0
 91
        4
 64
     7
 65
   257
 75
     1
175
     1
 42
1.0
 92
        0
 66
     7
 43
1.0
 76
     1
 77
     6
 78
     2
 67
     7
 79
     5
170
     0
171
     0
290
     0
174
     0
 93
       13
 44
0.0
173
     0
291
     1
 45
0.0
1001
ACAD
1000
AcDbSavedByObjectVersion
1070
     0
  0
VISUALSTYLE
  5
2E
102
{ACAD_REACTORS
330
2A
102
}
330
2A
100
AcDbVisualStyle
  2
GouraudWithEdges
 70
     3
 71
     2
 72
     2
 73
     1
 90
        2
 40
-0.6
 41
30.0
 62
     5
 63
     7
 74
     1
 91
        4
 64
     7
 65
   257
 75
     1
175
     1
 42
1.0
 92
        0
 66
   257
 43
1.0
 76
     1
 77
     6
 78
     2
 67
     7
 79
     5
170
     0
171
     0
290
     0
174
     0
 93
       13
 44
0.0
173
     0
291
     1
 45
0.0
1001
ACAD
1000
AcDbSavedByObjectVersion
1070
     0
  0
VISUALSTYLE
  5
38
102
{ACAD_REACTORS
330
2A
102
}
330
2A
100
AcDbVisualStyle
  2
Linepattern
 70
    14
 71
     2
 72
     2
 73
     0
 90
        0
 40
-0.6
 41
-30.0
 62
     5
 63
     7
 74
     1
 91
        4
 64
     7
 65
   257
 75
     7
175
     7
 42
1.0
 92
        8
 66
     7
 43
1.0
 76
     1
 77
     6
 78
     2
 67
     7
 79
     5
170
     0
171
     0
290
     0
174
     0
 93
        1
 44
0.0
173
     0
291
     1
 45
0.0
1001
ACAD
1000
AcDbSavedByObjectVersion
1070
     0
  0
VISUALSTYLE
  5
33
102
{ACAD_REACTORS
330
2A
102
}
330
2A
100
AcDbVisualStyle
  2
Realistic
 70
     8
 71
     2
 72
     2
 73
     0
 90
        0
 40
-0.6
 41
-30.0
 62
     5
 63
     7
 74
     1
 91
        0
 64
     7
 65
   257
 75
     1
175
     1
 42
1.0
 92
        8
 66
     8
 43
1.0
 76
     1
 77
     6
 78
     2
 67
     7
 79
     5
170
     0
171
     0
290
     0
174
     0
 93
       13
 44
0.0
173
     0
291
     0
 45
0.0
1001
ACAD
1000
AcDbSavedByObjectVersion
1070
     0
  0
VISUALSTYLE
  5
37
102
{ACAD_REACTORS
330
2A
102
}
330
2A
100
AcDbVisualStyle
  2
Thicken
 70
    13
 71
     2
 72
     2
 73
     0
 90
        0
 40
-0.6
 41
-30.0
 62
     5
 63
     7
 74
     1
 91
        4
 64
     7
 65
   257
 75
     1
175
     1
 42
1.0
 92
       12
 66
     7
 43
1.0
 76
     1
 77
     6
 78
     2
 67
     7
 79
     5
170
     0
171
     0
290
     0
174
     0
 93
        1
 44
0.0
173
     0
291
     1
 45
0.0
1001
ACAD
1000
AcDbSavedByObjectVersion
1070
     0
  0
DICTIONARYVAR
  5
4B1
102
{ACAD_REACTORS
330
4AF
102
}
330
4AF
100
DictionaryVariables
280
     0
  1
80.000000
  0
DICTIONARYVAR
  5
4B0
102
{ACAD_REACTORS
330
4AF
102
}
330
4AF
100
DictionaryVariables
280
     0
  1
5.000000
  0
DICTIONARY
  5
4B2
330
1E
100
AcDbDictionary
280
     1
281
     1
  3
ACAD_XREC_ROUNDTRIP
360
4B3
  0
DICTIONARY
  5
4B6
330
26
100
AcDbDictionary
280
     1
281
     1
  3
ACAD_XREC_ROUNDTRIP
360
4B7
  0
DICTIONARY
  5
4B4
330
22
100
AcDbDictionary
280
     1
281
     1
  3
ACAD_XREC_ROUNDTRIP
360
4B5
  0
XRECORD
  5
4B3
102
{ACAD_REACTORS
330
4B2
102
}
330
4B2
100
AcDbXrecord
280
     1
102
SHADEPLOT
 70
     0
102
SHADEPLOTRESLEVEL
 70
     5
102
SHADEPLOTCUSTOMDPI
 70
   300
  0
XRECORD
  5
4B7
102
{ACAD_REACTORS
330
4B6
102
}
330
4B6
100
AcDbXrecord
280
     1
102
SHADEPLOT
 70
     0
102
SHADEPLOTRESLEVEL
 70
     5
102
SHADEPLOTCUSTOMDPI
 70
   300
  0
XRECORD
  5
4B5
102
{ACAD_REACTORS
330
4B4
102
}
330
4B4
100
AcDbXrecord
280
     1
102
SHADEPLOT
 70
     0
102
SHADEPLOTRESLEVEL
 70
     5
102
SHADEPLOTCUSTOMDPI
 70
   300
  0
ENDSEC
  0
EOF
