  0
SECTION
  2
HEADER
  9
$ACADVER
  1
AC1018
  9
$ACADMAINTVER
 70
     0
  9
$DWGCODEPAGE
  3
ANSI_932
  9
$INSBASE
 10
0.0
 20
0.0
 30
0.0
  9
$EXTMIN
 10
-3150.0
 20
-2227.5
 30
0.0
  9
$EXTMAX
 10
3150.0
 20
2227.5
 30
0.0
  9
$LIMMIN
 10
-3150.0
 20
-2227.5
  9
$LIMMAX
 10
3150.0
 20
2227.5
  9
$ORTHOMODE
 70
     0
  9
$REGENMODE
 70
     1
  9
$FILLMODE
 70
     1
  9
$QTEXTMODE
 70
     0
  9
$MIRRTEXT
 70
     1
  9
$LTSCALE
 40
15.0
  9
$ATTMODE
 70
     1
  9
$TEXTSIZE
 40
2.5
  9
$TRACEWID
 40
1.0
  9
$TEXTSTYLE
  7
Standard
  9
$CLAYER
  8
0
  9
$CELTYPE
  6
ByLayer
  9
$CECOLOR
 62
   256
  9
$CELTSCALE
 40
1.0
  9
$DISPSILH
 70
     0
  9
$DIMSCALE
 40
1.0
  9
$DIMASZ
 40
2.5
  9
$DIMEXO
 40
0.625
  9
$DIMDLI
 40
3.75
  9
$DIMRND
 40
0.0
  9
$DIMDLE
 40
0.0
  9
$DIMEXE
 40
1.25
  9
$DIMTP
 40
0.0
  9
$DIMTM
 40
0.0
  9
$DIMTXT
 40
2.5
  9
$DIMCEN
 40
2.5
  9
$DIMTSZ
 40
0.0
  9
$DIMTOL
 70
     0
  9
$DIMLIM
 70
     0
  9
$DIMTIH
 70
     0
  9
$DIMTOH
 70
     0
  9
$DIMSE1
 70
     0
  9
$DIMSE2
 70
     0
  9
$DIMTAD
 70
     1
  9
$DIMZIN
 70
     8
  9
$DIMBLK
  1

  9
$DIMASO
 70
     1
  9
$DIMSHO
 70
     1
  9
$DIMPOST
  1

  9
$DIMAPOST
  1

  9
$DIMALT
 70
     0
  9
$DIMALTD
 70
     3
  9
$DIMALTF
 40
0.03937007874016
  9
$DIMLFAC
 40
1.0
  9
$DIMTOFL
 70
     1
  9
$DIMTVP
 40
0.0
  9
$DIMTIX
 70
     0
  9
$DIMSOXD
 70
     0
  9
$DIMSAH
 70
     0
  9
$DIMBLK1
  1

  9
$DIMBLK2
  1

  9
$DIMSTYLE
  2
ISO-25
  9
$DIMCLRD
 70
     0
  9
$DIMCLRE
 70
     0
  9
$DIMCLRT
 70
     0
  9
$DIMTFAC
 40
1.0
  9
$DIMGAP
 40
0.625
  9
$DIMJUST
 70
     0
  9
$DIMSD1
 70
     0
  9
$DIMSD2
 70
     0
  9
$DIMTOLJ
 70
     0
  9
$DIMTZIN
 70
     8
  9
$DIMALTZ
 70
     0
  9
$DIMALTTZ
 70
     0
  9
$DIMUPT
 70
     0
  9
$DIMDEC
 70
     2
  9
$DIMTDEC
 70
     2
  9
$DIMALTU
 70
     2
  9
$DIMALTTD
 70
     3
  9
$DIMTXSTY
  7
Standard
  9
$DIMAUNIT
 70
     0
  9
$DIMADEC
 70
     0
  9
$DIMALTRND
 40
0.0
  9
$DIMAZIN
 70
     0
  9
$DIMDSEP
 70
    44
  9
$DIMATFIT
 70
     3
  9
$DIMFRAC
 70
     0
  9
$DIMLDRBLK
  1

  9
$DIMLUNIT
 70
     2
  9
$DIMLWD
 70
    -2
  9
$DIMLWE
 70
    -2
  9
$DIMTMOVE
 70
     0
  9
$LUNITS
 70
     2
  9
$LUPREC
 70
     4
  9
$SKETCHINC
 40
1.0
  9
$FILLETRAD
 40
10.0
  9
$AUNITS
 70
     0
  9
$AUPREC
 70
     0
  9
$MENU
  1
.
  9
$ELEVATION
 40
0.0
  9
$PELEVATION
 40
0.0
  9
$THICKNESS
 40
0.0
  9
$LIMCHECK
 70
     0
  9
$CHAMFERA
 40
10.0
  9
$CHAMFERB
 40
10.0
  9
$CHAMFERC
 40
20.0
  9
$CHAMFERD
 40
0.0
  9
$SKPOLY
 70
     0
  9
$TDCREATE
 40
2456499.584814664
  9
$TDUCREATE
 40
2456499.209814664
  9
$TDUPDATE
 40
2456499.584814676
  9
$TDUUPDATE
 40
2456499.209814676
  9
$TDINDWG
 40
0.0000000116
  9
$TDUSRTIMER
 40
0.0000000116
  9
$USRTIMER
 70
     1
  9
$ANGBASE
 50
0.0
  9
$ANGDIR
 70
     0
  9
$PDMODE
 70
     0
  9
$PDSIZE
 40
0.0
  9
$PLINEWID
 40
0.0
  9
$SPLFRAME
 70
     0
  9
$SPLINETYPE
 70
     6
  9
$SPLINESEGS
 70
     8
  9
$HANDSEED
  5
401
  9
$SURFTAB1
 70
     6
  9
$SURFTAB2
 70
     6
  9
$SURFTYPE
 70
     6
  9
$SURFU
 70
     6
  9
$SURFV
 70
     6
  9
$UCSBASE
  2

  9
$UCSNAME
  2

  9
$UCSORG
 10
0.0
 20
0.0
 30
0.0
  9
$UCSXDIR
 10
1.0
 20
0.0
 30
0.0
  9
$UCSYDIR
 10
0.0
 20
1.0
 30
0.0
  9
$UCSORTHOREF
  2

  9
$UCSORTHOVIEW
 70
     0
  9
$UCSORGTOP
 10
0.0
 20
0.0
 30
0.0
  9
$UCSORGBOTTOM
 10
0.0
 20
0.0
 30
0.0
  9
$UCSORGLEFT
 10
0.0
 20
0.0
 30
0.0
  9
$UCSORGRIGHT
 10
0.0
 20
0.0
 30
0.0
  9
$UCSORGFRONT
 10
0.0
 20
0.0
 30
0.0
  9
$UCSORGBACK
 10
0.0
 20
0.0
 30
0.0
  9
$PUCSBASE
  2

  9
$PUCSNAME
  2

  9
$PUCSORG
 10
0.0
 20
0.0
 30
0.0
  9
$PUCSXDIR
 10
1.0
 20
0.0
 30
0.0
  9
$PUCSYDIR
 10
0.0
 20
1.0
 30
0.0
  9
$PUCSORTHOREF
  2

  9
$PUCSORTHOVIEW
 70
     0
  9
$PUCSORGTOP
 10
0.0
 20
0.0
 30
0.0
  9
$PUCSORGBOTTOM
 10
0.0
 20
0.0
 30
0.0
  9
$PUCSORGLEFT
 10
0.0
 20
0.0
 30
0.0
  9
$PUCSORGRIGHT
 10
0.0
 20
0.0
 30
0.0
  9
$PUCSORGFRONT
 10
0.0
 20
0.0
 30
0.0
  9
$PUCSORGBACK
 10
0.0
 20
0.0
 30
0.0
  9
$USERI1
 70
     0
  9
$USERI2
 70
     0
  9
$USERI3
 70
     0
  9
$USERI4
 70
     0
  9
$USERI5
 70
     0
  9
$USERR1
 40
0.0
  9
$USERR2
 40
0.0
  9
$USERR3
 40
0.0
  9
$USERR4
 40
0.0
  9
$USERR5
 40
0.0
  9
$WORLDVIEW
 70
     1
  9
$SHADEDGE
 70
     3
  9
$SHADEDIF
 70
    70
  9
$TILEMODE
 70
     1
  9
$MAXACTVP
 70
    64
  9
$PINSBASE
 10
0.0
 20
0.0
 30
0.0
  9
$PLIMCHECK
 70
     0
  9
$PEXTMIN
 10
1.000000000000000E+20
 20
1.000000000000000E+20
 30
1.000000000000000E+20
  9
$PEXTMAX
 10
-1.000000000000000E+20
 20
-1.000000000000000E+20
 30
-1.000000000000000E+20
  9
$PLIMMIN
 10
0.0
 20
0.0
  9
$PLIMMAX
 10
420.0
 20
297.0
  9
$UNITMODE
 70
     0
  9
$VISRETAIN
 70
     1
  9
$PLINEGEN
 70
     0
  9
$PSLTSCALE
 70
     1
  9
$TREEDEPTH
 70
  3020
  9
$CMLSTYLE
  2
Standard
  9
$CMLJUST
 70
     0
  9
$CMLSCALE
 40
20.0
  9
$PROXYGRAPHICS
 70
     1
  9
$MEASUREMENT
 70
     1
  9
$CELWEIGHT
370
    -1
  9
$ENDCAPS
280
     0
  9
$JOINSTYLE
280
     0
  9
$LWDISPLAY
290
     0
  9
$INSUNITS
 70
     4
  9
$HYPERLINKBASE
  1

  9
$STYLESHEET
  1

  9
$XEDIT
290
     1
  9
$CEPSNTYPE
380
     0
  9
$PSTYLEMODE
290
     1
  9
$FINGERPRINTGUID
  2
{EDD4F9FB-0E09-4C5B-B3E6-4EB31F29D216}
  9
$VERSIONGUID
  2
{FAEB1C32-E019-11D5-929B-00C0DF256EC4}
  9
$EXTNAMES
290
     1
  9
$PSVPSCALE
 40
0.0
  9
$OLESTARTUP
290
     0
  9
$SORTENTS
280
   127
  9
$INDEXCTL
280
     0
  9
$HIDETEXT
280
     1
  9
$XCLIPFRAME
290
     0
  9
$HALOGAP
280
     0
  9
$OBSCOLOR
 70
   257
  9
$OBSLTYPE
280
     0
  9
$INTERSECTIONDISPLAY
280
     0
  9
$INTERSECTIONCOLOR
 70
   257
  9
$DIMASSOC
280
     2
  9
$PROJECTNAME
  1

  0
ENDSEC
  0
SECTION
  2
CLASSES
  0
CLASS
  1
ACDBDICTIONARYWDFLT
  2
AcDbDictionaryWithDefault
  3
ObjectDBX Classes
 90
        0
 91
        4
280
     0
281
     0
  0
CLASS
  1
VISUALSTYLE
  2
AcDbVisualStyle
  3
ObjectDBX Classes
 90
     4095
 91
        4
280
     0
281
     0
  0
ENDSEC
  0
SECTION
  2
TABLES
  0
TABLE
  2
VPORT
  5
8
330
0
100
AcDbSymbolTable
 70
     1
  0
VPORT
  5
29
330
8
100
AcDbSymbolTableRecord
100
AcDbViewportTableRecord
  2
*Active
 70
     0
 10
0.0
 20
0.0
 11
1.0
 21
1.0
 12
0.0
 22
0.0
 13
0.0
 23
0.0
 14
10.0
 24
10.0
 15
10.0
 25
10.0
 16
0.0
 26
0.0
 36
1.0
 17
0.0
 27
0.0
 37
0.0
 40
4900.5
 41
1.414141414141414
 42
50.0
 43
0.0
 44
0.0
 50
0.0
 51
0.0
 71
     0
 72
 10000
 73
     1
 74
     3
 75
     0
 76
     0
 77
     0
 78
     0
281
     0
 65
     1
110
0.0
120
0.0
130
0.0
111
1.0
121
0.0
131
0.0
112
0.0
122
1.0
132
0.0
 79
     0
146
0.0
  0
ENDTAB
  0
TABLE
  2
LTYPE
  5
5
330
0
100
AcDbSymbolTable
 70
     6
  0
LTYPE
  5
14
330
5
100
AcDbSymbolTableRecord
100
AcDbLinetypeTableRecord
  2
ByBlock
 70
     0
  3

 72
    65
 73
     0
 40
0.0
  0
LTYPE
  5
15
330
5
100
AcDbSymbolTableRecord
100
AcDbLinetypeTableRecord
  2
ByLayer
 70
     0
  3

 72
    65
 73
     0
 40
0.0
  0
LTYPE
  5
16
330
5
100
AcDbSymbolTableRecord
100
AcDbLinetypeTableRecord
  2
Continuous
 70
     0
  3
Solid line
 72
    65
 73
     0
 40
0.0
  0
LTYPE
  5
3C
330
5
100
AcDbSymbolTableRecord
100
AcDbLinetypeTableRecord
  2
JWW_CENTER2
 70
     0
  3
-------------  --  -------------
 72
    65
 73
     4
 40
13.54666666666667
 49
11.00666666666667
 74
     0
 49
-0.8466666666666667
 74
     0
 49
0.8466666666666667
 74
     0
 49
-0.8466666666666667
 74
     0
  0
LTYPE
  5
3D
330
5
100
AcDbSymbolTableRecord
100
AcDbLinetypeTableRecord
  2
JWW_DASHED1
 70
     0
  3
-  --  --  --  --  --  --  --  -
 72
    65
 73
     2
 40
0.6773333333333333
 49
0.3386666666666667
 74
     0
 49
-0.3386666666666667
 74
     0
  0
LTYPE
  5
3E
330
5
100
AcDbSymbolTableRecord
100
AcDbLinetypeTableRecord
  2
JWW_CENTER1
 70
     0
  3
-----  --  ----------  --  -----
 72
    65
 73
     4
 40
6.773333333333333
 49
4.233333333333333
 74
     0
 49
-0.8466666666666667
 74
     0
 49
0.8466666666666667
 74
     0
 49
-0.8466666666666667
 74
     0
  0
LTYPE
  5
3F
330
5
100
AcDbSymbolTableRecord
100
AcDbLinetypeTableRecord
  2
JWW_DASHED3
 70
     0
  3
---  ------  ------  ------  ---
 72
    65
 73
     2
 40
3.386666666666667
 49
2.54
 74
     0
 49
-0.8466666666666667
 74
     0
  0
LTYPE
  5
40
330
5
100
AcDbSymbolTableRecord
100
AcDbLinetypeTableRecord
  2
JWW_DASHED2
 70
     0
  3
--    ----    ----    ----    --
 72
    65
 73
     2
 40
1.354666666666667
 49
0.6773333333333333
 74
     0
 49
-0.6773333333333333
 74
     0
  0
ENDTAB
  0
TABLE
  2
LAYER
  5
2
330
0
100
AcDbSymbolTable
 70
    11
  0
LAYER
  5
10
330
2
100
AcDbSymbolTableRecord
100
AcDbLayerTableRecord
  2
0
 70
     0
 62
     7
  6
Continuous
370
    -3
390
F
  0
LAYER
  5
41
330
2
100
AcDbSymbolTableRecord
100
AcDbLayerTableRecord
  2
3-4
 70
     0
 62
     7
  6
Continuous
370
    -3
390
F
  0
LAYER
  5
42
330
2
100
AcDbSymbolTableRecord
100
AcDbLayerTableRecord
  2
F-Eﾚｲﾔ
 70
     0
 62
     7
  6
Continuous
370
    -3
390
F
  0
LAYER
  5
43
330
2
100
AcDbSymbolTableRecord
100
AcDbLayerTableRecord
  2
3-0
 70
     0
 62
     7
  6
Continuous
370
    -3
390
F
  0
LAYER
  5
44
330
2
100
AcDbSymbolTableRecord
100
AcDbLayerTableRecord
  2
3-5
 70
     0
 62
     7
  6
Continuous
370
    -3
390
F
  0
LAYER
  5
45
330
2
100
AcDbSymbolTableRecord
100
AcDbLayerTableRecord
  2
3-6
 70
     0
 62
     7
  6
Continuous
370
    -3
390
F
  0
LAYER
  5
46
330
2
100
AcDbSymbolTableRecord
100
AcDbLayerTableRecord
  2
3-1
 70
     0
 62
     7
  6
Continuous
370
    -3
390
F
  0
LAYER
  5
47
330
2
100
AcDbSymbolTableRecord
100
AcDbLayerTableRecord
  2
3-2
 70
     0
 62
     7
  6
Continuous
370
    -3
390
F
  0
LAYER
  5
48
330
2
100
AcDbSymbolTableRecord
100
AcDbLayerTableRecord
  2
3-3
 70
     0
 62
     7
  6
Continuous
370
    -3
390
F
  0
LAYER
  5
49
330
2
100
AcDbSymbolTableRecord
100
AcDbLayerTableRecord
  2
C-4
 70
     0
 62
     7
  6
Continuous
370
    -3
390
F
  0
LAYER
  5
4A
330
2
100
AcDbSymbolTableRecord
100
AcDbLayerTableRecord
  2
C-0
 70
     0
 62
     7
  6
Continuous
370
    -3
390
F
  0
ENDTAB
  0
TABLE
  2
STYLE
  5
3
330
0
100
AcDbSymbolTable
 70
     2
  0
STYLE
  5
11
330
3
100
AcDbSymbolTableRecord
100
AcDbTextStyleTableRecord
  2
Standard
 70
     0
 40
0.0
 41
1.0
 50
0.0
 71
     0
 42
2.5
  3
txt
  4

1001
ACAD
1000

1071
        0
  0
STYLE
  5
3B
330
3
100
AcDbSymbolTableRecord
100
AcDbTextStyleTableRecord
  2
ＭＳ ゴシック
 70
     0
 40
1.0
 41
1.0
 50
0.0
 71
     0
 42
10.0
  3

  4

1001
ACAD
1000
MS Gothic
1071
    32817
  0
ENDTAB
  0
TABLE
  2
VIEW
  5
6
330
0
100
AcDbSymbolTable
 70
     0
  0
ENDTAB
  0
TABLE
  2
UCS
  5
7
330
0
100
AcDbSymbolTable
 70
     0
  0
ENDTAB
  0
TABLE
  2
APPID
  5
9
330
0
100
AcDbSymbolTable
 70
     1
  0
APPID
  5
12
330
9
100
AcDbSymbolTableRecord
100
AcDbRegAppTableRecord
  2
ACAD
 70
     0
  0
ENDTAB
  0
TABLE
  2
DIMSTYLE
  5
A
330
0
100
AcDbSymbolTable
 70
     1
100
AcDbDimStyleTable
  0
DIMSTYLE
105
27
330
A
100
AcDbSymbolTableRecord
100
AcDbDimStyleTableRecord
  2
ISO-25
 70
     0
 41
2.5
 42
0.625
 43
3.75
 44
1.25
 73
     0
 74
     0
 77
     1
 78
     8
140
2.5
141
2.5
143
0.03937007874016
147
0.625
171
     3
172
     1
271
     2
272
     2
274
     3
278
    44
283
     0
284
     8
340
11
  0
ENDTAB
  0
TABLE
  2
BLOCK_RECORD
  5
1
330
0
100
AcDbSymbolTable
 70
     1
  0
BLOCK_RECORD
  5
1F
330
1
100
AcDbSymbolTableRecord
100
AcDbBlockTableRecord
  2
*Model_Space
340
22
  0
BLOCK_RECORD
  5
1B
330
1
100
AcDbSymbolTableRecord
100
AcDbBlockTableRecord
  2
*Paper_Space
340
1E
  0
BLOCK_RECORD
  5
23
330
1
100
AcDbSymbolTableRecord
100
AcDbBlockTableRecord
  2
*Paper_Space0
340
26
  0
ENDTAB
  0
ENDSEC
  0
SECTION
  2
BLOCKS
  0
BLOCK
  5
20
330
1F
100
AcDbEntity
  8
0
100
AcDbBlockBegin
  2
*Model_Space
 70
     0
 10
0.0
 20
0.0
 30
0.0
  3
*Model_Space
  1

  0
ENDBLK
  5
21
330
1F
100
AcDbEntity
  8
0
100
AcDbBlockEnd
  0
BLOCK
  5
1C
330
1B
100
AcDbEntity
 67
     1
  8
0
100
AcDbBlockBegin
  2
*Paper_Space
 70
     0
 10
0.0
 20
0.0
 30
0.0
  3
*Paper_Space
  1

  0
ENDBLK
  5
1D
330
1B
100
AcDbEntity
 67
     1
  8
0
100
AcDbBlockEnd
  0
BLOCK
  5
24
330
23
100
AcDbEntity
  8
0
100
AcDbBlockBegin
  2
*Paper_Space0
 70
     0
 10
0.0
 20
0.0
 30
0.0
  3
*Paper_Space0
  1

  0
ENDBLK
  5
25
330
23
100
AcDbEntity
  8
0
100
AcDbBlockEnd
  0
ENDSEC
  0
SECTION
  2
ENTITIES
  0
LINE
  5
4B
330
1F
100
AcDbEntity
  8
3-4
  6
Continuous
 62
     7
370
     9
100
AcDbLine
 10
1330.725738757323
 20
-774.1733052281133
 30
0.0
 11
1425.726009762843
 21
-774.1733052281133
 31
0.0
  0
TEXT
  5
4C
330
1F
100
AcDbEntity
  8
F-Eﾚｲﾔ
  6
Continuous
 62
     7
370
     9
100
AcDbText
 10
-1077.068913439509
 20
-1987.413327781658
 30
0.0
 40
45.72
  1
角型用　インターロッキングブロック用
 41
1.118055555555556
  7
ＭＳ ゴシック
100
AcDbText
  0
LINE
  5
4D
330
1F
100
AcDbEntity
  8
3-0
  6
JWW_CENTER2
 62
     4
370
     9
100
AcDbLine
 10
817.1767319441692
 20
1612.946060465085
 30
0.0
 11
817.1767319441692
 21
1732.945342889599
 31
0.0
  0
LINE
  5
4E
330
1F
100
AcDbEntity
  8
3-0
  6
JWW_CENTER2
 62
     4
370
     9
100
AcDbLine
 10
877.176187576559
 20
1672.944773778007
 30
0.0
 11
757.1765339923114
 21
1672.944773778007
 31
0.0
  0
LINE
  5
4F
330
1F
100
AcDbEntity
  8
3-0
  6
Continuous
 62
     3
370
     9
100
AcDbLine
 10
942.1765092483289
 20
1572.945396501561
 30
0.0
 11
942.1765092483289
 21
1772.945932621177
 31
0.0
  0
LINE
  5
50
330
1F
100
AcDbEntity
  8
3-0
  6
Continuous
 62
     3
370
     9
100
AcDbLine
 10
488.2474123047054
 20
1747.946468740792
 30
0.0
 11
1340.22528128697
 21
1747.946468740792
 31
0.0
  0
LINE
  5
51
330
1F
100
AcDbEntity
  8
3-0
  6
Continuous
 62
     3
370
     9
100
AcDbLine
 10
488.2474123047054
 20
1772.945932621177
 30
0.0
 11
1340.22528128697
 21
1772.945932621177
 31
0.0
  0
LINE
  5
52
330
1F
100
AcDbEntity
  8
3-0
  6
Continuous
 62
     3
370
     9
100
AcDbLine
 10
488.2474123047054
 20
1572.945396501561
 30
0.0
 11
1340.22528128697
 21
1572.945396501561
 31
0.0
  0
LINE
  5
53
330
1F
100
AcDbEntity
  8
3-0
  6
JWW_DASHED1
 62
     4
370
     9
100
AcDbLine
 10
1192.177086607916
 20
1752.945619197401
 30
0.0
 11
692.1765092483288
 21
1752.945619197401
 31
0.0
  0
LINE
  5
54
330
1F
100
AcDbEntity
  8
3-0
  6
JWW_DASHED1
 62
     4
370
     9
100
AcDbLine
 10
692.1765092483288
 20
1592.94608108507
 30
0.0
 11
692.1765092483288
 21
1752.945619197401
 31
0.0
  0
LINE
  5
55
330
1F
100
AcDbEntity
  8
3-0
  6
JWW_DASHED1
 62
     4
370
     9
100
AcDbLine
 10
1192.177086607916
 20
1752.945619197401
 30
0.0
 11
1192.177086607916
 21
1592.94608108507
 31
0.0
  0
LINE
  5
56
330
1F
100
AcDbEntity
  8
3-0
  6
JWW_DASHED1
 62
     4
370
     9
100
AcDbLine
 10
1192.177086607916
 20
1592.94608108507
 30
0.0
 11
692.1765092483288
 21
1592.94608108507
 31
0.0
  0
LINE
  5
57
330
1F
100
AcDbEntity
  8
3-0
  6
Continuous
 62
     4
370
     9
100
AcDbLine
 10
498.1380768950773
 20
1663.018811896937
 30
0.0
 11
488.2474123047054
 21
1657.308148230341
 31
0.0
  0
LINE
  5
58
330
1F
100
AcDbEntity
  8
3-0
  6
Continuous
 62
     4
370
     9
100
AcDbLine
 10
478.3567477143344
 20
1628.756685696029
 30
0.0
 11
498.1380768950773
 21
1663.018811896937
 31
0.0
  0
LINE
  5
59
330
1F
100
AcDbEntity
  8
3-0
  6
Continuous
 62
     4
370
     9
100
AcDbLine
 10
478.3567477143344
 20
1628.756685696029
 30
0.0
 11
488.2474123047054
 21
1634.466978202891
 31
0.0
  0
LINE
  5
5A
330
1F
100
AcDbEntity
  8
3-0
  6
Continuous
 62
     4
370
     9
100
AcDbLine
 10
488.2474123047054
 20
1634.466978202891
 30
0.0
 11
488.2474123047054
 21
1550.473159249661
 31
0.0
  0
LINE
  5
5B
330
1F
100
AcDbEntity
  8
3-0
  6
Continuous
 62
     4
370
     9
100
AcDbLine
 10
488.2474123047054
 20
1787.166917827575
 30
0.0
 11
488.2474123047054
 21
1657.308148230341
 31
0.0
  0
LINE
  5
5C
330
1F
100
AcDbEntity
  8
3-0
  6
Continuous
 62
     4
370
     9
100
AcDbLine
 10
1350.115945877342
 20
1663.018811896937
 30
0.0
 11
1340.22528128697
 21
1657.308148230341
 31
0.0
  0
LINE
  5
5D
330
1F
100
AcDbEntity
  8
3-0
  6
Continuous
 62
     4
370
     9
100
AcDbLine
 10
1330.334616696598
 20
1628.756685696029
 30
0.0
 11
1350.115945877342
 21
1663.018811896937
 31
0.0
  0
LINE
  5
5E
330
1F
100
AcDbEntity
  8
3-0
  6
Continuous
 62
     4
370
     9
100
AcDbLine
 10
1330.334616696598
 20
1628.756685696029
 30
0.0
 11
1340.22528128697
 21
1634.466978202891
 31
0.0
  0
LINE
  5
5F
330
1F
100
AcDbEntity
  8
3-0
  6
Continuous
 62
     4
370
     9
100
AcDbLine
 10
1340.22528128697
 20
1787.166917827575
 30
0.0
 11
1340.22528128697
 21
1657.308148230341
 31
0.0
  0
LINE
  5
60
330
1F
100
AcDbEntity
  8
3-0
  6
Continuous
 62
     4
370
     9
100
AcDbLine
 10
1340.22528128697
 20
1634.466978202891
 30
0.0
 11
1340.22528128697
 21
1550.473159249661
 31
0.0
  0
LINE
  5
61
330
1F
100
AcDbEntity
  8
3-0
  6
Continuous
 62
     7
370
     9
100
AcDbLine
 10
830.7433625396083
 20
1659.378143182568
 30
0.0
 11
803.6093590292621
 21
1686.512146692914
 31
0.0
  0
LINE
  5
62
330
1F
100
AcDbEntity
  8
3-0
  6
Continuous
 62
     7
370
     9
100
AcDbLine
 10
803.6093590292621
 20
1659.378143182568
 30
0.0
 11
830.7433625396083
 21
1686.512146692914
 31
0.0
  0
CIRCLE
  5
63
330
1F
100
AcDbEntity
  8
3-0
  6
Continuous
 62
     7
370
     9
100
AcDbCircle
 10
817.1767319441692
 20
1672.944773778007
 30
0.0
 40
34.99999465169133
  0
CIRCLE
  5
64
330
1F
100
AcDbEntity
  8
3-0
  6
Continuous
 62
     3
370
     9
100
AcDbCircle
 10
817.1763607844352
 20
1672.945144937741
 30
0.0
 40
40.0
  0
LINE
  5
65
330
1F
100
AcDbEntity
  8
3-0
  6
Continuous
 62
     3
370
     9
100
AcDbLine
 10
1932.648964101053
 20
1341.264675133449
 30
0.0
 11
1932.648964101053
 21
1141.264695753434
 31
0.0
  0
LINE
  5
66
330
1F
100
AcDbEntity
  8
3-0
  6
Continuous
 62
     3
370
     9
100
AcDbLine
 10
1922.649178548899
 20
1341.264675133449
 30
0.0
 11
1932.648964101053
 21
1341.264675133449
 31
0.0
  0
LINE
  5
67
330
1F
100
AcDbEntity
  8
3-0
  6
Continuous
 62
     3
370
     9
100
AcDbLine
 10
1732.649541460639
 20
1151.264666885455
 30
0.0
 11
1732.649541460639
 21
1141.264695753434
 31
0.0
  0
LINE
  5
68
330
1F
100
AcDbEntity
  8
3-0
  6
Continuous
 62
     3
370
     9
100
AcDbLine
 10
1907.649129060935
 20
1191.264551413538
 30
0.0
 11
1907.649129060935
 21
1326.264625645484
 31
0.0
  0
LINE
  5
69
330
1F
100
AcDbEntity
  8
3-0
  6
Continuous
 62
     3
370
     9
100
AcDbLine
 10
1752.649112564947
 20
1141.264695753434
 30
0.0
 11
1752.649112564947
 21
1111.264782357372
 31
0.0
  0
LINE
  5
6A
330
1F
100
AcDbEntity
  8
3-0
  6
Continuous
 62
     3
370
     9
100
AcDbLine
 10
1752.649112564947
 20
1111.264782357372
 30
0.0
 11
1912.649392996746
 21
1111.264782357372
 31
0.0
  0
LINE
  5
6B
330
1F
100
AcDbEntity
  8
3-0
  6
Continuous
 62
     3
370
     9
100
AcDbLine
 10
1912.649392996746
 20
1141.264695753434
 30
0.0
 11
1912.649392996746
 21
1111.264782357372
 31
0.0
  0
LINE
  5
6C
330
1F
100
AcDbEntity
  8
3-0
  6
Continuous
 62
     3
370
     9
100
AcDbLine
 10
1912.649392996746
 20
1141.264695753434
 30
0.0
 11
1912.720655665664
 21
1138.544837223029
 31
0.0
  0
LINE
  5
6D
330
1F
100
AcDbEntity
  8
3-0
  6
Continuous
 62
     3
370
     9
100
AcDbLine
 10
1912.720655665664
 20
1138.544837223029
 30
0.0
 11
1912.720655665664
 21
1133.21795272134
 31
0.0
  0
LINE
  5
6E
330
1F
100
AcDbEntity
  8
3-0
  6
Continuous
 62
     3
370
     9
100
AcDbLine
 10
1912.720655665664
 20
1133.21795272134
 30
0.0
 11
1913.688640251813
 21
1130.796692196899
 31
0.0
  0
LINE
  5
6F
330
1F
100
AcDbEntity
  8
3-0
  6
Continuous
 62
     3
370
     9
100
AcDbLine
 10
1913.688640251813
 20
1130.796692196899
 30
0.0
 11
1913.688640251813
 21
1128.375431672459
 31
0.0
  0
LINE
  5
70
330
1F
100
AcDbEntity
  8
3-0
  6
Continuous
 62
     3
370
     9
100
AcDbLine
 10
1913.688640251813
 20
1128.375431672459
 30
0.0
 11
1915.626094063047
 21
1127.891068219651
 31
0.0
  0
LINE
  5
71
330
1F
100
AcDbEntity
  8
3-0
  6
Continuous
 62
     3
370
     9
100
AcDbLine
 10
1915.626094063047
 20
1127.891068219651
 30
0.0
 11
1917.562805554811
 21
1129.343972998208
 31
0.0
  0
LINE
  5
72
330
1F
100
AcDbEntity
  8
3-0
  6
Continuous
 62
     3
370
     9
100
AcDbLine
 10
1917.562805554811
 20
1129.343972998208
 30
0.0
 11
1919.500259366044
 21
1130.796692196899
 31
0.0
  0
LINE
  5
73
330
1F
100
AcDbEntity
  8
3-0
  6
Continuous
 62
     3
370
     9
100
AcDbLine
 10
1919.500259366044
 20
1130.796692196899
 30
0.0
 11
1920.468243952193
 21
1133.21795272134
 31
0.0
  0
LINE
  5
74
330
1F
100
AcDbEntity
  8
3-0
  6
Continuous
 62
     3
370
     9
100
AcDbLine
 10
1920.468243952193
 20
1133.21795272134
 30
0.0
 11
1921.43697085781
 21
1135.639398825647
 31
0.0
  0
LINE
  5
75
330
1F
100
AcDbEntity
  8
3-0
  6
Continuous
 62
     3
370
     9
100
AcDbLine
 10
1921.43697085781
 20
1135.639398825647
 30
0.0
 11
1921.43697085781
 21
1138.060659350088
 31
0.0
  0
LINE
  5
76
330
1F
100
AcDbEntity
  8
3-0
  6
Continuous
 62
     3
370
     9
100
AcDbLine
 10
1921.43697085781
 20
1138.060659350088
 30
0.0
 11
1922.405697763426
 21
1140.481734294661
 31
0.0
  0
LINE
  5
77
330
1F
100
AcDbEntity
  8
3-0
  6
Continuous
 62
     3
370
     9
100
AcDbLine
 10
1919.984251659119
 20
1140.481734294661
 30
0.0
 11
1924.342409255191
 21
1140.481734294661
 31
0.0
  0
LINE
  5
78
330
1F
100
AcDbEntity
  8
3-0
  6
Continuous
 62
     3
370
     9
100
AcDbLine
 10
1919.984251659119
 20
1140.481734294661
 30
0.0
 11
1918.046797847886
 21
1139.513378548778
 31
0.0
  0
LINE
  5
79
330
1F
100
AcDbEntity
  8
3-0
  6
Continuous
 62
     3
370
     9
100
AcDbLine
 10
1918.046797847886
 20
1139.513378548778
 30
0.0
 11
1916.110086356121
 21
1138.544837223029
 31
0.0
  0
LINE
  5
7A
330
1F
100
AcDbEntity
  8
3-0
  6
Continuous
 62
     3
370
     9
100
AcDbLine
 10
1916.110086356121
 20
1138.544837223029
 30
0.0
 11
1915.141359450504
 21
1136.123576698589
 31
0.0
  0
LINE
  5
7B
330
1F
100
AcDbEntity
  8
3-0
  6
Continuous
 62
     3
370
     9
100
AcDbLine
 10
1915.141359450504
 20
1136.123576698589
 30
0.0
 11
1914.173374864355
 21
1133.702130594281
 31
0.0
  0
LINE
  5
7C
330
1F
100
AcDbEntity
  8
3-0
  6
Continuous
 62
     3
370
     9
100
AcDbLine
 10
1914.173374864355
 20
1133.702130594281
 30
0.0
 11
1917.562805554811
 21
1133.21795272134
 31
0.0
  0
LINE
  5
7D
330
1F
100
AcDbEntity
  8
3-0
  6
Continuous
 62
     3
370
     9
100
AcDbLine
 10
1917.562805554811
 20
1133.21795272134
 30
0.0
 11
1919.500259366044
 21
1134.186494047089
 31
0.0
  0
LINE
  5
7E
330
1F
100
AcDbEntity
  8
3-0
  6
Continuous
 62
     3
370
     9
100
AcDbLine
 10
1919.500259366044
 20
1134.186494047089
 30
0.0
 11
1921.43697085781
 21
1134.670857499897
 31
0.0
  0
LINE
  5
7F
330
1F
100
AcDbEntity
  8
3-0
  6
Continuous
 62
     3
370
     9
100
AcDbLine
 10
1921.43697085781
 20
1134.670857499897
 30
0.0
 11
1923.373682349575
 21
1136.123576698589
 31
0.0
  0
LINE
  5
80
330
1F
100
AcDbEntity
  8
3-0
  6
Continuous
 62
     3
370
     9
100
AcDbLine
 10
1923.373682349575
 20
1136.123576698589
 30
0.0
 11
1920.952978564736
 21
1137.576295897279
 31
0.0
  0
LINE
  5
81
330
1F
100
AcDbEntity
  8
3-0
  6
Continuous
 62
     3
370
     9
100
AcDbLine
 10
1920.952978564736
 20
1137.576295897279
 30
0.0
 11
1919.015524753502
 21
1136.123576698589
 31
0.0
  0
LINE
  5
82
330
1F
100
AcDbEntity
  8
3-0
  6
Continuous
 62
     3
370
     9
100
AcDbLine
 10
1919.015524753502
 20
1136.123576698589
 30
0.0
 11
1916.110086356121
 21
1134.670857499897
 31
0.0
  0
LINE
  5
83
330
1F
100
AcDbEntity
  8
3-0
  6
Continuous
 62
     3
370
     9
100
AcDbLine
 10
1916.110086356121
 20
1134.670857499897
 30
0.0
 11
1914.173374864355
 21
1131.765233522648
 31
0.0
  0
LINE
  5
84
330
1F
100
AcDbEntity
  8
3-0
  6
Continuous
 62
     3
370
     9
100
AcDbLine
 10
1914.173374864355
 20
1131.765233522648
 30
0.0
 11
1917.562805554811
 21
1132.24941139559
 31
0.0
  0
LINE
  5
85
330
1F
100
AcDbEntity
  8
3-0
  6
Continuous
 62
     3
370
     9
100
AcDbLine
 10
1917.562805554811
 20
1132.24941139559
 30
0.0
 11
1919.500259366044
 21
1133.702130594281
 31
0.0
  0
LINE
  5
86
330
1F
100
AcDbEntity
  8
3-0
  6
Continuous
 62
     3
370
     9
100
AcDbLine
 10
1919.500259366044
 20
1133.702130594281
 30
0.0
 11
1921.43697085781
 21
1135.155035372839
 31
0.0
  0
LINE
  5
87
330
1F
100
AcDbEntity
  8
3-0
  6
Continuous
 62
     3
370
     9
100
AcDbLine
 10
1921.43697085781
 20
1135.155035372839
 30
0.0
 11
1919.015524753502
 21
1134.670857499897
 31
0.0
  0
LINE
  5
88
330
1F
100
AcDbEntity
  8
3-0
  6
Continuous
 62
     3
370
     9
100
AcDbLine
 10
1919.015524753502
 20
1134.670857499897
 30
0.0
 11
1917.078813261737
 21
1133.21795272134
 31
0.0
  0
LINE
  5
89
330
1F
100
AcDbEntity
  8
3-0
  6
Continuous
 62
     3
370
     9
100
AcDbLine
 10
1917.078813261737
 20
1133.21795272134
 30
0.0
 11
1918.531532460428
 21
1135.639398825647
 31
0.0
  0
LINE
  5
8A
330
1F
100
AcDbEntity
  8
3-0
  6
Continuous
 62
     3
370
     9
100
AcDbLine
 10
1918.531532460428
 20
1135.639398825647
 30
0.0
 11
1919.500259366044
 21
1138.060659350088
 31
0.0
  0
LINE
  5
8B
330
1F
100
AcDbEntity
  8
3-0
  6
Continuous
 62
     3
370
     9
100
AcDbLine
 10
1919.500259366044
 20
1138.060659350088
 30
0.0
 11
1917.078813261737
 21
1138.060659350088
 31
0.0
  0
LINE
  5
8C
330
1F
100
AcDbEntity
  8
3-0
  6
Continuous
 62
     3
370
     9
100
AcDbLine
 10
1917.078813261737
 20
1138.060659350088
 30
0.0
 11
1915.141359450504
 21
1136.60775457153
 31
0.0
  0
LINE
  5
8D
330
1F
100
AcDbEntity
  8
3-0
  6
Continuous
 62
     3
370
     9
100
AcDbLine
 10
1915.141359450504
 20
1136.60775457153
 30
0.0
 11
1913.204647958739
 21
1135.155035372839
 31
0.0
  0
LINE
  5
8E
330
1F
100
AcDbEntity
  8
3-0
  6
Continuous
 62
     3
370
     9
100
AcDbLine
 10
1913.204647958739
 20
1135.155035372839
 30
0.0
 11
1915.626094063047
 21
1135.155035372839
 31
0.0
  0
LINE
  5
8F
330
1F
100
AcDbEntity
  8
3-0
  6
Continuous
 62
     3
370
     9
100
AcDbLine
 10
1915.626094063047
 20
1135.155035372839
 30
0.0
 11
1917.562805554811
 21
1137.576295897279
 31
0.0
  0
LINE
  5
90
330
1F
100
AcDbEntity
  8
3-0
  6
Continuous
 62
     3
370
     9
100
AcDbLine
 10
1917.562805554811
 20
1137.576295897279
 30
0.0
 11
1915.141359450504
 21
1137.576295897279
 31
0.0
  0
LINE
  5
91
330
1F
100
AcDbEntity
  8
3-0
  6
Continuous
 62
     3
370
     9
100
AcDbLine
 10
1915.141359450504
 20
1137.576295897279
 30
0.0
 11
1914.173374864355
 21
1135.155035372839
 31
0.0
  0
LINE
  5
92
330
1F
100
AcDbEntity
  8
3-0
  6
Continuous
 62
     3
370
     9
100
AcDbLine
 10
1914.173374864355
 20
1135.155035372839
 30
0.0
 11
1916.594820968663
 21
1137.091932444471
 31
0.0
  0
LINE
  5
93
330
1F
100
AcDbEntity
  8
3-0
  6
Continuous
 62
     3
370
     9
100
AcDbLine
 10
1916.594820968663
 20
1137.091932444471
 30
0.0
 11
1916.594820968663
 21
1139.513378548778
 31
0.0
  0
LINE
  5
94
330
1F
100
AcDbEntity
  8
3-0
  6
Continuous
 62
     3
370
     9
100
AcDbLine
 10
1916.594820968663
 20
1139.513378548778
 30
0.0
 11
1914.173374864355
 21
1138.544837223029
 31
0.0
  0
LINE
  5
95
330
1F
100
AcDbEntity
  8
3-0
  6
Continuous
 62
     3
370
     9
100
AcDbLine
 10
1914.173374864355
 20
1138.544837223029
 30
0.0
 11
1915.626094063047
 21
1140.965912167602
 31
0.0
  0
LINE
  5
96
330
1F
100
AcDbEntity
  8
3-0
  6
Continuous
 62
     3
370
     9
100
AcDbLine
 10
1915.626094063047
 20
1140.965912167602
 30
0.0
 11
1913.204647958739
 21
1138.544837223029
 31
0.0
  0
LINE
  5
97
330
1F
100
AcDbEntity
  8
3-0
  6
Continuous
 62
     3
370
     9
100
AcDbLine
 10
1913.204647958739
 20
1138.544837223029
 30
0.0
 11
1914.173374864355
 21
1136.123576698589
 31
0.0
  0
LINE
  5
98
330
1F
100
AcDbEntity
  8
3-0
  6
Continuous
 62
     3
370
     9
100
AcDbLine
 10
1914.173374864355
 20
1136.123576698589
 30
0.0
 11
1915.626094063047
 21
1133.702130594281
 31
0.0
  0
LINE
  5
99
330
1F
100
AcDbEntity
  8
3-0
  6
Continuous
 62
     3
370
     9
100
AcDbLine
 10
1915.626094063047
 20
1133.702130594281
 30
0.0
 11
1917.562805554811
 21
1133.21795272134
 31
0.0
  0
LINE
  5
9A
330
1F
100
AcDbEntity
  8
3-0
  6
Continuous
 62
     3
370
     9
100
AcDbLine
 10
1917.562805554811
 20
1133.21795272134
 30
0.0
 11
1917.562805554811
 21
1133.702130594281
 31
0.0
  0
LINE
  5
9B
330
1F
100
AcDbEntity
  8
3-0
  6
Continuous
 62
     3
370
     9
100
AcDbLine
 10
1752.649112564947
 20
1141.264695753434
 30
0.0
 11
1752.577849896028
 21
1138.544837223029
 31
0.0
  0
LINE
  5
9C
330
1F
100
AcDbEntity
  8
3-0
  6
Continuous
 62
     3
370
     9
100
AcDbLine
 10
1752.577849896028
 20
1138.544837223029
 30
0.0
 11
1752.577849896028
 21
1133.21795272134
 31
0.0
  0
LINE
  5
9D
330
1F
100
AcDbEntity
  8
3-0
  6
Continuous
 62
     3
370
     9
100
AcDbLine
 10
1752.577849896028
 20
1133.21795272134
 30
0.0
 11
1751.609122990411
 21
1130.796692196899
 31
0.0
  0
LINE
  5
9E
330
1F
100
AcDbEntity
  8
3-0
  6
Continuous
 62
     3
370
     9
100
AcDbLine
 10
1751.609122990411
 20
1130.796692196899
 30
0.0
 11
1751.609122990411
 21
1128.375431672459
 31
0.0
  0
LINE
  5
9F
330
1F
100
AcDbEntity
  8
3-0
  6
Continuous
 62
     3
370
     9
100
AcDbLine
 10
1751.609122990411
 20
1128.375431672459
 30
0.0
 11
1749.671669179178
 21
1127.891068219651
 31
0.0
  0
LINE
  5
A0
330
1F
100
AcDbEntity
  8
3-0
  6
Continuous
 62
     3
370
     9
100
AcDbLine
 10
1749.671669179178
 20
1127.891068219651
 30
0.0
 11
1747.734957687413
 21
1129.343972998208
 31
0.0
  0
LINE
  5
A1
330
1F
100
AcDbEntity
  8
3-0
  6
Continuous
 62
     3
370
     9
100
AcDbLine
 10
1747.734957687413
 20
1129.343972998208
 30
0.0
 11
1745.797503876179
 21
1130.796692196899
 31
0.0
  0
LINE
  5
A2
330
1F
100
AcDbEntity
  8
3-0
  6
Continuous
 62
     3
370
     9
100
AcDbLine
 10
1745.797503876179
 20
1130.796692196899
 30
0.0
 11
1744.829519290031
 21
1133.21795272134
 31
0.0
  0
LINE
  5
A3
330
1F
100
AcDbEntity
  8
3-0
  6
Continuous
 62
     3
370
     9
100
AcDbLine
 10
1744.829519290031
 20
1133.21795272134
 30
0.0
 11
1743.860792384414
 21
1135.639398825647
 31
0.0
  0
LINE
  5
A4
330
1F
100
AcDbEntity
  8
3-0
  6
Continuous
 62
     3
370
     9
100
AcDbLine
 10
1743.860792384414
 20
1135.639398825647
 30
0.0
 11
1743.860792384414
 21
1138.060659350088
 31
0.0
  0
LINE
  5
A5
330
1F
100
AcDbEntity
  8
3-0
  6
Continuous
 62
     3
370
     9
100
AcDbLine
 10
1743.860792384414
 20
1138.060659350088
 30
0.0
 11
1742.892065478798
 21
1140.481734294661
 31
0.0
  0
LINE
  5
A6
330
1F
100
AcDbEntity
  8
3-0
  6
Continuous
 62
     3
370
     9
100
AcDbLine
 10
1745.313511583105
 20
1140.481734294661
 30
0.0
 11
1740.955353987033
 21
1140.481734294661
 31
0.0
  0
LINE
  5
A7
330
1F
100
AcDbEntity
  8
3-0
  6
Continuous
 62
     3
370
     9
100
AcDbLine
 10
1745.313511583105
 20
1140.481734294661
 30
0.0
 11
1747.250965394339
 21
1139.513378548778
 31
0.0
  0
LINE
  5
A8
330
1F
100
AcDbEntity
  8
3-0
  6
Continuous
 62
     3
370
     9
100
AcDbLine
 10
1747.250965394339
 20
1139.513378548778
 30
0.0
 11
1749.187676886104
 21
1138.544837223029
 31
0.0
  0
LINE
  5
A9
330
1F
100
AcDbEntity
  8
3-0
  6
Continuous
 62
     3
370
     9
100
AcDbLine
 10
1749.187676886104
 20
1138.544837223029
 30
0.0
 11
1750.15640379172
 21
1136.123576698589
 31
0.0
  0
LINE
  5
AA
330
1F
100
AcDbEntity
  8
3-0
  6
Continuous
 62
     3
370
     9
100
AcDbLine
 10
1750.15640379172
 20
1136.123576698589
 30
0.0
 11
1751.125130697336
 21
1133.702130594281
 31
0.0
  0
LINE
  5
AB
330
1F
100
AcDbEntity
  8
3-0
  6
Continuous
 62
     3
370
     9
100
AcDbLine
 10
1751.125130697336
 20
1133.702130594281
 30
0.0
 11
1747.734957687413
 21
1133.21795272134
 31
0.0
  0
LINE
  5
AC
330
1F
100
AcDbEntity
  8
3-0
  6
Continuous
 62
     3
370
     9
100
AcDbLine
 10
1747.734957687413
 20
1133.21795272134
 30
0.0
 11
1745.797503876179
 21
1134.186494047089
 31
0.0
  0
LINE
  5
AD
330
1F
100
AcDbEntity
  8
3-0
  6
Continuous
 62
     3
370
     9
100
AcDbLine
 10
1745.797503876179
 20
1134.186494047089
 30
0.0
 11
1743.860792384414
 21
1134.670857499897
 31
0.0
  0
LINE
  5
AE
330
1F
100
AcDbEntity
  8
3-0
  6
Continuous
 62
     3
370
     9
100
AcDbLine
 10
1743.860792384414
 20
1134.670857499897
 30
0.0
 11
1741.924080892649
 21
1136.123576698589
 31
0.0
  0
LINE
  5
AF
330
1F
100
AcDbEntity
  8
3-0
  6
Continuous
 62
     3
370
     9
100
AcDbLine
 10
1741.924080892649
 20
1136.123576698589
 30
0.0
 11
1744.345526996957
 21
1137.576295897279
 31
0.0
  0
LINE
  5
B0
330
1F
100
AcDbEntity
  8
3-0
  6
Continuous
 62
     3
370
     9
100
AcDbLine
 10
1744.345526996957
 20
1137.576295897279
 30
0.0
 11
1746.281496169254
 21
1136.123576698589
 31
0.0
  0
LINE
  5
B1
330
1F
100
AcDbEntity
  8
3-0
  6
Continuous
 62
     3
370
     9
100
AcDbLine
 10
1746.281496169254
 20
1136.123576698589
 30
0.0
 11
1749.187676886104
 21
1134.670857499897
 31
0.0
  0
LINE
  5
B2
330
1F
100
AcDbEntity
  8
3-0
  6
Continuous
 62
     3
370
     9
100
AcDbLine
 10
1749.187676886104
 20
1134.670857499897
 30
0.0
 11
1751.125130697336
 21
1131.765233522648
 31
0.0
  0
LINE
  5
B3
330
1F
100
AcDbEntity
  8
3-0
  6
Continuous
 62
     3
370
     9
100
AcDbLine
 10
1751.125130697336
 20
1131.765233522648
 30
0.0
 11
1747.734957687413
 21
1132.24941139559
 31
0.0
  0
LINE
  5
B4
330
1F
100
AcDbEntity
  8
3-0
  6
Continuous
 62
     3
370
     9
100
AcDbLine
 10
1747.734957687413
 20
1132.24941139559
 30
0.0
 11
1745.797503876179
 21
1133.702130594281
 31
0.0
  0
LINE
  5
B5
330
1F
100
AcDbEntity
  8
3-0
  6
Continuous
 62
     3
370
     9
100
AcDbLine
 10
1745.797503876179
 20
1133.702130594281
 30
0.0
 11
1743.860792384414
 21
1135.155035372839
 31
0.0
  0
LINE
  5
B6
330
1F
100
AcDbEntity
  8
3-0
  6
Continuous
 62
     3
370
     9
100
AcDbLine
 10
1743.860792384414
 20
1135.155035372839
 30
0.0
 11
1746.281496169254
 21
1134.670857499897
 31
0.0
  0
LINE
  5
B7
330
1F
100
AcDbEntity
  8
3-0
  6
Continuous
 62
     3
370
     9
100
AcDbLine
 10
1746.281496169254
 20
1134.670857499897
 30
0.0
 11
1748.218949980487
 21
1133.21795272134
 31
0.0
  0
LINE
  5
B8
330
1F
100
AcDbEntity
  8
3-0
  6
Continuous
 62
     3
370
     9
100
AcDbLine
 10
1748.218949980487
 20
1133.21795272134
 30
0.0
 11
1746.766230781797
 21
1135.639398825647
 31
0.0
  0
LINE
  5
B9
330
1F
100
AcDbEntity
  8
3-0
  6
Continuous
 62
     3
370
     9
100
AcDbLine
 10
1746.766230781797
 20
1135.639398825647
 30
0.0
 11
1745.797503876179
 21
1138.060659350088
 31
0.0
  0
LINE
  5
BA
330
1F
100
AcDbEntity
  8
3-0
  6
Continuous
 62
     3
370
     9
100
AcDbLine
 10
1745.797503876179
 20
1138.060659350088
 30
0.0
 11
1748.218949980487
 21
1138.060659350088
 31
0.0
  0
LINE
  5
BB
330
1F
100
AcDbEntity
  8
3-0
  6
Continuous
 62
     3
370
     9
100
AcDbLine
 10
1748.218949980487
 20
1138.060659350088
 30
0.0
 11
1750.15640379172
 21
1136.60775457153
 31
0.0
  0
LINE
  5
BC
330
1F
100
AcDbEntity
  8
3-0
  6
Continuous
 62
     3
370
     9
100
AcDbLine
 10
1750.15640379172
 20
1136.60775457153
 30
0.0
 11
1752.093115283486
 21
1135.155035372839
 31
0.0
  0
LINE
  5
BD
330
1F
100
AcDbEntity
  8
3-0
  6
Continuous
 62
     3
370
     9
100
AcDbLine
 10
1752.093115283486
 20
1135.155035372839
 30
0.0
 11
1749.671669179178
 21
1135.155035372839
 31
0.0
  0
LINE
  5
BE
330
1F
100
AcDbEntity
  8
3-0
  6
Continuous
 62
     3
370
     9
100
AcDbLine
 10
1749.671669179178
 20
1135.155035372839
 30
0.0
 11
1747.734957687413
 21
1137.576295897279
 31
0.0
  0
LINE
  5
BF
330
1F
100
AcDbEntity
  8
3-0
  6
Continuous
 62
     3
370
     9
100
AcDbLine
 10
1747.734957687413
 20
1137.576295897279
 30
0.0
 11
1750.15640379172
 21
1137.576295897279
 31
0.0
  0
LINE
  5
C0
330
1F
100
AcDbEntity
  8
3-0
  6
Continuous
 62
     3
370
     9
100
AcDbLine
 10
1750.15640379172
 20
1137.576295897279
 30
0.0
 11
1751.125130697336
 21
1135.155035372839
 31
0.0
  0
LINE
  5
C1
330
1F
100
AcDbEntity
  8
3-0
  6
Continuous
 62
     3
370
     9
100
AcDbLine
 10
1751.125130697336
 20
1135.155035372839
 30
0.0
 11
1748.703684593029
 21
1137.091932444471
 31
0.0
  0
LINE
  5
C2
330
1F
100
AcDbEntity
  8
3-0
  6
Continuous
 62
     3
370
     9
100
AcDbLine
 10
1748.703684593029
 20
1137.091932444471
 30
0.0
 11
1748.703684593029
 21
1139.513378548778
 31
0.0
  0
LINE
  5
C3
330
1F
100
AcDbEntity
  8
3-0
  6
Continuous
 62
     3
370
     9
100
AcDbLine
 10
1748.703684593029
 20
1139.513378548778
 30
0.0
 11
1751.125130697336
 21
1138.544837223029
 31
0.0
  0
LINE
  5
C4
330
1F
100
AcDbEntity
  8
3-0
  6
Continuous
 62
     3
370
     9
100
AcDbLine
 10
1751.125130697336
 20
1138.544837223029
 30
0.0
 11
1749.671669179178
 21
1140.965912167602
 31
0.0
  0
LINE
  5
C5
330
1F
100
AcDbEntity
  8
3-0
  6
Continuous
 62
     3
370
     9
100
AcDbLine
 10
1749.671669179178
 20
1140.965912167602
 30
0.0
 11
1752.093115283486
 21
1138.544837223029
 31
0.0
  0
LINE
  5
C6
330
1F
100
AcDbEntity
  8
3-0
  6
Continuous
 62
     3
370
     9
100
AcDbLine
 10
1752.093115283486
 20
1138.544837223029
 30
0.0
 11
1751.125130697336
 21
1136.123576698589
 31
0.0
  0
LINE
  5
C7
330
1F
100
AcDbEntity
  8
3-0
  6
Continuous
 62
     3
370
     9
100
AcDbLine
 10
1751.125130697336
 20
1136.123576698589
 30
0.0
 11
1749.671669179178
 21
1133.702130594281
 31
0.0
  0
LINE
  5
C8
330
1F
100
AcDbEntity
  8
3-0
  6
Continuous
 62
     3
370
     9
100
AcDbLine
 10
1749.671669179178
 20
1133.702130594281
 30
0.0
 11
1747.734957687413
 21
1133.21795272134
 31
0.0
  0
LINE
  5
C9
330
1F
100
AcDbEntity
  8
3-0
  6
Continuous
 62
     3
370
     9
100
AcDbLine
 10
1747.734957687413
 20
1133.21795272134
 30
0.0
 11
1747.734957687413
 21
1133.702130594281
 31
0.0
  0
ARC
  5
CA
330
1F
100
AcDbEntity
  8
3-0
  6
Continuous
 62
     3
370
     9
100
AcDbCircle
 10
1922.649178548899
 20
1326.264625645484
 30
0.0
 40
14.99999874346965
100
AcDbArc
 50
90.0
 51
180.0
  0
ARC
  5
CB
330
1F
100
AcDbEntity
  8
3-0
  6
Continuous
 62
     3
370
     9
100
AcDbCircle
 10
1747.648848629136
 20
1151.264666885455
 30
0.0
 40
14.99999874346965
100
AcDbArc
 50
90.0
 51
180.0
  0
ARC
  5
CC
330
1F
100
AcDbEntity
  8
3-0
  6
Continuous
 62
     3
370
     9
100
AcDbCircle
 10
1882.648551701349
 20
1191.264551413538
 30
0.0
 40
24.99999742250185
100
AcDbArc
 50
270.0
 51
0.0
  0
LINE
  5
CD
330
1F
100
AcDbEntity
  8
3-0
  6
JWW_CENTER1
 62
     4
370
     9
100
AcDbLine
 10
1832.648881621112
 20
1201.177188208965
 30
0.0
 11
1832.648881621112
 21
1021.143141339285
 31
0.0
  0
LINE
  5
CE
330
1F
100
AcDbEntity
  8
3-0
  6
Continuous
 62
     7
370
     9
100
AcDbLine
 10
1871.398700165242
 20
1103.264991031622
 30
0.0
 11
1871.398700165242
 21
1111.264596777505
 31
0.0
  0
LINE
  5
CF
330
1F
100
AcDbEntity
  8
3-0
  6
Continuous
 62
     7
370
     9
100
AcDbLine
 10
1871.398700165242
 20
1103.264991031622
 30
0.0
 11
1793.899063076982
 21
1103.264991031622
 31
0.0
  0
LINE
  5
D0
330
1F
100
AcDbEntity
  8
3-0
  6
Continuous
 62
     7
370
     9
100
AcDbLine
 10
1793.899063076982
 20
1103.264991031622
 30
0.0
 11
1793.899063076982
 21
1111.264596777505
 31
0.0
  0
LINE
  5
D1
330
1F
100
AcDbEntity
  8
3-0
  6
Continuous
 62
     7
370
     9
100
AcDbLine
 10
1818.148413135048
 20
1070.764574507921
 30
0.0
 11
1818.148413135048
 21
1066.268716650552
 31
0.0
  0
LINE
  5
D2
330
1F
100
AcDbEntity
  8
3-0
  6
Continuous
 62
     7
370
     9
100
AcDbLine
 10
1847.148607787708
 20
1070.764574507921
 30
0.0
 11
1847.148607787708
 21
1066.268716650552
 31
0.0
  0
LINE
  5
D3
330
1F
100
AcDbEntity
  8
3-0
  6
Continuous
 62
     7
370
     9
100
AcDbLine
 10
1818.148413135048
 20
1066.268716650552
 30
0.0
 11
1813.652926437413
 21
1070.764574507921
 31
0.0
  0
LINE
  5
D4
330
1F
100
AcDbEntity
  8
3-0
  6
Continuous
 62
     7
370
     9
100
AcDbLine
 10
1847.148607787708
 20
1066.268716650552
 30
0.0
 11
1851.644836804811
 21
1070.764574507921
 31
0.0
  0
LINE
  5
D5
330
1F
100
AcDbEntity
  8
3-0
  6
Continuous
 62
     7
370
     9
100
AcDbLine
 10
1818.148413135048
 20
1066.268716650552
 30
0.0
 11
1847.148607787708
 21
1066.268716650552
 31
0.0
  0
LINE
  5
D6
330
1F
100
AcDbEntity
  8
3-0
  6
Continuous
 62
     7
370
     9
100
AcDbLine
 10
1865.149112564947
 20
1103.264991031622
 30
0.0
 11
1865.149112564947
 21
1074.372989441409
 31
0.0
  0
LINE
  5
D7
330
1F
100
AcDbEntity
  8
3-0
  6
Continuous
 62
     7
370
     9
100
AcDbLine
 10
1800.149392996746
 20
1103.264991031622
 30
0.0
 11
1800.149392996746
 21
1074.372989441409
 31
0.0
  0
ARC
  5
D8
330
1F
100
AcDbEntity
  8
3-0
  6
Continuous
 62
     7
370
     9
100
AcDbCircle
 10
1816.398766149195
 20
1109.158636447058
 30
0.0
 40
38.39398944700087
100
AcDbArc
 50
244.9606628417968
 51
295.0396728515625
  0
ARC
  5
D9
330
1F
100
AcDbEntity
  8
3-0
  6
Continuous
 62
     7
370
     9
100
AcDbCircle
 10
1848.898997093029
 20
1109.158636447058
 30
0.0
 40
38.39398944700087
100
AcDbArc
 50
244.9603271484375
 51
295.0393371582032
  0
LINE
  5
DA
330
1F
100
AcDbEntity
  8
3-0
  6
Continuous
 62
     7
370
     9
100
AcDbLine
 10
1832.648881621112
 20
1103.264991031622
 30
0.0
 11
1832.648905857199
 21
1074.373108414791
 31
0.0
  0
LINE
  5
DB
330
1F
100
AcDbEntity
  8
3-0
  6
Continuous
 62
     3
370
     9
100
AcDbLine
 10
1807.648881621112
 20
1141.264695753434
 30
0.0
 11
1807.648881621112
 21
1111.264596777505
 31
0.0
  0
LINE
  5
DC
330
1F
100
AcDbEntity
  8
3-0
  6
Continuous
 62
     3
370
     9
100
AcDbLine
 10
1857.648881621112
 20
1141.264695753434
 30
0.0
 11
1857.648881621112
 21
1111.264596777505
 31
0.0
  0
LINE
  5
DD
330
1F
100
AcDbEntity
  8
3-0
  6
JWW_DASHED1
 62
     7
370
     9
100
AcDbLine
 10
1793.148578094929
 20
1166.291217716294
 30
0.0
 11
1793.148578094929
 21
1164.791361231392
 31
0.0
  0
LINE
  5
DE
330
1F
100
AcDbEntity
  8
3-0
  6
JWW_DASHED1
 62
     7
370
     9
100
AcDbLine
 10
1872.148442827826
 20
1166.291217716294
 30
0.0
 11
1872.148442827826
 21
1164.791361231392
 31
0.0
  0
LINE
  5
DF
330
1F
100
AcDbEntity
  8
3-0
  6
Continuous
 62
     7
370
     9
100
AcDbLine
 10
1793.148578094929
 20
1166.291217716294
 30
0.0
 11
1872.148442827826
 21
1166.291217716294
 31
0.0
  0
LINE
  5
E0
330
1F
100
AcDbEntity
  8
3-0
  6
Continuous
 62
     7
370
     9
100
AcDbLine
 10
1793.148578094929
 20
1164.791361231392
 30
0.0
 11
1872.148442827826
 21
1164.791361231392
 31
0.0
  0
LINE
  5
E1
330
1F
100
AcDbEntity
  8
3-0
  6
Continuous
 62
     7
370
     9
100
AcDbLine
 10
1852.321089840073
 20
1144.964008243638
 30
0.0
 11
1872.148442827826
 21
1164.791361231392
 31
0.0
  0
LINE
  5
E2
330
1F
100
AcDbEntity
  8
3-0
  6
Continuous
 62
     7
370
     9
100
AcDbLine
 10
1814.476901046787
 20
1143.041400821763
 30
0.0
 11
1850.820119875968
 21
1143.041400821763
 31
0.0
  0
LINE
  5
E3
330
1F
100
AcDbEntity
  8
3-0
  6
Continuous
 62
     7
370
     9
100
AcDbLine
 10
1812.975931082683
 20
1144.964008243638
 30
0.0
 11
1793.148578094929
 21
1164.791361231392
 31
0.0
  0
LINE
  5
E4
330
1F
100
AcDbEntity
  8
3-0
  6
Continuous
 62
     7
370
     9
100
AcDbLine
 10
1849.714063868789
 20
1140.409507148305
 30
0.0
 11
1847.148607787708
 21
1130.54111214197
 31
0.0
  0
LINE
  5
E5
330
1F
100
AcDbEntity
  8
3-0
  6
Continuous
 62
     7
370
     9
100
AcDbLine
 10
1815.582214734499
 20
1140.409507148305
 30
0.0
 11
1818.148413135047
 21
1130.54111214197
 31
0.0
  0
LINE
  5
E6
330
1F
100
AcDbEntity
  8
3-0
  6
Continuous
 62
     7
370
     9
100
AcDbLine
 10
1812.648568197336
 20
1130.54111214197
 30
0.0
 11
1852.648452725419
 21
1130.54111214197
 31
0.0
  0
LINE
  5
E7
330
1F
100
AcDbEntity
  8
3-0
  6
Continuous
 62
     7
370
     9
100
AcDbLine
 10
1812.648568197336
 20
1130.54111214197
 30
0.0
 11
1816.441078358865
 21
1137.109525953731
 31
0.0
  0
LINE
  5
E8
330
1F
100
AcDbEntity
  8
3-0
  6
Continuous
 62
     7
370
     9
100
AcDbLine
 10
1852.648452725419
 20
1130.54111214197
 30
0.0
 11
1848.856684883358
 21
1137.109525953731
 31
0.0
  0
ARC
  5
E9
330
1F
100
AcDbEntity
  8
3-0
  6
Continuous
 62
     7
370
     9
100
AcDbCircle
 10
1859.392425091339
 20
1137.893044152105
 30
0.0
 40
9.999999403953552
100
AcDbArc
 50
135.0
 51
165.4257965087891
  0
ARC
  5
EA
330
1F
100
AcDbEntity
  8
3-0
  6
Continuous
 62
     7
370
     9
100
AcDbCircle
 10
1805.904595831416
 20
1137.893044152105
 30
0.0
 40
9.999999403953552
100
AcDbArc
 50
14.57420349121094
 51
45.0
  0
LINE
  5
EB
330
1F
100
AcDbEntity
  8
3-0
  6
Continuous
 62
     7
370
     9
100
AcDbLine
 10
1812.648568197336
 20
1130.54111214197
 30
0.0
 11
1812.648568197336
 21
1111.264596777505
 31
0.0
  0
LINE
  5
EC
330
1F
100
AcDbEntity
  8
3-0
  6
Continuous
 62
     7
370
     9
100
AcDbLine
 10
1818.148413135047
 20
1130.54111214197
 30
0.0
 11
1818.148413135047
 21
1111.264596777505
 31
0.0
  0
LINE
  5
ED
330
1F
100
AcDbEntity
  8
3-0
  6
Continuous
 62
     7
370
     9
100
AcDbLine
 10
1847.148607787708
 20
1130.54111214197
 30
0.0
 11
1847.148607787708
 21
1111.264596777505
 31
0.0
  0
LINE
  5
EE
330
1F
100
AcDbEntity
  8
3-0
  6
Continuous
 62
     7
370
     9
100
AcDbLine
 10
1852.648452725419
 20
1130.54111214197
 30
0.0
 11
1852.648452725419
 21
1111.264596777505
 31
0.0
  0
LINE
  5
EF
330
1F
100
AcDbEntity
  8
3-0
  6
Continuous
 62
     3
370
     9
100
AcDbLine
 10
1732.649541460639
 20
1141.264695753434
 30
0.0
 11
1812.648881621112
 21
1141.264695753434
 31
0.0
  0
LINE
  5
F0
330
1F
100
AcDbEntity
  8
3-0
  6
Continuous
 62
     3
370
     9
100
AcDbLine
 10
1852.648881621112
 20
1141.264695753434
 30
0.0
 11
1932.648964101053
 21
1141.264695753434
 31
0.0
  0
LINE
  5
F1
330
1F
100
AcDbEntity
  8
3-0
  6
Continuous
 62
     3
370
     9
100
AcDbLine
 10
1812.648881621112
 20
1141.264695753434
 30
0.0
 11
1792.651998897503
 21
1166.264530793552
 31
0.0
  0
LINE
  5
F2
330
1F
100
AcDbEntity
  8
3-0
  6
Continuous
 62
     3
370
     9
100
AcDbLine
 10
1792.651998897503
 20
1166.264530793552
 30
0.0
 11
1747.648848629136
 21
1166.264530793552
 31
0.0
  0
LINE
  5
F3
330
1F
100
AcDbEntity
  8
3-0
  6
Continuous
 62
     3
370
     9
100
AcDbLine
 10
1882.648551701349
 20
1166.264530793552
 30
0.0
 11
1872.645764344721
 21
1166.264530793552
 31
0.0
  0
LINE
  5
F4
330
1F
100
AcDbEntity
  8
3-0
  6
Continuous
 62
     3
370
     9
100
AcDbLine
 10
1852.648881621112
 20
1141.264695753434
 30
0.0
 11
1872.645764344721
 21
1166.264530793552
 31
0.0
  0
LINE
  5
F5
330
1F
100
AcDbEntity
  8
3-0
  6
JWW_CENTER2
 62
     4
370
     9
100
AcDbLine
 10
834.0312935797228
 20
1227.24372998281
 30
0.0
 11
834.0312935797228
 21
1048.051480195847
 31
0.0
  0
LINE
  5
F6
330
1F
100
AcDbEntity
  8
3-0
  6
Continuous
 62
     3
370
     9
100
AcDbLine
 10
959.0312935797228
 20
1341.267829991187
 30
0.0
 11
959.0312935797228
 21
1141.264695753434
 31
0.0
  0
LINE
  5
F7
330
1F
100
AcDbEntity
  8
3-0
  6
Continuous
 62
     3
370
     9
100
AcDbLine
 10
1209.031870939309
 20
1141.264695753434
 30
0.0
 11
1209.031870939309
 21
1111.264596777505
 31
0.0
  0
LINE
  5
F8
330
1F
100
AcDbEntity
  8
3-0
  6
Continuous
 62
     3
370
     9
100
AcDbLine
 10
505.1021966360994
 20
1341.267829991187
 30
0.0
 11
1357.080065618363
 21
1341.267829991187
 31
0.0
  0
LINE
  5
F9
330
1F
100
AcDbEntity
  8
3-0
  6
Continuous
 62
     3
370
     9
100
AcDbLine
 10
1209.031870939309
 20
1141.264695753434
 30
0.0
 11
1208.944277242096
 21
1139.16096238139
 31
0.0
  0
LINE
  5
FA
330
1F
100
AcDbEntity
  8
3-0
  6
Continuous
 62
     3
370
     9
100
AcDbLine
 10
1208.944277242096
 20
1139.16096238139
 30
0.0
 11
1209.875888174317
 21
1136.832491790438
 31
0.0
  0
LINE
  5
FB
330
1F
100
AcDbEntity
  8
3-0
  6
Continuous
 62
     3
370
     9
100
AcDbLine
 10
1209.875888174317
 20
1136.832491790438
 30
0.0
 11
1209.875888174317
 21
1134.50439235922
 31
0.0
  0
LINE
  5
FC
330
1F
100
AcDbEntity
  8
3-0
  6
Continuous
 62
     3
370
     9
100
AcDbLine
 10
1209.875888174317
 20
1134.50439235922
 30
0.0
 11
1209.410453867941
 21
1132.175921768267
 31
0.0
  0
LINE
  5
FD
330
1F
100
AcDbEntity
  8
3-0
  6
Continuous
 62
     3
370
     9
100
AcDbLine
 10
1209.410453867941
 20
1132.175921768267
 30
0.0
 11
1211.73911003876
 21
1131.244496415913
 31
0.0
  0
LINE
  5
FE
330
1F
100
AcDbEntity
  8
3-0
  6
Continuous
 62
     3
370
     9
100
AcDbLine
 10
1211.73911003876
 20
1131.244496415913
 30
0.0
 11
1213.136155277358
 21
1133.572967006865
 31
0.0
  0
LINE
  5
FF
330
1F
100
AcDbEntity
  8
3-0
  6
Continuous
 62
     3
370
     9
100
AcDbLine
 10
1213.136155277358
 20
1133.572967006865
 30
0.0
 11
1214.998634822333
 21
1134.038586893109
 31
0.0
  0
LINE
  5
100
330
1F
100
AcDbEntity
  8
3-0
  6
Continuous
 62
     3
370
     9
100
AcDbLine
 10
1214.998634822333
 20
1134.038586893109
 30
0.0
 11
1216.861114367307
 21
1135.901066438084
 31
0.0
  0
LINE
  5
101
330
1F
100
AcDbEntity
  8
3-0
  6
Continuous
 62
     3
370
     9
100
AcDbLine
 10
1216.861114367307
 20
1135.901066438084
 30
0.0
 11
1218.723593912282
 21
1136.832491790438
 31
0.0
  0
LINE
  5
102
330
1F
100
AcDbEntity
  8
3-0
  6
Continuous
 62
     3
370
     9
100
AcDbLine
 10
1218.723593912282
 20
1136.832491790438
 30
0.0
 11
1218.723593912282
 21
1139.16096238139
 31
0.0
  0
LINE
  5
103
330
1F
100
AcDbEntity
  8
3-0
  6
Continuous
 62
     3
370
     9
100
AcDbLine
 10
1218.723593912282
 20
1139.16096238139
 30
0.0
 11
1216.394937741463
 21
1140.557822040121
 31
0.0
  0
LINE
  5
104
330
1F
100
AcDbEntity
  8
3-0
  6
Continuous
 62
     3
370
     9
100
AcDbLine
 10
1216.394937741463
 20
1140.557822040121
 30
0.0
 11
1214.532458196488
 21
1140.557822040121
 31
0.0
  0
LINE
  5
105
330
1F
100
AcDbEntity
  8
3-0
  6
Continuous
 62
     3
370
     9
100
AcDbLine
 10
1214.532458196488
 20
1140.557822040121
 30
0.0
 11
1212.669978651513
 21
1140.092202153877
 31
0.0
  0
LINE
  5
106
330
1F
100
AcDbEntity
  8
3-0
  6
Continuous
 62
     3
370
     9
100
AcDbLine
 10
1212.669978651513
 20
1140.092202153877
 30
0.0
 11
1210.807499106538
 21
1138.695342495147
 31
0.0
  0
LINE
  5
107
330
1F
100
AcDbEntity
  8
3-0
  6
Continuous
 62
     3
370
     9
100
AcDbLine
 10
1210.807499106538
 20
1138.695342495147
 30
0.0
 11
1213.136155277358
 21
1137.763917142792
 31
0.0
  0
LINE
  5
108
330
1F
100
AcDbEntity
  8
3-0
  6
Continuous
 62
     3
370
     9
100
AcDbLine
 10
1210.807499106538
 20
1138.695342495147
 30
0.0
 11
1213.136155277358
 21
1137.298297256548
 31
0.0
  0
LINE
  5
109
330
1F
100
AcDbEntity
  8
3-0
  6
Continuous
 62
     3
370
     9
100
AcDbLine
 10
1213.136155277358
 20
1137.298297256548
 30
0.0
 11
1214.998634822333
 21
1137.763917142792
 31
0.0
  0
LINE
  5
10A
330
1F
100
AcDbEntity
  8
3-0
  6
Continuous
 62
     3
370
     9
100
AcDbLine
 10
1214.998634822333
 20
1137.763917142792
 30
0.0
 11
1212.669978651513
 21
1138.695342495147
 31
0.0
  0
LINE
  5
10B
330
1F
100
AcDbEntity
  8
3-0
  6
Continuous
 62
     3
370
     9
100
AcDbLine
 10
1212.669978651513
 20
1138.695342495147
 30
0.0
 11
1210.807499106538
 21
1137.298297256548
 31
0.0
  0
LINE
  5
10C
330
1F
100
AcDbEntity
  8
3-0
  6
Continuous
 62
     3
370
     9
100
AcDbLine
 10
1210.807499106538
 20
1137.298297256548
 30
0.0
 11
1209.875888174317
 21
1134.969826665596
 31
0.0
  0
LINE
  5
10D
330
1F
100
AcDbEntity
  8
3-0
  6
Continuous
 62
     3
370
     9
100
AcDbLine
 10
1209.875888174317
 20
1134.969826665596
 30
0.0
 11
1212.204544345137
 21
1135.43544655184
 31
0.0
  0
LINE
  5
10E
330
1F
100
AcDbEntity
  8
3-0
  6
Continuous
 62
     3
370
     9
100
AcDbLine
 10
1212.204544345137
 20
1135.43544655184
 30
0.0
 11
1214.067023890111
 21
1136.366871904194
 31
0.0
  0
LINE
  5
10F
330
1F
100
AcDbEntity
  8
3-0
  6
Continuous
 62
     3
370
     9
100
AcDbLine
 10
1214.067023890111
 20
1136.366871904194
 30
0.0
 11
1211.73911003876
 21
1136.366871904194
 31
0.0
  0
LINE
  5
110
330
1F
100
AcDbEntity
  8
3-0
  6
Continuous
 62
     3
370
     9
100
AcDbLine
 10
1211.73911003876
 20
1136.366871904194
 30
0.0
 11
1209.875888174317
 21
1135.43544655184
 31
0.0
  0
LINE
  5
111
330
1F
100
AcDbEntity
  8
3-0
  6
Continuous
 62
     3
370
     9
100
AcDbLine
 10
1209.875888174317
 20
1135.43544655184
 30
0.0
 11
1212.204544345137
 21
1135.43544655184
 31
0.0
  0
LINE
  5
112
330
1F
100
AcDbEntity
  8
3-0
  6
Continuous
 62
     3
370
     9
100
AcDbLine
 10
1212.204544345137
 20
1135.43544655184
 30
0.0
 11
1214.998634822333
 21
1136.366871904194
 31
0.0
  0
LINE
  5
113
330
1F
100
AcDbEntity
  8
3-0
  6
Continuous
 62
     3
370
     9
100
AcDbLine
 10
1214.998634822333
 20
1136.366871904194
 30
0.0
 11
1216.861114367307
 21
1137.763917142792
 31
0.0
  0
LINE
  5
114
330
1F
100
AcDbEntity
  8
3-0
  6
Continuous
 62
     3
370
     9
100
AcDbLine
 10
1216.861114367307
 20
1137.763917142792
 30
0.0
 11
1214.532458196488
 21
1137.763917142792
 31
0.0
  0
LINE
  5
115
330
1F
100
AcDbEntity
  8
3-0
  6
Continuous
 62
     3
370
     9
100
AcDbLine
 10
1214.532458196488
 20
1137.763917142792
 30
0.0
 11
1212.669978651513
 21
1135.901066438084
 31
0.0
  0
LINE
  5
116
330
1F
100
AcDbEntity
  8
3-0
  6
Continuous
 62
     3
370
     9
100
AcDbLine
 10
1212.669978651513
 20
1135.901066438084
 30
0.0
 11
1215.929503435086
 21
1137.298297256548
 31
0.0
  0
LINE
  5
117
330
1F
100
AcDbEntity
  8
3-0
  6
Continuous
 62
     3
370
     9
100
AcDbLine
 10
1215.929503435086
 20
1137.298297256548
 30
0.0
 11
1217.79198298006
 21
1138.229537029036
 31
0.0
  0
LINE
  5
118
330
1F
100
AcDbEntity
  8
3-0
  6
Continuous
 62
     3
370
     9
100
AcDbLine
 10
1217.79198298006
 20
1138.229537029036
 30
0.0
 11
1215.46406912871
 21
1136.366871904194
 31
0.0
  0
LINE
  5
119
330
1F
100
AcDbEntity
  8
3-0
  6
Continuous
 62
     3
370
     9
100
AcDbLine
 10
1215.46406912871
 20
1136.366871904194
 30
0.0
 11
1215.929503435086
 21
1138.695342495147
 31
0.0
  0
LINE
  5
11A
330
1F
100
AcDbEntity
  8
3-0
  6
Continuous
 62
     3
370
     9
100
AcDbLine
 10
1215.929503435086
 20
1138.695342495147
 30
0.0
 11
1211.73911003876
 21
1138.695342495147
 31
0.0
  0
LINE
  5
11B
330
1F
100
AcDbEntity
  8
3-0
  6
Continuous
 62
     3
370
     9
100
AcDbLine
 10
1211.73911003876
 20
1138.695342495147
 30
0.0
 11
1210.807499106538
 21
1141.023441926365
 31
0.0
  0
LINE
  5
11C
330
1F
100
AcDbEntity
  8
3-0
  6
Continuous
 62
     3
370
     9
100
AcDbLine
 10
1210.807499106538
 20
1141.023441926365
 30
0.0
 11
1210.807499106538
 21
1138.695342495147
 31
0.0
  0
LINE
  5
11D
330
1F
100
AcDbEntity
  8
3-0
  6
Continuous
 62
     3
370
     9
100
AcDbLine
 10
1210.807499106538
 20
1138.695342495147
 30
0.0
 11
1208.944277242096
 21
1137.298297256548
 31
0.0
  0
LINE
  5
11E
330
1F
100
AcDbEntity
  8
3-0
  6
Continuous
 62
     3
370
     9
100
AcDbLine
 10
1208.944277242096
 20
1137.298297256548
 30
0.0
 11
1208.944277242096
 21
1134.969826665596
 31
0.0
  0
LINE
  5
11F
330
1F
100
AcDbEntity
  8
3-0
  6
Continuous
 62
     3
370
     9
100
AcDbLine
 10
1208.944277242096
 20
1134.969826665596
 30
0.0
 11
1211.272933412915
 21
1135.901066438084
 31
0.0
  0
LINE
  5
120
330
1F
100
AcDbEntity
  8
3-0
  6
Continuous
 62
     3
370
     9
100
AcDbLine
 10
1211.272933412915
 20
1135.901066438084
 30
0.0
 11
1210.807499106538
 21
1133.572967006865
 31
0.0
  0
LINE
  5
121
330
1F
100
AcDbEntity
  8
3-0
  6
Continuous
 62
     3
370
     9
100
AcDbLine
 10
1210.807499106538
 20
1133.572967006865
 30
0.0
 11
1210.342064800162
 21
1133.107347120622
 31
0.0
  0
ARC
  5
122
330
1F
100
AcDbEntity
  8
3-0
  6
Continuous
 62
     3
370
     9
100
AcDbCircle
 10
968.4238618071299
 20
1141.612101264414
 30
0.0
 40
9.508535346469364
100
AcDbArc
 50
182.1183013916016
 51
357.9061584472656
  0
ARC
  5
123
330
1F
100
AcDbEntity
  8
3-0
  6
Continuous
 62
     3
370
     9
100
AcDbCircle
 10
987.427982504976
 20
1141.612101264414
 30
0.0
 40
9.508535346469364
100
AcDbArc
 50
182.1183013916016
 51
357.9061584472656
  0
ARC
  5
124
330
1F
100
AcDbEntity
  8
3-0
  6
Continuous
 62
     3
370
     9
100
AcDbCircle
 10
1006.432103202823
 20
1141.612101264414
 30
0.0
 40
9.508535346469364
100
AcDbArc
 50
182.1183013916016
 51
357.9061584472656
  0
ARC
  5
125
330
1F
100
AcDbEntity
  8
3-0
  6
Continuous
 62
     3
370
     9
100
AcDbCircle
 10
1025.436223900669
 20
1141.612101264414
 30
0.0
 40
9.508535346469364
100
AcDbArc
 50
182.1183013916016
 51
357.9061584472656
  0
ARC
  5
126
330
1F
100
AcDbEntity
  8
3-0
  6
Continuous
 62
     3
370
     9
100
AcDbCircle
 10
1044.440344598515
 20
1141.612101264414
 30
0.0
 40
9.508535346469364
100
AcDbArc
 50
182.1183013916016
 51
357.9061584472656
  0
ARC
  5
127
330
1F
100
AcDbEntity
  8
3-0
  6
Continuous
 62
     3
370
     9
100
AcDbCircle
 10
1063.444465296361
 20
1141.612101264414
 30
0.0
 40
9.508535346469364
100
AcDbArc
 50
182.1183013916016
 51
357.9061584472656
  0
ARC
  5
128
330
1F
100
AcDbEntity
  8
3-0
  6
Continuous
 62
     3
370
     9
100
AcDbCircle
 10
1082.448585994207
 20
1141.612101264414
 30
0.0
 40
9.508535346469364
100
AcDbArc
 50
182.1183013916016
 51
357.9061584472656
  0
ARC
  5
129
330
1F
100
AcDbEntity
  8
3-0
  6
Continuous
 62
     3
370
     9
100
AcDbCircle
 10
1101.452706692054
 20
1141.612101264414
 30
0.0
 40
9.508535346469364
100
AcDbArc
 50
182.1183013916016
 51
357.9061584472656
  0
ARC
  5
12A
330
1F
100
AcDbEntity
  8
3-0
  6
Continuous
 62
     3
370
     9
100
AcDbCircle
 10
1120.4568273899
 20
1141.612101264414
 30
0.0
 40
9.508535346469364
100
AcDbArc
 50
182.1183013916016
 51
357.9061584472656
  0
ARC
  5
12B
330
1F
100
AcDbEntity
  8
3-0
  6
Continuous
 62
     3
370
     9
100
AcDbCircle
 10
1139.460948087746
 20
1141.612101264414
 30
0.0
 40
9.508535346469364
100
AcDbArc
 50
182.1183013916016
 51
357.9061584472656
  0
ARC
  5
12C
330
1F
100
AcDbEntity
  8
3-0
  6
Continuous
 62
     3
370
     9
100
AcDbCircle
 10
1158.465068785592
 20
1141.612101264414
 30
0.0
 40
9.508535346469364
100
AcDbArc
 50
182.1183013916016
 51
357.9061584472656
  0
ARC
  5
12D
330
1F
100
AcDbEntity
  8
3-0
  6
Continuous
 62
     3
370
     9
100
AcDbCircle
 10
1177.469189483439
 20
1141.612101264414
 30
0.0
 40
9.508535346469364
100
AcDbArc
 50
182.1183013916016
 51
357.9061584472656
  0
ARC
  5
12E
330
1F
100
AcDbEntity
  8
3-0
  6
Continuous
 62
     3
370
     9
100
AcDbCircle
 10
1196.473310181285
 20
1141.612101264414
 30
0.0
 40
9.508535346469364
100
AcDbArc
 50
182.1183013916016
 51
357.9061584472656
  0
LINE
  5
12F
330
1F
100
AcDbEntity
  8
3-4
  6
Continuous
 62
     3
370
     9
100
AcDbLine
 10
692.1765092483288
 20
1141.264695753434
 30
0.0
 11
692.1765092483288
 21
1111.264596777505
 31
0.0
  0
LINE
  5
130
330
1F
100
AcDbEntity
  8
3-0
  6
Continuous
 62
     3
370
     9
100
AcDbLine
 10
692.1765092483288
 20
1111.264596777505
 30
0.0
 11
1209.031870939309
 21
1111.264596777505
 31
0.0
  0
LINE
  5
131
330
1F
100
AcDbEntity
  8
3-0
  6
Continuous
 62
     4
370
     9
100
AcDbLine
 10
514.9928612264714
 20
1258.397325972765
 30
0.0
 11
505.1021966360994
 21
1252.686847886036
 31
0.0
  0
LINE
  5
132
330
1F
100
AcDbEntity
  8
3-0
  6
Continuous
 62
     4
370
     9
100
AcDbLine
 10
505.1021966360994
 20
1361.267957835096
 30
0.0
 11
505.1021966360994
 21
1252.686847886036
 31
0.0
  0
LINE
  5
133
330
1F
100
AcDbEntity
  8
3-0
  6
Continuous
 62
     4
370
     9
100
AcDbLine
 10
495.2115320457279
 20
1224.135199771857
 30
0.0
 11
514.9928612264714
 21
1258.397325972765
 31
0.0
  0
LINE
  5
134
330
1F
100
AcDbEntity
  8
3-0
  6
Continuous
 62
     4
370
     9
100
AcDbLine
 10
495.2115320457279
 20
1224.135199771857
 30
0.0
 11
505.1021966360994
 21
1229.845677858586
 31
0.0
  0
LINE
  5
135
330
1F
100
AcDbEntity
  8
3-0
  6
Continuous
 62
     4
370
     9
100
AcDbLine
 10
505.1021966360994
 20
1229.845677858586
 30
0.0
 11
505.1021966360994
 21
1121.264753489393
 31
0.0
  0
LINE
  5
136
330
1F
100
AcDbEntity
  8
3-0
  6
Continuous
 62
     4
370
     9
100
AcDbLine
 10
1366.970730208734
 20
1258.397325972765
 30
0.0
 11
1357.080065618363
 21
1252.686847886036
 31
0.0
  0
LINE
  5
137
330
1F
100
AcDbEntity
  8
3-0
  6
Continuous
 62
     4
370
     9
100
AcDbLine
 10
1357.080065618363
 20
1361.267957835096
 30
0.0
 11
1357.080065618363
 21
1252.686847886036
 31
0.0
  0
LINE
  5
138
330
1F
100
AcDbEntity
  8
3-0
  6
Continuous
 62
     4
370
     9
100
AcDbLine
 10
1347.189401027992
 20
1224.135199771857
 30
0.0
 11
1366.970730208734
 21
1258.397325972765
 31
0.0
  0
LINE
  5
139
330
1F
100
AcDbEntity
  8
3-0
  6
Continuous
 62
     4
370
     9
100
AcDbLine
 10
1347.189401027992
 20
1224.135199771857
 30
0.0
 11
1357.080065618363
 21
1229.845677858586
 31
0.0
  0
LINE
  5
13A
330
1F
100
AcDbEntity
  8
3-0
  6
Continuous
 62
     4
370
     9
100
AcDbLine
 10
1357.080065618363
 20
1229.845677858586
 30
0.0
 11
1357.080065618363
 21
1121.264753489393
 31
0.0
  0
LINE
  5
13B
330
1F
100
AcDbEntity
  8
3-0
  6
Continuous
 62
     7
370
     9
100
AcDbLine
 10
871.5310461399002
 20
1074.372989441409
 30
0.0
 11
871.5310461399002
 21
1103.264991031622
 31
0.0
  0
LINE
  5
13C
330
1F
100
AcDbEntity
  8
3-0
  6
Continuous
 62
     7
370
     9
100
AcDbLine
 10
852.7666946301869
 20
1074.372989441409
 30
0.0
 11
852.7666946301869
 21
1103.264991031622
 31
0.0
  0
LINE
  5
13D
330
1F
100
AcDbEntity
  8
3-0
  6
Continuous
 62
     7
370
     9
100
AcDbLine
 10
815.2944078903221
 20
1074.372989441409
 30
0.0
 11
815.2944078903221
 21
1103.264991031622
 31
0.0
  0
LINE
  5
13E
330
1F
100
AcDbEntity
  8
3-0
  6
Continuous
 62
     7
370
     9
100
AcDbLine
 10
862.1488703850431
 20
1070.764574507921
 30
0.0
 11
805.9129744549338
 21
1070.764574507921
 31
0.0
  0
LINE
  5
13F
330
1F
100
AcDbEntity
  8
3-0
  6
Continuous
 62
     7
370
     9
100
AcDbLine
 10
872.7803698043846
 20
1103.264991031622
 30
0.0
 11
872.7803698043846
 21
1111.264596777505
 31
0.0
  0
LINE
  5
140
330
1F
100
AcDbEntity
  8
3-0
  6
Continuous
 62
     7
370
     9
100
AcDbLine
 10
796.5307987000775
 20
1074.372989441409
 30
0.0
 11
796.5307987000775
 21
1103.264991031622
 31
0.0
  0
LINE
  5
141
330
1F
100
AcDbEntity
  8
3-0
  6
Continuous
 62
     7
370
     9
100
AcDbLine
 10
872.7803698043846
 20
1103.264991031622
 30
0.0
 11
795.2807327161244
 21
1103.264991031622
 31
0.0
  0
LINE
  5
142
330
1F
100
AcDbEntity
  8
3-0
  6
Continuous
 62
     7
370
     9
100
AcDbLine
 10
795.2807327161244
 20
1103.264991031622
 30
0.0
 11
795.2807327161244
 21
1111.264596777505
 31
0.0
  0
LINE
  5
143
330
1F
100
AcDbEntity
  8
3-0
  6
Continuous
 62
     7
370
     9
100
AcDbLine
 10
819.530825093658
 20
1070.764574507921
 30
0.0
 11
819.530825093658
 21
1066.268716650552
 31
0.0
  0
LINE
  5
144
330
1F
100
AcDbEntity
  8
3-0
  6
Continuous
 62
     7
370
     9
100
AcDbLine
 10
848.531019746319
 20
1070.764574507921
 30
0.0
 11
848.531019746319
 21
1066.268716650552
 31
0.0
  0
LINE
  5
145
330
1F
100
AcDbEntity
  8
3-0
  6
Continuous
 62
     7
370
     9
100
AcDbLine
 10
819.530825093658
 20
1066.268716650552
 30
0.0
 11
815.0353383960228
 21
1070.764574507921
 31
0.0
  0
LINE
  5
146
330
1F
100
AcDbEntity
  8
3-0
  6
Continuous
 62
     7
370
     9
100
AcDbLine
 10
848.531019746319
 20
1066.268716650552
 30
0.0
 11
853.0272487634221
 21
1070.764574507921
 31
0.0
  0
LINE
  5
147
330
1F
100
AcDbEntity
  8
3-0
  6
Continuous
 62
     7
370
     9
100
AcDbLine
 10
819.530825093658
 20
1066.268716650552
 30
0.0
 11
848.531019746319
 21
1066.268716650552
 31
0.0
  0
ARC
  5
148
330
1F
100
AcDbEntity
  8
3-0
  6
Continuous
 62
     7
370
     9
100
AcDbCircle
 10
862.1488703850431
 20
1084.765461992085
 30
0.0
 40
14.00086573652319
100
AcDbArc
 50
227.9255676269531
 51
312.0746307373047
  0
ARC
  5
149
330
1F
100
AcDbEntity
  8
3-0
  6
Continuous
 62
     7
370
     9
100
AcDbCircle
 10
834.0312935797228
 20
1121.211677647438
 30
0.0
 40
50.44705094517889
100
AcDbArc
 50
248.1978607177734
 51
291.8021392822266
  0
ARC
  5
14A
330
1F
100
AcDbEntity
  8
3-0
  6
Continuous
 62
     7
370
     9
100
AcDbCircle
 10
805.9129744549338
 20
1084.765461992085
 30
0.0
 40
14.00094692771499
100
AcDbArc
 50
227.9257202148438
 51
312.0742797851562
  0
LINE
  5
14B
330
1F
100
AcDbEntity
  8
3-0
  6
Continuous
 62
     3
370
     9
100
AcDbLine
 10
809.0312935797228
 20
1141.264695753434
 30
0.0
 11
809.0312935797228
 21
1111.264596777505
 31
0.0
  0
LINE
  5
14C
330
1F
100
AcDbEntity
  8
3-0
  6
Continuous
 62
     3
370
     9
100
AcDbLine
 10
859.0312935797228
 20
1141.264695753434
 30
0.0
 11
859.0312935797228
 21
1111.264596777505
 31
0.0
  0
LINE
  5
14D
330
1F
100
AcDbEntity
  8
3-0
  6
Continuous
 62
     3
370
     9
100
AcDbLine
 10
505.1021966360994
 20
1141.264695753434
 30
0.0
 11
814.0312935797228
 21
1141.264695753434
 31
0.0
  0
LINE
  5
14E
330
1F
100
AcDbEntity
  8
3-0
  6
Continuous
 62
     3
370
     9
100
AcDbLine
 10
854.0312935797228
 20
1141.264695753434
 30
0.0
 11
1357.080065618363
 21
1141.264695753434
 31
0.0
  0
LINE
  5
14F
330
1F
100
AcDbEntity
  8
3-0
  6
Continuous
 62
     3
370
     9
100
AcDbLine
 10
794.0312935797228
 20
1166.268427970759
 30
0.0
 11
505.1021966360994
 21
1166.268427970759
 31
0.0
  0
LINE
  5
150
330
1F
100
AcDbEntity
  8
3-0
  6
Continuous
 62
     3
370
     9
100
AcDbLine
 10
1357.080065618363
 20
1166.268427970759
 30
0.0
 11
874.0312935797228
 21
1166.268427970759
 31
0.0
  0
LINE
  5
151
330
1F
100
AcDbEntity
  8
3-0
  6
Continuous
 62
     3
370
     9
100
AcDbLine
 10
814.0312935797228
 20
1141.264695753434
 30
0.0
 11
794.0312935797228
 21
1166.268427970759
 31
0.0
  0
LINE
  5
152
330
1F
100
AcDbEntity
  8
3-0
  6
Continuous
 62
     3
370
     9
100
AcDbLine
 10
854.0312935797228
 20
1141.264695753434
 30
0.0
 11
874.0312935797228
 21
1166.268427970759
 31
0.0
  0
LINE
  5
153
330
1F
100
AcDbEntity
  8
3-0
  6
JWW_DASHED1
 62
     7
370
     9
100
AcDbLine
 10
794.53099005354
 20
1166.291217716294
 30
0.0
 11
794.53099005354
 21
1164.791361231392
 31
0.0
  0
LINE
  5
154
330
1F
100
AcDbEntity
  8
3-0
  6
JWW_DASHED1
 62
     7
370
     9
100
AcDbLine
 10
873.5308547864369
 20
1166.291217716294
 30
0.0
 11
873.5308547864369
 21
1164.791361231392
 31
0.0
  0
LINE
  5
155
330
1F
100
AcDbEntity
  8
3-0
  6
Continuous
 62
     7
370
     9
100
AcDbLine
 10
794.53099005354
 20
1166.291217716294
 30
0.0
 11
873.5308547864369
 21
1166.291217716294
 31
0.0
  0
LINE
  5
156
330
1F
100
AcDbEntity
  8
3-0
  6
Continuous
 62
     7
370
     9
100
AcDbLine
 10
794.53099005354
 20
1164.791361231392
 30
0.0
 11
873.5308547864369
 21
1164.791361231392
 31
0.0
  0
LINE
  5
157
330
1F
100
AcDbEntity
  8
3-0
  6
Continuous
 62
     7
370
     9
100
AcDbLine
 10
853.7035017986838
 20
1144.964008243638
 30
0.0
 11
873.5308547864369
 21
1164.791361231392
 31
0.0
  0
LINE
  5
158
330
1F
100
AcDbEntity
  8
3-0
  6
Continuous
 62
     7
370
     9
100
AcDbLine
 10
815.8593130053978
 20
1143.041400821763
 30
0.0
 11
852.2025318345791
 21
1143.041400821763
 31
0.0
  0
LINE
  5
159
330
1F
100
AcDbEntity
  8
3-0
  6
Continuous
 62
     7
370
     9
100
AcDbLine
 10
814.3583430412931
 20
1144.964008243638
 30
0.0
 11
794.53099005354
 21
1164.791361231392
 31
0.0
  0
LINE
  5
15A
330
1F
100
AcDbEntity
  8
3-0
  6
Continuous
 62
     7
370
     9
100
AcDbLine
 10
851.0964758274002
 20
1140.409507148305
 30
0.0
 11
848.531019746319
 21
1130.54111214197
 31
0.0
  0
LINE
  5
15B
330
1F
100
AcDbEntity
  8
3-0
  6
Continuous
 62
     7
370
     9
100
AcDbLine
 10
816.9646266931096
 20
1140.409507148305
 30
0.0
 11
819.530825093658
 21
1130.54111214197
 31
0.0
  0
LINE
  5
15C
330
1F
100
AcDbEntity
  8
3-0
  6
Continuous
 62
     7
370
     9
100
AcDbLine
 10
814.0309801559471
 20
1130.54111214197
 30
0.0
 11
854.0308646840299
 21
1130.54111214197
 31
0.0
  0
LINE
  5
15D
330
1F
100
AcDbEntity
  8
3-0
  6
Continuous
 62
     7
370
     9
100
AcDbLine
 10
814.0309801559471
 20
1130.54111214197
 30
0.0
 11
817.823490317476
 21
1137.109525953731
 31
0.0
  0
LINE
  5
15E
330
1F
100
AcDbEntity
  8
3-0
  6
Continuous
 62
     7
370
     9
100
AcDbLine
 10
854.0308646840299
 20
1130.54111214197
 30
0.0
 11
850.239096841969
 21
1137.109525953731
 31
0.0
  0
ARC
  5
15F
330
1F
100
AcDbEntity
  8
3-0
  6
Continuous
 62
     7
370
     9
100
AcDbCircle
 10
860.7748370499502
 20
1137.893044152105
 30
0.0
 40
9.999999403953552
100
AcDbArc
 50
135.0
 51
165.4257965087891
  0
ARC
  5
160
330
1F
100
AcDbEntity
  8
3-0
  6
Continuous
 62
     7
370
     9
100
AcDbCircle
 10
807.2870077900268
 20
1137.893044152105
 30
0.0
 40
9.999999403953552
100
AcDbArc
 50
14.57420349121094
 51
45.0
  0
LINE
  5
161
330
1F
100
AcDbEntity
  8
3-0
  6
Continuous
 62
     7
370
     9
100
AcDbLine
 10
814.0309801559471
 20
1130.54111214197
 30
0.0
 11
814.0309801559471
 21
1111.264596777505
 31
0.0
  0
LINE
  5
162
330
1F
100
AcDbEntity
  8
3-0
  6
Continuous
 62
     7
370
     9
100
AcDbLine
 10
819.530825093658
 20
1130.54111214197
 30
0.0
 11
819.530825093658
 21
1111.264596777505
 31
0.0
  0
LINE
  5
163
330
1F
100
AcDbEntity
  8
3-0
  6
Continuous
 62
     7
370
     9
100
AcDbLine
 10
848.531019746319
 20
1130.54111214197
 30
0.0
 11
848.531019746319
 21
1111.264596777505
 31
0.0
  0
LINE
  5
164
330
1F
100
AcDbEntity
  8
3-0
  6
Continuous
 62
     7
370
     9
100
AcDbLine
 10
854.0308646840299
 20
1130.54111214197
 30
0.0
 11
854.0308646840299
 21
1111.264596777505
 31
0.0
  0
TEXT
  5
165
330
1F
100
AcDbEntity
  8
3-0
  6
Continuous
 62
     7
370
     9
100
AcDbText
 10
1056.490300988644
 20
964.4371088185464
 30
0.0
 40
34.29
  1
皿ネジ･平座金･六角ナット
 41
1.152777777777778
  7
ＭＳ ゴシック
100
AcDbText
  0
TEXT
  5
166
330
1F
100
AcDbEntity
  8
3-0
  6
Continuous
 62
     7
370
     9
100
AcDbText
 10
1073.256445381768
 20
899.235436178621
 30
0.0
 40
34.29
  1
M8･S20C･ユニクロ
 41
1.145833333333333
  7
ＭＳ ゴシック
100
AcDbText
  0
LINE
  5
167
330
1F
100
AcDbEntity
  8
3-5
  6
Continuous
 62
     7
370
     9
100
AcDbLine
 10
1046.352632285826
 20
949.5012449003933
 30
0.0
 11
1677.018959862715
 21
949.5012449003933
 31
0.0
  0
LINE
  5
168
330
1F
100
AcDbEntity
  8
3-4
  6
Continuous
 62
     7
370
     9
100
AcDbLine
 10
2042.506305433307
 20
1111.264782357372
 30
0.0
 11
2042.506305433307
 21
1341.264675133449
 31
0.0
  0
LWPOLYLINE
  5
169
330
1F
100
AcDbEntity
  8
3-4
  6
Continuous
 62
     7
370
     9
100
AcDbPolyline
 90
        4
 70
     1
 43
1.5
 10
2043.256305433307
 20
1111.264782357372
 42
0.4142135623731
 10
2042.506305433307
 20
1112.014782357372
 42
0.4142135623731
 10
2041.756305433307
 20
1111.264782357372
 42
0.4142135623731
 10
2042.506305433307
 20
1110.514782357372
 42
0.4142135623731
  0
LWPOLYLINE
  5
16A
330
1F
100
AcDbEntity
  8
3-4
  6
Continuous
 62
     7
370
     9
100
AcDbPolyline
 90
        4
 70
     1
 43
1.5
 10
2043.256305433307
 20
1141.264695753434
 42
0.4142135623731
 10
2042.506305433307
 20
1142.014695753434
 42
0.4142135623731
 10
2041.756305433307
 20
1141.264695753434
 42
0.4142135623731
 10
2042.506305433307
 20
1140.514695753434
 42
0.4142135623731
  0
LINE
  5
16B
330
1F
100
AcDbEntity
  8
3-4
  6
Continuous
 62
     7
370
     9
100
AcDbLine
 10
2134.67502560733
 20
1111.264782357372
 30
0.0
 11
1956.207409012003
 21
1111.264782357372
 31
0.0
  0
LINE
  5
16C
330
1F
100
AcDbEntity
  8
3-4
  6
Continuous
 62
     7
370
     9
100
AcDbLine
 10
2047.006305433307
 20
1141.264695753434
 30
0.0
 11
1956.207409012003
 21
1141.264695753434
 31
0.0
  0
TEXT
  5
16D
330
1F
100
AcDbEntity
  8
3-4
  6
Continuous
 62
     7
370
   211
100
AcDbText
 10
2025.046305433307
 20
1111.264739055403
 30
0.0
 40
45.72
  1
6
 50
90.0
  7
ＭＳ ゴシック
100
AcDbText
  0
LWPOLYLINE
  5
16E
330
1F
100
AcDbEntity
  8
3-4
  6
Continuous
 62
     7
370
     9
100
AcDbPolyline
 90
        4
 70
     1
 43
1.5
 10
2043.256305433307
 20
1341.264675133449
 42
0.4142135623731
 10
2042.506305433307
 20
1342.014675133449
 42
0.4142135623731
 10
2041.756305433307
 20
1341.264675133449
 42
0.4142135623731
 10
2042.506305433307
 20
1340.514675133449
 42
0.4142135623731
  0
LINE
  5
16F
330
1F
100
AcDbEntity
  8
3-4
  6
Continuous
 62
     7
370
     9
100
AcDbLine
 10
2134.67502560733
 20
1341.264675133449
 30
0.0
 11
1956.207409012003
 21
1341.264675133449
 31
0.0
  0
TEXT
  5
170
330
1F
100
AcDbEntity
  8
3-4
  6
Continuous
 62
     7
370
   211
100
AcDbText
 10
2025.046305433307
 20
1209.389685443441
 30
0.0
 40
45.72
  1
40
 50
90.0
 41
1.0625
  7
ＭＳ ゴシック
100
AcDbText
  0
LINE
  5
171
330
1F
100
AcDbEntity
  8
3-4
  6
Continuous
 62
     7
370
     9
100
AcDbLine
 10
2130.17502560733
 20
1111.264782357372
 30
0.0
 11
2130.17502560733
 21
1341.264675133449
 31
0.0
  0
LWPOLYLINE
  5
172
330
1F
100
AcDbEntity
  8
3-4
  6
Continuous
 62
     7
370
     9
100
AcDbPolyline
 90
        4
 70
     1
 43
1.5
 10
2130.92502560733
 20
1111.264782357372
 42
0.4142135623731
 10
2130.17502560733
 20
1112.014782357372
 42
0.4142135623731
 10
2129.42502560733
 20
1111.264782357372
 42
0.4142135623731
 10
2130.17502560733
 20
1110.514782357372
 42
0.4142135623731
  0
LWPOLYLINE
  5
173
330
1F
100
AcDbEntity
  8
3-4
  6
Continuous
 62
     7
370
     9
100
AcDbPolyline
 90
        4
 70
     1
 43
1.5
 10
2130.92502560733
 20
1341.264675133449
 42
0.4142135623731
 10
2130.17502560733
 20
1342.014675133449
 42
0.4142135623731
 10
2129.42502560733
 20
1341.264675133449
 42
0.4142135623731
 10
2130.17502560733
 20
1340.514675133449
 42
0.4142135623731
  0
TEXT
  5
174
330
1F
100
AcDbEntity
  8
3-4
  6
Continuous
 62
     7
370
   211
100
AcDbText
 10
2112.71502560733
 20
1194.389728745411
 30
0.0
 40
45.72
  1
46
 50
90.0
 41
1.0625
  7
ＭＳ ゴシック
100
AcDbText
  0
LINE
  5
175
330
1F
100
AcDbEntity
  8
3-4
  6
Continuous
 62
     7
370
     9
100
AcDbLine
 10
1732.649541460639
 20
1438.200857817596
 30
0.0
 11
1932.648964101053
 21
1438.200857817596
 31
0.0
  0
LWPOLYLINE
  5
176
330
1F
100
AcDbEntity
  8
3-4
  6
Continuous
 62
     7
370
     9
100
AcDbPolyline
 90
        4
 70
     1
 43
1.5
 10
1733.399541460639
 20
1438.200857817596
 42
0.4142135623731
 10
1732.649541460639
 20
1438.950857817595
 42
0.4142135623731
 10
1731.899541460639
 20
1438.200857817596
 42
0.4142135623731
 10
1732.649541460639
 20
1437.450857817596
 42
0.4142135623731
  0
LWPOLYLINE
  5
177
330
1F
100
AcDbEntity
  8
3-4
  6
Continuous
 62
     7
370
     9
100
AcDbPolyline
 90
        4
 70
     1
 43
1.5
 10
1933.398964101053
 20
1438.200857817596
 42
0.4142135623731
 10
1932.648964101053
 20
1438.950857817595
 42
0.4142135623731
 10
1931.898964101053
 20
1438.200857817596
 42
0.4142135623731
 10
1932.648964101053
 20
1437.450857817596
 42
0.4142135623731
  0
LINE
  5
178
330
1F
100
AcDbEntity
  8
3-4
  6
Continuous
 62
     7
370
     9
100
AcDbLine
 10
1932.648964101053
 20
1442.700857817595
 30
0.0
 11
1932.648964101053
 21
1358.751080159887
 31
0.0
  0
TEXT
  5
179
330
1F
100
AcDbEntity
  8
3-4
  6
Continuous
 62
     7
370
   211
100
AcDbText
 10
1800.774252780846
 20
1455.660857817595
 30
0.0
 40
45.72
  1
40
 41
1.0625
  7
ＭＳ ゴシック
100
AcDbText
  0
LINE
  5
17A
330
1F
100
AcDbEntity
  8
3-4
  6
Continuous
 62
     7
370
     9
100
AcDbLine
 10
1732.649541460639
 20
1442.700857817595
 30
0.0
 11
1732.649541460639
 21
1217.659233629819
 31
0.0
  0
LINE
  5
17B
330
1F
100
AcDbEntity
  8
3-5
  6
Continuous
 62
     7
370
     9
100
AcDbLine
 10
1046.352632285826
 20
949.5012449003933
 30
0.0
 11
834.0312935797228
 21
1066.268716650552
 31
0.0
  0
TEXT
  5
17C
330
1F
100
AcDbEntity
  8
3-0
  6
Continuous
 62
     7
370
     9
100
AcDbText
 10
1028.107837334433
 20
745.5700391934745
 30
0.0
 40
45.72
  1
接続部詳細図　Ｓ＝１：３
 41
1.114583333333333
  7
ＭＳ ゴシック
100
AcDbText
  0
LINE
  5
17D
330
1F
100
AcDbEntity
  8
3-5
  6
Continuous
 62
     7
370
     9
100
AcDbLine
 10
1018.507415059869
 20
719.5670780816637
 30
0.0
 11
1815.116141244431
 21
719.5670780816637
 31
0.0
  0
TEXT
  5
17E
330
1F
100
AcDbEntity
  8
3-4
  6
Continuous
 62
     6
370
     0
100
AcDbText
 10
4016.04658719739
 20
-594.4521764804446
 30
0.0
 40
28.575
  1
・
 41
0.9999999999999998
  7
ＭＳ ゴシック
100
AcDbText
  0
LINE
  5
17F
330
1F
100
AcDbEntity
  8
3-4
  6
Continuous
 62
     7
370
     9
100
AcDbLine
 10
4138.214504561804
 20
121.4132987357389
 30
0.0
 11
4175.393686863322
 21
116.5185665274868
 31
0.0
  0
LINE
  5
180
330
1F
100
AcDbEntity
  8
3-4
  6
Continuous
 62
     7
370
     9
100
AcDbLine
 10
4138.214504561804
 20
121.4132987357389
 30
0.0
 11
4175.393686863322
 21
126.3080309439909
 31
0.0
  0
LINE
  5
181
330
1F
100
AcDbEntity
  8
3-6
  6
Continuous
 62
     6
370
     9
100
AcDbLine
 10
4338.215411841153
 20
-487.9652498296421
 30
0.0
 11
4910.602997890439
 21
-487.9652498296421
 31
0.0
  0
LINE
  5
182
330
1F
100
AcDbEntity
  8
3-1
  6
Continuous
 62
     2
370
     9
100
AcDbLine
 10
4138.215989200739
 20
-562.9652498296418
 30
0.0
 11
4338.215411841153
 21
-562.9652498296418
 31
0.0
  0
LINE
  5
183
330
1F
100
AcDbEntity
  8
3-6
  6
Continuous
 62
     6
370
     9
100
AcDbLine
 10
4353.215213889295
 20
-95.55744590755587
 30
0.0
 11
4385.807987326795
 21
-62.96467247005587
 31
0.0
  0
LINE
  5
184
330
1F
100
AcDbEntity
  8
3-6
  6
Continuous
 62
     6
370
     9
100
AcDbLine
 10
4353.215213889295
 20
-307.689616301216
 30
0.0
 11
4597.940003070566
 21
-62.96467247005587
 31
0.0
  0
LINE
  5
185
330
1F
100
AcDbEntity
  8
3-6
  6
Continuous
 62
     6
370
     9
100
AcDbLine
 10
4353.215213889295
 20
-166.2680147222199
 30
0.0
 11
4456.518865441238
 21
-62.96467247005587
 31
0.0
  0
LINE
  5
186
330
1F
100
AcDbEntity
  8
3-6
  6
Continuous
 62
     6
370
     9
100
AcDbLine
 10
4353.215213889295
 20
-236.979202136441
 30
0.0
 11
4527.229124956123
 21
-62.96467247005587
 31
0.0
  0
LINE
  5
187
330
1F
100
AcDbEntity
  8
3-2
  6
Continuous
 62
     3
370
     9
100
AcDbLine
 10
4338.215411841153
 20
-262.9657859492576
 30
0.0
 11
4138.214504561804
 21
-262.9657859492576
 31
0.0
  0
LINE
  5
188
330
1F
100
AcDbEntity
  8
3-2
  6
Continuous
 62
     3
370
     9
100
AcDbLine
 10
4338.215411841153
 20
-62.96524982964193
 30
0.0
 11
4333.217374863746
 21
-62.96524982964193
 31
0.0
  0
LINE
  5
189
330
1F
100
AcDbEntity
  8
3-2
  6
Continuous
 62
     3
370
     9
100
AcDbLine
 10
4313.216319120503
 20
-212.9679716676907
 30
0.0
 11
4313.216319120503
 21
-82.96556325341733
 31
0.0
  0
LINE
  5
18A
330
1F
100
AcDbEntity
  8
3-2
  6
Continuous
 62
     3
370
     9
100
AcDbLine
 10
4138.214504561804
 20
-262.9657859492576
 30
0.0
 11
4138.214504561804
 21
-257.9673778121165
 31
0.0
  0
LINE
  5
18B
330
1F
100
AcDbEntity
  8
3-2
  6
Continuous
 62
     3
370
     9
100
AcDbLine
 10
4288.21796871932
 20
-237.9670643883412
 30
0.0
 11
4158.215560305047
 21
-237.9670643883412
 31
0.0
  0
ARC
  5
18C
330
1F
100
AcDbEntity
  8
3-2
  6
Continuous
 62
     3
370
     9
100
AcDbCircle
 10
4288.21796871932
 20
-212.9679716676907
 30
0.0
 40
24.99999742250185
100
AcDbArc
 50
270.0
 51
0.0
  0
ARC
  5
18D
330
1F
100
AcDbEntity
  8
3-2
  6
Continuous
 62
     3
370
     9
100
AcDbCircle
 10
4333.217374863746
 20
-82.96556325341733
 30
0.0
 40
19.9999988079071
100
AcDbArc
 50
90.0
 51
180.0
  0
ARC
  5
18E
330
1F
100
AcDbEntity
  8
3-2
  6
Continuous
 62
     3
370
     9
100
AcDbCircle
 10
4158.215560305047
 20
-257.9673778121165
 30
0.0
 40
19.9999988079071
100
AcDbArc
 50
90.0
 51
180.0
  0
LINE
  5
18F
330
1F
100
AcDbEntity
  8
3-0
  6
Continuous
 62
     3
370
     9
100
AcDbLine
 10
4174.464504561804
 20
-285.4657859492576
 30
0.0
 11
4313.214504561804
 21
-285.4657859492576
 31
0.0
  0
LINE
  5
190
330
1F
100
AcDbEntity
  8
3-0
  6
Continuous
 62
     3
370
     9
100
AcDbLine
 10
4160.714504561804
 20
-526.7157859492577
 30
0.0
 11
4160.714504561804
 21
-299.2157859492574
 31
0.0
  0
ARC
  5
191
330
1F
100
AcDbEntity
  8
3-0
  6
Continuous
 62
     3
370
     9
100
AcDbCircle
 10
4174.464504561804
 20
-299.2157859492574
 30
0.0
 40
13.75
100
AcDbArc
 50
90.0
 51
180.0
  0
LINE
  5
192
330
1F
100
AcDbEntity
  8
3-0
  6
Continuous
 62
     3
370
     9
100
AcDbLine
 10
4313.214504561804
 20
-540.4657859492576
 30
0.0
 11
4313.214504561804
 21
-562.9657859492576
 31
0.0
  0
LINE
  5
193
330
1F
100
AcDbEntity
  8
3-0
  6
Continuous
 62
     3
370
     9
100
AcDbLine
 10
4313.214504561804
 20
-285.4657859492576
 30
0.0
 11
4313.214504561804
 21
-262.9657859492576
 31
0.0
  0
ARC
  5
194
330
1F
100
AcDbEntity
  8
3-0
  6
Continuous
 62
     3
370
     9
100
AcDbCircle
 10
4174.464504561804
 20
-299.2157859492574
 30
0.0
 40
36.25
100
AcDbArc
 50
90.0
 51
180.0
  0
LINE
  5
195
330
1F
100
AcDbEntity
  8
3-0
  6
Continuous
 62
     3
370
     9
100
AcDbLine
 10
4174.464504561804
 20
-262.9657859492576
 30
0.0
 11
4313.214504561804
 21
-262.9657859492576
 31
0.0
  0
ARC
  5
196
330
1F
100
AcDbEntity
  8
3-0
  6
Continuous
 62
     3
370
     9
100
AcDbCircle
 10
4174.464504561804
 20
-526.7157859492577
 30
0.0
 40
36.25
100
AcDbArc
 50
180.0
 51
270.0
  0
ARC
  5
197
330
1F
100
AcDbEntity
  8
3-0
  6
Continuous
 62
     3
370
     9
100
AcDbCircle
 10
4174.464504561804
 20
-526.7157859492577
 30
0.0
 40
13.75
100
AcDbArc
 50
180.0
 51
270.0
  0
LINE
  5
198
330
1F
100
AcDbEntity
  8
3-0
  6
Continuous
 62
     3
370
     9
100
AcDbLine
 10
4138.214504561804
 20
-526.7157859492577
 30
0.0
 11
4138.214504561804
 21
-299.2157859492574
 31
0.0
  0
LINE
  5
199
330
1F
100
AcDbEntity
  8
3-0
  6
Continuous
 62
     3
370
     9
100
AcDbLine
 10
4174.464504561804
 20
-540.4657859492576
 30
0.0
 11
4313.214504561804
 21
-540.4657859492576
 31
0.0
  0
LINE
  5
19A
330
1F
100
AcDbEntity
  8
3-0
  6
Continuous
 62
     3
370
     9
100
AcDbLine
 10
4174.464504561804
 20
-562.9657859492576
 30
0.0
 11
4313.214504561804
 21
-562.9657859492576
 31
0.0
  0
LINE
  5
19B
330
1F
100
AcDbEntity
  8
3-0
  6
JWW_DASHED3
 62
     3
370
     9
100
AcDbLine
 10
4218.214233556284
 20
-540.4657859492576
 30
0.0
 11
4218.214233556284
 21
-562.9657859492576
 31
0.0
  0
LINE
  5
19C
330
1F
100
AcDbEntity
  8
3-0
  6
Continuous
 62
     2
370
     9
100
AcDbLine
 10
4315.714224130006
 20
-528.9657727524669
 30
0.0
 11
4315.714224130006
 21
-540.4657859492576
 31
0.0
  0
LINE
  5
19D
330
1F
100
AcDbEntity
  8
3-0
  6
Continuous
 62
     2
370
     9
100
AcDbLine
 10
4185.71441383387
 20
-540.4657859492576
 30
0.0
 11
4315.714224130006
 21
-540.4657859492576
 31
0.0
  0
LINE
  5
19E
330
1F
100
AcDbEntity
  8
3-0
  6
Continuous
 62
     2
370
     9
100
AcDbLine
 10
4185.71441383387
 20
-528.9657727524669
 30
0.0
 11
4185.71441383387
 21
-540.4657859492576
 31
0.0
  0
LINE
  5
19F
330
1F
100
AcDbEntity
  8
3-0
  6
Continuous
 62
     2
370
     9
100
AcDbLine
 10
4185.71441383387
 20
-528.9657727524669
 30
0.0
 11
4315.714224130006
 21
-528.9657727524669
 31
0.0
  0
LINE
  5
1A0
330
1F
100
AcDbEntity
  8
3-0
  6
Continuous
 62
     2
370
     9
100
AcDbLine
 10
4220.714405585875
 20
-446.920542402488
 30
0.0
 11
4280.714232378
 21
-446.920542402488
 31
0.0
  0
LINE
  5
1A1
330
1F
100
AcDbEntity
  8
3-0
  6
Continuous
 62
     2
370
     9
100
AcDbLine
 10
4225.449290311909
 20
-442.1852865167197
 30
0.0
 11
4225.449290311909
 21
-478.9657315124966
 31
0.0
  0
LINE
  5
1A2
330
1F
100
AcDbEntity
  8
3-0
  6
Continuous
 62
     2
370
     9
100
AcDbLine
 10
4275.979347651965
 20
-442.1852865167197
 30
0.0
 11
4275.979347651965
 21
-478.9657315124966
 31
0.0
  0
LINE
  5
1A3
330
1F
100
AcDbEntity
  8
3-0
  6
Continuous
 62
     2
370
     9
100
AcDbLine
 10
4225.449290311909
 20
-442.1852865167197
 30
0.0
 11
4220.714405585875
 21
-446.920542402488
 31
0.0
  0
LINE
  5
1A4
330
1F
100
AcDbEntity
  8
3-0
  6
Continuous
 62
     2
370
     9
100
AcDbLine
 10
4275.979347651965
 20
-442.1852865167197
 30
0.0
 11
4280.714232378
 21
-446.920542402488
 31
0.0
  0
LINE
  5
1A5
330
1F
100
AcDbEntity
  8
3-0
  6
Continuous
 62
     2
370
     9
100
AcDbLine
 10
4220.714405585875
 20
-446.920542402488
 30
0.0
 11
4220.714405585875
 21
-478.9657315124966
 31
0.0
  0
LINE
  5
1A6
330
1F
100
AcDbEntity
  8
3-0
  6
Continuous
 62
     2
370
     9
100
AcDbLine
 10
4280.714232378
 20
-446.920542402488
 30
0.0
 11
4280.714232378
 21
-478.9657315124966
 31
0.0
  0
LINE
  5
1A7
330
1F
100
AcDbEntity
  8
3-0
  6
Continuous
 62
     2
370
     9
100
AcDbLine
 10
4225.449290311909
 20
-442.1852865167197
 30
0.0
 11
4275.979347651965
 21
-442.1852865167197
 31
0.0
  0
LINE
  5
1A8
330
1F
100
AcDbEntity
  8
3-0
  6
Continuous
 62
     2
370
     9
100
AcDbLine
 10
4195.964361046707
 20
-484.5951111973571
 30
0.0
 11
4195.964361046707
 21
-528.9657727524669
 31
0.0
  0
LINE
  5
1A9
330
1F
100
AcDbEntity
  8
3-0
  6
Continuous
 62
     2
370
     9
100
AcDbLine
 10
4305.464648076902
 20
-484.5951111973571
 30
0.0
 11
4305.464648076902
 21
-528.9657727524669
 31
0.0
  0
LINE
  5
1AA
330
1F
100
AcDbEntity
  8
3-0
  6
Continuous
 62
     2
370
     9
100
AcDbLine
 10
4223.388611469005
 20
-484.5951111973571
 30
0.0
 11
4223.388611469005
 21
-528.9657727524669
 31
0.0
  0
LINE
  5
1AB
330
1F
100
AcDbEntity
  8
3-0
  6
Continuous
 62
     2
370
     9
100
AcDbLine
 10
4278.040397654605
 20
-484.5951111973571
 30
0.0
 11
4278.040397654605
 21
-528.9657727524669
 31
0.0
  0
LINE
  5
1AC
330
1F
100
AcDbEntity
  8
3-0
  6
Continuous
 62
     2
370
     9
100
AcDbLine
 10
4209.676486257857
 20
-478.9657315124966
 30
0.0
 11
4291.752522865753
 21
-478.9657315124966
 31
0.0
  0
ARC
  5
1AD
330
1F
100
AcDbEntity
  8
3-0
  6
Continuous
 62
     2
370
     9
100
AcDbCircle
 10
4209.676486257857
 20
-498.4809391639959
 30
0.0
 40
19.51515110763344
100
AcDbArc
 50
45.36129760742188
 51
134.6389617919922
  0
ARC
  5
1AE
330
1F
100
AcDbEntity
  8
3-0
  6
Continuous
 62
     2
370
     9
100
AcDbCircle
 10
4250.714504561804
 20
-548.105366753206
 30
0.0
 40
69.13950185518007
100
AcDbArc
 50
66.71980285644531
 51
113.2803039550781
  0
ARC
  5
1AF
330
1F
100
AcDbEntity
  8
3-0
  6
Continuous
 62
     2
370
     9
100
AcDbCircle
 10
4291.752522865753
 20
-498.4809391639959
 30
0.0
 40
19.51530334111807
100
AcDbArc
 50
45.36129760742188
 51
134.63818359375
  0
LINE
  5
1B0
330
1F
100
AcDbEntity
  8
3-0
  6
Continuous
 62
     2
370
     9
100
AcDbLine
 10
4247.714296712355
 20
-731.4652737488244
 30
0.0
 11
4253.714093811699
 21
-731.4652737488244
 31
0.0
  0
LINE
  5
1B1
330
1F
100
AcDbEntity
  8
3-0
  6
Continuous
 62
     2
370
     9
100
AcDbLine
 10
4247.714296712355
 20
-731.4652737488244
 30
0.0
 11
4237.255634009124
 21
-851.0085555102
 31
0.0
  0
LINE
  5
1B2
330
1F
100
AcDbEntity
  8
3-0
  6
Continuous
 62
     2
370
     9
100
AcDbLine
 10
4237.255634009124
 20
-851.0085555102
 30
0.0
 11
4210.358306689127
 21
-848.655248147051
 31
0.0
  0
LINE
  5
1B3
330
1F
100
AcDbEntity
  8
3-0
  6
Continuous
 62
     2
370
     9
100
AcDbLine
 10
4239.173292634546
 20
-829.0923464697391
 30
0.0
 11
4212.275965314549
 21
-826.7390391065898
 31
0.0
  0
LINE
  5
1B4
330
1F
100
AcDbEntity
  8
3-0
  6
Continuous
 62
     2
370
     9
100
AcDbLine
 10
4241.090951259968
 20
-807.1759827793885
 30
0.0
 11
4214.193005340416
 21
-804.8228300661282
 31
0.0
  0
LINE
  5
1B5
330
1F
100
AcDbEntity
  8
3-0
  6
Continuous
 62
     2
370
     9
100
AcDbLine
 10
4243.007991285834
 20
-785.2597737389273
 30
0.0
 11
4216.110663965839
 21
-782.9064663757775
 31
0.0
  0
LINE
  5
1B6
330
1F
100
AcDbEntity
  8
3-0
  6
Continuous
 62
     2
370
     9
100
AcDbLine
 10
4244.925649911257
 20
-763.3435646984657
 30
0.0
 11
4218.028322591261
 21
-760.9901026854276
 31
0.0
  0
LINE
  5
1B7
330
1F
100
AcDbEntity
  8
3-0
  6
Continuous
 62
     2
370
     9
100
AcDbLine
 10
4246.842689937122
 20
-741.427201008115
 30
0.0
 11
4219.945362617126
 21
-739.0740482948554
 31
0.0
  0
LINE
  5
1B8
330
1F
100
AcDbEntity
  8
3-0
  6
Continuous
 62
     2
370
     9
100
AcDbLine
 10
4215.264419772426
 20
-827.0005520691369
 30
0.0
 11
4214.193005340416
 21
-804.8228300661282
 31
0.0
  0
LINE
  5
1B9
330
1F
100
AcDbEntity
  8
3-0
  6
Continuous
 62
     2
370
     9
100
AcDbLine
 10
4217.182078397847
 20
-805.084188378787
 30
0.0
 11
4216.110663965839
 21
-782.9064663757775
 31
0.0
  0
LINE
  5
1BA
330
1F
100
AcDbEntity
  8
3-0
  6
Continuous
 62
     2
370
     9
100
AcDbLine
 10
4219.099118423714
 20
-783.167979338325
 30
0.0
 11
4218.028322591261
 21
-760.9901026854276
 31
0.0
  0
LINE
  5
1BB
330
1F
100
AcDbEntity
  8
3-0
  6
Continuous
 62
     2
370
     9
100
AcDbLine
 10
4221.016777049137
 20
-761.2516156479744
 30
0.0
 11
4219.945362617126
 21
-739.0740482948554
 31
0.0
  0
LINE
  5
1BC
330
1F
100
AcDbEntity
  8
3-0
  6
Continuous
 62
     2
370
     9
100
AcDbLine
 10
4212.275965314549
 20
-826.7390391065898
 30
0.0
 11
4210.358306689127
 21
-848.655248147051
 31
0.0
  0
LINE
  5
1BD
330
1F
100
AcDbEntity
  8
3-0
  6
Continuous
 62
     2
370
     9
100
AcDbLine
 10
4253.714712411257
 20
-731.4652737488244
 30
0.0
 11
4264.173375114487
 21
-851.0085555102
 31
0.0
  0
LINE
  5
1BE
330
1F
100
AcDbEntity
  8
3-0
  6
Continuous
 62
     2
370
     9
100
AcDbLine
 10
4264.173375114487
 20
-851.0085555102
 30
0.0
 11
4291.070702434484
 21
-848.65540279694
 31
0.0
  0
LINE
  5
1BF
330
1F
100
AcDbEntity
  8
3-0
  6
Continuous
 62
     2
370
     9
100
AcDbLine
 10
4262.255716489064
 20
-829.0923464697391
 30
0.0
 11
4289.15304380906
 21
-826.7390391065898
 31
0.0
  0
LINE
  5
1C0
330
1F
100
AcDbEntity
  8
3-0
  6
Continuous
 62
     2
370
     9
100
AcDbLine
 10
4260.338057863642
 20
-807.1759827793885
 30
0.0
 11
4287.236003783194
 21
-804.8228300661282
 31
0.0
  0
LINE
  5
1C1
330
1F
100
AcDbEntity
  8
3-0
  6
Continuous
 62
     2
370
     9
100
AcDbLine
 10
4258.421017837776
 20
-785.2597737389273
 30
0.0
 11
4285.318345157772
 21
-782.9064663757775
 31
0.0
  0
LINE
  5
1C2
330
1F
100
AcDbEntity
  8
3-0
  6
Continuous
 62
     2
370
     9
100
AcDbLine
 10
4256.503359212355
 20
-763.3435646984657
 30
0.0
 11
4283.400686532351
 21
-760.9901026854276
 31
0.0
  0
LINE
  5
1C3
330
1F
100
AcDbEntity
  8
3-0
  6
Continuous
 62
     2
370
     9
100
AcDbLine
 10
4254.586319186488
 20
-741.427201008115
 30
0.0
 11
4281.483646506485
 21
-739.0740482948554
 31
0.0
  0
LINE
  5
1C4
330
1F
100
AcDbEntity
  8
3-0
  6
Continuous
 62
     2
370
     9
100
AcDbLine
 10
4286.164589351185
 20
-827.0005520691369
 30
0.0
 11
4287.236003783194
 21
-804.8228300661282
 31
0.0
  0
LINE
  5
1C5
330
1F
100
AcDbEntity
  8
3-0
  6
Continuous
 62
     2
370
     9
100
AcDbLine
 10
4284.246930725762
 20
-805.084188378787
 30
0.0
 11
4285.318345157772
 21
-782.9064663757775
 31
0.0
  0
LINE
  5
1C6
330
1F
100
AcDbEntity
  8
3-0
  6
Continuous
 62
     2
370
     9
100
AcDbLine
 10
4282.329890699896
 20
-783.167979338325
 30
0.0
 11
4283.400686532351
 21
-760.9901026854276
 31
0.0
  0
LINE
  5
1C7
330
1F
100
AcDbEntity
  8
3-0
  6
Continuous
 62
     2
370
     9
100
AcDbLine
 10
4280.412232074475
 20
-761.2516156479744
 30
0.0
 11
4281.483646506485
 21
-739.0740482948554
 31
0.0
  0
LINE
  5
1C8
330
1F
100
AcDbEntity
  8
3-0
  6
Continuous
 62
     2
370
     9
100
AcDbLine
 10
4289.15304380906
 20
-826.7390391065898
 30
0.0
 11
4291.070702434484
 21
-848.65540279694
 31
0.0
  0
ARC
  5
1C9
330
1F
100
AcDbEntity
  8
3-0
  6
Continuous
 62
     2
370
     9
100
AcDbCircle
 10
4008.381221266302
 20
-721.0168179382775
 30
0.0
 40
212.3332732432598
100
AcDbArc
 50
355.12158203125
 51
359.9159088134766
  0
ARC
  5
1CA
330
1F
100
AcDbEntity
  8
3-0
  6
Continuous
 62
     2
370
     9
100
AcDbCircle
 10
4493.047787857307
 20
-721.0168179382775
 30
0.0
 40
212.3332732432598
100
AcDbArc
 50
180.0840911865234
 51
184.87841796875
  0
LINE
  5
1CB
330
1F
100
AcDbEntity
  8
3-0
  6
JWW_CENTER2
 62
     2
370
     9
100
AcDbLine
 10
4250.714504561804
 20
-415.0880978592576
 30
0.0
 11
4250.714504561804
 21
-861.4797448544523
 31
0.0
  0
LINE
  5
1CC
330
1F
100
AcDbEntity
  8
3-0
  6
Continuous
 62
     2
370
     9
100
AcDbLine
 10
4280.714108658089
 20
-540.4657859492576
 30
0.0
 11
4280.714108658089
 21
-721.3285921147985
 31
0.0
  0
LINE
  5
1CD
330
1F
100
AcDbEntity
  8
3-0
  6
Continuous
 62
     2
370
     9
100
AcDbLine
 10
4220.714281865965
 20
-540.4657859492576
 30
0.0
 11
4220.714281865965
 21
-721.3285921147985
 31
0.0
  0
LINE
  5
1CE
330
1F
100
AcDbEntity
  8
3-3
  6
Continuous
 62
     6
370
     9
100
AcDbLine
 10
4113.593871049873
 20
-1062.965198279679
 30
0.0
 11
4500.714504561804
 21
-675.8439824948636
 31
0.0
  0
LINE
  5
1CF
330
1F
100
AcDbEntity
  8
3-3
  6
Continuous
 62
     6
370
     9
100
AcDbLine
 10
4134.807505643941
 20
-1062.965198279679
 30
0.0
 11
4500.714504561804
 21
-697.0570173389472
 31
0.0
  0
LINE
  5
1D0
330
1F
100
AcDbEntity
  8
3-3
  6
Continuous
 62
     6
370
     9
100
AcDbLine
 10
4156.020521638449
 20
-1062.965198279679
 30
0.0
 11
4500.714504561804
 21
-718.270013069663
 31
0.0
  0
LINE
  5
1D1
330
1F
100
AcDbEntity
  8
3-6
  6
Continuous
 62
     6
370
     9
100
AcDbLine
 10
4000.714504561804
 20
-562.9652498296418
 30
0.0
 11
4000.714504561804
 21
-1062.965198279679
 31
0.0
  0
LINE
  5
1D2
330
1F
100
AcDbEntity
  8
3-6
  6
Continuous
 62
     6
370
     9
100
AcDbLine
 10
4500.714504561804
 20
-637.9651879696867
 30
0.0
 11
4000.714504561804
 21
-637.9651879696867
 31
0.0
  0
LINE
  5
1D3
330
1F
100
AcDbEntity
  8
3-3
  6
Continuous
 62
     6
370
     9
100
AcDbLine
 10
4000.714504561804
 20
-854.662781527379
 30
0.0
 11
4217.41157883334
 21
-637.9651879696867
 31
0.0
  0
LINE
  5
1D4
330
1F
100
AcDbEntity
  8
3-3
  6
Continuous
 62
     6
370
     9
100
AcDbLine
 10
4000.714504561804
 20
-875.8760127044621
 30
0.0
 11
4238.624594827851
 21
-637.9651879696867
 31
0.0
  0
LINE
  5
1D5
330
1F
100
AcDbEntity
  8
3-3
  6
Continuous
 62
     6
370
     9
100
AcDbLine
 10
4000.714504561804
 20
-897.0889952374444
 30
0.0
 11
4259.837610822362
 21
-637.9651879696867
 31
0.0
  0
LINE
  5
1D6
330
1F
100
AcDbEntity
  8
3-6
  6
Continuous
 62
     6
370
     9
100
AcDbLine
 10
4338.215411841153
 20
-62.96467247005587
 30
0.0
 11
4910.602997890439
 21
-62.96467247005587
 31
0.0
  0
LINE
  5
1D7
330
1F
100
AcDbEntity
  8
3-2
  6
Continuous
 62
     3
370
     9
100
AcDbLine
 10
4338.215411841153
 20
-562.9652498296418
 30
0.0
 11
4338.215411841153
 21
-62.96524982964193
 31
0.0
  0
LINE
  5
1D8
330
1F
100
AcDbEntity
  8
3-6
  6
Continuous
 62
     6
370
     9
100
AcDbLine
 10
4750.714504561805
 20
-1062.965198279679
 30
0.0
 11
3750.714504561805
 21
-1062.965198279679
 31
0.0
  0
LINE
  5
1D9
330
1F
100
AcDbEntity
  8
3-6
  6
Continuous
 62
     6
370
     9
100
AcDbLine
 10
3750.714504561805
 20
-1062.965198279679
 30
0.0
 11
3750.714504561805
 21
-1362.965105489745
 31
0.0
  0
LINE
  5
1DA
330
1F
100
AcDbEntity
  8
3-3
  6
Continuous
 62
     6
370
     9
100
AcDbLine
 10
3967.485398380428
 20
-1362.965105489745
 30
0.0
 11
3911.859689052938
 21
-1266.616523402409
 31
0.0
  0
LINE
  5
1DB
330
1F
100
AcDbEntity
  8
3-3
  6
Continuous
 62
     6
370
     9
100
AcDbLine
 10
4077.328884444617
 20
-1266.614976903518
 30
0.0
 11
4132.960779767675
 21
-1362.965105489745
 31
0.0
  0
LINE
  5
1DC
330
1F
100
AcDbEntity
  8
3-3
  6
Continuous
 62
     6
370
     9
100
AcDbLine
 10
4297.317733156611
 20
-1362.965105489745
 30
0.0
 11
4241.69202382912
 21
-1266.616523402409
 31
0.0
  0
LINE
  5
1DD
330
1F
100
AcDbEntity
  8
3-3
  6
Continuous
 62
     6
370
     9
100
AcDbLine
 10
4407.1612192208
 20
-1266.614976903518
 30
0.0
 11
4462.793114543858
 21
-1362.965105489745
 31
0.0
  0
LINE
  5
1DE
330
1F
100
AcDbEntity
  8
3-3
  6
Continuous
 62
     6
370
     9
100
AcDbLine
 10
3750.714525058667
 20
-1062.965198279679
 30
0.0
 11
3807.341726571413
 21
-1161.0424568279
 31
0.0
  0
LINE
  5
1DF
330
1F
100
AcDbEntity
  8
3-3
  6
Continuous
 62
     6
370
     9
100
AcDbLine
 10
3750.714504561805
 20
-1259.118787476787
 30
0.0
 11
3863.964021889655
 21
-1062.965198279679
 31
0.0
  0
LINE
  5
1E0
330
1F
100
AcDbEntity
  8
3-3
  6
Continuous
 62
     6
370
     9
100
AcDbLine
 10
3916.182518902855
 20
-1062.965198279679
 30
0.0
 11
3972.81154056265
 21
-1161.0424568279
 31
0.0
  0
LINE
  5
1E1
330
1F
100
AcDbEntity
  8
3-3
  6
Continuous
 62
     6
370
     9
100
AcDbLine
 10
3856.232123926776
 20
-1362.965105489745
 30
0.0
 11
4029.439390793869
 21
-1062.965198279679
 31
0.0
  0
LINE
  5
1E2
330
1F
100
AcDbEntity
  8
3-3
  6
Continuous
 62
     6
370
     9
100
AcDbLine
 10
4081.657769567489
 20
-1062.965198279679
 30
0.0
 11
4138.280117354773
 21
-1161.0424568279
 31
0.0
  0
LINE
  5
1E3
330
1F
100
AcDbEntity
  8
3-3
  6
Continuous
 62
     6
370
     9
100
AcDbLine
 10
4021.701319318457
 20
-1362.965105489745
 30
0.0
 11
4194.905512867874
 21
-1062.965198279679
 31
0.0
  0
LINE
  5
1E4
330
1F
100
AcDbEntity
  8
3-3
  6
Continuous
 62
     6
370
     9
100
AcDbLine
 10
4246.014853679039
 20
-1062.965198279679
 30
0.0
 11
4302.643875338832
 21
-1161.0424568279
 31
0.0
  0
LINE
  5
1E5
330
1F
100
AcDbEntity
  8
3-3
  6
Continuous
 62
     6
370
     9
100
AcDbLine
 10
4186.064458702958
 20
-1362.965105489745
 30
0.0
 11
4359.271725570051
 21
-1062.965198279679
 31
0.0
  0
LINE
  5
1E6
330
1F
100
AcDbEntity
  8
3-3
  6
Continuous
 62
     6
370
     9
100
AcDbLine
 10
4411.49010434367
 20
-1062.965198279679
 30
0.0
 11
4468.112452130957
 21
-1161.0424568279
 31
0.0
  0
LINE
  5
1E7
330
1F
100
AcDbEntity
  8
3-3
  6
Continuous
 62
     6
370
     9
100
AcDbLine
 10
4351.533654094639
 20
-1362.965105489745
 30
0.0
 11
4524.737847644056
 21
-1062.965198279679
 31
0.0
  0
LINE
  5
1E8
330
1F
100
AcDbEntity
  8
3-6
  6
Continuous
 62
     6
370
     9
100
AcDbLine
 10
3750.714504561805
 20
-1362.965105489745
 30
0.0
 11
4750.714504561805
 21
-1362.965105489745
 31
0.0
  0
LINE
  5
1E9
330
1F
100
AcDbEntity
  8
3-6
  6
Continuous
 62
     6
370
     9
100
AcDbLine
 10
4750.714504561805
 20
-1062.965198279679
 30
0.0
 11
4750.714504561805
 21
-1362.965105489745
 31
0.0
  0
LINE
  5
1EA
330
1F
100
AcDbEntity
  8
3-3
  6
Continuous
 62
     6
370
     9
100
AcDbLine
 10
4515.896793479141
 20
-1362.965105489745
 30
0.0
 11
4689.104199781192
 21
-1062.965198279679
 31
0.0
  0
LINE
  5
1EB
330
1F
100
AcDbEntity
  8
3-3
  6
Continuous
 62
     6
370
     9
100
AcDbLine
 10
4575.847190872815
 20
-1062.965198279679
 30
0.0
 11
4632.477413195386
 21
-1161.044322515977
 31
0.0
  0
LINE
  5
1EC
330
1F
100
AcDbEntity
  8
3-3
  6
Continuous
 62
     6
370
     9
100
AcDbLine
 10
4627.149994429736
 20
-1362.965105489745
 30
0.0
 11
4571.524358605302
 21
-1266.616523402409
 31
0.0
  0
LINE
  5
1ED
330
1F
100
AcDbEntity
  8
3-6
  6
Continuous
 62
     6
370
     9
100
AcDbLine
 10
4353.215213889295
 20
-362.9647549499966
 30
0.0
 11
4910.602997890439
 21
-362.9647549499966
 31
0.0
  0
LINE
  5
1EE
330
1F
100
AcDbEntity
  8
3-6
  6
Continuous
 62
     6
370
     9
100
AcDbLine
 10
4368.650504540332
 20
-362.9647549499966
 30
0.0
 11
4668.650881185009
 21
-62.96467247005587
 31
0.0
  0
LINE
  5
1EF
330
1F
100
AcDbEntity
  8
3-6
  6
Continuous
 62
     6
370
     9
100
AcDbLine
 10
4439.362740294077
 20
-362.9647549499966
 30
0.0
 11
4739.361140699896
 21
-62.96467247005587
 31
0.0
  0
LINE
  5
1F0
330
1F
100
AcDbEntity
  8
3-6
  6
Continuous
 62
     6
370
     9
100
AcDbLine
 10
4510.072854078373
 20
-362.9647549499966
 30
0.0
 11
4810.071978192638
 21
-62.96467247005587
 31
0.0
  0
LINE
  5
1F1
330
1F
100
AcDbEntity
  8
3-6
  6
Continuous
 62
     6
370
     9
100
AcDbLine
 10
4580.783237643536
 20
-362.9647549499966
 30
0.0
 11
4880.782733908739
 21
-62.96467247005587
 31
0.0
  0
LINE
  5
1F2
330
1F
100
AcDbEntity
  8
3-3
  6
Continuous
 62
     6
370
     9
100
AcDbLine
 10
4714.856350264929
 20
-889.6938541205791
 30
0.0
 11
4771.597451047351
 21
-987.965198279679
 31
0.0
  0
LINE
  5
1F3
330
1F
100
AcDbEntity
  8
3-3
  6
Continuous
 62
     6
370
     9
100
AcDbLine
 10
4606.121964123802
 20
-987.965198279679
 30
0.0
 11
4549.387154873249
 21
-889.69540061947
 31
0.0
  0
LINE
  5
1F4
330
1F
100
AcDbEntity
  8
3-3
  6
Continuous
 62
     6
370
     9
100
AcDbLine
 10
4500.714525058665
 20
-487.9652498296421
 30
0.0
 11
4557.341726571411
 21
-586.0425083778634
 31
0.0
  0
LINE
  5
1F5
330
1F
100
AcDbEntity
  8
3-3
  6
Continuous
 62
     6
370
     9
100
AcDbLine
 10
4500.714504561804
 20
-684.1188390267494
 30
0.0
 11
4613.964021889656
 21
-487.9652498296421
 31
0.0
  0
LINE
  5
1F6
330
1F
100
AcDbEntity
  8
3-3
  6
Continuous
 62
     6
370
     9
100
AcDbLine
 10
4500.714504561804
 20
-970.7246739876869
 30
0.0
 11
4779.439390799233
 21
-487.9652498296421
 31
0.0
  0
LINE
  5
1F7
330
1F
100
AcDbEntity
  8
3-3
  6
Continuous
 62
     6
370
     9
100
AcDbLine
 10
4666.182518902855
 20
-487.9652498296421
 30
0.0
 11
4722.81154056265
 21
-586.0425083778634
 31
0.0
  0
LINE
  5
1F8
330
1F
100
AcDbEntity
  8
3-6
  6
Continuous
 62
     6
370
     9
100
AcDbLine
 10
4500.714504561804
 20
-487.9652498296421
 30
0.0
 11
4500.714504561804
 21
-1062.965198279679
 31
0.0
  0
LINE
  5
1F9
330
1F
100
AcDbEntity
  8
3-6
  6
Continuous
 62
     6
370
     9
100
AcDbLine
 10
4000.714504561804
 20
-562.9652498296418
 30
0.0
 11
4500.714504561804
 21
-562.9652498296418
 31
0.0
  0
LINE
  5
1FA
330
1F
100
AcDbEntity
  8
3-6
  6
Continuous
 62
     6
370
     9
100
AcDbLine
 10
4353.215213889295
 20
-62.96524982964193
 30
0.0
 11
4353.215213889295
 21
-362.9647549499966
 31
0.0
  0
TEXT
  5
1FB
330
1F
100
AcDbEntity
  8
3-4
  6
Continuous
 62
     6
370
     0
100
AcDbText
 10
4366.161356137501
 20
-426.6811048431234
 30
0.0
 40
14.2875
  1
・
 41
0.9999999999999998
  7
ＭＳ ゴシック
100
AcDbText
  0
TEXT
  5
1FC
330
1F
100
AcDbEntity
  8
3-4
  6
Continuous
 62
     6
370
     0
100
AcDbText
 10
4496.469971332285
 20
-448.3992073755875
 30
0.0
 40
14.2875
  1
・
 41
0.9999999999999998
  7
ＭＳ ゴシック
100
AcDbText
  0
TEXT
  5
1FD
330
1F
100
AcDbEntity
  8
3-4
  6
Continuous
 62
     6
370
     0
100
AcDbText
 10
4570.311581802619
 20
-404.9630023106594
 30
0.0
 40
14.2875
  1
・
 41
0.9999999999999998
  7
ＭＳ ゴシック
100
AcDbText
  0
TEXT
  5
1FE
330
1F
100
AcDbEntity
  8
3-4
  6
Continuous
 62
     6
370
     0
100
AcDbText
 10
4609.404599380744
 20
-444.0555559391163
 30
0.0
 40
14.2875
  1
・
 41
0.9999999999999998
  7
ＭＳ ゴシック
100
AcDbText
  0
TEXT
  5
1FF
330
1F
100
AcDbEntity
  8
3-4
  6
Continuous
 62
     6
370
     0
100
AcDbText
 10
4700.62081559696
 20
-417.993801970182
 30
0.0
 40
14.2875
  1
・
 41
0.9999999999999998
  7
ＭＳ ゴシック
100
AcDbText
  0
TEXT
  5
200
330
1F
100
AcDbEntity
  8
3-4
  6
Continuous
 62
     6
370
     0
100
AcDbText
 10
4687.589397337881
 20
-461.4300070351097
 30
0.0
 40
14.2875
  1
・
 41
0.9999999999999998
  7
ＭＳ ゴシック
100
AcDbText
  0
TEXT
  5
201
330
1F
100
AcDbEntity
  8
3-4
  6
Continuous
 62
     6
370
     0
100
AcDbText
 10
4413.940748689232
 20
-465.7738131214703
 30
0.0
 40
14.2875
  1
・
 41
0.9999999999999998
  7
ＭＳ ゴシック
100
AcDbText
  0
TEXT
  5
202
330
1F
100
AcDbEntity
  8
3-4
  6
Continuous
 62
     6
370
     0
100
AcDbText
 10
4461.720759840519
 20
-413.6501505337113
 30
0.0
 40
14.2875
  1
・
 41
0.9999999999999998
  7
ＭＳ ゴシック
100
AcDbText
  0
TEXT
  5
203
330
1F
100
AcDbEntity
  8
3-4
  6
Continuous
 62
     6
370
     0
100
AcDbText
 10
4409.597561202429
 20
-391.9320480012473
 30
0.0
 40
14.2875
  1
・
 41
0.9999999999999998
  7
ＭＳ ゴシック
100
AcDbText
  0
TEXT
  5
204
330
1F
100
AcDbEntity
  8
3-4
  6
Continuous
 62
     6
370
     0
100
AcDbText
 10
4479.095365586402
 20
-474.4609613445223
 30
0.0
 40
14.2875
  1
・
 41
0.9999999999999998
  7
ＭＳ ゴシック
100
AcDbText
  0
TEXT
  5
205
330
1F
100
AcDbEntity
  8
3-4
  6
Continuous
 62
     6
370
     0
100
AcDbText
 10
4752.744014235051
 20
-413.6501505337113
 30
0.0
 40
14.2875
  1
・
 41
0.9999999999999998
  7
ＭＳ ゴシック
100
AcDbText
  0
TEXT
  5
206
330
1F
100
AcDbEntity
  8
3-4
  6
Continuous
 62
     6
370
     0
100
AcDbText
 10
4647.074554294794
 20
-399.9203780118658
 30
0.0
 40
14.2875
  1
・
 41
0.9999999999999998
  7
ＭＳ ゴシック
100
AcDbText
  0
TEXT
  5
207
330
1F
100
AcDbEntity
  8
3-4
  6
Continuous
 62
     6
370
     0
100
AcDbText
 10
4774.565553030561
 20
-463.0701250492086
 30
0.0
 40
14.2875
  1
・
 41
0.9999999999999998
  7
ＭＳ ゴシック
100
AcDbText
  0
TEXT
  5
208
330
1F
100
AcDbEntity
  8
3-4
  6
Continuous
 62
     6
370
     0
100
AcDbText
 10
4455.425476559156
 20
-628.3346281476455
 30
0.0
 40
28.575
  1
・
 41
0.9999999999999998
  7
ＭＳ ゴシック
100
AcDbText
  0
TEXT
  5
209
330
1F
100
AcDbEntity
  8
3-4
  6
Continuous
 62
     6
370
     0
100
AcDbText
 10
4418.264077956419
 20
-597.7311234159802
 30
0.0
 40
28.575
  1
・
 41
0.9999999999999998
  7
ＭＳ ゴシック
100
AcDbText
  0
TEXT
  5
20A
330
1F
100
AcDbEntity
  8
3-4
  6
Continuous
 62
     6
370
     0
100
AcDbText
 10
4330.279001852881
 20
-594.4521764804446
 30
0.0
 40
28.575
  1
・
 41
0.9999999999999998
  7
ＭＳ ゴシック
100
AcDbText
  0
TEXT
  5
20B
330
1F
100
AcDbEntity
  8
3-4
  6
Continuous
 62
     6
370
     0
100
AcDbText
 10
4284.920235911306
 20
-628.3346281476455
 30
0.0
 40
28.575
  1
・
 41
0.9999999999999998
  7
ＭＳ ゴシック
100
AcDbText
  0
TEXT
  5
20C
330
1F
100
AcDbEntity
  8
3-4
  6
Continuous
 62
     6
370
     0
100
AcDbText
 10
4369.079873923385
 20
-626.1486635239551
 30
0.0
 40
28.575
  1
・
 41
0.9999999999999998
  7
ＭＳ ゴシック
100
AcDbText
  0
TEXT
  5
20D
330
1F
100
AcDbEntity
  8
3-4
  6
Continuous
 62
     6
370
     0
100
AcDbText
 10
4131.356221097058
 20
-593.3591941685993
 30
0.0
 40
28.575
  1
・
 41
0.9999999999999998
  7
ＭＳ ゴシック
100
AcDbText
  0
TEXT
  5
20E
330
1F
100
AcDbEntity
  8
3-4
  6
Continuous
 62
     6
370
     0
100
AcDbText
 10
4160.866743516877
 20
-627.2416458358001
 30
0.0
 40
28.575
  1
・
 41
0.9999999999999998
  7
ＭＳ ゴシック
100
AcDbText
  0
TEXT
  5
20F
330
1F
100
AcDbEntity
  8
3-4
  6
Continuous
 62
     6
370
     0
100
AcDbText
 10
4063.044826606733
 20
-630.5205927713356
 30
0.0
 40
28.575
  1
・
 41
0.9999999999999998
  7
ＭＳ ゴシック
100
AcDbText
  0
LINE
  5
210
330
1F
100
AcDbEntity
  8
3-3
  6
Continuous
 62
     6
370
     9
100
AcDbLine
 10
4656.2316702871
 20
-987.965198279679
 30
0.0
 11
4910.602997890439
 21
-547.3788467952667
 31
0.0
  0
LINE
  5
211
330
1F
100
AcDbEntity
  8
3-3
  6
Continuous
 62
     6
370
     9
100
AcDbLine
 10
4821.702721477451
 20
-987.965198279679
 30
0.0
 11
4910.602997890439
 21
-833.9845546334598
 31
0.0
  0
LINE
  5
212
330
1F
100
AcDbEntity
  8
3-3
  6
Continuous
 62
     6
370
     9
100
AcDbLine
 10
4831.657773799359
 20
-487.9652498296421
 30
0.0
 11
4888.280488014234
 21
-586.0427688457434
 31
0.0
  0
LINE
  5
213
330
1F
100
AcDbEntity
  8
3-6
  6
Continuous
 62
     6
370
     9
100
AcDbLine
 10
4792.914682119267
 20
-362.9647549499966
 30
0.0
 11
4910.602997890439
 21
-245.2762649135432
 31
0.0
  0
LINE
  5
214
330
1F
100
AcDbEntity
  8
3-6
  6
Continuous
 62
     6
370
     9
100
AcDbLine
 10
4722.204394088199
 20
-362.9647549499966
 30
0.0
 11
4910.602997890439
 21
-174.5658184549662
 31
0.0
  0
LINE
  5
215
330
1F
100
AcDbEntity
  8
3-6
  6
Continuous
 62
     6
370
     9
100
AcDbLine
 10
4651.494300753248
 20
-362.9647549499966
 30
0.0
 11
4910.602997890439
 21
-103.8544279851495
 31
0.0
  0
LINE
  5
216
330
1F
100
AcDbEntity
  8
3-6
  6
Continuous
 62
     6
370
     9
100
AcDbLine
 10
4500.714504561804
 20
-987.965198279679
 30
0.0
 11
4910.602997890439
 21
-987.965198279679
 31
0.0
  0
LINE
  5
217
330
1F
100
AcDbEntity
  8
3-2
  6
JWW_DASHED2
 62
     3
370
     9
100
AcDbLine
 10
4288.216319120503
 20
-102.9668994284597
 30
0.0
 11
4283.216055184692
 21
-102.9668994284597
 31
0.0
  0
LINE
  5
218
330
1F
100
AcDbEntity
  8
3-2
  6
JWW_DASHED2
 62
     3
370
     9
100
AcDbLine
 10
4228.216121168645
 20
-102.9668994284597
 30
0.0
 11
4185.715733512923
 21
-102.9668994284597
 31
0.0
  0
LINE
  5
219
330
1F
100
AcDbEntity
  8
3-2
  6
JWW_DASHED2
 62
     3
370
     9
100
AcDbLine
 10
4242.968235954329
 20
-235.7431701144288
 30
0.0
 11
4228.216121168645
 21
-102.9668994284597
 31
0.0
  0
LINE
  5
21A
330
1F
100
AcDbEntity
  8
3-2
  6
JWW_DASHED2
 62
     3
370
     9
100
AcDbLine
 10
4265.978283660726
 20
-237.9666025006721
 30
0.0
 11
4245.453150373142
 21
-237.9666025006721
 31
0.0
  0
LINE
  5
21B
330
1F
100
AcDbEntity
  8
3-2
  6
JWW_DASHED2
 62
     3
370
     9
100
AcDbLine
 10
4268.462455760072
 20
-235.7431701144288
 30
0.0
 11
4283.216055184692
 21
-102.9668994284597
 31
0.0
  0
LINE
  5
21C
330
1F
100
AcDbEntity
  8
3-2
  6
JWW_DASHED2
 62
     3
370
     9
100
AcDbLine
 10
4227.814155176774
 20
-79.9765231879612
 30
0.0
 11
4223.216599552302
 21
-102.9668994284597
 31
0.0
  0
LINE
  5
21D
330
1F
100
AcDbEntity
  8
3-2
  6
JWW_DASHED2
 62
     3
370
     9
100
AcDbLine
 10
4281.166139974071
 20
-77.96706438834129
 30
0.0
 11
4230.265294059798
 21
-77.96706438834129
 31
0.0
  0
LINE
  5
21E
330
1F
100
AcDbEntity
  8
3-2
  6
JWW_DASHED2
 62
     3
370
     9
100
AcDbLine
 10
4283.618763496031
 20
-79.9765231879612
 30
0.0
 11
4288.216319120503
 21
-102.9668994284597
 31
0.0
  0
LINE
  5
21F
330
1F
100
AcDbEntity
  8
3-2
  6
JWW_DASHED2
 62
     3
370
     9
100
AcDbLine
 10
4186.118441824261
 20
-79.97633760809443
 30
0.0
 11
4190.717110927935
 21
-102.9668994284597
 31
0.0
  0
LINE
  5
220
330
1F
100
AcDbEntity
  8
3-2
  6
JWW_DASHED2
 62
     3
370
     9
100
AcDbLine
 10
4171.324757148374
 20
-141.344444759435
 30
0.0
 11
4185.715733512923
 21
-102.9668994284597
 31
0.0
  0
LINE
  5
221
330
1F
100
AcDbEntity
  8
3-2
  6
JWW_DASHED2
 62
     3
370
     9
100
AcDbLine
 10
4147.449164942399
 20
-142.9667839565425
 30
0.0
 11
4168.983852706335
 21
-142.9667839565425
 31
0.0
  0
LINE
  5
222
330
1F
100
AcDbEntity
  8
3-2
  6
JWW_DASHED2
 62
     3
370
     9
100
AcDbLine
 10
4145.107889340626
 20
-141.344444759435
 30
0.0
 11
4130.715799496876
 21
-102.9668994284597
 31
0.0
  0
ARC
  5
223
330
1F
100
AcDbEntity
  8
3-2
  6
JWW_DASHED2
 62
     3
370
     9
100
AcDbCircle
 10
4245.453150373142
 20
-235.4670272723678
 30
0.0
 40
2.500000032218727
100
AcDbArc
 50
186.3410797119141
 51
270.0
  0
ARC
  5
224
330
1F
100
AcDbEntity
  8
3-2
  6
JWW_DASHED2
 62
     3
370
     9
100
AcDbCircle
 10
4265.978283660726
 20
-235.4670272723678
 30
0.0
 40
2.500000032218727
100
AcDbArc
 50
270.0
 51
353.6589202880859
  0
ARC
  5
225
330
1F
100
AcDbEntity
  8
3-2
  6
JWW_DASHED2
 62
     3
370
     9
100
AcDbCircle
 10
4230.265294059798
 20
-80.46719635624676
 30
0.0
 40
2.500000032218727
100
AcDbArc
 50
90.0
 51
168.6900634765625
  0
ARC
  5
226
330
1F
100
AcDbEntity
  8
3-2
  6
JWW_DASHED2
 62
     3
370
     9
100
AcDbCircle
 10
4281.166139974071
 20
-80.46719635624676
 30
0.0
 40
2.500000032218727
100
AcDbArc
 50
11.30836486816406
 51
90.0
  0
ARC
  5
227
330
1F
100
AcDbEntity
  8
3-2
  6
JWW_DASHED2
 62
     3
370
     9
100
AcDbCircle
 10
4183.666931781503
 20
-80.46719635624676
 30
0.0
 40
2.500000032218727
100
AcDbArc
 50
11.31385803222656
 51
90.0
  0
ARC
  5
228
330
1F
100
AcDbEntity
  8
3-2
  6
JWW_DASHED2
 62
     3
370
     9
100
AcDbCircle
 10
4168.983852706335
 20
-140.467023148371
 30
0.0
 40
2.500000032218727
100
AcDbArc
 50
270.0
 51
339.4458312988281
  0
ARC
  5
229
330
1F
100
AcDbEntity
  8
3-2
  6
JWW_DASHED2
 62
     3
370
     9
100
AcDbCircle
 10
4147.449164942399
 20
-140.467023148371
 30
0.0
 40
2.500000032218727
100
AcDbArc
 50
200.5569763183594
 51
270.0
  0
LINE
  5
22A
330
1F
100
AcDbEntity
  8
3-2
  6
JWW_DASHED2
 62
     3
370
     9
100
AcDbLine
 10
4047.608681148058
 20
-141.344444759435
 30
0.0
 11
4033.216220144574
 21
-102.9668994284597
 31
0.0
  0
LINE
  5
22B
330
1F
100
AcDbEntity
  8
3-2
  6
JWW_DASHED2
 62
     3
370
     9
100
AcDbLine
 10
4032.814625312437
 20
-79.9765231879612
 30
0.0
 11
4028.217440847699
 21
-102.9668994284597
 31
0.0
  0
ARC
  5
22C
330
1F
100
AcDbEntity
  8
3-2
  6
JWW_DASHED2
 62
     3
370
     9
100
AcDbCircle
 10
4035.265393035727
 20
-80.46719635624676
 30
0.0
 40
2.500000032218727
100
AcDbArc
 50
90.0
 51
168.6900634765625
  0
LINE
  5
22D
330
1F
100
AcDbEntity
  8
3-2
  6
JWW_DASHED2
 62
     3
370
     9
100
AcDbLine
 10
4035.265393035727
 20
-77.96706438834129
 30
0.0
 11
4086.167352429202
 21
-77.96706438834129
 31
0.0
  0
LINE
  5
22E
330
1F
100
AcDbEntity
  8
3-2
  6
JWW_DASHED2
 62
     3
370
     9
100
AcDbLine
 10
4088.618491312226
 20
-79.97633760809443
 30
0.0
 11
4093.216789256166
 21
-102.9668994284597
 31
0.0
  0
ARC
  5
22F
330
1F
100
AcDbEntity
  8
3-2
  6
JWW_DASHED2
 62
     3
370
     9
100
AcDbCircle
 10
4086.167352429202
 20
-80.46719635624676
 30
0.0
 40
2.500000032218727
100
AcDbArc
 50
11.31385803222656
 51
90.0
  0
LINE
  5
230
330
1F
100
AcDbEntity
  8
3-2
  6
JWW_DASHED2
 62
     3
370
     9
100
AcDbLine
 10
4130.715799496876
 20
-102.9668994284597
 30
0.0
 11
4088.216154160621
 21
-102.9668994284597
 31
0.0
  0
LINE
  5
231
330
1F
100
AcDbEntity
  8
3-2
  6
JWW_DASHED2
 62
     3
370
     9
100
AcDbLine
 10
4073.825548955806
 20
-141.344444759435
 30
0.0
 11
4088.216154160621
 21
-102.9668994284597
 31
0.0
  0
ARC
  5
232
330
1F
100
AcDbEntity
  8
3-2
  6
JWW_DASHED2
 62
     3
370
     9
100
AcDbCircle
 10
4071.484273354033
 20
-140.467023148371
 30
0.0
 40
2.500000032218727
100
AcDbArc
 50
270.0
 51
339.4458312988281
  0
LINE
  5
233
330
1F
100
AcDbEntity
  8
3-2
  6
JWW_DASHED2
 62
     3
370
     9
100
AcDbLine
 10
4049.949585590097
 20
-142.9667839565425
 30
0.0
 11
4071.484273354033
 21
-142.9667839565425
 31
0.0
  0
ARC
  5
234
330
1F
100
AcDbEntity
  8
3-2
  6
JWW_DASHED2
 62
     3
370
     9
100
AcDbCircle
 10
4049.949585590097
 20
-140.467023148371
 30
0.0
 40
2.500000032218727
100
AcDbArc
 50
200.5569763183594
 51
270.0
  0
LINE
  5
235
330
1F
100
AcDbEntity
  8
3-2
  6
JWW_DASHED2
 62
     3
370
     9
100
AcDbLine
 10
4130.313833505004
 20
-79.9765231879612
 30
0.0
 11
4125.717020200001
 21
-102.9668994284597
 31
0.0
  0
ARC
  5
236
330
1F
100
AcDbEntity
  8
3-2
  6
JWW_DASHED2
 62
     3
370
     9
100
AcDbCircle
 10
4132.765714707496
 20
-80.46719635624676
 30
0.0
 40
2.500000032218727
100
AcDbArc
 50
90.0
 51
168.6900634765625
  0
LINE
  5
237
330
1F
100
AcDbEntity
  8
3-2
  6
JWW_DASHED2
 62
     3
370
     9
100
AcDbLine
 10
4183.666931781503
 20
-77.96706438834129
 30
0.0
 11
4132.765714707496
 21
-77.96706438834129
 31
0.0
  0
LINE
  5
238
330
1F
100
AcDbEntity
  8
3-2
  6
JWW_DASHED2
 62
     3
370
     9
100
AcDbLine
 10
3774.534280711571
 20
-227.9668169485186
 30
0.0
 11
4242.105289572889
 21
-227.9668169485186
 31
0.0
  0
LINE
  5
239
330
1F
100
AcDbEntity
  8
3-2
  6
JWW_DASHED2
 62
     3
370
     9
100
AcDbLine
 10
3950.109101795756
 20
-141.344444759435
 30
0.0
 11
3935.716640792272
 21
-102.9668994284597
 31
0.0
  0
LINE
  5
23A
330
1F
100
AcDbEntity
  8
3-2
  6
JWW_DASHED2
 62
     3
370
     9
100
AcDbLine
 10
3935.315045960136
 20
-79.9765231879612
 30
0.0
 11
3930.717861495397
 21
-102.9668994284597
 31
0.0
  0
ARC
  5
23B
330
1F
100
AcDbEntity
  8
3-2
  6
JWW_DASHED2
 62
     3
370
     9
100
AcDbCircle
 10
3937.765813683425
 20
-80.46719635624676
 30
0.0
 40
2.500000032218727
100
AcDbArc
 50
90.0
 51
168.6900634765625
  0
LINE
  5
23C
330
1F
100
AcDbEntity
  8
3-2
  6
JWW_DASHED2
 62
     3
370
     9
100
AcDbLine
 10
3937.765813683425
 20
-77.96706438834129
 30
0.0
 11
3988.6677730769
 21
-77.96706438834129
 31
0.0
  0
LINE
  5
23D
330
1F
100
AcDbEntity
  8
3-2
  6
JWW_DASHED2
 62
     3
370
     9
100
AcDbLine
 10
3991.118911959924
 20
-79.97633760809443
 30
0.0
 11
3995.717209903864
 21
-102.9668994284597
 31
0.0
  0
ARC
  5
23E
330
1F
100
AcDbEntity
  8
3-2
  6
JWW_DASHED2
 62
     3
370
     9
100
AcDbCircle
 10
3988.6677730769
 20
-80.46719635624676
 30
0.0
 40
2.500000032218727
100
AcDbArc
 50
11.31385803222656
 51
90.0
  0
LINE
  5
23F
330
1F
100
AcDbEntity
  8
3-2
  6
JWW_DASHED2
 62
     3
370
     9
100
AcDbLine
 10
3976.325969603505
 20
-141.344444759435
 30
0.0
 11
3990.71657480832
 21
-102.9668994284597
 31
0.0
  0
ARC
  5
240
330
1F
100
AcDbEntity
  8
3-2
  6
JWW_DASHED2
 62
     3
370
     9
100
AcDbCircle
 10
3973.984694001731
 20
-140.467023148371
 30
0.0
 40
2.500000032218727
100
AcDbArc
 50
270.0
 51
339.4458312988281
  0
LINE
  5
241
330
1F
100
AcDbEntity
  8
3-2
  6
JWW_DASHED2
 62
     3
370
     9
100
AcDbLine
 10
3952.450006237796
 20
-142.9667839565425
 30
0.0
 11
3973.984694001731
 21
-142.9667839565425
 31
0.0
  0
ARC
  5
242
330
1F
100
AcDbEntity
  8
3-2
  6
JWW_DASHED2
 62
     3
370
     9
100
AcDbCircle
 10
3952.450006237796
 20
-140.467023148371
 30
0.0
 40
2.500000032218727
100
AcDbArc
 50
200.5569763183594
 51
270.0
  0
LINE
  5
243
330
1F
100
AcDbEntity
  8
3-2
  6
JWW_DASHED2
 62
     3
370
     9
100
AcDbLine
 10
3852.609522443455
 20
-141.344444759435
 30
0.0
 11
3838.217061439971
 21
-102.9668994284597
 31
0.0
  0
LINE
  5
244
330
1F
100
AcDbEntity
  8
3-2
  6
JWW_DASHED2
 62
     3
370
     9
100
AcDbLine
 10
3837.815466607834
 20
-79.9765231879612
 30
0.0
 11
3833.218282143096
 21
-102.9668994284597
 31
0.0
  0
ARC
  5
245
330
1F
100
AcDbEntity
  8
3-2
  6
JWW_DASHED2
 62
     3
370
     9
100
AcDbCircle
 10
3840.266234331124
 20
-80.46719635624676
 30
0.0
 40
2.500000032218727
100
AcDbArc
 50
90.0
 51
168.6900634765625
  0
LINE
  5
246
330
1F
100
AcDbEntity
  8
3-2
  6
JWW_DASHED2
 62
     3
370
     9
100
AcDbLine
 10
3840.266234331124
 20
-77.96706438834129
 30
0.0
 11
3891.168193724598
 21
-77.96706438834129
 31
0.0
  0
LINE
  5
247
330
1F
100
AcDbEntity
  8
3-2
  6
JWW_DASHED2
 62
     3
370
     9
100
AcDbLine
 10
3893.619332607623
 20
-79.97633760809443
 30
0.0
 11
3898.217630551563
 21
-102.9668994284597
 31
0.0
  0
ARC
  5
248
330
1F
100
AcDbEntity
  8
3-2
  6
JWW_DASHED2
 62
     3
370
     9
100
AcDbCircle
 10
3891.168193724598
 20
-80.46719635624676
 30
0.0
 40
2.500000032218727
100
AcDbArc
 50
11.31385803222656
 51
90.0
  0
LINE
  5
249
330
1F
100
AcDbEntity
  8
3-2
  6
JWW_DASHED2
 62
     3
370
     9
100
AcDbLine
 10
3878.826390251204
 20
-141.344444759435
 30
0.0
 11
3893.216995456018
 21
-102.9668994284597
 31
0.0
  0
ARC
  5
24A
330
1F
100
AcDbEntity
  8
3-2
  6
JWW_DASHED2
 62
     3
370
     9
100
AcDbCircle
 10
3876.48511464943
 20
-140.467023148371
 30
0.0
 40
2.500000032218727
100
AcDbArc
 50
270.0
 51
339.4458312988281
  0
LINE
  5
24B
330
1F
100
AcDbEntity
  8
3-2
  6
JWW_DASHED2
 62
     3
370
     9
100
AcDbLine
 10
3854.950426885494
 20
-142.9667839565425
 30
0.0
 11
3876.48511464943
 21
-142.9667839565425
 31
0.0
  0
ARC
  5
24C
330
1F
100
AcDbEntity
  8
3-2
  6
JWW_DASHED2
 62
     3
370
     9
100
AcDbCircle
 10
3854.950426885494
 20
-140.467023148371
 30
0.0
 40
2.500000032218727
100
AcDbArc
 50
200.5569763183594
 51
270.0
  0
LINE
  5
24D
330
1F
100
AcDbEntity
  8
3-2
  6
JWW_DASHED2
 62
     3
370
     9
100
AcDbLine
 10
3893.216995456018
 20
-102.9668994284597
 30
0.0
 11
3935.716640792272
 21
-102.9668994284597
 31
0.0
  0
LINE
  5
24E
330
1F
100
AcDbEntity
  8
3-2
  6
JWW_DASHED2
 62
     3
370
     9
100
AcDbLine
 10
3990.71657480832
 20
-102.9668994284597
 30
0.0
 11
4033.216220144574
 21
-102.9668994284597
 31
0.0
  0
LINE
  5
24F
330
1F
100
AcDbEntity
  8
3-2
  6
JWW_DASHED2
 62
     3
370
     9
100
AcDbLine
 10
3838.217061439971
 20
-102.9668994284597
 30
0.0
 11
3787.869987943794
 21
-102.9668994284597
 31
0.0
  0
LINE
  5
250
330
1F
100
AcDbEntity
  8
3-4
  6
Continuous
 62
     7
370
     9
100
AcDbLine
 10
5084.793765686046
 20
-562.9652498296418
 30
0.0
 11
5084.793765686046
 21
-62.96467247005587
 31
0.0
  0
LINE
  5
251
330
1F
100
AcDbEntity
  8
3-4
  6
Continuous
 62
     7
370
     9
100
AcDbLine
 10
5084.793765686046
 20
-562.9652498296418
 30
0.0
 11
5079.899033477794
 21
-525.786067528124
 31
0.0
  0
LINE
  5
252
330
1F
100
AcDbEntity
  8
3-4
  6
Continuous
 62
     7
370
     9
100
AcDbLine
 10
5084.793765686046
 20
-562.9652498296418
 30
0.0
 11
5089.688497894297
 21
-525.786067528124
 31
0.0
  0
LINE
  5
253
330
1F
100
AcDbEntity
  8
3-4
  6
Continuous
 62
     7
370
     9
100
AcDbLine
 10
5084.793765686046
 20
-62.96467247005587
 30
0.0
 11
5079.899033477794
 21
-100.143854771574
 31
0.0
  0
LINE
  5
254
330
1F
100
AcDbEntity
  8
3-4
  6
Continuous
 62
     7
370
     9
100
AcDbLine
 10
5084.793765686046
 20
-62.96467247005587
 30
0.0
 11
5089.688497894297
 21
-100.143854771574
 31
0.0
  0
LINE
  5
255
330
1F
100
AcDbEntity
  8
3-4
  6
Continuous
 62
     7
370
     9
100
AcDbLine
 10
5089.293765686046
 20
-62.96467247005587
 30
0.0
 11
4945.810941507105
 21
-62.96467247005587
 31
0.0
  0
TEXT
  5
256
330
1F
100
AcDbEntity
  8
3-4
  6
Continuous
 62
     7
370
   211
100
AcDbText
 10
5067.333765686045
 20
-361.714961149849
 30
0.0
 40
45.72
  1
100
 50
90.0
 41
1.083333333333333
  7
ＭＳ ゴシック
100
AcDbText
  0
TEXT
  5
257
330
1F
100
AcDbEntity
  8
3-4
  6
Continuous
 62
     7
370
     0
100
AcDbText
 10
3965.616286771416
 20
-1239.587128802623
 30
0.0
 40
34.29
  1
クラッシャーラン基礎
 41
1.15
  7
ＭＳ ゴシック
100
AcDbText
  0
TEXT
  5
258
330
1F
100
AcDbEntity
  8
3-4
  6
Continuous
 62
     7
370
     0
100
AcDbText
 10
4064.367240793295
 20
-1009.168236084905
 30
0.0
 40
34.29
  1
コンクリート
 41
1.138888888888889
  7
ＭＳ ゴシック
100
AcDbText
  0
LINE
  5
259
330
1F
100
AcDbEntity
  8
3-4
  6
Continuous
 62
     7
370
     9
100
AcDbLine
 10
4138.214504561804
 20
-946.742789004549
 30
0.0
 11
4313.214504561804
 21
-946.742789004549
 31
0.0
  0
LINE
  5
25A
330
1F
100
AcDbEntity
  8
3-4
  6
Continuous
 62
     7
370
     9
100
AcDbLine
 10
4138.214504561804
 20
-946.742789004549
 30
0.0
 11
4175.393686863322
 21
-941.848056796297
 31
0.0
  0
LINE
  5
25B
330
1F
100
AcDbEntity
  8
3-4
  6
Continuous
 62
     7
370
     9
100
AcDbLine
 10
4138.214504561804
 20
-946.742789004549
 30
0.0
 11
4175.393686863322
 21
-951.6375212128011
 31
0.0
  0
LINE
  5
25C
330
1F
100
AcDbEntity
  8
3-4
  6
Continuous
 62
     7
370
     9
100
AcDbLine
 10
4313.214504561804
 20
-946.742789004549
 30
0.0
 11
4276.035322260286
 21
-941.848056796297
 31
0.0
  0
LINE
  5
25D
330
1F
100
AcDbEntity
  8
3-4
  6
Continuous
 62
     7
370
     9
100
AcDbLine
 10
4313.214504561804
 20
-946.742789004549
 30
0.0
 11
4276.035322260286
 21
-951.6375212128011
 31
0.0
  0
LINE
  5
25E
330
1F
100
AcDbEntity
  8
3-4
  6
Continuous
 62
     7
370
     9
100
AcDbLine
 10
4138.214504561804
 20
-951.242789004549
 30
0.0
 11
4138.214504561804
 21
-598.9942235034332
 31
0.0
  0
LINE
  5
25F
330
1F
100
AcDbEntity
  8
3-4
  6
Continuous
 62
     7
370
     9
100
AcDbLine
 10
4313.214504561804
 20
-951.242789004549
 30
0.0
 11
4313.214504561804
 21
-598.9942235034332
 31
0.0
  0
TEXT
  5
260
330
1F
100
AcDbEntity
  8
3-4
  6
Continuous
 62
     7
370
   211
100
AcDbText
 10
4193.839504561804
 20
-929.282789004549
 30
0.0
 40
45.72
  1
35
 41
1.0625
  7
ＭＳ ゴシック
100
AcDbText
  0
TEXT
  5
261
330
1F
100
AcDbEntity
  8
3-4
  6
Continuous
 62
     7
370
     0
100
AcDbText
 10
4521.791324423209
 20
219.7595492301928
 30
0.0
 40
34.29
  1
受枠：L40X40X5
 41
1.154761904761905
  7
ＭＳ ゴシック
100
AcDbText
  0
TEXT
  5
262
330
1F
100
AcDbEntity
  8
3-4
  6
Continuous
 62
     7
370
     0
100
AcDbText
 10
4523.239920374867
 20
142.9839637922652
 30
0.0
 40
34.29
  1
SS400
 41
1.133333333333333
  7
ＭＳ ゴシック
100
AcDbText
  0
TEXT
  5
263
330
1F
100
AcDbEntity
  8
3-4
  6
Continuous
 62
     7
370
     0
100
AcDbText
 10
4682.585475057358
 20
144.4325597439239
 30
0.0
 40
34.29
  1
樹脂系塗装
 41
1.133333333333333
  7
ＭＳ ゴシック
100
AcDbText
  0
LINE
  5
264
330
1F
100
AcDbEntity
  8
3-4
  6
Continuous
 62
     7
370
     9
100
AcDbLine
 10
4499.854194087229
 20
196.513070012869
 30
0.0
 11
4944.78134230764
 21
196.513070012869
 31
0.0
  0
LINE
  5
265
330
1F
100
AcDbEntity
  8
3-5
  6
Continuous
 62
     7
370
     9
100
AcDbLine
 10
4499.854194087229
 20
196.513070012869
 30
0.0
 11
4320.43834887192
 21
-115.6584627336719
 31
0.0
  0
LINE
  5
266
330
1F
100
AcDbEntity
  8
3-4
  6
Continuous
 62
     7
370
     9
100
AcDbLine
 10
4138.214504561804
 20
121.4132987357389
 30
0.0
 11
4405.788895891415
 21
121.4132987357389
 31
0.0
  0
LINE
  5
267
330
1F
100
AcDbEntity
  8
3-4
  6
Continuous
 62
     7
370
     9
100
AcDbLine
 10
4288.216319120503
 20
121.4132987357389
 30
0.0
 11
4251.037136818984
 21
126.3080309439909
 31
0.0
  0
LINE
  5
268
330
1F
100
AcDbEntity
  8
3-4
  6
Continuous
 62
     7
370
     9
100
AcDbLine
 10
4288.216319120503
 20
121.4132987357389
 30
0.0
 11
4251.037136818984
 21
116.5185665274868
 31
0.0
  0
LINE
  5
269
330
1F
100
AcDbEntity
  8
3-4
  6
Continuous
 62
     7
370
     9
100
AcDbLine
 10
4288.216319120503
 20
125.913298735739
 30
0.0
 11
4288.216319120503
 21
-43.19617862704725
 31
0.0
  0
TEXT
  5
26A
330
1F
100
AcDbEntity
  8
3-4
  6
Continuous
 62
     7
370
   211
100
AcDbText
 10
4181.340411841154
 20
138.8732987357388
 30
0.0
 40
45.72
  1
30
 41
1.0625
  7
ＭＳ ゴシック
100
AcDbText
  0
LINE
  5
26B
330
1F
100
AcDbEntity
  8
3-4
  6
Continuous
 62
     7
370
     9
100
AcDbLine
 10
4313.217376055839
 20
125.913298735739
 30
0.0
 11
4313.217376055839
 21
-43.19617862704725
 31
0.0
  0
TEXT
  5
26C
330
1F
100
AcDbEntity
  8
3-4
  6
Continuous
 62
     7
370
   211
100
AcDbText
 10
4285.716847588171
 20
138.8732987357388
 30
0.0
 40
45.72
  1
5
  7
ＭＳ ゴシック
100
AcDbText
  0
LINE
  5
26D
330
1F
100
AcDbEntity
  8
3-4
  6
Continuous
 62
     7
370
     9
100
AcDbLine
 10
4338.215411841153
 20
125.913298735739
 30
0.0
 11
4338.215411841153
 21
-43.19617862704725
 31
0.0
  0
LINE
  5
26E
330
1F
100
AcDbEntity
  8
3-4
  6
Continuous
 62
     7
370
     9
100
AcDbLine
 10
4338.215411841153
 20
121.4132987357389
 30
0.0
 11
4375.394594142671
 21
116.5185665274868
 31
0.0
  0
LINE
  5
26F
330
1F
100
AcDbEntity
  8
3-4
  6
Continuous
 62
     7
370
     9
100
AcDbLine
 10
4338.215411841153
 20
121.4132987357389
 30
0.0
 11
4375.394594142671
 21
126.3080309439909
 31
0.0
  0
TEXT
  5
270
330
1F
100
AcDbEntity
  8
3-4
  6
Continuous
 62
     7
370
   211
100
AcDbText
 10
4345.637717003491
 20
140.0520651517842
 30
0.0
 40
45.72
  1
5
  7
ＭＳ ゴシック
100
AcDbText
  0
LWPOLYLINE
  5
271
330
1F
100
AcDbEntity
  8
3-5
  6
Continuous
 62
     7
370
     9
100
AcDbPolyline
 90
        4
 70
     1
 43
1.5
 10
4313.967376055839
 20
121.4132987357389
 42
0.4142135623731
 10
4313.217376055839
 20
122.1632987357389
 42
0.4142135623731
 10
4312.467376055839
 20
121.4132987357389
 42
0.4142135623731
 10
4313.217376055839
 20
120.6632987357389
 42
0.4142135623731
  0
LINE
  5
272
330
1F
100
AcDbEntity
  8
3-4
  6
Continuous
 62
     7
370
     9
100
AcDbLine
 10
4138.214504561804
 20
125.913298735739
 30
0.0
 11
4138.214504561804
 21
-184.092076168587
 31
0.0
  0
LINE
  5
273
330
1F
100
AcDbEntity
  8
3-5
  6
Continuous
 62
     7
370
     9
100
AcDbLine
 10
4060.064913571577
 20
-516.7404268814547
 30
0.0
 11
4190.819040885048
 21
-380.396592954426
 31
0.0
  0
LINE
  5
274
330
1F
100
AcDbEntity
  8
3-5
  6
Continuous
 62
     7
370
     9
100
AcDbLine
 10
3857.141300403266
 20
-516.7404268814547
 30
0.0
 11
4060.064913571577
 21
-516.7404268814547
 31
0.0
  0
TEXT
  5
275
330
1F
100
AcDbEntity
  8
3-4
  6
Continuous
 62
     7
370
     0
100
AcDbText
 10
3859.252821593502
 20
-499.5081554647444
 30
0.0
 40
34.29
  1
モルタル
 41
1.125
  7
ＭＳ ゴシック
100
AcDbText
  0
TEXT
  5
276
330
1F
100
AcDbEntity
  8
3-4
  6
Continuous
 62
     6
370
     0
100
AcDbText
 10
4504.98547809621
 20
-474.4609613445223
 30
0.0
 40
14.2875
  1
・
 41
0.9999999999999998
  7
ＭＳ ゴシック
100
AcDbText
  0
LINE
  5
277
330
1F
100
AcDbEntity
  8
3-4
  6
Continuous
 62
     7
370
     9
100
AcDbLine
 10
5089.293765686046
 20
-562.9652498296418
 30
0.0
 11
4411.344320264257
 21
-562.9652498296418
 31
0.0
  0
LINE
  5
278
330
1F
100
AcDbEntity
  8
3-4
  6
Continuous
 62
     7
370
     9
100
AcDbLine
 10
4516.316234740535
 20
-562.9652498296418
 30
0.0
 11
4516.316234740535
 21
-62.96524982964193
 31
0.0
  0
LINE
  5
279
330
1F
100
AcDbEntity
  8
3-4
  6
Continuous
 62
     7
370
     9
100
AcDbLine
 10
4516.316234740535
 20
-562.9652498296418
 30
0.0
 11
4511.421502532283
 21
-525.786067528124
 31
0.0
  0
LINE
  5
27A
330
1F
100
AcDbEntity
  8
3-4
  6
Continuous
 62
     7
370
     9
100
AcDbLine
 10
4516.316234740535
 20
-562.9652498296418
 30
0.0
 11
4521.210966948787
 21
-525.786067528124
 31
0.0
  0
LINE
  5
27B
330
1F
100
AcDbEntity
  8
3-4
  6
Continuous
 62
     7
370
     9
100
AcDbLine
 10
4521.210966948787
 20
-225.7866036477395
 30
0.0
 11
4511.421502532283
 21
-300.1449682507757
 31
0.0
  0
LINE
  5
27C
330
1F
100
AcDbEntity
  8
3-4
  6
Continuous
 62
     7
370
     9
100
AcDbLine
 10
4511.421502532283
 20
-225.7866036477395
 30
0.0
 11
4521.210966948787
 21
-300.1449682507757
 31
0.0
  0
LINE
  5
27D
330
1F
100
AcDbEntity
  8
3-4
  6
Continuous
 62
     7
370
     9
100
AcDbLine
 10
4520.816234740535
 20
-262.9657859492576
 30
0.0
 11
4411.344320264257
 21
-262.9657859492576
 31
0.0
  0
TEXT
  5
27E
330
1F
100
AcDbEntity
  8
3-4
  6
Continuous
 62
     7
370
   211
100
AcDbText
 10
4498.856234740535
 20
-444.8405178894496
 30
0.0
 40
45.72
  1
60
 50
90.0
 41
1.0625
  7
ＭＳ ゴシック
100
AcDbText
  0
LINE
  5
27F
330
1F
100
AcDbEntity
  8
3-4
  6
Continuous
 62
     7
370
     9
100
AcDbLine
 10
4516.316234740535
 20
-62.96524982964193
 30
0.0
 11
4511.421502532283
 21
-100.14443213116
 31
0.0
  0
LINE
  5
280
330
1F
100
AcDbEntity
  8
3-4
  6
Continuous
 62
     7
370
     9
100
AcDbLine
 10
4516.316234740535
 20
-62.96524982964193
 30
0.0
 11
4521.210966948787
 21
-100.14443213116
 31
0.0
  0
LINE
  5
281
330
1F
100
AcDbEntity
  8
3-4
  6
Continuous
 62
     7
370
     9
100
AcDbLine
 10
4520.816234740535
 20
-62.96524982964193
 30
0.0
 11
4411.344320264257
 21
-62.96524982964193
 31
0.0
  0
TEXT
  5
282
330
1F
100
AcDbEntity
  8
3-4
  6
Continuous
 62
     7
370
   211
100
AcDbText
 10
4498.856234740535
 20
-194.8405178894498
 30
0.0
 40
45.72
  1
40
 50
90.0
 41
1.0625
  7
ＭＳ ゴシック
100
AcDbText
  0
TEXT
  5
283
330
1F
100
AcDbEntity
  8
3-4
  6
Continuous
 62
     7
370
     0
100
AcDbText
 10
4537.147845947531
 20
-440.2671094917219
 30
0.0
 40
34.29
  1
サンドクッション
 41
1.145833333333333
  7
ＭＳ ゴシック
100
AcDbText
  0
TEXT
  5
284
330
1F
100
AcDbEntity
  8
3-4
  6
Continuous
 62
     7
370
     0
100
AcDbText
 10
4666.223007347739
 20
27.26992858756195
 30
0.0
 40
34.29
  1
インターロッキングブロック
 41
1.153846153846154
  7
ＭＳ ゴシック
100
AcDbText
  0
LINE
  5
285
330
1F
100
AcDbEntity
  8
3-4
  6
Continuous
 62
     7
370
     9
100
AcDbLine
 10
4662.397824937787
 20
7.161636522528809
 30
0.0
 11
5350.507010198259
 21
7.161636522528809
 31
0.0
  0
LINE
  5
286
330
1F
100
AcDbEntity
  8
3-5
  6
Continuous
 62
     7
370
     9
100
AcDbLine
 10
4662.397824937787
 20
7.161636522528809
 30
0.0
 11
4566.33236930519
 21
-134.6959042843759
 31
0.0
  0
LINE
  5
287
330
1F
100
AcDbEntity
  8
3-5
  6
Continuous
 62
     7
370
     9
100
AcDbLine
 10
3558.284617141004
 20
-743.6281075210766
 30
0.0
 11
3942.968207198097
 21
-743.6281075210766
 31
0.0
  0
TEXT
  5
288
330
1F
100
AcDbEntity
  8
3-4
  6
Continuous
 62
     7
370
     0
100
AcDbText
 10
3570.986433793832
 20
-792.9291614287063
 30
0.0
 40
34.29
  1
Ｍ１２（別途）
 41
1.142857142857143
  7
ＭＳ ゴシック
100
AcDbText
  0
TEXT
  5
289
330
1F
100
AcDbEntity
  8
3-4
  6
Continuous
 62
     7
370
     0
100
AcDbText
 10
3573.405827441989
 20
-726.3958361043663
 30
0.0
 40
34.29
  1
アンカーボルト
 41
1.142857142857143
  7
ＭＳ ゴシック
100
AcDbText
  0
LINE
  5
28A
330
1F
100
AcDbEntity
  8
3-5
  6
Continuous
 62
     7
370
     9
100
AcDbLine
 10
3942.968207198097
 20
-743.6281075210766
 30
0.0
 11
4250.714504561804
 21
-517.8430352570816
 31
0.0
  0
TEXT
  5
28B
330
1F
100
AcDbEntity
  8
3-4
  6
Continuous
 62
     6
370
     0
100
AcDbText
 10
4178.902913855701
 20
-331.004157599796
 30
0.0
 40
28.575
  1
・
 41
0.9999999999999998
  7
ＭＳ ゴシック
100
AcDbText
  0
TEXT
  5
28C
330
1F
100
AcDbEntity
  8
3-4
  6
Continuous
 62
     6
370
     0
100
AcDbText
 10
4173.42147115052
 20
-464.9079722549337
 30
0.0
 40
28.575
  1
・
 41
0.9999999999999998
  7
ＭＳ ゴシック
100
AcDbText
  0
TEXT
  5
28D
330
1F
100
AcDbEntity
  8
3-4
  6
Continuous
 62
     6
370
     0
100
AcDbText
 10
4207.876253868801
 20
-394.432280331177
 30
0.0
 40
28.575
  1
・
 41
0.9999999999999998
  7
ＭＳ ゴシック
100
AcDbText
  0
TEXT
  5
28E
330
1F
100
AcDbEntity
  8
3-4
  6
Continuous
 62
     6
370
     0
100
AcDbText
 10
4247.029416048666
 20
-324.7396516510177
 30
0.0
 40
28.575
  1
・
 41
0.9999999999999998
  7
ＭＳ ゴシック
100
AcDbText
  0
TEXT
  5
28F
330
1F
100
AcDbEntity
  8
3-4
  6
Continuous
 62
     6
370
     0
100
AcDbText
 10
4278.351945792558
 20
-433.5854425110418
 30
0.0
 40
28.575
  1
・
 41
0.9999999999999998
  7
ＭＳ ゴシック
100
AcDbText
  0
TEXT
  5
290
330
1F
100
AcDbEntity
  8
3-4
  6
Continuous
 62
     6
370
     0
100
AcDbText
 10
4291.664020933712
 20
-362.3266873436878
 30
0.0
 40
28.575
  1
・
 41
0.9999999999999998
  7
ＭＳ ゴシック
100
AcDbText
  0
LINE
  5
291
330
1F
100
AcDbEntity
  8
3-5
  6
Continuous
 62
     7
370
     9
100
AcDbLine
 10
3881.234572485627
 20
-1650.236494121721
 30
0.0
 11
4558.87552281799
 21
-1650.236494121721
 31
0.0
  0
TEXT
  5
292
330
1F
100
AcDbEntity
  8
3-0
  6
Continuous
 62
     7
370
     9
100
AcDbText
 10
3892.919549935064
 20
-1624.38538896215
 30
0.0
 40
45.72
  1
納まり図　Ｓ＝１：３
 41
1.1125
  7
ＭＳ ゴシック
100
AcDbText
  0
LINE
  5
293
330
1F
100
AcDbEntity
  8
3-2
  6
Continuous
 62
     3
370
     9
100
AcDbLine
 10
1450.726917042192
 20
-144.3566273190959
 30
0.0
 11
1250.726009762843
 21
-144.3566273190959
 31
0.0
  0
LINE
  5
294
330
1F
100
AcDbEntity
  8
3-2
  6
Continuous
 62
     3
370
     9
100
AcDbLine
 10
1450.726917042192
 20
55.64390880051974
 30
0.0
 11
1445.728880064785
 21
55.64390880051974
 31
0.0
  0
LINE
  5
295
330
1F
100
AcDbEntity
  8
3-2
  6
Continuous
 62
     3
370
     9
100
AcDbLine
 10
1425.727824321542
 20
-94.35881303752907
 30
0.0
 11
1425.727824321542
 21
35.64359537674434
 31
0.0
  0
LINE
  5
296
330
1F
100
AcDbEntity
  8
3-2
  6
Continuous
 62
     3
370
     9
100
AcDbLine
 10
1250.726009762843
 20
-144.3566273190959
 30
0.0
 11
1250.726009762843
 21
-139.3582191819549
 31
0.0
  0
LINE
  5
297
330
1F
100
AcDbEntity
  8
3-2
  6
Continuous
 62
     3
370
     9
100
AcDbLine
 10
1400.729473920359
 20
-119.3579057581795
 30
0.0
 11
1270.727065506086
 21
-119.3579057581795
 31
0.0
  0
LINE
  5
298
330
1F
100
AcDbEntity
  8
3-2
  6
Continuous
 62
     3
370
     9
100
AcDbLine
 10
1450.726917042192
 20
-144.3566273190959
 30
0.0
 11
1450.726917042192
 21
55.64390880051974
 31
0.0
  0
ARC
  5
299
330
1F
100
AcDbEntity
  8
3-2
  6
Continuous
 62
     3
370
     9
100
AcDbCircle
 10
1400.729473920359
 20
-94.35881303752907
 30
0.0
 40
24.99999742250185
100
AcDbArc
 50
270.0
 51
0.0
  0
ARC
  5
29A
330
1F
100
AcDbEntity
  8
3-2
  6
Continuous
 62
     3
370
     9
100
AcDbCircle
 10
1445.728880064785
 20
35.64359537674434
 30
0.0
 40
19.9999988079071
100
AcDbArc
 50
90.0
 51
180.0
  0
ARC
  5
29B
330
1F
100
AcDbEntity
  8
3-2
  6
Continuous
 62
     3
370
     9
100
AcDbCircle
 10
1270.727065506086
 20
-139.3582191819549
 30
0.0
 40
19.9999988079071
100
AcDbArc
 50
90.0
 51
180.0
  0
LINE
  5
29C
330
1F
100
AcDbEntity
  8
3-0
  6
Continuous
 62
     3
370
     9
100
AcDbLine
 10
1286.976009762843
 20
-166.8566273190959
 30
0.0
 11
1425.726009762843
 21
-166.8566273190959
 31
0.0
  0
LINE
  5
29D
330
1F
100
AcDbEntity
  8
3-0
  6
Continuous
 62
     3
370
     9
100
AcDbLine
 10
1273.226009762843
 20
-408.106627319096
 30
0.0
 11
1273.226009762843
 21
-180.6066273190957
 31
0.0
  0
ARC
  5
29E
330
1F
100
AcDbEntity
  8
3-0
  6
Continuous
 62
     3
370
     9
100
AcDbCircle
 10
1286.976009762843
 20
-180.6066273190957
 30
0.0
 40
13.75
100
AcDbArc
 50
90.0
 51
180.0
  0
LINE
  5
29F
330
1F
100
AcDbEntity
  8
3-0
  6
Continuous
 62
     3
370
     9
100
AcDbLine
 10
1425.726009762843
 20
-421.8566273190959
 30
0.0
 11
1425.726009762843
 21
-444.3566273190959
 31
0.0
  0
LINE
  5
2A0
330
1F
100
AcDbEntity
  8
3-0
  6
Continuous
 62
     3
370
     9
100
AcDbLine
 10
1425.726009762843
 20
-166.8566273190959
 30
0.0
 11
1425.726009762843
 21
-144.3566273190959
 31
0.0
  0
ARC
  5
2A1
330
1F
100
AcDbEntity
  8
3-0
  6
Continuous
 62
     3
370
     9
100
AcDbCircle
 10
1286.976009762843
 20
-180.6066273190957
 30
0.0
 40
36.25
100
AcDbArc
 50
90.0
 51
180.0
  0
LINE
  5
2A2
330
1F
100
AcDbEntity
  8
3-0
  6
Continuous
 62
     3
370
     9
100
AcDbLine
 10
1286.976009762843
 20
-144.3566273190959
 30
0.0
 11
1425.726009762843
 21
-144.3566273190959
 31
0.0
  0
ARC
  5
2A3
330
1F
100
AcDbEntity
  8
3-0
  6
Continuous
 62
     3
370
     9
100
AcDbCircle
 10
1286.976009762843
 20
-408.106627319096
 30
0.0
 40
36.25
100
AcDbArc
 50
180.0
 51
270.0
  0
ARC
  5
2A4
330
1F
100
AcDbEntity
  8
3-0
  6
Continuous
 62
     3
370
     9
100
AcDbCircle
 10
1286.976009762843
 20
-408.106627319096
 30
0.0
 40
13.75
100
AcDbArc
 50
180.0
 51
270.0
  0
LINE
  5
2A5
330
1F
100
AcDbEntity
  8
3-0
  6
Continuous
 62
     3
370
     9
100
AcDbLine
 10
1250.726009762843
 20
-408.106627319096
 30
0.0
 11
1250.726009762843
 21
-180.6066273190957
 31
0.0
  0
LINE
  5
2A6
330
1F
100
AcDbEntity
  8
3-0
  6
Continuous
 62
     3
370
     9
100
AcDbLine
 10
1286.976009762843
 20
-421.8566273190959
 30
0.0
 11
1425.726009762843
 21
-421.8566273190959
 31
0.0
  0
LINE
  5
2A7
330
1F
100
AcDbEntity
  8
3-0
  6
Continuous
 62
     3
370
     9
100
AcDbLine
 10
1286.976009762843
 20
-444.3566273190959
 30
0.0
 11
1425.726009762843
 21
-444.3566273190959
 31
0.0
  0
LINE
  5
2A8
330
1F
100
AcDbEntity
  8
3-0
  6
JWW_DASHED3
 62
     3
370
     9
100
AcDbLine
 10
1330.725738757323
 20
-421.8566273190959
 30
0.0
 11
1330.725738757323
 21
-444.3566273190959
 31
0.0
  0
TEXT
  5
2A9
330
1F
100
AcDbEntity
  8
3-4
  6
Continuous
 62
     7
370
     0
100
AcDbText
 10
1640.5932680367
 20
321.3123910444907
 30
0.0
 40
34.29
  1
受枠：L40X40X5
 41
1.154761904761903
  7
ＭＳ ゴシック
100
AcDbText
  0
TEXT
  5
2AA
330
1F
100
AcDbEntity
  8
3-4
  6
Continuous
 62
     7
370
     0
100
AcDbText
 10
1642.041863988359
 20
244.5368056065635
 30
0.0
 40
34.29
  1
SS400
 41
1.133333333333332
  7
ＭＳ ゴシック
100
AcDbText
  0
TEXT
  5
2AB
330
1F
100
AcDbEntity
  8
3-4
  6
Continuous
 62
     7
370
     0
100
AcDbText
 10
1801.38741867085
 20
245.9854015582218
 30
0.0
 40
34.29
  1
樹脂系塗装
 41
1.133333333333332
  7
ＭＳ ゴシック
100
AcDbText
  0
LINE
  5
2AC
330
1F
100
AcDbEntity
  8
3-4
  6
Continuous
 62
     7
370
     9
100
AcDbLine
 10
1618.656137700721
 20
298.0659118271669
 30
0.0
 11
2063.58328592113
 21
298.0659118271669
 31
0.0
  0
LINE
  5
2AD
330
1F
100
AcDbEntity
  8
3-5
  6
Continuous
 62
     7
370
     9
100
AcDbLine
 10
1618.656137700721
 20
298.0659118271669
 30
0.0
 11
1439.240292485411
 21
-14.10562091937408
 31
0.0
  0
LINE
  5
2AE
330
1F
100
AcDbEntity
  8
3-4
  6
Continuous
 62
     7
370
     9
100
AcDbLine
 10
1594.584502870794
 20
-444.3566273190959
 30
0.0
 11
1594.584502870794
 21
55.64390880051974
 31
0.0
  0
LINE
  5
2AF
330
1F
100
AcDbEntity
  8
3-4
  6
Continuous
 62
     7
370
     9
100
AcDbLine
 10
1686.809663142508
 20
-444.3566273190959
 30
0.0
 11
1483.904919023792
 21
-444.3566273190959
 31
0.0
  0
LINE
  5
2B0
330
1F
100
AcDbEntity
  8
3-4
  6
Continuous
 62
     7
370
     9
100
AcDbLine
 10
1599.084502870794
 20
-144.3566273190959
 30
0.0
 11
1483.904919023792
 21
-144.3566273190959
 31
0.0
  0
TEXT
  5
2B1
330
1F
100
AcDbEntity
  8
3-4
  6
Continuous
 62
     7
370
   211
100
AcDbText
 10
1577.124502870794
 20
-326.2316273190959
 30
0.0
 40
45.72
  1
60
 50
90.0
 41
1.0625
  7
ＭＳ ゴシック
100
AcDbText
  0
LINE
  5
2B2
330
1F
100
AcDbEntity
  8
3-4
  6
Continuous
 62
     7
370
     9
100
AcDbLine
 10
1686.809663142508
 20
55.64390880051974
 30
0.0
 11
1483.904919023792
 21
55.64390880051974
 31
0.0
  0
TEXT
  5
2B3
330
1F
100
AcDbEntity
  8
3-4
  6
Continuous
 62
     7
370
   211
100
AcDbText
 10
1577.124502870794
 20
-76.23135925928807
 30
0.0
 40
45.72
  1
40
 50
90.0
 41
1.0625
  7
ＭＳ ゴシック
100
AcDbText
  0
LINE
  5
2B4
330
1F
100
AcDbEntity
  8
3-4
  6
Continuous
 62
     7
370
     9
100
AcDbLine
 10
1682.309663142508
 20
-444.3566273190959
 30
0.0
 11
1682.309663142508
 21
55.64390880051974
 31
0.0
  0
TEXT
  5
2B5
330
1F
100
AcDbEntity
  8
3-4
  6
Continuous
 62
     7
370
   211
100
AcDbText
 10
1664.849663142508
 20
-243.1063592592881
 30
0.0
 40
45.72
  1
100
 50
90.0
 41
1.083333333333333
  7
ＭＳ ゴシック
100
AcDbText
  0
LINE
  5
2B6
330
1F
100
AcDbEntity
  8
3-4
  6
Continuous
 62
     7
370
     9
100
AcDbLine
 10
1250.726009762843
 20
-590.0051932993204
 30
0.0
 11
1425.726009762843
 21
-590.0051932993204
 31
0.0
  0
LINE
  5
2B7
330
1F
100
AcDbEntity
  8
3-4
  6
Continuous
 62
     7
370
     9
100
AcDbLine
 10
1250.726009762843
 20
-594.5051932993201
 30
0.0
 11
1250.726009762843
 21
-471.5248515120436
 31
0.0
  0
LINE
  5
2B8
330
1F
100
AcDbEntity
  8
3-4
  6
Continuous
 62
     7
370
     9
100
AcDbLine
 10
1425.726009762843
 20
-594.5051932993201
 30
0.0
 11
1425.726009762843
 21
-471.5248515120436
 31
0.0
  0
TEXT
  5
2B9
330
1F
100
AcDbEntity
  8
3-4
  6
Continuous
 62
     7
370
   211
100
AcDbText
 10
1306.351009762843
 20
-572.5451932993203
 30
0.0
 40
45.72
  1
35
 41
1.0625
  7
ＭＳ ゴシック
100
AcDbText
  0
LINE
  5
2BA
330
1F
100
AcDbEntity
  8
3-4
  6
Continuous
 62
     7
370
     9
100
AcDbLine
 10
1425.728881256878
 20
170.8435539665528
 30
0.0
 11
1425.728881256878
 21
89.0261714842984
 31
0.0
  0
TEXT
  5
2BB
330
1F
100
AcDbEntity
  8
3-4
  6
Continuous
 62
     7
370
   211
100
AcDbText
 10
1306.35244550986
 20
183.8035539665526
 30
0.0
 40
45.72
  1
35
 41
1.0625
  7
ＭＳ ゴシック
100
AcDbText
  0
LINE
  5
2BC
330
1F
100
AcDbEntity
  8
3-4
  6
Continuous
 62
     7
370
     9
100
AcDbLine
 10
1450.726917042192
 20
170.8435539665528
 30
0.0
 11
1450.726917042192
 21
89.0261714842984
 31
0.0
  0
TEXT
  5
2BD
330
1F
100
AcDbEntity
  8
3-4
  6
Continuous
 62
     7
370
   211
100
AcDbText
 10
1423.227899149535
 20
183.8035539665526
 30
0.0
 40
45.72
  1
5
  7
ＭＳ ゴシック
100
AcDbText
  0
LINE
  5
2BE
330
1F
100
AcDbEntity
  8
3-4
  6
Continuous
 62
     7
370
     9
100
AcDbLine
 10
1184.193475713999
 20
-144.3566273190959
 30
0.0
 11
1223.798152099019
 21
-144.3566273190959
 31
0.0
  0
LINE
  5
2BF
330
1F
100
AcDbEntity
  8
3-4
  6
Continuous
 62
     7
370
     9
100
AcDbLine
 10
1184.193475713999
 20
-119.3579057581795
 30
0.0
 11
1223.798152099019
 21
-119.3579057581795
 31
0.0
  0
TEXT
  5
2C0
330
1F
100
AcDbEntity
  8
3-4
  6
Continuous
 62
     7
370
   211
100
AcDbText
 10
1171.233475713999
 20
-146.8572665386377
 30
0.0
 40
45.72
  1
5
 50
90.0
  7
ＭＳ ゴシック
100
AcDbText
  0
TEXT
  5
2C1
330
1F
100
AcDbEntity
  8
3-4
  6
Continuous
 62
     7
370
   211
100
AcDbText
 10
1171.233475713999
 20
-63.73199847882987
 30
0.0
 40
45.72
  1
35
 50
90.0
 41
1.0625
  7
ＭＳ ゴシック
100
AcDbText
  0
LINE
  5
2C2
330
1F
100
AcDbEntity
  8
3-0
  6
JWW_CENTER2
 62
     4
370
     9
100
AcDbLine
 10
1363.226009762843
 20
-391.6975252649252
 30
0.0
 11
1363.226009762843
 21
-476.4778389961577
 31
0.0
  0
LINE
  5
2C3
330
1F
100
AcDbEntity
  8
3-0
  6
JWW_CENTER2
 62
     4
370
     9
100
AcDbLine
 10
1319.17445157208
 20
-925.3168540208861
 30
0.0
 11
1443.512126572067
 21
-925.3168540208861
 31
0.0
  0
LINE
  5
2C4
330
1F
100
AcDbEntity
  8
3-0
  6
JWW_CENTER2
 62
     4
370
     9
100
AcDbLine
 10
1363.226009762843
 20
-881.2877744221413
 30
0.0
 11
1363.226009762843
 21
-966.0680881533739
 31
0.0
  0
LINE
  5
2C5
330
1F
100
AcDbEntity
  8
3-0
  6
Continuous
 62
     3
370
     9
100
AcDbLine
 10
1250.726009762843
 20
-830.3168540208865
 30
0.0
 11
1425.726009762843
 21
-830.3168540208865
 31
0.0
  0
LINE
  5
2C6
330
1F
100
AcDbEntity
  8
3-0
  6
Continuous
 62
     3
370
     9
100
AcDbLine
 10
1250.726009762843
 20
-830.3168540208865
 30
0.0
 11
1250.726009762843
 21
-1020.316854020887
 31
0.0
  0
LINE
  5
2C7
330
1F
100
AcDbEntity
  8
3-0
  6
Continuous
 62
     3
370
     9
100
AcDbLine
 10
1250.726009762843
 20
-1020.316854020887
 30
0.0
 11
1425.726009762843
 21
-1020.316854020887
 31
0.0
  0
ARC
  5
2C8
330
1F
100
AcDbEntity
  8
3-0
  6
Continuous
 62
     3
370
     9
100
AcDbCircle
 10
1363.225738757323
 20
-925.3168540208861
 30
0.0
 40
32.5
100
AcDbArc
 50
90.0
 51
270.0
  0
LINE
  5
2C9
330
1F
100
AcDbEntity
  8
3-0
  6
Continuous
 62
     3
370
     9
100
AcDbLine
 10
1425.726009762843
 20
-830.3168540208865
 30
0.0
 11
1425.726009762843
 21
-892.8168540208867
 31
0.0
  0
LINE
  5
2CA
330
1F
100
AcDbEntity
  8
3-0
  6
Continuous
 62
     3
370
     9
100
AcDbLine
 10
1363.226009762843
 20
-892.8168540208867
 30
0.0
 11
1425.726009762843
 21
-892.8168540208867
 31
0.0
  0
LINE
  5
2CB
330
1F
100
AcDbEntity
  8
3-0
  6
Continuous
 62
     3
370
     9
100
AcDbLine
 10
1363.226009762843
 20
-957.8168540208865
 30
0.0
 11
1425.726009762843
 21
-957.8168540208865
 31
0.0
  0
LINE
  5
2CC
330
1F
100
AcDbEntity
  8
3-0
  6
Continuous
 62
     3
370
     9
100
AcDbLine
 10
1425.726009762843
 20
-957.8168540208865
 30
0.0
 11
1425.726009762843
 21
-1020.316854020887
 31
0.0
  0
LINE
  5
2CD
330
1F
100
AcDbEntity
  8
3-4
  6
Continuous
 62
     7
370
     9
100
AcDbLine
 10
1599.084502870794
 20
-957.8168540208865
 30
0.0
 11
1483.904919023792
 21
-957.8168540208865
 31
0.0
  0
LINE
  5
2CE
330
1F
100
AcDbEntity
  8
3-4
  6
Continuous
 62
     7
370
     9
100
AcDbLine
 10
1599.084502870794
 20
-892.8168540208867
 30
0.0
 11
1483.904919023792
 21
-892.8168540208867
 31
0.0
  0
TEXT
  5
2CF
330
1F
100
AcDbEntity
  8
3-4
  6
Continuous
 62
     7
370
   211
100
AcDbText
 10
1577.124502870794
 20
-957.1918540208861
 30
0.0
 40
45.72
  1
13
 50
90.0
 41
1.0625
  7
ＭＳ ゴシック
100
AcDbText
  0
LINE
  5
2D0
330
1F
100
AcDbEntity
  8
3-4
  6
Continuous
 62
     7
370
     9
100
AcDbLine
 10
1682.309663142508
 20
-1020.316854020887
 30
0.0
 11
1682.309663142508
 21
-830.3168540208865
 31
0.0
  0
LINE
  5
2D1
330
1F
100
AcDbEntity
  8
3-4
  6
Continuous
 62
     7
370
     9
100
AcDbLine
 10
1686.809663142508
 20
-1020.316854020887
 30
0.0
 11
1483.904919023792
 21
-1020.316854020887
 31
0.0
  0
LINE
  5
2D2
330
1F
100
AcDbEntity
  8
3-4
  6
Continuous
 62
     7
370
     9
100
AcDbLine
 10
1686.809663142508
 20
-830.3168540208865
 30
0.0
 11
1483.904919023792
 21
-830.3168540208865
 31
0.0
  0
TEXT
  5
2D3
330
1F
100
AcDbEntity
  8
3-4
  6
Continuous
 62
     7
370
   211
100
AcDbText
 10
1664.849663142508
 20
-957.1918540208861
 30
0.0
 40
45.72
  1
38
 50
90.0
 41
1.0625
  7
ＭＳ ゴシック
100
AcDbText
  0
LINE
  5
2D4
330
1F
100
AcDbEntity
  8
3-4
  6
Continuous
 62
     7
370
     9
100
AcDbLine
 10
1425.726009762843
 20
-769.6733052281132
 30
0.0
 11
1425.726009762843
 21
-818.5592099864442
 31
0.0
  0
TEXT
  5
2D5
330
1F
100
AcDbEntity
  8
3-4
  6
Continuous
 62
     7
370
   211
100
AcDbText
 10
1346.350874260083
 20
-756.7133052281131
 30
0.0
 40
45.72
  1
19
 41
1.0625
  7
ＭＳ ゴシック
100
AcDbText
  0
LINE
  5
2D6
330
1F
100
AcDbEntity
  8
3-4
  6
Continuous
 62
     7
370
     9
100
AcDbLine
 10
1330.725738757323
 20
-769.6733052281132
 30
0.0
 11
1330.725738757323
 21
-888.3171016811152
 31
0.0
  0
TEXT
  5
2D7
330
1F
100
AcDbEntity
  8
3-0
  6
Continuous
 62
     7
370
     9
100
AcDbText
 10
1006.058377597109
 20
-1231.654344631239
 30
0.0
 40
45.72
  1
断面詳細図　Ｓ＝１：３
 41
1.113636363636363
  7
ＭＳ ゴシック
100
AcDbText
  0
LINE
  5
2D8
330
1F
100
AcDbEntity
  8
3-5
  6
Continuous
 62
     7
370
     9
100
AcDbLine
 10
989.5613656078978
 20
-1262.242232851234
 30
0.0
 11
1743.349317223644
 21
-1262.242232851234
 31
0.0
  0
TEXT
  5
2D9
330
1F
100
AcDbEntity
  8
3-5
  6
Continuous
 62
     3
370
     9
100
AcDbText
 10
3526.744711078873
 20
-1875.390568472889
 30
0.0
 40
68.58
  1
蓋とセットの図面のときにご利用下さい
 41
1.157407407407407
  7
ＭＳ ゴシック
100
AcDbText
  0
LINE
  5
2DA
330
1F
100
AcDbEntity
  8
3-4
  6
Continuous
 62
     7
370
     9
100
AcDbLine
 10
1250.726009762843
 20
170.8435539665528
 30
0.0
 11
1250.726009762843
 21
-11.14365287658132
 31
0.0
  0
LINE
  5
2DB
330
1F
100
AcDbEntity
  8
3-4
  6
Continuous
 62
     7
370
     9
100
AcDbLine
 10
1184.193475713999
 20
55.64390880051974
 30
0.0
 11
1311.090047923538
 21
55.64390880051974
 31
0.0
  0
LWPOLYLINE
  5
2DC
330
1F
100
AcDbEntity
  8
3-4
  6
Continuous
 62
     7
370
     9
100
AcDbPolyline
 90
        4
 70
     1
 43
1.5
 10
1683.059663142508
 20
-1020.316854020887
 42
0.4142135623731
 10
1682.309663142508
 20
-1019.566854020887
 42
0.4142135623731
 10
1681.559663142508
 20
-1020.316854020887
 42
0.4142135623731
 10
1682.309663142508
 20
-1021.066854020887
 42
0.4142135623731
  0
LWPOLYLINE
  5
2DD
330
1F
100
AcDbEntity
  8
3-4
  6
Continuous
 62
     7
370
     9
100
AcDbPolyline
 90
        4
 70
     1
 43
1.5
 10
1683.059663142508
 20
-830.3168540208865
 42
0.4142135623731
 10
1682.309663142508
 20
-829.5668540208865
 42
0.4142135623731
 10
1681.559663142508
 20
-830.3168540208865
 42
0.4142135623731
 10
1682.309663142508
 20
-831.0668540208864
 42
0.4142135623731
  0
LWPOLYLINE
  5
2DE
330
1F
100
AcDbEntity
  8
3-4
  6
Continuous
 62
     7
370
     9
100
AcDbPolyline
 90
        4
 70
     1
 43
1.5
 10
1595.334502870794
 20
-892.8168540208867
 42
0.4142135623731
 10
1594.584502870794
 20
-892.0668540208867
 42
0.4142135623731
 10
1593.834502870794
 20
-892.8168540208867
 42
0.4142135623731
 10
1594.584502870794
 20
-893.5668540208867
 42
0.4142135623731
  0
LWPOLYLINE
  5
2DF
330
1F
100
AcDbEntity
  8
3-4
  6
Continuous
 62
     7
370
     9
100
AcDbPolyline
 90
        4
 70
     1
 43
1.5
 10
1595.334502870794
 20
-957.8168540208865
 42
0.4142135623731
 10
1594.584502870794
 20
-957.0668540208865
 42
0.4142135623731
 10
1593.834502870794
 20
-957.8168540208865
 42
0.4142135623731
 10
1594.584502870794
 20
-958.5668540208864
 42
0.4142135623731
  0
LWPOLYLINE
  5
2E0
330
1F
100
AcDbEntity
  8
3-4
  6
Continuous
 62
     7
370
     9
100
AcDbPolyline
 90
        4
 70
     1
 43
1.5
 10
1426.476009762843
 20
-774.1733052281133
 42
0.4142135623731
 10
1425.726009762843
 20
-773.4233052281135
 42
0.4142135623731
 10
1424.976009762843
 20
-774.1733052281133
 42
0.4142135623731
 10
1425.726009762843
 20
-774.9233052281133
 42
0.4142135623731
  0
LWPOLYLINE
  5
2E1
330
1F
100
AcDbEntity
  8
3-4
  6
Continuous
 62
     7
370
     9
100
AcDbPolyline
 90
        4
 70
     1
 43
1.5
 10
1331.475738757323
 20
-774.1733052281133
 42
0.4142135623731
 10
1330.725738757323
 20
-773.4233052281135
 42
0.4142135623731
 10
1329.975738757323
 20
-774.1733052281133
 42
0.4142135623731
 10
1330.725738757323
 20
-774.9233052281133
 42
0.4142135623731
  0
LINE
  5
2E2
330
1F
100
AcDbEntity
  8
3-4
  6
Continuous
 62
     7
370
     9
100
AcDbLine
 10
1594.584502870794
 20
-957.8168540208865
 30
0.0
 11
1594.584502870794
 21
-892.8168540208867
 31
0.0
  0
LWPOLYLINE
  5
2E3
330
1F
100
AcDbEntity
  8
3-4
  6
Continuous
 62
     7
370
     9
100
AcDbPolyline
 90
        4
 70
     1
 43
1.5
 10
1451.476917042192
 20
166.3435539665527
 42
0.4142135623731
 10
1450.726917042192
 20
167.0935539665527
 42
0.4142135623731
 10
1449.976917042192
 20
166.3435539665527
 42
0.4142135623731
 10
1450.726917042192
 20
165.5935539665527
 42
0.4142135623731
  0
LWPOLYLINE
  5
2E4
330
1F
100
AcDbEntity
  8
3-4
  6
Continuous
 62
     7
370
     9
100
AcDbPolyline
 90
        4
 70
     1
 43
1.5
 10
1426.478881256878
 20
166.3435539665527
 42
0.4142135623731
 10
1425.728881256878
 20
167.0935539665527
 42
0.4142135623731
 10
1424.978881256878
 20
166.3435539665527
 42
0.4142135623731
 10
1425.728881256878
 20
165.5935539665527
 42
0.4142135623731
  0
LWPOLYLINE
  5
2E5
330
1F
100
AcDbEntity
  8
3-4
  6
Continuous
 62
     7
370
     9
100
AcDbPolyline
 90
        4
 70
     1
 43
1.5
 10
1251.476009762843
 20
166.3435539665527
 42
0.4142135623731
 10
1250.726009762843
 20
167.0935539665527
 42
0.4142135623731
 10
1249.976009762843
 20
166.3435539665527
 42
0.4142135623731
 10
1250.726009762843
 20
165.5935539665527
 42
0.4142135623731
  0
LWPOLYLINE
  5
2E6
330
1F
100
AcDbEntity
  8
3-4
  6
Continuous
 62
     7
370
     9
100
AcDbPolyline
 90
        4
 70
     1
 43
1.5
 10
1189.443475713999
 20
55.64390880051974
 42
0.4142135623731
 10
1188.693475713999
 20
56.39390880051974
 42
0.4142135623731
 10
1187.943475713999
 20
55.64390880051974
 42
0.4142135623731
 10
1188.693475713999
 20
54.89390880051974
 42
0.4142135623731
  0
LWPOLYLINE
  5
2E7
330
1F
100
AcDbEntity
  8
3-4
  6
Continuous
 62
     7
370
     9
100
AcDbPolyline
 90
        4
 70
     1
 43
1.5
 10
1189.443475713999
 20
-119.3579057581795
 42
0.4142135623731
 10
1188.693475713999
 20
-118.6079057581795
 42
0.4142135623731
 10
1187.943475713999
 20
-119.3579057581795
 42
0.4142135623731
 10
1188.693475713999
 20
-120.1079057581795
 42
0.4142135623731
  0
LWPOLYLINE
  5
2E8
330
1F
100
AcDbEntity
  8
3-4
  6
Continuous
 62
     7
370
     9
100
AcDbPolyline
 90
        4
 70
     1
 43
1.5
 10
1189.443475713999
 20
-144.3566273190959
 42
0.4142135623731
 10
1188.693475713999
 20
-143.6066273190959
 42
0.4142135623731
 10
1187.943475713999
 20
-144.3566273190959
 42
0.4142135623731
 10
1188.693475713999
 20
-145.1066273190959
 42
0.4142135623731
  0
LWPOLYLINE
  5
2E9
330
1F
100
AcDbEntity
  8
3-4
  6
Continuous
 62
     7
370
     9
100
AcDbPolyline
 90
        4
 70
     1
 43
1.5
 10
1595.334502870794
 20
55.64390880051974
 42
0.4142135623731
 10
1594.584502870794
 20
56.39390880051974
 42
0.4142135623731
 10
1593.834502870794
 20
55.64390880051974
 42
0.4142135623731
 10
1594.584502870794
 20
54.89390880051974
 42
0.4142135623731
  0
LWPOLYLINE
  5
2EA
330
1F
100
AcDbEntity
  8
3-4
  6
Continuous
 62
     7
370
     9
100
AcDbPolyline
 90
        4
 70
     1
 43
1.5
 10
1595.334502870794
 20
-144.3566273190959
 42
0.4142135623731
 10
1594.584502870794
 20
-143.6066273190959
 42
0.4142135623731
 10
1593.834502870794
 20
-144.3566273190959
 42
0.4142135623731
 10
1594.584502870794
 20
-145.1066273190959
 42
0.4142135623731
  0
LWPOLYLINE
  5
2EB
330
1F
100
AcDbEntity
  8
3-4
  6
Continuous
 62
     7
370
     9
100
AcDbPolyline
 90
        4
 70
     1
 43
1.5
 10
1595.334502870794
 20
-444.3566273190959
 42
0.4142135623731
 10
1594.584502870794
 20
-443.6066273190959
 42
0.4142135623731
 10
1593.834502870794
 20
-444.3566273190959
 42
0.4142135623731
 10
1594.584502870794
 20
-445.1066273190959
 42
0.4142135623731
  0
LWPOLYLINE
  5
2EC
330
1F
100
AcDbEntity
  8
3-4
  6
Continuous
 62
     7
370
     9
100
AcDbPolyline
 90
        4
 70
     1
 43
1.5
 10
1683.059663142508
 20
-444.3566273190959
 42
0.4142135623731
 10
1682.309663142508
 20
-443.6066273190959
 42
0.4142135623731
 10
1681.559663142508
 20
-444.3566273190959
 42
0.4142135623731
 10
1682.309663142508
 20
-445.1066273190959
 42
0.4142135623731
  0
LWPOLYLINE
  5
2ED
330
1F
100
AcDbEntity
  8
3-4
  6
Continuous
 62
     7
370
     9
100
AcDbPolyline
 90
        4
 70
     1
 43
1.5
 10
1683.059663142508
 20
55.64390880051974
 42
0.4142135623731
 10
1682.309663142508
 20
56.39390880051974
 42
0.4142135623731
 10
1681.559663142508
 20
55.64390880051974
 42
0.4142135623731
 10
1682.309663142508
 20
54.89390880051974
 42
0.4142135623731
  0
LWPOLYLINE
  5
2EE
330
1F
100
AcDbEntity
  8
3-4
  6
Continuous
 62
     7
370
     9
100
AcDbPolyline
 90
        4
 70
     1
 43
1.5
 10
1426.476009762843
 20
-590.0051932993204
 42
0.4142135623731
 10
1425.726009762843
 20
-589.2551932993204
 42
0.4142135623731
 10
1424.976009762843
 20
-590.0051932993204
 42
0.4142135623731
 10
1425.726009762843
 20
-590.7551932993202
 42
0.4142135623731
  0
LWPOLYLINE
  5
2EF
330
1F
100
AcDbEntity
  8
3-4
  6
Continuous
 62
     7
370
     9
100
AcDbPolyline
 90
        4
 70
     1
 43
1.5
 10
1251.476009762843
 20
-590.0051932993204
 42
0.4142135623731
 10
1250.726009762843
 20
-589.2551932993204
 42
0.4142135623731
 10
1249.976009762843
 20
-590.0051932993204
 42
0.4142135623731
 10
1250.726009762843
 20
-590.7551932993202
 42
0.4142135623731
  0
LINE
  5
2F0
330
1F
100
AcDbEntity
  8
3-4
  6
Continuous
 62
     7
370
     9
100
AcDbLine
 10
1188.693475713999
 20
-144.3566273190959
 30
0.0
 11
1188.693475713999
 21
55.64390880051974
 31
0.0
  0
LINE
  5
2F1
330
1F
100
AcDbEntity
  8
3-4
  6
Continuous
 62
     7
370
     9
100
AcDbLine
 10
1250.726009762843
 20
166.3435539665527
 30
0.0
 11
1450.726917042192
 21
166.3435539665527
 31
0.0
  0
LINE
  5
2F2
330
1F
100
AcDbEntity
  8
C-4
  6
JWW_CENTER2
 62
     4
370
     9
100
AcDbLine
 10
-1233.403906891741
 20
-1176.311800510704
 30
0.0
 11
-1233.403906891741
 21
-1386.801702596556
 31
0.0
  0
LINE
  5
2F3
330
1F
100
AcDbEntity
  8
C-4
  6
Continuous
 62
     3
370
     9
100
AcDbLine
 10
-1969.153906891743
 20
-1367.606760046178
 30
0.0
 11
-2027.653906891742
 21
-1367.606760046178
 31
0.0
  0
LINE
  5
2F4
330
1F
100
AcDbEntity
  8
C-4
  6
Continuous
 62
     3
370
     9
100
AcDbLine
 10
-1969.153906891743
 20
-1277.606760046178
 30
0.0
 11
-1969.153906891743
 21
-1367.606760046178
 31
0.0
  0
LINE
  5
2F5
330
1F
100
AcDbEntity
  8
C-4
  6
Continuous
 62
     3
370
     9
100
AcDbLine
 10
-2027.653906891742
 20
-1277.606760046178
 30
0.0
 11
-2027.653906891742
 21
-1367.606760046178
 31
0.0
  0
LINE
  5
2F6
330
1F
100
AcDbEntity
  8
C-4
  6
JWW_CENTER2
 62
     4
370
     9
100
AcDbLine
 10
-1998.403906891741
 20
-1247.346822699474
 30
0.0
 11
-1998.403906891741
 21
-1386.801702596556
 31
0.0
  0
LINE
  5
2F7
330
1F
100
AcDbEntity
  8
C-4
  6
Continuous
 62
     7
370
     9
100
AcDbLine
 10
-2448.404185261542
 20
-1051.100622769191
 30
0.0
 11
-2448.404185261542
 21
-1184.357031739514
 31
0.0
  0
LWPOLYLINE
  5
2F8
330
1F
100
AcDbEntity
  8
C-4
  6
Continuous
 62
     7
370
     9
100
AcDbPolyline
 90
        4
 70
     1
 43
1.5
 10
-2447.654185261542
 20
-1055.600622769191
 42
0.4142135623731
 10
-2448.404185261542
 20
-1054.850622769191
 42
0.4142135623731
 10
-2449.154185261542
 20
-1055.600622769191
 42
0.4142135623731
 10
-2448.404185261542
 20
-1056.350622769191
 42
0.4142135623731
  0
LINE
  5
2F9
330
1F
100
AcDbEntity
  8
C-4
  6
Continuous
 62
     7
370
     9
100
AcDbLine
 10
-2388.403523360017
 20
-1584.712747829288
 30
0.0
 11
-2388.403523360017
 21
-1420.185968984486
 31
0.0
  0
LWPOLYLINE
  5
2FA
330
1F
100
AcDbEntity
  8
C-4
  6
Continuous
 62
     7
370
     9
100
AcDbPolyline
 90
        4
 70
     1
 43
1.5
 10
-2387.653523360016
 20
-1580.212747829288
 42
0.4142135623731
 10
-2388.403523360017
 20
-1579.462747829288
 42
0.4142135623731
 10
-2389.153523360017
 20
-1580.212747829288
 42
0.4142135623731
 10
-2388.403523360017
 20
-1580.962747829288
 42
0.4142135623731
  0
ARC
  5
2FB
330
1F
100
AcDbEntity
  8
C-0
  6
Continuous
 62
     7
370
     9
100
AcDbCircle
 10
-2102.468219388442
 20
-1294.557532305864
 30
0.0
 40
4.2002841326836
100
AcDbArc
 50
227.9257202148438
 51
312.0742797851562
  0
ARC
  5
2FC
330
1F
100
AcDbEntity
  8
C-0
  6
Continuous
 62
     7
370
     9
100
AcDbCircle
 10
-2110.903659451919
 20
-1283.623444913418
 30
0.0
 40
15.13411571850648
100
AcDbArc
 50
248.1978607177734
 51
291.8021392822266
  0
ARC
  5
2FD
330
1F
100
AcDbEntity
  8
C-0
  6
Continuous
 62
     7
370
     9
100
AcDbCircle
 10
-2119.339099515395
 20
-1294.557532305864
 30
0.0
 40
4.200259666587856
100
AcDbArc
 50
227.9253692626953
 51
312.0744323730469
  0
LINE
  5
2FE
330
1F
100
AcDbEntity
  8
C-0
  6
Continuous
 62
     7
370
     9
100
AcDbLine
 10
-2106.55357458006
 20
-1300.106555908324
 30
0.0
 11
-2115.253744323778
 21
-1300.106555908324
 31
0.0
  0
LINE
  5
2FF
330
1F
100
AcDbEntity
  8
C-0
  6
Continuous
 62
     7
370
     9
100
AcDbLine
 10
-2115.253744323778
 20
-1300.106555908324
 30
0.0
 11
-2116.602446007029
 21
-1298.757575855273
 31
0.0
  0
LINE
  5
300
330
1F
100
AcDbEntity
  8
C-0
  6
Continuous
 62
     7
370
     9
100
AcDbLine
 10
-2106.55357458006
 20
-1300.106555908324
 30
0.0
 11
-2105.204872896808
 21
-1298.757575855273
 31
0.0
  0
LINE
  5
301
330
1F
100
AcDbEntity
  8
C-0
  6
Continuous
 62
     7
370
     9
100
AcDbLine
 10
-2115.253744323778
 20
-1298.757575855273
 30
0.0
 11
-2115.253744323778
 21
-1300.106555908324
 31
0.0
  0
LINE
  5
302
330
1F
100
AcDbEntity
  8
C-0
  6
Continuous
 62
     7
370
     9
100
AcDbLine
 10
-2106.55357458006
 20
-1298.757575855273
 30
0.0
 11
-2106.55357458006
 21
-1300.106555908324
 31
0.0
  0
LINE
  5
303
330
1F
100
AcDbEntity
  8
C-0
  6
Continuous
 62
     7
370
     9
100
AcDbLine
 10
-2099.27865821472
 20
-1289.007395224202
 30
0.0
 11
-2099.27865821472
 21
-1286.607569174398
 31
0.0
  0
LINE
  5
304
330
1F
100
AcDbEntity
  8
C-0
  6
Continuous
 62
     7
370
     9
100
AcDbLine
 10
-2122.528382319318
 20
-1289.007395224202
 30
0.0
 11
-2099.27865821472
 21
-1289.007395224202
 31
0.0
  0
LINE
  5
305
330
1F
100
AcDbEntity
  8
C-0
  6
Continuous
 62
     7
370
     9
100
AcDbLine
 10
-2099.653622335945
 20
-1297.675274071067
 30
0.0
 11
-2099.653622335945
 21
-1289.007395224202
 31
0.0
  0
LINE
  5
306
330
1F
100
AcDbEntity
  8
C-0
  6
Continuous
 62
     7
370
     9
100
AcDbLine
 10
-2122.528382319318
 20
-1289.007395224202
 30
0.0
 11
-2122.528382319318
 21
-1286.607569174398
 31
0.0
  0
LINE
  5
307
330
1F
100
AcDbEntity
  8
C-0
  6
Continuous
 62
     7
370
     9
100
AcDbLine
 10
-2119.339099515395
 20
-1298.757575855273
 30
0.0
 11
-2102.468219388442
 21
-1298.757575855273
 31
0.0
  0
LINE
  5
308
330
1F
100
AcDbEntity
  8
C-0
  6
Continuous
 62
     7
370
     9
100
AcDbLine
 10
-2105.28281644094
 20
-1297.675274071067
 30
0.0
 11
-2105.28281644094
 21
-1289.007395224202
 31
0.0
  0
LINE
  5
309
330
1F
100
AcDbEntity
  8
C-0
  6
Continuous
 62
     7
370
     9
100
AcDbLine
 10
-2116.524502462898
 20
-1297.675274071067
 30
0.0
 11
-2116.524502462898
 21
-1289.007395224202
 31
0.0
  0
LINE
  5
30A
330
1F
100
AcDbEntity
  8
C-0
  6
Continuous
 62
     7
370
     9
100
AcDbLine
 10
-2122.153696567893
 20
-1297.675274071067
 30
0.0
 11
-2122.153696567893
 21
-1289.007395224202
 31
0.0
  0
LINE
  5
30B
330
1F
100
AcDbEntity
  8
C-0
  6
JWW_CENTER1
 62
     4
370
     9
100
AcDbLine
 10
-2110.903659451919
 20
-1266.139316116042
 30
0.0
 11
-2110.903659451919
 21
-1304.483085911227
 31
0.0
  0
LINE
  5
30C
330
1F
100
AcDbEntity
  8
C-0
  6
Continuous
 62
     3
370
     9
100
AcDbLine
 10
-2073.40365945192
 20
-1286.607569174398
 30
0.0
 11
-2223.403721311874
 21
-1286.607569174398
 31
0.0
  0
LINE
  5
30D
330
1F
100
AcDbEntity
  8
C-0
  6
Continuous
 62
     3
370
     9
100
AcDbLine
 10
-2073.40365945192
 20
-1277.607595155579
 30
0.0
 11
-2073.40365945192
 21
-1286.607569174398
 31
0.0
  0
LINE
  5
30E
330
1F
100
AcDbEntity
  8
C-4
  6
JWW_DASHED3
 62
     3
370
     9
100
AcDbLine
 10
-2412.403442058361
 20
-1360.856760046178
 30
0.0
 11
-2412.403442058361
 21
-1367.606760046178
 31
0.0
  0
LINE
  5
30F
330
1F
100
AcDbEntity
  8
C-4
  6
Continuous
 62
     3
370
     9
100
AcDbLine
 10
-2399.278523360017
 20
-1367.606760046178
 30
0.0
 11
-2440.903523360017
 21
-1367.606760046178
 31
0.0
  0
LINE
  5
310
330
1F
100
AcDbEntity
  8
C-4
  6
Continuous
 62
     3
370
     9
100
AcDbLine
 10
-2399.278523360017
 20
-1360.856760046178
 30
0.0
 11
-2440.903523360017
 21
-1360.856760046178
 31
0.0
  0
LINE
  5
311
330
1F
100
AcDbEntity
  8
C-4
  6
Continuous
 62
     3
370
     9
100
AcDbLine
 10
-2388.403523360017
 20
-1356.731760046178
 30
0.0
 11
-2388.403523360017
 21
-1288.481760046178
 31
0.0
  0
ARC
  5
312
330
1F
100
AcDbEntity
  8
C-4
  6
Continuous
 62
     3
370
     9
100
AcDbCircle
 10
-2399.278523360017
 20
-1356.731760046178
 30
0.0
 40
4.124999999999999
100
AcDbArc
 50
270.0
 51
0.0
  0
ARC
  5
313
330
1F
100
AcDbEntity
  8
C-4
  6
Continuous
 62
     3
370
     9
100
AcDbCircle
 10
-2399.278523360017
 20
-1356.731760046178
 30
0.0
 40
10.875
100
AcDbArc
 50
270.0
 51
0.0
  0
LINE
  5
314
330
1F
100
AcDbEntity
  8
C-4
  6
Continuous
 62
     3
370
     9
100
AcDbLine
 10
-2399.278523360017
 20
-1277.606760046178
 30
0.0
 11
-2440.903523360017
 21
-1277.606760046178
 31
0.0
  0
ARC
  5
315
330
1F
100
AcDbEntity
  8
C-4
  6
Continuous
 62
     3
370
     9
100
AcDbCircle
 10
-2399.278523360017
 20
-1288.481760046178
 30
0.0
 40
10.875
100
AcDbArc
 50
0.0
 51
90.0
  0
LINE
  5
316
330
1F
100
AcDbEntity
  8
C-4
  6
Continuous
 62
     3
370
     9
100
AcDbLine
 10
-2440.903523360017
 20
-1284.356760046178
 30
0.0
 11
-2440.903523360017
 21
-1277.606760046178
 31
0.0
  0
LINE
  5
317
330
1F
100
AcDbEntity
  8
C-4
  6
Continuous
 62
     3
370
     9
100
AcDbLine
 10
-2440.903523360017
 20
-1360.856760046178
 30
0.0
 11
-2440.903523360017
 21
-1367.606760046178
 31
0.0
  0
ARC
  5
318
330
1F
100
AcDbEntity
  8
C-4
  6
Continuous
 62
     3
370
     9
100
AcDbCircle
 10
-2399.278523360017
 20
-1288.481760046178
 30
0.0
 40
4.124999999999999
100
AcDbArc
 50
0.0
 51
90.0
  0
LINE
  5
319
330
1F
100
AcDbEntity
  8
C-4
  6
Continuous
 62
     3
370
     9
100
AcDbLine
 10
-2395.153523360016
 20
-1356.731760046178
 30
0.0
 11
-2395.153523360016
 21
-1288.481760046178
 31
0.0
  0
LINE
  5
31A
330
1F
100
AcDbEntity
  8
C-4
  6
Continuous
 62
     3
370
     9
100
AcDbLine
 10
-2399.278523360017
 20
-1284.356760046178
 30
0.0
 11
-2440.903523360017
 21
-1284.356760046178
 31
0.0
  0
ARC
  5
31B
330
1F
100
AcDbEntity
  8
C-0
  6
Continuous
 62
     3
370
     9
100
AcDbCircle
 10
-2392.903649554327
 20
-1274.607325446173
 30
0.0
 40
4.500000329839216
100
AcDbArc
 50
0.0
 51
90.0
  0
ARC
  5
31C
330
1F
100
AcDbEntity
  8
C-0
  6
Continuous
 62
     3
370
     9
100
AcDbCircle
 10
-2445.403358812534
 20
-1222.107337818164
 30
0.0
 40
4.500000329839216
100
AcDbArc
 50
0.0
 51
90.0
  0
ARC
  5
31D
330
1F
100
AcDbEntity
  8
C-0
  6
Continuous
 62
     3
370
     9
100
AcDbCircle
 10
-2434.153878436163
 20
-1263.356453220798
 30
0.0
 40
6.750000086990563
100
AcDbArc
 50
180.0
 51
270.0
  0
LINE
  5
31E
330
1F
100
AcDbEntity
  8
C-0
  6
Continuous
 62
     3
370
     9
100
AcDbLine
 10
-2223.403721311874
 20
-1277.607595155579
 30
0.0
 11
-2223.403721311874
 21
-1286.607569174398
 31
0.0
  0
LINE
  5
31F
330
1F
100
AcDbEntity
  8
C-0
  6
Continuous
 62
     3
370
     9
100
AcDbLine
 10
-2148.403659451919
 20
-1217.606654884253
 30
0.0
 11
-2148.403659451919
 21
-1270.106642512262
 31
0.0
  0
LINE
  5
320
330
1F
100
AcDbEntity
  8
C-0
  6
Continuous
 62
     3
370
     9
100
AcDbLine
 10
-2448.404185261542
 20
-1217.606654884253
 30
0.0
 11
-2448.404185261542
 21
-1277.606760046178
 31
0.0
  0
LINE
  5
321
330
1F
100
AcDbEntity
  8
C-0
  6
Continuous
 62
     3
370
     9
100
AcDbLine
 10
-2388.403801729817
 20
-1274.607325446173
 30
0.0
 11
-2388.403801729817
 21
-1277.606760046178
 31
0.0
  0
LINE
  5
322
330
1F
100
AcDbEntity
  8
C-0
  6
Continuous
 62
     3
370
     9
100
AcDbLine
 10
-2440.903789357826
 20
-1222.107337818164
 30
0.0
 11
-2440.903789357826
 21
-1263.356453220798
 31
0.0
  0
LINE
  5
323
330
1F
100
AcDbEntity
  8
C-4
  6
JWW_CENTER2
 62
     4
370
     9
100
AcDbLine
 10
-2422.153523360017
 20
-1352.102650117802
 30
0.0
 11
-2422.153523360017
 21
-1373.422458276972
 31
0.0
  0
LINE
  5
324
330
1F
100
AcDbEntity
  8
C-4
  6
JWW_CENTER2
 62
     4
370
     9
100
AcDbLine
 10
-44.65429042346642
 20
-1352.102650117802
 30
0.0
 11
-44.65429042346642
 21
-1373.422458276972
 31
0.0
  0
LINE
  5
325
330
1F
100
AcDbEntity
  8
C-0
  6
Continuous
 62
     3
370
     9
100
AcDbLine
 10
-25.90513790485858
 20
-1222.107337818164
 30
0.0
 11
-25.90513790485858
 21
-1263.356453220798
 31
0.0
  0
LINE
  5
326
330
1F
100
AcDbEntity
  8
C-0
  6
Continuous
 62
     3
370
     9
100
AcDbLine
 10
-78.40429042346642
 20
-1274.607325446173
 30
0.0
 11
-78.40429042346642
 21
-1277.606760046178
 31
0.0
  0
LINE
  5
327
330
1F
100
AcDbEntity
  8
C-0
  6
Continuous
 62
     3
370
     9
100
AcDbLine
 10
-18.40418526154224
 20
-1217.606654884253
 30
0.0
 11
-18.40418526154224
 21
-1277.606760046178
 31
0.0
  0
LINE
  5
328
330
1F
100
AcDbEntity
  8
C-0
  6
Continuous
 62
     3
370
     9
100
AcDbLine
 10
-318.4041543315641
 20
-1217.606654884253
 30
0.0
 11
-318.4041543315641
 21
-1270.106642512262
 31
0.0
  0
LINE
  5
329
330
1F
100
AcDbEntity
  8
C-0
  6
Continuous
 62
     3
370
     9
100
AcDbLine
 10
-243.4040924716078
 20
-1277.607595155579
 30
0.0
 11
-243.4040924716078
 21
-1286.607569174398
 31
0.0
  0
ARC
  5
32A
330
1F
100
AcDbEntity
  8
C-0
  6
Continuous
 62
     3
370
     9
100
AcDbCircle
 10
-32.65393534732112
 20
-1263.356453220798
 30
0.0
 40
6.750000086990563
100
AcDbArc
 50
270.0
 51
0.0
  0
ARC
  5
32B
330
1F
100
AcDbEntity
  8
C-0
  6
Continuous
 62
     3
370
     9
100
AcDbCircle
 10
-21.40473334074841
 20
-1222.107337818164
 30
0.0
 40
4.500000329839216
100
AcDbArc
 50
90.0
 51
180.0
  0
ARC
  5
32C
330
1F
100
AcDbEntity
  8
C-0
  6
Continuous
 62
     3
370
     9
100
AcDbCircle
 10
-73.90472096875783
 20
-1274.607325446173
 30
0.0
 40
4.500000329839216
100
AcDbArc
 50
90.0
 51
180.0
  0
LINE
  5
32D
330
1F
100
AcDbEntity
  8
C-4
  6
Continuous
 62
     3
370
     9
100
AcDbLine
 10
-67.52929042346608
 20
-1284.356760046178
 30
0.0
 11
-25.90429042346642
 21
-1284.356760046178
 31
0.0
  0
LINE
  5
32E
330
1F
100
AcDbEntity
  8
C-4
  6
Continuous
 62
     3
370
     9
100
AcDbLine
 10
-71.65429042346659
 20
-1356.731760046178
 30
0.0
 11
-71.65429042346659
 21
-1288.481760046178
 31
0.0
  0
ARC
  5
32F
330
1F
100
AcDbEntity
  8
C-4
  6
Continuous
 62
     3
370
     9
100
AcDbCircle
 10
-67.52929042346608
 20
-1288.481760046178
 30
0.0
 40
4.124999999999999
100
AcDbArc
 50
90.0
 51
180.0
  0
LINE
  5
330
330
1F
100
AcDbEntity
  8
C-4
  6
Continuous
 62
     3
370
     9
100
AcDbLine
 10
-25.90429042346642
 20
-1360.856760046178
 30
0.0
 11
-25.90429042346642
 21
-1367.606760046178
 31
0.0
  0
LINE
  5
331
330
1F
100
AcDbEntity
  8
C-4
  6
Continuous
 62
     3
370
     9
100
AcDbLine
 10
-25.90429042346642
 20
-1284.356760046178
 30
0.0
 11
-25.90429042346642
 21
-1277.606760046178
 31
0.0
  0
ARC
  5
332
330
1F
100
AcDbEntity
  8
C-4
  6
Continuous
 62
     3
370
     9
100
AcDbCircle
 10
-67.52929042346608
 20
-1288.481760046178
 30
0.0
 40
10.875
100
AcDbArc
 50
90.0
 51
180.0
  0
LINE
  5
333
330
1F
100
AcDbEntity
  8
C-4
  6
Continuous
 62
     3
370
     9
100
AcDbLine
 10
-67.52929042346608
 20
-1277.606760046178
 30
0.0
 11
-25.90429042346642
 21
-1277.606760046178
 31
0.0
  0
ARC
  5
334
330
1F
100
AcDbEntity
  8
C-4
  6
Continuous
 62
     3
370
     9
100
AcDbCircle
 10
-67.52929042346608
 20
-1356.731760046178
 30
0.0
 40
10.875
100
AcDbArc
 50
180.0
 51
270.0
  0
ARC
  5
335
330
1F
100
AcDbEntity
  8
C-4
  6
Continuous
 62
     3
370
     9
100
AcDbCircle
 10
-67.52929042346608
 20
-1356.731760046178
 30
0.0
 40
4.124999999999999
100
AcDbArc
 50
180.0
 51
270.0
  0
LINE
  5
336
330
1F
100
AcDbEntity
  8
C-4
  6
Continuous
 62
     3
370
     9
100
AcDbLine
 10
-78.40429042346642
 20
-1356.731760046178
 30
0.0
 11
-78.40429042346642
 21
-1288.481760046178
 31
0.0
  0
LINE
  5
337
330
1F
100
AcDbEntity
  8
C-4
  6
Continuous
 62
     3
370
     9
100
AcDbLine
 10
-67.52929042346608
 20
-1360.856760046178
 30
0.0
 11
-25.90429042346642
 21
-1360.856760046178
 31
0.0
  0
LINE
  5
338
330
1F
100
AcDbEntity
  8
C-4
  6
JWW_DASHED3
 62
     3
370
     9
100
AcDbLine
 10
-54.40437172512247
 20
-1360.856760046178
 30
0.0
 11
-54.40437172512247
 21
-1367.606760046178
 31
0.0
  0
LINE
  5
339
330
1F
100
AcDbEntity
  8
C-0
  6
Continuous
 62
     3
370
     9
100
AcDbLine
 10
-393.4041543315641
 20
-1286.607569174398
 30
0.0
 11
-243.4040924716078
 21
-1286.607569174398
 31
0.0
  0
LINE
  5
33A
330
1F
100
AcDbEntity
  8
C-4
  6
Continuous
 62
     3
370
     9
100
AcDbLine
 10
-393.4041543315641
 20
-1277.606760046178
 30
0.0
 11
-393.4041543315641
 21
-1286.607569174398
 31
0.0
  0
LINE
  5
33B
330
1F
100
AcDbEntity
  8
C-4
  6
Continuous
 62
     3
370
     9
100
AcDbLine
 10
-67.52929042346608
 20
-1367.606760046178
 30
0.0
 11
-25.90429042346642
 21
-1367.606760046178
 31
0.0
  0
LINE
  5
33C
330
1F
100
AcDbEntity
  8
C-0
  6
JWW_CENTER1
 62
     4
370
     9
100
AcDbLine
 10
-355.9041543315641
 20
-1266.139455300942
 30
0.0
 11
-355.9041543315641
 21
-1304.483085911227
 31
0.0
  0
LINE
  5
33D
330
1F
100
AcDbEntity
  8
C-0
  6
Continuous
 62
     7
370
     9
100
AcDbLine
 10
-344.6541172155906
 20
-1297.675134886167
 30
0.0
 11
-344.6541172155906
 21
-1289.007534409103
 31
0.0
  0
LINE
  5
33E
330
1F
100
AcDbEntity
  8
C-0
  6
Continuous
 62
     7
370
     9
100
AcDbLine
 10
-350.2833113205844
 20
-1297.675134886167
 30
0.0
 11
-350.2833113205844
 21
-1289.007534409103
 31
0.0
  0
LINE
  5
33F
330
1F
100
AcDbEntity
  8
C-0
  6
Continuous
 62
     7
370
     9
100
AcDbLine
 10
-361.5249973425438
 20
-1297.675134886167
 30
0.0
 11
-361.5249973425438
 21
-1289.007534409103
 31
0.0
  0
LINE
  5
340
330
1F
100
AcDbEntity
  8
C-0
  6
Continuous
 62
     7
370
     9
100
AcDbLine
 10
-347.4687142680875
 20
-1298.757575855273
 30
0.0
 11
-364.3395943950406
 21
-1298.757575855273
 31
0.0
  0
LINE
  5
341
330
1F
100
AcDbEntity
  8
C-0
  6
Continuous
 62
     7
370
     9
100
AcDbLine
 10
-344.2794314641657
 20
-1289.007534409103
 30
0.0
 11
-344.2794314641657
 21
-1286.607569174398
 31
0.0
  0
LINE
  5
342
330
1F
100
AcDbEntity
  8
C-0
  6
Continuous
 62
     7
370
     9
100
AcDbLine
 10
-367.1541914475375
 20
-1297.675134886167
 30
0.0
 11
-367.1541914475375
 21
-1289.007534409103
 31
0.0
  0
LINE
  5
343
330
1F
100
AcDbEntity
  8
C-0
  6
Continuous
 62
     7
370
     9
100
AcDbLine
 10
-344.2794314641657
 20
-1289.007534409103
 30
0.0
 11
-367.5291555687633
 21
-1289.007534409103
 31
0.0
  0
LINE
  5
344
330
1F
100
AcDbEntity
  8
C-0
  6
Continuous
 62
     7
370
     9
100
AcDbLine
 10
-367.5291555687633
 20
-1289.007534409103
 30
0.0
 11
-367.5291555687633
 21
-1286.607569174398
 31
0.0
  0
LINE
  5
345
330
1F
100
AcDbEntity
  8
C-0
  6
Continuous
 62
     7
370
     9
100
AcDbLine
 10
-360.2542392034235
 20
-1298.757575855273
 30
0.0
 11
-360.2542392034235
 21
-1300.106416723424
 31
0.0
  0
LINE
  5
346
330
1F
100
AcDbEntity
  8
C-0
  6
Continuous
 62
     7
370
     9
100
AcDbLine
 10
-351.5540694597047
 20
-1298.757575855273
 30
0.0
 11
-351.5540694597047
 21
-1300.106416723424
 31
0.0
  0
LINE
  5
347
330
1F
100
AcDbEntity
  8
C-0
  6
Continuous
 62
     7
370
     9
100
AcDbLine
 10
-360.2542392034235
 20
-1300.106416723424
 30
0.0
 11
-361.6029408866743
 21
-1298.757575855273
 31
0.0
  0
LINE
  5
348
330
1F
100
AcDbEntity
  8
C-0
  6
Continuous
 62
     7
370
     9
100
AcDbLine
 10
-351.5540694597047
 20
-1300.106416723424
 30
0.0
 11
-350.2053677764548
 21
-1298.757575855273
 31
0.0
  0
LINE
  5
349
330
1F
100
AcDbEntity
  8
C-0
  6
Continuous
 62
     7
370
     9
100
AcDbLine
 10
-360.2542392034235
 20
-1300.106416723424
 30
0.0
 11
-351.5540694597047
 21
-1300.106416723424
 31
0.0
  0
ARC
  5
34A
330
1F
100
AcDbEntity
  8
C-0
  6
Continuous
 62
     7
370
     9
100
AcDbCircle
 10
-347.4687142680875
 20
-1294.557393120964
 30
0.0
 40
4.200259666587856
100
AcDbArc
 50
227.9255676269531
 51
312.0746307373047
  0
ARC
  5
34B
330
1F
100
AcDbEntity
  8
C-0
  6
Continuous
 62
     7
370
     9
100
AcDbCircle
 10
-355.9041543315641
 20
-1283.623444913418
 30
0.0
 40
15.13411571850648
100
AcDbArc
 50
248.1978607177734
 51
291.8021392822266
  0
ARC
  5
34C
330
1F
100
AcDbEntity
  8
C-0
  6
Continuous
 62
     7
370
     9
100
AcDbCircle
 10
-364.3395943950406
 20
-1294.557393120964
 30
0.0
 40
4.2002841326836
100
AcDbArc
 50
227.9257202148438
 51
312.0742797851562
  0
LWPOLYLINE
  5
34D
330
1F
100
AcDbEntity
  8
C-4
  6
Continuous
 62
     7
370
     9
100
AcDbPolyline
 90
        4
 70
     1
 43
1.5
 10
-77.65429042346642
 20
-1580.212747829288
 42
0.4142135623731
 10
-78.40429042346642
 20
-1579.462747829288
 42
0.4142135623731
 10
-79.15429042346642
 20
-1580.212747829288
 42
0.4142135623731
 10
-78.40429042346642
 20
-1580.962747829288
 42
0.4142135623731
  0
LINE
  5
34E
330
1F
100
AcDbEntity
  8
C-4
  6
Continuous
 62
     7
370
     9
100
AcDbLine
 10
-78.40429042346642
 20
-1584.712747829288
 30
0.0
 11
-78.40429042346642
 21
-1420.185968984486
 31
0.0
  0
LINE
  5
34F
330
1F
100
AcDbEntity
  8
C-4
  6
Continuous
 62
     7
370
     9
100
AcDbLine
 10
131.5247794026794
 20
-1367.606760046178
 30
0.0
 11
131.5247794026794
 21
-1217.606654884253
 31
0.0
  0
LWPOLYLINE
  5
350
330
1F
100
AcDbEntity
  8
C-4
  6
Continuous
 62
     7
370
     9
100
AcDbPolyline
 90
        4
 70
     1
 43
1.5
 10
132.2747794026794
 20
-1367.606760046178
 42
0.4142135623731
 10
131.5247794026794
 20
-1366.856760046178
 42
0.4142135623731
 10
130.7747794026794
 20
-1367.606760046178
 42
0.4142135623731
 10
131.5247794026794
 20
-1368.356760046178
 42
0.4142135623731
  0
LWPOLYLINE
  5
351
330
1F
100
AcDbEntity
  8
C-4
  6
Continuous
 62
     7
370
     9
100
AcDbPolyline
 90
        4
 70
     1
 43
1.5
 10
132.2747794026794
 20
-1217.606654884253
 42
0.4142135623731
 10
131.5247794026794
 20
-1216.856654884253
 42
0.4142135623731
 10
130.7747794026794
 20
-1217.606654884253
 42
0.4142135623731
 10
131.5247794026794
 20
-1218.356654884253
 42
0.4142135623731
  0
LINE
  5
352
330
1F
100
AcDbEntity
  8
C-4
  6
Continuous
 62
     7
370
     9
100
AcDbLine
 10
136.0247794026794
 20
-1367.606760046178
 30
0.0
 11
-1.130868901448281
 21
-1367.606760046178
 31
0.0
  0
LINE
  5
353
330
1F
100
AcDbEntity
  8
C-4
  6
Continuous
 62
     7
370
     9
100
AcDbLine
 10
136.0247794026794
 20
-1217.606654884253
 30
0.0
 11
-1.130868901448281
 21
-1217.606654884253
 31
0.0
  0
TEXT
  5
354
330
1F
100
AcDbEntity
  8
C-4
  6
Continuous
 62
     7
370
   211
100
AcDbText
 10
114.0647794026794
 20
-1341.356707465216
 30
0.0
 40
45.72
  1
100
 50
90.0
 41
1.083333333333333
  7
ＭＳ ゴシック
100
AcDbText
  0
LWPOLYLINE
  5
355
330
1F
100
AcDbEntity
  8
C-4
  6
Continuous
 62
     7
370
     9
100
AcDbPolyline
 90
        4
 70
     1
 43
1.5
 10
-17.65418526154224
 20
-1055.600622769191
 42
0.4142135623731
 10
-18.40418526154224
 20
-1054.850622769191
 42
0.4142135623731
 10
-19.15418526154224
 20
-1055.600622769191
 42
0.4142135623731
 10
-18.40418526154224
 20
-1056.350622769191
 42
0.4142135623731
  0
LINE
  5
356
330
1F
100
AcDbEntity
  8
C-4
  6
Continuous
 62
     7
370
     9
100
AcDbLine
 10
-18.40418526154224
 20
-1051.100622769191
 30
0.0
 11
-18.40418526154224
 21
-1184.357031739514
 31
0.0
  0
LINE
  5
357
330
1F
100
AcDbEntity
  8
C-4
  6
JWW_CENTER2
 62
     4
370
     9
100
AcDbLine
 10
-468.4039068917414
 20
-1247.346822699474
 30
0.0
 11
-468.4039068917414
 21
-1386.801702596556
 31
0.0
  0
LINE
  5
358
330
1F
100
AcDbEntity
  8
C-4
  6
Continuous
 62
     3
370
     9
100
AcDbLine
 10
-497.6539068917413
 20
-1277.606760046178
 30
0.0
 11
-497.6539068917413
 21
-1367.606760046178
 31
0.0
  0
LINE
  5
359
330
1F
100
AcDbEntity
  8
C-4
  6
Continuous
 62
     3
370
     9
100
AcDbLine
 10
-439.1539068917416
 20
-1277.606760046178
 30
0.0
 11
-439.1539068917416
 21
-1367.606760046178
 31
0.0
  0
LINE
  5
35A
330
1F
100
AcDbEntity
  8
C-4
  6
Continuous
 62
     3
370
     9
100
AcDbLine
 10
-439.1539068917416
 20
-1367.606760046178
 30
0.0
 11
-497.6539068917413
 21
-1367.606760046178
 31
0.0
  0
LINE
  5
35B
330
1F
100
AcDbEntity
  8
C-0
  6
JWW_CENTER2
 62
     4
370
     9
100
AcDbLine
 10
-2539.219553767534
 20
418.6360707889313
 30
0.0
 11
69.64664642889105
 21
418.6360707889313
 31
0.0
  0
LINE
  5
35C
330
1F
100
AcDbEntity
  8
C-4
  6
Continuous
 62
     7
370
     9
100
AcDbLine
 10
-2388.403523360017
 20
-1580.212747829288
 30
0.0
 11
-78.40429042346642
 21
-1580.212747829288
 31
0.0
  0
LINE
  5
35D
330
1F
100
AcDbEntity
  8
C-4
  6
Continuous
 62
     7
370
     9
100
AcDbLine
 10
-2448.404185261542
 20
-1055.600622769191
 30
0.0
 11
-18.40418526154224
 21
-1055.600622769191
 31
0.0
  0
LINE
  5
35E
330
1F
100
AcDbEntity
  8
C-0
  6
Continuous
 62
     3
370
     9
100
AcDbLine
 10
-18.40418526154224
 20
-1277.606760046178
 30
0.0
 11
-2448.404185261542
 21
-1277.606760046178
 31
0.0
  0
LINE
  5
35F
330
1F
100
AcDbEntity
  8
C-0
  6
Continuous
 62
     3
370
     9
100
AcDbLine
 10
-18.40418526154224
 20
-1217.606654884253
 30
0.0
 11
-2448.404185261542
 21
-1217.606654884253
 31
0.0
  0
LINE
  5
360
330
1F
100
AcDbEntity
  8
C-0
  6
Continuous
 62
     3
370
     9
100
AcDbLine
 10
-2434.153878436163
 20
-1270.106642512262
 30
0.0
 11
-32.65393534732112
 21
-1270.106642512262
 31
0.0
  0
LINE
  5
361
330
1F
100
AcDbEntity
  8
C-0
  6
JWW_CENTER2
 62
     4
370
     9
100
AcDbLine
 10
-2468.51488862418
 20
1183.636256368799
 30
0.0
 11
-2373.072222548275
 21
1183.636256368799
 31
0.0
  0
LINE
  5
362
330
1F
100
AcDbEntity
  8
C-0
  6
JWW_CENTER2
 62
     4
370
     9
100
AcDbLine
 10
-1998.403906891741
 20
1643.551753618386
 30
0.0
 11
-1998.403906891741
 21
1558.304386445465
 31
0.0
  0
LINE
  5
363
330
1F
100
AcDbEntity
  8
C-4
  6
JWW_DASHED1
 62
     3
370
     9
100
AcDbLine
 10
-1969.791650310142
 20
1626.136104811907
 30
0.0
 11
-1969.791650310142
 21
1573.636104811907
 31
0.0
  0
LINE
  5
364
330
1F
100
AcDbEntity
  8
C-4
  6
JWW_DASHED1
 62
     3
370
     9
100
AcDbLine
 10
-1988.653906891742
 20
1607.386104811907
 30
0.0
 11
-1988.653906891742
 21
1626.136104811907
 31
0.0
  0
ARC
  5
365
330
1F
100
AcDbEntity
  8
C-4
  6
JWW_DASHED1
 62
     3
370
     9
100
AcDbCircle
 10
-1998.403906891741
 20
1607.386023510252
 30
0.0
 40
9.75
100
AcDbArc
 50
180.0
 51
0.0
  0
LINE
  5
366
330
1F
100
AcDbEntity
  8
C-4
  6
JWW_DASHED1
 62
     3
370
     9
100
AcDbLine
 10
-2008.153906891742
 20
1607.386104811907
 30
0.0
 11
-2008.153906891742
 21
1626.136104811907
 31
0.0
  0
LINE
  5
367
330
1F
100
AcDbEntity
  8
C-4
  6
JWW_DASHED1
 62
     3
370
     9
100
AcDbLine
 10
-2026.791650310141
 20
1626.136104811907
 30
0.0
 11
-1969.791650310142
 21
1626.136104811907
 31
0.0
  0
LINE
  5
368
330
1F
100
AcDbEntity
  8
C-4
  6
JWW_DASHED1
 62
     3
370
     9
100
AcDbLine
 10
-2026.791650310142
 20
1573.636104811907
 30
0.0
 11
-2026.791650310141
 21
1626.136104811907
 31
0.0
  0
LINE
  5
369
330
1F
100
AcDbEntity
  8
C-4
  6
JWW_DASHED1
 62
     3
370
     9
100
AcDbLine
 10
-2388.403940914717
 20
1155.248512950398
 30
0.0
 11
-2440.903940914717
 21
1155.248512950398
 31
0.0
  0
ARC
  5
36A
330
1F
100
AcDbEntity
  8
C-4
  6
JWW_DASHED1
 62
     3
370
     9
100
AcDbCircle
 10
-2422.153859613062
 20
1183.636256368799
 30
0.0
 40
9.75
100
AcDbArc
 50
270.0
 51
90.0
  0
LINE
  5
36B
330
1F
100
AcDbEntity
  8
C-4
  6
JWW_DASHED1
 62
     3
370
     9
100
AcDbLine
 10
-2422.153940914717
 20
1173.886256368799
 30
0.0
 11
-2440.903940914717
 21
1173.886256368799
 31
0.0
  0
LINE
  5
36C
330
1F
100
AcDbEntity
  8
C-4
  6
JWW_DASHED1
 62
     3
370
     9
100
AcDbLine
 10
-2422.153940914717
 20
1193.386256368799
 30
0.0
 11
-2440.903940914717
 21
1193.386256368799
 31
0.0
  0
LINE
  5
36D
330
1F
100
AcDbEntity
  8
C-4
  6
JWW_DASHED1
 62
     3
370
     9
100
AcDbLine
 10
-2440.903940914717
 20
1155.248512950398
 30
0.0
 11
-2440.903940914717
 21
1212.248512950398
 31
0.0
  0
LINE
  5
36E
330
1F
100
AcDbEntity
  8
C-4
  6
JWW_DASHED1
 62
     3
370
     9
100
AcDbLine
 10
-2440.903940914717
 20
1212.248512950398
 30
0.0
 11
-2388.403940914717
 21
1212.248512950398
 31
0.0
  0
LINE
  5
36F
330
1F
100
AcDbEntity
  8
C-0
  6
JWW_CENTER2
 62
     4
370
     9
100
AcDbLine
 10
-2011.612630771365
 20
1607.386104811907
 30
0.0
 11
-1986.178536651995
 21
1607.386104811907
 31
0.0
  0
LINE
  5
370
330
1F
100
AcDbEntity
  8
C-4
  6
Continuous
 62
     7
370
     9
100
AcDbLine
 10
-1998.403906891741
 20
1776.547737575141
 30
0.0
 11
-1998.403906891741
 21
1653.708085776458
 31
0.0
  0
LWPOLYLINE
  5
371
330
1F
100
AcDbEntity
  8
C-4
  6
Continuous
 62
     7
370
     9
100
AcDbPolyline
 90
        4
 70
     1
 43
1.5
 10
-1997.653906891741
 20
1772.047737575141
 42
0.4142135623731
 10
-1998.403906891741
 20
1772.797737575141
 42
0.4142135623731
 10
-1999.153906891742
 20
1772.047737575141
 42
0.4142135623731
 10
-1998.403906891741
 20
1771.297737575141
 42
0.4142135623731
  0
LINE
  5
372
330
1F
100
AcDbEntity
  8
C-0
  6
JWW_CENTER2
 62
     4
370
     9
100
AcDbLine
 10
-2422.153940914717
 20
1170.427532489175
 30
0.0
 11
-2422.153940914717
 21
1195.861626608545
 31
0.0
  0
LWPOLYLINE
  5
373
330
1F
100
AcDbEntity
  8
C-4
  6
Continuous
 62
     7
370
     9
100
AcDbPolyline
 90
        4
 70
     1
 43
1.5
 10
-2751.323585644129
 20
1633.636070788931
 42
0.4142135623731
 10
-2752.073585644129
 20
1634.386070788931
 42
0.4142135623731
 10
-2752.823585644129
 20
1633.636070788931
 42
0.4142135623731
 10
-2752.073585644129
 20
1632.886070788931
 42
0.4142135623731
  0
LWPOLYLINE
  5
374
330
1F
100
AcDbEntity
  8
C-4
  6
Continuous
 62
     7
370
     9
100
AcDbPolyline
 90
        4
 70
     1
 43
1.5
 10
-2447.653906891741
 20
1921.175073330914
 42
0.4142135623731
 10
-2448.403906891741
 20
1921.925073330914
 42
0.4142135623731
 10
-2449.153906891742
 20
1921.175073330914
 42
0.4142135623731
 10
-2448.403906891741
 20
1920.425073330914
 42
0.4142135623731
  0
TEXT
  5
375
330
1F
100
AcDbEntity
  8
C-4
  6
Continuous
 62
     7
370
   211
100
AcDbText
 10
-2122.171223324561
 20
1789.507737575141
 30
0.0
 40
45.72
  1
100
 41
1.083333333333333
  7
ＭＳ ゴシック
100
AcDbText
  0
TEXT
  5
376
330
1F
100
AcDbEntity
  8
C-4
  6
Continuous
 62
     7
370
   211
100
AcDbText
 10
-2619.830372855152
 20
1359.886163578865
 30
0.0
 40
45.72
  1
300
 50
90.0
 41
1.083333333333333
  7
ＭＳ ゴシック
100
AcDbText
  0
LINE
  5
377
330
1F
100
AcDbEntity
  8
C-4
  6
Continuous
 62
     7
370
     9
100
AcDbLine
 10
-2756.573585644129
 20
1633.636070788931
 30
0.0
 11
-2487.713574040733
 21
1633.636070788931
 31
0.0
  0
LWPOLYLINE
  5
378
330
1F
100
AcDbEntity
  8
C-4
  6
Continuous
 62
     7
370
     9
100
AcDbPolyline
 90
        4
 70
     1
 43
1.5
 10
-2601.620372855151
 20
1633.636070788931
 42
0.4142135623731
 10
-2602.370372855152
 20
1634.386070788931
 42
0.4142135623731
 10
-2603.120372855152
 20
1633.636070788931
 42
0.4142135623731
 10
-2602.370372855152
 20
1632.886070788931
 42
0.4142135623731
  0
LINE
  5
379
330
1F
100
AcDbEntity
  8
C-4
  6
Continuous
 62
     7
370
     9
100
AcDbLine
 10
-2606.870372855152
 20
1183.636256368799
 30
0.0
 11
-2487.713574040733
 21
1183.636256368799
 31
0.0
  0
LWPOLYLINE
  5
37A
330
1F
100
AcDbEntity
  8
C-4
  6
Continuous
 62
     7
370
     9
100
AcDbPolyline
 90
        4
 70
     1
 43
1.5
 10
-2601.620372855151
 20
1183.636256368799
 42
0.4142135623731
 10
-2602.370372855152
 20
1184.386256368799
 42
0.4142135623731
 10
-2603.120372855152
 20
1183.636256368799
 42
0.4142135623731
 10
-2602.370372855152
 20
1182.886256368799
 42
0.4142135623731
  0
TEXT
  5
37B
330
1F
100
AcDbEntity
  8
C-4
  6
Continuous
 62
     7
370
   211
100
AcDbText
 10
-2347.153922356731
 20
1789.507737575141
 30
0.0
 40
45.72
  1
200
 41
1.083333333333333
  7
ＭＳ ゴシック
100
AcDbText
  0
LINE
  5
37C
330
1F
100
AcDbEntity
  8
C-4
  6
Continuous
 62
     7
370
     9
100
AcDbLine
 10
-2148.403937821719
 20
1776.547737575141
 30
0.0
 11
-2148.403937821719
 21
1653.708085776458
 31
0.0
  0
LINE
  5
37D
330
1F
100
AcDbEntity
  8
C-4
  6
Continuous
 62
     7
370
     9
100
AcDbLine
 10
-2448.403906891741
 20
1925.675073330914
 30
0.0
 11
-2448.403906891741
 21
1653.708085776458
 31
0.0
  0
LWPOLYLINE
  5
37E
330
1F
100
AcDbEntity
  8
C-4
  6
Continuous
 62
     7
370
     9
100
AcDbPolyline
 90
        4
 70
     1
 43
1.5
 10
-2147.653937821719
 20
1772.047737575141
 42
0.4142135623731
 10
-2148.403937821719
 20
1772.797737575141
 42
0.4142135623731
 10
-2149.15393782172
 20
1772.047737575141
 42
0.4142135623731
 10
-2148.403937821719
 20
1771.297737575141
 42
0.4142135623731
  0
LWPOLYLINE
  5
37F
330
1F
100
AcDbEntity
  8
C-4
  6
Continuous
 62
     7
370
     9
100
AcDbPolyline
 90
        4
 70
     1
 43
1.5
 10
-2447.653906891741
 20
1772.047737575141
 42
0.4142135623731
 10
-2448.403906891741
 20
1772.797737575141
 42
0.4142135623731
 10
-2449.153906891742
 20
1772.047737575141
 42
0.4142135623731
 10
-2448.403906891741
 20
1771.297737575141
 42
0.4142135623731
  0
LINE
  5
380
330
1F
100
AcDbEntity
  8
C-0
  6
Continuous
 62
     7
370
     9
100
AcDbLine
 10
-2106.833892969127
 20
1599.565694985577
 30
0.0
 11
-2114.973982674311
 21
1607.705784690761
 31
0.0
  0
LINE
  5
381
330
1F
100
AcDbEntity
  8
C-0
  6
Continuous
 62
     7
370
     9
100
AcDbLine
 10
-2114.973982674311
 20
1599.565694985577
 30
0.0
 11
-2106.833892969127
 21
1607.705784690761
 31
0.0
  0
LINE
  5
382
330
1F
100
AcDbEntity
  8
C-0
  6
JWW_DASHED1
 62
     4
370
     9
100
AcDbLine
 10
-2223.403999681675
 20
1627.636088109719
 30
0.0
 11
-2073.403937821719
 21
1627.636088109719
 31
0.0
  0
LINE
  5
383
330
1F
100
AcDbEntity
  8
C-0
  6
JWW_CENTER1
 62
     4
370
     9
100
AcDbLine
 10
-2110.903937821719
 20
1585.636070170332
 30
0.0
 11
-2110.903937821719
 21
1621.635966245606
 31
0.0
  0
LINE
  5
384
330
1F
100
AcDbEntity
  8
C-0
  6
JWW_CENTER1
 62
     4
370
     9
100
AcDbLine
 10
-2128.903885859357
 20
1603.635461468368
 30
0.0
 11
-2092.903989784082
 21
1603.635461468368
 31
0.0
  0
LINE
  5
385
330
1F
100
AcDbEntity
  8
C-4
  6
JWW_DASHED1
 62
     4
370
     9
100
AcDbLine
 10
-2073.403937821719
 20
1627.636088109719
 30
0.0
 11
-2073.403937821719
 21
1579.63622667602
 31
0.0
  0
LINE
  5
386
330
1F
100
AcDbEntity
  8
C-0
  6
JWW_DASHED1
 62
     4
370
     9
100
AcDbLine
 10
-2223.403999681675
 20
1579.63622667602
 30
0.0
 11
-2073.403937821719
 21
1579.63622667602
 31
0.0
  0
LINE
  5
387
330
1F
100
AcDbEntity
  8
C-0
  6
JWW_DASHED1
 62
     4
370
     9
100
AcDbLine
 10
-2223.403999681675
 20
1627.636088109719
 30
0.0
 11
-2223.403999681675
 21
1579.63622667602
 31
0.0
  0
CIRCLE
  5
388
330
1F
100
AcDbEntity
  8
C-0
  6
Continuous
 62
     3
370
     9
100
AcDbCircle
 10
-2110.903937821719
 20
1603.635461468368
 30
0.0
 40
10.49999904793662
  0
LINE
  5
389
330
1F
100
AcDbEntity
  8
C-0
  6
Continuous
 62
     3
370
     9
100
AcDbLine
 10
-2148.403937821719
 20
1633.636070788931
 30
0.0
 11
-2148.403937821719
 21
1573.636243996807
 31
0.0
  0
LINE
  5
38A
330
1F
100
AcDbEntity
  8
C-4
  6
JWW_DASHED1
 62
     4
370
     9
100
AcDbLine
 10
-393.4038759617633
 20
1627.636088109719
 30
0.0
 11
-393.4038759617633
 21
1579.63622667602
 31
0.0
  0
LINE
  5
38B
330
1F
100
AcDbEntity
  8
C-0
  6
JWW_DASHED1
 62
     4
370
     9
100
AcDbLine
 10
-243.4038141018078
 20
1579.63622667602
 30
0.0
 11
-393.4038759617633
 21
1579.63622667602
 31
0.0
  0
LINE
  5
38C
330
1F
100
AcDbEntity
  8
C-0
  6
JWW_DASHED1
 62
     4
370
     9
100
AcDbLine
 10
-243.4038141018078
 20
1627.636088109719
 30
0.0
 11
-243.4038141018078
 21
1579.63622667602
 31
0.0
  0
LINE
  5
38D
330
1F
100
AcDbEntity
  8
C-0
  6
JWW_CENTER1
 62
     4
370
     9
100
AcDbLine
 10
-337.9039279241266
 20
1603.635377957428
 30
0.0
 11
-373.9038239994008
 21
1603.635377957428
 31
0.0
  0
LINE
  5
38E
330
1F
100
AcDbEntity
  8
C-0
  6
JWW_CENTER1
 62
     4
370
     9
100
AcDbLine
 10
-355.9038759617633
 20
1585.635986659392
 30
0.0
 11
-355.9038759617633
 21
1621.635882734666
 31
0.0
  0
LINE
  5
38F
330
1F
100
AcDbEntity
  8
C-0
  6
Continuous
 62
     3
370
     9
100
AcDbLine
 10
-318.4038759617633
 20
1633.636070788931
 30
0.0
 11
-318.4038759617633
 21
1573.636243996807
 31
0.0
  0
CIRCLE
  5
390
330
1F
100
AcDbEntity
  8
C-0
  6
Continuous
 62
     3
370
     9
100
AcDbCircle
 10
-355.9038759617633
 20
1603.635377957428
 30
0.0
 40
10.49999904793662
  0
LINE
  5
391
330
1F
100
AcDbEntity
  8
C-0
  6
Continuous
 62
     7
370
     9
100
AcDbLine
 10
-351.8338311091711
 20
1599.565611474637
 30
0.0
 11
-359.9739208143555
 21
1607.70570117982
 31
0.0
  0
LINE
  5
392
330
1F
100
AcDbEntity
  8
C-0
  6
Continuous
 62
     7
370
     9
100
AcDbLine
 10
-359.9739208143555
 20
1599.565611474637
 30
0.0
 11
-351.8338311091711
 21
1607.70570117982
 31
0.0
  0
LINE
  5
393
330
1F
100
AcDbEntity
  8
C-0
  6
JWW_DASHED1
 62
     4
370
     9
100
AcDbLine
 10
-243.4038141018078
 20
1627.636088109719
 30
0.0
 11
-393.4038759617633
 21
1627.636088109719
 31
0.0
  0
LWPOLYLINE
  5
394
330
1F
100
AcDbEntity
  8
C-4
  6
Continuous
 62
     7
370
     9
100
AcDbPolyline
 90
        4
 70
     1
 43
1.5
 10
-317.6538759617633
 20
1772.047737575141
 42
0.4142135623731
 10
-318.4038759617633
 20
1772.797737575141
 42
0.4142135623731
 10
-319.1538759617633
 20
1772.047737575141
 42
0.4142135623731
 10
-318.4038759617633
 20
1771.297737575141
 42
0.4142135623731
  0
LINE
  5
395
330
1F
100
AcDbEntity
  8
C-4
  6
Continuous
 62
     7
370
     9
100
AcDbLine
 10
-318.4038759617633
 20
1776.547737575141
 30
0.0
 11
-318.4038759617633
 21
1653.708085776458
 31
0.0
  0
LWPOLYLINE
  5
396
330
1F
100
AcDbEntity
  8
C-4
  6
Continuous
 62
     7
370
     9
100
AcDbPolyline
 90
        4
 70
     1
 43
1.5
 10
-17.65390689174143
 20
1772.047737575141
 42
0.4142135623731
 10
-18.40390689174143
 20
1772.797737575141
 42
0.4142135623731
 10
-19.15390689174143
 20
1772.047737575141
 42
0.4142135623731
 10
-18.40390689174143
 20
1771.297737575141
 42
0.4142135623731
  0
LINE
  5
397
330
1F
100
AcDbEntity
  8
C-4
  6
Continuous
 62
     7
370
     9
100
AcDbLine
 10
-18.40390689174143
 20
1925.675073330914
 30
0.0
 11
-18.40390689174143
 21
1653.708085776458
 31
0.0
  0
TEXT
  5
398
330
1F
100
AcDbEntity
  8
C-4
  6
Continuous
 62
     7
370
   211
100
AcDbText
 10
-217.1538914267524
 20
1789.507737575141
 30
0.0
 40
45.72
  1
200
 41
1.083333333333333
  7
ＭＳ ゴシック
100
AcDbText
  0
TEXT
  5
399
330
1F
100
AcDbEntity
  8
C-4
  6
Continuous
 62
     7
370
   211
100
AcDbText
 10
-442.1537986368186
 20
1789.507737575141
 30
0.0
 40
45.72
  1
100
 41
1.083333333333333
  7
ＭＳ ゴシック
100
AcDbText
  0
LWPOLYLINE
  5
39A
330
1F
100
AcDbEntity
  8
C-4
  6
Continuous
 62
     7
370
     9
100
AcDbPolyline
 90
        4
 70
     1
 43
1.5
 10
-17.65390689174143
 20
1921.175073330914
 42
0.4142135623731
 10
-18.40390689174143
 20
1921.925073330914
 42
0.4142135623731
 10
-19.15390689174143
 20
1921.175073330914
 42
0.4142135623731
 10
-18.40390689174143
 20
1920.425073330914
 42
0.4142135623731
  0
LWPOLYLINE
  5
39B
330
1F
100
AcDbEntity
  8
C-4
  6
Continuous
 62
     7
370
     9
100
AcDbPolyline
 90
        4
 70
     1
 43
1.5
 10
-467.6539068917414
 20
1772.047737575141
 42
0.4142135623731
 10
-468.4039068917414
 20
1772.797737575141
 42
0.4142135623731
 10
-469.1539068917414
 20
1772.047737575141
 42
0.4142135623731
 10
-468.4039068917414
 20
1771.297737575141
 42
0.4142135623731
  0
LINE
  5
39C
330
1F
100
AcDbEntity
  8
C-4
  6
Continuous
 62
     7
370
     9
100
AcDbLine
 10
-468.4039068917414
 20
1776.547737575141
 30
0.0
 11
-468.4039068917414
 21
1653.708085776458
 31
0.0
  0
LINE
  5
39D
330
1F
100
AcDbEntity
  8
C-0
  6
JWW_CENTER2
 62
     4
370
     9
100
AcDbLine
 10
-481.6126307713649
 20
1607.386104811907
 30
0.0
 11
-456.1785366519952
 21
1607.386104811907
 31
0.0
  0
LINE
  5
39E
330
1F
100
AcDbEntity
  8
C-4
  6
JWW_DASHED1
 62
     3
370
     9
100
AcDbLine
 10
-439.7916503101418
 20
1626.136104811907
 30
0.0
 11
-439.7916503101418
 21
1573.636104811907
 31
0.0
  0
LINE
  5
39F
330
1F
100
AcDbEntity
  8
C-4
  6
JWW_DASHED1
 62
     3
370
     9
100
AcDbLine
 10
-496.7916503101419
 20
1626.136104811907
 30
0.0
 11
-439.7916503101418
 21
1626.136104811907
 31
0.0
  0
LINE
  5
3A0
330
1F
100
AcDbEntity
  8
C-4
  6
JWW_DASHED1
 62
     3
370
     9
100
AcDbLine
 10
-458.6539068917415
 20
1607.386104811907
 30
0.0
 11
-458.6539068917415
 21
1626.136104811907
 31
0.0
  0
LINE
  5
3A1
330
1F
100
AcDbEntity
  8
C-4
  6
JWW_DASHED1
 62
     3
370
     9
100
AcDbLine
 10
-478.1539068917415
 20
1607.386104811907
 30
0.0
 11
-478.1539068917415
 21
1626.136104811907
 31
0.0
  0
ARC
  5
3A2
330
1F
100
AcDbEntity
  8
C-4
  6
JWW_DASHED1
 62
     3
370
     9
100
AcDbCircle
 10
-468.4039068917414
 20
1607.386023510251
 30
0.0
 40
9.75
100
AcDbArc
 50
180.0
 51
0.0
  0
LINE
  5
3A3
330
1F
100
AcDbEntity
  8
C-4
  6
JWW_DASHED1
 62
     3
370
     9
100
AcDbLine
 10
-496.7916503101419
 20
1573.636104811907
 30
0.0
 11
-496.7916503101419
 21
1626.136104811907
 31
0.0
  0
LINE
  5
3A4
330
1F
100
AcDbEntity
  8
C-0
  6
JWW_CENTER2
 62
     4
370
     9
100
AcDbLine
 10
-468.4039068917414
 20
1643.551753618386
 30
0.0
 11
-468.4039068917414
 21
1558.304386445464
 31
0.0
  0
LINE
  5
3A5
330
1F
100
AcDbEntity
  8
C-0
  6
JWW_CENTER2
 62
     4
370
     9
100
AcDbLine
 10
-44.65387286876563
 20
1170.427532489175
 30
0.0
 11
-44.65387286876563
 21
1195.861626608545
 31
0.0
  0
LINE
  5
3A6
330
1F
100
AcDbEntity
  8
C-4
  6
JWW_DASHED1
 62
     3
370
     9
100
AcDbLine
 10
-25.90387286876563
 20
1212.248512950398
 30
0.0
 11
-78.40387286876563
 21
1212.248512950398
 31
0.0
  0
LINE
  5
3A7
330
1F
100
AcDbEntity
  8
C-4
  6
JWW_DASHED1
 62
     3
370
     9
100
AcDbLine
 10
-25.90387286876563
 20
1155.248512950398
 30
0.0
 11
-25.90387286876563
 21
1212.248512950398
 31
0.0
  0
LINE
  5
3A8
330
1F
100
AcDbEntity
  8
C-4
  6
JWW_DASHED1
 62
     3
370
     9
100
AcDbLine
 10
-44.65387286876563
 20
1193.386256368799
 30
0.0
 11
-25.90387286876563
 21
1193.386256368799
 31
0.0
  0
LINE
  5
3A9
330
1F
100
AcDbEntity
  8
C-4
  6
JWW_DASHED1
 62
     3
370
     9
100
AcDbLine
 10
-44.65387286876563
 20
1173.886256368799
 30
0.0
 11
-25.90387286876563
 21
1173.886256368799
 31
0.0
  0
ARC
  5
3AA
330
1F
100
AcDbEntity
  8
C-4
  6
JWW_DASHED1
 62
     3
370
     9
100
AcDbCircle
 10
-44.65395417042117
 20
1183.636256368799
 30
0.0
 40
9.75
100
AcDbArc
 50
90.0
 51
270.0
  0
LINE
  5
3AB
330
1F
100
AcDbEntity
  8
C-4
  6
JWW_DASHED1
 62
     3
370
     9
100
AcDbLine
 10
-78.40387286876563
 20
1155.248512950398
 30
0.0
 11
-25.90387286876563
 21
1155.248512950398
 31
0.0
  0
LINE
  5
3AC
330
1F
100
AcDbEntity
  8
C-0
  6
JWW_CENTER2
 62
     4
370
     9
100
AcDbLine
 10
1.707074840697231
 20
1183.636256368799
 30
0.0
 11
-93.73559123520835
 21
1183.636256368799
 31
0.0
  0
LINE
  5
3AD
330
1F
100
AcDbEntity
  8
C-4
  6
Continuous
 62
     7
370
     9
100
AcDbLine
 10
-2448.403906891741
 20
1921.175073330914
 30
0.0
 11
-18.40390689174143
 21
1921.175073330914
 31
0.0
  0
LINE
  5
3AE
330
1F
100
AcDbEntity
  8
C-4
  6
Continuous
 62
     7
370
     9
100
AcDbLine
 10
-2448.403906891741
 20
1772.047737575141
 30
0.0
 11
-18.40390689174143
 21
1772.047737575141
 31
0.0
  0
LINE
  5
3AF
330
1F
100
AcDbEntity
  8
C-0
  6
Continuous
 62
     7
370
     9
100
AcDbLine
 10
-2448.403906891741
 20
1628.835861949721
 30
0.0
 11
-18.40390689174143
 21
1628.835861949721
 31
0.0
  0
LINE
  5
3B0
330
1F
100
AcDbEntity
  8
C-0
  6
Continuous
 62
     3
370
     9
100
AcDbLine
 10
-2448.403906891741
 20
1633.636070788931
 30
0.0
 11
-18.40390689174143
 21
1633.636070788931
 31
0.0
  0
LINE
  5
3B1
330
1F
100
AcDbEntity
  8
C-0
  6
Continuous
 62
     3
370
     9
100
AcDbLine
 10
-2388.403940914717
 20
1573.636243996807
 30
0.0
 11
-78.40401205366646
 21
1573.636243996807
 31
0.0
  0
LINE
  5
3B2
330
1F
100
AcDbEntity
  8
C-0
  6
JWW_CENTER2
 62
     4
370
     9
100
AcDbLine
 10
-2468.51488862418
 20
-346.3639292110688
 30
0.0
 11
-2373.072222548275
 21
-346.3639292110688
 31
0.0
  0
LINE
  5
3B3
330
1F
100
AcDbEntity
  8
C-4
  6
JWW_DASHED1
 62
     3
370
     9
100
AcDbLine
 10
-2440.903940914717
 20
-317.7516726294692
 30
0.0
 11
-2388.403940914717
 21
-317.7516726294692
 31
0.0
  0
ARC
  5
3B4
330
1F
100
AcDbEntity
  8
C-4
  6
JWW_DASHED1
 62
     3
370
     9
100
AcDbCircle
 10
-2422.153859613062
 20
-346.3639292110688
 30
0.0
 40
9.75
100
AcDbArc
 50
270.0
 51
90.0
  0
LINE
  5
3B5
330
1F
100
AcDbEntity
  8
C-4
  6
JWW_DASHED1
 62
     3
370
     9
100
AcDbLine
 10
-2422.153940914717
 20
-336.6139292110688
 30
0.0
 11
-2440.903940914717
 21
-336.6139292110688
 31
0.0
  0
LINE
  5
3B6
330
1F
100
AcDbEntity
  8
C-4
  6
JWW_DASHED1
 62
     3
370
     9
100
AcDbLine
 10
-2422.153940914717
 20
-356.1139292110687
 30
0.0
 11
-2440.903940914717
 21
-356.1139292110687
 31
0.0
  0
LINE
  5
3B7
330
1F
100
AcDbEntity
  8
C-4
  6
JWW_DASHED1
 62
     3
370
     9
100
AcDbLine
 10
-2440.903940914717
 20
-374.7516726294691
 30
0.0
 11
-2440.903940914717
 21
-317.7516726294692
 31
0.0
  0
LINE
  5
3B8
330
1F
100
AcDbEntity
  8
C-4
  6
JWW_DASHED1
 62
     3
370
     9
100
AcDbLine
 10
-2388.403940914717
 20
-374.7516726294691
 30
0.0
 11
-2440.903940914717
 21
-374.7516726294691
 31
0.0
  0
LINE
  5
3B9
330
1F
100
AcDbEntity
  8
C-0
  6
JWW_CENTER2
 62
     4
370
     9
100
AcDbLine
 10
-2422.153940914717
 20
-359.5726530906921
 30
0.0
 11
-2422.153940914717
 21
-334.1385589713225
 31
0.0
  0
LINE
  5
3BA
330
1F
100
AcDbEntity
  8
C-4
  6
Continuous
 62
     7
370
     9
100
AcDbLine
 10
-2606.870372855152
 20
-346.3639292110688
 30
0.0
 11
-2487.713574040733
 21
-346.3639292110688
 31
0.0
  0
LWPOLYLINE
  5
3BB
330
1F
100
AcDbEntity
  8
C-4
  6
Continuous
 62
     7
370
     9
100
AcDbPolyline
 90
        4
 70
     1
 43
1.5
 10
-2601.620372855151
 20
-346.3639292110688
 42
0.4142135623731
 10
-2602.370372855152
 20
-345.6139292110687
 42
0.4142135623731
 10
-2603.120372855152
 20
-346.3639292110688
 42
0.4142135623731
 10
-2602.370372855152
 20
-347.1139292110688
 42
0.4142135623731
  0
LINE
  5
3BC
330
1F
100
AcDbEntity
  8
C-4
  6
JWW_DASHED1
 62
     3
370
     9
100
AcDbLine
 10
-1970.016163473341
 20
-736.3639632340445
 30
0.0
 11
-1970.016163473341
 21
-788.8639632340445
 31
0.0
  0
LINE
  5
3BD
330
1F
100
AcDbEntity
  8
C-4
  6
JWW_DASHED1
 62
     3
370
     9
100
AcDbLine
 10
-1988.653906891742
 20
-770.1139632340445
 30
0.0
 11
-1988.653906891742
 21
-788.8639632340445
 31
0.0
  0
ARC
  5
3BE
330
1F
100
AcDbEntity
  8
C-4
  6
JWW_DASHED1
 62
     3
370
     9
100
AcDbCircle
 10
-1998.403906891741
 20
-770.113881932389
 30
0.0
 40
9.75
100
AcDbArc
 50
0.0
 51
180.0
  0
LINE
  5
3BF
330
1F
100
AcDbEntity
  8
C-4
  6
JWW_DASHED1
 62
     3
370
     9
100
AcDbLine
 10
-2008.153906891742
 20
-770.1139632340445
 30
0.0
 11
-2008.153906891742
 21
-788.8639632340445
 31
0.0
  0
LINE
  5
3C0
330
1F
100
AcDbEntity
  8
C-4
  6
JWW_DASHED1
 62
     3
370
     9
100
AcDbLine
 10
-1970.016163473341
 20
-788.8639632340445
 30
0.0
 11
-2027.016163473341
 21
-788.8639632340445
 31
0.0
  0
LINE
  5
3C1
330
1F
100
AcDbEntity
  8
C-4
  6
JWW_DASHED1
 62
     3
370
     9
100
AcDbLine
 10
-2027.016163473341
 20
-788.8639632340445
 30
0.0
 11
-2027.016163473341
 21
-736.3639632340445
 31
0.0
  0
LINE
  5
3C2
330
1F
100
AcDbEntity
  8
C-0
  6
JWW_CENTER2
 62
     4
370
     9
100
AcDbLine
 10
-1985.195183012118
 20
-770.1139632340445
 30
0.0
 11
-2010.629277131488
 21
-770.1139632340445
 31
0.0
  0
LWPOLYLINE
  5
3C3
330
1F
100
AcDbEntity
  8
C-4
  6
Continuous
 62
     7
370
     9
100
AcDbPolyline
 90
        4
 70
     1
 43
1.5
 10
-2751.323585644129
 20
-796.3639292110687
 42
0.4142135623731
 10
-2752.073585644129
 20
-795.6139292110687
 42
0.4142135623731
 10
-2752.823585644129
 20
-796.3639292110687
 42
0.4142135623731
 10
-2752.073585644129
 20
-797.1139292110686
 42
0.4142135623731
  0
TEXT
  5
3C4
330
1F
100
AcDbEntity
  8
C-4
  6
Continuous
 62
     7
370
   211
100
AcDbText
 10
-2619.830372855152
 20
-620.1312301788989
 30
0.0
 40
45.72
  1
300
 50
90.0
 41
1.083333333333333
  7
ＭＳ ゴシック
100
AcDbText
  0
LINE
  5
3C5
330
1F
100
AcDbEntity
  8
C-4
  6
Continuous
 62
     7
370
     9
100
AcDbLine
 10
-2756.573585644129
 20
-796.3639292110687
 30
0.0
 11
-2487.713574040733
 21
-796.3639292110687
 31
0.0
  0
LWPOLYLINE
  5
3C6
330
1F
100
AcDbEntity
  8
C-4
  6
Continuous
 62
     7
370
     9
100
AcDbPolyline
 90
        4
 70
     1
 43
1.5
 10
-2601.620372855151
 20
-796.3639292110687
 42
0.4142135623731
 10
-2602.370372855152
 20
-795.6139292110687
 42
0.4142135623731
 10
-2603.120372855152
 20
-796.3639292110687
 42
0.4142135623731
 10
-2602.370372855152
 20
-797.1139292110686
 42
0.4142135623731
  0
LINE
  5
3C7
330
1F
100
AcDbEntity
  8
C-0
  6
Continuous
 62
     7
370
     9
100
AcDbLine
 10
-2106.833892969127
 20
-762.2937482665739
 30
0.0
 11
-2114.973982674311
 21
-770.433837971758
 31
0.0
  0
LINE
  5
3C8
330
1F
100
AcDbEntity
  8
C-0
  6
Continuous
 62
     7
370
     9
100
AcDbLine
 10
-2114.973982674311
 20
-762.2937482665739
 30
0.0
 11
-2106.833892969127
 21
-770.433837971758
 31
0.0
  0
LINE
  5
3C9
330
1F
100
AcDbEntity
  8
C-0
  6
JWW_DASHED1
 62
     4
370
     9
100
AcDbLine
 10
-2223.403999681675
 20
-790.3642249016566
 30
0.0
 11
-2223.403999681675
 21
-742.3643634679576
 31
0.0
  0
LINE
  5
3CA
330
1F
100
AcDbEntity
  8
C-0
  6
JWW_DASHED1
 62
     4
370
     9
100
AcDbLine
 10
-2223.403999681675
 20
-790.3642249016566
 30
0.0
 11
-2073.403937821719
 21
-790.3642249016566
 31
0.0
  0
LINE
  5
3CB
330
1F
100
AcDbEntity
  8
C-0
  6
JWW_DASHED1
 62
     4
370
     9
100
AcDbLine
 10
-2223.403999681675
 20
-742.3643634679576
 30
0.0
 11
-2073.403937821719
 21
-742.3643634679576
 31
0.0
  0
LINE
  5
3CC
330
1F
100
AcDbEntity
  8
C-4
  6
JWW_DASHED1
 62
     4
370
     9
100
AcDbLine
 10
-2073.403937821719
 20
-790.3642249016566
 30
0.0
 11
-2073.403937821719
 21
-742.3643634679576
 31
0.0
  0
LINE
  5
3CD
330
1F
100
AcDbEntity
  8
C-0
  6
JWW_CENTER1
 62
     4
370
     9
100
AcDbLine
 10
-2110.903937821719
 20
-748.3641234513294
 30
0.0
 11
-2110.903937821719
 21
-784.3640195266037
 31
0.0
  0
LINE
  5
3CE
330
1F
100
AcDbEntity
  8
C-0
  6
JWW_CENTER1
 62
     4
370
     9
100
AcDbLine
 10
-2128.903885859357
 20
-766.3635147493651
 30
0.0
 11
-2092.903989784082
 21
-766.3635147493651
 31
0.0
  0
CIRCLE
  5
3CF
330
1F
100
AcDbEntity
  8
C-0
  6
Continuous
 62
     3
370
     9
100
AcDbCircle
 10
-2110.903937821719
 20
-766.3635147493651
 30
0.0
 40
10.49999904793662
  0
LINE
  5
3D0
330
1F
100
AcDbEntity
  8
C-0
  6
Continuous
 62
     3
370
     9
100
AcDbLine
 10
-2148.403937821719
 20
-796.3642075808689
 30
0.0
 11
-2148.403937821719
 21
-736.3643807887446
 31
0.0
  0
LINE
  5
3D1
330
1F
100
AcDbEntity
  8
C-0
  6
JWW_CENTER2
 62
     4
370
     9
100
AcDbLine
 10
-1998.403906891741
 20
-813.4248887438246
 30
0.0
 11
-1998.403906891741
 21
-721.0322448676018
 31
0.0
  0
LINE
  5
3D2
330
1F
100
AcDbEntity
  8
C-0
  6
Continuous
 62
     3
370
     9
100
AcDbLine
 10
-318.4038759617633
 20
-796.3642075808689
 30
0.0
 11
-318.4038759617633
 21
-736.3643807887446
 31
0.0
  0
CIRCLE
  5
3D3
330
1F
100
AcDbEntity
  8
C-0
  6
Continuous
 62
     3
370
     9
100
AcDbCircle
 10
-355.9038759617633
 20
-766.3635147493651
 30
0.0
 40
10.49999904793662
  0
LINE
  5
3D4
330
1F
100
AcDbEntity
  8
C-4
  6
JWW_DASHED1
 62
     4
370
     9
100
AcDbLine
 10
-393.4038759617633
 20
-790.3642249016566
 30
0.0
 11
-393.4038759617633
 21
-742.3643634679576
 31
0.0
  0
LINE
  5
3D5
330
1F
100
AcDbEntity
  8
C-0
  6
JWW_DASHED1
 62
     4
370
     9
100
AcDbLine
 10
-243.4038141018078
 20
-742.3643634679576
 30
0.0
 11
-393.4038759617633
 21
-742.3643634679576
 31
0.0
  0
LINE
  5
3D6
330
1F
100
AcDbEntity
  8
C-0
  6
JWW_CENTER1
 62
     4
370
     9
100
AcDbLine
 10
-355.9038759617633
 20
-748.3641234513294
 30
0.0
 11
-355.9038759617633
 21
-784.3640195266037
 31
0.0
  0
LINE
  5
3D7
330
1F
100
AcDbEntity
  8
C-0
  6
JWW_CENTER1
 62
     4
370
     9
100
AcDbLine
 10
-337.9039279241266
 20
-766.3635147493651
 30
0.0
 11
-373.9038239994008
 21
-766.3635147493651
 31
0.0
  0
LINE
  5
3D8
330
1F
100
AcDbEntity
  8
C-0
  6
JWW_DASHED1
 62
     4
370
     9
100
AcDbLine
 10
-243.4038141018078
 20
-790.3642249016566
 30
0.0
 11
-393.4038759617633
 21
-790.3642249016566
 31
0.0
  0
LINE
  5
3D9
330
1F
100
AcDbEntity
  8
C-0
  6
JWW_DASHED1
 62
     4
370
     9
100
AcDbLine
 10
-243.4038141018078
 20
-790.3642249016566
 30
0.0
 11
-243.4038141018078
 21
-742.3643634679576
 31
0.0
  0
LINE
  5
3DA
330
1F
100
AcDbEntity
  8
C-0
  6
Continuous
 62
     7
370
     9
100
AcDbLine
 10
-351.8338311091711
 20
-762.2937482665739
 30
0.0
 11
-359.9739208143555
 21
-770.433837971758
 31
0.0
  0
LINE
  5
3DB
330
1F
100
AcDbEntity
  8
C-0
  6
Continuous
 62
     7
370
     9
100
AcDbLine
 10
-359.9739208143555
 20
-762.2937482665739
 30
0.0
 11
-351.8338311091711
 21
-770.433837971758
 31
0.0
  0
LINE
  5
3DC
330
1F
100
AcDbEntity
  8
C-0
  6
JWW_CENTER2
 62
     4
370
     9
100
AcDbLine
 10
-455.1951830121181
 20
-770.1139632340445
 30
0.0
 11
-480.6292771314877
 21
-770.1139632340445
 31
0.0
  0
LINE
  5
3DD
330
1F
100
AcDbEntity
  8
C-4
  6
JWW_DASHED1
 62
     3
370
     9
100
AcDbLine
 10
-497.0161634733411
 20
-788.8639632340445
 30
0.0
 11
-497.0161634733411
 21
-736.3639632340445
 31
0.0
  0
LINE
  5
3DE
330
1F
100
AcDbEntity
  8
C-4
  6
JWW_DASHED1
 62
     3
370
     9
100
AcDbLine
 10
-440.0161634733411
 20
-788.8639632340445
 30
0.0
 11
-497.0161634733411
 21
-788.8639632340445
 31
0.0
  0
LINE
  5
3DF
330
1F
100
AcDbEntity
  8
C-4
  6
JWW_DASHED1
 62
     3
370
     9
100
AcDbLine
 10
-478.1539068917415
 20
-770.1139632340445
 30
0.0
 11
-478.1539068917415
 21
-788.8639632340445
 31
0.0
  0
ARC
  5
3E0
330
1F
100
AcDbEntity
  8
C-4
  6
JWW_DASHED1
 62
     3
370
     9
100
AcDbCircle
 10
-468.4039068917414
 20
-770.113881932389
 30
0.0
 40
9.75
100
AcDbArc
 50
0.0
 51
180.0
  0
LINE
  5
3E1
330
1F
100
AcDbEntity
  8
C-4
  6
JWW_DASHED1
 62
     3
370
     9
100
AcDbLine
 10
-458.6539068917415
 20
-770.1139632340445
 30
0.0
 11
-458.6539068917415
 21
-788.8639632340445
 31
0.0
  0
LINE
  5
3E2
330
1F
100
AcDbEntity
  8
C-4
  6
JWW_DASHED1
 62
     3
370
     9
100
AcDbLine
 10
-440.016163473341
 20
-736.3639632340445
 30
0.0
 11
-440.0161634733411
 21
-788.8639632340445
 31
0.0
  0
LINE
  5
3E3
330
1F
100
AcDbEntity
  8
C-0
  6
JWW_CENTER2
 62
     4
370
     9
100
AcDbLine
 10
-468.4039068917414
 20
-813.4248887438246
 30
0.0
 11
-468.4039068917414
 21
-721.0322448676018
 31
0.0
  0
LINE
  5
3E4
330
1F
100
AcDbEntity
  8
C-0
  6
JWW_CENTER2
 62
     4
370
     9
100
AcDbLine
 10
-44.65387286876563
 20
-359.572653090692
 30
0.0
 11
-44.65387286876563
 21
-334.1385589713224
 31
0.0
  0
LINE
  5
3E5
330
1F
100
AcDbEntity
  8
C-4
  6
JWW_DASHED1
 62
     3
370
     9
100
AcDbLine
 10
-78.40387286876563
 20
-374.751672629469
 30
0.0
 11
-25.90387286876563
 21
-374.751672629469
 31
0.0
  0
LINE
  5
3E6
330
1F
100
AcDbEntity
  8
C-4
  6
JWW_DASHED1
 62
     3
370
     9
100
AcDbLine
 10
-25.90387286876563
 20
-374.751672629469
 30
0.0
 11
-25.90387286876563
 21
-317.7516726294691
 31
0.0
  0
LINE
  5
3E7
330
1F
100
AcDbEntity
  8
C-4
  6
JWW_DASHED1
 62
     3
370
     9
100
AcDbLine
 10
-44.65387286876563
 20
-356.1139292110686
 30
0.0
 11
-25.90387286876563
 21
-356.1139292110686
 31
0.0
  0
LINE
  5
3E8
330
1F
100
AcDbEntity
  8
C-4
  6
JWW_DASHED1
 62
     3
370
     9
100
AcDbLine
 10
-44.65387286876563
 20
-336.6139292110686
 30
0.0
 11
-25.90387286876563
 21
-336.6139292110686
 31
0.0
  0
ARC
  5
3E9
330
1F
100
AcDbEntity
  8
C-4
  6
JWW_DASHED1
 62
     3
370
     9
100
AcDbCircle
 10
-44.65395417042117
 20
-346.3639292110686
 30
0.0
 40
9.75
100
AcDbArc
 50
90.0
 51
270.0
  0
LINE
  5
3EA
330
1F
100
AcDbEntity
  8
C-4
  6
JWW_DASHED1
 62
     3
370
     9
100
AcDbLine
 10
-25.90387286876563
 20
-317.7516726294691
 30
0.0
 11
-78.40387286876563
 21
-317.7516726294691
 31
0.0
  0
LINE
  5
3EB
330
1F
100
AcDbEntity
  8
C-0
  6
JWW_CENTER2
 62
     4
370
     9
100
AcDbLine
 10
1.707074840697231
 20
-346.3639292110686
 30
0.0
 11
-93.73559123520835
 21
-346.3639292110686
 31
0.0
  0
LINE
  5
3EC
330
1F
100
AcDbEntity
  8
C-0
  6
Continuous
 62
     7
370
     9
100
AcDbLine
 10
-18.40390689174143
 20
-791.5639987416585
 30
0.0
 11
-2448.403906891741
 21
-791.5639987416585
 31
0.0
  0
LINE
  5
3ED
330
1F
100
AcDbEntity
  8
C-0
  6
Continuous
 62
     3
370
     9
100
AcDbLine
 10
-18.40390689174143
 20
-796.3639292110687
 30
0.0
 11
-2448.403906891741
 21
-796.3639292110687
 31
0.0
  0
LINE
  5
3EE
330
1F
100
AcDbEntity
  8
C-0
  6
Continuous
 62
     3
370
     9
100
AcDbLine
 10
-78.40401205366646
 20
-736.3638240491437
 30
0.0
 11
-2388.403940914717
 21
-736.3638240491437
 31
0.0
  0
LINE
  5
3EF
330
1F
100
AcDbEntity
  8
C-0
  6
JWW_CENTER2
 62
     4
370
     9
100
AcDbLine
 10
-1233.403906891741
 20
1694.928392028545
 30
0.0
 11
-1233.403906891741
 21
-889.0845784663752
 31
0.0
  0
LINE
  5
3F0
330
1F
100
AcDbEntity
  8
C-4
  6
Continuous
 62
     7
370
     9
100
AcDbLine
 10
-2602.370372855152
 20
-796.3639292110687
 30
0.0
 11
-2602.370372855152
 21
1633.636070788931
 31
0.0
  0
LINE
  5
3F1
330
1F
100
AcDbEntity
  8
C-4
  6
Continuous
 62
     7
370
     9
100
AcDbLine
 10
-2752.073585644129
 20
-796.3639292110687
 30
0.0
 11
-2752.073585644129
 21
1633.636070788931
 31
0.0
  0
LINE
  5
3F2
330
1F
100
AcDbEntity
  8
C-0
  6
Continuous
 62
     7
370
     9
100
AcDbLine
 10
-2443.603976422332
 20
-791.5639987416585
 30
0.0
 11
-2443.603976422332
 21
1628.835861949721
 31
0.0
  0
LINE
  5
3F3
330
1F
100
AcDbEntity
  8
C-0
  6
Continuous
 62
     3
370
     9
100
AcDbLine
 10
-2448.403906891741
 20
-796.3639292110687
 30
0.0
 11
-2448.403906891741
 21
1633.636070788931
 31
0.0
  0
LINE
  5
3F4
330
1F
100
AcDbEntity
  8
C-0
  6
Continuous
 62
     3
370
     9
100
AcDbLine
 10
-2388.403940914717
 20
-791.5639987416585
 30
0.0
 11
-2388.403940914717
 21
1628.835861949721
 31
0.0
  0
LINE
  5
3F5
330
1F
100
AcDbEntity
  8
C-0
  6
Continuous
 62
     3
370
     9
100
AcDbLine
 10
-18.40390689174143
 20
1633.636070788931
 30
0.0
 11
-18.40390689174143
 21
-796.3639292110687
 31
0.0
  0
LINE
  5
3F6
330
1F
100
AcDbEntity
  8
C-0
  6
Continuous
 62
     3
370
     9
100
AcDbLine
 10
-78.40401205366646
 20
1628.835861949721
 30
0.0
 11
-78.40401205366646
 21
-791.5639987416585
 31
0.0
  0
LINE
  5
3F7
330
1F
100
AcDbEntity
  8
C-0
  6
Continuous
 62
     7
370
     9
100
AcDbLine
 10
-23.20383736115161
 20
1628.835861949721
 30
0.0
 11
-23.20383736115161
 21
-791.5639987416585
 31
0.0
  0
TEXT
  5
3F8
330
1F
100
AcDbEntity
  8
C-4
  6
Continuous
 62
     7
370
   211
100
AcDbText
 10
-1299.029185261542
 20
-1038.14062276919
 30
0.0
 40
45.72
  1
1620
 41
1.09375
  7
ＭＳ ゴシック
100
AcDbText
  0
TEXT
  5
3F9
330
1F
100
AcDbEntity
  8
C-4
  6
Continuous
 62
     7
370
   211
100
AcDbText
 10
-1299.028906891741
 20
-1562.752747829288
 30
0.0
 40
45.72
  1
1540
 41
1.09375
  7
ＭＳ ゴシック
100
AcDbText
  0
TEXT
  5
3FA
330
1F
100
AcDbEntity
  8
C-4
  6
Continuous
 62
     7
370
   211
100
AcDbText
 10
-1299.028906891741
 20
1938.635073330914
 30
0.0
 40
45.72
  1
1620
 41
1.09375
  7
ＭＳ ゴシック
100
AcDbText
  0
TEXT
  5
3FB
330
1F
100
AcDbEntity
  8
C-4
  6
Continuous
 62
     7
370
   211
100
AcDbText
 10
-1299.028906891741
 20
1789.507737575141
 30
0.0
 40
45.72
  1
1020
 41
1.09375
  7
ＭＳ ゴシック
100
AcDbText
  0
TEXT
  5
3FC
330
1F
100
AcDbEntity
  8
C-4
  6
Continuous
 62
     7
370
   211
100
AcDbText
 10
-2619.830372855152
 20
353.0111635788649
 30
0.0
 40
45.72
  1
1020
 50
90.0
 41
1.09375
  7
ＭＳ ゴシック
100
AcDbText
  0
TEXT
  5
3FD
330
1F
100
AcDbEntity
  8
C-4
  6
Continuous
 62
     7
370
   211
100
AcDbText
 10
-2769.533585644129
 20
353.0110707889313
 30
0.0
 40
45.72
  1
1620
 50
90.0
 41
1.09375
  7
ＭＳ ゴシック
100
AcDbText
  0
TEXT
  5
3FE
330
1F
100
AcDbEntity
  8
F-Eﾚｲﾔ
  6
Continuous
 62
     7
370
     9
100
AcDbText
 10
-413.8146808107188
 20
-2059.871745156675
 30
0.0
 40
45.72
  1
スチール製受枠　SH-E-1600
 41
1.12
  7
ＭＳ ゴシック
100
AcDbText
  0
ENDSEC
  0
SECTION
  2
OBJECTS
  0
DICTIONARY
  5
C
330
0
100
AcDbDictionary
281
     1
  3
ACAD_GROUP
350
D
  3
ACAD_LAYOUT
350
1A
  3
ACAD_MLEADERSTYLE
350
400
  3
ACAD_MLINESTYLE
350
17
  3
ACAD_PLOTSETTINGS
350
19
  3
ACAD_PLOTSTYLENAME
350
E
  3
ACAD_TABLESTYLE
350
3FF
  3
ACAD_VISUALSTYLE
350
2A
  0
DICTIONARY
  5
D
102
{ACAD_REACTORS
330
C
102
}
330
C
100
AcDbDictionary
281
     1
  0
DICTIONARY
  5
1A
102
{ACAD_REACTORS
330
C
102
}
330
C
100
AcDbDictionary
281
     1
  3
Layout1
350
1E
  3
Layout2
350
26
  3
Model
350
22
  0
DICTIONARY
  5
400
102
{ACAD_REACTORS
330
C
102
}
330
C
100
AcDbDictionary
281
     1
  0
DICTIONARY
  5
17
102
{ACAD_REACTORS
330
C
102
}
330
C
100
AcDbDictionary
281
     1
  3
Standard
350
18
  0
DICTIONARY
  5
19
102
{ACAD_REACTORS
330
C
102
}
330
C
100
AcDbDictionary
281
     1
  0
ACDBDICTIONARYWDFLT
  5
E
102
{ACAD_REACTORS
330
C
102
}
330
C
100
AcDbDictionary
281
     1
  3
Normal
350
F
100
AcDbDictionaryWithDefault
340
F
  0
DICTIONARY
  5
3FF
102
{ACAD_REACTORS
330
C
102
}
330
C
100
AcDbDictionary
281
     1
  0
DICTIONARY
  5
2A
102
{ACAD_REACTORS
330
C
102
}
330
C
100
AcDbDictionary
281
     1
  3
2dWireframe
350
2F
  3
3D Hidden
350
31
  3
3dWireframe
350
30
  3
Basic
350
32
  3
Brighten
350
36
  3
ColorChange
350
3A
  3
Conceptual
350
34
  3
Dim
350
35
  3
Facepattern
350
39
  3
Flat
350
2B
  3
FlatWithEdges
350
2C
  3
Gouraud
350
2D
  3
GouraudWithEdges
350
2E
  3
Linepattern
350
38
  3
Realistic
350
33
  3
Thicken
350
37
  0
LAYOUT
  5
1E
102
{ACAD_REACTORS
330
1A
102
}
330
1A
100
AcDbPlotSettings
  1

  2
none_device
  4

  6

 40
0.0
 41
0.0
 42
0.0
 43
0.0
 44
0.0
 45
0.0
 46
0.0
 47
0.0
 48
0.0
 49
0.0
140
0.0
141
0.0
142
1.0
143
1.0
 70
   688
 72
     0
 73
     0
 74
     5
  7

 75
    16
 76
     0
 77
     5
 78
   300
147
1.0
148
0.0
149
0.0
100
AcDbLayout
  1
Layout1
 70
     1
 71
     1
 10
0.0
 20
0.0
 11
420.0
 21
297.0
 12
0.0
 22
0.0
 32
0.0
 14
1.000000000000000E+20
 24
1.000000000000000E+20
 34
1.000000000000000E+20
 15
-1.000000000000000E+20
 25
-1.000000000000000E+20
 35
-1.000000000000000E+20
146
0.0
 13
0.0
 23
0.0
 33
0.0
 16
1.0
 26
0.0
 36
0.0
 17
0.0
 27
1.0
 37
0.0
 76
     0
330
1B
  0
LAYOUT
  5
26
102
{ACAD_REACTORS
330
1A
102
}
330
1A
100
AcDbPlotSettings
  1

  2
none_device
  4

  6

 40
0.0
 41
0.0
 42
0.0
 43
0.0
 44
0.0
 45
0.0
 46
0.0
 47
0.0
 48
0.0
 49
0.0
140
0.0
141
0.0
142
1.0
143
1.0
 70
   688
 72
     0
 73
     0
 74
     5
  7

 75
    16
 76
     0
 77
     5
 78
   300
147
1.0
148
0.0
149
0.0
100
AcDbLayout
  1
Layout2
 70
     1
 71
     2
 10
0.0
 20
0.0
 11
0.0
 21
0.0
 12
0.0
 22
0.0
 32
0.0
 14
0.0
 24
0.0
 34
0.0
 15
0.0
 25
0.0
 35
0.0
146
0.0
 13
0.0
 23
0.0
 33
0.0
 16
1.0
 26
0.0
 36
0.0
 17
0.0
 27
1.0
 37
0.0
 76
     0
330
23
  0
LAYOUT
  5
22
102
{ACAD_REACTORS
330
1A
102
}
330
1A
100
AcDbPlotSettings
  1

  2
none_device
  4

  6

 40
0.0
 41
0.0
 42
0.0
 43
0.0
 44
0.0
 45
0.0
 46
0.0
 47
0.0
 48
0.0
 49
0.0
140
0.0
141
0.0
142
1.0
143
1.0
 70
  1712
 72
     0
 73
     0
 74
     0
  7

 75
     0
 76
     0
 77
     5
 78
   300
147
1.0
148
0.0
149
0.0
100
AcDbLayout
  1
Model
 70
     1
 71
     0
 10
-3150.0
 20
-2227.5
 11
3150.0
 21
2227.5
 12
0.0
 22
0.0
 32
0.0
 14
-3150.0
 24
-2227.5
 34
0.0
 15
3150.0
 25
2227.5
 35
0.0
146
0.0
 13
0.0
 23
0.0
 33
0.0
 16
1.0
 26
0.0
 36
0.0
 17
0.0
 27
1.0
 37
0.0
 76
     0
330
1F
331
29
  0
MLINESTYLE
  5
18
102
{ACAD_REACTORS
330
17
102
}
330
17
100
AcDbMlineStyle
  2
Standard
 70
     0
  3

 62
   256
 51
90.0
 52
90.0
 71
     2
 49
0.5
 62
   256
  6
BYLAYER
 49
-0.5
 62
   256
  6
BYLAYER
  0
ACDBPLACEHOLDER
  5
F
102
{ACAD_REACTORS
330
E
102
}
330
E
  0
VISUALSTYLE
  5
2F
102
{ACAD_REACTORS
330
2A
102
}
330
2A
100
AcDbVisualStyle
  2
2dWireframe
 70
     4
 71
     0
 72
     2
 73
     0
 90
        0
 40
-0.6
 41
-30.0
 62
     5
 63
     7
421
 16777215
 74
     1
 91
        4
 64
     7
 65
   257
 75
     1
175
     1
 42
1.0
 92
        0
 66
   257
 43
1.0
 76
     1
 77
     6
 78
     2
 67
     7
 79
     5
170
     0
171
     0
290
     0
174
     0
 93
        1
 44
0.0
173
     0
291
     0
 45
0.0
1001
ACAD
1000
AcDbSavedByObjectVersion
1070
     0
  0
VISUALSTYLE
  5
31
102
{ACAD_REACTORS
330
2A
102
}
330
2A
100
AcDbVisualStyle
  2
3D Hidden
 70
     6
 71
     1
 72
     2
 73
     2
 90
        0
 40
-0.6
 41
-30.0
 62
     5
 63
     7
421
 16777215
 74
     2
 91
        2
 64
     7
 65
   257
 75
     2
175
     1
 42
40.0
 92
        0
 66
   257
 43
1.0
 76
     1
 77
     6
 78
     2
 67
     7
 79
     3
170
     0
171
     0
290
     0
174
     0
 93
        1
 44
0.0
173
     0
291
     0
 45
0.0
1001
ACAD
1000
AcDbSavedByObjectVersion
1070
     0
  0
VISUALSTYLE
  5
30
102
{ACAD_REACTORS
330
2A
102
}
330
2A
100
AcDbVisualStyle
  2
3dWireframe
 70
     5
 71
     0
 72
     2
 73
     0
 90
        0
 40
-0.6
 41
-30.0
 62
     5
 63
     7
421
 16777215
 74
     1
 91
        4
 64
     7
 65
   257
 75
     1
175
     1
 42
1.0
 92
        0
 66
   257
 43
1.0
 76
     1
 77
     6
 78
     2
 67
     7
 79
     5
170
     0
171
     0
290
     0
174
     0
 93
        1
 44
0.0
173
     0
291
     0
 45
0.0
1001
ACAD
1000
AcDbSavedByObjectVersion
1070
     0
  0
VISUALSTYLE
  5
32
102
{ACAD_REACTORS
330
2A
102
}
330
2A
100
AcDbVisualStyle
  2
Basic
 70
     7
 71
     1
 72
     0
 73
     1
 90
        0
 40
-0.6
 41
-30.0
 62
     5
 63
     7
421
 16777215
 74
     0
 91
        4
 64
     7
 65
   257
 75
     1
175
     1
 42
1.0
 92
        8
 66
     7
 43
1.0
 76
     1
 77
     6
 78
     2
 67
     7
 79
     5
170
     0
171
     0
290
     0
174
     0
 93
        1
 44
0.0
173
     0
291
     1
 45
0.0
1001
ACAD
1000
AcDbSavedByObjectVersion
1070
     0
  0
VISUALSTYLE
  5
36
102
{ACAD_REACTORS
330
2A
102
}
330
2A
100
AcDbVisualStyle
  2
Brighten
 70
    12
 71
     2
 72
     2
 73
     0
 90
        0
 40
-0.6
 41
-30.0
 62
     5
 63
     7
421
 16777215
 74
     1
 91
        4
 64
     7
 65
   257
 75
     1
175
     1
 42
1.0
 92
        8
 66
     7
 43
1.0
 76
     1
 77
     6
 78
     2
 67
     7
 79
     5
170
     0
171
     0
290
     0
174
     0
 93
        1
 44
50.0
173
     0
291
     1
 45
0.0
1001
ACAD
1000
AcDbSavedByObjectVersion
1070
     0
  0
VISUALSTYLE
  5
3A
102
{ACAD_REACTORS
330
2A
102
}
330
2A
100
AcDbVisualStyle
  2
ColorChange
 70
    16
 71
     2
 72
     2
 73
     3
 90
        0
 40
-0.6
 41
-30.0
 62
     5
 63
     8
421
  8421504
 74
     1
 91
        4
 64
     7
 65
   257
 75
     1
175
     1
 42
1.0
 92
        8
 66
     8
424
  8421504
 43
1.0
 76
     1
 77
     6
 78
     2
 67
     7
 79
     5
170
     0
171
     0
290
     0
174
     0
 93
        1
 44
0.0
173
     0
291
     1
 45
0.0
1001
ACAD
1000
AcDbSavedByObjectVersion
1070
     0
  0
VISUALSTYLE
  5
34
102
{ACAD_REACTORS
330
2A
102
}
330
2A
100
AcDbVisualStyle
  2
Conceptual
 70
     9
 71
     3
 72
     2
 73
     0
 90
        0
 40
-0.6
 41
-30.0
 62
     5
 63
     7
421
 16777215
 74
     2
 91
        2
 64
     7
 65
   257
 75
     1
175
     1
 42
40.0
 92
        8
 66
     7
 43
1.0
 76
     1
 77
     6
 78
     2
 67
     7
 79
     3
170
     0
171
     0
290
     0
174
     0
 93
        1
 44
0.0
173
     0
291
     0
 45
0.0
1001
ACAD
1000
AcDbSavedByObjectVersion
1070
     0
  0
VISUALSTYLE
  5
35
102
{ACAD_REACTORS
330
2A
102
}
330
2A
100
AcDbVisualStyle
  2
Dim
 70
    11
 71
     2
 72
     2
 73
     0
 90
        0
 40
-0.6
 41
-30.0
 62
     5
 63
     7
421
 16777215
 74
     1
 91
        4
 64
     7
 65
   257
 75
     1
175
     1
 42
1.0
 92
        8
 66
     7
 43
1.0
 76
     1
 77
     6
 78
     2
 67
     7
 79
     5
170
     0
171
     0
290
     0
174
     0
 93
        1
 44
-50.0
173
     0
291
     1
 45
0.0
1001
ACAD
1000
AcDbSavedByObjectVersion
1070
     0
  0
VISUALSTYLE
  5
39
102
{ACAD_REACTORS
330
2A
102
}
330
2A
100
AcDbVisualStyle
  2
Facepattern
 70
    15
 71
     2
 72
     2
 73
     0
 90
        0
 40
-0.6
 41
-30.0
 62
     5
 63
     7
421
 16777215
 74
     1
 91
        4
 64
     7
 65
   257
 75
     1
175
     1
 42
1.0
 92
        8
 66
     7
 43
1.0
 76
     1
 77
     6
 78
     2
 67
     7
 79
     5
170
     0
171
     0
290
     0
174
     0
 93
        1
 44
0.0
173
     0
291
     1
 45
0.0
1001
ACAD
1000
AcDbSavedByObjectVersion
1070
     0
  0
VISUALSTYLE
  5
2B
102
{ACAD_REACTORS
330
2A
102
}
330
2A
100
AcDbVisualStyle
  2
Flat
 70
     0
 71
     2
 72
     1
 73
     1
 90
        2
 40
-0.6
 41
30.0
 62
     5
 63
     7
421
 16777215
 74
     0
 91
        4
 64
     7
 65
   257
 75
     1
175
     1
 42
1.0
 92
        8
 66
     7
 43
1.0
 76
     1
 77
     6
 78
     2
 67
     7
 79
     5
170
     0
171
     0
290
     0
174
     0
 93
       13
 44
0.0
173
     0
291
     1
 45
0.0
1001
ACAD
1000
AcDbSavedByObjectVersion
1070
     0
  0
VISUALSTYLE
  5
2C
102
{ACAD_REACTORS
330
2A
102
}
330
2A
100
AcDbVisualStyle
  2
FlatWithEdges
 70
     1
 71
     2
 72
     1
 73
     1
 90
        2
 40
-0.6
 41
30.0
 62
     5
 63
     7
421
 16777215
 74
     1
 91
        4
 64
     7
 65
   257
 75
     1
175
     1
 42
1.0
 92
        0
 66
   257
 43
1.0
 76
     1
 77
     6
 78
     2
 67
     7
 79
     5
170
     0
171
     0
290
     0
174
     0
 93
       13
 44
0.0
173
     0
291
     1
 45
0.0
1001
ACAD
1000
AcDbSavedByObjectVersion
1070
     0
  0
VISUALSTYLE
  5
2D
102
{ACAD_REACTORS
330
2A
102
}
330
2A
100
AcDbVisualStyle
  2
Gouraud
 70
     2
 71
     2
 72
     2
 73
     1
 90
        2
 40
-0.6
 41
30.0
 62
     5
 63
     7
421
 16777215
 74
     0
 91
        4
 64
     7
 65
   257
 75
     1
175
     1
 42
1.0
 92
        0
 66
     7
 43
1.0
 76
     1
 77
     6
 78
     2
 67
     7
 79
     5
170
     0
171
     0
290
     0
174
     0
 93
       13
 44
0.0
173
     0
291
     1
 45
0.0
1001
ACAD
1000
AcDbSavedByObjectVersion
1070
     0
  0
VISUALSTYLE
  5
2E
102
{ACAD_REACTORS
330
2A
102
}
330
2A
100
AcDbVisualStyle
  2
GouraudWithEdges
 70
     3
 71
     2
 72
     2
 73
     1
 90
        2
 40
-0.6
 41
30.0
 62
     5
 63
     7
421
 16777215
 74
     1
 91
        4
 64
     7
 65
   257
 75
     1
175
     1
 42
1.0
 92
        0
 66
   257
 43
1.0
 76
     1
 77
     6
 78
     2
 67
     7
 79
     5
170
     0
171
     0
290
     0
174
     0
 93
       13
 44
0.0
173
     0
291
     1
 45
0.0
1001
ACAD
1000
AcDbSavedByObjectVersion
1070
     0
  0
VISUALSTYLE
  5
38
102
{ACAD_REACTORS
330
2A
102
}
330
2A
100
AcDbVisualStyle
  2
Linepattern
 70
    14
 71
     2
 72
     2
 73
     0
 90
        0
 40
-0.6
 41
-30.0
 62
     5
 63
     7
421
 16777215
 74
     1
 91
        4
 64
     7
 65
   257
 75
     7
175
     7
 42
1.0
 92
        8
 66
     7
 43
1.0
 76
     1
 77
     6
 78
     2
 67
     7
 79
     5
170
     0
171
     0
290
     0
174
     0
 93
        1
 44
0.0
173
     0
291
     1
 45
0.0
1001
ACAD
1000
AcDbSavedByObjectVersion
1070
     0
  0
VISUALSTYLE
  5
33
102
{ACAD_REACTORS
330
2A
102
}
330
2A
100
AcDbVisualStyle
  2
Realistic
 70
     8
 71
     2
 72
     2
 73
     0
 90
        0
 40
-0.6
 41
-30.0
 62
     5
 63
     7
421
 16777215
 74
     1
 91
        0
 64
     7
 65
   257
 75
     1
175
     1
 42
1.0
 92
        8
 66
     8
424
  7895160
 43
1.0
 76
     1
 77
     6
 78
     2
 67
     7
 79
     5
170
     0
171
     0
290
     0
174
     0
 93
       13
 44
0.0
173
     0
291
     0
 45
0.0
1001
ACAD
1000
AcDbSavedByObjectVersion
1070
     0
  0
VISUALSTYLE
  5
37
102
{ACAD_REACTORS
330
2A
102
}
330
2A
100
AcDbVisualStyle
  2
Thicken
 70
    13
 71
     2
 72
     2
 73
     0
 90
        0
 40
-0.6
 41
-30.0
 62
     5
 63
     7
421
 16777215
 74
     1
 91
        4
 64
     7
 65
   257
 75
     1
175
     1
 42
1.0
 92
       12
 66
     7
 43
1.0
 76
     1
 77
     6
 78
     2
 67
     7
 79
     5
170
     0
171
     0
290
     0
174
     0
 93
        1
 44
0.0
173
     0
291
     1
 45
0.0
1001
ACAD
1000
AcDbSavedByObjectVersion
1070
     0
  0
ENDSEC
  0
EOF
