  0
SECTION
  2
HEADER
  9
$ACADVER
  1
AC1018
  9
$ACADMAINTVER
 70
     0
  9
$DWGCODEPAGE
  3
ANSI_932
  9
$INSBASE
 10
0.0
 20
0.0
 30
0.0
  9
$EXTMIN
 10
-2100.0
 20
-1485.0
 30
0.0
  9
$EXTMAX
 10
2100.0
 20
1485.0
 30
0.0
  9
$LIMMIN
 10
-2100.0
 20
-1485.0
  9
$LIMMAX
 10
2100.0
 20
1485.0
  9
$ORTHOMODE
 70
     0
  9
$REGENMODE
 70
     1
  9
$FILLMODE
 70
     1
  9
$QTEXTMODE
 70
     0
  9
$MIRRTEXT
 70
     1
  9
$LTSCALE
 40
10.0
  9
$ATTMODE
 70
     1
  9
$TEXTSIZE
 40
2.5
  9
$TRACEWID
 40
1.0
  9
$TEXTSTYLE
  7
Standard
  9
$CLAYER
  8
0
  9
$CELTYPE
  6
ByLayer
  9
$CECOLOR
 62
   256
  9
$CELTSCALE
 40
1.0
  9
$DISPSILH
 70
     0
  9
$DIMSCALE
 40
1.0
  9
$DIMASZ
 40
2.5
  9
$DIMEXO
 40
0.625
  9
$DIMDLI
 40
3.75
  9
$DIMRND
 40
0.0
  9
$DIMDLE
 40
0.0
  9
$DIMEXE
 40
1.25
  9
$DIMTP
 40
0.0
  9
$DIMTM
 40
0.0
  9
$DIMTXT
 40
2.5
  9
$DIMCEN
 40
2.5
  9
$DIMTSZ
 40
0.0
  9
$DIMTOL
 70
     0
  9
$DIMLIM
 70
     0
  9
$DIMTIH
 70
     0
  9
$DIMTOH
 70
     0
  9
$DIMSE1
 70
     0
  9
$DIMSE2
 70
     0
  9
$DIMTAD
 70
     1
  9
$DIMZIN
 70
     8
  9
$DIMBLK
  1

  9
$DIMASO
 70
     1
  9
$DIMSHO
 70
     1
  9
$DIMPOST
  1

  9
$DIMAPOST
  1

  9
$DIMALT
 70
     0
  9
$DIMALTD
 70
     3
  9
$DIMALTF
 40
0.03937007874016
  9
$DIMLFAC
 40
1.0
  9
$DIMTOFL
 70
     1
  9
$DIMTVP
 40
0.0
  9
$DIMTIX
 70
     0
  9
$DIMSOXD
 70
     0
  9
$DIMSAH
 70
     0
  9
$DIMBLK1
  1

  9
$DIMBLK2
  1

  9
$DIMSTYLE
  2
ISO-25
  9
$DIMCLRD
 70
     0
  9
$DIMCLRE
 70
     0
  9
$DIMCLRT
 70
     0
  9
$DIMTFAC
 40
1.0
  9
$DIMGAP
 40
0.625
  9
$DIMJUST
 70
     0
  9
$DIMSD1
 70
     0
  9
$DIMSD2
 70
     0
  9
$DIMTOLJ
 70
     0
  9
$DIMTZIN
 70
     8
  9
$DIMALTZ
 70
     0
  9
$DIMALTTZ
 70
     0
  9
$DIMUPT
 70
     0
  9
$DIMDEC
 70
     2
  9
$DIMTDEC
 70
     2
  9
$DIMALTU
 70
     2
  9
$DIMALTTD
 70
     3
  9
$DIMTXSTY
  7
Standard
  9
$DIMAUNIT
 70
     0
  9
$DIMADEC
 70
     0
  9
$DIMALTRND
 40
0.0
  9
$DIMAZIN
 70
     0
  9
$DIMDSEP
 70
    44
  9
$DIMATFIT
 70
     3
  9
$DIMFRAC
 70
     0
  9
$DIMLDRBLK
  1

  9
$DIMLUNIT
 70
     2
  9
$DIMLWD
 70
    -2
  9
$DIMLWE
 70
    -2
  9
$DIMTMOVE
 70
     0
  9
$LUNITS
 70
     2
  9
$LUPREC
 70
     4
  9
$SKETCHINC
 40
1.0
  9
$FILLETRAD
 40
10.0
  9
$AUNITS
 70
     0
  9
$AUPREC
 70
     0
  9
$MENU
  1
.
  9
$ELEVATION
 40
0.0
  9
$PELEVATION
 40
0.0
  9
$THICKNESS
 40
0.0
  9
$LIMCHECK
 70
     0
  9
$CHAMFERA
 40
0.0
  9
$CHAMFERB
 40
0.0
  9
$CHAMFERC
 40
0.0
  9
$CHAMFERD
 40
0.0
  9
$SKPOLY
 70
     0
  9
$TDCREATE
 40
2459927.481198819
  9
$TDUCREATE
 40
2459927.106198819
  9
$TDUPDATE
 40
2459927.481199016
  9
$TDUUPDATE
 40
2459927.106199016
  9
$TDINDWG
 40
0.0000000116
  9
$TDUSRTIMER
 40
0.0000000116
  9
$USRTIMER
 70
     1
  9
$ANGBASE
 50
0.0
  9
$ANGDIR
 70
     0
  9
$PDMODE
 70
     0
  9
$PDSIZE
 40
0.0
  9
$PLINEWID
 40
0.0
  9
$SPLFRAME
 70
     0
  9
$SPLINETYPE
 70
     6
  9
$SPLINESEGS
 70
     8
  9
$HANDSEED
  5
454
  9
$SURFTAB1
 70
     6
  9
$SURFTAB2
 70
     6
  9
$SURFTYPE
 70
     6
  9
$SURFU
 70
     6
  9
$SURFV
 70
     6
  9
$UCSBASE
  2

  9
$UCSNAME
  2

  9
$UCSORG
 10
0.0
 20
0.0
 30
0.0
  9
$UCSXDIR
 10
1.0
 20
0.0
 30
0.0
  9
$UCSYDIR
 10
0.0
 20
1.0
 30
0.0
  9
$UCSORTHOREF
  2

  9
$UCSORTHOVIEW
 70
     0
  9
$UCSORGTOP
 10
0.0
 20
0.0
 30
0.0
  9
$UCSORGBOTTOM
 10
0.0
 20
0.0
 30
0.0
  9
$UCSORGLEFT
 10
0.0
 20
0.0
 30
0.0
  9
$UCSORGRIGHT
 10
0.0
 20
0.0
 30
0.0
  9
$UCSORGFRONT
 10
0.0
 20
0.0
 30
0.0
  9
$UCSORGBACK
 10
0.0
 20
0.0
 30
0.0
  9
$PUCSBASE
  2

  9
$PUCSNAME
  2

  9
$PUCSORG
 10
0.0
 20
0.0
 30
0.0
  9
$PUCSXDIR
 10
1.0
 20
0.0
 30
0.0
  9
$PUCSYDIR
 10
0.0
 20
1.0
 30
0.0
  9
$PUCSORTHOREF
  2

  9
$PUCSORTHOVIEW
 70
     0
  9
$PUCSORGTOP
 10
0.0
 20
0.0
 30
0.0
  9
$PUCSORGBOTTOM
 10
0.0
 20
0.0
 30
0.0
  9
$PUCSORGLEFT
 10
0.0
 20
0.0
 30
0.0
  9
$PUCSORGRIGHT
 10
0.0
 20
0.0
 30
0.0
  9
$PUCSORGFRONT
 10
0.0
 20
0.0
 30
0.0
  9
$PUCSORGBACK
 10
0.0
 20
0.0
 30
0.0
  9
$USERI1
 70
     0
  9
$USERI2
 70
     0
  9
$USERI3
 70
     0
  9
$USERI4
 70
     0
  9
$USERI5
 70
     0
  9
$USERR1
 40
0.0
  9
$USERR2
 40
0.0
  9
$USERR3
 40
0.0
  9
$USERR4
 40
0.0
  9
$USERR5
 40
0.0
  9
$WORLDVIEW
 70
     1
  9
$SHADEDGE
 70
     3
  9
$SHADEDIF
 70
    70
  9
$TILEMODE
 70
     1
  9
$MAXACTVP
 70
    64
  9
$PINSBASE
 10
0.0
 20
0.0
 30
0.0
  9
$PLIMCHECK
 70
     0
  9
$PEXTMIN
 10
1.000000000000000E+20
 20
1.000000000000000E+20
 30
1.000000000000000E+20
  9
$PEXTMAX
 10
-1.000000000000000E+20
 20
-1.000000000000000E+20
 30
-1.000000000000000E+20
  9
$PLIMMIN
 10
0.0
 20
0.0
  9
$PLIMMAX
 10
420.0
 20
297.0
  9
$UNITMODE
 70
     0
  9
$VISRETAIN
 70
     1
  9
$PLINEGEN
 70
     0
  9
$PSLTSCALE
 70
     1
  9
$TREEDEPTH
 70
  3020
  9
$CMLSTYLE
  2
Standard
  9
$CMLJUST
 70
     0
  9
$CMLSCALE
 40
20.0
  9
$PROXYGRAPHICS
 70
     1
  9
$MEASUREMENT
 70
     1
  9
$CELWEIGHT
370
    -1
  9
$ENDCAPS
280
     0
  9
$JOINSTYLE
280
     0
  9
$LWDISPLAY
290
     0
  9
$INSUNITS
 70
     4
  9
$HYPERLINKBASE
  1

  9
$STYLESHEET
  1

  9
$XEDIT
290
     1
  9
$CEPSNTYPE
380
     0
  9
$PSTYLEMODE
290
     1
  9
$FINGERPRINTGUID
  2
{494BD373-1EBF-42AA-A22A-24FB0C271CC1}
  9
$VERSIONGUID
  2
{FAEB1C32-E019-11D5-929B-00C0DF256EC4}
  9
$EXTNAMES
290
     1
  9
$PSVPSCALE
 40
0.0
  9
$OLESTARTUP
290
     0
  9
$SORTENTS
280
   127
  9
$INDEXCTL
280
     0
  9
$HIDETEXT
280
     1
  9
$XCLIPFRAME
290
     0
  9
$HALOGAP
280
     0
  9
$OBSCOLOR
 70
   257
  9
$OBSLTYPE
280
     0
  9
$INTERSECTIONDISPLAY
280
     0
  9
$INTERSECTIONCOLOR
 70
   257
  9
$DIMASSOC
280
     2
  9
$PROJECTNAME
  1

  0
ENDSEC
  0
SECTION
  2
CLASSES
  0
CLASS
  1
ACDBDICTIONARYWDFLT
  2
AcDbDictionaryWithDefault
  3
ObjectDBX Classes
 90
        0
 91
        4
280
     0
281
     0
  0
CLASS
  1
VISUALSTYLE
  2
AcDbVisualStyle
  3
ObjectDBX Classes
 90
     4095
 91
        4
280
     0
281
     0
  0
CLASS
  1
MATERIAL
  2
AcDbMaterial
  3
ObjectDBX Classes
 90
     1153
 91
        4
280
     0
281
     0
  0
CLASS
  1
SCALE
  2
AcDbScale
  3
ObjectDBX Classes
 90
     1153
 91
        4
280
     0
281
     0
  0
CLASS
  1
TABLESTYLE
  2
AcDbTableStyle
  3
ObjectDBX Classes
 90
     4095
 91
        4
280
     0
281
     0
  0
CLASS
  1
MLEADERSTYLE
  2
AcDbMLeaderStyle
  3
ACDB_MLEADERSTYLE_CLASS
 90
     4095
 91
        4
280
     0
281
     0
  0
CLASS
  1
SUN
  2
AcDbSun
  3
SCENEOE
 90
     1153
 91
        4
280
     0
281
     0
  0
CLASS
  1
DICTIONARYVAR
  2
AcDbDictionaryVar
  3
ObjectDBX Classes
 90
        0
 91
        4
280
     0
281
     0
  0
CLASS
  1
CELLSTYLEMAP
  2
AcDbCellStyleMap
  3
ObjectDBX Classes
 90
     1152
 91
        4
280
     0
281
     0
  0
ENDSEC
  0
SECTION
  2
TABLES
  0
TABLE
  2
VPORT
  5
8
102
{ACAD_XDICTIONARY
360
40B
102
}
330
0
100
AcDbSymbolTable
 70
     1
  0
VPORT
  5
29
330
8
100
AcDbSymbolTableRecord
100
AcDbViewportTableRecord
  2
*Active
 70
     0
 10
0.0
 20
0.0
 11
1.0
 21
1.0
 12
0.0
 22
0.0
 13
0.0
 23
0.0
 14
10.0
 24
10.0
 15
10.0
 25
10.0
 16
0.0
 26
0.0
 36
1.0
 17
0.0
 27
0.0
 37
0.0
 40
3267.0
 41
1.414141414141414
 42
50.0
 43
0.0
 44
0.0
 50
0.0
 51
0.0
 71
     0
 72
 10000
 73
     1
 74
     3
 75
     0
 76
     0
 77
     0
 78
     0
281
     0
 65
     1
110
0.0
120
0.0
130
0.0
111
1.0
121
0.0
131
0.0
112
0.0
122
1.0
132
0.0
 79
     0
146
0.0
  0
ENDTAB
  0
TABLE
  2
LTYPE
  5
5
330
0
100
AcDbSymbolTable
 70
     5
  0
LTYPE
  5
14
330
5
100
AcDbSymbolTableRecord
100
AcDbLinetypeTableRecord
  2
ByBlock
 70
     0
  3

 72
    65
 73
     0
 40
0.0
  0
LTYPE
  5
15
330
5
100
AcDbSymbolTableRecord
100
AcDbLinetypeTableRecord
  2
ByLayer
 70
     0
  3

 72
    65
 73
     0
 40
0.0
  0
LTYPE
  5
16
330
5
100
AcDbSymbolTableRecord
100
AcDbLinetypeTableRecord
  2
Continuous
 70
     0
  3
Solid line
 72
    65
 73
     0
 40
0.0
  0
LTYPE
  5
6F
330
5
100
AcDbSymbolTableRecord
100
AcDbLinetypeTableRecord
  2
JWW_DASHED3
 70
     0
  3
---  ------  ------  ------  ---
 72
    65
 73
     2
 40
3.386666666666667
 49
2.54
 74
     0
 49
-0.8466666666666667
 74
     0
  0
LTYPE
  5
70
330
5
100
AcDbSymbolTableRecord
100
AcDbLinetypeTableRecord
  2
JWW_DASHED2
 70
     0
  3
--    ----    ----    ----    --
 72
    65
 73
     2
 40
3.386666666666667
 49
1.693333333333333
 74
     0
 49
-1.693333333333333
 74
     0
  0
LTYPE
  5
71
330
5
100
AcDbSymbolTableRecord
100
AcDbLinetypeTableRecord
  2
JWW_CENTER1
 70
     0
  3
-----  --  ----------  --  -----
 72
    65
 73
     4
 40
6.773333333333333
 49
4.233333333333333
 74
     0
 49
-0.8466666666666667
 74
     0
 49
0.8466666666666667
 74
     0
 49
-0.8466666666666667
 74
     0
  0
LTYPE
  5
72
330
5
100
AcDbSymbolTableRecord
100
AcDbLinetypeTableRecord
  2
JWW_CENTER2
 70
     0
  3
-------------  --  -------------
 72
    65
 73
     4
 40
13.54666666666667
 49
11.00666666666667
 74
     0
 49
-0.8466666666666667
 74
     0
 49
0.8466666666666667
 74
     0
 49
-0.8466666666666667
 74
     0
  0
ENDTAB
  0
TABLE
  2
LAYER
  5
2
330
0
100
AcDbSymbolTable
 70
    14
  0
LAYER
  5
10
330
2
100
AcDbSymbolTableRecord
100
AcDbLayerTableRecord
  2
0
 70
     0
 62
     7
  6
Continuous
370
    -3
390
F
  0
LAYER
  5
73
330
2
100
AcDbSymbolTableRecord
100
AcDbLayerTableRecord
  2
D-1
 70
     0
 62
     7
  6
Continuous
370
    -3
390
F
  0
LAYER
  5
74
330
2
100
AcDbSymbolTableRecord
100
AcDbLayerTableRecord
  2
D-6
 70
     0
 62
     7
  6
Continuous
370
    -3
390
F
  0
LAYER
  5
75
330
2
100
AcDbSymbolTableRecord
100
AcDbLayerTableRecord
  2
D-4
 70
     0
 62
     7
  6
Continuous
370
    -3
390
F
  0
LAYER
  5
76
330
2
100
AcDbSymbolTableRecord
100
AcDbLayerTableRecord
  2
D-5
 70
     0
 62
     7
  6
Continuous
370
    -3
390
F
  0
LAYER
  5
77
330
2
100
AcDbSymbolTableRecord
100
AcDbLayerTableRecord
  2
D-0
 70
     0
 62
     7
  6
Continuous
370
    -3
390
F
  0
LAYER
  5
78
330
2
100
AcDbSymbolTableRecord
100
AcDbLayerTableRecord
  2
D-9
 70
     0
 62
     7
  6
Continuous
370
    -3
390
F
  0
LAYER
  5
79
330
2
100
AcDbSymbolTableRecord
100
AcDbLayerTableRecord
  2
D-2
 70
     0
 62
     7
  6
Continuous
370
    -3
390
F
  0
LAYER
  5
7A
330
2
100
AcDbSymbolTableRecord
100
AcDbLayerTableRecord
  2
F-5ﾚｲﾔ
 70
     0
 62
     7
  6
Continuous
370
    -3
390
F
  0
LAYER
  5
7B
330
2
100
AcDbSymbolTableRecord
100
AcDbLayerTableRecord
  2
C-4
 70
     0
 62
     7
  6
Continuous
370
    -3
390
F
  0
LAYER
  5
7C
330
2
100
AcDbSymbolTableRecord
100
AcDbLayerTableRecord
  2
C-2
 70
     0
 62
     7
  6
Continuous
370
    -3
390
F
  0
LAYER
  5
7D
330
2
100
AcDbSymbolTableRecord
100
AcDbLayerTableRecord
  2
C-1
 70
     0
 62
     7
  6
Continuous
370
    -3
390
F
  0
LAYER
  5
7E
330
2
100
AcDbSymbolTableRecord
100
AcDbLayerTableRecord
  2
C-5
 70
     0
 62
     7
  6
Continuous
370
    -3
390
F
  0
LAYER
  5
7F
330
2
100
AcDbSymbolTableRecord
100
AcDbLayerTableRecord
  2
C-A
 70
     0
 62
     7
  6
Continuous
370
    -3
390
F
  0
ENDTAB
  0
TABLE
  2
STYLE
  5
3
330
0
100
AcDbSymbolTable
 70
     2
  0
STYLE
  5
11
330
3
100
AcDbSymbolTableRecord
100
AcDbTextStyleTableRecord
  2
Standard
 70
     0
 40
0.0
 41
1.0
 50
0.0
 71
     0
 42
2.5
  3
txt
  4

  0
STYLE
  5
6E
330
3
100
AcDbSymbolTableRecord
100
AcDbTextStyleTableRecord
  2
ＭＳ ゴシック
 70
     0
 40
1.0
 41
1.0
 50
0.0
 71
     0
 42
2.5
  3

  4

1001
ACAD
1000
MS Gothic
1071
    32817
  0
ENDTAB
  0
TABLE
  2
VIEW
  5
6
330
0
100
AcDbSymbolTable
 70
     0
  0
ENDTAB
  0
TABLE
  2
UCS
  5
7
330
0
100
AcDbSymbolTable
 70
     0
  0
ENDTAB
  0
TABLE
  2
APPID
  5
9
330
0
100
AcDbSymbolTable
 70
     2
  0
APPID
  5
12
330
9
100
AcDbSymbolTableRecord
100
AcDbRegAppTableRecord
  2
ACAD
 70
     0
  0
APPID
  5
44A
330
9
100
AcDbSymbolTableRecord
100
AcDbRegAppTableRecord
  2
ACAD_MLEADERVER
 70
     0
  0
ENDTAB
  0
TABLE
  2
DIMSTYLE
  5
A
330
0
100
AcDbSymbolTable
 70
     1
100
AcDbDimStyleTable
  0
DIMSTYLE
105
27
330
A
100
AcDbSymbolTableRecord
100
AcDbDimStyleTableRecord
  2
ISO-25
 70
     0
 41
2.5
 42
0.625
 43
3.75
 44
1.25
 73
     0
 74
     0
 77
     1
 78
     8
140
2.5
141
2.5
143
0.03937007874016
147
0.625
171
     3
172
     1
178
     0
271
     2
272
     2
274
     3
278
    44
283
     0
284
     8
340
11
  0
ENDTAB
  0
TABLE
  2
BLOCK_RECORD
  5
1
330
0
100
AcDbSymbolTable
 70
     1
  0
BLOCK_RECORD
  5
1F
330
1
100
AcDbSymbolTableRecord
100
AcDbBlockTableRecord
  2
*Model_Space
340
22
  0
BLOCK_RECORD
  5
1B
330
1
100
AcDbSymbolTableRecord
100
AcDbBlockTableRecord
  2
*Paper_Space
340
1E
  0
BLOCK_RECORD
  5
23
330
1
100
AcDbSymbolTableRecord
100
AcDbBlockTableRecord
  2
*Paper_Space0
340
26
  0
ENDTAB
  0
ENDSEC
  0
SECTION
  2
BLOCKS
  0
BLOCK
  5
20
330
1F
100
AcDbEntity
  8
0
100
AcDbBlockBegin
  2
*Model_Space
 70
     0
 10
0.0
 20
0.0
 30
0.0
  3
*Model_Space
  1

  0
ENDBLK
  5
21
330
1F
100
AcDbEntity
  8
0
100
AcDbBlockEnd
  0
BLOCK
  5
1C
330
1B
100
AcDbEntity
 67
     1
  8
0
100
AcDbBlockBegin
  2
*Paper_Space
 70
     0
 10
0.0
 20
0.0
 30
0.0
  3
*Paper_Space
  1

  0
ENDBLK
  5
1D
330
1B
100
AcDbEntity
 67
     1
  8
0
100
AcDbBlockEnd
  0
BLOCK
  5
24
330
23
100
AcDbEntity
  8
0
100
AcDbBlockBegin
  2
*Paper_Space0
 70
     0
 10
0.0
 20
0.0
 30
0.0
  3
*Paper_Space0
  1

  0
ENDBLK
  5
25
330
23
100
AcDbEntity
  8
0
100
AcDbBlockEnd
  0
ENDSEC
  0
SECTION
  2
ENTITIES
  0
LINE
  5
80
330
1F
100
AcDbEntity
  8
D-1
  6
Continuous
 62
     2
370
     9
100
AcDbLine
 10
-875.6397175615166
 20
-283.5773335761144
 30
0.0
 11
-875.6397175615166
 21
-473.5777150458409
 31
0.0
  0
LINE
  5
81
330
1F
100
AcDbEntity
  8
D-1
  6
Continuous
 62
     2
370
     9
100
AcDbLine
 10
-875.6397175615166
 20
-283.5773335761144
 30
0.0
 11
-860.6394016568993
 21
-283.5773335761144
 31
0.0
  0
LINE
  5
82
330
1F
100
AcDbEntity
  8
D-6
  6
Continuous
 62
     6
370
     9
100
AcDbLine
 10
-610.6397259061669
 20
-529.5864926642491
 30
0.0
 11
-514.6287929838036
 21
-433.5765420264318
 31
0.0
  0
LINE
  5
83
330
1F
100
AcDbEntity
  8
D-6
  6
Continuous
 62
     6
370
     9
100
AcDbLine
 10
-610.6397259061669
 20
-433.5765420264318
 30
0.0
 11
-445.6387340848778
 21
-433.5765420264318
 31
0.0
  0
LINE
  5
84
330
1F
100
AcDbEntity
  8
D-6
  6
Continuous
 62
     6
370
     9
100
AcDbLine
 10
-610.6397259061669
 20
-543.7276707953527
 30
0.0
 11
-500.4880916898583
 21
-433.5765420264318
 31
0.0
  0
LINE
  5
85
330
1F
100
AcDbEntity
  8
D-6
  6
JWW_DASHED3
 62
     6
370
     9
100
AcDbLine
 10
-798.3470833127831
 20
-761.0774480170323
 30
0.0
 11
-798.3470833127831
 21
-658.5768376654698
 31
0.0
  0
LINE
  5
86
330
1F
100
AcDbEntity
  8
D-6
  6
JWW_DASHED3
 62
     6
370
     9
100
AcDbLine
 10
-753.3466255491112
 20
-658.5768376654698
 30
0.0
 11
-753.3466255491112
 21
-761.0774480170323
 31
0.0
  0
LINE
  5
87
330
1F
100
AcDbEntity
  8
D-6
  6
Continuous
 62
     6
370
     9
100
AcDbLine
 10
-860.6394016568993
 20
-283.5763426385631
 30
0.0
 11
-445.6387340848778
 21
-283.5763426385631
 31
0.0
  0
LINE
  5
88
330
1F
100
AcDbEntity
  8
D-6
  6
Continuous
 62
     6
370
     9
100
AcDbLine
 10
-860.6394016568993
 20
-658.5768376654698
 30
0.0
 11
-860.6394016568993
 21
-783.5766850775792
 31
0.0
  0
LINE
  5
89
330
1F
100
AcDbEntity
  8
D-6
  6
Continuous
 62
     6
370
     9
100
AcDbLine
 10
-860.6394016568993
 20
-658.5768376654698
 30
0.0
 11
-610.6397259061669
 21
-658.5768376654698
 31
0.0
  0
LINE
  5
8A
330
1F
100
AcDbEntity
  8
D-6
  6
Continuous
 62
     6
370
     9
100
AcDbLine
 10
-610.6397259061669
 20
-433.5765420264318
 30
0.0
 11
-610.6397259061669
 21
-658.5768376654698
 31
0.0
  0
LINE
  5
8B
330
1F
100
AcDbEntity
  8
D-1
  6
Continuous
 62
     2
370
     9
100
AcDbLine
 10
-1010.639601928506
 20
-473.5777150458409
 30
0.0
 11
-875.6397175615166
 21
-473.5777150458409
 31
0.0
  0
LINE
  5
8C
330
1F
100
AcDbEntity
  8
D-1
  6
Continuous
 62
     2
370
     9
100
AcDbLine
 10
-1010.639601928506
 20
-488.577543384464
 30
0.0
 11
-875.6397175615166
 21
-488.577543384464
 31
0.0
  0
LINE
  5
8D
330
1F
100
AcDbEntity
  8
D-1
  6
Continuous
 62
     2
370
     9
100
AcDbLine
 10
-1010.639601928506
 20
-488.577543384464
 30
0.0
 11
-1010.639601928506
 21
-473.5777150458409
 31
0.0
  0
LINE
  5
8E
330
1F
100
AcDbEntity
  8
D-6
  6
Continuous
 62
     6
370
     9
100
AcDbLine
 10
-1010.639601928506
 20
-488.577543384464
 30
0.0
 11
-1010.639601928506
 21
-783.5766850775792
 31
0.0
  0
LINE
  5
8F
330
1F
100
AcDbEntity
  8
D-4
  6
Continuous
 62
     7
370
     9
100
AcDbLine
 10
-434.6095669095848
 20
-283.5763426385631
 30
0.0
 11
-335.9538280790184
 21
-283.5763426385631
 31
0.0
  0
LINE
  5
90
330
1F
100
AcDbEntity
  8
D-4
  6
Continuous
 62
     7
370
     9
100
AcDbLine
 10
-338.9543926542137
 20
-658.5763417548253
 30
0.0
 11
-338.9543926542137
 21
-283.5763426385631
 31
0.0
  0
LINE
  5
91
330
1F
100
AcDbEntity
  8
D-4
  6
Continuous
 62
     7
370
     9
100
AcDbLine
 10
-588.4030926053856
 20
-658.5763417548253
 30
0.0
 11
-335.9538280790184
 21
-658.5763417548253
 31
0.0
  0
LINE
  5
92
330
1F
100
AcDbEntity
  8
D-4
  6
Continuous
 62
     7
370
     9
100
AcDbLine
 10
-1010.638858062539
 20
-724.1957341498448
 30
0.0
 11
-860.6394016568993
 21
-724.1957341498448
 31
0.0
  0
LINE
  5
93
330
1F
100
AcDbEntity
  8
D-4
  6
Continuous
 62
     7
370
     9
100
AcDbLine
 10
-885.6382776468854
 20
-56.40539754095812
 30
0.0
 11
-880.6380069082115
 21
-56.40539754095812
 31
0.0
  0
LINE
  5
94
330
1F
100
AcDbEntity
  8
D-4
  6
Continuous
 62
     7
370
     9
100
AcDbLine
 10
-1010.639353973183
 20
-165.1573239630773
 30
0.0
 11
-885.6382776468854
 21
-165.1573239630773
 31
0.0
  0
LINE
  5
95
330
1F
100
AcDbEntity
  8
D-4
  6
Continuous
 62
     7
370
     9
100
AcDbLine
 10
-885.6382776468854
 20
-270.6213210887029
 30
0.0
 11
-885.6382776468854
 21
-53.40532887640734
 31
0.0
  0
LINE
  5
96
330
1F
100
AcDbEntity
  8
D-4
  6
Continuous
 62
     7
370
     9
100
AcDbLine
 10
-875.6382310216759
 20
-270.6213210887029
 30
0.0
 11
-875.6382310216759
 21
-53.40532887640734
 31
0.0
  0
LINE
  5
97
330
1F
100
AcDbEntity
  8
D-4
  6
Continuous
 62
     7
370
     9
100
AcDbLine
 10
-860.6394016568993
 20
-270.6213210887029
 30
0.0
 11
-860.6394016568993
 21
57.29081522759657
 31
0.0
  0
LINE
  5
98
330
1F
100
AcDbEntity
  8
D-4
  6
Continuous
 62
     7
370
     9
100
AcDbLine
 10
-1010.639353973183
 20
-270.6213210887029
 30
0.0
 11
-1010.639353973183
 21
-162.1567689246251
 31
0.0
  0
LINE
  5
99
330
1F
100
AcDbEntity
  8
D-4
  6
Continuous
 62
     7
370
     9
100
AcDbLine
 10
-880.6380069082115
 20
-56.40539754095812
 30
0.0
 11
-822.9773342435692
 21
-56.40539754095812
 31
0.0
  0
LINE
  5
9A
330
1F
100
AcDbEntity
  8
D-4
  6
Continuous
 62
     7
370
     9
100
AcDbLine
 10
-1583.307152969155
 20
-165.1573239630773
 30
0.0
 11
-1010.639353973183
 21
-165.1573239630773
 31
0.0
  0
LINE
  5
9B
330
1F
100
AcDbEntity
  8
D-4
  6
Continuous
 62
     7
370
     9
100
AcDbLine
 10
-1583.307152969155
 20
-56.40539754095812
 30
0.0
 11
-885.6382776468854
 21
-56.40539754095812
 31
0.0
  0
LINE
  5
9C
330
1F
100
AcDbEntity
  8
D-4
  6
Continuous
 62
     7
370
     9
100
AcDbLine
 10
-1583.307152969155
 20
54.29025065240126
 30
0.0
 11
-860.6394016568993
 21
54.29025065240126
 31
0.0
  0
LINE
  5
9D
330
1F
100
AcDbEntity
  8
D-5
  6
Continuous
 62
     7
370
     9
100
AcDbLine
 10
-1352.633706313882
 20
-979.5181905097081
 30
0.0
 11
-1352.633706313882
 21
-914.5186864203527
 31
0.0
  0
LINE
  5
9E
330
1F
100
AcDbEntity
  8
D-5
  6
Continuous
 62
     7
370
     9
100
AcDbLine
 10
-1352.633706313882
 20
-914.5186864203527
 30
0.0
 11
-777.6335155790184
 21
-914.5186864203527
 31
0.0
  0
LINE
  5
9F
330
1F
100
AcDbEntity
  8
D-5
  6
Continuous
 62
     7
370
     9
100
AcDbLine
 10
-777.6335155790184
 20
-914.5186864203527
 30
0.0
 11
-777.6335155790184
 21
-979.5181905097081
 31
0.0
  0
LINE
  5
A0
330
1F
100
AcDbEntity
  8
D-5
  6
Continuous
 62
     7
370
     9
100
AcDbLine
 10
-777.6335155790184
 20
-979.5181905097081
 30
0.0
 11
-1352.633706313882
 21
-979.5181905097081
 31
0.0
  0
LINE
  5
A1
330
1F
100
AcDbEntity
  8
D-4
  6
Continuous
 62
     7
370
     9
100
AcDbLine
 10
-1010.638858062539
 20
-833.8583241767003
 30
0.0
 11
-610.6382381742333
 21
-833.8583241767003
 31
0.0
  0
LINE
  5
A2
330
1F
100
AcDbEntity
  8
D-4
  6
Continuous
 62
     7
370
     9
100
AcDbLine
 10
-1010.638858062539
 20
-798.7756596869542
 30
0.0
 11
-1010.638858062539
 21
-836.8583928412511
 31
0.0
  0
LINE
  5
A3
330
1F
100
AcDbEntity
  8
D-4
  6
Continuous
 62
     7
370
     9
100
AcDbLine
 10
-610.6382381742333
 20
-672.3518620795323
 30
0.0
 11
-610.6382381742333
 21
-836.8583928412511
 31
0.0
  0
LINE
  5
A4
330
1F
100
AcDbEntity
  8
D-6
  6
Continuous
 62
     6
370
     9
100
AcDbLine
 10
-860.6394016568993
 20
-779.584680683048
 30
0.0
 11
-739.6300709073876
 21
-658.5768376654698
 31
0.0
  0
LINE
  5
A5
330
1F
100
AcDbEntity
  8
D-6
  6
Continuous
 62
     6
370
     9
100
AcDbLine
 10
-850.4897224729393
 20
-783.5766850775792
 30
0.0
 11
-725.4893886869286
 21
-658.5768376654698
 31
0.0
  0
LINE
  5
A6
330
1F
100
AcDbEntity
  8
D-1
  6
Continuous
 62
     2
370
     9
100
AcDbLine
 10
-860.639895183358
 20
-473.5777150458409
 30
0.0
 11
-860.639895183358
 21
-283.5773335761144
 31
0.0
  0
LINE
  5
A7
330
1F
100
AcDbEntity
  8
D-6
  6
Continuous
 62
     6
370
     9
100
AcDbLine
 10
-610.6397259061669
 20
-557.8683530158116
 30
0.0
 11
-486.3479244535301
 21
-433.5765420264318
 31
0.0
  0
LINE
  5
A8
330
1F
100
AcDbEntity
  8
D-6
  6
Continuous
 62
     6
370
     9
100
AcDbLine
 10
-836.3480531995629
 20
-783.5766850775792
 30
0.0
 11
-711.3482105558251
 21
-658.5768376654698
 31
0.0
  0
LINE
  5
A9
330
1F
100
AcDbEntity
  8
D-0
  6
Continuous
 62
     7
370
     9
100
AcDbLine
 10
-583.7942325895165
 20
-305.7629381484105
 30
0.0
 11
-583.7942325895165
 21
-304.2626606291844
 31
0.0
  0
LINE
  5
AA
330
1F
100
AcDbEntity
  8
D-0
  6
Continuous
 62
     7
370
     9
100
AcDbLine
 10
-583.7942325895165
 20
-304.2626606291844
 30
0.0
 11
-582.2944652860497
 21
-304.2626606291844
 31
0.0
  0
LINE
  5
AB
330
1F
100
AcDbEntity
  8
D-0
  6
Continuous
 62
     7
370
     9
100
AcDbLine
 10
-582.2944652860497
 20
-304.2626606291844
 30
0.0
 11
-582.2944652860497
 21
-305.7629381484105
 31
0.0
  0
LINE
  5
AC
330
1F
100
AcDbEntity
  8
D-0
  6
Continuous
 62
     7
370
     9
100
AcDbLine
 10
-582.2944652860497
 20
-305.7629381484105
 30
0.0
 11
-583.7942325895165
 21
-305.7629381484105
 31
0.0
  0
LINE
  5
AD
330
1F
100
AcDbEntity
  8
D-0
  6
Continuous
 62
     7
370
     9
100
AcDbLine
 10
-533.0384075467919
 20
-308.4701811141088
 30
0.0
 11
-533.0384075467919
 21
-306.9699012106969
 31
0.0
  0
LINE
  5
AE
330
1F
100
AcDbEntity
  8
D-0
  6
Continuous
 62
     7
370
     9
100
AcDbLine
 10
-533.0384075467919
 20
-306.9699012106969
 30
0.0
 11
-531.5386211698387
 21
-306.9699012106969
 31
0.0
  0
LINE
  5
AF
330
1F
100
AcDbEntity
  8
D-0
  6
Continuous
 62
     7
370
     9
100
AcDbLine
 10
-531.5386211698387
 20
-306.9699012106969
 30
0.0
 11
-531.5386211698387
 21
-308.4701811141088
 31
0.0
  0
LINE
  5
B0
330
1F
100
AcDbEntity
  8
D-0
  6
Continuous
 62
     7
370
     9
100
AcDbLine
 10
-531.5386211698387
 20
-308.4701811141088
 30
0.0
 11
-533.0384075467919
 21
-308.4701811141088
 31
0.0
  0
LINE
  5
B1
330
1F
100
AcDbEntity
  8
D-0
  6
Continuous
 62
     7
370
     9
100
AcDbLine
 10
-468.0705654447411
 20
-306.4397488898351
 30
0.0
 11
-468.0705654447411
 21
-304.9394689864232
 31
0.0
  0
LINE
  5
B2
330
1F
100
AcDbEntity
  8
D-0
  6
Continuous
 62
     7
370
     9
100
AcDbLine
 10
-468.0705654447411
 20
-304.9394689864232
 30
0.0
 11
-466.570779067788
 21
-304.9394689864232
 31
0.0
  0
LINE
  5
B3
330
1F
100
AcDbEntity
  8
D-0
  6
Continuous
 62
     7
370
     9
100
AcDbLine
 10
-466.570779067788
 20
-304.9394689864232
 30
0.0
 11
-466.570779067788
 21
-306.4397488898351
 31
0.0
  0
LINE
  5
B4
330
1F
100
AcDbEntity
  8
D-0
  6
Continuous
 62
     7
370
     9
100
AcDbLine
 10
-466.570779067788
 20
-306.4397488898351
 30
0.0
 11
-468.0705654447411
 21
-306.4397488898351
 31
0.0
  0
LINE
  5
B5
330
1F
100
AcDbEntity
  8
D-0
  6
Continuous
 62
     7
370
     9
100
AcDbLine
 10
-492.4337780301903
 20
-338.923674709232
 30
0.0
 11
-492.4337780301903
 21
-337.4233924216344
 31
0.0
  0
LINE
  5
B6
330
1F
100
AcDbEntity
  8
D-0
  6
Continuous
 62
     7
370
     9
100
AcDbLine
 10
-492.4337780301903
 20
-337.4233924216344
 30
0.0
 11
-490.9334957425926
 21
-337.4233924216344
 31
0.0
  0
LINE
  5
B7
330
1F
100
AcDbEntity
  8
D-0
  6
Continuous
 62
     7
370
     9
100
AcDbLine
 10
-490.9334957425926
 20
-337.4233924216344
 30
0.0
 11
-490.9334957425926
 21
-338.923674709232
 31
0.0
  0
LINE
  5
B8
330
1F
100
AcDbEntity
  8
D-0
  6
Continuous
 62
     7
370
     9
100
AcDbLine
 10
-490.9334957425926
 20
-338.923674709232
 30
0.0
 11
-492.4337780301903
 21
-338.923674709232
 31
0.0
  0
LINE
  5
B9
330
1F
100
AcDbEntity
  8
D-0
  6
Continuous
 62
     7
370
     9
100
AcDbLine
 10
-532.3616039579247
 20
-362.6095591849401
 30
0.0
 11
-532.3616039579247
 21
-361.1092768973424
 31
0.0
  0
LINE
  5
BA
330
1F
100
AcDbEntity
  8
D-0
  6
Continuous
 62
     7
370
     9
100
AcDbLine
 10
-532.3616039579247
 20
-361.1092768973424
 30
0.0
 11
-530.8618175809715
 21
-361.1092768973424
 31
0.0
  0
LINE
  5
BB
330
1F
100
AcDbEntity
  8
D-0
  6
Continuous
 62
     7
370
     9
100
AcDbLine
 10
-530.8618175809715
 20
-361.1092768973424
 30
0.0
 11
-530.8618175809715
 21
-362.6095591849401
 31
0.0
  0
LINE
  5
BC
330
1F
100
AcDbEntity
  8
D-0
  6
Continuous
 62
     7
370
     9
100
AcDbLine
 10
-530.8618175809715
 20
-362.6095591849401
 30
0.0
 11
-532.3616039579247
 21
-362.6095591849401
 31
0.0
  0
LINE
  5
BD
330
1F
100
AcDbEntity
  8
D-0
  6
Continuous
 62
     7
370
     9
100
AcDbLine
 10
-560.1083385770653
 20
-376.8215810126378
 30
0.0
 11
-560.1083385770653
 21
-375.3213082617833
 31
0.0
  0
LINE
  5
BE
330
1F
100
AcDbEntity
  8
D-0
  6
Continuous
 62
     7
370
     9
100
AcDbLine
 10
-560.1083385770653
 20
-375.3213082617833
 30
0.0
 11
-558.6080944364403
 21
-375.3213082617833
 31
0.0
  0
LINE
  5
BF
330
1F
100
AcDbEntity
  8
D-0
  6
Continuous
 62
     7
370
     9
100
AcDbLine
 10
-558.6080944364403
 20
-375.3213082617833
 30
0.0
 11
-558.6080944364403
 21
-376.8215810126378
 31
0.0
  0
LINE
  5
C0
330
1F
100
AcDbEntity
  8
D-0
  6
Continuous
 62
     7
370
     9
100
AcDbLine
 10
-558.6080944364403
 20
-376.8215810126378
 30
0.0
 11
-560.1083385770653
 21
-376.8215810126378
 31
0.0
  0
LINE
  5
C1
330
1F
100
AcDbEntity
  8
D-0
  6
Continuous
 62
     7
370
     9
100
AcDbLine
 10
-585.1478588407372
 20
-347.7212153739049
 30
0.0
 11
-585.1478588407372
 21
-346.2209378546788
 31
0.0
  0
LINE
  5
C2
330
1F
100
AcDbEntity
  8
D-0
  6
Continuous
 62
     7
370
     9
100
AcDbLine
 10
-585.1478588407372
 20
-346.2209378546788
 30
0.0
 11
-583.648072463784
 21
-346.2209378546788
 31
0.0
  0
LINE
  5
C3
330
1F
100
AcDbEntity
  8
D-0
  6
Continuous
 62
     7
370
     9
100
AcDbLine
 10
-583.648072463784
 20
-346.2209378546788
 30
0.0
 11
-583.648072463784
 21
-347.7212153739049
 31
0.0
  0
LINE
  5
C4
330
1F
100
AcDbEntity
  8
D-0
  6
Continuous
 62
     7
370
     9
100
AcDbLine
 10
-583.648072463784
 20
-347.7212153739049
 30
0.0
 11
-585.1478588407372
 21
-347.7212153739049
 31
0.0
  0
LINE
  5
C5
330
1F
100
AcDbEntity
  8
D-0
  6
Continuous
 62
     7
370
     9
100
AcDbLine
 10
-564.8455440824364
 20
-412.0122586554601
 30
0.0
 11
-564.8455440824364
 21
-410.5119763678624
 31
0.0
  0
LINE
  5
C6
330
1F
100
AcDbEntity
  8
D-0
  6
Continuous
 62
     7
370
     9
100
AcDbLine
 10
-564.8455440824364
 20
-410.5119763678624
 30
0.0
 11
-563.3457577054833
 21
-410.5119763678624
 31
0.0
  0
LINE
  5
C7
330
1F
100
AcDbEntity
  8
D-0
  6
Continuous
 62
     7
370
     9
100
AcDbLine
 10
-563.3457577054833
 20
-410.5119763678624
 30
0.0
 11
-563.3457577054833
 21
-412.0122586554601
 31
0.0
  0
LINE
  5
C8
330
1F
100
AcDbEntity
  8
D-0
  6
Continuous
 62
     7
370
     9
100
AcDbLine
 10
-563.3457577054833
 20
-412.0122586554601
 30
0.0
 11
-564.8455440824364
 21
-412.0122586554601
 31
0.0
  0
LINE
  5
C9
330
1F
100
AcDbEntity
  8
D-0
  6
Continuous
 62
     7
370
     9
100
AcDbLine
 10
-507.3221218412255
 20
-410.6586324042394
 30
0.0
 11
-507.3221218412255
 21
-409.1583501166417
 31
0.0
  0
LINE
  5
CA
330
1F
100
AcDbEntity
  8
D-0
  6
Continuous
 62
     7
370
     9
100
AcDbLine
 10
-507.3221218412255
 20
-409.1583501166417
 30
0.0
 11
-505.8218395536278
 21
-409.1583501166417
 31
0.0
  0
LINE
  5
CB
330
1F
100
AcDbEntity
  8
D-0
  6
Continuous
 62
     7
370
     9
100
AcDbLine
 10
-505.8218395536278
 20
-409.1583501166417
 30
0.0
 11
-505.8218395536278
 21
-410.6586324042394
 31
0.0
  0
LINE
  5
CC
330
1F
100
AcDbEntity
  8
D-0
  6
Continuous
 62
     7
370
     9
100
AcDbLine
 10
-505.8218395536278
 20
-410.6586324042394
 30
0.0
 11
-507.3221218412255
 21
-410.6586324042394
 31
0.0
  0
LINE
  5
CD
330
1F
100
AcDbEntity
  8
D-0
  6
Continuous
 62
     7
370
     9
100
AcDbLine
 10
-457.9193889921044
 20
-409.981819278629
 30
0.0
 11
-457.9193889921044
 21
-408.4815465277745
 31
0.0
  0
LINE
  5
CE
330
1F
100
AcDbEntity
  8
D-0
  6
Continuous
 62
     7
370
     9
100
AcDbLine
 10
-457.9193889921044
 20
-408.4815465277745
 30
0.0
 11
-456.4196407621239
 21
-408.4815465277745
 31
0.0
  0
LINE
  5
CF
330
1F
100
AcDbEntity
  8
D-0
  6
Continuous
 62
     7
370
     9
100
AcDbLine
 10
-456.4196407621239
 20
-408.4815465277745
 30
0.0
 11
-456.4196407621239
 21
-409.981819278629
 31
0.0
  0
LINE
  5
D0
330
1F
100
AcDbEntity
  8
D-0
  6
Continuous
 62
     7
370
     9
100
AcDbLine
 10
-456.4196407621239
 20
-409.981819278629
 30
0.0
 11
-457.9193889921044
 21
-409.981819278629
 31
0.0
  0
LINE
  5
D1
330
1F
100
AcDbEntity
  8
D-0
  6
Continuous
 62
     7
370
     9
100
AcDbLine
 10
-470.1010143583153
 20
-370.0539742774083
 30
0.0
 11
-470.1010143583153
 21
-368.5537015265538
 31
0.0
  0
LINE
  5
D2
330
1F
100
AcDbEntity
  8
D-0
  6
Continuous
 62
     7
370
     9
100
AcDbLine
 10
-470.1010143583153
 20
-368.5537015265538
 30
0.0
 11
-468.6012279813622
 21
-368.5537015265538
 31
0.0
  0
LINE
  5
D3
330
1F
100
AcDbEntity
  8
D-0
  6
Continuous
 62
     7
370
     9
100
AcDbLine
 10
-468.6012279813622
 20
-368.5537015265538
 30
0.0
 11
-468.6012279813622
 21
-370.0539742774083
 31
0.0
  0
LINE
  5
D4
330
1F
100
AcDbEntity
  8
D-0
  6
Continuous
 62
     7
370
     9
100
AcDbLine
 10
-468.6012279813622
 20
-370.0539742774083
 30
0.0
 11
-470.1010143583153
 21
-370.0539742774083
 31
0.0
  0
LINE
  5
D5
330
1F
100
AcDbEntity
  8
D-0
  6
Continuous
 62
     7
370
     9
100
AcDbLine
 10
-997.0072758024071
 20
-517.9231702155187
 30
0.0
 11
-997.0072758024071
 21
-516.422887927921
 31
0.0
  0
LINE
  5
D6
330
1F
100
AcDbEntity
  8
D-0
  6
Continuous
 62
     7
370
     9
100
AcDbLine
 10
-997.0072758024071
 20
-516.422887927921
 30
0.0
 11
-995.5072414701317
 21
-516.422887927921
 31
0.0
  0
LINE
  5
D7
330
1F
100
AcDbEntity
  8
D-0
  6
Continuous
 62
     7
370
     9
100
AcDbLine
 10
-995.5072414701317
 20
-516.422887927921
 30
0.0
 11
-995.5072414701317
 21
-517.9231702155187
 31
0.0
  0
LINE
  5
D8
330
1F
100
AcDbEntity
  8
D-0
  6
Continuous
 62
     7
370
     9
100
AcDbLine
 10
-995.5072414701317
 20
-517.9231702155187
 30
0.0
 11
-997.0072758024071
 21
-517.9231702155187
 31
0.0
  0
LINE
  5
D9
330
1F
100
AcDbEntity
  8
D-0
  6
Continuous
 62
     7
370
     9
100
AcDbLine
 10
-895.3643297975395
 20
-635.959192401798
 30
0.0
 11
-895.3643297975395
 21
-634.4589101142003
 31
0.0
  0
LINE
  5
DA
330
1F
100
AcDbEntity
  8
D-0
  6
Continuous
 62
     7
370
     9
100
AcDbLine
 10
-895.3643297975395
 20
-634.4589101142003
 30
0.0
 11
-893.8645458047722
 21
-634.4589101142003
 31
0.0
  0
LINE
  5
DB
330
1F
100
AcDbEntity
  8
D-0
  6
Continuous
 62
     7
370
     9
100
AcDbLine
 10
-893.8645458047722
 20
-634.4589101142003
 30
0.0
 11
-893.8645458047722
 21
-635.959192401798
 31
0.0
  0
LINE
  5
DC
330
1F
100
AcDbEntity
  8
D-0
  6
Continuous
 62
     7
370
     9
100
AcDbLine
 10
-893.8645458047722
 20
-635.959192401798
 30
0.0
 11
-895.3643297975395
 21
-635.959192401798
 31
0.0
  0
LINE
  5
DD
330
1F
100
AcDbEntity
  8
D-0
  6
Continuous
 62
     7
370
     9
100
AcDbLine
 10
-989.758559448037
 20
-627.0546208685948
 30
0.0
 11
-989.758559448037
 21
-625.5543385809972
 31
0.0
  0
LINE
  5
DE
330
1F
100
AcDbEntity
  8
D-0
  6
Continuous
 62
     7
370
     9
100
AcDbLine
 10
-989.758559448037
 20
-625.5543385809972
 30
0.0
 11
-988.2585346525047
 21
-625.5543385809972
 31
0.0
  0
LINE
  5
DF
330
1F
100
AcDbEntity
  8
D-0
  6
Continuous
 62
     7
370
     9
100
AcDbLine
 10
-988.2585346525047
 20
-625.5543385809972
 30
0.0
 11
-988.2585346525047
 21
-627.0546208685948
 31
0.0
  0
LINE
  5
E0
330
1F
100
AcDbEntity
  8
D-0
  6
Continuous
 62
     7
370
     9
100
AcDbLine
 10
-988.2585346525047
 20
-627.0546208685948
 30
0.0
 11
-989.758559448037
 21
-627.0546208685948
 31
0.0
  0
LINE
  5
E1
330
1F
100
AcDbEntity
  8
D-0
  6
Continuous
 62
     7
370
     9
100
AcDbLine
 10
-893.7872528856133
 20
-663.9937840766027
 30
0.0
 11
-893.7872528856133
 21
-662.493501789005
 31
0.0
  0
LINE
  5
E2
330
1F
100
AcDbEntity
  8
D-0
  6
Continuous
 62
     7
370
     9
100
AcDbLine
 10
-893.7872528856133
 20
-662.493501789005
 30
0.0
 11
-892.2874688928459
 21
-662.493501789005
 31
0.0
  0
LINE
  5
E3
330
1F
100
AcDbEntity
  8
D-0
  6
Continuous
 62
     7
370
     9
100
AcDbLine
 10
-892.2874688928459
 20
-662.493501789005
 30
0.0
 11
-892.2874688928459
 21
-663.9937840766027
 31
0.0
  0
LINE
  5
E4
330
1F
100
AcDbEntity
  8
D-0
  6
Continuous
 62
     7
370
     9
100
AcDbLine
 10
-892.2874688928459
 20
-663.9937840766027
 30
0.0
 11
-893.7872528856133
 21
-663.9937840766027
 31
0.0
  0
LINE
  5
E5
330
1F
100
AcDbEntity
  8
D-0
  6
Continuous
 62
     7
370
     9
100
AcDbLine
 10
-982.1028244321678
 20
-666.2779103583409
 30
0.0
 11
-982.1028244321678
 21
-664.7776280707433
 31
0.0
  0
LINE
  5
E6
330
1F
100
AcDbEntity
  8
D-0
  6
Continuous
 62
     7
370
     9
100
AcDbLine
 10
-982.1028244321678
 20
-664.7776280707433
 30
0.0
 11
-980.6027996366356
 21
-664.7776280707433
 31
0.0
  0
LINE
  5
E7
330
1F
100
AcDbEntity
  8
D-0
  6
Continuous
 62
     7
370
     9
100
AcDbLine
 10
-980.6027996366356
 20
-664.7776280707433
 30
0.0
 11
-980.6027996366356
 21
-666.2779103583409
 31
0.0
  0
LINE
  5
E8
330
1F
100
AcDbEntity
  8
D-0
  6
Continuous
 62
     7
370
     9
100
AcDbLine
 10
-980.6027996366356
 20
-666.2779103583409
 30
0.0
 11
-982.1028244321678
 21
-666.2779103583409
 31
0.0
  0
LINE
  5
E9
330
1F
100
AcDbEntity
  8
D-0
  6
Continuous
 62
     7
370
     9
100
AcDbLine
 10
-937.9451620405052
 20
-669.3230687445714
 30
0.0
 11
-937.9451620405052
 21
-667.8227864569737
 31
0.0
  0
LINE
  5
EA
330
1F
100
AcDbEntity
  8
D-0
  6
Continuous
 62
     7
370
     9
100
AcDbLine
 10
-937.9451620405052
 20
-667.8227864569737
 30
0.0
 11
-936.4451324766014
 21
-667.8227864569737
 31
0.0
  0
LINE
  5
EB
330
1F
100
AcDbEntity
  8
D-0
  6
Continuous
 62
     7
370
     9
100
AcDbLine
 10
-936.4451324766014
 20
-667.8227864569737
 30
0.0
 11
-936.4451324766014
 21
-669.3230687445714
 31
0.0
  0
LINE
  5
EC
330
1F
100
AcDbEntity
  8
D-0
  6
Continuous
 62
     7
370
     9
100
AcDbLine
 10
-936.4451324766014
 20
-669.3230687445714
 30
0.0
 11
-937.9451620405052
 21
-669.3230687445714
 31
0.0
  0
LINE
  5
ED
330
1F
100
AcDbEntity
  8
D-0
  6
Continuous
 62
     7
370
     9
100
AcDbLine
 10
-983.719044906411
 20
-746.2510167426183
 30
0.0
 11
-983.719044906411
 21
-744.7507344550206
 31
0.0
  0
LINE
  5
EE
330
1F
100
AcDbEntity
  8
D-0
  6
Continuous
 62
     7
370
     9
100
AcDbLine
 10
-983.719044906411
 20
-744.7507344550206
 30
0.0
 11
-982.2190105741356
 21
-744.7507344550206
 31
0.0
  0
LINE
  5
EF
330
1F
100
AcDbEntity
  8
D-0
  6
Continuous
 62
     7
370
     9
100
AcDbLine
 10
-982.2190105741356
 20
-744.7507344550206
 30
0.0
 11
-982.2190105741356
 21
-746.2510167426183
 31
0.0
  0
LINE
  5
F0
330
1F
100
AcDbEntity
  8
D-0
  6
Continuous
 62
     7
370
     9
100
AcDbLine
 10
-982.2190105741356
 20
-746.2510167426183
 30
0.0
 11
-983.719044906411
 21
-746.2510167426183
 31
0.0
  0
LINE
  5
F1
330
1F
100
AcDbEntity
  8
D-0
  6
Continuous
 62
     7
370
     9
100
AcDbLine
 10
-931.948009712014
 20
-742.4438344306066
 30
0.0
 11
-931.948009712014
 21
-740.9435521430089
 31
0.0
  0
LINE
  5
F2
330
1F
100
AcDbEntity
  8
D-0
  6
Continuous
 62
     7
370
     9
100
AcDbLine
 10
-931.948009712014
 20
-740.9435521430089
 30
0.0
 11
-930.4479801481102
 21
-740.9435521430089
 31
0.0
  0
LINE
  5
F3
330
1F
100
AcDbEntity
  8
D-0
  6
Continuous
 62
     7
370
     9
100
AcDbLine
 10
-930.4479801481102
 20
-740.9435521430089
 30
0.0
 11
-930.4479801481102
 21
-742.4438344306066
 31
0.0
  0
LINE
  5
F4
330
1F
100
AcDbEntity
  8
D-0
  6
Continuous
 62
     7
370
     9
100
AcDbLine
 10
-930.4479801481102
 20
-742.4438344306066
 30
0.0
 11
-931.948009712014
 21
-742.4438344306066
 31
0.0
  0
LINE
  5
F5
330
1F
100
AcDbEntity
  8
D-0
  6
Continuous
 62
     7
370
     9
100
AcDbLine
 10
-882.0803162281845
 20
-744.3474446600987
 30
0.0
 11
-882.0803162281845
 21
-742.8471623725011
 31
0.0
  0
LINE
  5
F6
330
1F
100
AcDbEntity
  8
D-0
  6
Continuous
 62
     7
370
     9
100
AcDbLine
 10
-882.0803162281845
 20
-742.8471623725011
 30
0.0
 11
-880.5800366227959
 21
-742.8471623725011
 31
0.0
  0
LINE
  5
F7
330
1F
100
AcDbEntity
  8
D-0
  6
Continuous
 62
     7
370
     9
100
AcDbLine
 10
-880.5800366227959
 20
-742.8471623725011
 30
0.0
 11
-880.5800366227959
 21
-744.3474446600987
 31
0.0
  0
LINE
  5
F8
330
1F
100
AcDbEntity
  8
D-0
  6
Continuous
 62
     7
370
     9
100
AcDbLine
 10
-880.5800366227959
 20
-744.3474446600987
 30
0.0
 11
-882.0803162281845
 21
-744.3474446600987
 31
0.0
  0
LINE
  5
F9
330
1F
100
AcDbEntity
  8
D-0
  6
Continuous
 62
     7
370
     9
100
AcDbLine
 10
-898.2648038690422
 20
-774.7974644965245
 30
0.0
 11
-898.2648038690422
 21
-773.2971822089269
 31
0.0
  0
LINE
  5
FA
330
1F
100
AcDbEntity
  8
D-0
  6
Continuous
 62
     7
370
     9
100
AcDbLine
 10
-898.2648038690422
 20
-773.2971822089269
 30
0.0
 11
-896.7650198762749
 21
-773.2971822089269
 31
0.0
  0
LINE
  5
FB
330
1F
100
AcDbEntity
  8
D-0
  6
Continuous
 62
     7
370
     9
100
AcDbLine
 10
-896.7650198762749
 20
-773.2971822089269
 30
0.0
 11
-896.7650198762749
 21
-774.7974644965245
 31
0.0
  0
LINE
  5
FC
330
1F
100
AcDbEntity
  8
D-0
  6
Continuous
 62
     7
370
     9
100
AcDbLine
 10
-896.7650198762749
 20
-774.7974644965245
 30
0.0
 11
-898.2648038690422
 21
-774.7974644965245
 31
0.0
  0
LINE
  5
FD
330
1F
100
AcDbEntity
  8
D-0
  6
Continuous
 62
     7
370
     9
100
AcDbLine
 10
-947.1747553174828
 20
-782.0337926215245
 30
0.0
 11
-947.1747553174828
 21
-780.5335103339269
 31
0.0
  0
LINE
  5
FE
330
1F
100
AcDbEntity
  8
D-0
  6
Continuous
 62
     7
370
     9
100
AcDbLine
 10
-947.1747553174828
 20
-780.5335103339269
 30
0.0
 11
-945.674725753579
 21
-780.5335103339269
 31
0.0
  0
LINE
  5
FF
330
1F
100
AcDbEntity
  8
D-0
  6
Continuous
 62
     7
370
     9
100
AcDbLine
 10
-945.674725753579
 20
-780.5335103339269
 30
0.0
 11
-945.674725753579
 21
-782.0337926215245
 31
0.0
  0
LINE
  5
100
330
1F
100
AcDbEntity
  8
D-0
  6
Continuous
 62
     7
370
     9
100
AcDbLine
 10
-945.674725753579
 20
-782.0337926215245
 30
0.0
 11
-947.1747553174828
 21
-782.0337926215245
 31
0.0
  0
LINE
  5
101
330
1F
100
AcDbEntity
  8
D-0
  6
Continuous
 62
     7
370
     9
100
AcDbLine
 10
-994.377814513955
 20
-779.7496663397862
 30
0.0
 11
-994.377814513955
 21
-778.2493840521886
 31
0.0
  0
LINE
  5
102
330
1F
100
AcDbEntity
  8
D-0
  6
Continuous
 62
     7
370
     9
100
AcDbLine
 10
-994.377814513955
 20
-778.2493840521886
 30
0.0
 11
-992.8777897184227
 21
-778.2493840521886
 31
0.0
  0
LINE
  5
103
330
1F
100
AcDbEntity
  8
D-0
  6
Continuous
 62
     7
370
     9
100
AcDbLine
 10
-992.8777897184227
 20
-778.2493840521886
 30
0.0
 11
-992.8777897184227
 21
-779.7496663397862
 31
0.0
  0
LINE
  5
104
330
1F
100
AcDbEntity
  8
D-0
  6
Continuous
 62
     7
370
     9
100
AcDbLine
 10
-992.8777897184227
 20
-779.7496663397862
 30
0.0
 11
-994.377814513955
 21
-779.7496663397862
 31
0.0
  0
LINE
  5
105
330
1F
100
AcDbEntity
  8
D-0
  6
Continuous
 62
     7
370
     9
100
AcDbLine
 10
-842.9645407026146
 20
-341.5516387290074
 30
0.0
 11
-842.9645407026146
 21
-340.0513612097814
 31
0.0
  0
LINE
  5
106
330
1F
100
AcDbEntity
  8
D-0
  6
Continuous
 62
     7
370
     9
100
AcDbLine
 10
-842.9645407026146
 20
-340.0513612097814
 30
0.0
 11
-841.4647590940331
 21
-340.0513612097814
 31
0.0
  0
LINE
  5
107
330
1F
100
AcDbEntity
  8
D-0
  6
Continuous
 62
     7
370
     9
100
AcDbLine
 10
-841.4647590940331
 20
-340.0513612097814
 30
0.0
 11
-841.4647590940331
 21
-341.5516387290074
 31
0.0
  0
LINE
  5
108
330
1F
100
AcDbEntity
  8
D-0
  6
Continuous
 62
     7
370
     9
100
AcDbLine
 10
-841.4647590940331
 20
-341.5516387290074
 30
0.0
 11
-842.9645407026146
 21
-341.5516387290074
 31
0.0
  0
LINE
  5
109
330
1F
100
AcDbEntity
  8
D-0
  6
Continuous
 62
     7
370
     9
100
AcDbLine
 10
-779.374095184121
 20
-338.8498460120275
 30
0.0
 11
-779.374095184121
 21
-337.3495684928014
 31
0.0
  0
LINE
  5
10A
330
1F
100
AcDbEntity
  8
D-0
  6
Continuous
 62
     7
370
     9
100
AcDbLine
 10
-779.374095184121
 20
-337.3495684928014
 30
0.0
 11
-777.8738224332665
 21
-337.3495684928014
 31
0.0
  0
LINE
  5
10B
330
1F
100
AcDbEntity
  8
D-0
  6
Continuous
 62
     7
370
     9
100
AcDbLine
 10
-777.8738224332665
 20
-337.3495684928014
 30
0.0
 11
-777.8738224332665
 21
-338.8498460120275
 31
0.0
  0
LINE
  5
10C
330
1F
100
AcDbEntity
  8
D-0
  6
Continuous
 62
     7
370
     9
100
AcDbLine
 10
-777.8738224332665
 20
-338.8498460120275
 30
0.0
 11
-779.374095184121
 21
-338.8498460120275
 31
0.0
  0
LINE
  5
10D
330
1F
100
AcDbEntity
  8
D-0
  6
Continuous
 62
     7
370
     9
100
AcDbLine
 10
-805.0398742978905
 20
-371.3506184882237
 30
0.0
 11
-805.0398742978905
 21
-369.8503362006261
 31
0.0
  0
LINE
  5
10E
330
1F
100
AcDbEntity
  8
D-0
  6
Continuous
 62
     7
370
     9
100
AcDbLine
 10
-805.0398742978905
 20
-369.8503362006261
 30
0.0
 11
-803.5400879209374
 21
-369.8503362006261
 31
0.0
  0
LINE
  5
10F
330
1F
100
AcDbEntity
  8
D-0
  6
Continuous
 62
     7
370
     9
100
AcDbLine
 10
-803.5400879209374
 20
-369.8503362006261
 30
0.0
 11
-803.5400879209374
 21
-371.3506184882237
 31
0.0
  0
LINE
  5
110
330
1F
100
AcDbEntity
  8
D-0
  6
Continuous
 62
     7
370
     9
100
AcDbLine
 10
-803.5400879209374
 20
-371.3506184882237
 30
0.0
 11
-805.0398742978905
 21
-371.3506184882237
 31
0.0
  0
LINE
  5
111
330
1F
100
AcDbEntity
  8
D-0
  6
Continuous
 62
     7
370
     9
100
AcDbLine
 10
-808.4739696805809
 20
-413.968864566715
 30
0.0
 11
-808.4739696805809
 21
-412.4685822791173
 31
0.0
  0
LINE
  5
112
330
1F
100
AcDbEntity
  8
D-0
  6
Continuous
 62
     7
370
     9
100
AcDbLine
 10
-808.4739696805809
 20
-412.4685822791173
 30
0.0
 11
-806.9741880719994
 21
-412.4685822791173
 31
0.0
  0
LINE
  5
113
330
1F
100
AcDbEntity
  8
D-0
  6
Continuous
 62
     7
370
     9
100
AcDbLine
 10
-806.9741880719994
 20
-412.4685822791173
 30
0.0
 11
-806.9741880719994
 21
-413.968864566715
 31
0.0
  0
LINE
  5
114
330
1F
100
AcDbEntity
  8
D-0
  6
Continuous
 62
     7
370
     9
100
AcDbLine
 10
-806.9741880719994
 20
-413.968864566715
 30
0.0
 11
-808.4739696805809
 21
-413.968864566715
 31
0.0
  0
LINE
  5
115
330
1F
100
AcDbEntity
  8
D-0
  6
Continuous
 62
     7
370
     9
100
AcDbLine
 10
-753.6577808683251
 20
-399.0800248450353
 30
0.0
 11
-753.6577808683251
 21
-397.5797425574376
 31
0.0
  0
LINE
  5
116
330
1F
100
AcDbEntity
  8
D-0
  6
Continuous
 62
     7
370
     9
100
AcDbLine
 10
-753.6577808683251
 20
-397.5797425574376
 30
0.0
 11
-752.1574985807274
 21
-397.5797425574376
 31
0.0
  0
LINE
  5
117
330
1F
100
AcDbEntity
  8
D-0
  6
Continuous
 62
     7
370
     9
100
AcDbLine
 10
-752.1574985807274
 20
-397.5797425574376
 30
0.0
 11
-752.1574985807274
 21
-399.0800248450353
 31
0.0
  0
LINE
  5
118
330
1F
100
AcDbEntity
  8
D-0
  6
Continuous
 62
     7
370
     9
100
AcDbLine
 10
-752.1574985807274
 20
-399.0800248450353
 30
0.0
 11
-753.6577808683251
 21
-399.0800248450353
 31
0.0
  0
LINE
  5
119
330
1F
100
AcDbEntity
  8
D-0
  6
Continuous
 62
     7
370
     9
100
AcDbLine
 10
-712.3758137052391
 20
-410.5848084754064
 30
0.0
 11
-712.3758137052391
 21
-409.0845261878087
 31
0.0
  0
LINE
  5
11A
330
1F
100
AcDbEntity
  8
D-0
  6
Continuous
 62
     7
370
     9
100
AcDbLine
 10
-712.3758137052391
 20
-409.0845261878087
 30
0.0
 11
-710.876027328286
 21
-409.0845261878087
 31
0.0
  0
LINE
  5
11B
330
1F
100
AcDbEntity
  8
D-0
  6
Continuous
 62
     7
370
     9
100
AcDbLine
 10
-710.876027328286
 20
-409.0845261878087
 30
0.0
 11
-710.876027328286
 21
-410.5848084754064
 31
0.0
  0
LINE
  5
11C
330
1F
100
AcDbEntity
  8
D-0
  6
Continuous
 62
     7
370
     9
100
AcDbLine
 10
-710.876027328286
 20
-410.5848084754064
 30
0.0
 11
-712.3758137052391
 21
-410.5848084754064
 31
0.0
  0
LINE
  5
11D
330
1F
100
AcDbEntity
  8
D-0
  6
Continuous
 62
     7
370
     9
100
AcDbLine
 10
-711.2897503202294
 20
-445.9880315131261
 30
0.0
 11
-711.2897503202294
 21
-444.4877492255284
 31
0.0
  0
LINE
  5
11E
330
1F
100
AcDbEntity
  8
D-0
  6
Continuous
 62
     7
370
     9
100
AcDbLine
 10
-711.2897503202294
 20
-444.4877492255284
 30
0.0
 11
-709.7894680326317
 21
-444.4877492255284
 31
0.0
  0
LINE
  5
11F
330
1F
100
AcDbEntity
  8
D-0
  6
Continuous
 62
     7
370
     9
100
AcDbLine
 10
-709.7894680326317
 20
-444.4877492255284
 30
0.0
 11
-709.7894680326317
 21
-445.9880315131261
 31
0.0
  0
LINE
  5
120
330
1F
100
AcDbEntity
  8
D-0
  6
Continuous
 62
     7
370
     9
100
AcDbLine
 10
-709.7894680326317
 20
-445.9880315131261
 30
0.0
 11
-711.2897503202294
 21
-445.9880315131261
 31
0.0
  0
LINE
  5
121
330
1F
100
AcDbEntity
  8
D-0
  6
Continuous
 62
     7
370
     9
100
AcDbLine
 10
-824.9408733671044
 20
-301.2407957381322
 30
0.0
 11
-824.9408733671044
 21
-299.7405158347203
 31
0.0
  0
LINE
  5
122
330
1F
100
AcDbEntity
  8
D-0
  6
Continuous
 62
     7
370
     9
100
AcDbLine
 10
-824.9408733671044
 20
-299.7405158347203
 30
0.0
 11
-823.4405958478783
 21
-299.7405158347203
 31
0.0
  0
LINE
  5
123
330
1F
100
AcDbEntity
  8
D-0
  6
Continuous
 62
     7
370
     9
100
AcDbLine
 10
-823.4405958478783
 20
-299.7405158347203
 30
0.0
 11
-823.4405958478783
 21
-301.2407957381322
 31
0.0
  0
LINE
  5
124
330
1F
100
AcDbEntity
  8
D-0
  6
Continuous
 62
     7
370
     9
100
AcDbLine
 10
-823.4405958478783
 20
-301.2407957381322
 30
0.0
 11
-824.9408733671044
 21
-301.2407957381322
 31
0.0
  0
LINE
  5
125
330
1F
100
AcDbEntity
  8
D-0
  6
Continuous
 62
     7
370
     9
100
AcDbLine
 10
-746.6107284849022
 20
-309.3436919516637
 30
0.0
 11
-746.6107284849022
 21
-307.8434120482518
 31
0.0
  0
LINE
  5
126
330
1F
100
AcDbEntity
  8
D-0
  6
Continuous
 62
     7
370
     9
100
AcDbLine
 10
-746.6107284849022
 20
-307.8434120482518
 30
0.0
 11
-745.1104461973046
 21
-307.8434120482518
 31
0.0
  0
LINE
  5
127
330
1F
100
AcDbEntity
  8
D-0
  6
Continuous
 62
     7
370
     9
100
AcDbLine
 10
-745.1104461973046
 20
-307.8434120482518
 30
0.0
 11
-745.1104461973046
 21
-309.3436919516637
 31
0.0
  0
LINE
  5
128
330
1F
100
AcDbEntity
  8
D-0
  6
Continuous
 62
     7
370
     9
100
AcDbLine
 10
-745.1104461973046
 20
-309.3436919516637
 30
0.0
 11
-746.6107284849022
 21
-309.3436919516637
 31
0.0
  0
LINE
  5
129
330
1F
100
AcDbEntity
  8
D-0
  6
Continuous
 62
     7
370
     9
100
AcDbLine
 10
-693.9404117887352
 20
-305.292242652805
 30
0.0
 11
-693.9404117887352
 21
-303.791965133579
 31
0.0
  0
LINE
  5
12A
330
1F
100
AcDbEntity
  8
D-0
  6
Continuous
 62
     7
370
     9
100
AcDbLine
 10
-693.9404117887352
 20
-303.791965133579
 30
0.0
 11
-692.4401295011376
 21
-303.791965133579
 31
0.0
  0
LINE
  5
12B
330
1F
100
AcDbEntity
  8
D-0
  6
Continuous
 62
     7
370
     9
100
AcDbLine
 10
-692.4401295011376
 20
-303.791965133579
 30
0.0
 11
-692.4401295011376
 21
-305.292242652805
 31
0.0
  0
LINE
  5
12C
330
1F
100
AcDbEntity
  8
D-0
  6
Continuous
 62
     7
370
     9
100
AcDbLine
 10
-692.4401295011376
 20
-305.292242652805
 30
0.0
 11
-693.9404117887352
 21
-305.292242652805
 31
0.0
  0
LINE
  5
12D
330
1F
100
AcDbEntity
  8
D-0
  6
Continuous
 62
     7
370
     9
100
AcDbLine
 10
-835.7450687711571
 20
-437.6433526343419
 30
0.0
 11
-835.7450687711571
 21
-436.1430703467443
 31
0.0
  0
LINE
  5
12E
330
1F
100
AcDbEntity
  8
D-0
  6
Continuous
 62
     7
370
     9
100
AcDbLine
 10
-835.7450687711571
 20
-436.1430703467443
 30
0.0
 11
-834.2447864835594
 21
-436.1430703467443
 31
0.0
  0
LINE
  5
12F
330
1F
100
AcDbEntity
  8
D-0
  6
Continuous
 62
     7
370
     9
100
AcDbLine
 10
-834.2447864835594
 20
-436.1430703467443
 30
0.0
 11
-834.2447864835594
 21
-437.6433526343419
 31
0.0
  0
LINE
  5
130
330
1F
100
AcDbEntity
  8
D-0
  6
Continuous
 62
     7
370
     9
100
AcDbLine
 10
-834.2447864835594
 20
-437.6433526343419
 30
0.0
 11
-835.7450687711571
 21
-437.6433526343419
 31
0.0
  0
LINE
  5
131
330
1F
100
AcDbEntity
  8
D-0
  6
Continuous
 62
     7
370
     9
100
AcDbLine
 10
-707.6956188505028
 20
-644.6962987250402
 30
0.0
 11
-707.6956188505028
 21
-643.1960164374425
 31
0.0
  0
LINE
  5
132
330
1F
100
AcDbEntity
  8
D-0
  6
Continuous
 62
     7
370
     9
100
AcDbLine
 10
-707.6956188505028
 20
-643.1960164374425
 30
0.0
 11
-706.1958324735497
 21
-643.1960164374425
 31
0.0
  0
LINE
  5
133
330
1F
100
AcDbEntity
  8
D-0
  6
Continuous
 62
     7
370
     9
100
AcDbLine
 10
-706.1958324735497
 20
-643.1960164374425
 30
0.0
 11
-706.1958324735497
 21
-644.6962987250402
 31
0.0
  0
LINE
  5
134
330
1F
100
AcDbEntity
  8
D-0
  6
Continuous
 62
     7
370
     9
100
AcDbLine
 10
-706.1958324735497
 20
-644.6962987250402
 30
0.0
 11
-707.6956188505028
 21
-644.6962987250402
 31
0.0
  0
LINE
  5
135
330
1F
100
AcDbEntity
  8
D-0
  6
Continuous
 62
     7
370
     9
100
AcDbLine
 10
-627.2894680326317
 20
-648.6570607489659
 30
0.0
 11
-627.2894680326317
 21
-647.1567784613683
 31
0.0
  0
LINE
  5
136
330
1F
100
AcDbEntity
  8
D-0
  6
Continuous
 62
     7
370
     9
100
AcDbLine
 10
-627.2894680326317
 20
-647.1567784613683
 30
0.0
 11
-625.789185745034
 21
-647.1567784613683
 31
0.0
  0
LINE
  5
137
330
1F
100
AcDbEntity
  8
D-0
  6
Continuous
 62
     7
370
     9
100
AcDbLine
 10
-625.789185745034
 20
-647.1567784613683
 30
0.0
 11
-625.789185745034
 21
-648.6570607489659
 31
0.0
  0
LINE
  5
138
330
1F
100
AcDbEntity
  8
D-0
  6
Continuous
 62
     7
370
     9
100
AcDbLine
 10
-625.789185745034
 20
-648.6570607489659
 30
0.0
 11
-627.2894680326317
 21
-648.6570607489659
 31
0.0
  0
LINE
  5
139
330
1F
100
AcDbEntity
  8
D-0
  6
Continuous
 62
     7
370
     9
100
AcDbLine
 10
-674.5794880216454
 20
-624.8651372260167
 30
0.0
 11
-674.5794880216454
 21
-623.3648549384191
 31
0.0
  0
LINE
  5
13A
330
1F
100
AcDbEntity
  8
D-0
  6
Continuous
 62
     7
370
     9
100
AcDbLine
 10
-674.5794880216454
 20
-623.3648549384191
 30
0.0
 11
-673.0797016446922
 21
-623.3648549384191
 31
0.0
  0
LINE
  5
13B
330
1F
100
AcDbEntity
  8
D-0
  6
Continuous
 62
     7
370
     9
100
AcDbLine
 10
-673.0797016446922
 20
-623.3648549384191
 30
0.0
 11
-673.0797016446922
 21
-624.8651372260167
 31
0.0
  0
LINE
  5
13C
330
1F
100
AcDbEntity
  8
D-0
  6
Continuous
 62
     7
370
     9
100
AcDbLine
 10
-673.0797016446922
 20
-624.8651372260167
 30
0.0
 11
-674.5794880216454
 21
-624.8651372260167
 31
0.0
  0
LINE
  5
13D
330
1F
100
AcDbEntity
  8
D-0
  6
Continuous
 62
     7
370
     9
100
AcDbLine
 10
-451.8588268583153
 20
-346.6108714407994
 30
0.0
 11
-451.8588268583153
 21
-345.1105939215734
 31
0.0
  0
LINE
  5
13E
330
1F
100
AcDbEntity
  8
D-0
  6
Continuous
 62
     7
370
     9
100
AcDbLine
 10
-451.8588268583153
 20
-345.1105939215734
 30
0.0
 11
-450.3585445707176
 21
-345.1105939215734
 31
0.0
  0
LINE
  5
13F
330
1F
100
AcDbEntity
  8
D-0
  6
Continuous
 62
     7
370
     9
100
AcDbLine
 10
-450.3585445707176
 20
-345.1105939215734
 30
0.0
 11
-450.3585445707176
 21
-346.6108714407994
 31
0.0
  0
LINE
  5
140
330
1F
100
AcDbEntity
  8
D-0
  6
Continuous
 62
     7
370
     9
100
AcDbLine
 10
-450.3585445707176
 20
-346.6108714407994
 30
0.0
 11
-451.8588268583153
 21
-346.6108714407994
 31
0.0
  0
LINE
  5
141
330
1F
100
AcDbEntity
  8
D-0
  6
Continuous
 62
     7
370
     9
100
AcDbLine
 10
-680.6811725919579
 20
-465.5986844367101
 30
0.0
 11
-680.6811725919579
 21
-464.0984021491124
 31
0.0
  0
LINE
  5
142
330
1F
100
AcDbEntity
  8
D-0
  6
Continuous
 62
     7
370
     9
100
AcDbLine
 10
-680.6811725919579
 20
-464.0984021491124
 30
0.0
 11
-679.1813862150047
 21
-464.0984021491124
 31
0.0
  0
LINE
  5
143
330
1F
100
AcDbEntity
  8
D-0
  6
Continuous
 62
     7
370
     9
100
AcDbLine
 10
-679.1813862150047
 20
-464.0984021491124
 30
0.0
 11
-679.1813862150047
 21
-465.5986844367101
 31
0.0
  0
LINE
  5
144
330
1F
100
AcDbEntity
  8
D-0
  6
Continuous
 62
     7
370
     9
100
AcDbLine
 10
-679.1813862150047
 20
-465.5986844367101
 30
0.0
 11
-680.6811725919579
 21
-465.5986844367101
 31
0.0
  0
ARC
  5
145
330
1F
100
AcDbEntity
  8
D-1
  6
Continuous
 62
     2
370
     9
100
AcDbCircle
 10
-875.6397175615166
 20
-473.5777150458409
 30
0.0
 40
15.0
100
AcDbArc
 50
270.0
 51
0.0
  0
LWPOLYLINE
  5
146
330
1F
100
AcDbEntity
  8
D-4
  6
Continuous
 62
     7
370
     9
100
AcDbPolyline
 90
        4
 70
     1
 43
2.0
 10
-859.6394016568993
 20
-724.1957341498448
 42
0.4142135623731
 10
-860.6394016568993
 20
-723.1957341498448
 42
0.4142135623731
 10
-861.6394016568993
 20
-724.1957341498448
 42
0.4142135623731
 10
-860.6394016568993
 20
-725.1957341498448
 42
0.4142135623731
  0
LWPOLYLINE
  5
147
330
1F
100
AcDbEntity
  8
D-4
  6
Continuous
 62
     7
370
     9
100
AcDbPolyline
 90
        4
 70
     1
 43
2.0
 10
-1009.638858062539
 20
-724.1957341498448
 42
0.4142135623731
 10
-1010.638858062539
 20
-723.1957341498448
 42
0.4142135623731
 10
-1011.638858062539
 20
-724.1957341498448
 42
0.4142135623731
 10
-1010.638858062539
 20
-725.1957341498448
 42
0.4142135623731
  0
LWPOLYLINE
  5
148
330
1F
100
AcDbEntity
  8
D-4
  6
Continuous
 62
     7
370
     9
100
AcDbPolyline
 90
        4
 70
     1
 43
2.0
 10
-874.6382310216759
 20
-56.40539754095812
 42
0.4142135623731
 10
-875.6382310216759
 20
-55.40539754095812
 42
0.4142135623731
 10
-876.6382310216759
 20
-56.40539754095812
 42
0.4142135623731
 10
-875.6382310216759
 20
-57.40539754095812
 42
0.4142135623731
  0
LWPOLYLINE
  5
149
330
1F
100
AcDbEntity
  8
D-4
  6
Continuous
 62
     7
370
     9
100
AcDbPolyline
 90
        4
 70
     1
 43
2.0
 10
-1009.639353973183
 20
-165.1573239630773
 42
0.4142135623731
 10
-1010.639353973183
 20
-164.1573239630773
 42
0.4142135623731
 10
-1011.639353973183
 20
-165.1573239630773
 42
0.4142135623731
 10
-1010.639353973183
 20
-166.1573239630773
 42
0.4142135623731
  0
LWPOLYLINE
  5
14A
330
1F
100
AcDbEntity
  8
D-4
  6
Continuous
 62
     7
370
     9
100
AcDbPolyline
 90
        4
 70
     1
 43
2.0
 10
-884.6382776468854
 20
-165.1573239630773
 42
0.4142135623731
 10
-885.6382776468854
 20
-164.1573239630773
 42
0.4142135623731
 10
-886.6382776468854
 20
-165.1573239630773
 42
0.4142135623731
 10
-885.6382776468854
 20
-166.1573239630773
 42
0.4142135623731
  0
LWPOLYLINE
  5
14B
330
1F
100
AcDbEntity
  8
D-4
  6
Continuous
 62
     7
370
     9
100
AcDbPolyline
 90
        4
 70
     1
 43
2.0
 10
-884.6382776468854
 20
-56.40539754095812
 42
0.4142135623731
 10
-885.6382776468854
 20
-55.40539754095812
 42
0.4142135623731
 10
-886.6382776468854
 20
-56.40539754095812
 42
0.4142135623731
 10
-885.6382776468854
 20
-57.40539754095812
 42
0.4142135623731
  0
LWPOLYLINE
  5
14C
330
1F
100
AcDbEntity
  8
D-4
  6
Continuous
 62
     7
370
     9
100
AcDbPolyline
 90
        4
 70
     1
 43
2.0
 10
-859.6394016568993
 20
-56.40539754095812
 42
0.4142135623731
 10
-860.6394016568993
 20
-55.40539754095812
 42
0.4142135623731
 10
-861.6394016568993
 20
-56.40539754095812
 42
0.4142135623731
 10
-860.6394016568993
 20
-57.40539754095812
 42
0.4142135623731
  0
LWPOLYLINE
  5
14D
330
1F
100
AcDbEntity
  8
D-4
  6
Continuous
 62
     7
370
     9
100
AcDbPolyline
 90
        4
 70
     1
 43
2.0
 10
-859.6394016568993
 20
54.29025065240126
 42
0.4142135623731
 10
-860.6394016568993
 20
55.29025065240126
 42
0.4142135623731
 10
-861.6394016568993
 20
54.29025065240126
 42
0.4142135623731
 10
-860.6394016568993
 20
53.29025065240126
 42
0.4142135623731
  0
LWPOLYLINE
  5
14E
330
1F
100
AcDbEntity
  8
D-4
  6
Continuous
 62
     7
370
     9
100
AcDbPolyline
 90
        4
 70
     1
 43
2.0
 10
-337.9543926542137
 20
-283.5763426385631
 42
0.4142135623731
 10
-338.9543926542137
 20
-282.5763426385631
 42
0.4142135623731
 10
-339.9543926542137
 20
-283.5763426385631
 42
0.4142135623731
 10
-338.9543926542137
 20
-284.5763426385631
 42
0.4142135623731
  0
LWPOLYLINE
  5
14F
330
1F
100
AcDbEntity
  8
D-4
  6
Continuous
 62
     7
370
     9
100
AcDbPolyline
 90
        4
 70
     1
 43
2.0
 10
-337.9543926542137
 20
-658.5763417548253
 42
0.4142135623731
 10
-338.9543926542137
 20
-657.5763417548253
 42
0.4142135623731
 10
-339.9543926542137
 20
-658.5763417548253
 42
0.4142135623731
 10
-338.9543926542137
 20
-659.5763417548253
 42
0.4142135623731
  0
LWPOLYLINE
  5
150
330
1F
100
AcDbEntity
  8
D-4
  6
Continuous
 62
     7
370
     9
100
AcDbPolyline
 90
        4
 70
     1
 43
2.0
 10
-609.6382381742333
 20
-833.8583241767003
 42
0.4142135623731
 10
-610.6382381742333
 20
-832.8583241767003
 42
0.4142135623731
 10
-611.6382381742333
 20
-833.8583241767003
 42
0.4142135623731
 10
-610.6382381742333
 20
-834.8583241767003
 42
0.4142135623731
  0
LWPOLYLINE
  5
151
330
1F
100
AcDbEntity
  8
D-4
  6
Continuous
 62
     7
370
     9
100
AcDbPolyline
 90
        4
 70
     1
 43
2.0
 10
-1009.638858062539
 20
-833.8583241767003
 42
0.4142135623731
 10
-1010.638858062539
 20
-832.8583241767003
 42
0.4142135623731
 10
-1011.638858062539
 20
-833.8583241767003
 42
0.4142135623731
 10
-1010.638858062539
 20
-834.8583241767003
 42
0.4142135623731
  0
TEXT
  5
152
330
1F
100
AcDbEntity
  8
D-4
  6
Continuous
 62
     2
370
     9
100
AcDbText
 10
-969.3886005704735
 20
-154.5170569342687
 30
0.0
 40
30.48
  1
25
 41
1.0625
  7
ＭＳ ゴシック
100
AcDbText
  0
TEXT
  5
153
330
1F
100
AcDbEntity
  8
D-4
  6
Continuous
 62
     2
370
     9
100
AcDbText
 10
-847.3380458181236
 20
-45.76612233343859
 30
0.0
 40
30.48
  1
3
 41
0.9999999999999998
  7
ＭＳ ゴシック
100
AcDbText
  0
TEXT
  5
154
330
1F
100
AcDbEntity
  8
D-4
  6
Continuous
 62
     2
370
     9
100
AcDbText
 10
-912.4788129155968
 20
-45.76612233343859
 30
0.0
 40
30.48
  1
2
 41
0.9999999999999998
  7
ＭＳ ゴシック
100
AcDbText
  0
TEXT
  5
155
330
1F
100
AcDbEntity
  8
D-4
  6
Continuous
 62
     2
370
     9
100
AcDbText
 10
-355.1245974271641
 20
-537.3262084869533
 30
0.0
 40
30.48
  1
65～75
 50
90.00000250447853
 41
1.104166666666667
  7
ＭＳ ゴシック
100
AcDbText
  0
TEXT
  5
156
330
1F
100
AcDbEntity
  8
D-5
  6
Continuous
 62
     2
370
     9
100
AcDbText
 10
-1309.208102900395
 20
-957.9078078192821
 30
0.0
 40
30.48
  1
断面詳細図　Ｓ＝１：２
 50
359.9999464735996
 41
1.113636363636364
  7
ＭＳ ゴシック
100
AcDbText
  0
TEXT
  5
157
330
1F
100
AcDbEntity
  8
D-4
  6
Continuous
 62
     2
370
     9
100
AcDbText
 10
-878.5070165310711
 20
-823.2185530585757
 30
0.0
 40
30.48
  1
75～80
 50
0.0002144417782548
 41
1.104166666666669
  7
ＭＳ ゴシック
100
AcDbText
  0
LINE
  5
158
330
1F
100
AcDbEntity
  8
D-4
  6
Continuous
 62
     7
370
     9
100
AcDbLine
 10
-1010.630685073647
 20
-606.6798268622472
 30
0.0
 11
-860.6305730169152
 21
-606.6798268622472
 31
0.0
  0
LINE
  5
159
330
1F
100
AcDbEntity
  8
D-4
  6
Continuous
 62
     7
370
     9
100
AcDbLine
 10
-860.6305730169152
 20
-606.6798268622472
 30
0.0
 11
-690.6303512876366
 21
-606.6798268622472
 31
0.0
  0
LINE
  5
15A
330
1F
100
AcDbEntity
  8
D-4
  6
Continuous
 62
     7
370
     9
100
AcDbLine
 10
-690.6303512876366
 20
-609.679838306339
 30
0.0
 11
-690.6303512876366
 21
-525.0761567420079
 31
0.0
  0
LINE
  5
15B
330
1F
100
AcDbEntity
  8
D-4
  6
Continuous
 62
     7
370
     9
100
AcDbLine
 10
-627.6743805234764
 20
-520.0762234992101
 30
0.0
 11
-685.6303512876366
 21
-520.0762234992101
 31
0.0
  0
LINE
  5
15C
330
1F
100
AcDbEntity
  8
D-4
  6
Continuous
 62
     7
370
     9
100
AcDbLine
 10
-630.6743728940819
 20
-488.5770474738194
 30
0.0
 11
-630.6743728940819
 21
-605.3271733588292
 31
0.0
  0
LINE
  5
15D
330
1F
100
AcDbEntity
  8
D-4
  6
Continuous
 62
     7
370
     9
100
AcDbLine
 10
-860.6305730169152
 20
-609.679838306339
 30
0.0
 11
-860.6305730169152
 21
-525.0761567420079
 31
0.0
  0
LINE
  5
15E
330
1F
100
AcDbEntity
  8
D-9
  6
Continuous
 62
     4
370
     9
100
AcDbLine
 10
-820.6303942029808
 20
-520.0762234992101
 30
0.0
 11
-705.6303512876366
 21
-520.0762234992101
 31
0.0
  0
LINE
  5
15F
330
1F
100
AcDbEntity
  8
D-9
  6
Continuous
 62
     4
370
     9
100
AcDbLine
 10
-835.6304657285546
 20
-505.0761567420079
 30
0.0
 11
-835.6304657285546
 21
-491.0761891669347
 31
0.0
  0
LINE
  5
160
330
1F
100
AcDbEntity
  8
D-9
  6
Continuous
 62
     4
370
     9
100
AcDbLine
 10
-690.6305420224999
 20
-505.0761567420079
 30
0.0
 11
-690.6305420224999
 21
-491.0761891669347
 31
0.0
  0
LINE
  5
161
330
1F
100
AcDbEntity
  8
D-9
  6
Continuous
 62
     4
370
     9
100
AcDbLine
 10
-855.6305587118004
 20
-501.0762368506505
 30
0.0
 11
-855.6305587118004
 21
-491.0761891669347
 31
0.0
  0
LINE
  5
162
330
1F
100
AcDbEntity
  8
D-9
  6
Continuous
 62
     4
370
     9
100
AcDbLine
 10
-835.605441314492
 20
-501.0762368506505
 30
0.0
 11
-885.6302696937109
 21
-501.0762368506505
 31
0.0
  0
LINE
  5
163
330
1F
100
AcDbEntity
  8
D-9
  6
Continuous
 62
     4
370
     9
100
AcDbLine
 10
-690.6305420224999
 20
-491.0761891669347
 30
0.0
 11
-885.6302696937109
 21
-491.0761891669347
 31
0.0
  0
LINE
  5
164
330
1F
100
AcDbEntity
  8
D-9
  6
Continuous
 62
     3
370
     9
100
AcDbLine
 10
-985.6305992429589
 20
-488.577543384464
 30
0.0
 11
-985.6305992429589
 21
-511.0775243109777
 31
0.0
  0
LINE
  5
165
330
1F
100
AcDbEntity
  8
D-9
  6
Continuous
 62
     3
370
     9
100
AcDbLine
 10
-885.6302696937109
 20
-511.0775243109777
 30
0.0
 11
-985.6305992429589
 21
-511.0775243109777
 31
0.0
  0
LINE
  5
166
330
1F
100
AcDbEntity
  8
D-9
  6
Continuous
 62
     3
370
     9
100
AcDbLine
 10
-885.6302696937109
 20
-488.577543384464
 30
0.0
 11
-985.6305992429589
 21
-488.577543384464
 31
0.0
  0
LINE
  5
167
330
1F
100
AcDbEntity
  8
D-9
  6
Continuous
 62
     2
370
     9
100
AcDbLine
 10
-921.8806993787621
 20
-513.5761700934484
 30
0.0
 11
-921.8806993787621
 21
-511.0775243109777
 31
0.0
  0
LINE
  5
168
330
1F
100
AcDbEntity
  8
D-9
  6
Continuous
 62
     2
370
     9
100
AcDbLine
 10
-930.6314098661278
 20
-521.0755788153722
 30
0.0
 11
-921.8806993787621
 21
-513.5761700934484
 31
0.0
  0
LINE
  5
169
330
1F
100
AcDbEntity
  8
D-9
  6
Continuous
 62
     2
370
     9
100
AcDbLine
 10
-940.6303274457787
 20
-521.0755788153722
 30
0.0
 11
-930.6314098661278
 21
-521.0755788153722
 31
0.0
  0
LINE
  5
16A
330
1F
100
AcDbEntity
  8
D-9
  6
Continuous
 62
     2
370
     9
100
AcDbLine
 10
-949.3807899778221
 20
-513.5761700934484
 30
0.0
 11
-940.6303274457787
 21
-521.0755788153722
 31
0.0
  0
LINE
  5
16B
330
1F
100
AcDbEntity
  8
D-9
  6
Continuous
 62
     2
370
     9
100
AcDbLine
 10
-949.3807899778221
 20
-513.5761700934484
 30
0.0
 11
-949.3807899778221
 21
-511.0775243109777
 31
0.0
  0
LINE
  5
16C
330
1F
100
AcDbEntity
  8
D-9
  6
Continuous
 62
     2
370
     9
100
AcDbLine
 10
-949.3807899778221
 20
-513.5761700934484
 30
0.0
 11
-921.8806993787621
 21
-513.5761700934484
 31
0.0
  0
LINE
  5
16D
330
1F
100
AcDbEntity
  8
D-9
  6
Continuous
 62
     3
370
     9
100
AcDbLine
 10
-885.6302696937109
 20
-488.577543384464
 30
0.0
 11
-885.6302696937109
 21
-511.0775243109777
 31
0.0
  0
LINE
  5
16E
330
1F
100
AcDbEntity
  8
D-9
  6
Continuous
 62
     3
370
     9
100
AcDbLine
 10
-885.6302696937109
 20
-498.577543384464
 30
0.0
 11
-985.6305992429589
 21
-498.577543384464
 31
0.0
  0
LINE
  5
16F
330
1F
100
AcDbEntity
  8
D-9
  6
JWW_DASHED2
 62
     3
370
     9
100
AcDbLine
 10
-885.6302696937109
 20
-501.0775243109777
 30
0.0
 11
-985.6305992429589
 21
-501.0775243109777
 31
0.0
  0
LINE
  5
170
330
1F
100
AcDbEntity
  8
D-9
  6
JWW_CENTER1
 62
     4
370
     9
100
AcDbLine
 10
-935.6304323499535
 20
-528.8165437048985
 30
0.0
 11
-935.6304323499535
 21
-488.577543384464
 31
0.0
  0
ARC
  5
171
330
1F
100
AcDbEntity
  8
D-9
  6
Continuous
 62
     4
370
     9
100
AcDbCircle
 10
-820.6303942029808
 20
-505.0761567420079
 30
0.0
 40
15.00000238418579
100
AcDbArc
 50
180.0
 51
270.0
  0
ARC
  5
172
330
1F
100
AcDbEntity
  8
D-9
  6
Continuous
 62
     4
370
     9
100
AcDbCircle
 10
-705.6303512876366
 20
-505.0761567420079
 30
0.0
 40
15.00000238418579
100
AcDbArc
 50
270.0
 51
0.0
  0
LWPOLYLINE
  5
173
330
1F
100
AcDbEntity
  8
D-4
  6
Continuous
 62
     7
370
     9
100
AcDbPolyline
 90
        4
 70
     1
 43
2.0
 10
-1009.630685073647
 20
-606.6798268622472
 42
0.4142135623731
 10
-1010.630685073647
 20
-605.6798268622472
 42
0.4142135623731
 10
-1011.630685073647
 20
-606.6798268622472
 42
0.4142135623731
 10
-1010.630685073647
 20
-607.6798268622472
 42
0.4142135623731
  0
LWPOLYLINE
  5
174
330
1F
100
AcDbEntity
  8
D-4
  6
Continuous
 62
     7
370
     9
100
AcDbPolyline
 90
        4
 70
     1
 43
2.0
 10
-859.6305730169152
 20
-606.6798268622472
 42
0.4142135623731
 10
-860.6305730169152
 20
-605.6798268622472
 42
0.4142135623731
 10
-861.6305730169152
 20
-606.6798268622472
 42
0.4142135623731
 10
-860.6305730169152
 20
-607.6798268622472
 42
0.4142135623731
  0
LWPOLYLINE
  5
175
330
1F
100
AcDbEntity
  8
D-4
  6
Continuous
 62
     7
370
     9
100
AcDbPolyline
 90
        4
 70
     1
 43
2.0
 10
-689.6303512876366
 20
-606.6798268622472
 42
0.4142135623731
 10
-690.6303512876366
 20
-605.6798268622472
 42
0.4142135623731
 10
-691.6303512876366
 20
-606.6798268622472
 42
0.4142135623731
 10
-690.6303512876366
 20
-607.6798268622472
 42
0.4142135623731
  0
LWPOLYLINE
  5
176
330
1F
100
AcDbEntity
  8
D-4
  6
Continuous
 62
     7
370
     9
100
AcDbPolyline
 90
        4
 70
     1
 43
2.0
 10
-629.6743728940819
 20
-520.0762234992101
 42
0.4142135623731
 10
-630.6743728940819
 20
-519.0762234992101
 42
0.4142135623731
 10
-631.6743728940819
 20
-520.0762234992101
 42
0.4142135623731
 10
-630.6743728940819
 20
-521.0762234992101
 42
0.4142135623731
  0
TEXT
  5
177
330
1F
100
AcDbEntity
  8
D-4
  6
Continuous
 62
     2
370
     9
100
AcDbText
 10
-956.8806278531883
 20
-595.0398230475499
 30
0.0
 40
30.48
  1
30
 41
1.0625
  7
ＭＳ ゴシック
100
AcDbText
  0
TEXT
  5
178
330
1F
100
AcDbEntity
  8
D-4
  6
Continuous
 62
     2
370
     9
100
AcDbText
 10
-850.2643811529015
 20
-595.0398230475499
 30
0.0
 40
30.48
  1
34
 41
1.0625
  7
ＭＳ ゴシック
100
AcDbText
  0
TEXT
  5
179
330
1F
100
AcDbEntity
  8
D-4
  6
Continuous
 62
     2
370
     9
100
AcDbText
 10
-642.3143767087803
 20
-591.7714370636135
 30
0.0
 40
30.48
  1
6.5
 50
90.00000250447873
 41
1.083333333333334
  7
ＭＳ ゴシック
100
AcDbText
  0
LINE
  5
17A
330
1F
100
AcDbEntity
  8
D-4
  6
Continuous
 62
     7
370
     9
100
AcDbLine
 10
-826.6284382169579
 20
-488.5770474738194
 30
0.0
 11
-627.6738083188866
 21
-488.5770474738194
 31
0.0
  0
LWPOLYLINE
  5
17B
330
1F
100
AcDbEntity
  8
D-4
  6
Continuous
 62
     7
370
     9
100
AcDbPolyline
 90
        4
 70
     1
 43
2.0
 10
-629.6743728940819
 20
-488.5770474738194
 42
0.4142135623731
 10
-630.6743728940819
 20
-487.5770474738194
 42
0.4142135623731
 10
-631.6743728940819
 20
-488.5770474738194
 42
0.4142135623731
 10
-630.6743728940819
 20
-489.5770474738194
 42
0.4142135623731
  0
LINE
  5
17C
330
1F
100
AcDbEntity
  8
D-4
  6
Continuous
 62
     7
370
     9
100
AcDbLine
 10
-630.6743728940819
 20
-488.5770474738194
 30
0.0
 11
-630.6743728940819
 21
-283.5763426385631
 31
0.0
  0
LWPOLYLINE
  5
17D
330
1F
100
AcDbEntity
  8
D-4
  6
Continuous
 62
     7
370
     9
100
AcDbPolyline
 90
        4
 70
     1
 43
2.0
 10
-629.6743728940819
 20
-283.5763426385631
 42
0.4142135623731
 10
-630.6743728940819
 20
-282.5763426385631
 42
0.4142135623731
 10
-631.6743728940819
 20
-283.5763426385631
 42
0.4142135623731
 10
-630.6743728940819
 20
-284.5763426385631
 42
0.4142135623731
  0
TEXT
  5
17E
330
1F
100
AcDbEntity
  8
D-4
  6
Continuous
 62
     2
370
   211
100
AcDbText
 10
-646.3143728940819
 20
-407.3266950561913
 30
0.0
 40
30.48
  1
41
 50
90.0
 41
1.0625
  7
ＭＳ ゴシック
100
AcDbText
  0
LINE
  5
17F
330
1F
100
AcDbEntity
  8
D-6
  6
Continuous
 62
     6
370
     9
100
AcDbLine
 10
-798.3470833127831
 20
-658.5768376654698
 30
0.0
 11
-798.3470833127831
 21
-520.0762234992101
 31
0.0
  0
LINE
  5
180
330
1F
100
AcDbEntity
  8
D-6
  6
Continuous
 62
     6
370
     9
100
AcDbLine
 10
-753.3466255491112
 20
-658.5768376654698
 30
0.0
 11
-753.3466255491112
 21
-520.0762234992101
 31
0.0
  0
LINE
  5
181
330
1F
100
AcDbEntity
  8
D-6
  6
Continuous
 62
     6
370
     9
100
AcDbLine
 10
-798.3470833127831
 20
-456.0761891669347
 30
0.0
 11
-753.3466255491112
 21
-456.0761891669347
 31
0.0
  0
LINE
  5
182
330
1F
100
AcDbEntity
  8
D-6
  6
JWW_CENTER2
 62
     6
370
     9
100
AcDbLine
 10
-775.8468544309471
 20
-441.4321004218175
 30
0.0
 11
-775.8468544309471
 21
-771.9093953436925
 31
0.0
  0
LINE
  5
183
330
1F
100
AcDbEntity
  8
D-6
  6
Continuous
 62
     6
370
     9
100
AcDbLine
 10
-798.3470833127831
 20
-491.0761891669347
 30
0.0
 11
-798.3470833127831
 21
-456.0761891669347
 31
0.0
  0
LINE
  5
184
330
1F
100
AcDbEntity
  8
D-6
  6
Continuous
 62
     6
370
     9
100
AcDbLine
 10
-753.3466255491112
 20
-491.0761891669347
 30
0.0
 11
-753.3466255491112
 21
-456.0761891669347
 31
0.0
  0
LINE
  5
185
330
1F
100
AcDbEntity
  8
D-5
  6
Continuous
 62
     7
370
     9
100
AcDbLine
 10
-842.5205528562401
 20
-491.0761891669347
 30
0.0
 11
-828.7088644330834
 21
-470.2377663916661
 31
0.0
  0
LINE
  5
186
330
1F
100
AcDbEntity
  8
D-5
  6
Continuous
 62
     7
370
     9
100
AcDbLine
 10
-842.5205528562401
 20
-491.0761891669347
 30
0.0
 11
-823.7868749921654
 21
-474.5220815009191
 31
0.0
  0
LINE
  5
187
330
1F
100
AcDbEntity
  8
D-5
  6
Continuous
 62
     7
370
     9
100
AcDbLine
 10
-842.5205528562401
 20
-491.0761891669347
 30
0.0
 11
-608.9957429466676
 21
-222.7689242822441
 31
0.0
  0
TEXT
  5
188
330
1F
100
AcDbEntity
  8
D-5
  6
Continuous
 62
     7
370
     9
100
AcDbText
 10
-603.0621013782047
 20
-213.8800345117363
 30
0.0
 40
22.86
  1
アンカー＠５００
 41
1.145833333333333
  7
ＭＳ ゴシック
100
AcDbText
  0
LINE
  5
189
330
1F
100
AcDbEntity
  8
D-0
  6
Continuous
 62
     7
370
     9
100
AcDbLine
 10
-949.8109506676201
 20
-617.5546687961798
 30
0.0
 11
-949.8109506676201
 21
-616.0543865085822
 31
0.0
  0
LINE
  5
18A
330
1F
100
AcDbEntity
  8
D-0
  6
Continuous
 62
     7
370
     9
100
AcDbLine
 10
-949.8109506676201
 20
-616.0543865085822
 30
0.0
 11
-948.3111666748528
 21
-616.0543865085822
 31
0.0
  0
LINE
  5
18B
330
1F
100
AcDbEntity
  8
D-0
  6
Continuous
 62
     7
370
     9
100
AcDbLine
 10
-948.3111666748528
 20
-616.0543865085822
 30
0.0
 11
-948.3111666748528
 21
-617.5546687961798
 31
0.0
  0
LINE
  5
18C
330
1F
100
AcDbEntity
  8
D-0
  6
Continuous
 62
     7
370
     9
100
AcDbLine
 10
-948.3111666748528
 20
-617.5546687961798
 30
0.0
 11
-949.8109506676201
 21
-617.5546687961798
 31
0.0
  0
LINE
  5
18D
330
1F
100
AcDbEntity
  8
D-0
  6
Continuous
 62
     7
370
     9
100
AcDbLine
 10
-948.2338737556938
 20
-645.5892604709845
 30
0.0
 11
-948.2338737556938
 21
-644.0889781833869
 31
0.0
  0
LINE
  5
18E
330
1F
100
AcDbEntity
  8
D-0
  6
Continuous
 62
     7
370
     9
100
AcDbLine
 10
-948.2338737556938
 20
-644.0889781833869
 30
0.0
 11
-946.7340897629265
 21
-644.0889781833869
 31
0.0
  0
LINE
  5
18F
330
1F
100
AcDbEntity
  8
D-0
  6
Continuous
 62
     7
370
     9
100
AcDbLine
 10
-946.7340897629265
 20
-644.0889781833869
 30
0.0
 11
-946.7340897629265
 21
-645.5892604709845
 31
0.0
  0
LINE
  5
190
330
1F
100
AcDbEntity
  8
D-0
  6
Continuous
 62
     7
370
     9
100
AcDbLine
 10
-946.7340897629265
 20
-645.5892604709845
 30
0.0
 11
-948.2338737556938
 21
-645.5892604709845
 31
0.0
  0
LINE
  5
191
330
1F
100
AcDbEntity
  8
D-0
  6
Continuous
 62
     7
370
     9
100
AcDbLine
 10
-995.1410776723969
 20
-564.5714034659215
 30
0.0
 11
-995.1410776723969
 21
-563.0711211783239
 31
0.0
  0
LINE
  5
192
330
1F
100
AcDbEntity
  8
D-0
  6
Continuous
 62
     7
370
     9
100
AcDbLine
 10
-995.1410776723969
 20
-563.0711211783239
 30
0.0
 11
-993.6412936796296
 21
-563.0711211783239
 31
0.0
  0
LINE
  5
193
330
1F
100
AcDbEntity
  8
D-0
  6
Continuous
 62
     7
370
     9
100
AcDbLine
 10
-993.6412936796296
 20
-563.0711211783239
 30
0.0
 11
-993.6412936796296
 21
-564.5714034659215
 31
0.0
  0
LINE
  5
194
330
1F
100
AcDbEntity
  8
D-0
  6
Continuous
 62
     7
370
     9
100
AcDbLine
 10
-993.6412936796296
 20
-564.5714034659215
 30
0.0
 11
-995.1410776723969
 21
-564.5714034659215
 31
0.0
  0
LINE
  5
195
330
1F
100
AcDbEntity
  8
D-0
  6
Continuous
 62
     7
370
     9
100
AcDbLine
 10
-993.5640007604707
 20
-592.6059951407262
 30
0.0
 11
-993.5640007604707
 21
-591.1057128531286
 31
0.0
  0
LINE
  5
196
330
1F
100
AcDbEntity
  8
D-0
  6
Continuous
 62
     7
370
     9
100
AcDbLine
 10
-993.5640007604707
 20
-591.1057128531286
 30
0.0
 11
-992.0642167677033
 21
-591.1057128531286
 31
0.0
  0
LINE
  5
197
330
1F
100
AcDbEntity
  8
D-0
  6
Continuous
 62
     7
370
     9
100
AcDbLine
 10
-992.0642167677033
 20
-591.1057128531286
 30
0.0
 11
-992.0642167677033
 21
-592.6059951407262
 31
0.0
  0
LINE
  5
198
330
1F
100
AcDbEntity
  8
D-0
  6
Continuous
 62
     7
370
     9
100
AcDbLine
 10
-992.0642167677033
 20
-592.6059951407262
 30
0.0
 11
-993.5640007604707
 21
-592.6059951407262
 31
0.0
  0
LINE
  5
199
330
1F
100
AcDbEntity
  8
D-0
  6
Continuous
 62
     7
370
     9
100
AcDbLine
 10
-968.6494450072678
 20
-537.1967163786201
 30
0.0
 11
-968.6494450072678
 21
-535.6964340910224
 31
0.0
  0
LINE
  5
19A
330
1F
100
AcDbEntity
  8
D-0
  6
Continuous
 62
     7
370
     9
100
AcDbLine
 10
-968.6494450072678
 20
-535.6964340910224
 30
0.0
 11
-967.1496610145005
 21
-535.6964340910224
 31
0.0
  0
LINE
  5
19B
330
1F
100
AcDbEntity
  8
D-0
  6
Continuous
 62
     7
370
     9
100
AcDbLine
 10
-967.1496610145005
 20
-535.6964340910224
 30
0.0
 11
-967.1496610145005
 21
-537.1967163786201
 31
0.0
  0
LINE
  5
19C
330
1F
100
AcDbEntity
  8
D-0
  6
Continuous
 62
     7
370
     9
100
AcDbLine
 10
-967.1496610145005
 20
-537.1967163786201
 30
0.0
 11
-968.6494450072678
 21
-537.1967163786201
 31
0.0
  0
LINE
  5
19D
330
1F
100
AcDbEntity
  8
D-0
  6
Continuous
 62
     7
370
     9
100
AcDbLine
 10
-967.0723680953415
 20
-565.2313080534248
 30
0.0
 11
-967.0723680953415
 21
-563.7310257658271
 31
0.0
  0
LINE
  5
19E
330
1F
100
AcDbEntity
  8
D-0
  6
Continuous
 62
     7
370
     9
100
AcDbLine
 10
-967.0723680953415
 20
-563.7310257658271
 30
0.0
 11
-965.5725841025742
 21
-563.7310257658271
 31
0.0
  0
LINE
  5
19F
330
1F
100
AcDbEntity
  8
D-0
  6
Continuous
 62
     7
370
     9
100
AcDbLine
 10
-965.5725841025742
 20
-563.7310257658271
 30
0.0
 11
-965.5725841025742
 21
-565.2313080534248
 31
0.0
  0
LINE
  5
1A0
330
1F
100
AcDbEntity
  8
D-0
  6
Continuous
 62
     7
370
     9
100
AcDbLine
 10
-965.5725841025742
 20
-565.2313080534248
 30
0.0
 11
-967.0723680953415
 21
-565.2313080534248
 31
0.0
  0
LINE
  5
1A1
330
1F
100
AcDbEntity
  8
D-0
  6
Continuous
 62
     7
370
     9
100
AcDbLine
 10
-905.6582295590715
 20
-527.7774692087962
 30
0.0
 11
-905.6582295590715
 21
-526.2771869211986
 31
0.0
  0
LINE
  5
1A2
330
1F
100
AcDbEntity
  8
D-0
  6
Continuous
 62
     7
370
     9
100
AcDbLine
 10
-905.6582295590715
 20
-526.2771869211986
 30
0.0
 11
-904.1584455663042
 21
-526.2771869211986
 31
0.0
  0
LINE
  5
1A3
330
1F
100
AcDbEntity
  8
D-0
  6
Continuous
 62
     7
370
     9
100
AcDbLine
 10
-904.1584455663042
 20
-526.2771869211986
 30
0.0
 11
-904.1584455663042
 21
-527.7774692087962
 31
0.0
  0
LINE
  5
1A4
330
1F
100
AcDbEntity
  8
D-0
  6
Continuous
 62
     7
370
     9
100
AcDbLine
 10
-904.1584455663042
 20
-527.7774692087962
 30
0.0
 11
-905.6582295590715
 21
-527.7774692087962
 31
0.0
  0
LINE
  5
1A5
330
1F
100
AcDbEntity
  8
D-0
  6
Continuous
 62
     7
370
     9
100
AcDbLine
 10
-904.0811526471452
 20
-555.8120608836009
 30
0.0
 11
-904.0811526471452
 21
-554.3117785960033
 31
0.0
  0
LINE
  5
1A6
330
1F
100
AcDbEntity
  8
D-0
  6
Continuous
 62
     7
370
     9
100
AcDbLine
 10
-904.0811526471452
 20
-554.3117785960033
 30
0.0
 11
-902.5813686543779
 21
-554.3117785960033
 31
0.0
  0
LINE
  5
1A7
330
1F
100
AcDbEntity
  8
D-0
  6
Continuous
 62
     7
370
     9
100
AcDbLine
 10
-902.5813686543779
 20
-554.3117785960033
 30
0.0
 11
-902.5813686543779
 21
-555.8120608836009
 31
0.0
  0
LINE
  5
1A8
330
1F
100
AcDbEntity
  8
D-0
  6
Continuous
 62
     7
370
     9
100
AcDbLine
 10
-902.5813686543779
 20
-555.8120608836009
 30
0.0
 11
-904.0811526471452
 21
-555.8120608836009
 31
0.0
  0
LINE
  5
1A9
330
1F
100
AcDbEntity
  8
D-0
  6
Continuous
 62
     7
370
     9
100
AcDbLine
 10
-875.6343792052576
 20
-564.2770519918633
 30
0.0
 11
-875.6343792052576
 21
-562.7767697042657
 31
0.0
  0
LINE
  5
1AA
330
1F
100
AcDbEntity
  8
D-0
  6
Continuous
 62
     7
370
     9
100
AcDbLine
 10
-875.6343792052576
 20
-562.7767697042657
 30
0.0
 11
-874.1345952124902
 21
-562.7767697042657
 31
0.0
  0
LINE
  5
1AB
330
1F
100
AcDbEntity
  8
D-0
  6
Continuous
 62
     7
370
     9
100
AcDbLine
 10
-874.1345952124902
 20
-562.7767697042657
 30
0.0
 11
-874.1345952124902
 21
-564.2770519918633
 31
0.0
  0
LINE
  5
1AC
330
1F
100
AcDbEntity
  8
D-0
  6
Continuous
 62
     7
370
     9
100
AcDbLine
 10
-874.1345952124902
 20
-564.2770519918633
 30
0.0
 11
-875.6343792052576
 21
-564.2770519918633
 31
0.0
  0
LINE
  5
1AD
330
1F
100
AcDbEntity
  8
D-0
  6
Continuous
 62
     7
370
     9
100
AcDbLine
 10
-874.0573022933313
 20
-592.311643666668
 30
0.0
 11
-874.0573022933313
 21
-590.8113613790704
 31
0.0
  0
LINE
  5
1AE
330
1F
100
AcDbEntity
  8
D-0
  6
Continuous
 62
     7
370
     9
100
AcDbLine
 10
-874.0573022933313
 20
-590.8113613790704
 30
0.0
 11
-872.557518300564
 21
-590.8113613790704
 31
0.0
  0
LINE
  5
1AF
330
1F
100
AcDbEntity
  8
D-0
  6
Continuous
 62
     7
370
     9
100
AcDbLine
 10
-872.557518300564
 20
-590.8113613790704
 30
0.0
 11
-872.557518300564
 21
-592.311643666668
 31
0.0
  0
LINE
  5
1B0
330
1F
100
AcDbEntity
  8
D-0
  6
Continuous
 62
     7
370
     9
100
AcDbLine
 10
-872.557518300564
 20
-592.311643666668
 30
0.0
 11
-874.0573022933313
 21
-592.311643666668
 31
0.0
  0
LINE
  5
1B1
330
1F
100
AcDbEntity
  8
D-0
  6
Continuous
 62
     7
370
     9
100
AcDbLine
 10
-830.5528002349047
 20
-644.3219231925457
 30
0.0
 11
-830.5528002349047
 21
-642.821640904948
 31
0.0
  0
LINE
  5
1B2
330
1F
100
AcDbEntity
  8
D-0
  6
Continuous
 62
     7
370
     9
100
AcDbLine
 10
-830.5528002349047
 20
-642.821640904948
 30
0.0
 11
-829.0527706710009
 21
-642.821640904948
 31
0.0
  0
LINE
  5
1B3
330
1F
100
AcDbEntity
  8
D-0
  6
Continuous
 62
     7
370
     9
100
AcDbLine
 10
-829.0527706710009
 20
-642.821640904948
 30
0.0
 11
-829.0527706710009
 21
-644.3219231925457
 31
0.0
  0
LINE
  5
1B4
330
1F
100
AcDbEntity
  8
D-0
  6
Continuous
 62
     7
370
     9
100
AcDbLine
 10
-829.0527706710009
 20
-644.3219231925457
 30
0.0
 11
-830.5528002349047
 21
-644.3219231925457
 31
0.0
  0
LINE
  5
1B5
330
1F
100
AcDbEntity
  8
D-0
  6
Continuous
 62
     7
370
     9
100
AcDbLine
 10
-840.8415119500933
 20
-620.5881149189588
 30
0.0
 11
-840.8415119500933
 21
-619.0878326313612
 31
0.0
  0
LINE
  5
1B6
330
1F
100
AcDbEntity
  8
D-0
  6
Continuous
 62
     7
370
     9
100
AcDbLine
 10
-840.8415119500933
 20
-619.0878326313612
 30
0.0
 11
-839.3417279573259
 21
-619.0878326313612
 31
0.0
  0
LINE
  5
1B7
330
1F
100
AcDbEntity
  8
D-0
  6
Continuous
 62
     7
370
     9
100
AcDbLine
 10
-839.3417279573259
 20
-619.0878326313612
 30
0.0
 11
-839.3417279573259
 21
-620.5881149189588
 31
0.0
  0
LINE
  5
1B8
330
1F
100
AcDbEntity
  8
D-0
  6
Continuous
 62
     7
370
     9
100
AcDbLine
 10
-839.3417279573259
 20
-620.5881149189588
 30
0.0
 11
-840.8415119500933
 21
-620.5881149189588
 31
0.0
  0
LINE
  5
1B9
330
1F
100
AcDbEntity
  8
D-0
  6
Continuous
 62
     7
370
     9
100
AcDbLine
 10
-729.2958931593012
 20
-593.3991181806857
 30
0.0
 11
-729.2958931593012
 21
-591.8988358930881
 31
0.0
  0
LINE
  5
1BA
330
1F
100
AcDbEntity
  8
D-0
  6
Continuous
 62
     7
370
     9
100
AcDbLine
 10
-729.2958931593012
 20
-591.8988358930881
 30
0.0
 11
-727.7958635953973
 21
-591.8988358930881
 31
0.0
  0
LINE
  5
1BB
330
1F
100
AcDbEntity
  8
D-0
  6
Continuous
 62
     7
370
     9
100
AcDbLine
 10
-727.7958635953973
 20
-591.8988358930881
 30
0.0
 11
-727.7958635953973
 21
-593.3991181806857
 31
0.0
  0
LINE
  5
1BC
330
1F
100
AcDbEntity
  8
D-0
  6
Continuous
 62
     7
370
     9
100
AcDbLine
 10
-727.7958635953973
 20
-593.3991181806857
 30
0.0
 11
-729.2958931593012
 21
-593.3991181806857
 31
0.0
  0
LINE
  5
1BD
330
1F
100
AcDbEntity
  8
D-0
  6
Continuous
 62
     7
370
     9
100
AcDbLine
 10
-739.5846048744875
 20
-569.6653099070988
 30
0.0
 11
-739.5846048744875
 21
-568.1650276195012
 31
0.0
  0
LINE
  5
1BE
330
1F
100
AcDbEntity
  8
D-0
  6
Continuous
 62
     7
370
     9
100
AcDbLine
 10
-739.5846048744875
 20
-568.1650276195012
 30
0.0
 11
-738.0848208817201
 21
-568.1650276195012
 31
0.0
  0
LINE
  5
1BF
330
1F
100
AcDbEntity
  8
D-0
  6
Continuous
 62
     7
370
     9
100
AcDbLine
 10
-738.0848208817201
 20
-568.1650276195012
 30
0.0
 11
-738.0848208817201
 21
-569.6653099070988
 31
0.0
  0
LINE
  5
1C0
330
1F
100
AcDbEntity
  8
D-0
  6
Continuous
 62
     7
370
     9
100
AcDbLine
 10
-738.0848208817201
 20
-569.6653099070988
 30
0.0
 11
-739.5846048744875
 21
-569.6653099070988
 31
0.0
  0
LINE
  5
1C1
330
1F
100
AcDbEntity
  8
D-0
  6
Continuous
 62
     7
370
     9
100
AcDbLine
 10
-709.5743443974811
 20
-561.3148075084735
 30
0.0
 11
-709.5743443974811
 21
-559.8145252208758
 31
0.0
  0
LINE
  5
1C2
330
1F
100
AcDbEntity
  8
D-0
  6
Continuous
 62
     7
370
     9
100
AcDbLine
 10
-709.5743443974811
 20
-559.8145252208758
 30
0.0
 11
-708.0743148335773
 21
-559.8145252208758
 31
0.0
  0
LINE
  5
1C3
330
1F
100
AcDbEntity
  8
D-0
  6
Continuous
 62
     7
370
     9
100
AcDbLine
 10
-708.0743148335773
 20
-559.8145252208758
 30
0.0
 11
-708.0743148335773
 21
-561.3148075084735
 31
0.0
  0
LINE
  5
1C4
330
1F
100
AcDbEntity
  8
D-0
  6
Continuous
 62
     7
370
     9
100
AcDbLine
 10
-708.0743148335773
 20
-561.3148075084735
 30
0.0
 11
-709.5743443974811
 21
-561.3148075084735
 31
0.0
  0
LINE
  5
1C5
330
1F
100
AcDbEntity
  8
D-0
  6
Continuous
 62
     7
370
     9
100
AcDbLine
 10
-719.8630561126674
 20
-537.5809992348866
 30
0.0
 11
-719.8630561126674
 21
-536.0807169472889
 31
0.0
  0
LINE
  5
1C6
330
1F
100
AcDbEntity
  8
D-0
  6
Continuous
 62
     7
370
     9
100
AcDbLine
 10
-719.8630561126674
 20
-536.0807169472889
 30
0.0
 11
-718.3632721199001
 21
-536.0807169472889
 31
0.0
  0
LINE
  5
1C7
330
1F
100
AcDbEntity
  8
D-0
  6
Continuous
 62
     7
370
     9
100
AcDbLine
 10
-718.3632721199001
 20
-536.0807169472889
 30
0.0
 11
-718.3632721199001
 21
-537.5809992348866
 31
0.0
  0
LINE
  5
1C8
330
1F
100
AcDbEntity
  8
D-0
  6
Continuous
 62
     7
370
     9
100
AcDbLine
 10
-718.3632721199001
 20
-537.5809992348866
 30
0.0
 11
-719.8630561126674
 21
-537.5809992348866
 31
0.0
  0
LINE
  5
1C9
330
1F
100
AcDbEntity
  8
D-0
  6
Continuous
 62
     7
370
     9
100
AcDbLine
 10
-823.2676012519937
 20
-549.5407485461953
 30
0.0
 11
-823.2676012519937
 21
-548.0404662585977
 31
0.0
  0
LINE
  5
1CA
330
1F
100
AcDbEntity
  8
D-0
  6
Continuous
 62
     7
370
     9
100
AcDbLine
 10
-823.2676012519937
 20
-548.0404662585977
 30
0.0
 11
-821.7675716880899
 21
-548.0404662585977
 31
0.0
  0
LINE
  5
1CB
330
1F
100
AcDbEntity
  8
D-0
  6
Continuous
 62
     7
370
     9
100
AcDbLine
 10
-821.7675716880899
 20
-548.0404662585977
 30
0.0
 11
-821.7675716880899
 21
-549.5407485461953
 31
0.0
  0
LINE
  5
1CC
330
1F
100
AcDbEntity
  8
D-0
  6
Continuous
 62
     7
370
     9
100
AcDbLine
 10
-821.7675716880899
 20
-549.5407485461953
 30
0.0
 11
-823.2676012519937
 21
-549.5407485461953
 31
0.0
  0
LINE
  5
1CD
330
1F
100
AcDbEntity
  8
D-0
  6
Continuous
 62
     7
370
     9
100
AcDbLine
 10
-833.55631296718
 20
-525.8069402726085
 30
0.0
 11
-833.55631296718
 21
-524.3066579850108
 31
0.0
  0
LINE
  5
1CE
330
1F
100
AcDbEntity
  8
D-0
  6
Continuous
 62
     7
370
     9
100
AcDbLine
 10
-833.55631296718
 20
-524.3066579850108
 30
0.0
 11
-832.0565289744127
 21
-524.3066579850108
 31
0.0
  0
LINE
  5
1CF
330
1F
100
AcDbEntity
  8
D-0
  6
Continuous
 62
     7
370
     9
100
AcDbLine
 10
-832.0565289744127
 20
-524.3066579850108
 30
0.0
 11
-832.0565289744127
 21
-525.8069402726085
 31
0.0
  0
LINE
  5
1D0
330
1F
100
AcDbEntity
  8
D-0
  6
Continuous
 62
     7
370
     9
100
AcDbLine
 10
-832.0565289744127
 20
-525.8069402726085
 30
0.0
 11
-833.55631296718
 21
-525.8069402726085
 31
0.0
  0
LINE
  5
1D1
330
1F
100
AcDbEntity
  8
D-0
  6
Continuous
 62
     7
370
     9
100
AcDbLine
 10
-762.5203361637136
 20
-364.3560147070332
 30
0.0
 11
-762.5203361637136
 21
-362.8557371878071
 31
0.0
  0
LINE
  5
1D2
330
1F
100
AcDbEntity
  8
D-0
  6
Continuous
 62
     7
370
     9
100
AcDbLine
 10
-762.5203361637136
 20
-362.8557371878071
 30
0.0
 11
-761.0200634128591
 21
-362.8557371878071
 31
0.0
  0
LINE
  5
1D3
330
1F
100
AcDbEntity
  8
D-0
  6
Continuous
 62
     7
370
     9
100
AcDbLine
 10
-761.0200634128591
 20
-362.8557371878071
 30
0.0
 11
-761.0200634128591
 21
-364.3560147070332
 31
0.0
  0
LINE
  5
1D4
330
1F
100
AcDbEntity
  8
D-0
  6
Continuous
 62
     7
370
     9
100
AcDbLine
 10
-761.0200634128591
 20
-364.3560147070332
 30
0.0
 11
-762.5203361637136
 21
-364.3560147070332
 31
0.0
  0
LINE
  5
1D5
330
1F
100
AcDbEntity
  8
D-0
  6
Continuous
 62
     7
370
     9
100
AcDbLine
 10
-712.0523915730155
 20
-361.9297612410298
 30
0.0
 11
-712.0523915730155
 21
-360.4294837218038
 31
0.0
  0
LINE
  5
1D6
330
1F
100
AcDbEntity
  8
D-0
  6
Continuous
 62
     7
370
     9
100
AcDbLine
 10
-712.0523915730155
 20
-360.4294837218038
 30
0.0
 11
-710.552118822161
 21
-360.4294837218038
 31
0.0
  0
LINE
  5
1D7
330
1F
100
AcDbEntity
  8
D-0
  6
Continuous
 62
     7
370
     9
100
AcDbLine
 10
-710.552118822161
 20
-360.4294837218038
 30
0.0
 11
-710.552118822161
 21
-361.9297612410298
 31
0.0
  0
LINE
  5
1D8
330
1F
100
AcDbEntity
  8
D-0
  6
Continuous
 62
     7
370
     9
100
AcDbLine
 10
-710.552118822161
 20
-361.9297612410298
 30
0.0
 11
-712.0523915730155
 21
-361.9297612410298
 31
0.0
  0
LINE
  5
1D9
330
1F
100
AcDbEntity
  8
D-0
  6
Continuous
 62
     7
370
     9
100
AcDbLine
 10
-695.1986325526082
 20
-387.4359299360356
 30
0.0
 11
-695.1986325526082
 21
-385.9356524168095
 31
0.0
  0
LINE
  5
1DA
330
1F
100
AcDbEntity
  8
D-0
  6
Continuous
 62
     7
370
     9
100
AcDbLine
 10
-695.1986325526082
 20
-385.9356524168095
 30
0.0
 11
-693.6983598017537
 21
-385.9356524168095
 31
0.0
  0
LINE
  5
1DB
330
1F
100
AcDbEntity
  8
D-0
  6
Continuous
 62
     7
370
     9
100
AcDbLine
 10
-693.6983598017537
 20
-385.9356524168095
 30
0.0
 11
-693.6983598017537
 21
-387.4359299360356
 31
0.0
  0
LINE
  5
1DC
330
1F
100
AcDbEntity
  8
D-0
  6
Continuous
 62
     7
370
     9
100
AcDbLine
 10
-693.6983598017537
 20
-387.4359299360356
 30
0.0
 11
-695.1986325526082
 21
-387.4359299360356
 31
0.0
  0
LINE
  5
1DD
330
1F
100
AcDbEntity
  8
D-0
  6
Continuous
 62
     7
370
     9
100
AcDbLine
 10
-665.9373273040865
 20
-320.7205548730497
 30
0.0
 11
-665.9373273040865
 21
-319.2202773538236
 31
0.0
  0
LINE
  5
1DE
330
1F
100
AcDbEntity
  8
D-0
  6
Continuous
 62
     7
370
     9
100
AcDbLine
 10
-665.9373273040865
 20
-319.2202773538236
 30
0.0
 11
-664.437054553232
 21
-319.2202773538236
 31
0.0
  0
LINE
  5
1DF
330
1F
100
AcDbEntity
  8
D-0
  6
Continuous
 62
     7
370
     9
100
AcDbLine
 10
-664.437054553232
 20
-319.2202773538236
 30
0.0
 11
-664.437054553232
 21
-320.7205548730497
 31
0.0
  0
LINE
  5
1E0
330
1F
100
AcDbEntity
  8
D-0
  6
Continuous
 62
     7
370
     9
100
AcDbLine
 10
-664.437054553232
 20
-320.7205548730497
 30
0.0
 11
-665.9373273040865
 21
-320.7205548730497
 31
0.0
  0
LINE
  5
1E1
330
1F
100
AcDbEntity
  8
D-0
  6
Continuous
 62
     7
370
     9
100
AcDbLine
 10
-649.0835682836791
 20
-346.2267235680577
 30
0.0
 11
-649.0835682836791
 21
-344.7264460488316
 31
0.0
  0
LINE
  5
1E2
330
1F
100
AcDbEntity
  8
D-0
  6
Continuous
 62
     7
370
     9
100
AcDbLine
 10
-649.0835682836791
 20
-344.7264460488316
 30
0.0
 11
-647.5832955328246
 21
-344.7264460488316
 31
0.0
  0
LINE
  5
1E3
330
1F
100
AcDbEntity
  8
D-0
  6
Continuous
 62
     7
370
     9
100
AcDbLine
 10
-647.5832955328246
 20
-344.7264460488316
 30
0.0
 11
-647.5832955328246
 21
-346.2267235680577
 31
0.0
  0
LINE
  5
1E4
330
1F
100
AcDbEntity
  8
D-0
  6
Continuous
 62
     7
370
     9
100
AcDbLine
 10
-647.5832955328246
 20
-346.2267235680577
 30
0.0
 11
-649.0835682836791
 21
-346.2267235680577
 31
0.0
  0
LINE
  5
1E5
330
1F
100
AcDbEntity
  8
D-0
  6
Continuous
 62
     7
370
     9
100
AcDbLine
 10
-599.8663742707731
 20
-393.9628695234512
 30
0.0
 11
-599.8663742707731
 21
-392.4625872358536
 31
0.0
  0
LINE
  5
1E6
330
1F
100
AcDbEntity
  8
D-0
  6
Continuous
 62
     7
370
     9
100
AcDbLine
 10
-599.8663742707731
 20
-392.4625872358536
 30
0.0
 11
-598.36658789382
 21
-392.4625872358536
 31
0.0
  0
LINE
  5
1E7
330
1F
100
AcDbEntity
  8
D-0
  6
Continuous
 62
     7
370
     9
100
AcDbLine
 10
-598.36658789382
 20
-392.4625872358536
 30
0.0
 11
-598.36658789382
 21
-393.9628695234512
 31
0.0
  0
LINE
  5
1E8
330
1F
100
AcDbEntity
  8
D-0
  6
Continuous
 62
     7
370
     9
100
AcDbLine
 10
-598.36658789382
 20
-393.9628695234512
 30
0.0
 11
-599.8663742707731
 21
-393.9628695234512
 31
0.0
  0
LINE
  5
1E9
330
1F
100
AcDbEntity
  8
D-5
  6
Continuous
 62
     7
370
     9
100
AcDbLine
 10
-919.875433173745
 20
-283.5773335761144
 30
0.0
 11
-906.0647365718773
 21
-262.7394025391652
 31
0.0
  0
LINE
  5
1EA
330
1F
100
AcDbEntity
  8
D-5
  6
Continuous
 62
     7
370
     9
100
AcDbLine
 10
-677.3764969417198
 20
-4.960018900501382
 30
0.0
 11
-919.875433173745
 21
-283.5773335761144
 31
0.0
  0
LINE
  5
1EB
330
1F
100
AcDbEntity
  8
D-5
  6
Continuous
 62
     7
370
     9
100
AcDbLine
 10
-919.875433173745
 20
-283.5773335761144
 30
0.0
 11
-901.1417576938561
 21
-267.0237218207433
 31
0.0
  0
TEXT
  5
1EC
330
1F
100
AcDbEntity
  8
D-5
  6
Continuous
 62
     7
370
     9
100
AcDbText
 10
-674.0640764881528
 20
83.9395192043912
 30
0.0
 40
22.86
  1
ステンレス製グレーチング
 41
1.152777777777778
  7
ＭＳ ゴシック
100
AcDbText
  0
LINE
  5
1ED
330
1F
100
AcDbEntity
  8
D-5
  6
Continuous
 62
     7
370
     9
100
AcDbLine
 10
-670.5497786165301
 20
-137.8038964576092
 30
0.0
 11
-215.9527149179712
 21
-137.8038964576092
 31
0.0
  0
TEXT
  5
1EE
330
1F
100
AcDbEntity
  8
D-5
  6
Continuous
 62
     7
370
     9
100
AcDbText
 10
-666.162385091616
 20
-128.8149281043403
 30
0.0
 40
22.86
  1
ステンレス製受枠ＲＬ－３８
 50
359.999936858693
 41
1.153846153846155
  7
ＭＳ ゴシック
100
AcDbText
  0
LINE
  5
1EF
330
1F
100
AcDbEntity
  8
D-5
  6
Continuous
 62
     7
370
     9
100
AcDbLine
 10
-670.5497786165301
 20
-137.8038964576092
 30
0.0
 11
-860.6391894643639
 21
-356.2056841999618
 31
0.0
  0
LINE
  5
1F0
330
1F
100
AcDbEntity
  8
D-5
  6
Continuous
 62
     7
370
     9
100
AcDbLine
 10
-860.6391894643639
 20
-356.2056841999618
 30
0.0
 11
-846.8284928624962
 21
-335.3677531630126
 31
0.0
  0
LINE
  5
1F1
330
1F
100
AcDbEntity
  8
D-5
  6
Continuous
 62
     7
370
     9
100
AcDbLine
 10
-860.6391894643639
 20
-356.2056841999618
 30
0.0
 11
-841.905513984475
 21
-339.6520724445907
 31
0.0
  0
TEXT
  5
1F2
330
1F
100
AcDbEntity
  8
D-4
  6
Continuous
 62
     2
370
     9
100
AcDbText
 10
-1001.889129859719
 20
-710.4903731828696
 30
0.0
 40
30.48
  1
25～30
 41
1.104166666666667
  7
ＭＳ ゴシック
100
AcDbText
  0
TEXT
  5
1F3
330
1F
100
AcDbEntity
  8
D-5
  6
Continuous
 62
     7
370
     9
100
AcDbText
 10
-675.6155899625401
 20
42.28138241716577
 30
0.0
 40
22.86
  1
プレーンタイプ　横断溝・側溝用
 41
1.155555555555555
  7
ＭＳ ゴシック
100
AcDbText
  0
LINE
  5
1F4
330
1F
100
AcDbEntity
  8
D-5
  6
Continuous
 62
     7
370
     9
100
AcDbLine
 10
-677.3764969417198
 20
-4.960018900501382
 30
0.0
 11
-159.7326939687719
 21
-4.960018900501382
 31
0.0
  0
TEXT
  5
1F5
330
1F
100
AcDbEntity
  8
D-4
  6
Continuous
 62
     2
370
     9
100
AcDbText
 10
-1575.399038097692
 20
-154.5173069515897
 30
0.0
 40
30.48
  1
350
 41
1.083333333333333
  7
ＭＳ ゴシック
100
AcDbText
  0
TEXT
  5
1F6
330
1F
100
AcDbEntity
  8
D-4
  6
Continuous
 62
     2
370
     9
100
AcDbText
 10
-1575.399038097692
 20
-45.76527794504408
 30
0.0
 40
30.48
  1
400
 41
1.083333333333333
  7
ＭＳ ゴシック
100
AcDbText
  0
TEXT
  5
1F7
330
1F
100
AcDbEntity
  8
D-4
  6
Continuous
 62
     2
370
     9
100
AcDbText
 10
-1575.399038097692
 20
62.98675106150178
 30
0.0
 40
30.48
  1
410
 41
1.083333333333333
  7
ＭＳ ゴシック
100
AcDbText
  0
LINE
  5
1F8
330
1F
100
AcDbEntity
  8
D-2
  6
Continuous
 62
     3
370
     9
100
AcDbLine
 10
-885.6397640531395
 20
-283.5773335761144
 30
0.0
 11
-885.6397640531395
 21
-473.5770665473058
 31
0.0
  0
LINE
  5
1F9
330
1F
100
AcDbEntity
  8
D-2
  6
Continuous
 62
     3
370
     9
100
AcDbLine
 10
-905.6394409959648
 20
-283.5773335761144
 30
0.0
 11
-905.6394409959648
 21
-473.5770665473058
 31
0.0
  0
LINE
  5
1FA
330
1F
100
AcDbEntity
  8
D-2
  6
Continuous
 62
     3
370
     9
100
AcDbLine
 10
-1583.307610732827
 20
-532.3817120856359
 30
0.0
 11
-1583.307610732827
 21
-244.8783956832006
 31
0.0
  0
LINE
  5
1FB
330
1F
100
AcDbEntity
  8
D-2
  6
Continuous
 62
     3
370
     9
100
AcDbLine
 10
-1583.307610732827
 20
-473.5770665473058
 30
0.0
 11
-885.6397640531395
 21
-473.5770665473058
 31
0.0
  0
LINE
  5
1FC
330
1F
100
AcDbEntity
  8
D-2
  6
Continuous
 62
     3
370
     9
100
AcDbLine
 10
-885.6397640531395
 20
-283.5773335761144
 30
0.0
 11
-1583.307610732827
 21
-283.5773335761144
 31
0.0
  0
LINE
  5
1FD
330
1F
100
AcDbEntity
  8
D-4
  6
Continuous
 62
     7
370
     9
100
AcDbLine
 10
-1643.709069473061
 20
-473.5770665473058
 30
0.0
 11
-1643.709069473061
 21
-283.5773335761144
 31
0.0
  0
LINE
  5
1FE
330
1F
100
AcDbEntity
  8
D-4
  6
Continuous
 62
     7
370
     9
100
AcDbLine
 10
-1588.657647353921
 20
-473.5770665473058
 30
0.0
 11
-1646.708871108804
 21
-473.5770665473058
 31
0.0
  0
LINE
  5
1FF
330
1F
100
AcDbEntity
  8
D-4
  6
Continuous
 62
     7
370
     9
100
AcDbLine
 10
-1588.657647353921
 20
-283.5773335761144
 30
0.0
 11
-1646.708871108804
 21
-283.5773335761144
 31
0.0
  0
LINE
  5
200
330
1F
100
AcDbEntity
  8
D-5
  6
Continuous
 62
     7
370
     9
100
AcDbLine
 10
-287.0734035795067
 20
-333.5768758124425
 30
0.0
 11
-287.0734035795067
 21
-283.5766336749032
 31
0.0
  0
LINE
  5
201
330
1F
100
AcDbEntity
  8
D-5
  6
Continuous
 62
     7
370
     9
100
AcDbLine
 10
-287.0734035795067
 20
-283.5766336749032
 30
0.0
 11
-62.07370875528795
 21
-283.5766336749032
 31
0.0
  0
LINE
  5
202
330
1F
100
AcDbEntity
  8
D-5
  6
Continuous
 62
     7
370
     9
100
AcDbLine
 10
-62.07370875528795
 20
-283.5766336749032
 30
0.0
 11
-62.07370875528795
 21
-333.5768758124425
 31
0.0
  0
LINE
  5
203
330
1F
100
AcDbEntity
  8
D-5
  6
Continuous
 62
     7
370
     9
100
AcDbLine
 10
-62.07370875528795
 20
-333.5768758124425
 30
0.0
 11
-287.0734035795067
 21
-333.5768758124425
 31
0.0
  0
LINE
  5
204
330
1F
100
AcDbEntity
  8
D-2
  6
Continuous
 62
     3
370
     9
100
AcDbLine
 10
-1373.139840347085
 20
-383.5771142310216
 30
0.0
 11
-1398.140336257729
 21
-383.5771142310216
 31
0.0
  0
LINE
  5
205
330
1F
100
AcDbEntity
  8
D-2
  6
Continuous
 62
     3
370
     9
100
AcDbLine
 10
-1393.139878494057
 20
-283.5773335761144
 30
0.0
 11
-1393.139878494057
 21
-383.5771142310216
 31
0.0
  0
LINE
  5
206
330
1F
100
AcDbEntity
  8
D-2
  6
Continuous
 62
     3
370
     9
100
AcDbLine
 10
-1378.140298110757
 20
-283.5773335761144
 30
0.0
 11
-1378.140298110757
 21
-383.5771142310216
 31
0.0
  0
LINE
  5
207
330
1F
100
AcDbEntity
  8
D-2
  6
Continuous
 62
     3
370
     9
100
AcDbLine
 10
-1438.140374404702
 20
-369.8268567389562
 30
0.0
 11
-1398.140336257729
 21
-383.5771142310216
 31
0.0
  0
LINE
  5
208
330
1F
100
AcDbEntity
  8
D-2
  6
Continuous
 62
     3
370
     9
100
AcDbLine
 10
-1438.140374404702
 20
-342.3277388876988
 30
0.0
 11
-1438.140374404702
 21
-369.8268567389562
 31
0.0
  0
LINE
  5
209
330
1F
100
AcDbEntity
  8
D-2
  6
Continuous
 62
     3
370
     9
100
AcDbLine
 10
-1373.139840347085
 20
-369.8268567389562
 30
0.0
 11
-1373.139840347085
 21
-383.5771142310216
 31
0.0
  0
LINE
  5
20A
330
1F
100
AcDbEntity
  8
D-2
  6
Continuous
 62
     3
370
     9
100
AcDbLine
 10
-1373.139840347085
 20
-369.8268567389562
 30
0.0
 11
-1333.139802200112
 21
-369.8268567389562
 31
0.0
  0
LINE
  5
20B
330
1F
100
AcDbEntity
  8
D-2
  6
Continuous
 62
     3
370
     9
100
AcDbLine
 10
-1333.139802200112
 20
-342.3277388876988
 30
0.0
 11
-1333.139802200112
 21
-369.8268567389562
 31
0.0
  0
LINE
  5
20C
330
1F
100
AcDbEntity
  8
D-2
  6
Continuous
 62
     3
370
     9
100
AcDbLine
 10
-1373.139840347085
 20
-328.5774813956334
 30
0.0
 11
-1333.139802200112
 21
-342.3277388876988
 31
0.0
  0
LINE
  5
20D
330
1F
100
AcDbEntity
  8
D-2
  6
Continuous
 62
     3
370
     9
100
AcDbLine
 10
-1398.140336257729
 20
-328.5774813956334
 30
0.0
 11
-1398.140336257729
 21
-342.3277388876988
 31
0.0
  0
LINE
  5
20E
330
1F
100
AcDbEntity
  8
D-2
  6
Continuous
 62
     3
370
     9
100
AcDbLine
 10
-1438.140374404702
 20
-342.3277388876988
 30
0.0
 11
-1398.140336257729
 21
-342.3277388876988
 31
0.0
  0
LINE
  5
20F
330
1F
100
AcDbEntity
  8
D-2
  6
Continuous
 62
     3
370
     9
100
AcDbLine
 10
-1393.139878494057
 20
-328.5774813956334
 30
0.0
 11
-1398.140336257729
 21
-328.5774813956334
 31
0.0
  0
LINE
  5
210
330
1F
100
AcDbEntity
  8
D-2
  6
Continuous
 62
     3
370
     9
100
AcDbLine
 10
-1373.139840347085
 20
-328.5774813956334
 30
0.0
 11
-1378.140298110757
 21
-328.5774813956334
 31
0.0
  0
LWPOLYLINE
  5
211
330
1F
100
AcDbEntity
  8
D-4
  6
Continuous
 62
     7
370
     9
100
AcDbPolyline
 90
        4
 70
     1
 43
2.0
 10
-1642.709069473061
 20
-283.5773335761144
 42
0.4142135623731
 10
-1643.709069473061
 20
-282.5773335761144
 42
0.4142135623731
 10
-1644.709069473061
 20
-283.5773335761144
 42
0.4142135623731
 10
-1643.709069473061
 20
-284.5773335761144
 42
0.4142135623731
  0
LWPOLYLINE
  5
212
330
1F
100
AcDbEntity
  8
D-4
  6
Continuous
 62
     7
370
     9
100
AcDbPolyline
 90
        4
 70
     1
 43
2.0
 10
-1642.709069473061
 20
-473.5770665473058
 42
0.4142135623731
 10
-1643.709069473061
 20
-472.5770665473058
 42
0.4142135623731
 10
-1644.709069473061
 20
-473.5770665473058
 42
0.4142135623731
 10
-1643.709069473061
 20
-474.5770665473058
 42
0.4142135623731
  0
TEXT
  5
213
330
1F
100
AcDbEntity
  8
D-5
  6
Continuous
 62
     2
370
     9
100
AcDbText
 10
-239.5735561673973
 20
-322.9367804450109
 30
0.0
 40
30.48
  1
仕　様
 41
1.083333333333333
  7
ＭＳ ゴシック
100
AcDbText
  0
TEXT
  5
214
330
1F
100
AcDbEntity
  8
D-4
  6
Continuous
 62
     2
370
     9
100
AcDbText
 10
-1654.348840591226
 20
-399.8270763305812
 30
0.0
 40
30.48
  1
38
 50
90.00000250447829
 41
1.062500000000001
  7
ＭＳ ゴシック
100
AcDbText
  0
TEXT
  5
215
330
1F
100
AcDbEntity
  8
D-5
  6
Continuous
 62
     7
370
     9
100
AcDbText
 10
-675.833389784757
 20
4.290423360683899
 30
0.0
 40
22.86
  1
ＳＭＧ１４０３８（Ｐ＝２２）
 41
1.154761904761905
  7
ＭＳ ゴシック
100
AcDbText
  0
TEXT
  5
216
330
1F
100
AcDbEntity
  8
F-5ﾚｲﾔ
  6
Continuous
 62
     2
370
     9
100
AcDbText
 10
-843.6539054269642
 20
-1326.096019326827
 30
0.0
 40
30.48
  1
ステンレス製グレーチング　プレーンタイプ　横断溝・側溝用　
 41
0.8991379310344826
  7
ＭＳ ゴシック
100
AcDbText
  0
TEXT
  5
217
330
1F
100
AcDbEntity
  8
F-5ﾚｲﾔ
  6
Continuous
 62
     2
370
     9
100
AcDbText
 10
-377.0510685475316
 20
-1370.56410443321
 30
0.0
 40
30.48
  1
ＳＭＧ　１４０３８（Ｐ＝２２）＋ＲＬ－３８
 41
0.8988095238095238
  7
ＭＳ ゴシック
100
AcDbText
  0
TEXT
  5
218
330
1F
100
AcDbEntity
  8
D-5
  6
Continuous
 62
     2
370
     9
100
AcDbText
 10
-125.2715604506837
 20
-835.0922780805354
 30
0.0
 40
30.48
  1
定尺：２０００
 50
359.9999083432448
 41
1.107142857142853
  7
ＭＳ ゴシック
100
AcDbText
  0
TEXT
  5
219
330
1F
100
AcDbEntity
  8
D-5
  6
Continuous
 62
     2
370
     9
100
AcDbText
 10
-125.2715694730614
 20
-780.0927739911727
 30
0.0
 40
30.48
  1
材質：ステンレス鋼板ｔ＝３．０（ＳＵＳ３０４）
 41
1.119565217391304
  7
ＭＳ ゴシック
100
AcDbText
  0
TEXT
  5
21A
330
1F
100
AcDbEntity
  8
D-5
  6
Continuous
 62
     2
370
     9
100
AcDbText
 10
-184.9834835355614
 20
-725.0927739911727
 30
0.0
 40
30.48
  1
ステンレス製受枠　ＲＬ－３８
 41
1.116071428571428
  7
ＭＳ ゴシック
100
AcDbText
  0
TEXT
  5
21B
330
1F
100
AcDbEntity
  8
D-5
  6
Continuous
 62
     2
370
     9
100
AcDbText
 10
-125.2715694730614
 20
-890.0928502851181
 30
0.0
 40
30.48
  1
施工場所の状況に合わせて、アンカーをプライヤー等で折り曲げてご使用ください。
 41
1.121710526315789
  7
ＭＳ ゴシック
100
AcDbText
  0
TEXT
  5
21C
330
1F
100
AcDbEntity
  8
D-5
  6
Continuous
 62
     2
370
     9
100
AcDbText
 10
-125.2716457670067
 20
-660.093193607872
 30
0.0
 40
30.48
  1
定尺：９９４
 41
1.104166666666667
  7
ＭＳ ゴシック
100
AcDbText
  0
TEXT
  5
21D
330
1F
100
AcDbEntity
  8
D-5
  6
Continuous
 62
     2
370
     9
100
AcDbText
 10
-125.2712642972801
 20
-550.093193607872
 30
0.0
 40
30.48
  1
　　　クロスバー　ＦＢ３×２０（ＳＵＳ３０４）
 41
1.119565217391304
  7
ＭＳ ゴシック
100
AcDbText
  0
TEXT
  5
21E
330
1F
100
AcDbEntity
  8
D-5
  6
Continuous
 62
     2
370
     9
100
AcDbText
 10
-125.2712642972801
 20
-495.0928693586044
 30
0.0
 40
30.48
  1
材質：メインバー　ＦＢ４×３８（ＳＵＳ３０４）
 41
1.119565217391304
  7
ＭＳ ゴシック
100
AcDbText
  0
TEXT
  5
21F
330
1F
100
AcDbEntity
  8
D-5
  6
Continuous
 62
     2
370
     9
100
AcDbText
 10
-125.2712642972801
 20
-605.093193607872
 30
0.0
 40
30.48
  1
　　　サイドバー　ＦＢ４×３８（ＳＵＳ３０４）
 41
1.119565217391304
  7
ＭＳ ゴシック
100
AcDbText
  0
TEXT
  5
220
330
1F
100
AcDbEntity
  8
D-5
  6
Continuous
 62
     2
370
     9
100
AcDbText
 10
-184.9833309476708
 20
-437.6645267489712
 30
0.0
 40
30.48
  1
ＳＭＧ　１４０３８（Ｐ＝２２）
 41
1.116666666666666
  7
ＭＳ ゴシック
100
AcDbText
  0
TEXT
  5
221
330
1F
100
AcDbEntity
  8
D-5
  6
Continuous
 62
     2
370
     9
100
AcDbText
 10
-184.9833309476708
 20
-385.8571982306554
 30
0.0
 40
30.48
  1
ステンレス製グレーチング　プレーンタイプ　横断溝・側溝用
 41
1.120535714285714
  7
ＭＳ ゴシック
100
AcDbText
  0
TEXT
  5
222
330
1F
100
AcDbEntity
  8
D-5
  6
Continuous
 62
     7
370
     9
100
AcDbText
 10
-603.0621013782047
 20
-253.1979571038994
 30
0.0
 40
22.86
  1
ｔ＝２．０（ＳＥＣＣ）
 41
1.151515151515152
  7
ＭＳ ゴシック
100
AcDbText
  0
LINE
  5
223
330
1F
100
AcDbEntity
  8
D-5
  6
Continuous
 62
     7
370
     9
100
AcDbLine
 10
-229.5061728395062
 20
-222.7689242822441
 30
0.0
 11
-608.9957429466676
 21
-222.7689242822441
 31
0.0
  0
LWPOLYLINE
  5
224
330
1F
100
AcDbEntity
  8
C-4
  6
Continuous
 62
     7
370
     9
100
AcDbPolyline
 90
        4
 70
     1
 43
2.0
 10
-521.1080470729518
 20
1134.379650510331
 42
0.4142135623731
 10
-522.1080470729519
 20
1135.379650510331
 42
0.4142135623731
 10
-523.1080470729519
 20
1134.379650510331
 42
0.4142135623731
 10
-522.1080470729519
 20
1133.379650510331
 42
0.4142135623731
  0
LWPOLYLINE
  5
225
330
1F
100
AcDbEntity
  8
C-4
  6
Continuous
 62
     7
370
     9
100
AcDbPolyline
 90
        4
 70
     1
 43
2.0
 10
-519.1077435467693
 20
1134.379650510331
 42
0.4142135623731
 10
-520.1077435467693
 20
1135.379650510331
 42
0.4142135623731
 10
-521.1077435467693
 20
1134.379650510331
 42
0.4142135623731
 10
-520.1077435467693
 20
1133.379650510331
 42
0.4142135623731
  0
LWPOLYLINE
  5
226
330
1F
100
AcDbEntity
  8
C-4
  6
Continuous
 62
     7
370
     9
100
AcDbPolyline
 90
        4
 70
     1
 43
2.0
 10
474.8922943940037
 20
1134.379650510331
 42
0.4142135623731
 10
473.8922943940037
 20
1135.379650510331
 42
0.4142135623731
 10
472.8922943940037
 20
1134.379650510331
 42
0.4142135623731
 10
473.8922943940037
 20
1133.379650510331
 42
0.4142135623731
  0
LWPOLYLINE
  5
227
330
1F
100
AcDbEntity
  8
C-4
  6
Continuous
 62
     7
370
     9
100
AcDbPolyline
 90
        4
 70
     1
 43
2.0
 10
476.8918556007183
 20
1134.379650510331
 42
0.4142135623731
 10
475.8918556007183
 20
1135.379650510331
 42
0.4142135623731
 10
474.8918556007183
 20
1134.379650510331
 42
0.4142135623731
 10
475.8918556007183
 20
1133.379650510331
 42
0.4142135623731
  0
LWPOLYLINE
  5
228
330
1F
100
AcDbEntity
  8
C-4
  6
Continuous
 62
     7
370
     9
100
AcDbPolyline
 90
        4
 70
     1
 43
2.0
 10
-519.1077435467693
 20
1214.379172126673
 42
0.4142135623731
 10
-520.1077435467693
 20
1215.379172126673
 42
0.4142135623731
 10
-521.1077435467693
 20
1214.379172126673
 42
0.4142135623731
 10
-520.1077435467693
 20
1213.379172126673
 42
0.4142135623731
  0
LWPOLYLINE
  5
229
330
1F
100
AcDbEntity
  8
C-4
  6
Continuous
 62
     7
370
     9
100
AcDbPolyline
 90
        4
 70
     1
 43
2.0
 10
476.8918556007183
 20
1214.379172126673
 42
0.4142135623731
 10
475.8918556007183
 20
1215.379172126673
 42
0.4142135623731
 10
474.8918556007183
 20
1214.379172126673
 42
0.4142135623731
 10
475.8918556007183
 20
1213.379172126673
 42
0.4142135623731
  0
LWPOLYLINE
  5
22A
330
1F
100
AcDbEntity
  8
C-4
  6
Continuous
 62
     7
370
     9
100
AcDbPolyline
 90
        4
 70
     1
 43
2.0
 10
340.8927430848818
 20
1072.379643911935
 42
0.4142135623731
 10
339.8927430848818
 20
1073.379643911935
 42
0.4142135623731
 10
338.8927430848818
 20
1072.379643911935
 42
0.4142135623731
 10
339.8927430848818
 20
1071.379643911935
 42
0.4142135623731
  0
LWPOLYLINE
  5
22B
330
1F
100
AcDbEntity
  8
C-4
  6
Continuous
 62
     7
370
     9
100
AcDbPolyline
 90
        4
 70
     1
 43
2.0
 10
362.8921228357266
 20
1072.379643911935
 42
0.4142135623731
 10
361.8921228357266
 20
1073.379643911935
 42
0.4142135623731
 10
360.8921228357266
 20
1072.379643911935
 42
0.4142135623731
 10
361.8921228357266
 20
1071.379643911935
 42
0.4142135623731
  0
LINE
  5
22C
330
1F
100
AcDbEntity
  8
C-2
  6
Continuous
 62
     3
370
     9
100
AcDbLine
 10
-520.1077435467693
 20
637.3789510804318
 30
0.0
 11
-520.1077435467693
 21
1037.378291240905
 31
0.0
  0
LINE
  5
22D
330
1F
100
AcDbEntity
  8
C-2
  6
Continuous
 62
     3
370
     9
100
AcDbLine
 10
-520.1077435467693
 20
1037.378291240905
 30
0.0
 11
473.8922943940037
 21
1037.378291240905
 31
0.0
  0
LINE
  5
22E
330
1F
100
AcDbEntity
  8
C-2
  6
Continuous
 62
     3
370
     9
100
AcDbLine
 10
473.8922943940037
 20
637.3789510804318
 30
0.0
 11
-520.1077435467693
 21
637.3789510804318
 31
0.0
  0
LINE
  5
22F
330
1F
100
AcDbEntity
  8
C-2
  6
Continuous
 62
     3
370
     9
100
AcDbLine
 10
473.8922943940037
 20
1037.378291240905
 30
0.0
 11
473.8922943940037
 21
637.3789510804318
 31
0.0
  0
LINE
  5
230
330
1F
100
AcDbEntity
  8
C-2
  6
Continuous
 62
     3
370
     9
100
AcDbLine
 10
-522.1080470729519
 20
1037.37878612055
 30
0.0
 11
-522.1080470729519
 21
637.3794459600771
 31
0.0
  0
LINE
  5
231
330
1F
100
AcDbEntity
  8
C-2
  6
Continuous
 62
     3
370
     9
100
AcDbLine
 10
475.8918556007183
 20
1037.379775879841
 30
0.0
 11
475.8918556007183
 21
637.3794459600771
 31
0.0
  0
LINE
  5
232
330
1F
100
AcDbEntity
  8
C-2
  6
Continuous
 62
     3
370
     9
100
AcDbLine
 10
-522.1080470729519
 20
1037.37878612055
 30
0.0
 11
-671.1077715899492
 21
1037.37878612055
 31
0.0
  0
LINE
  5
233
330
1F
100
AcDbEntity
  8
C-2
  6
Continuous
 62
     3
370
     9
100
AcDbLine
 10
-522.1080470729519
 20
637.3794459600771
 30
0.0
 11
-671.1077715899492
 21
637.3794459600771
 31
0.0
  0
LINE
  5
234
330
1F
100
AcDbEntity
  8
C-2
  6
Continuous
 62
     3
370
     9
100
AcDbLine
 10
633.8913376266896
 20
1037.379775879841
 30
0.0
 11
475.8918556007183
 21
1037.379775879841
 31
0.0
  0
LINE
  5
235
330
1F
100
AcDbEntity
  8
C-2
  6
Continuous
 62
     3
370
     9
100
AcDbLine
 10
633.8913376266896
 20
637.3794459600771
 30
0.0
 11
475.8918556007183
 21
637.3794459600771
 31
0.0
  0
LINE
  5
236
330
1F
100
AcDbEntity
  8
C-1
  6
JWW_DASHED3
 62
     2
370
     9
100
AcDbLine
 10
633.8913376266896
 20
662.3797758798406
 30
0.0
 11
-671.1077715899492
 21
662.3792810001953
 31
0.0
  0
LINE
  5
237
330
1F
100
AcDbEntity
  8
C-1
  6
JWW_DASHED3
 62
     2
370
     9
100
AcDbLine
 10
633.8913376266896
 20
1012.379445960077
 30
0.0
 11
-671.1077715899492
 21
1012.379445960077
 31
0.0
  0
LINE
  5
238
330
1F
100
AcDbEntity
  8
C-1
  6
Continuous
 62
     2
370
     9
100
AcDbLine
 10
633.8913376266896
 20
1039.379584526378
 30
0.0
 11
-671.1077715899492
 21
1039.379584526378
 31
0.0
  0
LINE
  5
239
330
1F
100
AcDbEntity
  8
C-1
  6
Continuous
 62
     2
370
     9
100
AcDbLine
 10
633.8913376266896
 20
1042.380039815651
 30
0.0
 11
-671.1077715899492
 21
1042.380039815651
 31
0.0
  0
LINE
  5
23A
330
1F
100
AcDbEntity
  8
C-1
  6
Continuous
 62
     2
370
     9
100
AcDbLine
 10
633.8913376266896
 20
635.379761033451
 30
0.0
 11
-671.1077715899492
 21
635.3792661538059
 31
0.0
  0
LINE
  5
23B
330
1F
100
AcDbEntity
  8
C-1
  6
Continuous
 62
     2
370
     9
100
AcDbLine
 10
633.8913376266896
 20
632.3796769039114
 30
0.0
 11
-671.1077715899492
 21
632.3791820242661
 31
0.0
  0
LINE
  5
23C
330
1F
100
AcDbEntity
  8
C-2
  6
Continuous
 62
     3
370
     9
100
AcDbLine
 10
-691.1074664141679
 20
822.3793139921715
 30
0.0
 11
-651.1072107263512
 21
852.3799078477458
 31
0.0
  0
LINE
  5
23D
330
1F
100
AcDbEntity
  8
C-2
  6
Continuous
 62
     3
370
     9
100
AcDbLine
 10
-691.1074664141679
 20
822.3793139921715
 30
0.0
 11
-671.1077715899492
 21
822.3793139921715
 31
0.0
  0
LINE
  5
23E
330
1F
100
AcDbEntity
  8
C-2
  6
Continuous
 62
     3
370
     9
100
AcDbLine
 10
-671.1077715899492
 20
852.3799078477458
 30
0.0
 11
-651.1072107263512
 21
852.3799078477458
 31
0.0
  0
LINE
  5
23F
330
1F
100
AcDbEntity
  8
C-2
  6
Continuous
 62
     3
370
     9
100
AcDbLine
 10
-671.1077715899492
 20
822.3793139921715
 30
0.0
 11
-671.1077715899492
 21
617.3793799761243
 31
0.0
  0
LINE
  5
240
330
1F
100
AcDbEntity
  8
C-2
  6
Continuous
 62
     3
370
     9
100
AcDbLine
 10
-671.1077715899492
 20
1057.379841863793
 30
0.0
 11
-671.1077715899492
 21
852.3799078477458
 31
0.0
  0
LINE
  5
241
330
1F
100
AcDbEntity
  8
C-2
  6
Continuous
 62
     3
370
     9
100
AcDbLine
 10
613.8917665223818
 20
822.3793139921715
 30
0.0
 11
653.8921459301099
 21
852.3799078477458
 31
0.0
  0
LINE
  5
242
330
1F
100
AcDbEntity
  8
C-2
  6
Continuous
 62
     3
370
     9
100
AcDbLine
 10
613.8917665223818
 20
822.3793139921715
 30
0.0
 11
633.8913376266896
 21
822.3793139921715
 31
0.0
  0
LINE
  5
243
330
1F
100
AcDbEntity
  8
C-2
  6
Continuous
 62
     3
370
     9
100
AcDbLine
 10
633.8913376266896
 20
852.3799078477458
 30
0.0
 11
653.8921459301099
 21
852.3799078477458
 31
0.0
  0
LINE
  5
244
330
1F
100
AcDbEntity
  8
C-2
  6
Continuous
 62
     3
370
     9
100
AcDbLine
 10
633.8913376266896
 20
822.3793139921715
 30
0.0
 11
633.8913376266896
 21
617.3793799761243
 31
0.0
  0
LINE
  5
245
330
1F
100
AcDbEntity
  8
C-2
  6
Continuous
 62
     3
370
     9
100
AcDbLine
 10
633.8913376266896
 20
1057.379841863793
 30
0.0
 11
633.8913376266896
 21
852.3799078477458
 31
0.0
  0
LINE
  5
246
330
1F
100
AcDbEntity
  8
C-4
  6
Continuous
 62
     7
370
     9
100
AcDbLine
 10
-522.1080470729519
 20
1054.379386574519
 30
0.0
 11
-522.1080470729519
 21
1137.379363480136
 31
0.0
  0
LINE
  5
247
330
1F
100
AcDbEntity
  8
C-4
  6
Continuous
 62
     7
370
     9
100
AcDbLine
 10
-520.1077435467693
 20
1054.379386574519
 30
0.0
 11
-520.1077435467693
 21
1217.379627415947
 31
0.0
  0
LINE
  5
248
330
1F
100
AcDbEntity
  8
C-4
  6
Continuous
 62
     7
370
     9
100
AcDbLine
 10
473.8922943940037
 20
1054.379386574519
 30
0.0
 11
473.8922943940037
 21
1137.379363480136
 31
0.0
  0
LINE
  5
249
330
1F
100
AcDbEntity
  8
C-4
  6
Continuous
 62
     7
370
     9
100
AcDbLine
 10
475.8918556007183
 20
1054.379386574519
 30
0.0
 11
475.8918556007183
 21
1217.379627415947
 31
0.0
  0
LINE
  5
24A
330
1F
100
AcDbEntity
  8
C-4
  6
Continuous
 62
     7
370
     9
100
AcDbLine
 10
-671.1077715899492
 20
1214.379172126673
 30
0.0
 11
633.8913376266896
 21
1214.379172126673
 31
0.0
  0
LINE
  5
24B
330
1F
100
AcDbEntity
  8
C-4
  6
Continuous
 62
     7
370
     9
100
AcDbLine
 10
-671.1077715899492
 20
1134.379650510331
 30
0.0
 11
633.8913376266896
 21
1134.379650510331
 31
0.0
  0
LINE
  5
24C
330
1F
100
AcDbEntity
  8
C-2
  6
Continuous
 62
     3
370
     9
100
AcDbLine
 10
-520.108362146326
 20
1033.378921387653
 30
0.0
 11
473.8922943940037
 21
1033.378921387653
 31
0.0
  0
LINE
  5
24D
330
1F
100
AcDbEntity
  8
C-2
  6
Continuous
 62
     3
370
     9
100
AcDbLine
 10
473.8922943940037
 20
641.3788158133286
 30
0.0
 11
-520.108362146326
 21
641.3788158133286
 31
0.0
  0
LINE
  5
24E
330
1F
100
AcDbEntity
  8
C-2
  6
Continuous
 62
     3
370
     9
100
AcDbLine
 10
-516.1078788138724
 20
641.3788158133286
 30
0.0
 11
-516.1078788138724
 21
1033.378921387653
 31
0.0
  0
LINE
  5
24F
330
1F
100
AcDbEntity
  8
C-2
  6
Continuous
 62
     3
370
     9
100
AcDbLine
 10
-494.1081279032937
 20
641.3788158133286
 30
0.0
 11
-494.1081279032937
 21
1033.378921387653
 31
0.0
  0
LINE
  5
250
330
1F
100
AcDbEntity
  8
C-2
  6
Continuous
 62
     3
370
     9
100
AcDbLine
 10
-498.1079926361909
 20
641.3788158133286
 30
0.0
 11
-498.1079926361909
 21
1033.378921387653
 31
0.0
  0
LINE
  5
251
330
1F
100
AcDbEntity
  8
C-2
  6
Continuous
 62
     3
370
     9
100
AcDbLine
 10
-516.1078788138724
 20
935.8789708756174
 30
0.0
 11
-498.1079926361909
 21
935.8789708756174
 31
0.0
  0
LINE
  5
252
330
1F
100
AcDbEntity
  8
C-2
  6
Continuous
 62
     3
370
     9
100
AcDbLine
 10
-516.1078788138724
 20
938.8786838454232
 30
0.0
 11
-498.1079926361909
 21
938.8786838454232
 31
0.0
  0
LINE
  5
253
330
1F
100
AcDbEntity
  8
C-2
  6
Continuous
 62
     3
370
     9
100
AcDbLine
 10
-516.1078788138724
 20
838.8790962451276
 30
0.0
 11
-498.1079926361909
 21
838.8790962451276
 31
0.0
  0
LINE
  5
254
330
1F
100
AcDbEntity
  8
C-2
  6
Continuous
 62
     3
370
     9
100
AcDbLine
 10
-516.1078788138724
 20
835.8791358354993
 30
0.0
 11
-498.1079926361909
 21
835.8791358354993
 31
0.0
  0
LINE
  5
255
330
1F
100
AcDbEntity
  8
C-2
  6
Continuous
 62
     3
370
     9
100
AcDbLine
 10
469.8921822212839
 20
641.3788158133286
 30
0.0
 11
469.8921822212839
 21
1033.378921387653
 31
0.0
  0
LINE
  5
256
330
1F
100
AcDbEntity
  8
C-2
  6
Continuous
 62
     3
370
     9
100
AcDbLine
 10
-472.1082532728039
 20
641.3788158133286
 30
0.0
 11
-472.1082532728039
 21
1033.378921387653
 31
0.0
  0
LINE
  5
257
330
1F
100
AcDbEntity
  8
C-2
  6
Continuous
 62
     3
370
     9
100
AcDbLine
 10
-476.1076231260557
 20
641.3788158133286
 30
0.0
 11
-476.1076231260557
 21
1033.378921387653
 31
0.0
  0
LINE
  5
258
330
1F
100
AcDbEntity
  8
C-2
  6
Continuous
 62
     3
370
     9
100
AcDbLine
 10
-494.1081279032937
 20
935.8789708756174
 30
0.0
 11
-476.1076231260557
 21
935.8789708756174
 31
0.0
  0
LINE
  5
259
330
1F
100
AcDbEntity
  8
C-2
  6
Continuous
 62
     3
370
     9
100
AcDbLine
 10
-494.1081279032937
 20
938.8786838454232
 30
0.0
 11
-476.1076231260557
 21
938.8786838454232
 31
0.0
  0
LINE
  5
25A
330
1F
100
AcDbEntity
  8
C-2
  6
Continuous
 62
     3
370
     9
100
AcDbLine
 10
-494.1081279032937
 20
838.8790962451276
 30
0.0
 11
-476.1076231260557
 21
838.8790962451276
 31
0.0
  0
LINE
  5
25B
330
1F
100
AcDbEntity
  8
C-2
  6
Continuous
 62
     3
370
     9
100
AcDbLine
 10
-494.1081279032937
 20
835.8791358354993
 30
0.0
 11
-476.1076231260557
 21
835.8791358354993
 31
0.0
  0
LINE
  5
25C
330
1F
100
AcDbEntity
  8
C-2
  6
Continuous
 62
     3
370
     9
100
AcDbLine
 10
-450.1080074825802
 20
641.3788158133286
 30
0.0
 11
-450.1080074825802
 21
1033.378921387653
 31
0.0
  0
LINE
  5
25D
330
1F
100
AcDbEntity
  8
C-2
  6
Continuous
 62
     3
370
     9
100
AcDbLine
 10
-454.1078722154771
 20
641.3788158133286
 30
0.0
 11
-454.1078722154771
 21
1033.378921387653
 31
0.0
  0
LINE
  5
25E
330
1F
100
AcDbEntity
  8
C-2
  6
Continuous
 62
     3
370
     9
100
AcDbLine
 10
-472.1082532728039
 20
935.8789708756174
 30
0.0
 11
-454.1078722154771
 21
935.8789708756174
 31
0.0
  0
LINE
  5
25F
330
1F
100
AcDbEntity
  8
C-2
  6
Continuous
 62
     3
370
     9
100
AcDbLine
 10
-472.1082532728039
 20
938.8786838454232
 30
0.0
 11
-454.1078722154771
 21
938.8786838454232
 31
0.0
  0
LINE
  5
260
330
1F
100
AcDbEntity
  8
C-2
  6
Continuous
 62
     3
370
     9
100
AcDbLine
 10
-472.1082532728039
 20
838.8790962451276
 30
0.0
 11
-454.1078722154771
 21
838.8790962451276
 31
0.0
  0
LINE
  5
261
330
1F
100
AcDbEntity
  8
C-2
  6
Continuous
 62
     3
370
     9
100
AcDbLine
 10
-472.1082532728039
 20
835.8791358354993
 30
0.0
 11
-454.1078722154771
 21
835.8791358354993
 31
0.0
  0
LINE
  5
262
330
1F
100
AcDbEntity
  8
C-2
  6
Continuous
 62
     3
370
     9
100
AcDbLine
 10
-428.1081328520904
 20
641.3788158133286
 30
0.0
 11
-428.1081328520904
 21
1033.378921387653
 31
0.0
  0
LINE
  5
263
330
1F
100
AcDbEntity
  8
C-2
  6
Continuous
 62
     3
370
     9
100
AcDbLine
 10
-432.1081213048984
 20
641.3788158133286
 30
0.0
 11
-432.1081213048984
 21
1033.378921387653
 31
0.0
  0
LINE
  5
264
330
1F
100
AcDbEntity
  8
C-2
  6
Continuous
 62
     3
370
     9
100
AcDbLine
 10
-450.1085023622255
 20
935.8789708756174
 30
0.0
 11
-432.1081213048984
 21
935.8789708756174
 31
0.0
  0
LINE
  5
265
330
1F
100
AcDbEntity
  8
C-2
  6
Continuous
 62
     3
370
     9
100
AcDbLine
 10
-450.1085023622255
 20
938.8786838454232
 30
0.0
 11
-432.1081213048984
 21
938.8786838454232
 31
0.0
  0
LINE
  5
266
330
1F
100
AcDbEntity
  8
C-2
  6
Continuous
 62
     3
370
     9
100
AcDbLine
 10
-450.1085023622255
 20
838.8790962451276
 30
0.0
 11
-432.1081213048984
 21
838.8790962451276
 31
0.0
  0
LINE
  5
267
330
1F
100
AcDbEntity
  8
C-2
  6
Continuous
 62
     3
370
     9
100
AcDbLine
 10
-450.1085023622255
 20
835.8791358354993
 30
0.0
 11
-432.1081213048984
 21
835.8791358354993
 31
0.0
  0
LINE
  5
268
330
1F
100
AcDbEntity
  8
C-2
  6
Continuous
 62
     3
370
     9
100
AcDbLine
 10
-406.1083819415117
 20
641.3788158133286
 30
0.0
 11
-406.1083819415117
 21
1033.378921387653
 31
0.0
  0
LINE
  5
269
330
1F
100
AcDbEntity
  8
C-2
  6
Continuous
 62
     3
370
     9
100
AcDbLine
 10
-410.1082466744086
 20
641.3788158133286
 30
0.0
 11
-410.1082466744086
 21
1033.378921387653
 31
0.0
  0
LINE
  5
26A
330
1F
100
AcDbEntity
  8
C-2
  6
Continuous
 62
     3
370
     9
100
AcDbLine
 10
-428.1081328520904
 20
935.8789708756174
 30
0.0
 11
-410.1082466744086
 21
935.8789708756174
 31
0.0
  0
LINE
  5
26B
330
1F
100
AcDbEntity
  8
C-2
  6
Continuous
 62
     3
370
     9
100
AcDbLine
 10
-428.1081328520904
 20
938.8786838454232
 30
0.0
 11
-410.1082466744086
 21
938.8786838454232
 31
0.0
  0
LINE
  5
26C
330
1F
100
AcDbEntity
  8
C-2
  6
Continuous
 62
     3
370
     9
100
AcDbLine
 10
-428.1081328520904
 20
838.8790962451276
 30
0.0
 11
-410.1082466744086
 21
838.8790962451276
 31
0.0
  0
LINE
  5
26D
330
1F
100
AcDbEntity
  8
C-2
  6
Continuous
 62
     3
370
     9
100
AcDbLine
 10
-428.1081328520904
 20
835.8791358354993
 30
0.0
 11
-410.1082466744086
 21
835.8791358354993
 31
0.0
  0
LINE
  5
26E
330
1F
100
AcDbEntity
  8
C-2
  6
Continuous
 62
     3
370
     9
100
AcDbLine
 10
-384.1080124313766
 20
641.3788158133286
 30
0.0
 11
-384.1080124313766
 21
1033.378921387653
 31
0.0
  0
LINE
  5
26F
330
1F
100
AcDbEntity
  8
C-2
  6
Continuous
 62
     3
370
     9
100
AcDbLine
 10
-388.1080008841849
 20
641.3788158133286
 30
0.0
 11
-388.1080008841849
 21
1033.378921387653
 31
0.0
  0
LINE
  5
270
330
1F
100
AcDbEntity
  8
C-2
  6
Continuous
 62
     3
370
     9
100
AcDbLine
 10
-406.1083819415117
 20
935.8789708756174
 30
0.0
 11
-388.1080008841849
 21
935.8789708756174
 31
0.0
  0
LINE
  5
271
330
1F
100
AcDbEntity
  8
C-2
  6
Continuous
 62
     3
370
     9
100
AcDbLine
 10
-406.1083819415117
 20
938.8786838454232
 30
0.0
 11
-388.1080008841849
 21
938.8786838454232
 31
0.0
  0
LINE
  5
272
330
1F
100
AcDbEntity
  8
C-2
  6
Continuous
 62
     3
370
     9
100
AcDbLine
 10
-406.1083819415117
 20
838.8790962451276
 30
0.0
 11
-388.1080008841849
 21
838.8790962451276
 31
0.0
  0
LINE
  5
273
330
1F
100
AcDbEntity
  8
C-2
  6
Continuous
 62
     3
370
     9
100
AcDbLine
 10
-406.1083819415117
 20
835.8791358354993
 30
0.0
 11
-388.1080008841849
 21
835.8791358354993
 31
0.0
  0
LINE
  5
274
330
1F
100
AcDbEntity
  8
C-2
  6
Continuous
 62
     3
370
     9
100
AcDbLine
 10
-362.1082615207982
 20
641.3788158133286
 30
0.0
 11
-362.1082615207982
 21
1033.378921387653
 31
0.0
  0
LINE
  5
275
330
1F
100
AcDbEntity
  8
C-2
  6
Continuous
 62
     3
370
     9
100
AcDbLine
 10
-366.1076313740497
 20
641.3788158133286
 30
0.0
 11
-366.1076313740497
 21
1033.378921387653
 31
0.0
  0
LINE
  5
276
330
1F
100
AcDbEntity
  8
C-2
  6
Continuous
 62
     3
370
     9
100
AcDbLine
 10
-384.1080124313766
 20
935.8789708756174
 30
0.0
 11
-366.1076313740497
 21
935.8789708756174
 31
0.0
  0
LINE
  5
277
330
1F
100
AcDbEntity
  8
C-2
  6
Continuous
 62
     3
370
     9
100
AcDbLine
 10
-384.1080124313766
 20
938.8786838454232
 30
0.0
 11
-366.1076313740497
 21
938.8786838454232
 31
0.0
  0
LINE
  5
278
330
1F
100
AcDbEntity
  8
C-2
  6
Continuous
 62
     3
370
     9
100
AcDbLine
 10
-384.1080124313766
 20
838.8790962451276
 30
0.0
 11
-366.1076313740497
 21
838.8790962451276
 31
0.0
  0
LINE
  5
279
330
1F
100
AcDbEntity
  8
C-2
  6
Continuous
 62
     3
370
     9
100
AcDbLine
 10
-384.1080124313766
 20
835.8791358354993
 30
0.0
 11
-366.1076313740497
 21
835.8791358354993
 31
0.0
  0
LINE
  5
27A
330
1F
100
AcDbEntity
  8
C-2
  6
Continuous
 62
     3
370
     9
100
AcDbLine
 10
-340.1080157305742
 20
641.3788158133286
 30
0.0
 11
-340.1080157305742
 21
1033.378921387653
 31
0.0
  0
LINE
  5
27B
330
1F
100
AcDbEntity
  8
C-2
  6
Continuous
 62
     3
370
     9
100
AcDbLine
 10
-344.1078804634711
 20
641.3788158133286
 30
0.0
 11
-344.1078804634711
 21
1033.378921387653
 31
0.0
  0
LINE
  5
27C
330
1F
100
AcDbEntity
  8
C-2
  6
Continuous
 62
     3
370
     9
100
AcDbLine
 10
-362.1082615207982
 20
935.8789708756174
 30
0.0
 11
-344.1078804634711
 21
935.8789708756174
 31
0.0
  0
LINE
  5
27D
330
1F
100
AcDbEntity
  8
C-2
  6
Continuous
 62
     3
370
     9
100
AcDbLine
 10
-362.1082615207982
 20
938.8786838454232
 30
0.0
 11
-344.1078804634711
 21
938.8786838454232
 31
0.0
  0
LINE
  5
27E
330
1F
100
AcDbEntity
  8
C-2
  6
Continuous
 62
     3
370
     9
100
AcDbLine
 10
-362.1082615207982
 20
838.8790962451276
 30
0.0
 11
-344.1078804634711
 21
838.8790962451276
 31
0.0
  0
LINE
  5
27F
330
1F
100
AcDbEntity
  8
C-2
  6
Continuous
 62
     3
370
     9
100
AcDbLine
 10
-362.1082615207982
 20
835.8791358354993
 30
0.0
 11
-344.1078804634711
 21
835.8791358354993
 31
0.0
  0
LINE
  5
280
330
1F
100
AcDbEntity
  8
C-2
  6
Continuous
 62
     3
370
     9
100
AcDbLine
 10
-318.1081411000844
 20
641.3788158133286
 30
0.0
 11
-318.1081411000844
 21
1033.378921387653
 31
0.0
  0
LINE
  5
281
330
1F
100
AcDbEntity
  8
C-2
  6
Continuous
 62
     3
370
     9
100
AcDbLine
 10
-322.1081295528927
 20
641.3788158133286
 30
0.0
 11
-322.1081295528927
 21
1033.378921387653
 31
0.0
  0
LINE
  5
282
330
1F
100
AcDbEntity
  8
C-2
  6
Continuous
 62
     3
370
     9
100
AcDbLine
 10
-340.1085106102195
 20
935.8789708756174
 30
0.0
 11
-322.1081295528927
 21
935.8789708756174
 31
0.0
  0
LINE
  5
283
330
1F
100
AcDbEntity
  8
C-2
  6
Continuous
 62
     3
370
     9
100
AcDbLine
 10
-340.1085106102195
 20
938.8786838454232
 30
0.0
 11
-322.1081295528927
 21
938.8786838454232
 31
0.0
  0
LINE
  5
284
330
1F
100
AcDbEntity
  8
C-2
  6
Continuous
 62
     3
370
     9
100
AcDbLine
 10
-340.1085106102195
 20
838.8790962451276
 30
0.0
 11
-322.1081295528927
 21
838.8790962451276
 31
0.0
  0
LINE
  5
285
330
1F
100
AcDbEntity
  8
C-2
  6
Continuous
 62
     3
370
     9
100
AcDbLine
 10
-340.1085106102195
 20
835.8791358354993
 30
0.0
 11
-322.1081295528927
 21
835.8791358354993
 31
0.0
  0
LINE
  5
286
330
1F
100
AcDbEntity
  8
C-2
  6
Continuous
 62
     3
370
     9
100
AcDbLine
 10
-296.1078953098607
 20
641.3788158133286
 30
0.0
 11
-296.1078953098607
 21
1033.378921387653
 31
0.0
  0
LINE
  5
287
330
1F
100
AcDbEntity
  8
C-2
  6
Continuous
 62
     3
370
     9
100
AcDbLine
 10
-300.1082549224029
 20
641.3788158133286
 30
0.0
 11
-300.1082549224029
 21
1033.378921387653
 31
0.0
  0
LINE
  5
288
330
1F
100
AcDbEntity
  8
C-2
  6
Continuous
 62
     3
370
     9
100
AcDbLine
 10
-318.1081411000844
 20
935.8789708756174
 30
0.0
 11
-300.1082549224029
 21
935.8789708756174
 31
0.0
  0
LINE
  5
289
330
1F
100
AcDbEntity
  8
C-2
  6
Continuous
 62
     3
370
     9
100
AcDbLine
 10
-318.1081411000844
 20
938.8786838454232
 30
0.0
 11
-300.1082549224029
 21
938.8786838454232
 31
0.0
  0
LINE
  5
28A
330
1F
100
AcDbEntity
  8
C-2
  6
Continuous
 62
     3
370
     9
100
AcDbLine
 10
-318.1081411000844
 20
838.8790962451276
 30
0.0
 11
-300.1082549224029
 21
838.8790962451276
 31
0.0
  0
LINE
  5
28B
330
1F
100
AcDbEntity
  8
C-2
  6
Continuous
 62
     3
370
     9
100
AcDbLine
 10
-318.1081411000844
 20
835.8791358354993
 30
0.0
 11
-300.1082549224029
 21
835.8791358354993
 31
0.0
  0
LINE
  5
28C
330
1F
100
AcDbEntity
  8
C-2
  6
Continuous
 62
     3
370
     9
100
AcDbLine
 10
-274.1080206793706
 20
641.3788158133286
 30
0.0
 11
-274.1080206793706
 21
1033.378921387653
 31
0.0
  0
LINE
  5
28D
330
1F
100
AcDbEntity
  8
C-2
  6
Continuous
 62
     3
370
     9
100
AcDbLine
 10
-278.1080091321789
 20
641.3788158133286
 30
0.0
 11
-278.1080091321789
 21
1033.378921387653
 31
0.0
  0
LINE
  5
28E
330
1F
100
AcDbEntity
  8
C-2
  6
Continuous
 62
     3
370
     9
100
AcDbLine
 10
-296.1078953098607
 20
935.8789708756174
 30
0.0
 11
-278.1080091321789
 21
935.8789708756174
 31
0.0
  0
LINE
  5
28F
330
1F
100
AcDbEntity
  8
C-2
  6
Continuous
 62
     3
370
     9
100
AcDbLine
 10
-296.1078953098607
 20
938.8786838454232
 30
0.0
 11
-278.1080091321789
 21
938.8786838454232
 31
0.0
  0
LINE
  5
290
330
1F
100
AcDbEntity
  8
C-2
  6
Continuous
 62
     3
370
     9
100
AcDbLine
 10
-296.1078953098607
 20
838.8790962451276
 30
0.0
 11
-278.1080091321789
 21
838.8790962451276
 31
0.0
  0
LINE
  5
291
330
1F
100
AcDbEntity
  8
C-2
  6
Continuous
 62
     3
370
     9
100
AcDbLine
 10
-296.1078953098607
 20
835.8791358354993
 30
0.0
 11
-278.1080091321789
 21
835.8791358354993
 31
0.0
  0
LINE
  5
292
330
1F
100
AcDbEntity
  8
C-2
  6
Continuous
 62
     3
370
     9
100
AcDbLine
 10
-252.1082697687922
 20
641.3788158133286
 30
0.0
 11
-252.1082697687922
 21
1033.378921387653
 31
0.0
  0
LINE
  5
293
330
1F
100
AcDbEntity
  8
C-2
  6
Continuous
 62
     3
370
     9
100
AcDbLine
 10
-256.1076396220437
 20
641.3788158133286
 30
0.0
 11
-256.1076396220437
 21
1033.378921387653
 31
0.0
  0
LINE
  5
294
330
1F
100
AcDbEntity
  8
C-2
  6
Continuous
 62
     3
370
     9
100
AcDbLine
 10
-274.1080206793706
 20
935.8789708756174
 30
0.0
 11
-256.1076396220437
 21
935.8789708756174
 31
0.0
  0
LINE
  5
295
330
1F
100
AcDbEntity
  8
C-2
  6
Continuous
 62
     3
370
     9
100
AcDbLine
 10
-274.1080206793706
 20
938.8786838454232
 30
0.0
 11
-256.1076396220437
 21
938.8786838454232
 31
0.0
  0
LINE
  5
296
330
1F
100
AcDbEntity
  8
C-2
  6
Continuous
 62
     3
370
     9
100
AcDbLine
 10
-274.1080206793706
 20
838.8790962451276
 30
0.0
 11
-256.1076396220437
 21
838.8790962451276
 31
0.0
  0
LINE
  5
297
330
1F
100
AcDbEntity
  8
C-2
  6
Continuous
 62
     3
370
     9
100
AcDbLine
 10
-274.1080206793706
 20
835.8791358354993
 30
0.0
 11
-256.1076396220437
 21
835.8791358354993
 31
0.0
  0
LINE
  5
298
330
1F
100
AcDbEntity
  8
C-2
  6
Continuous
 62
     3
370
     9
100
AcDbLine
 10
-230.107900258657
 20
641.3788158133286
 30
0.0
 11
-230.107900258657
 21
1033.378921387653
 31
0.0
  0
LINE
  5
299
330
1F
100
AcDbEntity
  8
C-2
  6
Continuous
 62
     3
370
     9
100
AcDbLine
 10
-234.1078887114654
 20
641.3788158133286
 30
0.0
 11
-234.1078887114654
 21
1033.378921387653
 31
0.0
  0
LINE
  5
29A
330
1F
100
AcDbEntity
  8
C-2
  6
Continuous
 62
     3
370
     9
100
AcDbLine
 10
-252.1082697687922
 20
935.8789708756174
 30
0.0
 11
-234.1078887114654
 21
935.8789708756174
 31
0.0
  0
LINE
  5
29B
330
1F
100
AcDbEntity
  8
C-2
  6
Continuous
 62
     3
370
     9
100
AcDbLine
 10
-252.1082697687922
 20
938.8786838454232
 30
0.0
 11
-234.1078887114654
 21
938.8786838454232
 31
0.0
  0
LINE
  5
29C
330
1F
100
AcDbEntity
  8
C-2
  6
Continuous
 62
     3
370
     9
100
AcDbLine
 10
-252.1082697687922
 20
838.8790962451276
 30
0.0
 11
-234.1078887114654
 21
838.8790962451276
 31
0.0
  0
LINE
  5
29D
330
1F
100
AcDbEntity
  8
C-2
  6
Continuous
 62
     3
370
     9
100
AcDbLine
 10
-252.1082697687922
 20
835.8791358354993
 30
0.0
 11
-234.1078887114654
 21
835.8791358354993
 31
0.0
  0
LINE
  5
29E
330
1F
100
AcDbEntity
  8
C-2
  6
Continuous
 62
     3
370
     9
100
AcDbLine
 10
-208.1081493480784
 20
641.3788158133286
 30
0.0
 11
-208.1081493480784
 21
1033.378921387653
 31
0.0
  0
LINE
  5
29F
330
1F
100
AcDbEntity
  8
C-2
  6
Continuous
 62
     3
370
     9
100
AcDbLine
 10
-212.1080140809755
 20
641.3788158133286
 30
0.0
 11
-212.1080140809755
 21
1033.378921387653
 31
0.0
  0
LINE
  5
2A0
330
1F
100
AcDbEntity
  8
C-2
  6
Continuous
 62
     3
370
     9
100
AcDbLine
 10
-230.1083951383023
 20
935.8789708756174
 30
0.0
 11
-212.1080140809755
 21
935.8789708756174
 31
0.0
  0
LINE
  5
2A1
330
1F
100
AcDbEntity
  8
C-2
  6
Continuous
 62
     3
370
     9
100
AcDbLine
 10
-230.1083951383023
 20
938.8786838454232
 30
0.0
 11
-212.1080140809755
 21
938.8786838454232
 31
0.0
  0
LINE
  5
2A2
330
1F
100
AcDbEntity
  8
C-2
  6
Continuous
 62
     3
370
     9
100
AcDbLine
 10
-230.1083951383023
 20
838.8790962451276
 30
0.0
 11
-212.1080140809755
 21
838.8790962451276
 31
0.0
  0
LINE
  5
2A3
330
1F
100
AcDbEntity
  8
C-2
  6
Continuous
 62
     3
370
     9
100
AcDbLine
 10
-230.1083951383023
 20
835.8791358354993
 30
0.0
 11
-212.1080140809755
 21
835.8791358354993
 31
0.0
  0
LINE
  5
2A4
330
1F
100
AcDbEntity
  8
C-2
  6
Continuous
 62
     3
370
     9
100
AcDbLine
 10
-186.1079035578547
 20
641.3788158133286
 30
0.0
 11
-186.1079035578547
 21
1033.378921387653
 31
0.0
  0
LINE
  5
2A5
330
1F
100
AcDbEntity
  8
C-2
  6
Continuous
 62
     3
370
     9
100
AcDbLine
 10
-190.1082631703969
 20
641.3788158133286
 30
0.0
 11
-190.1082631703969
 21
1033.378921387653
 31
0.0
  0
LINE
  5
2A6
330
1F
100
AcDbEntity
  8
C-2
  6
Continuous
 62
     3
370
     9
100
AcDbLine
 10
-208.1081493480784
 20
935.8789708756174
 30
0.0
 11
-190.1082631703969
 21
935.8789708756174
 31
0.0
  0
LINE
  5
2A7
330
1F
100
AcDbEntity
  8
C-2
  6
Continuous
 62
     3
370
     9
100
AcDbLine
 10
-208.1081493480784
 20
938.8786838454232
 30
0.0
 11
-190.1082631703969
 21
938.8786838454232
 31
0.0
  0
LINE
  5
2A8
330
1F
100
AcDbEntity
  8
C-2
  6
Continuous
 62
     3
370
     9
100
AcDbLine
 10
-208.1081493480784
 20
838.8790962451276
 30
0.0
 11
-190.1082631703969
 21
838.8790962451276
 31
0.0
  0
LINE
  5
2A9
330
1F
100
AcDbEntity
  8
C-2
  6
Continuous
 62
     3
370
     9
100
AcDbLine
 10
-208.1081493480784
 20
835.8791358354993
 30
0.0
 11
-190.1082631703969
 21
835.8791358354993
 31
0.0
  0
LINE
  5
2AA
330
1F
100
AcDbEntity
  8
C-2
  6
Continuous
 62
     3
370
     9
100
AcDbLine
 10
-164.1080289273648
 20
641.3788158133286
 30
0.0
 11
-164.1080289273648
 21
1033.378921387653
 31
0.0
  0
LINE
  5
2AB
330
1F
100
AcDbEntity
  8
C-2
  6
Continuous
 62
     3
370
     9
100
AcDbLine
 10
-168.1078936602617
 20
641.3788158133286
 30
0.0
 11
-168.1078936602617
 21
1033.378921387653
 31
0.0
  0
LINE
  5
2AC
330
1F
100
AcDbEntity
  8
C-2
  6
Continuous
 62
     3
370
     9
100
AcDbLine
 10
-186.1079035578547
 20
935.8789708756174
 30
0.0
 11
-168.1078936602617
 21
935.8789708756174
 31
0.0
  0
LINE
  5
2AD
330
1F
100
AcDbEntity
  8
C-2
  6
Continuous
 62
     3
370
     9
100
AcDbLine
 10
-186.1079035578547
 20
938.8786838454232
 30
0.0
 11
-168.1078936602617
 21
938.8786838454232
 31
0.0
  0
LINE
  5
2AE
330
1F
100
AcDbEntity
  8
C-2
  6
Continuous
 62
     3
370
     9
100
AcDbLine
 10
-186.1079035578547
 20
838.8790962451276
 30
0.0
 11
-168.1078936602617
 21
838.8790962451276
 31
0.0
  0
LINE
  5
2AF
330
1F
100
AcDbEntity
  8
C-2
  6
Continuous
 62
     3
370
     9
100
AcDbLine
 10
-186.1079035578547
 20
835.8791358354993
 30
0.0
 11
-168.1078936602617
 21
835.8791358354993
 31
0.0
  0
LINE
  5
2B0
330
1F
100
AcDbEntity
  8
C-2
  6
Continuous
 62
     3
370
     9
100
AcDbLine
 10
-142.1082780167862
 20
641.3788158133286
 30
0.0
 11
-142.1082780167862
 21
1033.378921387653
 31
0.0
  0
LINE
  5
2B1
330
1F
100
AcDbEntity
  8
C-2
  6
Continuous
 62
     3
370
     9
100
AcDbLine
 10
-146.107647870038
 20
641.3788158133286
 30
0.0
 11
-146.107647870038
 21
1033.378921387653
 31
0.0
  0
LINE
  5
2B2
330
1F
100
AcDbEntity
  8
C-2
  6
Continuous
 62
     3
370
     9
100
AcDbLine
 10
-164.1080289273648
 20
935.8789708756174
 30
0.0
 11
-146.107647870038
 21
935.8789708756174
 31
0.0
  0
LINE
  5
2B3
330
1F
100
AcDbEntity
  8
C-2
  6
Continuous
 62
     3
370
     9
100
AcDbLine
 10
-164.1080289273648
 20
938.8786838454232
 30
0.0
 11
-146.107647870038
 21
938.8786838454232
 31
0.0
  0
LINE
  5
2B4
330
1F
100
AcDbEntity
  8
C-2
  6
Continuous
 62
     3
370
     9
100
AcDbLine
 10
-164.1080289273648
 20
838.8790962451276
 30
0.0
 11
-146.107647870038
 21
838.8790962451276
 31
0.0
  0
LINE
  5
2B5
330
1F
100
AcDbEntity
  8
C-2
  6
Continuous
 62
     3
370
     9
100
AcDbLine
 10
-164.1080289273648
 20
835.8791358354993
 30
0.0
 11
-146.107647870038
 21
835.8791358354993
 31
0.0
  0
LINE
  5
2B6
330
1F
100
AcDbEntity
  8
C-2
  6
Continuous
 62
     3
370
     9
100
AcDbLine
 10
-120.1084033862963
 20
641.3788158133286
 30
0.0
 11
-120.1084033862963
 21
1033.378921387653
 31
0.0
  0
LINE
  5
2B7
330
1F
100
AcDbEntity
  8
C-2
  6
Continuous
 62
     3
370
     9
100
AcDbLine
 10
-124.1078969594594
 20
641.3788158133286
 30
0.0
 11
-124.1078969594594
 21
1033.378921387653
 31
0.0
  0
LINE
  5
2B8
330
1F
100
AcDbEntity
  8
C-2
  6
Continuous
 62
     3
370
     9
100
AcDbLine
 10
-142.1082780167862
 20
935.8789708756174
 30
0.0
 11
-124.1078969594594
 21
935.8789708756174
 31
0.0
  0
LINE
  5
2B9
330
1F
100
AcDbEntity
  8
C-2
  6
Continuous
 62
     3
370
     9
100
AcDbLine
 10
-142.1082780167862
 20
938.8786838454232
 30
0.0
 11
-124.1078969594594
 21
938.8786838454232
 31
0.0
  0
LINE
  5
2BA
330
1F
100
AcDbEntity
  8
C-2
  6
Continuous
 62
     3
370
     9
100
AcDbLine
 10
-142.1082780167862
 20
838.8790962451276
 30
0.0
 11
-124.1078969594594
 21
838.8790962451276
 31
0.0
  0
LINE
  5
2BB
330
1F
100
AcDbEntity
  8
C-2
  6
Continuous
 62
     3
370
     9
100
AcDbLine
 10
-142.1082780167862
 20
835.8791358354993
 30
0.0
 11
-124.1078969594594
 21
835.8791358354993
 31
0.0
  0
LINE
  5
2BC
330
1F
100
AcDbEntity
  8
C-2
  6
Continuous
 62
     3
370
     9
100
AcDbLine
 10
-98.10815759607266
 20
641.3788158133286
 30
0.0
 11
-98.10815759607266
 21
1033.378921387653
 31
0.0
  0
LINE
  5
2BD
330
1F
100
AcDbEntity
  8
C-2
  6
Continuous
 62
     3
370
     9
100
AcDbLine
 10
-102.1080223289695
 20
641.3788158133286
 30
0.0
 11
-102.1080223289695
 21
1033.378921387653
 31
0.0
  0
LINE
  5
2BE
330
1F
100
AcDbEntity
  8
C-2
  6
Continuous
 62
     3
370
     9
100
AcDbLine
 10
-120.1084033862963
 20
935.8789708756174
 30
0.0
 11
-102.1080223289695
 21
935.8789708756174
 31
0.0
  0
LINE
  5
2BF
330
1F
100
AcDbEntity
  8
C-2
  6
Continuous
 62
     3
370
     9
100
AcDbLine
 10
-120.1084033862963
 20
938.8786838454232
 30
0.0
 11
-102.1080223289695
 21
938.8786838454232
 31
0.0
  0
LINE
  5
2C0
330
1F
100
AcDbEntity
  8
C-2
  6
Continuous
 62
     3
370
     9
100
AcDbLine
 10
-120.1084033862963
 20
838.8790962451276
 30
0.0
 11
-102.1080223289695
 21
838.8790962451276
 31
0.0
  0
LINE
  5
2C1
330
1F
100
AcDbEntity
  8
C-2
  6
Continuous
 62
     3
370
     9
100
AcDbLine
 10
-120.1084033862963
 20
835.8791358354993
 30
0.0
 11
-102.1080223289695
 21
835.8791358354993
 31
0.0
  0
LINE
  5
2C2
330
1F
100
AcDbEntity
  8
C-2
  6
Continuous
 62
     3
370
     9
100
AcDbLine
 10
-76.1077880859375
 20
641.3788158133286
 30
0.0
 11
-76.1077880859375
 21
1033.378921387653
 31
0.0
  0
LINE
  5
2C3
330
1F
100
AcDbEntity
  8
C-2
  6
Continuous
 62
     3
370
     9
100
AcDbLine
 10
-80.10827141839087
 20
641.3788158133286
 30
0.0
 11
-80.10827141839087
 21
1033.378921387653
 31
0.0
  0
LINE
  5
2C4
330
1F
100
AcDbEntity
  8
C-2
  6
Continuous
 62
     3
370
     9
100
AcDbLine
 10
-98.10815759607266
 20
935.8789708756174
 30
0.0
 11
-80.10827141839087
 21
935.8789708756174
 31
0.0
  0
LINE
  5
2C5
330
1F
100
AcDbEntity
  8
C-2
  6
Continuous
 62
     3
370
     9
100
AcDbLine
 10
-98.10815759607266
 20
938.8786838454232
 30
0.0
 11
-80.10827141839087
 21
938.8786838454232
 31
0.0
  0
LINE
  5
2C6
330
1F
100
AcDbEntity
  8
C-2
  6
Continuous
 62
     3
370
     9
100
AcDbLine
 10
-98.10815759607266
 20
838.8790962451276
 30
0.0
 11
-80.10827141839087
 21
838.8790962451276
 31
0.0
  0
LINE
  5
2C7
330
1F
100
AcDbEntity
  8
C-2
  6
Continuous
 62
     3
370
     9
100
AcDbLine
 10
-98.10815759607266
 20
835.8791358354993
 30
0.0
 11
-80.10827141839087
 21
835.8791358354993
 31
0.0
  0
LINE
  5
2C8
330
1F
100
AcDbEntity
  8
C-2
  6
Continuous
 62
     3
370
     9
100
AcDbLine
 10
-54.10803717535885
 20
641.3788158133286
 30
0.0
 11
-54.10803717535885
 21
1033.378921387653
 31
0.0
  0
LINE
  5
2C9
330
1F
100
AcDbEntity
  8
C-2
  6
Continuous
 62
     3
370
     9
100
AcDbLine
 10
-58.10790190825571
 20
641.3788158133286
 30
0.0
 11
-58.10790190825571
 21
1033.378921387653
 31
0.0
  0
LINE
  5
2CA
330
1F
100
AcDbEntity
  8
C-2
  6
Continuous
 62
     3
370
     9
100
AcDbLine
 10
-76.1077880859375
 20
935.8789708756174
 30
0.0
 11
-58.10790190825571
 21
935.8789708756174
 31
0.0
  0
LINE
  5
2CB
330
1F
100
AcDbEntity
  8
C-2
  6
Continuous
 62
     3
370
     9
100
AcDbLine
 10
-76.1077880859375
 20
938.8786838454232
 30
0.0
 11
-58.10790190825571
 21
938.8786838454232
 31
0.0
  0
LINE
  5
2CC
330
1F
100
AcDbEntity
  8
C-2
  6
Continuous
 62
     3
370
     9
100
AcDbLine
 10
-76.1077880859375
 20
838.8790962451276
 30
0.0
 11
-58.10790190825571
 21
838.8790962451276
 31
0.0
  0
LINE
  5
2CD
330
1F
100
AcDbEntity
  8
C-2
  6
Continuous
 62
     3
370
     9
100
AcDbLine
 10
-76.1077880859375
 20
835.8791358354993
 30
0.0
 11
-58.10790190825571
 21
835.8791358354993
 31
0.0
  0
LINE
  5
2CE
330
1F
100
AcDbEntity
  8
C-2
  6
Continuous
 62
     3
370
     9
100
AcDbLine
 10
-32.10828626478019
 20
641.3788158133286
 30
0.0
 11
-32.10828626478019
 21
1033.378921387653
 31
0.0
  0
LINE
  5
2CF
330
1F
100
AcDbEntity
  8
C-2
  6
Continuous
 62
     3
370
     9
100
AcDbLine
 10
-36.10815099767734
 20
641.3788158133286
 30
0.0
 11
-36.10815099767734
 21
1033.378921387653
 31
0.0
  0
LINE
  5
2D0
330
1F
100
AcDbEntity
  8
C-2
  6
Continuous
 62
     3
370
     9
100
AcDbLine
 10
-54.10803717535885
 20
935.8789708756174
 30
0.0
 11
-36.10815099767734
 21
935.8789708756174
 31
0.0
  0
LINE
  5
2D1
330
1F
100
AcDbEntity
  8
C-2
  6
Continuous
 62
     3
370
     9
100
AcDbLine
 10
-54.10803717535885
 20
938.8786838454232
 30
0.0
 11
-36.10815099767734
 21
938.8786838454232
 31
0.0
  0
LINE
  5
2D2
330
1F
100
AcDbEntity
  8
C-2
  6
Continuous
 62
     3
370
     9
100
AcDbLine
 10
-54.10803717535885
 20
838.8790962451276
 30
0.0
 11
-36.10815099767734
 21
838.8790962451276
 31
0.0
  0
LINE
  5
2D3
330
1F
100
AcDbEntity
  8
C-2
  6
Continuous
 62
     3
370
     9
100
AcDbLine
 10
-54.10803717535885
 20
835.8791358354993
 30
0.0
 11
-36.10815099767734
 21
835.8791358354993
 31
0.0
  0
LINE
  5
2D4
330
1F
100
AcDbEntity
  8
C-2
  6
Continuous
 62
     3
370
     9
100
AcDbLine
 10
-10.10841163429035
 20
641.3788158133286
 30
0.0
 11
-10.10841163429035
 21
1033.378921387653
 31
0.0
  0
LINE
  5
2D5
330
1F
100
AcDbEntity
  8
C-2
  6
Continuous
 62
     3
370
     9
100
AcDbLine
 10
-14.10778148754218
 20
641.3788158133286
 30
0.0
 11
-14.10778148754218
 21
1033.378921387653
 31
0.0
  0
LINE
  5
2D6
330
1F
100
AcDbEntity
  8
C-2
  6
Continuous
 62
     3
370
     9
100
AcDbLine
 10
-32.10828626478019
 20
935.8789708756174
 30
0.0
 11
-14.10778148754218
 21
935.8789708756174
 31
0.0
  0
LINE
  5
2D7
330
1F
100
AcDbEntity
  8
C-2
  6
Continuous
 62
     3
370
     9
100
AcDbLine
 10
-32.10828626478019
 20
938.8786838454232
 30
0.0
 11
-14.10778148754218
 21
938.8786838454232
 31
0.0
  0
LINE
  5
2D8
330
1F
100
AcDbEntity
  8
C-2
  6
Continuous
 62
     3
370
     9
100
AcDbLine
 10
-32.10828626478019
 20
838.8790962451276
 30
0.0
 11
-14.10778148754218
 21
838.8790962451276
 31
0.0
  0
LINE
  5
2D9
330
1F
100
AcDbEntity
  8
C-2
  6
Continuous
 62
     3
370
     9
100
AcDbLine
 10
-32.10828626478019
 20
835.8791358354993
 30
0.0
 11
-14.10778148754218
 21
835.8791358354993
 31
0.0
  0
LINE
  5
2DA
330
1F
100
AcDbEntity
  8
C-2
  6
Continuous
 62
     3
370
     9
100
AcDbLine
 10
11.89195787584481
 20
641.3788158133286
 30
0.0
 11
11.89195787584481
 21
1033.378921387653
 31
0.0
  0
LINE
  5
2DB
330
1F
100
AcDbEntity
  8
C-2
  6
Continuous
 62
     3
370
     9
100
AcDbLine
 10
7.891845703125
 20
641.3788158133286
 30
0.0
 11
7.891845703125
 21
1033.378921387653
 31
0.0
  0
LINE
  5
2DC
330
1F
100
AcDbEntity
  8
C-2
  6
Continuous
 62
     3
370
     9
100
AcDbLine
 10
-10.10841163429035
 20
935.8789708756174
 30
0.0
 11
7.891845703125
 21
935.8789708756174
 31
0.0
  0
LINE
  5
2DD
330
1F
100
AcDbEntity
  8
C-2
  6
Continuous
 62
     3
370
     9
100
AcDbLine
 10
-10.10841163429035
 20
938.8786838454232
 30
0.0
 11
7.891845703125
 21
938.8786838454232
 31
0.0
  0
LINE
  5
2DE
330
1F
100
AcDbEntity
  8
C-2
  6
Continuous
 62
     3
370
     9
100
AcDbLine
 10
-10.10841163429035
 20
838.8790962451276
 30
0.0
 11
7.891845703125
 21
838.8790962451276
 31
0.0
  0
LINE
  5
2DF
330
1F
100
AcDbEntity
  8
C-2
  6
Continuous
 62
     3
370
     9
100
AcDbLine
 10
-10.10841163429035
 20
835.8791358354993
 30
0.0
 11
7.891845703125
 21
835.8791358354993
 31
0.0
  0
LINE
  5
2E0
330
1F
100
AcDbEntity
  8
C-2
  6
Continuous
 62
     3
370
     9
100
AcDbLine
 10
33.89207994615731
 20
641.3788158133286
 30
0.0
 11
33.89207994615731
 21
1033.378921387653
 31
0.0
  0
LINE
  5
2E1
330
1F
100
AcDbEntity
  8
C-2
  6
Continuous
 62
     3
370
     9
100
AcDbLine
 10
29.89172033361484
 20
641.3788158133286
 30
0.0
 11
29.89172033361484
 21
1033.378921387653
 31
0.0
  0
LINE
  5
2E2
330
1F
100
AcDbEntity
  8
C-2
  6
Continuous
 62
     3
370
     9
100
AcDbLine
 10
11.89195787584481
 20
935.8789708756174
 30
0.0
 11
29.89172033361484
 21
935.8789708756174
 31
0.0
  0
LINE
  5
2E3
330
1F
100
AcDbEntity
  8
C-2
  6
Continuous
 62
     3
370
     9
100
AcDbLine
 10
11.89195787584481
 20
938.8786838454232
 30
0.0
 11
29.89172033361484
 21
938.8786838454232
 31
0.0
  0
LINE
  5
2E4
330
1F
100
AcDbEntity
  8
C-2
  6
Continuous
 62
     3
370
     9
100
AcDbLine
 10
11.89195787584481
 20
838.8790962451276
 30
0.0
 11
29.89172033361484
 21
838.8790962451276
 31
0.0
  0
LINE
  5
2E5
330
1F
100
AcDbEntity
  8
C-2
  6
Continuous
 62
     3
370
     9
100
AcDbLine
 10
11.89195787584481
 20
835.8791358354993
 30
0.0
 11
29.89172033361484
 21
835.8791358354993
 31
0.0
  0
LINE
  5
2E6
330
1F
100
AcDbEntity
  8
C-2
  6
Continuous
 62
     3
370
     9
100
AcDbLine
 10
55.89195457664715
 20
641.3788158133286
 30
0.0
 11
55.89195457664715
 21
1033.378921387653
 31
0.0
  0
LINE
  5
2E7
330
1F
100
AcDbEntity
  8
C-2
  6
Continuous
 62
     3
370
     9
100
AcDbLine
 10
51.89159496410497
 20
641.3788158133286
 30
0.0
 11
51.89159496410497
 21
1033.378921387653
 31
0.0
  0
LINE
  5
2E8
330
1F
100
AcDbEntity
  8
C-2
  6
Continuous
 62
     3
370
     9
100
AcDbLine
 10
33.89207994615731
 20
935.8789708756174
 30
0.0
 11
51.89159496410497
 21
935.8789708756174
 31
0.0
  0
LINE
  5
2E9
330
1F
100
AcDbEntity
  8
C-2
  6
Continuous
 62
     3
370
     9
100
AcDbLine
 10
33.89207994615731
 20
938.8786838454232
 30
0.0
 11
51.89159496410497
 21
938.8786838454232
 31
0.0
  0
LINE
  5
2EA
330
1F
100
AcDbEntity
  8
C-2
  6
Continuous
 62
     3
370
     9
100
AcDbLine
 10
33.89207994615731
 20
838.8790962451276
 30
0.0
 11
51.89159496410497
 21
838.8790962451276
 31
0.0
  0
LINE
  5
2EB
330
1F
100
AcDbEntity
  8
C-2
  6
Continuous
 62
     3
370
     9
100
AcDbLine
 10
33.89207994615731
 20
835.8791358354993
 30
0.0
 11
51.89159496410497
 21
835.8791358354993
 31
0.0
  0
LINE
  5
2EC
330
1F
100
AcDbEntity
  8
C-2
  6
Continuous
 62
     3
370
     9
100
AcDbLine
 10
77.891829207137
 20
641.3788158133286
 30
0.0
 11
77.891829207137
 21
1033.378921387653
 31
0.0
  0
LINE
  5
2ED
330
1F
100
AcDbEntity
  8
C-2
  6
Continuous
 62
     3
370
     9
100
AcDbLine
 10
73.89196447424013
 20
641.3788158133286
 30
0.0
 11
73.89196447424013
 21
1033.378921387653
 31
0.0
  0
LINE
  5
2EE
330
1F
100
AcDbEntity
  8
C-2
  6
Continuous
 62
     3
370
     9
100
AcDbLine
 10
55.89195457664715
 20
935.8789708756174
 30
0.0
 11
73.89196447424013
 21
935.8789708756174
 31
0.0
  0
LINE
  5
2EF
330
1F
100
AcDbEntity
  8
C-2
  6
Continuous
 62
     3
370
     9
100
AcDbLine
 10
55.89195457664715
 20
938.8786838454232
 30
0.0
 11
73.89196447424013
 21
938.8786838454232
 31
0.0
  0
LINE
  5
2F0
330
1F
100
AcDbEntity
  8
C-2
  6
Continuous
 62
     3
370
     9
100
AcDbLine
 10
55.89195457664715
 20
838.8790962451276
 30
0.0
 11
73.89196447424013
 21
838.8790962451276
 31
0.0
  0
LINE
  5
2F1
330
1F
100
AcDbEntity
  8
C-2
  6
Continuous
 62
     3
370
     9
100
AcDbLine
 10
55.89195457664715
 20
835.8791358354993
 30
0.0
 11
73.89196447424013
 21
835.8791358354993
 31
0.0
  0
LINE
  5
2F2
330
1F
100
AcDbEntity
  8
C-2
  6
Continuous
 62
     3
370
     9
100
AcDbLine
 10
99.8919512774495
 20
641.3788158133286
 30
0.0
 11
99.8919512774495
 21
1033.378921387653
 31
0.0
  0
LINE
  5
2F3
330
1F
100
AcDbEntity
  8
C-2
  6
Continuous
 62
     3
370
     9
100
AcDbLine
 10
95.89208654455263
 20
641.3788158133286
 30
0.0
 11
95.89208654455263
 21
1033.378921387653
 31
0.0
  0
LINE
  5
2F4
330
1F
100
AcDbEntity
  8
C-2
  6
Continuous
 62
     3
370
     9
100
AcDbLine
 10
77.891829207137
 20
935.8789708756174
 30
0.0
 11
95.89208654455263
 21
935.8789708756174
 31
0.0
  0
LINE
  5
2F5
330
1F
100
AcDbEntity
  8
C-2
  6
Continuous
 62
     3
370
     9
100
AcDbLine
 10
77.891829207137
 20
938.8786838454232
 30
0.0
 11
95.89208654455263
 21
938.8786838454232
 31
0.0
  0
LINE
  5
2F6
330
1F
100
AcDbEntity
  8
C-2
  6
Continuous
 62
     3
370
     9
100
AcDbLine
 10
77.891829207137
 20
838.8790962451276
 30
0.0
 11
95.89208654455263
 21
838.8790962451276
 31
0.0
  0
LINE
  5
2F7
330
1F
100
AcDbEntity
  8
C-2
  6
Continuous
 62
     3
370
     9
100
AcDbLine
 10
77.891829207137
 20
835.8791358354993
 30
0.0
 11
95.89208654455263
 21
835.8791358354993
 31
0.0
  0
LINE
  5
2F8
330
1F
100
AcDbEntity
  8
C-2
  6
Continuous
 62
     3
370
     9
100
AcDbLine
 10
121.8918259079393
 20
641.3788158133286
 30
0.0
 11
121.8918259079393
 21
1033.378921387653
 31
0.0
  0
LINE
  5
2F9
330
1F
100
AcDbEntity
  8
C-2
  6
Continuous
 62
     3
370
     9
100
AcDbLine
 10
117.8919611750425
 20
641.3788158133286
 30
0.0
 11
117.8919611750425
 21
1033.378921387653
 31
0.0
  0
LINE
  5
2FA
330
1F
100
AcDbEntity
  8
C-2
  6
Continuous
 62
     3
370
     9
100
AcDbLine
 10
99.8919512774495
 20
935.8789708756174
 30
0.0
 11
117.8919611750425
 21
935.8789708756174
 31
0.0
  0
LINE
  5
2FB
330
1F
100
AcDbEntity
  8
C-2
  6
Continuous
 62
     3
370
     9
100
AcDbLine
 10
99.8919512774495
 20
938.8786838454232
 30
0.0
 11
117.8919611750425
 21
938.8786838454232
 31
0.0
  0
LINE
  5
2FC
330
1F
100
AcDbEntity
  8
C-2
  6
Continuous
 62
     3
370
     9
100
AcDbLine
 10
99.8919512774495
 20
838.8790962451276
 30
0.0
 11
117.8919611750425
 21
838.8790962451276
 31
0.0
  0
LINE
  5
2FD
330
1F
100
AcDbEntity
  8
C-2
  6
Continuous
 62
     3
370
     9
100
AcDbLine
 10
99.8919512774495
 20
835.8791358354993
 30
0.0
 11
117.8919611750425
 21
835.8791358354993
 31
0.0
  0
LINE
  5
2FE
330
1F
100
AcDbEntity
  8
C-2
  6
Continuous
 62
     3
370
     9
100
AcDbLine
 10
143.8921954180745
 20
641.3788158133286
 30
0.0
 11
143.8921954180745
 21
1033.378921387653
 31
0.0
  0
LINE
  5
2FF
330
1F
100
AcDbEntity
  8
C-2
  6
Continuous
 62
     3
370
     9
100
AcDbLine
 10
139.8923306851776
 20
641.3788158133286
 30
0.0
 11
139.8923306851776
 21
1033.378921387653
 31
0.0
  0
LINE
  5
300
330
1F
100
AcDbEntity
  8
C-2
  6
Continuous
 62
     3
370
     9
100
AcDbLine
 10
121.891331028294
 20
935.8789708756174
 30
0.0
 11
139.8923306851776
 21
935.8789708756174
 31
0.0
  0
LINE
  5
301
330
1F
100
AcDbEntity
  8
C-2
  6
Continuous
 62
     3
370
     9
100
AcDbLine
 10
121.891331028294
 20
938.8786838454232
 30
0.0
 11
139.8923306851776
 21
938.8786838454232
 31
0.0
  0
LINE
  5
302
330
1F
100
AcDbEntity
  8
C-2
  6
Continuous
 62
     3
370
     9
100
AcDbLine
 10
121.891331028294
 20
838.8790962451276
 30
0.0
 11
139.8923306851776
 21
838.8790962451276
 31
0.0
  0
LINE
  5
303
330
1F
100
AcDbEntity
  8
C-2
  6
Continuous
 62
     3
370
     9
100
AcDbLine
 10
121.891331028294
 20
835.8791358354993
 30
0.0
 11
139.8923306851776
 21
835.8791358354993
 31
0.0
  0
LINE
  5
304
330
1F
100
AcDbEntity
  8
C-2
  6
Continuous
 62
     3
370
     9
100
AcDbLine
 10
165.8920700485643
 20
641.3788158133286
 30
0.0
 11
165.8920700485643
 21
1033.378921387653
 31
0.0
  0
LINE
  5
305
330
1F
100
AcDbEntity
  8
C-2
  6
Continuous
 62
     3
370
     9
100
AcDbLine
 10
161.8914629961995
 20
641.3788158133286
 30
0.0
 11
161.8914629961995
 21
1033.378921387653
 31
0.0
  0
LINE
  5
306
330
1F
100
AcDbEntity
  8
C-2
  6
Continuous
 62
     3
370
     9
100
AcDbLine
 10
143.8917005384292
 20
935.8789708756174
 30
0.0
 11
161.8914629961995
 21
935.8789708756174
 31
0.0
  0
LINE
  5
307
330
1F
100
AcDbEntity
  8
C-2
  6
Continuous
 62
     3
370
     9
100
AcDbLine
 10
143.8917005384292
 20
938.8786838454232
 30
0.0
 11
161.8914629961995
 21
938.8786838454232
 31
0.0
  0
LINE
  5
308
330
1F
100
AcDbEntity
  8
C-2
  6
Continuous
 62
     3
370
     9
100
AcDbLine
 10
143.8917005384292
 20
838.8790962451276
 30
0.0
 11
161.8914629961995
 21
838.8790962451276
 31
0.0
  0
LINE
  5
309
330
1F
100
AcDbEntity
  8
C-2
  6
Continuous
 62
     3
370
     9
100
AcDbLine
 10
143.8917005384292
 20
835.8791358354993
 30
0.0
 11
161.8914629961995
 21
835.8791358354993
 31
0.0
  0
LINE
  5
30A
330
1F
100
AcDbEntity
  8
C-2
  6
Continuous
 62
     3
370
     9
100
AcDbLine
 10
187.8919446790542
 20
641.3788158133286
 30
0.0
 11
187.8919446790542
 21
1033.378921387653
 31
0.0
  0
LINE
  5
30B
330
1F
100
AcDbEntity
  8
C-2
  6
Continuous
 62
     3
370
     9
100
AcDbLine
 10
183.8918325063347
 20
641.3788158133286
 30
0.0
 11
183.8918325063347
 21
1033.378921387653
 31
0.0
  0
LINE
  5
30C
330
1F
100
AcDbEntity
  8
C-2
  6
Continuous
 62
     3
370
     9
100
AcDbLine
 10
165.8920700485643
 20
935.8789708756174
 30
0.0
 11
183.8918325063347
 21
935.8789708756174
 31
0.0
  0
LINE
  5
30D
330
1F
100
AcDbEntity
  8
C-2
  6
Continuous
 62
     3
370
     9
100
AcDbLine
 10
165.8920700485643
 20
938.8786838454232
 30
0.0
 11
183.8918325063347
 21
938.8786838454232
 31
0.0
  0
LINE
  5
30E
330
1F
100
AcDbEntity
  8
C-2
  6
Continuous
 62
     3
370
     9
100
AcDbLine
 10
165.8920700485643
 20
838.8790962451276
 30
0.0
 11
183.8918325063347
 21
838.8790962451276
 31
0.0
  0
LINE
  5
30F
330
1F
100
AcDbEntity
  8
C-2
  6
Continuous
 62
     3
370
     9
100
AcDbLine
 10
165.8920700485643
 20
835.8791358354993
 30
0.0
 11
183.8918325063347
 21
835.8791358354993
 31
0.0
  0
LINE
  5
310
330
1F
100
AcDbEntity
  8
C-2
  6
Continuous
 62
     3
370
     9
100
AcDbLine
 10
209.8915718697214
 20
641.3788158133286
 30
0.0
 11
209.8915718697214
 21
1033.378921387653
 31
0.0
  0
LINE
  5
311
330
1F
100
AcDbEntity
  8
C-2
  6
Continuous
 62
     3
370
     9
100
AcDbLine
 10
205.8922020164698
 20
641.3788158133286
 30
0.0
 11
205.8922020164698
 21
1033.378921387653
 31
0.0
  0
LINE
  5
312
330
1F
100
AcDbEntity
  8
C-2
  6
Continuous
 62
     3
370
     9
100
AcDbLine
 10
187.8919446790542
 20
935.8789708756174
 30
0.0
 11
205.8922020164698
 21
935.8789708756174
 31
0.0
  0
LINE
  5
313
330
1F
100
AcDbEntity
  8
C-2
  6
Continuous
 62
     3
370
     9
100
AcDbLine
 10
187.8919446790542
 20
938.8786838454232
 30
0.0
 11
205.8922020164698
 21
938.8786838454232
 31
0.0
  0
LINE
  5
314
330
1F
100
AcDbEntity
  8
C-2
  6
Continuous
 62
     3
370
     9
100
AcDbLine
 10
187.8919446790542
 20
838.8790962451276
 30
0.0
 11
205.8922020164698
 21
838.8790962451276
 31
0.0
  0
LINE
  5
315
330
1F
100
AcDbEntity
  8
C-2
  6
Continuous
 62
     3
370
     9
100
AcDbLine
 10
187.8919446790542
 20
835.8791358354993
 30
0.0
 11
205.8922020164698
 21
835.8791358354993
 31
0.0
  0
LINE
  5
316
330
1F
100
AcDbEntity
  8
C-2
  6
Continuous
 62
     3
370
     9
100
AcDbLine
 10
231.8914465002112
 20
641.3788158133286
 30
0.0
 11
231.8914465002112
 21
1033.378921387653
 31
0.0
  0
LINE
  5
317
330
1F
100
AcDbEntity
  8
C-2
  6
Continuous
 62
     3
370
     9
100
AcDbLine
 10
227.8920766469597
 20
641.3788158133286
 30
0.0
 11
227.8920766469597
 21
1033.378921387653
 31
0.0
  0
LINE
  5
318
330
1F
100
AcDbEntity
  8
C-2
  6
Continuous
 62
     3
370
     9
100
AcDbLine
 10
209.8915718697214
 20
935.8789708756174
 30
0.0
 11
227.8920766469597
 21
935.8789708756174
 31
0.0
  0
LINE
  5
319
330
1F
100
AcDbEntity
  8
C-2
  6
Continuous
 62
     3
370
     9
100
AcDbLine
 10
209.8915718697214
 20
938.8786838454232
 30
0.0
 11
227.8920766469597
 21
938.8786838454232
 31
0.0
  0
LINE
  5
31A
330
1F
100
AcDbEntity
  8
C-2
  6
Continuous
 62
     3
370
     9
100
AcDbLine
 10
209.8915718697214
 20
838.8790962451276
 30
0.0
 11
227.8920766469597
 21
838.8790962451276
 31
0.0
  0
LINE
  5
31B
330
1F
100
AcDbEntity
  8
C-2
  6
Continuous
 62
     3
370
     9
100
AcDbLine
 10
209.8915718697214
 20
835.8791358354993
 30
0.0
 11
227.8920766469597
 21
835.8791358354993
 31
0.0
  0
LINE
  5
31C
330
1F
100
AcDbEntity
  8
C-2
  6
Continuous
 62
     3
370
     9
100
AcDbLine
 10
253.8915685705237
 20
641.3788158133286
 30
0.0
 11
253.8915685705237
 21
1033.378921387653
 31
0.0
  0
LINE
  5
31D
330
1F
100
AcDbEntity
  8
C-2
  6
Continuous
 62
     3
370
     9
100
AcDbLine
 10
249.8919512774495
 20
641.3788158133286
 30
0.0
 11
249.8919512774495
 21
1033.378921387653
 31
0.0
  0
LINE
  5
31E
330
1F
100
AcDbEntity
  8
C-2
  6
Continuous
 62
     3
370
     9
100
AcDbLine
 10
231.8914465002112
 20
935.8789708756174
 30
0.0
 11
249.8919512774495
 21
935.8789708756174
 31
0.0
  0
LINE
  5
31F
330
1F
100
AcDbEntity
  8
C-2
  6
Continuous
 62
     3
370
     9
100
AcDbLine
 10
231.8914465002112
 20
938.8786838454232
 30
0.0
 11
249.8919512774495
 21
938.8786838454232
 31
0.0
  0
LINE
  5
320
330
1F
100
AcDbEntity
  8
C-2
  6
Continuous
 62
     3
370
     9
100
AcDbLine
 10
231.8914465002112
 20
838.8790962451276
 30
0.0
 11
249.8919512774495
 21
838.8790962451276
 31
0.0
  0
LINE
  5
321
330
1F
100
AcDbEntity
  8
C-2
  6
Continuous
 62
     3
370
     9
100
AcDbLine
 10
231.8914465002112
 20
835.8791358354993
 30
0.0
 11
249.8919512774495
 21
835.8791358354993
 31
0.0
  0
LINE
  5
322
330
1F
100
AcDbEntity
  8
C-2
  6
Continuous
 62
     3
370
     9
100
AcDbLine
 10
275.8919380806589
 20
641.3788158133286
 30
0.0
 11
275.8919380806589
 21
1033.378921387653
 31
0.0
  0
LINE
  5
323
330
1F
100
AcDbEntity
  8
C-2
  6
Continuous
 62
     3
370
     9
100
AcDbLine
 10
271.8915784681167
 20
641.3788158133286
 30
0.0
 11
271.8915784681167
 21
1033.378921387653
 31
0.0
  0
LINE
  5
324
330
1F
100
AcDbEntity
  8
C-2
  6
Continuous
 62
     3
370
     9
100
AcDbLine
 10
253.8915685705237
 20
935.8789708756174
 30
0.0
 11
271.8915784681167
 21
935.8789708756174
 31
0.0
  0
LINE
  5
325
330
1F
100
AcDbEntity
  8
C-2
  6
Continuous
 62
     3
370
     9
100
AcDbLine
 10
253.8915685705237
 20
938.8786838454232
 30
0.0
 11
271.8915784681167
 21
938.8786838454232
 31
0.0
  0
LINE
  5
326
330
1F
100
AcDbEntity
  8
C-2
  6
Continuous
 62
     3
370
     9
100
AcDbLine
 10
253.8915685705237
 20
838.8790962451276
 30
0.0
 11
271.8915784681167
 21
838.8790962451276
 31
0.0
  0
LINE
  5
327
330
1F
100
AcDbEntity
  8
C-2
  6
Continuous
 62
     3
370
     9
100
AcDbLine
 10
253.8915685705237
 20
835.8791358354993
 30
0.0
 11
271.8915784681167
 21
835.8791358354993
 31
0.0
  0
LINE
  5
328
330
1F
100
AcDbEntity
  8
C-2
  6
Continuous
 62
     3
370
     9
100
AcDbLine
 10
297.8918127111487
 20
641.3788158133286
 30
0.0
 11
297.8918127111487
 21
1033.378921387653
 31
0.0
  0
LINE
  5
329
330
1F
100
AcDbEntity
  8
C-2
  6
Continuous
 62
     3
370
     9
100
AcDbLine
 10
293.8919479782518
 20
641.3788158133286
 30
0.0
 11
293.8919479782518
 21
1033.378921387653
 31
0.0
  0
LINE
  5
32A
330
1F
100
AcDbEntity
  8
C-2
  6
Continuous
 62
     3
370
     9
100
AcDbLine
 10
275.8919380806589
 20
935.8789708756174
 30
0.0
 11
293.8919479782518
 21
935.8789708756174
 31
0.0
  0
LINE
  5
32B
330
1F
100
AcDbEntity
  8
C-2
  6
Continuous
 62
     3
370
     9
100
AcDbLine
 10
275.8919380806589
 20
938.8786838454232
 30
0.0
 11
293.8919479782518
 21
938.8786838454232
 31
0.0
  0
LINE
  5
32C
330
1F
100
AcDbEntity
  8
C-2
  6
Continuous
 62
     3
370
     9
100
AcDbLine
 10
275.8919380806589
 20
838.8790962451276
 30
0.0
 11
293.8919479782518
 21
838.8790962451276
 31
0.0
  0
LINE
  5
32D
330
1F
100
AcDbEntity
  8
C-2
  6
Continuous
 62
     3
370
     9
100
AcDbLine
 10
275.8919380806589
 20
835.8791358354993
 30
0.0
 11
293.8919479782518
 21
835.8791358354993
 31
0.0
  0
LINE
  5
32E
330
1F
100
AcDbEntity
  8
C-2
  6
Continuous
 62
     3
370
     9
100
AcDbLine
 10
319.8916873416385
 20
641.3788158133286
 30
0.0
 11
319.8916873416385
 21
1033.378921387653
 31
0.0
  0
LINE
  5
32F
330
1F
100
AcDbEntity
  8
C-2
  6
Continuous
 62
     3
370
     9
100
AcDbLine
 10
315.8920700485643
 20
641.3788158133286
 30
0.0
 11
315.8920700485643
 21
1033.378921387653
 31
0.0
  0
LINE
  5
330
330
1F
100
AcDbEntity
  8
C-2
  6
Continuous
 62
     3
370
     9
100
AcDbLine
 10
297.8918127111487
 20
935.8789708756174
 30
0.0
 11
315.8920700485643
 21
935.8789708756174
 31
0.0
  0
LINE
  5
331
330
1F
100
AcDbEntity
  8
C-2
  6
Continuous
 62
     3
370
     9
100
AcDbLine
 10
297.8918127111487
 20
938.8786838454232
 30
0.0
 11
315.8920700485643
 21
938.8786838454232
 31
0.0
  0
LINE
  5
332
330
1F
100
AcDbEntity
  8
C-2
  6
Continuous
 62
     3
370
     9
100
AcDbLine
 10
297.8918127111487
 20
838.8790962451276
 30
0.0
 11
315.8920700485643
 21
838.8790962451276
 31
0.0
  0
LINE
  5
333
330
1F
100
AcDbEntity
  8
C-2
  6
Continuous
 62
     3
370
     9
100
AcDbLine
 10
297.8918127111487
 20
835.8791358354993
 30
0.0
 11
315.8920700485643
 21
835.8791358354993
 31
0.0
  0
LINE
  5
334
330
1F
100
AcDbEntity
  8
C-2
  6
Continuous
 62
     3
370
     9
100
AcDbLine
 10
341.8915619721284
 20
641.3788158133286
 30
0.0
 11
341.8915619721284
 21
1033.378921387653
 31
0.0
  0
LINE
  5
335
330
1F
100
AcDbEntity
  8
C-2
  6
Continuous
 62
     3
370
     9
100
AcDbLine
 10
337.8919446790542
 20
641.3788158133286
 30
0.0
 11
337.8919446790542
 21
1033.378921387653
 31
0.0
  0
LINE
  5
336
330
1F
100
AcDbEntity
  8
C-2
  6
Continuous
 62
     3
370
     9
100
AcDbLine
 10
319.8916873416385
 20
935.8789708756174
 30
0.0
 11
337.8919446790542
 21
935.8789708756174
 31
0.0
  0
LINE
  5
337
330
1F
100
AcDbEntity
  8
C-2
  6
Continuous
 62
     3
370
     9
100
AcDbLine
 10
319.8916873416385
 20
938.8786838454232
 30
0.0
 11
337.8919446790542
 21
938.8786838454232
 31
0.0
  0
LINE
  5
338
330
1F
100
AcDbEntity
  8
C-2
  6
Continuous
 62
     3
370
     9
100
AcDbLine
 10
319.8916873416385
 20
838.8790962451276
 30
0.0
 11
337.8919446790542
 21
838.8790962451276
 31
0.0
  0
LINE
  5
339
330
1F
100
AcDbEntity
  8
C-2
  6
Continuous
 62
     3
370
     9
100
AcDbLine
 10
319.8916873416385
 20
835.8791358354993
 30
0.0
 11
337.8919446790542
 21
835.8791358354993
 31
0.0
  0
LINE
  5
33A
330
1F
100
AcDbEntity
  8
C-2
  6
Continuous
 62
     3
370
     9
100
AcDbLine
 10
363.8921789220862
 20
641.3788158133286
 30
0.0
 11
363.8921789220862
 21
1033.378921387653
 31
0.0
  0
LINE
  5
33B
330
1F
100
AcDbEntity
  8
C-2
  6
Continuous
 62
     3
370
     9
100
AcDbLine
 10
359.891819309544
 20
641.3788158133286
 30
0.0
 11
359.891819309544
 21
1033.378921387653
 31
0.0
  0
LINE
  5
33C
330
1F
100
AcDbEntity
  8
C-2
  6
Continuous
 62
     3
370
     9
100
AcDbLine
 10
341.8915619721284
 20
935.8789708756174
 30
0.0
 11
359.891819309544
 21
935.8789708756174
 31
0.0
  0
LINE
  5
33D
330
1F
100
AcDbEntity
  8
C-2
  6
Continuous
 62
     3
370
     9
100
AcDbLine
 10
341.8915619721284
 20
938.8786838454232
 30
0.0
 11
359.891819309544
 21
938.8786838454232
 31
0.0
  0
LINE
  5
33E
330
1F
100
AcDbEntity
  8
C-2
  6
Continuous
 62
     3
370
     9
100
AcDbLine
 10
341.8915619721284
 20
838.8790962451276
 30
0.0
 11
359.891819309544
 21
838.8790962451276
 31
0.0
  0
LINE
  5
33F
330
1F
100
AcDbEntity
  8
C-2
  6
Continuous
 62
     3
370
     9
100
AcDbLine
 10
341.8915619721284
 20
835.8791358354993
 30
0.0
 11
359.891819309544
 21
835.8791358354993
 31
0.0
  0
LINE
  5
340
330
1F
100
AcDbEntity
  8
C-2
  6
Continuous
 62
     3
370
     9
100
AcDbLine
 10
385.892053552576
 20
641.3788158133286
 30
0.0
 11
385.892053552576
 21
1033.378921387653
 31
0.0
  0
LINE
  5
341
330
1F
100
AcDbEntity
  8
C-2
  6
Continuous
 62
     3
370
     9
100
AcDbLine
 10
381.8916939400339
 20
641.3788158133286
 30
0.0
 11
381.8916939400339
 21
1033.378921387653
 31
0.0
  0
LINE
  5
342
330
1F
100
AcDbEntity
  8
C-2
  6
Continuous
 62
     3
370
     9
100
AcDbLine
 10
363.8921789220862
 20
935.8789708756174
 30
0.0
 11
381.8916939400339
 21
935.8789708756174
 31
0.0
  0
LINE
  5
343
330
1F
100
AcDbEntity
  8
C-2
  6
Continuous
 62
     3
370
     9
100
AcDbLine
 10
363.8921789220862
 20
938.8786838454232
 30
0.0
 11
381.8916939400339
 21
938.8786838454232
 31
0.0
  0
LINE
  5
344
330
1F
100
AcDbEntity
  8
C-2
  6
Continuous
 62
     3
370
     9
100
AcDbLine
 10
363.8921789220862
 20
838.8790962451276
 30
0.0
 11
381.8916939400339
 21
838.8790962451276
 31
0.0
  0
LINE
  5
345
330
1F
100
AcDbEntity
  8
C-2
  6
Continuous
 62
     3
370
     9
100
AcDbLine
 10
363.8921789220862
 20
835.8791358354993
 30
0.0
 11
381.8916939400339
 21
835.8791358354993
 31
0.0
  0
LINE
  5
346
330
1F
100
AcDbEntity
  8
C-2
  6
Continuous
 62
     3
370
     9
100
AcDbLine
 10
407.8916807432435
 20
641.3788158133286
 30
0.0
 11
407.8916807432435
 21
1033.378921387653
 31
0.0
  0
LINE
  5
347
330
1F
100
AcDbEntity
  8
C-2
  6
Continuous
 62
     3
370
     9
100
AcDbLine
 10
403.8915685705237
 20
641.3788158133286
 30
0.0
 11
403.8915685705237
 21
1033.378921387653
 31
0.0
  0
LINE
  5
348
330
1F
100
AcDbEntity
  8
C-2
  6
Continuous
 62
     3
370
     9
100
AcDbLine
 10
385.892053552576
 20
935.8789708756174
 30
0.0
 11
403.8915685705237
 21
935.8789708756174
 31
0.0
  0
LINE
  5
349
330
1F
100
AcDbEntity
  8
C-2
  6
Continuous
 62
     3
370
     9
100
AcDbLine
 10
385.892053552576
 20
938.8786838454232
 30
0.0
 11
403.8915685705237
 21
938.8786838454232
 31
0.0
  0
LINE
  5
34A
330
1F
100
AcDbEntity
  8
C-2
  6
Continuous
 62
     3
370
     9
100
AcDbLine
 10
385.892053552576
 20
838.8790962451276
 30
0.0
 11
403.8915685705237
 21
838.8790962451276
 31
0.0
  0
LINE
  5
34B
330
1F
100
AcDbEntity
  8
C-2
  6
Continuous
 62
     3
370
     9
100
AcDbLine
 10
385.892053552576
 20
835.8791358354993
 30
0.0
 11
403.8915685705237
 21
835.8791358354993
 31
0.0
  0
LINE
  5
34C
330
1F
100
AcDbEntity
  8
C-2
  6
Continuous
 62
     3
370
     9
100
AcDbLine
 10
429.8915553737334
 20
641.3788158133286
 30
0.0
 11
429.8915553737334
 21
1033.378921387653
 31
0.0
  0
LINE
  5
34D
330
1F
100
AcDbEntity
  8
C-2
  6
Continuous
 62
     3
370
     9
100
AcDbLine
 10
425.8921855204815
 20
641.3788158133286
 30
0.0
 11
425.8921855204815
 21
1033.378921387653
 31
0.0
  0
LINE
  5
34E
330
1F
100
AcDbEntity
  8
C-2
  6
Continuous
 62
     3
370
     9
100
AcDbLine
 10
407.8916807432435
 20
935.8789708756174
 30
0.0
 11
425.8921855204815
 21
935.8789708756174
 31
0.0
  0
LINE
  5
34F
330
1F
100
AcDbEntity
  8
C-2
  6
Continuous
 62
     3
370
     9
100
AcDbLine
 10
407.8916807432435
 20
938.8786838454232
 30
0.0
 11
425.8921855204815
 21
938.8786838454232
 31
0.0
  0
LINE
  5
350
330
1F
100
AcDbEntity
  8
C-2
  6
Continuous
 62
     3
370
     9
100
AcDbLine
 10
407.8916807432435
 20
838.8790962451276
 30
0.0
 11
425.8921855204815
 21
838.8790962451276
 31
0.0
  0
LINE
  5
351
330
1F
100
AcDbEntity
  8
C-2
  6
Continuous
 62
     3
370
     9
100
AcDbLine
 10
407.8916807432435
 20
835.8791358354993
 30
0.0
 11
425.8921855204815
 21
835.8791358354993
 31
0.0
  0
LINE
  5
352
330
1F
100
AcDbEntity
  8
C-2
  6
Continuous
 62
     3
370
     9
100
AcDbLine
 10
451.8914300042232
 20
641.3788158133286
 30
0.0
 11
451.8914300042232
 21
1033.378921387653
 31
0.0
  0
LINE
  5
353
330
1F
100
AcDbEntity
  8
C-2
  6
Continuous
 62
     3
370
     9
100
AcDbLine
 10
447.8920601509714
 20
641.3788158133286
 30
0.0
 11
447.8920601509714
 21
1033.378921387653
 31
0.0
  0
LINE
  5
354
330
1F
100
AcDbEntity
  8
C-2
  6
Continuous
 62
     3
370
     9
100
AcDbLine
 10
429.8915553737334
 20
935.8789708756174
 30
0.0
 11
447.8920601509714
 21
935.8789708756174
 31
0.0
  0
LINE
  5
355
330
1F
100
AcDbEntity
  8
C-2
  6
Continuous
 62
     3
370
     9
100
AcDbLine
 10
429.8915553737334
 20
938.8786838454232
 30
0.0
 11
447.8920601509714
 21
938.8786838454232
 31
0.0
  0
LINE
  5
356
330
1F
100
AcDbEntity
  8
C-2
  6
Continuous
 62
     3
370
     9
100
AcDbLine
 10
429.8915553737334
 20
838.8790962451276
 30
0.0
 11
447.8920601509714
 21
838.8790962451276
 31
0.0
  0
LINE
  5
357
330
1F
100
AcDbEntity
  8
C-2
  6
Continuous
 62
     3
370
     9
100
AcDbLine
 10
429.8915553737334
 20
835.8791358354993
 30
0.0
 11
447.8920601509714
 21
835.8791358354993
 31
0.0
  0
LINE
  5
358
330
1F
100
AcDbEntity
  8
C-2
  6
Continuous
 62
     3
370
     9
100
AcDbLine
 10
451.8914300042232
 20
935.8789708756174
 30
0.0
 11
469.8916873416385
 21
935.8789708756174
 31
0.0
  0
LINE
  5
359
330
1F
100
AcDbEntity
  8
C-2
  6
Continuous
 62
     3
370
     9
100
AcDbLine
 10
451.8914300042232
 20
938.8786838454232
 30
0.0
 11
469.8916873416385
 21
938.8786838454232
 31
0.0
  0
LINE
  5
35A
330
1F
100
AcDbEntity
  8
C-2
  6
Continuous
 62
     3
370
     9
100
AcDbLine
 10
451.8914300042232
 20
838.8790962451276
 30
0.0
 11
469.8916873416385
 21
838.8790962451276
 31
0.0
  0
LINE
  5
35B
330
1F
100
AcDbEntity
  8
C-2
  6
Continuous
 62
     3
370
     9
100
AcDbLine
 10
451.8914300042232
 20
835.8791358354993
 30
0.0
 11
469.8916873416385
 21
835.8791358354993
 31
0.0
  0
LINE
  5
35C
330
1F
100
AcDbEntity
  8
C-2
  6
Continuous
 62
     3
370
     9
100
AcDbLine
 10
-516.1078788138724
 20
738.8791374850982
 30
0.0
 11
-498.1079926361909
 21
738.8791374850982
 31
0.0
  0
LINE
  5
35D
330
1F
100
AcDbEntity
  8
C-2
  6
Continuous
 62
     3
370
     9
100
AcDbLine
 10
-516.1078788138724
 20
735.8790533555583
 30
0.0
 11
-498.1079926361909
 21
735.8790533555583
 31
0.0
  0
LINE
  5
35E
330
1F
100
AcDbEntity
  8
C-2
  6
Continuous
 62
     3
370
     9
100
AcDbLine
 10
-494.1081279032937
 20
738.8791374850982
 30
0.0
 11
-476.1076231260557
 21
738.8791374850982
 31
0.0
  0
LINE
  5
35F
330
1F
100
AcDbEntity
  8
C-2
  6
Continuous
 62
     3
370
     9
100
AcDbLine
 10
-494.1081279032937
 20
735.8790533555583
 30
0.0
 11
-476.1076231260557
 21
735.8790533555583
 31
0.0
  0
LINE
  5
360
330
1F
100
AcDbEntity
  8
C-2
  6
Continuous
 62
     3
370
     9
100
AcDbLine
 10
-472.1082532728039
 20
738.8791374850982
 30
0.0
 11
-454.1078722154771
 21
738.8791374850982
 31
0.0
  0
LINE
  5
361
330
1F
100
AcDbEntity
  8
C-2
  6
Continuous
 62
     3
370
     9
100
AcDbLine
 10
-472.1082532728039
 20
735.8790533555583
 30
0.0
 11
-454.1078722154771
 21
735.8790533555583
 31
0.0
  0
LINE
  5
362
330
1F
100
AcDbEntity
  8
C-2
  6
Continuous
 62
     3
370
     9
100
AcDbLine
 10
-450.1085023622255
 20
738.8791374850982
 30
0.0
 11
-432.1081213048984
 21
738.8791374850982
 31
0.0
  0
LINE
  5
363
330
1F
100
AcDbEntity
  8
C-2
  6
Continuous
 62
     3
370
     9
100
AcDbLine
 10
-450.1085023622255
 20
735.8790533555583
 30
0.0
 11
-432.1081213048984
 21
735.8790533555583
 31
0.0
  0
LINE
  5
364
330
1F
100
AcDbEntity
  8
C-2
  6
Continuous
 62
     3
370
     9
100
AcDbLine
 10
-428.1081328520904
 20
738.8791374850982
 30
0.0
 11
-410.1082466744086
 21
738.8791374850982
 31
0.0
  0
LINE
  5
365
330
1F
100
AcDbEntity
  8
C-2
  6
Continuous
 62
     3
370
     9
100
AcDbLine
 10
-428.1081328520904
 20
735.8790533555583
 30
0.0
 11
-410.1082466744086
 21
735.8790533555583
 31
0.0
  0
LINE
  5
366
330
1F
100
AcDbEntity
  8
C-2
  6
Continuous
 62
     3
370
     9
100
AcDbLine
 10
-406.1083819415117
 20
738.8791374850982
 30
0.0
 11
-388.1080008841849
 21
738.8791374850982
 31
0.0
  0
LINE
  5
367
330
1F
100
AcDbEntity
  8
C-2
  6
Continuous
 62
     3
370
     9
100
AcDbLine
 10
-406.1083819415117
 20
735.8790533555583
 30
0.0
 11
-388.1080008841849
 21
735.8790533555583
 31
0.0
  0
LINE
  5
368
330
1F
100
AcDbEntity
  8
C-2
  6
Continuous
 62
     3
370
     9
100
AcDbLine
 10
-384.1080124313766
 20
738.8791374850982
 30
0.0
 11
-366.1076313740497
 21
738.8791374850982
 31
0.0
  0
LINE
  5
369
330
1F
100
AcDbEntity
  8
C-2
  6
Continuous
 62
     3
370
     9
100
AcDbLine
 10
-384.1080124313766
 20
735.8790533555583
 30
0.0
 11
-366.1076313740497
 21
735.8790533555583
 31
0.0
  0
LINE
  5
36A
330
1F
100
AcDbEntity
  8
C-2
  6
Continuous
 62
     3
370
     9
100
AcDbLine
 10
-362.1082615207982
 20
738.8791374850982
 30
0.0
 11
-344.1078804634711
 21
738.8791374850982
 31
0.0
  0
LINE
  5
36B
330
1F
100
AcDbEntity
  8
C-2
  6
Continuous
 62
     3
370
     9
100
AcDbLine
 10
-362.1082615207982
 20
735.8790533555583
 30
0.0
 11
-344.1078804634711
 21
735.8790533555583
 31
0.0
  0
LINE
  5
36C
330
1F
100
AcDbEntity
  8
C-2
  6
Continuous
 62
     3
370
     9
100
AcDbLine
 10
-340.1085106102195
 20
738.8791374850982
 30
0.0
 11
-322.1081295528927
 21
738.8791374850982
 31
0.0
  0
LINE
  5
36D
330
1F
100
AcDbEntity
  8
C-2
  6
Continuous
 62
     3
370
     9
100
AcDbLine
 10
-340.1085106102195
 20
735.8790533555583
 30
0.0
 11
-322.1081295528927
 21
735.8790533555583
 31
0.0
  0
LINE
  5
36E
330
1F
100
AcDbEntity
  8
C-2
  6
Continuous
 62
     3
370
     9
100
AcDbLine
 10
-318.1081411000844
 20
738.8791374850982
 30
0.0
 11
-300.1082549224029
 21
738.8791374850982
 31
0.0
  0
LINE
  5
36F
330
1F
100
AcDbEntity
  8
C-2
  6
Continuous
 62
     3
370
     9
100
AcDbLine
 10
-318.1081411000844
 20
735.8790533555583
 30
0.0
 11
-300.1082549224029
 21
735.8790533555583
 31
0.0
  0
LINE
  5
370
330
1F
100
AcDbEntity
  8
C-2
  6
Continuous
 62
     3
370
     9
100
AcDbLine
 10
-296.1078953098607
 20
738.8791374850982
 30
0.0
 11
-278.1080091321789
 21
738.8791374850982
 31
0.0
  0
LINE
  5
371
330
1F
100
AcDbEntity
  8
C-2
  6
Continuous
 62
     3
370
     9
100
AcDbLine
 10
-296.1078953098607
 20
735.8790533555583
 30
0.0
 11
-278.1080091321789
 21
735.8790533555583
 31
0.0
  0
LINE
  5
372
330
1F
100
AcDbEntity
  8
C-2
  6
Continuous
 62
     3
370
     9
100
AcDbLine
 10
-274.1080206793706
 20
738.8791374850982
 30
0.0
 11
-256.1076396220437
 21
738.8791374850982
 31
0.0
  0
LINE
  5
373
330
1F
100
AcDbEntity
  8
C-2
  6
Continuous
 62
     3
370
     9
100
AcDbLine
 10
-274.1080206793706
 20
735.8790533555583
 30
0.0
 11
-256.1076396220437
 21
735.8790533555583
 31
0.0
  0
LINE
  5
374
330
1F
100
AcDbEntity
  8
C-2
  6
Continuous
 62
     3
370
     9
100
AcDbLine
 10
-252.1082697687922
 20
738.8791374850982
 30
0.0
 11
-234.1078887114654
 21
738.8791374850982
 31
0.0
  0
LINE
  5
375
330
1F
100
AcDbEntity
  8
C-2
  6
Continuous
 62
     3
370
     9
100
AcDbLine
 10
-252.1082697687922
 20
735.8790533555583
 30
0.0
 11
-234.1078887114654
 21
735.8790533555583
 31
0.0
  0
LINE
  5
376
330
1F
100
AcDbEntity
  8
C-2
  6
Continuous
 62
     3
370
     9
100
AcDbLine
 10
-230.1083951383023
 20
738.8791374850982
 30
0.0
 11
-212.1080140809755
 21
738.8791374850982
 31
0.0
  0
LINE
  5
377
330
1F
100
AcDbEntity
  8
C-2
  6
Continuous
 62
     3
370
     9
100
AcDbLine
 10
-230.1083951383023
 20
735.8790533555583
 30
0.0
 11
-212.1080140809755
 21
735.8790533555583
 31
0.0
  0
LINE
  5
378
330
1F
100
AcDbEntity
  8
C-2
  6
Continuous
 62
     3
370
     9
100
AcDbLine
 10
-208.1081493480784
 20
738.8791374850982
 30
0.0
 11
-190.1082631703969
 21
738.8791374850982
 31
0.0
  0
LINE
  5
379
330
1F
100
AcDbEntity
  8
C-2
  6
Continuous
 62
     3
370
     9
100
AcDbLine
 10
-208.1081493480784
 20
735.8790533555583
 30
0.0
 11
-190.1082631703969
 21
735.8790533555583
 31
0.0
  0
LINE
  5
37A
330
1F
100
AcDbEntity
  8
C-2
  6
Continuous
 62
     3
370
     9
100
AcDbLine
 10
-186.1079035578547
 20
738.8791374850982
 30
0.0
 11
-168.1078936602617
 21
738.8791374850982
 31
0.0
  0
LINE
  5
37B
330
1F
100
AcDbEntity
  8
C-2
  6
Continuous
 62
     3
370
     9
100
AcDbLine
 10
-186.1079035578547
 20
735.8790533555583
 30
0.0
 11
-168.1078936602617
 21
735.8790533555583
 31
0.0
  0
LINE
  5
37C
330
1F
100
AcDbEntity
  8
C-2
  6
Continuous
 62
     3
370
     9
100
AcDbLine
 10
-164.1080289273648
 20
738.8791374850982
 30
0.0
 11
-146.107647870038
 21
738.8791374850982
 31
0.0
  0
LINE
  5
37D
330
1F
100
AcDbEntity
  8
C-2
  6
Continuous
 62
     3
370
     9
100
AcDbLine
 10
-164.1080289273648
 20
735.8790533555583
 30
0.0
 11
-146.107647870038
 21
735.8790533555583
 31
0.0
  0
LINE
  5
37E
330
1F
100
AcDbEntity
  8
C-2
  6
Continuous
 62
     3
370
     9
100
AcDbLine
 10
-142.1082780167862
 20
738.8791374850982
 30
0.0
 11
-124.1078969594594
 21
738.8791374850982
 31
0.0
  0
LINE
  5
37F
330
1F
100
AcDbEntity
  8
C-2
  6
Continuous
 62
     3
370
     9
100
AcDbLine
 10
-142.1082780167862
 20
735.8790533555583
 30
0.0
 11
-124.1078969594594
 21
735.8790533555583
 31
0.0
  0
LINE
  5
380
330
1F
100
AcDbEntity
  8
C-2
  6
Continuous
 62
     3
370
     9
100
AcDbLine
 10
-120.1084033862963
 20
738.8791374850982
 30
0.0
 11
-102.1080223289695
 21
738.8791374850982
 31
0.0
  0
LINE
  5
381
330
1F
100
AcDbEntity
  8
C-2
  6
Continuous
 62
     3
370
     9
100
AcDbLine
 10
-120.1084033862963
 20
735.8790533555583
 30
0.0
 11
-102.1080223289695
 21
735.8790533555583
 31
0.0
  0
LINE
  5
382
330
1F
100
AcDbEntity
  8
C-2
  6
Continuous
 62
     3
370
     9
100
AcDbLine
 10
-98.10815759607266
 20
738.8791374850982
 30
0.0
 11
-80.10827141839087
 21
738.8791374850982
 31
0.0
  0
LINE
  5
383
330
1F
100
AcDbEntity
  8
C-2
  6
Continuous
 62
     3
370
     9
100
AcDbLine
 10
-98.10815759607266
 20
735.8790533555583
 30
0.0
 11
-80.10827141839087
 21
735.8790533555583
 31
0.0
  0
LINE
  5
384
330
1F
100
AcDbEntity
  8
C-2
  6
Continuous
 62
     3
370
     9
100
AcDbLine
 10
-76.1077880859375
 20
738.8791374850982
 30
0.0
 11
-58.10790190825571
 21
738.8791374850982
 31
0.0
  0
LINE
  5
385
330
1F
100
AcDbEntity
  8
C-2
  6
Continuous
 62
     3
370
     9
100
AcDbLine
 10
-76.1077880859375
 20
735.8790533555583
 30
0.0
 11
-58.10790190825571
 21
735.8790533555583
 31
0.0
  0
LINE
  5
386
330
1F
100
AcDbEntity
  8
C-2
  6
Continuous
 62
     3
370
     9
100
AcDbLine
 10
-54.10803717535885
 20
738.8791374850982
 30
0.0
 11
-36.10815099767734
 21
738.8791374850982
 31
0.0
  0
LINE
  5
387
330
1F
100
AcDbEntity
  8
C-2
  6
Continuous
 62
     3
370
     9
100
AcDbLine
 10
-54.10803717535885
 20
735.8790533555583
 30
0.0
 11
-36.10815099767734
 21
735.8790533555583
 31
0.0
  0
LINE
  5
388
330
1F
100
AcDbEntity
  8
C-2
  6
Continuous
 62
     3
370
     9
100
AcDbLine
 10
-32.10828626478019
 20
738.8791374850982
 30
0.0
 11
-14.10778148754218
 21
738.8791374850982
 31
0.0
  0
LINE
  5
389
330
1F
100
AcDbEntity
  8
C-2
  6
Continuous
 62
     3
370
     9
100
AcDbLine
 10
-32.10828626478019
 20
735.8790533555583
 30
0.0
 11
-14.10778148754218
 21
735.8790533555583
 31
0.0
  0
LINE
  5
38A
330
1F
100
AcDbEntity
  8
C-2
  6
Continuous
 62
     3
370
     9
100
AcDbLine
 10
-10.10841163429035
 20
738.8791374850982
 30
0.0
 11
7.891845703125
 21
738.8791374850982
 31
0.0
  0
LINE
  5
38B
330
1F
100
AcDbEntity
  8
C-2
  6
Continuous
 62
     3
370
     9
100
AcDbLine
 10
-10.10841163429035
 20
735.8790533555583
 30
0.0
 11
7.891845703125
 21
735.8790533555583
 31
0.0
  0
LINE
  5
38C
330
1F
100
AcDbEntity
  8
C-2
  6
Continuous
 62
     3
370
     9
100
AcDbLine
 10
11.89195787584481
 20
738.8791374850982
 30
0.0
 11
29.89172033361484
 21
738.8791374850982
 31
0.0
  0
LINE
  5
38D
330
1F
100
AcDbEntity
  8
C-2
  6
Continuous
 62
     3
370
     9
100
AcDbLine
 10
11.89195787584481
 20
735.8790533555583
 30
0.0
 11
29.89172033361484
 21
735.8790533555583
 31
0.0
  0
LINE
  5
38E
330
1F
100
AcDbEntity
  8
C-2
  6
Continuous
 62
     3
370
     9
100
AcDbLine
 10
33.89207994615731
 20
738.8791374850982
 30
0.0
 11
51.89159496410497
 21
738.8791374850982
 31
0.0
  0
LINE
  5
38F
330
1F
100
AcDbEntity
  8
C-2
  6
Continuous
 62
     3
370
     9
100
AcDbLine
 10
33.89207994615731
 20
735.8790533555583
 30
0.0
 11
51.89159496410497
 21
735.8790533555583
 31
0.0
  0
LINE
  5
390
330
1F
100
AcDbEntity
  8
C-2
  6
Continuous
 62
     3
370
     9
100
AcDbLine
 10
55.89195457664715
 20
738.8791374850982
 30
0.0
 11
73.89196447424013
 21
738.8791374850982
 31
0.0
  0
LINE
  5
391
330
1F
100
AcDbEntity
  8
C-2
  6
Continuous
 62
     3
370
     9
100
AcDbLine
 10
55.89195457664715
 20
735.8790533555583
 30
0.0
 11
73.89196447424013
 21
735.8790533555583
 31
0.0
  0
LINE
  5
392
330
1F
100
AcDbEntity
  8
C-2
  6
Continuous
 62
     3
370
     9
100
AcDbLine
 10
77.891829207137
 20
738.8791374850982
 30
0.0
 11
95.89208654455263
 21
738.8791374850982
 31
0.0
  0
LINE
  5
393
330
1F
100
AcDbEntity
  8
C-2
  6
Continuous
 62
     3
370
     9
100
AcDbLine
 10
77.891829207137
 20
735.8790533555583
 30
0.0
 11
95.89208654455263
 21
735.8790533555583
 31
0.0
  0
LINE
  5
394
330
1F
100
AcDbEntity
  8
C-2
  6
Continuous
 62
     3
370
     9
100
AcDbLine
 10
99.8919512774495
 20
738.8791374850982
 30
0.0
 11
117.8919611750425
 21
738.8791374850982
 31
0.0
  0
LINE
  5
395
330
1F
100
AcDbEntity
  8
C-2
  6
Continuous
 62
     3
370
     9
100
AcDbLine
 10
99.8919512774495
 20
735.8790533555583
 30
0.0
 11
117.8919611750425
 21
735.8790533555583
 31
0.0
  0
LINE
  5
396
330
1F
100
AcDbEntity
  8
C-2
  6
Continuous
 62
     3
370
     9
100
AcDbLine
 10
121.891331028294
 20
738.8791374850982
 30
0.0
 11
139.8923306851776
 21
738.8791374850982
 31
0.0
  0
LINE
  5
397
330
1F
100
AcDbEntity
  8
C-2
  6
Continuous
 62
     3
370
     9
100
AcDbLine
 10
121.891331028294
 20
735.8790533555583
 30
0.0
 11
139.8923306851776
 21
735.8790533555583
 31
0.0
  0
LINE
  5
398
330
1F
100
AcDbEntity
  8
C-2
  6
Continuous
 62
     3
370
     9
100
AcDbLine
 10
143.8917005384292
 20
738.8791374850982
 30
0.0
 11
161.8914629961995
 21
738.8791374850982
 31
0.0
  0
LINE
  5
399
330
1F
100
AcDbEntity
  8
C-2
  6
Continuous
 62
     3
370
     9
100
AcDbLine
 10
143.8917005384292
 20
735.8790533555583
 30
0.0
 11
161.8914629961995
 21
735.8790533555583
 31
0.0
  0
LINE
  5
39A
330
1F
100
AcDbEntity
  8
C-2
  6
Continuous
 62
     3
370
     9
100
AcDbLine
 10
165.8920700485643
 20
738.8791374850982
 30
0.0
 11
183.8918325063347
 21
738.8791374850982
 31
0.0
  0
LINE
  5
39B
330
1F
100
AcDbEntity
  8
C-2
  6
Continuous
 62
     3
370
     9
100
AcDbLine
 10
165.8920700485643
 20
735.8790533555583
 30
0.0
 11
183.8918325063347
 21
735.8790533555583
 31
0.0
  0
LINE
  5
39C
330
1F
100
AcDbEntity
  8
C-2
  6
Continuous
 62
     3
370
     9
100
AcDbLine
 10
187.8919446790542
 20
738.8791374850982
 30
0.0
 11
205.8922020164698
 21
738.8791374850982
 31
0.0
  0
LINE
  5
39D
330
1F
100
AcDbEntity
  8
C-2
  6
Continuous
 62
     3
370
     9
100
AcDbLine
 10
187.8919446790542
 20
735.8790533555583
 30
0.0
 11
205.8922020164698
 21
735.8790533555583
 31
0.0
  0
LINE
  5
39E
330
1F
100
AcDbEntity
  8
C-2
  6
Continuous
 62
     3
370
     9
100
AcDbLine
 10
209.8915718697214
 20
738.8791374850982
 30
0.0
 11
227.8920766469597
 21
738.8791374850982
 31
0.0
  0
LINE
  5
39F
330
1F
100
AcDbEntity
  8
C-2
  6
Continuous
 62
     3
370
     9
100
AcDbLine
 10
209.8915718697214
 20
735.8790533555583
 30
0.0
 11
227.8920766469597
 21
735.8790533555583
 31
0.0
  0
LINE
  5
3A0
330
1F
100
AcDbEntity
  8
C-2
  6
Continuous
 62
     3
370
     9
100
AcDbLine
 10
231.8914465002112
 20
738.8791374850982
 30
0.0
 11
249.8919512774495
 21
738.8791374850982
 31
0.0
  0
LINE
  5
3A1
330
1F
100
AcDbEntity
  8
C-2
  6
Continuous
 62
     3
370
     9
100
AcDbLine
 10
231.8914465002112
 20
735.8790533555583
 30
0.0
 11
249.8919512774495
 21
735.8790533555583
 31
0.0
  0
LINE
  5
3A2
330
1F
100
AcDbEntity
  8
C-2
  6
Continuous
 62
     3
370
     9
100
AcDbLine
 10
253.8915685705237
 20
738.8791374850982
 30
0.0
 11
271.8915784681167
 21
738.8791374850982
 31
0.0
  0
LINE
  5
3A3
330
1F
100
AcDbEntity
  8
C-2
  6
Continuous
 62
     3
370
     9
100
AcDbLine
 10
253.8915685705237
 20
735.8790533555583
 30
0.0
 11
271.8915784681167
 21
735.8790533555583
 31
0.0
  0
LINE
  5
3A4
330
1F
100
AcDbEntity
  8
C-2
  6
Continuous
 62
     3
370
     9
100
AcDbLine
 10
275.8919380806589
 20
738.8791374850982
 30
0.0
 11
293.8919479782518
 21
738.8791374850982
 31
0.0
  0
LINE
  5
3A5
330
1F
100
AcDbEntity
  8
C-2
  6
Continuous
 62
     3
370
     9
100
AcDbLine
 10
275.8919380806589
 20
735.8790533555583
 30
0.0
 11
293.8919479782518
 21
735.8790533555583
 31
0.0
  0
LINE
  5
3A6
330
1F
100
AcDbEntity
  8
C-2
  6
Continuous
 62
     3
370
     9
100
AcDbLine
 10
297.8918127111487
 20
738.8791374850982
 30
0.0
 11
315.8920700485643
 21
738.8791374850982
 31
0.0
  0
LINE
  5
3A7
330
1F
100
AcDbEntity
  8
C-2
  6
Continuous
 62
     3
370
     9
100
AcDbLine
 10
297.8918127111487
 20
735.8790533555583
 30
0.0
 11
315.8920700485643
 21
735.8790533555583
 31
0.0
  0
LINE
  5
3A8
330
1F
100
AcDbEntity
  8
C-2
  6
Continuous
 62
     3
370
     9
100
AcDbLine
 10
319.8916873416385
 20
738.8791374850982
 30
0.0
 11
337.8919446790542
 21
738.8791374850982
 31
0.0
  0
LINE
  5
3A9
330
1F
100
AcDbEntity
  8
C-2
  6
Continuous
 62
     3
370
     9
100
AcDbLine
 10
319.8916873416385
 20
735.8790533555583
 30
0.0
 11
337.8919446790542
 21
735.8790533555583
 31
0.0
  0
LINE
  5
3AA
330
1F
100
AcDbEntity
  8
C-2
  6
Continuous
 62
     3
370
     9
100
AcDbLine
 10
341.8915619721284
 20
738.8791374850982
 30
0.0
 11
359.891819309544
 21
738.8791374850982
 31
0.0
  0
LINE
  5
3AB
330
1F
100
AcDbEntity
  8
C-2
  6
Continuous
 62
     3
370
     9
100
AcDbLine
 10
341.8915619721284
 20
735.8790533555583
 30
0.0
 11
359.891819309544
 21
735.8790533555583
 31
0.0
  0
LINE
  5
3AC
330
1F
100
AcDbEntity
  8
C-2
  6
Continuous
 62
     3
370
     9
100
AcDbLine
 10
363.8921789220862
 20
738.8791374850982
 30
0.0
 11
381.8916939400339
 21
738.8791374850982
 31
0.0
  0
LINE
  5
3AD
330
1F
100
AcDbEntity
  8
C-2
  6
Continuous
 62
     3
370
     9
100
AcDbLine
 10
363.8921789220862
 20
735.8790533555583
 30
0.0
 11
381.8916939400339
 21
735.8790533555583
 31
0.0
  0
LINE
  5
3AE
330
1F
100
AcDbEntity
  8
C-2
  6
Continuous
 62
     3
370
     9
100
AcDbLine
 10
385.892053552576
 20
738.8791374850982
 30
0.0
 11
403.8915685705237
 21
738.8791374850982
 31
0.0
  0
LINE
  5
3AF
330
1F
100
AcDbEntity
  8
C-2
  6
Continuous
 62
     3
370
     9
100
AcDbLine
 10
385.892053552576
 20
735.8790533555583
 30
0.0
 11
403.8915685705237
 21
735.8790533555583
 31
0.0
  0
LINE
  5
3B0
330
1F
100
AcDbEntity
  8
C-2
  6
Continuous
 62
     3
370
     9
100
AcDbLine
 10
407.8916807432435
 20
738.8791374850982
 30
0.0
 11
425.8921855204815
 21
738.8791374850982
 31
0.0
  0
LINE
  5
3B1
330
1F
100
AcDbEntity
  8
C-2
  6
Continuous
 62
     3
370
     9
100
AcDbLine
 10
407.8916807432435
 20
735.8790533555583
 30
0.0
 11
425.8921855204815
 21
735.8790533555583
 31
0.0
  0
LINE
  5
3B2
330
1F
100
AcDbEntity
  8
C-2
  6
Continuous
 62
     3
370
     9
100
AcDbLine
 10
429.8915553737334
 20
738.8791374850982
 30
0.0
 11
447.8920601509714
 21
738.8791374850982
 31
0.0
  0
LINE
  5
3B3
330
1F
100
AcDbEntity
  8
C-2
  6
Continuous
 62
     3
370
     9
100
AcDbLine
 10
429.8915553737334
 20
735.8790533555583
 30
0.0
 11
447.8920601509714
 21
735.8790533555583
 31
0.0
  0
LINE
  5
3B4
330
1F
100
AcDbEntity
  8
C-2
  6
Continuous
 62
     3
370
     9
100
AcDbLine
 10
451.8914300042232
 20
738.8791374850982
 30
0.0
 11
469.8916873416385
 21
738.8791374850982
 31
0.0
  0
LINE
  5
3B5
330
1F
100
AcDbEntity
  8
C-2
  6
Continuous
 62
     3
370
     9
100
AcDbLine
 10
451.8914300042232
 20
735.8790533555583
 30
0.0
 11
469.8916873416385
 21
735.8790533555583
 31
0.0
  0
LINE
  5
3B6
330
1F
100
AcDbEntity
  8
C-5
  6
Continuous
 62
     7
370
     9
100
AcDbLine
 10
-308.1081081081081
 20
447.3795614319943
 30
0.0
 11
-308.1081081081081
 21
512.3791572802838
 31
0.0
  0
LINE
  5
3B7
330
1F
100
AcDbEntity
  8
C-5
  6
Continuous
 62
     7
370
     9
100
AcDbLine
 10
-308.1081081081081
 20
512.3791572802838
 30
0.0
 11
266.891809411951
 21
512.3791572802838
 31
0.0
  0
LINE
  5
3B8
330
1F
100
AcDbEntity
  8
C-5
  6
Continuous
 62
     7
370
     9
100
AcDbLine
 10
266.891809411951
 20
512.3791572802838
 30
0.0
 11
266.891809411951
 21
447.3795614319943
 31
0.0
  0
LINE
  5
3B9
330
1F
100
AcDbEntity
  8
C-5
  6
Continuous
 62
     7
370
     9
100
AcDbLine
 10
266.891809411951
 20
447.3795614319943
 30
0.0
 11
-308.1081081081081
 21
447.3795614319943
 31
0.0
  0
LINE
  5
3BA
330
1F
100
AcDbEntity
  8
C-4
  6
Continuous
 62
     7
370
     9
100
AcDbLine
 10
339.8927430848818
 20
1072.379643911935
 30
0.0
 11
361.8921228357266
 21
1072.379643911935
 31
0.0
  0
LINE
  5
3BB
330
1F
100
AcDbEntity
  8
C-4
  6
Continuous
 62
     7
370
     9
100
AcDbLine
 10
339.8927430848818
 20
1029.379551534401
 30
0.0
 11
339.8927430848818
 21
1075.379851761386
 31
0.0
  0
LINE
  5
3BC
330
1F
100
AcDbEntity
  8
C-4
  6
Continuous
 62
     7
370
     9
100
AcDbLine
 10
361.8921228357266
 20
1029.379551534401
 30
0.0
 11
361.8921228357266
 21
1075.379851761386
 31
0.0
  0
TEXT
  5
3BD
330
1F
100
AcDbEntity
  8
C-4
  6
Continuous
 62
     2
370
     9
100
AcDbText
 10
-548.069062104096
 20
1145.018924686851
 30
0.0
 40
30.48
  1
2
 41
0.9999999999999998
  7
ＭＳ ゴシック
100
AcDbText
  0
TEXT
  5
3BE
330
1F
100
AcDbEntity
  8
C-4
  6
Continuous
 62
     2
370
     9
100
AcDbText
 10
-55.60776994035052
 20
1145.018924686851
 30
0.0
 40
30.48
  1
994
 41
1.083333333333333
  7
ＭＳ ゴシック
100
AcDbText
  0
TEXT
  5
3BF
330
1F
100
AcDbEntity
  8
C-4
  6
Continuous
 62
     2
370
     9
100
AcDbText
 10
447.9306607633026
 20
1145.018924686851
 30
0.0
 40
30.48
  1
2
 41
0.9999999999999998
  7
ＭＳ ゴシック
100
AcDbText
  0
TEXT
  5
3C0
330
1F
100
AcDbEntity
  8
C-4
  6
Continuous
 62
     2
370
     9
100
AcDbText
 10
-54.60798933699323
 20
1225.019436062484
 30
0.0
 40
30.48
  1
996
 41
1.083333333333333
  7
ＭＳ ゴシック
100
AcDbText
  0
TEXT
  5
3C1
330
1F
100
AcDbEntity
  8
C-5
  6
Continuous
 62
     2
370
     9
100
AcDbText
 10
-288.1080421241552
 20
465.5192315122307
 30
0.0
 40
30.48
  1
平面詳細図　Ｓ＝１：１０
 41
1.114583333333333
  7
ＭＳ ゴシック
100
AcDbText
  0
TEXT
  5
3C2
330
1F
100
AcDbEntity
  8
C-4
  6
Continuous
 62
     2
370
     9
100
AcDbText
 10
329.6425484322214
 20
1083.019660407923
 30
0.0
 40
30.48
  1
22
 41
1.0625
  7
ＭＳ ゴシック
100
AcDbText
  0
LINE
  5
3C3
330
1F
100
AcDbEntity
  8
C-A
  6
Continuous
 62
     3
370
     9
100
AcDbLine
 10
-259.8582648884873
 20
627.3796342159578
 30
0.0
 11
-261.1082648884873
 21
627.3796342159578
 31
0.0
  0
LINE
  5
3C4
330
1F
100
AcDbEntity
  8
C-A
  6
Continuous
 62
     3
370
     9
100
AcDbLine
 10
-259.8582648884873
 20
627.3796342159578
 30
0.0
 11
-259.8582648884873
 21
598.3796494747496
 31
0.0
  0
LINE
  5
3C5
330
1F
100
AcDbEntity
  8
C-A
  6
Continuous
 62
     3
370
     9
100
AcDbLine
 10
-261.1129340779395
 20
631.3796494747469
 30
0.0
 11
-260.5997810017676
 21
631.3796494747469
 31
0.0
  0
LINE
  5
3C6
330
1F
100
AcDbEntity
  8
C-A
  6
Continuous
 62
     3
370
     9
100
AcDbLine
 10
-276.6082038533297
 20
631.3796494747469
 30
0.0
 11
-276.1082343709087
 21
631.3796494747469
 31
0.0
  0
LINE
  5
3C7
330
1F
100
AcDbEntity
  8
C-A
  6
Continuous
 62
     3
370
     9
100
AcDbLine
 10
-277.3583259236422
 20
627.3796342159578
 30
0.0
 11
-276.1083564412207
 21
627.3796342159578
 31
0.0
  0
LINE
  5
3C8
330
1F
100
AcDbEntity
  8
C-A
  6
Continuous
 62
     3
370
     9
100
AcDbLine
 10
-277.3583259236422
 20
627.3796342159578
 30
0.0
 11
-277.3583259236422
 21
598.3796494747496
 31
0.0
  0
LINE
  5
3C9
330
1F
100
AcDbEntity
  8
C-A
  6
Continuous
 62
     3
370
     9
100
AcDbLine
 10
-259.8582648884873
 20
598.3796494747496
 30
0.0
 11
-277.3583259236422
 21
598.3796494747496
 31
0.0
  0
LINE
  5
3CA
330
1F
100
AcDbEntity
  8
C-A
  6
JWW_DASHED2
 62
     3
370
     9
100
AcDbLine
 10
-261.858295406064
 20
627.5255387569762
 30
0.0
 11
-261.858295406064
 21
598.3796494747496
 31
0.0
  0
LINE
  5
3CB
330
1F
100
AcDbEntity
  8
C-A
  6
JWW_DASHED2
 62
     3
370
     9
100
AcDbLine
 10
-275.358325923644
 20
627.5255387569762
 30
0.0
 11
-275.358325923644
 21
598.3796494747496
 31
0.0
  0
LINE
  5
3CC
330
1F
100
AcDbEntity
  8
C-4
  6
Continuous
 62
     7
370
     9
100
AcDbLine
 10
231.3918266642473
 20
587.6605942989675
 30
0.0
 11
231.3918266642473
 21
544.3794205929128
 31
0.0
  0
LINE
  5
3CD
330
1F
100
AcDbEntity
  8
C-4
  6
Continuous
 62
     7
370
     9
100
AcDbLine
 10
-268.6082648884873
 20
587.6605942989675
 30
0.0
 11
-268.6082648884873
 21
544.3794205929128
 31
0.0
  0
LINE
  5
3CE
330
1F
100
AcDbEntity
  8
C-4
  6
Continuous
 62
     7
370
     9
100
AcDbLine
 10
-268.6082648884873
 20
547.3794816280672
 30
0.0
 11
231.3918266642473
 21
547.3794816280672
 31
0.0
  0
LINE
  5
3CF
330
1F
100
AcDbEntity
  8
C-A
  6
Continuous
 62
     3
370
     9
100
AcDbLine
 10
240.141704593933
 20
627.3796342159578
 30
0.0
 11
238.891704593933
 21
627.3796342159578
 31
0.0
  0
LINE
  5
3D0
330
1F
100
AcDbEntity
  8
C-A
  6
Continuous
 62
     3
370
     9
100
AcDbLine
 10
240.141704593933
 20
627.3796342159578
 30
0.0
 11
240.141704593933
 21
598.3796494747496
 31
0.0
  0
LINE
  5
3D1
330
1F
100
AcDbEntity
  8
C-A
  6
Continuous
 62
     3
370
     9
100
AcDbLine
 10
238.8870659220593
 20
631.3796494747469
 30
0.0
 11
239.4002495158098
 21
631.3796494747469
 31
0.0
  0
LINE
  5
3D2
330
1F
100
AcDbEntity
  8
C-A
  6
Continuous
 62
     3
370
     9
100
AcDbLine
 10
223.3918266642455
 20
631.3796494747469
 30
0.0
 11
223.8917656290901
 21
631.3796494747469
 31
0.0
  0
LINE
  5
3D3
330
1F
100
AcDbEntity
  8
C-A
  6
Continuous
 62
     3
370
     9
100
AcDbLine
 10
222.6416435587781
 20
627.3796342159578
 30
0.0
 11
223.8916435587781
 21
627.3796342159578
 31
0.0
  0
LINE
  5
3D4
330
1F
100
AcDbEntity
  8
C-A
  6
Continuous
 62
     3
370
     9
100
AcDbLine
 10
222.6416435587781
 20
627.3796342159578
 30
0.0
 11
222.6416435587781
 21
598.3796494747496
 31
0.0
  0
LINE
  5
3D5
330
1F
100
AcDbEntity
  8
C-A
  6
Continuous
 62
     3
370
     9
100
AcDbLine
 10
240.141704593933
 20
598.3796494747496
 30
0.0
 11
222.6416435587781
 21
598.3796494747496
 31
0.0
  0
LINE
  5
3D6
330
1F
100
AcDbEntity
  8
C-A
  6
JWW_DASHED2
 62
     3
370
     9
100
AcDbLine
 10
238.1417045939348
 20
627.5255387569762
 30
0.0
 11
238.1417045939348
 21
598.3796494747496
 31
0.0
  0
LINE
  5
3D7
330
1F
100
AcDbEntity
  8
C-A
  6
JWW_DASHED2
 62
     3
370
     9
100
AcDbLine
 10
224.6417045939334
 20
627.5255387569762
 30
0.0
 11
224.6417045939334
 21
598.3796494747496
 31
0.0
  0
LINE
  5
3D8
330
1F
100
AcDbEntity
  8
C-A
  6
JWW_CENTER2
 62
     7
370
     9
100
AcDbLine
 10
225.6157036173714
 20
608.3796952511141
 30
0.0
 11
237.1677666056517
 21
608.3796952511141
 31
0.0
  0
LINE
  5
3D9
330
1F
100
AcDbEntity
  8
C-A
  6
JWW_CENTER2
 62
     7
370
     9
100
AcDbLine
 10
231.3917656290901
 20
640.8478196407661
 30
0.0
 11
231.3917656290901
 21
593.4474290157634
 31
0.0
  0
LINE
  5
3DA
330
1F
100
AcDbEntity
  8
C-A
  6
JWW_CENTER2
 62
     7
370
     9
100
AcDbLine
 10
-274.3842658650489
 20
608.3796952511141
 30
0.0
 11
-262.8322333943471
 21
608.3796952511141
 31
0.0
  0
LINE
  5
3DB
330
1F
100
AcDbEntity
  8
C-A
  6
JWW_CENTER2
 62
     7
370
     9
100
AcDbLine
 10
-268.6082648884873
 20
640.8478196407661
 30
0.0
 11
-268.6082648884873
 21
593.4474290157634
 31
0.0
  0
ARC
  5
3DC
330
1F
100
AcDbEntity
  8
C-A
  6
Continuous
 62
     3
370
     9
100
AcDbCircle
 10
-260.6082038533306
 20
633.3796189571688
 30
0.0
 40
1.999999642372131
100
AcDbArc
 50
270.2416229248047
 51
330.0007171630859
  0
ARC
  5
3DD
330
1F
100
AcDbEntity
  8
C-A
  6
Continuous
 62
     3
370
     9
100
AcDbCircle
 10
-261.1082648884873
 20
629.3796494747487
 30
0.0
 40
1.999999642372131
100
AcDbArc
 50
90.13328552246095
 51
270.0
  0
ARC
  5
3DE
330
1F
100
AcDbEntity
  8
C-A
  6
Continuous
 62
     3
370
     9
100
AcDbCircle
 10
-276.6082038533297
 20
633.3796189571688
 30
0.0
 40
1.999999642372131
100
AcDbArc
 50
209.99951171875
 51
269.7240295410157
  0
ARC
  5
3DF
330
1F
100
AcDbEntity
  8
C-A
  6
Continuous
 62
     3
370
     9
100
AcDbCircle
 10
-276.1083564412207
 20
629.3796494747487
 30
0.0
 40
1.999999642372131
100
AcDbArc
 50
270.0
 51
90.0
  0
CIRCLE
  5
3E0
330
1F
100
AcDbEntity
  8
C-A
  6
Continuous
 62
     3
370
     9
100
AcDbCircle
 10
-268.6082648884873
 20
608.3796952511141
 30
0.0
 40
4.249999523162842
  0
ARC
  5
3E1
330
1F
100
AcDbEntity
  8
C-A
  6
Continuous
 62
     3
370
     9
100
AcDbCircle
 10
239.3917656290897
 20
633.3796189571688
 30
0.0
 40
1.999999642372131
100
AcDbArc
 50
270.2416229248047
 51
330.0007171630859
  0
ARC
  5
3E2
330
1F
100
AcDbEntity
  8
C-A
  6
Continuous
 62
     3
370
     9
100
AcDbCircle
 10
238.891704593933
 20
629.3796494747487
 30
0.0
 40
1.999999642372131
100
AcDbArc
 50
90.13328552246095
 51
270.0
  0
ARC
  5
3E3
330
1F
100
AcDbEntity
  8
C-A
  6
Continuous
 62
     3
370
     9
100
AcDbCircle
 10
223.3918266642455
 20
633.3796189571688
 30
0.0
 40
1.999999642372131
100
AcDbArc
 50
209.99951171875
 51
269.7240295410157
  0
ARC
  5
3E4
330
1F
100
AcDbEntity
  8
C-A
  6
Continuous
 62
     3
370
     9
100
AcDbCircle
 10
223.8916435587781
 20
629.3796494747487
 30
0.0
 40
1.999999642372131
100
AcDbArc
 50
270.0
 51
90.0
  0
CIRCLE
  5
3E5
330
1F
100
AcDbEntity
  8
C-A
  6
Continuous
 62
     3
370
     9
100
AcDbCircle
 10
231.3917656290901
 20
608.3796952511141
 30
0.0
 40
4.249999523162842
  0
LWPOLYLINE
  5
3E6
330
1F
100
AcDbEntity
  8
C-4
  6
Continuous
 62
     7
370
     9
100
AcDbPolyline
 90
        4
 70
     1
 43
2.0
 10
232.3918266642473
 20
547.3794816280672
 42
0.4142135623731
 10
231.3918266642473
 20
548.3794816280672
 42
0.4142135623731
 10
230.3918266642473
 20
547.3794816280672
 42
0.4142135623731
 10
231.3918266642473
 20
546.3794816280672
 42
0.4142135623731
  0
LWPOLYLINE
  5
3E7
330
1F
100
AcDbEntity
  8
C-4
  6
Continuous
 62
     7
370
     9
100
AcDbPolyline
 90
        4
 70
     1
 43
2.0
 10
-267.6082648884873
 20
547.3794816280672
 42
0.4142135623731
 10
-268.6082648884873
 20
548.3794816280672
 42
0.4142135623731
 10
-269.6082648884873
 20
547.3794816280672
 42
0.4142135623731
 10
-268.6082648884873
 20
546.3794816280672
 42
0.4142135623731
  0
TEXT
  5
3E8
330
1F
100
AcDbEntity
  8
C-4
  6
Continuous
 62
     2
370
     9
100
AcDbText
 10
-51.10823437090758
 20
558.0192527462312
 30
0.0
 40
30.48
  1
500
 41
1.083333333333295
  7
ＭＳ ゴシック
100
AcDbText
  0
LINE
  5
3E9
330
1F
100
AcDbEntity
  8
C-A
  6
Continuous
 62
     3
370
     9
100
AcDbLine
 10
-259.8582648884873
 20
1047.380085613612
 30
0.0
 11
-261.1082648884873
 21
1047.380085613612
 31
0.0
  0
LINE
  5
3EA
330
1F
100
AcDbEntity
  8
C-A
  6
Continuous
 62
     3
370
     9
100
AcDbLine
 10
-259.8582648884873
 20
1047.380085613612
 30
0.0
 11
-259.8582648884873
 21
1076.380069877986
 31
0.0
  0
LINE
  5
3EB
330
1F
100
AcDbEntity
  8
C-A
  6
Continuous
 62
     3
370
     9
100
AcDbLine
 10
-261.1129340779395
 20
1043.38007226217
 30
0.0
 11
-260.5997810017676
 21
1043.38007226217
 31
0.0
  0
LINE
  5
3EC
330
1F
100
AcDbEntity
  8
C-A
  6
Continuous
 62
     3
370
     9
100
AcDbLine
 10
-276.6082038533297
 20
1043.38007226217
 30
0.0
 11
-276.1082343709087
 21
1043.38007226217
 31
0.0
  0
LINE
  5
3ED
330
1F
100
AcDbEntity
  8
C-A
  6
Continuous
 62
     3
370
     9
100
AcDbLine
 10
-277.3583259236422
 20
1047.380085613612
 30
0.0
 11
-276.1083564412207
 21
1047.380085613612
 31
0.0
  0
LINE
  5
3EE
330
1F
100
AcDbEntity
  8
C-A
  6
Continuous
 62
     3
370
     9
100
AcDbLine
 10
-277.3583259236422
 20
1047.380085613612
 30
0.0
 11
-277.3583259236422
 21
1076.380069877986
 31
0.0
  0
LINE
  5
3EF
330
1F
100
AcDbEntity
  8
C-A
  6
Continuous
 62
     3
370
     9
100
AcDbLine
 10
-259.8582648884873
 20
1076.380069877986
 30
0.0
 11
-277.3583259236422
 21
1076.380069877986
 31
0.0
  0
LINE
  5
3F0
330
1F
100
AcDbEntity
  8
C-A
  6
JWW_DASHED2
 62
     3
370
     9
100
AcDbLine
 10
-261.858295406064
 20
1047.234170105341
 30
0.0
 11
-261.858295406064
 21
1076.380069877986
 31
0.0
  0
LINE
  5
3F1
330
1F
100
AcDbEntity
  8
C-A
  6
JWW_DASHED2
 62
     3
370
     9
100
AcDbLine
 10
-275.358325923644
 20
1047.234170105341
 30
0.0
 11
-275.358325923644
 21
1076.380069877986
 31
0.0
  0
LINE
  5
3F2
330
1F
100
AcDbEntity
  8
C-A
  6
Continuous
 62
     3
370
     9
100
AcDbLine
 10
240.141704593933
 20
1047.380085613612
 30
0.0
 11
238.891704593933
 21
1047.380085613612
 31
0.0
  0
LINE
  5
3F3
330
1F
100
AcDbEntity
  8
C-A
  6
Continuous
 62
     3
370
     9
100
AcDbLine
 10
240.141704593933
 20
1047.380085613612
 30
0.0
 11
240.141704593933
 21
1076.380069877986
 31
0.0
  0
LINE
  5
3F4
330
1F
100
AcDbEntity
  8
C-A
  6
Continuous
 62
     3
370
     9
100
AcDbLine
 10
238.8870659220593
 20
1043.38007226217
 30
0.0
 11
239.4002495158098
 21
1043.38007226217
 31
0.0
  0
LINE
  5
3F5
330
1F
100
AcDbEntity
  8
C-A
  6
Continuous
 62
     3
370
     9
100
AcDbLine
 10
223.3918266642455
 20
1043.38007226217
 30
0.0
 11
223.8917656290901
 21
1043.38007226217
 31
0.0
  0
LINE
  5
3F6
330
1F
100
AcDbEntity
  8
C-A
  6
Continuous
 62
     3
370
     9
100
AcDbLine
 10
222.6416435587781
 20
1047.380085613612
 30
0.0
 11
223.8916435587781
 21
1047.380085613612
 31
0.0
  0
LINE
  5
3F7
330
1F
100
AcDbEntity
  8
C-A
  6
Continuous
 62
     3
370
     9
100
AcDbLine
 10
222.6416435587781
 20
1047.380085613612
 30
0.0
 11
222.6416435587781
 21
1076.380069877986
 31
0.0
  0
LINE
  5
3F8
330
1F
100
AcDbEntity
  8
C-A
  6
Continuous
 62
     3
370
     9
100
AcDbLine
 10
240.141704593933
 20
1076.380069877986
 30
0.0
 11
222.6416435587781
 21
1076.380069877986
 31
0.0
  0
LINE
  5
3F9
330
1F
100
AcDbEntity
  8
C-A
  6
JWW_DASHED2
 62
     3
370
     9
100
AcDbLine
 10
238.1417045939348
 20
1047.234170105341
 30
0.0
 11
238.1417045939348
 21
1076.380069877986
 31
0.0
  0
LINE
  5
3FA
330
1F
100
AcDbEntity
  8
C-A
  6
JWW_DASHED2
 62
     3
370
     9
100
AcDbLine
 10
224.6417045939334
 20
1047.234170105341
 30
0.0
 11
224.6417045939334
 21
1076.380069877986
 31
0.0
  0
LINE
  5
3FB
330
1F
100
AcDbEntity
  8
C-A
  6
JWW_CENTER2
 62
     7
370
     9
100
AcDbLine
 10
-268.6082648884873
 20
1033.9118911289
 30
0.0
 11
-268.6082648884873
 21
1081.31229033697
 31
0.0
  0
LINE
  5
3FC
330
1F
100
AcDbEntity
  8
C-A
  6
JWW_CENTER2
 62
     7
370
     9
100
AcDbLine
 10
-274.3842658650489
 20
1066.380024101617
 30
0.0
 11
-262.8322333943471
 21
1066.380024101617
 31
0.0
  0
LINE
  5
3FD
330
1F
100
AcDbEntity
  8
C-A
  6
JWW_CENTER2
 62
     7
370
     9
100
AcDbLine
 10
225.6157036173714
 20
1066.380024101617
 30
0.0
 11
237.1677666056517
 21
1066.380024101617
 31
0.0
  0
LINE
  5
3FE
330
1F
100
AcDbEntity
  8
C-A
  6
JWW_CENTER2
 62
     7
370
     9
100
AcDbLine
 10
231.3917656290901
 20
1033.9118911289
 30
0.0
 11
231.3917656290901
 21
1081.31229033697
 31
0.0
  0
ARC
  5
3FF
330
1F
100
AcDbEntity
  8
C-A
  6
Continuous
 62
     3
370
     9
100
AcDbCircle
 10
-260.6082038533306
 20
1041.380090381983
 30
0.0
 40
1.999999642372131
100
AcDbArc
 50
29.99926757812499
 51
89.75836181640624
  0
ARC
  5
400
330
1F
100
AcDbEntity
  8
C-A
  6
Continuous
 62
     3
370
     9
100
AcDbCircle
 10
-261.1082648884873
 20
1045.380066540126
 30
0.0
 40
1.999999642372131
100
AcDbArc
 50
90.0
 51
269.86669921875
  0
ARC
  5
401
330
1F
100
AcDbEntity
  8
C-A
  6
Continuous
 62
     3
370
     9
100
AcDbCircle
 10
-276.6082038533297
 20
1041.380090381983
 30
0.0
 40
1.999999642372131
100
AcDbArc
 50
90.2759552001953
 51
150.0004730224609
  0
ARC
  5
402
330
1F
100
AcDbEntity
  8
C-A
  6
Continuous
 62
     3
370
     9
100
AcDbCircle
 10
-276.1083564412207
 20
1045.380066540126
 30
0.0
 40
1.999999642372131
100
AcDbArc
 50
270.0
 51
90.0
  0
CIRCLE
  5
403
330
1F
100
AcDbEntity
  8
C-A
  6
Continuous
 62
     3
370
     9
100
AcDbCircle
 10
-268.6082648884873
 20
1066.380024101617
 30
0.0
 40
4.249999523162842
  0
ARC
  5
404
330
1F
100
AcDbEntity
  8
C-A
  6
Continuous
 62
     3
370
     9
100
AcDbCircle
 10
239.3917656290897
 20
1041.380090381983
 30
0.0
 40
1.999999642372131
100
AcDbArc
 50
29.99926757812499
 51
89.75836181640624
  0
ARC
  5
405
330
1F
100
AcDbEntity
  8
C-A
  6
Continuous
 62
     3
370
     9
100
AcDbCircle
 10
238.891704593933
 20
1045.380066540126
 30
0.0
 40
1.999999642372131
100
AcDbArc
 50
90.0
 51
269.86669921875
  0
ARC
  5
406
330
1F
100
AcDbEntity
  8
C-A
  6
Continuous
 62
     3
370
     9
100
AcDbCircle
 10
223.3918266642455
 20
1041.380090381983
 30
0.0
 40
1.999999642372131
100
AcDbArc
 50
90.2759552001953
 51
150.0004730224609
  0
ARC
  5
407
330
1F
100
AcDbEntity
  8
C-A
  6
Continuous
 62
     3
370
     9
100
AcDbCircle
 10
223.8916435587781
 20
1045.380066540126
 30
0.0
 40
1.999999642372131
100
AcDbArc
 50
270.0
 51
90.0
  0
CIRCLE
  5
408
330
1F
100
AcDbEntity
  8
C-A
  6
Continuous
 62
     3
370
     9
100
AcDbCircle
 10
231.3917656290901
 20
1066.380024101617
 30
0.0
 40
4.249999523162842
  0
TEXT
  5
409
330
1F
100
AcDbEntity
  8
D-5
  6
Continuous
 62
     3
370
     9
100
AcDbText
 10
-12.07370875528795
 20
-257.6184411737247
 30
0.0
 40
38.1
  1
※適用荷重：Ｔ－２（横断溝用）
 41
1.093333333333333
  7
ＭＳ ゴシック
100
AcDbText
  0
TEXT
  5
40A
330
1F
100
AcDbEntity
  8
D-5
  6
Continuous
 62
     3
370
     9
100
AcDbText
 10
-12.07370875528795
 20
-326.5265515815831
 30
0.0
 40
38.1
  1
※適用荷重：Ｔ－６（側溝用）
 41
1.092857142857143
  7
ＭＳ ゴシック
100
AcDbText
  0
ENDSEC
  0
SECTION
  2
OBJECTS
  0
DICTIONARY
  5
C
330
0
100
AcDbDictionary
281
     1
  3
ACAD_DETAILVIEWSTYLE
350
450
  3
ACAD_GROUP
350
D
  3
ACAD_LAYOUT
350
1A
  3
ACAD_MATERIAL
350
43
  3
ACAD_MLEADERSTYLE
350
6B
  3
ACAD_MLINESTYLE
350
17
  3
ACAD_PLOTSETTINGS
350
19
  3
ACAD_PLOTSTYLENAME
350
E
  3
ACAD_SCALELIST
350
47
  3
ACAD_SECTIONVIEWSTYLE
350
451
  3
ACAD_TABLESTYLE
350
69
  3
ACAD_VISUALSTYLE
350
2A
  3
ACDB_RECOMPOSE_DATA
350
44D
  3
AcDbVariableDictionary
350
40D
  0
DICTIONARY
  5
40B
330
8
100
AcDbDictionary
280
     1
281
     1
  3
ACAD_XREC_ROUNDTRIP
360
40C
  0
DICTIONARY
  5
450
102
{ACAD_REACTORS
330
C
102
}
330
C
100
AcDbDictionary
281
     1
  0
DICTIONARY
  5
D
102
{ACAD_REACTORS
330
C
102
}
330
C
100
AcDbDictionary
281
     1
  0
DICTIONARY
  5
1A
102
{ACAD_REACTORS
330
C
102
}
330
C
100
AcDbDictionary
281
     1
  3
Layout1
350
1E
  3
Layout2
350
26
  3
Model
350
22
  0
DICTIONARY
  5
43
102
{ACAD_REACTORS
330
C
102
}
330
C
100
AcDbDictionary
281
     1
  3
ByBlock
350
45
  3
ByLayer
350
44
  3
Global
350
46
  0
DICTIONARY
  5
6B
102
{ACAD_REACTORS
330
C
102
}
330
C
100
AcDbDictionary
281
     1
  3
Standard
350
6C
  0
DICTIONARY
  5
17
102
{ACAD_REACTORS
330
C
102
}
330
C
100
AcDbDictionary
281
     1
  3
Standard
350
18
  0
DICTIONARY
  5
19
102
{ACAD_REACTORS
330
C
102
}
330
C
100
AcDbDictionary
281
     1
  0
ACDBDICTIONARYWDFLT
  5
E
102
{ACAD_REACTORS
330
C
102
}
330
C
100
AcDbDictionary
281
     1
  3
Normal
350
F
100
AcDbDictionaryWithDefault
340
F
  0
DICTIONARY
  5
47
102
{ACAD_REACTORS
330
C
102
}
330
C
100
AcDbDictionary
281
     1
  3
A0
350
48
  3
A1
350
49
  3
A2
350
4A
  3
A3
350
4B
  3
A4
350
4C
  3
A5
350
4D
  3
A6
350
4E
  3
A7
350
4F
  3
A8
350
50
  3
A9
350
51
  3
B0
350
52
  3
B1
350
53
  3
B2
350
54
  3
B3
350
55
  3
B4
350
56
  3
B5
350
57
  3
B6
350
58
  3
B7
350
59
  3
B8
350
5A
  3
B9
350
5B
  3
C0
350
5C
  3
C1
350
5D
  3
C2
350
5E
  3
C3
350
5F
  3
C4
350
60
  3
C5
350
61
  3
C6
350
62
  3
C7
350
63
  3
C8
350
64
  3
C9
350
65
  3
D0
350
66
  3
D1
350
67
  3
D2
350
68
  0
DICTIONARY
  5
451
102
{ACAD_REACTORS
330
C
102
}
330
C
100
AcDbDictionary
281
     1
  0
DICTIONARY
  5
69
102
{ACAD_REACTORS
330
C
102
}
330
C
100
AcDbDictionary
281
     1
  3
Standard
350
6A
  0
DICTIONARY
  5
2A
102
{ACAD_REACTORS
330
C
102
}
330
C
100
AcDbDictionary
281
     1
  3
2dWireframe
350
2F
  3
Basic
350
32
  3
Brighten
350
36
  3
ColorChange
350
3A
  3
Conceptual
350
34
  3
Dim
350
35
  3
EdgeColorOff
350
3D
  3
Facepattern
350
39
  3
Flat
350
2B
  3
FlatWithEdges
350
2C
  3
Gouraud
350
2D
  3
GouraudWithEdges
350
2E
  3
Hidden
350
31
  3
JitterOff
350
3B
  3
Linepattern
350
38
  3
OverhangOff
350
3C
  3
Realistic
350
33
  3
Shaded
350
42
  3
Shaded with edges
350
41
  3
Shades of Gray
350
3E
  3
Sketchy
350
3F
  3
Thicken
350
37
  3
Wireframe
350
30
  3
X-Ray
350
40
  0
XRECORD
  5
44D
102
{ACAD_REACTORS
330
C
102
}
330
C
100
AcDbXrecord
280
     1
 90
        1
330
6A
  0
DICTIONARY
  5
40D
102
{ACAD_REACTORS
330
C
102
}
330
C
100
AcDbDictionary
281
     1
  3
CANNOSCALE
350
40E
  3
CENTEREXE
350
452
  3
CENTERLTYPEFILE
350
453
  3
CMLEADERSTYLE
350
44F
  3
CTABLESTYLE
350
44E
  3
MSLTSCALE
350
40F
  3
XCLIPFRAME
350
410
  0
XRECORD
  5
40C
102
{ACAD_REACTORS
330
40B
102
}
330
40B
100
AcDbXrecord
280
     1
102
VTR_0.000_0.000_1.000_1.000_VISUALSTYLE
340
2F
102
VTR_0.000_0.000_1.000_1.000_GRIDDISPLAY
 70
     3
102
VTR_0.000_0.000_1.000_1.000_GRIDMAJOR
 70
     5
102
VTR_0.000_0.000_1.000_1.000_DEFAULTLIGHTING
280
     1
102
VTR_0.000_0.000_1.000_1.000_DEFAULTLIGHTINGTYPE
 70
     1
102
VTR_0.000_0.000_1.000_1.000_BRIGHTNESS
141
0.0
102
VTR_0.000_0.000_1.000_1.000_CONTRAST
142
0.0
  0
LAYOUT
  5
1E
102
{ACAD_REACTORS
330
1A
102
}
330
1A
100
AcDbPlotSettings
  1

  2
none_device
  4

  6

 40
0.0
 41
0.0
 42
0.0
 43
0.0
 44
0.0
 45
0.0
 46
0.0
 47
0.0
 48
0.0
 49
0.0
140
0.0
141
0.0
142
1.0
143
1.0
 70
   688
 72
     1
 73
     0
 74
     5
  7

 75
    16
 76
     0
 77
     5
 78
   300
147
1.0
148
0.0
149
0.0
100
AcDbLayout
  1
Layout1
 70
     1
 71
     1
 10
0.0
 20
0.0
 11
420.0
 21
297.0
 12
0.0
 22
0.0
 32
0.0
 14
1.000000000000000E+20
 24
1.000000000000000E+20
 34
1.000000000000000E+20
 15
-1.000000000000000E+20
 25
-1.000000000000000E+20
 35
-1.000000000000000E+20
146
0.0
 13
0.0
 23
0.0
 33
0.0
 16
1.0
 26
0.0
 36
0.0
 17
0.0
 27
1.0
 37
0.0
 76
     0
330
1B
  0
LAYOUT
  5
26
102
{ACAD_REACTORS
330
1A
102
}
330
1A
100
AcDbPlotSettings
  1

  2
none_device
  4

  6

 40
0.0
 41
0.0
 42
0.0
 43
0.0
 44
0.0
 45
0.0
 46
0.0
 47
0.0
 48
0.0
 49
0.0
140
0.0
141
0.0
142
1.0
143
1.0
 70
   688
 72
     1
 73
     0
 74
     5
  7

 75
    16
 76
     0
 77
     5
 78
   300
147
1.0
148
0.0
149
0.0
100
AcDbLayout
  1
Layout2
 70
     1
 71
     2
 10
0.0
 20
0.0
 11
0.0
 21
0.0
 12
0.0
 22
0.0
 32
0.0
 14
0.0
 24
0.0
 34
0.0
 15
0.0
 25
0.0
 35
0.0
146
0.0
 13
0.0
 23
0.0
 33
0.0
 16
1.0
 26
0.0
 36
0.0
 17
0.0
 27
1.0
 37
0.0
 76
     0
330
23
  0
LAYOUT
  5
22
102
{ACAD_REACTORS
330
1A
102
}
330
1A
100
AcDbPlotSettings
  1

  2
none_device
  4
Letter_(8.50_x_11.00_Inches)
  6

 40
6.35
 41
6.35
 42
6.35000508
 43
6.35000508
 44
215.9
 45
279.4
 46
0.0
 47
0.0
 48
0.0
 49
0.0
140
0.0
141
0.0
142
1.0
143
1.0
 70
  1712
 72
     1
 73
     0
 74
     0
  7

 75
     0
 76
     0
 77
     5
 78
   300
147
1.0
148
0.0
149
0.0
100
AcDbLayout
  1
Model
 70
     1
 71
     0
 10
-2100.0
 20
-1485.0
 11
2100.0
 21
1485.0
 12
0.0
 22
0.0
 32
0.0
 14
-2100.0
 24
-1485.0
 34
0.0
 15
2100.0
 25
1485.0
 35
0.0
146
0.0
 13
0.0
 23
0.0
 33
0.0
 16
1.0
 26
0.0
 36
0.0
 17
0.0
 27
1.0
 37
0.0
 76
     0
330
1F
331
29
  0
MATERIAL
  5
45
102
{ACAD_REACTORS
330
43
102
}
102
{ACAD_XDICTIONARY
360
443
102
}
330
43
100
AcDbMaterial
  1
ByBlock
  0
MATERIAL
  5
44
102
{ACAD_REACTORS
330
43
102
}
102
{ACAD_XDICTIONARY
360
441
102
}
330
43
100
AcDbMaterial
  1
ByLayer
  0
MATERIAL
  5
46
102
{ACAD_REACTORS
330
43
102
}
102
{ACAD_XDICTIONARY
360
445
102
}
330
43
100
AcDbMaterial
  1
Global
  0
MLEADERSTYLE
  5
6C
102
{ACAD_REACTORS
330
6B
102
}
102
{ACAD_XDICTIONARY
360
44B
102
}
330
6B
100
AcDbMLeaderStyle
170
     2
171
     1
172
     0
 90
        2
 40
0.0
 41
0.0
173
     1
 91
-1056964608
340
14
 92
       -2
290
     1
 42
2.0
291
     1
 43
8.0
  3
Standard
341
0
 44
4.0
300

342
11
174
     1
178
     6
175
     1
176
     0
 93
-1056964608
 45
4.0
292
     0
297
     0
 46
4.0
343
0
 94
-1056964608
 47
1.0
 49
1.0
140
1.0
293
     1
141
0.0
294
     1
177
     0
142
1.0
295
     0
296
     0
143
3.75
1001
ACAD_MLEADERVER
1070
     2
  0
MLINESTYLE
  5
18
102
{ACAD_REACTORS
330
17
102
}
330
17
100
AcDbMlineStyle
  2
Standard
 70
     0
  3

 62
   256
 51
90.0
 52
90.0
 71
     2
 49
0.5
 62
   256
  6
BYLAYER
 49
-0.5
 62
   256
  6
BYLAYER
  0
ACDBPLACEHOLDER
  5
F
102
{ACAD_REACTORS
330
E
102
}
330
E
  0
SCALE
  5
48
102
{ACAD_REACTORS
330
47
102
}
330
47
100
AcDbScale
 70
     0
300
1:1
140
1.0
141
1.0
290
     1
  0
SCALE
  5
49
102
{ACAD_REACTORS
330
47
102
}
330
47
100
AcDbScale
 70
     0
300
1:2
140
1.0
141
2.0
290
     0
  0
SCALE
  5
4A
102
{ACAD_REACTORS
330
47
102
}
330
47
100
AcDbScale
 70
     0
300
1:4
140
1.0
141
4.0
290
     0
  0
SCALE
  5
4B
102
{ACAD_REACTORS
330
47
102
}
330
47
100
AcDbScale
 70
     0
300
1:5
140
1.0
141
5.0
290
     0
  0
SCALE
  5
4C
102
{ACAD_REACTORS
330
47
102
}
330
47
100
AcDbScale
 70
     0
300
1:8
140
1.0
141
8.0
290
     0
  0
SCALE
  5
4D
102
{ACAD_REACTORS
330
47
102
}
330
47
100
AcDbScale
 70
     0
300
1:10
140
1.0
141
10.0
290
     0
  0
SCALE
  5
4E
102
{ACAD_REACTORS
330
47
102
}
330
47
100
AcDbScale
 70
     0
300
1:16
140
1.0
141
16.0
290
     0
  0
SCALE
  5
4F
102
{ACAD_REACTORS
330
47
102
}
330
47
100
AcDbScale
 70
     0
300
1:20
140
1.0
141
20.0
290
     0
  0
SCALE
  5
50
102
{ACAD_REACTORS
330
47
102
}
330
47
100
AcDbScale
 70
     0
300
1:30
140
1.0
141
30.0
290
     0
  0
SCALE
  5
51
102
{ACAD_REACTORS
330
47
102
}
330
47
100
AcDbScale
 70
     0
300
1:40
140
1.0
141
40.0
290
     0
  0
SCALE
  5
52
102
{ACAD_REACTORS
330
47
102
}
330
47
100
AcDbScale
 70
     0
300
1:50
140
1.0
141
50.0
290
     0
  0
SCALE
  5
53
102
{ACAD_REACTORS
330
47
102
}
330
47
100
AcDbScale
 70
     0
300
1:100
140
1.0
141
100.0
290
     0
  0
SCALE
  5
54
102
{ACAD_REACTORS
330
47
102
}
330
47
100
AcDbScale
 70
     0
300
2:1
140
2.0
141
1.0
290
     0
  0
SCALE
  5
55
102
{ACAD_REACTORS
330
47
102
}
330
47
100
AcDbScale
 70
     0
300
4:1
140
4.0
141
1.0
290
     0
  0
SCALE
  5
56
102
{ACAD_REACTORS
330
47
102
}
330
47
100
AcDbScale
 70
     0
300
8:1
140
8.0
141
1.0
290
     0
  0
SCALE
  5
57
102
{ACAD_REACTORS
330
47
102
}
330
47
100
AcDbScale
 70
     0
300
10:1
140
10.0
141
1.0
290
     0
  0
SCALE
  5
58
102
{ACAD_REACTORS
330
47
102
}
330
47
100
AcDbScale
 70
     0
300
100:1
140
100.0
141
1.0
290
     0
  0
SCALE
  5
59
102
{ACAD_REACTORS
330
47
102
}
330
47
100
AcDbScale
 70
     0
300
1/128" = 1'-0"
140
0.0078125
141
12.0
290
     0
  0
SCALE
  5
5A
102
{ACAD_REACTORS
330
47
102
}
330
47
100
AcDbScale
 70
     0
300
1/64" = 1'-0"
140
0.015625
141
12.0
290
     0
  0
SCALE
  5
5B
102
{ACAD_REACTORS
330
47
102
}
330
47
100
AcDbScale
 70
     0
300
1/32" = 1'-0"
140
0.03125
141
12.0
290
     0
  0
SCALE
  5
5C
102
{ACAD_REACTORS
330
47
102
}
330
47
100
AcDbScale
 70
     0
300
1/16" = 1'-0"
140
0.0625
141
12.0
290
     0
  0
SCALE
  5
5D
102
{ACAD_REACTORS
330
47
102
}
330
47
100
AcDbScale
 70
     0
300
3/32" = 1'-0"
140
0.09375
141
12.0
290
     0
  0
SCALE
  5
5E
102
{ACAD_REACTORS
330
47
102
}
330
47
100
AcDbScale
 70
     0
300
1/8" = 1'-0"
140
0.125
141
12.0
290
     0
  0
SCALE
  5
5F
102
{ACAD_REACTORS
330
47
102
}
330
47
100
AcDbScale
 70
     0
300
3/16" = 1'-0"
140
0.1875
141
12.0
290
     0
  0
SCALE
  5
60
102
{ACAD_REACTORS
330
47
102
}
330
47
100
AcDbScale
 70
     0
300
1/4" = 1'-0"
140
0.25
141
12.0
290
     0
  0
SCALE
  5
61
102
{ACAD_REACTORS
330
47
102
}
330
47
100
AcDbScale
 70
     0
300
3/8" = 1'-0"
140
0.375
141
12.0
290
     0
  0
SCALE
  5
62
102
{ACAD_REACTORS
330
47
102
}
330
47
100
AcDbScale
 70
     0
300
1/2" = 1'-0"
140
0.5
141
12.0
290
     0
  0
SCALE
  5
63
102
{ACAD_REACTORS
330
47
102
}
330
47
100
AcDbScale
 70
     0
300
3/4" = 1'-0"
140
0.75
141
12.0
290
     0
  0
SCALE
  5
64
102
{ACAD_REACTORS
330
47
102
}
330
47
100
AcDbScale
 70
     0
300
1" = 1'-0"
140
1.0
141
12.0
290
     0
  0
SCALE
  5
65
102
{ACAD_REACTORS
330
47
102
}
330
47
100
AcDbScale
 70
     0
300
1-1/2" = 1'-0"
140
1.5
141
12.0
290
     0
  0
SCALE
  5
66
102
{ACAD_REACTORS
330
47
102
}
330
47
100
AcDbScale
 70
     0
300
3" = 1'-0"
140
3.0
141
12.0
290
     0
  0
SCALE
  5
67
102
{ACAD_REACTORS
330
47
102
}
330
47
100
AcDbScale
 70
     0
300
6" = 1'-0"
140
6.0
141
12.0
290
     0
  0
SCALE
  5
68
102
{ACAD_REACTORS
330
47
102
}
330
47
100
AcDbScale
 70
     0
300
1'-0" = 1'-0"
140
12.0
141
12.0
290
     0
  0
TABLESTYLE
  5
6A
102
{ACAD_REACTORS
330
69
102
}
102
{ACAD_XDICTIONARY
360
447
102
}
330
69
100
AcDbTableStyle
  3
Standard
 70
     0
 71
     0
 40
0.06
 41
0.06
280
     0
281
     0
  7
Standard
140
4.5
170
     2
 62
     0
 63
   257
283
     0
274
    -2
284
     1
 64
     0
275
    -2
285
     1
 65
     0
276
    -2
286
     1
 66
     0
277
    -2
287
     1
 67
     0
278
    -2
288
     1
 68
     0
279
    -2
289
     1
 69
     0
  7
Standard
140
6.0
170
     5
 62
     0
 63
   257
283
     0
274
    -2
284
     1
 64
     0
275
    -2
285
     1
 65
     0
276
    -2
286
     1
 66
     0
277
    -2
287
     1
 67
     0
278
    -2
288
     1
 68
     0
279
    -2
289
     1
 69
     0
  7
Standard
140
4.5
170
     5
 62
     0
 63
   257
283
     0
274
    -2
284
     1
 64
     0
275
    -2
285
     1
 65
     0
276
    -2
286
     1
 66
     0
277
    -2
287
     1
 67
     0
278
    -2
288
     1
 68
     0
279
    -2
289
     1
 69
     0
  0
VISUALSTYLE
  5
2F
102
{ACAD_REACTORS
330
2A
102
}
102
{ACAD_XDICTIONARY
360
419
102
}
330
2A
100
AcDbVisualStyle
  2
2dWireframe
 70
     4
 71
     0
 72
     2
 73
     0
 90
        0
 40
0.6
 41
30.0
 62
     5
 63
     7
421
 16777215
 74
     1
 91
        4
 64
     7
 65
   257
 75
     1
175
     1
 42
1.0
 92
        0
 66
   257
 43
1.0
 76
     1
 77
     6
 78
     2
 67
     7
 79
     5
170
     0
171
     0
290
     0
174
     0
 93
        1
 44
0.0
173
     0
291
     0
 45
0.0
1001
ACAD
1000
AcDbSavedByObjectVersion
1070
     0
  0
VISUALSTYLE
  5
32
102
{ACAD_REACTORS
330
2A
102
}
102
{ACAD_XDICTIONARY
360
41F
102
}
330
2A
100
AcDbVisualStyle
  2
Basic
 70
     7
 71
     1
 72
     0
 73
     1
 90
        0
 40
0.6
 41
30.0
 62
     5
 63
     7
421
 16777215
 74
     0
 91
        4
 64
     7
 65
   257
 75
     1
175
     1
 42
1.0
 92
        8
 66
     7
 43
1.0
 76
     1
 77
     6
 78
     2
 67
     7
 79
     5
170
     0
171
     0
290
     0
174
     0
 93
        1
 44
0.0
173
     0
291
     1
 45
0.0
1001
ACAD
1000
AcDbSavedByObjectVersion
1070
     0
  0
VISUALSTYLE
  5
36
102
{ACAD_REACTORS
330
2A
102
}
102
{ACAD_XDICTIONARY
360
427
102
}
330
2A
100
AcDbVisualStyle
  2
Brighten
 70
    12
 71
     2
 72
     2
 73
     0
 90
        0
 40
0.6
 41
30.0
 62
     5
 63
     7
421
 16777215
 74
     1
 91
        4
 64
     7
 65
   257
 75
     1
175
     1
 42
1.0
 92
        8
 66
     7
 43
1.0
 76
     1
 77
     6
 78
     2
 67
     7
 79
     5
170
     0
171
     0
290
     0
174
     0
 93
        1
 44
50.0
173
     0
291
     1
 45
0.0
1001
ACAD
1000
AcDbSavedByObjectVersion
1070
     0
  0
VISUALSTYLE
  5
3A
102
{ACAD_REACTORS
330
2A
102
}
102
{ACAD_XDICTIONARY
360
42F
102
}
330
2A
100
AcDbVisualStyle
  2
ColorChange
 70
    16
 71
     2
 72
     2
 73
     3
 90
        0
 40
0.6
 41
30.0
 62
     5
 63
     8
421
  8421504
 74
     1
 91
        4
 64
     7
 65
   257
 75
     1
175
     1
 42
1.0
 92
        8
 66
     8
424
  8421504
 43
1.0
 76
     1
 77
     6
 78
     2
 67
     7
 79
     5
170
     0
171
     0
290
     0
174
     0
 93
        1
 44
0.0
173
     0
291
     1
 45
0.0
1001
ACAD
1000
AcDbSavedByObjectVersion
1070
     0
  0
VISUALSTYLE
  5
34
102
{ACAD_REACTORS
330
2A
102
}
102
{ACAD_XDICTIONARY
360
423
102
}
330
2A
100
AcDbVisualStyle
  2
Conceptual
 70
     9
 71
     3
 72
     2
 73
     0
 90
        0
 40
0.6
 41
30.0
 62
     5
 63
     7
421
 16777215
 74
     2
 91
        2
 64
     7
 65
   257
 75
     1
175
     1
 42
179.0
 92
        8
 66
     7
 43
1.0
 76
     1
 77
     6
 78
     2
 67
     7
 79
     3
170
     0
171
     0
290
     0
174
     0
 93
        1
 44
0.0
173
     0
291
     0
 45
0.0
1001
ACAD
1000
AcDbSavedByObjectVersion
1070
     0
  0
VISUALSTYLE
  5
35
102
{ACAD_REACTORS
330
2A
102
}
102
{ACAD_XDICTIONARY
360
425
102
}
330
2A
100
AcDbVisualStyle
  2
Dim
 70
    11
 71
     2
 72
     2
 73
     0
 90
        0
 40
0.6
 41
30.0
 62
     5
 63
     7
421
 16777215
 74
     1
 91
        4
 64
     7
 65
   257
 75
     1
175
     1
 42
1.0
 92
        8
 66
     7
 43
1.0
 76
     1
 77
     6
 78
     2
 67
     7
 79
     5
170
     0
171
     0
290
     0
174
     0
 93
        1
 44
-50.0
173
     0
291
     1
 45
0.0
1001
ACAD
1000
AcDbSavedByObjectVersion
1070
     0
  0
VISUALSTYLE
  5
3D
102
{ACAD_REACTORS
330
2A
102
}
102
{ACAD_XDICTIONARY
360
435
102
}
330
2A
100
AcDbVisualStyle
  2
EdgeColorOff
 70
    22
 71
     2
 72
     2
 73
     0
 90
        0
 40
0.6
 41
30.0
 62
     5
 63
     7
421
 16777215
 74
     1
 91
        4
 64
     7
 65
   257
 75
     1
175
     1
 42
1.0
 92
        8
 66
     7
 43
1.0
 76
     1
 77
     6
 78
     2
 67
     7
 79
     5
170
     0
171
     0
290
     0
174
     0
 93
        1
 44
0.0
173
     0
291
     1
 45
0.0
1001
ACAD
1000
AcDbSavedByObjectVersion
1070
     0
  0
VISUALSTYLE
  5
39
102
{ACAD_REACTORS
330
2A
102
}
102
{ACAD_XDICTIONARY
360
42D
102
}
330
2A
100
AcDbVisualStyle
  2
Facepattern
 70
    15
 71
     2
 72
     2
 73
     0
 90
        0
 40
0.6
 41
30.0
 62
     5
 63
     7
421
 16777215
 74
     1
 91
        4
 64
     7
 65
   257
 75
     1
175
     1
 42
1.0
 92
        8
 66
     7
 43
1.0
 76
     1
 77
     6
 78
     2
 67
     7
 79
     5
170
     0
171
     0
290
     0
174
     0
 93
        1
 44
0.0
173
     0
291
     1
 45
0.0
1001
ACAD
1000
AcDbSavedByObjectVersion
1070
     0
  0
VISUALSTYLE
  5
2B
102
{ACAD_REACTORS
330
2A
102
}
102
{ACAD_XDICTIONARY
360
411
102
}
330
2A
100
AcDbVisualStyle
  2
Flat
 70
     0
 71
     2
 72
     1
 73
     1
 90
        2
 40
0.6
 41
30.0
 62
     5
 63
     7
421
 16777215
 74
     0
 91
        0
 64
     7
 65
   257
 75
     1
175
     1
 42
1.0
 92
        8
 66
     7
 43
1.0
 76
     1
 77
     6
 78
     2
 67
     7
 79
     5
170
     0
171
     0
290
     0
174
     0
 93
       13
 44
0.0
173
     0
291
     1
 45
0.0
1001
ACAD
1000
AcDbSavedByObjectVersion
1070
     0
  0
VISUALSTYLE
  5
2C
102
{ACAD_REACTORS
330
2A
102
}
102
{ACAD_XDICTIONARY
360
413
102
}
330
2A
100
AcDbVisualStyle
  2
FlatWithEdges
 70
     1
 71
     2
 72
     1
 73
     1
 90
        2
 40
0.6
 41
30.0
 62
     5
 63
     7
421
 16777215
 74
     1
 91
        0
 64
     7
 65
   257
 75
     1
175
     1
 42
1.0
 92
        0
 66
   257
 43
1.0
 76
     1
 77
     6
 78
     2
 67
     7
 79
     5
170
     0
171
     0
290
     0
174
     0
 93
       13
 44
0.0
173
     0
291
     1
 45
0.0
1001
ACAD
1000
AcDbSavedByObjectVersion
1070
     0
  0
VISUALSTYLE
  5
2D
102
{ACAD_REACTORS
330
2A
102
}
102
{ACAD_XDICTIONARY
360
415
102
}
330
2A
100
AcDbVisualStyle
  2
Gouraud
 70
     2
 71
     2
 72
     2
 73
     1
 90
        2
 40
0.6
 41
30.0
 62
     5
 63
     7
421
 16777215
 74
     0
 91
        0
 64
     7
 65
   257
 75
     1
175
     1
 42
1.0
 92
        0
 66
     7
 43
1.0
 76
     1
 77
     6
 78
     2
 67
     7
 79
     5
170
     0
171
     0
290
     0
174
     0
 93
       13
 44
0.0
173
     0
291
     1
 45
0.0
1001
ACAD
1000
AcDbSavedByObjectVersion
1070
     0
  0
VISUALSTYLE
  5
2E
102
{ACAD_REACTORS
330
2A
102
}
102
{ACAD_XDICTIONARY
360
417
102
}
330
2A
100
AcDbVisualStyle
  2
GouraudWithEdges
 70
     3
 71
     2
 72
     2
 73
     1
 90
        2
 40
0.6
 41
30.0
 62
     5
 63
     7
421
 16777215
 74
     1
 91
        0
 64
     7
 65
   257
 75
     1
175
     1
 42
1.0
 92
        0
 66
   257
 43
1.0
 76
     1
 77
     6
 78
     2
 67
     7
 79
     5
170
     0
171
     0
290
     0
174
     0
 93
       13
 44
0.0
173
     0
291
     1
 45
0.0
1001
ACAD
1000
AcDbSavedByObjectVersion
1070
     0
  0
VISUALSTYLE
  5
31
102
{ACAD_REACTORS
330
2A
102
}
102
{ACAD_XDICTIONARY
360
41D
102
}
330
2A
100
AcDbVisualStyle
  2
Hidden
 70
     6
 71
     1
 72
     2
 73
     2
 90
        0
 40
0.6
 41
30.0
 62
     5
 63
     7
421
 16777215
 74
     2
 91
        2
 64
     7
 65
   257
 75
     2
175
     1
 42
40.0
 92
        0
 66
   257
 43
1.0
 76
     1
 77
     6
 78
     2
 67
     7
 79
     3
170
     0
171
     0
290
     0
174
     0
 93
        1
 44
0.0
173
     0
291
     0
 45
0.0
1001
ACAD
1000
AcDbSavedByObjectVersion
1070
     0
  0
VISUALSTYLE
  5
3B
102
{ACAD_REACTORS
330
2A
102
}
102
{ACAD_XDICTIONARY
360
431
102
}
330
2A
100
AcDbVisualStyle
  2
JitterOff
 70
    20
 71
     2
 72
     2
 73
     0
 90
        0
 40
0.6
 41
30.0
 62
     5
 63
     7
421
 16777215
 74
     1
 91
        4
 64
     7
 65
   257
 75
     1
175
     1
 42
1.0
 92
       10
 66
     7
 43
1.0
 76
     1
 77
     6
 78
     2
 67
     7
 79
     5
170
     0
171
     0
290
     0
174
     0
 93
        1
 44
0.0
173
     0
291
     1
 45
0.0
1001
ACAD
1000
AcDbSavedByObjectVersion
1070
     0
  0
VISUALSTYLE
  5
38
102
{ACAD_REACTORS
330
2A
102
}
102
{ACAD_XDICTIONARY
360
42B
102
}
330
2A
100
AcDbVisualStyle
  2
Linepattern
 70
    14
 71
     2
 72
     2
 73
     0
 90
        0
 40
0.6
 41
30.0
 62
     5
 63
     7
421
 16777215
 74
     1
 91
        4
 64
     7
 65
   257
 75
     7
175
     7
 42
1.0
 92
        8
 66
     7
 43
1.0
 76
     1
 77
     6
 78
     2
 67
     7
 79
     5
170
     0
171
     0
290
     0
174
     0
 93
        1
 44
0.0
173
     0
291
     1
 45
0.0
1001
ACAD
1000
AcDbSavedByObjectVersion
1070
     0
  0
VISUALSTYLE
  5
3C
102
{ACAD_REACTORS
330
2A
102
}
102
{ACAD_XDICTIONARY
360
433
102
}
330
2A
100
AcDbVisualStyle
  2
OverhangOff
 70
    21
 71
     2
 72
     2
 73
     0
 90
        0
 40
0.6
 41
30.0
 62
     5
 63
     7
421
 16777215
 74
     1
 91
        4
 64
     7
 65
   257
 75
     1
175
     1
 42
1.0
 92
        9
 66
     7
 43
1.0
 76
     1
 77
     6
 78
     2
 67
     7
 79
     5
170
     0
171
     0
290
     0
174
     0
 93
        1
 44
0.0
173
     0
291
     1
 45
0.0
1001
ACAD
1000
AcDbSavedByObjectVersion
1070
     0
  0
VISUALSTYLE
  5
33
102
{ACAD_REACTORS
330
2A
102
}
102
{ACAD_XDICTIONARY
360
421
102
}
330
2A
100
AcDbVisualStyle
  2
Realistic
 70
     8
 71
     2
 72
     3
 73
     0
 90
        2
 40
0.6
 41
30.0
 62
     5
 63
     7
421
 16777215
 74
     0
 91
        0
 64
     7
 65
   257
 75
     1
175
     1
 42
1.0
 92
        8
 66
   257
 43
1.0
 76
     1
 77
     6
 78
     2
 67
     7
 79
     3
170
     0
171
     0
290
     0
174
     0
 93
       13
 44
0.0
173
     0
291
     0
 45
0.0
1001
ACAD
1000
AcDbSavedByObjectVersion
1070
     0
  0
VISUALSTYLE
  5
42
102
{ACAD_REACTORS
330
2A
102
}
102
{ACAD_XDICTIONARY
360
43F
102
}
330
2A
100
AcDbVisualStyle
  2
Shaded
 70
    27
 71
     2
 72
     2
 73
     1
 90
        2
 40
0.6
 41
30.0
 62
     5
 63
     7
421
 16777215
 74
     0
 91
        4
 64
     7
 65
   257
 75
     1
175
     1
 42
1.0
 92
        8
 66
   257
 43
1.0
 76
     1
 77
     6
 78
     2
 67
     8
425
  7895160
 79
     3
170
     0
171
     0
290
     0
174
     0
 93
        5
 44
0.0
173
     0
291
     0
 45
0.0
1001
ACAD
1000
AcDbSavedByObjectVersion
1070
     0
  0
VISUALSTYLE
  5
41
102
{ACAD_REACTORS
330
2A
102
}
102
{ACAD_XDICTIONARY
360
43D
102
}
330
2A
100
AcDbVisualStyle
  2
Shaded with edges
 70
    26
 71
     2
 72
     2
 73
     1
 90
        2
 40
0.6
 41
30.0
 62
     5
 63
     7
421
 16777215
 74
     1
 91
       10
 64
     7
 65
   257
 75
     2
175
     1
 42
1.0
 92
        8
 66
   257
 43
1.0
 76
     1
 77
     6
 78
     2
 67
     7
 79
     3
170
     0
171
     0
290
     0
174
     0
 93
        5
 44
0.0
173
     0
291
     0
 45
0.0
1001
ACAD
1000
AcDbSavedByObjectVersion
1070
     0
  0
VISUALSTYLE
  5
3E
102
{ACAD_REACTORS
330
2A
102
}
102
{ACAD_XDICTIONARY
360
437
102
}
330
2A
100
AcDbVisualStyle
  2
Shades of Gray
 70
    23
 71
     2
 72
     2
 73
     3
 90
        0
 40
0.6
 41
30.0
 62
     5
 63
     7
421
 16777215
 74
     2
 91
        2
 64
     7
 65
     7
 75
     1
175
     1
 42
40.0
 92
        8
 66
     7
 43
1.0
 76
     1
 77
     6
 78
     2
 67
     7
 79
     3
170
     0
171
     0
290
     0
174
     0
 93
        1
 44
0.0
173
     0
291
     0
 45
0.0
1001
ACAD
1000
AcDbSavedByObjectVersion
1070
     0
  0
VISUALSTYLE
  5
3F
102
{ACAD_REACTORS
330
2A
102
}
102
{ACAD_XDICTIONARY
360
439
102
}
330
2A
100
AcDbVisualStyle
  2
Sketchy
 70
    24
 71
     1
 72
     2
 73
     2
 90
        0
 40
0.6
 41
30.0
 62
     5
 63
     7
421
 16777215
 74
     2
 91
        2
 64
     7
 65
     7
 75
     1
175
     1
 42
40.0
 92
       11
 66
     7
 43
1.0
 76
     1
 77
     6
 78
     2
 67
     7
 79
     6
170
     0
171
     0
290
     0
174
     0
 93
        1
 44
0.0
173
     0
291
     0
 45
0.0
1001
ACAD
1000
AcDbSavedByObjectVersion
1070
     0
  0
VISUALSTYLE
  5
37
102
{ACAD_REACTORS
330
2A
102
}
102
{ACAD_XDICTIONARY
360
429
102
}
330
2A
100
AcDbVisualStyle
  2
Thicken
 70
    13
 71
     2
 72
     2
 73
     0
 90
        0
 40
0.6
 41
30.0
 62
     5
 63
     7
421
 16777215
 74
     1
 91
        4
 64
     7
 65
   257
 75
     1
175
     1
 42
1.0
 92
       12
 66
     7
 43
1.0
 76
     1
 77
     6
 78
     2
 67
     7
 79
     5
170
     0
171
     0
290
     0
174
     0
 93
        1
 44
0.0
173
     0
291
     1
 45
0.0
1001
ACAD
1000
AcDbSavedByObjectVersion
1070
     0
  0
VISUALSTYLE
  5
30
102
{ACAD_REACTORS
330
2A
102
}
102
{ACAD_XDICTIONARY
360
41B
102
}
330
2A
100
AcDbVisualStyle
  2
Wireframe
 70
     5
 71
     0
 72
     2
 73
     0
 90
        0
 40
0.6
 41
30.0
 62
     5
 63
     7
421
 16777215
 74
     1
 91
        4
 64
     7
 65
   257
 75
     1
175
     1
 42
1.0
 92
        0
 66
   257
 43
1.0
 76
     1
 77
     6
 78
     2
 67
     7
 79
     3
170
     0
171
     0
290
     0
174
     0
 93
        1
 44
0.0
173
     0
291
     0
 45
0.0
1001
ACAD
1000
AcDbSavedByObjectVersion
1070
     0
  0
VISUALSTYLE
  5
40
102
{ACAD_REACTORS
330
2A
102
}
102
{ACAD_XDICTIONARY
360
43B
102
}
330
2A
100
AcDbVisualStyle
  2
X-Ray
 70
    25
 71
     2
 72
     2
 73
     1
 90
        1
 40
0.5
 41
30.0
 62
     5
 63
     7
421
 16777215
 74
     1
 91
        0
 64
     7
 65
   257
 75
     1
175
     1
 42
1.0
 92
        8
 66
     7
 43
1.0
 76
     1
 77
     6
 78
     2
 67
     7
 79
     3
170
     0
171
     0
290
     0
174
     0
 93
       13
 44
0.0
173
     0
291
     0
 45
0.0
1001
ACAD
1000
AcDbSavedByObjectVersion
1070
     0
  0
DICTIONARYVAR
  5
40E
102
{ACAD_REACTORS
330
40D
102
}
330
40D
100
DictionaryVariables
280
     0
  1
1:1
  0
DICTIONARYVAR
  5
452
102
{ACAD_REACTORS
330
40D
102
}
330
40D
100
DictionaryVariables
280
     0
  1
3.500000
  0
DICTIONARYVAR
  5
453
102
{ACAD_REACTORS
330
40D
102
}
330
40D
100
DictionaryVariables
280
     0
  1
acadiso.lin
  0
DICTIONARYVAR
  5
44F
102
{ACAD_REACTORS
330
40D
102
}
330
40D
100
DictionaryVariables
280
     0
  1
Standard
  0
DICTIONARYVAR
  5
44E
102
{ACAD_REACTORS
330
40D
102
}
330
40D
100
DictionaryVariables
280
     0
  1
Standard
  0
DICTIONARYVAR
  5
40F
102
{ACAD_REACTORS
330
40D
102
}
330
40D
100
DictionaryVariables
280
     0
  1
1
  0
DICTIONARYVAR
  5
410
102
{ACAD_REACTORS
330
40D
102
}
330
40D
100
DictionaryVariables
280
     0
  1
2
  0
DICTIONARY
  5
443
330
45
100
AcDbDictionary
280
     1
281
     1
  3
ACAD_XREC_ROUNDTRIP
360
444
  0
DICTIONARY
  5
441
330
44
100
AcDbDictionary
280
     1
281
     1
  3
ACAD_XREC_ROUNDTRIP
360
442
  0
DICTIONARY
  5
445
330
46
100
AcDbDictionary
280
     1
281
     1
  3
ACAD_XREC_ROUNDTRIP
360
446
  0
DICTIONARY
  5
44B
330
6C
100
AcDbDictionary
280
     1
281
     1
  3
ACAD_XREC_ROUNDTRIP
360
44C
  0
DICTIONARY
  5
447
330
6A
100
AcDbDictionary
280
     1
281
     1
  3
ACAD_ROUNDTRIP_2008_TABLESTYLE_CELLSTYLEMAP
360
449
  3
ACAD_XREC_ROUNDTRIP
360
448
  0
DICTIONARY
  5
419
330
2F
100
AcDbDictionary
280
     1
281
     1
  3
ACAD_XREC_ROUNDTRIP
360
41A
  0
DICTIONARY
  5
41F
330
32
100
AcDbDictionary
280
     1
281
     1
  3
ACAD_XREC_ROUNDTRIP
360
420
  0
DICTIONARY
  5
427
330
36
100
AcDbDictionary
280
     1
281
     1
  3
ACAD_XREC_ROUNDTRIP
360
428
  0
DICTIONARY
  5
42F
330
3A
100
AcDbDictionary
280
     1
281
     1
  3
ACAD_XREC_ROUNDTRIP
360
430
  0
DICTIONARY
  5
423
330
34
100
AcDbDictionary
280
     1
281
     1
  3
ACAD_XREC_ROUNDTRIP
360
424
  0
DICTIONARY
  5
425
330
35
100
AcDbDictionary
280
     1
281
     1
  3
ACAD_XREC_ROUNDTRIP
360
426
  0
DICTIONARY
  5
435
330
3D
100
AcDbDictionary
280
     1
281
     1
  3
ACAD_XREC_ROUNDTRIP
360
436
  0
DICTIONARY
  5
42D
330
39
100
AcDbDictionary
280
     1
281
     1
  3
ACAD_XREC_ROUNDTRIP
360
42E
  0
DICTIONARY
  5
411
330
2B
100
AcDbDictionary
280
     1
281
     1
  3
ACAD_XREC_ROUNDTRIP
360
412
  0
DICTIONARY
  5
413
330
2C
100
AcDbDictionary
280
     1
281
     1
  3
ACAD_XREC_ROUNDTRIP
360
414
  0
DICTIONARY
  5
415
330
2D
100
AcDbDictionary
280
     1
281
     1
  3
ACAD_XREC_ROUNDTRIP
360
416
  0
DICTIONARY
  5
417
330
2E
100
AcDbDictionary
280
     1
281
     1
  3
ACAD_XREC_ROUNDTRIP
360
418
  0
DICTIONARY
  5
41D
330
31
100
AcDbDictionary
280
     1
281
     1
  3
ACAD_XREC_ROUNDTRIP
360
41E
  0
DICTIONARY
  5
431
330
3B
100
AcDbDictionary
280
     1
281
     1
  3
ACAD_XREC_ROUNDTRIP
360
432
  0
DICTIONARY
  5
42B
330
38
100
AcDbDictionary
280
     1
281
     1
  3
ACAD_XREC_ROUNDTRIP
360
42C
  0
DICTIONARY
  5
433
330
3C
100
AcDbDictionary
280
     1
281
     1
  3
ACAD_XREC_ROUNDTRIP
360
434
  0
DICTIONARY
  5
421
330
33
100
AcDbDictionary
280
     1
281
     1
  3
ACAD_XREC_ROUNDTRIP
360
422
  0
DICTIONARY
  5
43F
330
42
100
AcDbDictionary
280
     1
281
     1
  3
ACAD_XREC_ROUNDTRIP
360
440
  0
DICTIONARY
  5
43D
330
41
100
AcDbDictionary
280
     1
281
     1
  3
ACAD_XREC_ROUNDTRIP
360
43E
  0
DICTIONARY
  5
437
330
3E
100
AcDbDictionary
280
     1
281
     1
  3
ACAD_XREC_ROUNDTRIP
360
438
  0
DICTIONARY
  5
439
330
3F
100
AcDbDictionary
280
     1
281
     1
  3
ACAD_XREC_ROUNDTRIP
360
43A
  0
DICTIONARY
  5
429
330
37
100
AcDbDictionary
280
     1
281
     1
  3
ACAD_XREC_ROUNDTRIP
360
42A
  0
DICTIONARY
  5
41B
330
30
100
AcDbDictionary
280
     1
281
     1
  3
ACAD_XREC_ROUNDTRIP
360
41C
  0
DICTIONARY
  5
43B
330
40
100
AcDbDictionary
280
     1
281
     1
  3
ACAD_XREC_ROUNDTRIP
360
43C
  0
XRECORD
  5
444
102
{ACAD_REACTORS
330
443
102
}
330
443
100
AcDbXrecord
280
     1
102
MATERIAL
148
0.0
149
0.0
149
0.0
 93
        0
 94
      127
282
     0
 72
     1
 77
     1
171
     1
175
     1
179
     1
273
     0
  0
XRECORD
  5
442
102
{ACAD_REACTORS
330
441
102
}
330
441
100
AcDbXrecord
280
     1
102
MATERIAL
148
0.0
149
0.0
149
0.0
 93
        0
 94
      127
282
     0
 72
     1
 77
     1
171
     1
175
     1
179
     1
273
     0
  0
XRECORD
  5
446
102
{ACAD_REACTORS
330
445
102
}
330
445
100
AcDbXrecord
280
     1
102
MATERIAL
148
0.0
149
0.0
149
0.0
 93
        0
 94
      127
282
     0
 72
     1
 77
     1
171
     1
175
     1
179
     1
273
     0
  0
XRECORD
  5
44C
102
{ACAD_REACTORS
330
44B
102
}
330
44B
100
AcDbXrecord
280
     1
102
ACAD_ROUNDTRIP_2010_MLEADER_STYLE
  0
CELLSTYLEMAP
  5
449
102
{ACAD_REACTORS
330
447
102
}
330
447
100
AcDbCellStyleMap
 90
        3
300
CELLSTYLE
  1
TABLEFORMAT_BEGIN
 90
        5
170
     1
 91
        0
 92
    32768
 62
   257
 93
        1
300
CONTENTFORMAT
  1
CONTENTFORMAT_BEGIN
 90
        0
 91
        0
 92
        4
 93
        0
300

 40
0.0
140
1.0
 94
        5
 62
     0
340
11
144
6.0
309
CONTENTFORMAT_END
171
     1
301
MARGIN
  1
CELLMARGIN_BEGIN
 40
1.5
 40
1.5
 40
1.5
 40
1.5
 40
1.5
 40
1.5
309
CELLMARGIN_END
 94
        6
 95
        1
302
GRIDFORMAT
  1
GRIDFORMAT_BEGIN
 90
        0
 91
        1
 62
     0
 92
       -2
340
14
 93
        0
 40
0.045
309
GRIDFORMAT_END
 95
        2
302
GRIDFORMAT
  1
GRIDFORMAT_BEGIN
 90
        0
 91
        1
 62
     0
 92
       -2
340
14
 93
        0
 40
0.045
309
GRIDFORMAT_END
 95
        4
302
GRIDFORMAT
  1
GRIDFORMAT_BEGIN
 90
        0
 91
        1
 62
     0
 92
       -2
340
14
 93
        0
 40
0.045
309
GRIDFORMAT_END
 95
        8
302
GRIDFORMAT
  1
GRIDFORMAT_BEGIN
 90
        0
 91
        1
 62
     0
 92
       -2
340
14
 93
        0
 40
0.045
309
GRIDFORMAT_END
 95
       16
302
GRIDFORMAT
  1
GRIDFORMAT_BEGIN
 90
        0
 91
        1
 62
     0
 92
       -2
340
14
 93
        0
 40
0.045
309
GRIDFORMAT_END
 95
       32
302
GRIDFORMAT
  1
GRIDFORMAT_BEGIN
 90
        0
 91
        1
 62
     0
 92
       -2
340
14
 93
        0
 40
0.045
309
GRIDFORMAT_END
309
TABLEFORMAT_END
  1
CELLSTYLE_BEGIN
 90
        1
 91
        1
300
_TITLE
309
CELLSTYLE_END
300
CELLSTYLE
  1
TABLEFORMAT_BEGIN
 90
        5
170
     1
 91
        0
 92
        0
 62
   257
 93
        1
300
CONTENTFORMAT
  1
CONTENTFORMAT_BEGIN
 90
        0
 91
        0
 92
        4
 93
        0
300

 40
0.0
140
1.0
 94
        5
 62
     0
340
11
144
4.5
309
CONTENTFORMAT_END
171
     1
301
MARGIN
  1
CELLMARGIN_BEGIN
 40
1.5
 40
1.5
 40
1.5
 40
1.5
 40
1.5
 40
1.5
309
CELLMARGIN_END
 94
        6
 95
        1
302
GRIDFORMAT
  1
GRIDFORMAT_BEGIN
 90
        0
 91
        1
 62
     0
 92
       -2
340
14
 93
        0
 40
0.045
309
GRIDFORMAT_END
 95
        2
302
GRIDFORMAT
  1
GRIDFORMAT_BEGIN
 90
        0
 91
        1
 62
     0
 92
       -2
340
14
 93
        0
 40
0.045
309
GRIDFORMAT_END
 95
        4
302
GRIDFORMAT
  1
GRIDFORMAT_BEGIN
 90
        0
 91
        1
 62
     0
 92
       -2
340
14
 93
        0
 40
0.045
309
GRIDFORMAT_END
 95
        8
302
GRIDFORMAT
  1
GRIDFORMAT_BEGIN
 90
        0
 91
        1
 62
     0
 92
       -2
340
14
 93
        0
 40
0.045
309
GRIDFORMAT_END
 95
       16
302
GRIDFORMAT
  1
GRIDFORMAT_BEGIN
 90
        0
 91
        1
 62
     0
 92
       -2
340
14
 93
        0
 40
0.045
309
GRIDFORMAT_END
 95
       32
302
GRIDFORMAT
  1
GRIDFORMAT_BEGIN
 90
        0
 91
        1
 62
     0
 92
       -2
340
14
 93
        0
 40
0.045
309
GRIDFORMAT_END
309
TABLEFORMAT_END
  1
CELLSTYLE_BEGIN
 90
        2
 91
        1
300
_HEADER
309
CELLSTYLE_END
300
CELLSTYLE
  1
TABLEFORMAT_BEGIN
 90
        5
170
     1
 91
        0
 92
        0
 62
   257
 93
        1
300
CONTENTFORMAT
  1
CONTENTFORMAT_BEGIN
 90
        0
 91
        0
 92
        4
 93
        0
300

 40
0.0
140
1.0
 94
        2
 62
     0
340
11
144
4.5
309
CONTENTFORMAT_END
171
     1
301
MARGIN
  1
CELLMARGIN_BEGIN
 40
1.5
 40
1.5
 40
1.5
 40
1.5
 40
1.5
 40
1.5
309
CELLMARGIN_END
 94
        6
 95
        1
302
GRIDFORMAT
  1
GRIDFORMAT_BEGIN
 90
        0
 91
        1
 62
     0
 92
       -2
340
14
 93
        0
 40
0.045
309
GRIDFORMAT_END
 95
        2
302
GRIDFORMAT
  1
GRIDFORMAT_BEGIN
 90
        0
 91
        1
 62
     0
 92
       -2
340
14
 93
        0
 40
0.045
309
GRIDFORMAT_END
 95
        4
302
GRIDFORMAT
  1
GRIDFORMAT_BEGIN
 90
        0
 91
        1
 62
     0
 92
       -2
340
14
 93
        0
 40
0.045
309
GRIDFORMAT_END
 95
        8
302
GRIDFORMAT
  1
GRIDFORMAT_BEGIN
 90
        0
 91
        1
 62
     0
 92
       -2
340
14
 93
        0
 40
0.045
309
GRIDFORMAT_END
 95
       16
302
GRIDFORMAT
  1
GRIDFORMAT_BEGIN
 90
        0
 91
        1
 62
     0
 92
       -2
340
14
 93
        0
 40
0.045
309
GRIDFORMAT_END
 95
       32
302
GRIDFORMAT
  1
GRIDFORMAT_BEGIN
 90
        0
 91
        1
 62
     0
 92
       -2
340
14
 93
        0
 40
0.045
309
GRIDFORMAT_END
309
TABLEFORMAT_END
  1
CELLSTYLE_BEGIN
 90
        3
 91
        2
300
_DATA
309
CELLSTYLE_END
  0
XRECORD
  5
448
102
{ACAD_REACTORS
330
447
102
}
330
447
100
AcDbXrecord
280
     1
102
ACAD_ROUNDTRIP_PRE2007_TABLESTYLE
 90
        4
 91
        0
  1

 92
        4
 93
        0
  2

 94
        4
 95
        0
  3

  0
XRECORD
  5
41A
102
{ACAD_REACTORS
330
419
102
}
330
419
100
AcDbXrecord
280
     1
102
RTVSPropertyOp0
 70
     1
102
RTVSPropertyOp1
 70
     1
102
RTVSPropertyOp2
 70
     1
102
RTVSPropertyOp3
 70
     1
102
RTVSPropertyOp4
 70
     1
102
RTVSPropertyOp5
 70
     1
102
RTVSPropertyOp6
 70
     1
102
RTVSPropertyOp7
 70
     1
102
RTVSPropertyOp8
 70
     1
102
RTVSPropertyOp9
 70
     1
102
RTVSPropertyOp10
 70
     1
102
RTVSPropertyOp11
 70
     1
102
RTVSPropertyOp12
 70
     1
102
RTVSPropertyOp13
 70
     1
102
RTVSPropertyOp14
 70
     1
102
RTVSPropertyOp15
 70
     1
102
RTVSPropertyOp16
 70
     1
102
RTVSPropertyOp17
 70
     1
102
RTVSPropertyOp18
 70
     1
102
RTVSPropertyOp19
 70
     1
102
RTVSPropertyOp20
 70
     1
102
RTVSPropertyOp21
 70
     1
102
RTVSPropertyOp22
 70
     1
102
RTVSPropertyOp23
 70
     1
102
RTVSPropertyOp24
 70
     1
102
RTVSPropertyOp25
 70
     1
102
RTVSPropertyOp26
 70
     1
102
RTVSPropertyOp27
 70
     1
102
RTVSPropertyOp28
 70
     1
102
RTVSPropertyOp29
 70
     1
102
RTVSPropertyOp30
 70
     1
102
RTVSPropertyOp31
 70
     1
102
RTVSPropertyOp32
 70
     1
102
RTVSPropertyOp33
 70
     1
102
RTVSPropertyOp34
 70
     1
102
RTVSPropertyOp35
 70
     1
102
RTVSPropertyOp36
 70
     1
102
RTVSPropertyOp37
 70
     1
102
RTVSPropertyOp38
 70
     1
102
RTVSPropertyOp39
 70
     1
102
RTVSPropertyOp40
 70
     1
102
RTVSPropertyOp41
 70
     1
102
RTVSPropertyOp42
 70
     1
102
RTVSPropertyOp43
 70
     1
102
RTVSPropertyOp44
 70
     1
102
RTVSPropertyOp45
 70
     1
102
RTVSPropertyOp46
 70
     1
102
RTVSPropertyOp47
 70
     1
102
RTVSPropertyOp48
 70
     1
102
RTVSPropertyOp49
 70
     1
102
RTVSPropertyOp50
 70
     1
102
RTVSPropertyOp51
 70
     0
102
RTVSPropertyOp52
 70
     0
102
RTVSPropertyOp53
 70
     1
102
RTVSPropertyOp54
 70
     1
102
RTVSPropertyOp55
 70
     1
102
RTVSPropertyOp56
 70
     1
102
RTVSPropertyOp57
 70
     1
102
RTVSPost2010Prop28
280
     1
102
RTVSPost2010PropOp28
 70
     1
102
RTVSPost2010Prop29
280
     1
102
RTVSPost2010PropOp29
 70
     1
102
RTVSPost2010Prop30
280
     0
102
RTVSPost2010PropOp30
 70
     1
102
RTVSPost2010Prop31
280
     0
102
RTVSPost2010PropOp31
 70
     1
102
RTVSPost2010Prop32
280
     0
102
RTVSPost2010PropOp32
 70
     1
102
RTVSPost2010Prop33
280
     0
102
RTVSPost2010PropOp33
 70
     1
102
RTVSPost2010Prop34
280
     0
102
RTVSPost2010PropOp34
 70
     1
102
RTVSPost2010Prop35
280
     0
102
RTVSPost2010PropOp35
 70
     1
102
RTVSPost2010Prop36
280
     0
102
RTVSPost2010PropOp36
 70
     1
102
RTVSPost2010Prop37
 90
       50
102
RTVSPost2010PropOp37
 70
     1
102
RTVSPost2010Prop38
140
0.0
102
RTVSPost2010PropOp38
 70
     1
102
RTVSPost2010Prop39
140
1.0
102
RTVSPost2010PropOp39
 70
     1
102
RTVSPost2010Prop40
 90
        0
102
RTVSPost2010PropOp40
 70
     1
102
RTVSPost2010Prop41ColorIndex
 90
       18
102
RTVSPost2010Prop41ColorRGB
 90
        0
102
RTVSPost2010PropOp41
 70
     1
102
RTVSPost2010Prop42
 90
       50
102
RTVSPost2010PropOp42
 70
     1
102
RTVSPost2010Prop43
 90
        3
102
RTVSPost2010PropOp43
 70
     1
102
RTVSPost2010Prop44ColorIndex
 90
        5
102
RTVSPost2010Prop44ColorRGB
 90
      255
102
RTVSPost2010PropOp44
 70
     1
102
RTVSPost2010Prop45
280
     0
102
RTVSPost2010PropOp45
 70
     1
102
RTVSPost2010Prop46
 90
       50
102
RTVSPost2010PropOp46
 70
     1
102
RTVSPost2010Prop47
 90
       50
102
RTVSPost2010PropOp47
 70
     1
102
RTVSPost2010Prop48
 90
       50
102
RTVSPost2010PropOp48
 70
     1
102
RTVSPost2010Prop49
280
     0
102
RTVSPost2010PropOp49
 70
     1
102
RTVSPost2010Prop50
 90
       50
102
RTVSPost2010PropOp50
 70
     1
102
RTVSPost2010Prop51ColorIndex
 90
      256
102
RTVSPost2010Prop51ColorRGB
 90
-16777216
102
RTVSPost2010PropOp51
 70
     0
102
RTVSPost2010Prop52
140
1.0
102
RTVSPost2010PropOp52
 70
     0
102
RTVSPost2010Prop53
 90
        2
102
RTVSPost2010PropOp53
 70
     1
102
RTVSPost2010Prop54
  1
strokes_ogs.tif
102
RTVSPost2010PropOp54
 70
     1
102
RTVSPost2010Prop55
280
     0
102
RTVSPost2010PropOp55
 70
     1
102
RTVSPost2010Prop56
140
1.0
102
RTVSPost2010PropOp56
 70
     1
102
RTVSPost2010Prop57
140
1.0
102
RTVSPost2010PropOp57
 70
     1
  0
XRECORD
  5
420
102
{ACAD_REACTORS
330
41F
102
}
330
41F
100
AcDbXrecord
280
     1
102
RTVSPropertyOp0
 70
     1
102
RTVSPropertyOp1
 70
     1
102
RTVSPropertyOp2
 70
     1
102
RTVSPropertyOp3
 70
     1
102
RTVSPropertyOp4
 70
     1
102
RTVSPropertyOp5
 70
     1
102
RTVSPropertyOp6
 70
     1
102
RTVSPropertyOp7
 70
     1
102
RTVSPropertyOp8
 70
     1
102
RTVSPropertyOp9
 70
     1
102
RTVSPropertyOp10
 70
     1
102
RTVSPropertyOp11
 70
     1
102
RTVSPropertyOp12
 70
     1
102
RTVSPropertyOp13
 70
     1
102
RTVSPropertyOp14
 70
     1
102
RTVSPropertyOp15
 70
     1
102
RTVSPropertyOp16
 70
     1
102
RTVSPropertyOp17
 70
     1
102
RTVSPropertyOp18
 70
     1
102
RTVSPropertyOp19
 70
     1
102
RTVSPropertyOp20
 70
     1
102
RTVSPropertyOp21
 70
     1
102
RTVSPropertyOp22
 70
     1
102
RTVSPropertyOp23
 70
     1
102
RTVSPropertyOp24
 70
     1
102
RTVSPropertyOp25
 70
     1
102
RTVSPropertyOp26
 70
     1
102
RTVSPropertyOp27
 70
     1
102
RTVSPropertyOp28
 70
     1
102
RTVSPropertyOp29
 70
     1
102
RTVSPropertyOp30
 70
     1
102
RTVSPropertyOp31
 70
     1
102
RTVSPropertyOp32
 70
     1
102
RTVSPropertyOp33
 70
     1
102
RTVSPropertyOp34
 70
     1
102
RTVSPropertyOp35
 70
     1
102
RTVSPropertyOp36
 70
     1
102
RTVSPropertyOp37
 70
     1
102
RTVSPropertyOp38
 70
     1
102
RTVSPropertyOp39
 70
     1
102
RTVSPropertyOp40
 70
     1
102
RTVSPropertyOp41
 70
     1
102
RTVSPropertyOp42
 70
     1
102
RTVSPropertyOp43
 70
     1
102
RTVSPropertyOp44
 70
     1
102
RTVSPropertyOp45
 70
     1
102
RTVSPropertyOp46
 70
     1
102
RTVSPropertyOp47
 70
     1
102
RTVSPropertyOp48
 70
     1
102
RTVSPropertyOp49
 70
     1
102
RTVSPropertyOp50
 70
     1
102
RTVSPropertyOp51
 70
     0
102
RTVSPropertyOp52
 70
     0
102
RTVSPropertyOp53
 70
     1
102
RTVSPropertyOp54
 70
     1
102
RTVSPropertyOp55
 70
     1
102
RTVSPropertyOp56
 70
     1
102
RTVSPropertyOp57
 70
     1
102
RTVSPost2010Prop28
280
     0
102
RTVSPost2010PropOp28
 70
     1
102
RTVSPost2010Prop29
280
     1
102
RTVSPost2010PropOp29
 70
     1
102
RTVSPost2010Prop30
280
     1
102
RTVSPost2010PropOp30
 70
     1
102
RTVSPost2010Prop31
280
     0
102
RTVSPost2010PropOp31
 70
     1
102
RTVSPost2010Prop32
280
     0
102
RTVSPost2010PropOp32
 70
     1
102
RTVSPost2010Prop33
280
     0
102
RTVSPost2010PropOp33
 70
     1
102
RTVSPost2010Prop34
280
     0
102
RTVSPost2010PropOp34
 70
     1
102
RTVSPost2010Prop35
280
     0
102
RTVSPost2010PropOp35
 70
     1
102
RTVSPost2010Prop36
280
     0
102
RTVSPost2010PropOp36
 70
     1
102
RTVSPost2010Prop37
 90
       50
102
RTVSPost2010PropOp37
 70
     1
102
RTVSPost2010Prop38
140
0.0
102
RTVSPost2010PropOp38
 70
     1
102
RTVSPost2010Prop39
140
1.0
102
RTVSPost2010PropOp39
 70
     1
102
RTVSPost2010Prop40
 90
        0
102
RTVSPost2010PropOp40
 70
     1
102
RTVSPost2010Prop41ColorIndex
 90
       18
102
RTVSPost2010Prop41ColorRGB
 90
        0
102
RTVSPost2010PropOp41
 70
     1
102
RTVSPost2010Prop42
 90
       50
102
RTVSPost2010PropOp42
 70
     1
102
RTVSPost2010Prop43
 90
        3
102
RTVSPost2010PropOp43
 70
     1
102
RTVSPost2010Prop44ColorIndex
 90
        5
102
RTVSPost2010Prop44ColorRGB
 90
      255
102
RTVSPost2010PropOp44
 70
     1
102
RTVSPost2010Prop45
280
     0
102
RTVSPost2010PropOp45
 70
     1
102
RTVSPost2010Prop46
 90
       50
102
RTVSPost2010PropOp46
 70
     1
102
RTVSPost2010Prop47
 90
       50
102
RTVSPost2010PropOp47
 70
     1
102
RTVSPost2010Prop48
 90
       50
102
RTVSPost2010PropOp48
 70
     1
102
RTVSPost2010Prop49
280
     0
102
RTVSPost2010PropOp49
 70
     1
102
RTVSPost2010Prop50
 90
       50
102
RTVSPost2010PropOp50
 70
     1
102
RTVSPost2010Prop51ColorIndex
 90
      256
102
RTVSPost2010Prop51ColorRGB
 90
-16777216
102
RTVSPost2010PropOp51
 70
     0
102
RTVSPost2010Prop52
140
1.0
102
RTVSPost2010PropOp52
 70
     0
102
RTVSPost2010Prop53
 90
        2
102
RTVSPost2010PropOp53
 70
     1
102
RTVSPost2010Prop54
  1
strokes_ogs.tif
102
RTVSPost2010PropOp54
 70
     1
102
RTVSPost2010Prop55
280
     0
102
RTVSPost2010PropOp55
 70
     1
102
RTVSPost2010Prop56
140
1.0
102
RTVSPost2010PropOp56
 70
     1
102
RTVSPost2010Prop57
140
1.0
102
RTVSPost2010PropOp57
 70
     1
  0
XRECORD
  5
428
102
{ACAD_REACTORS
330
427
102
}
330
427
100
AcDbXrecord
280
     1
102
RTVSPropertyOp0
 70
     1
102
RTVSPropertyOp1
 70
     1
102
RTVSPropertyOp2
 70
     1
102
RTVSPropertyOp3
 70
     1
102
RTVSPropertyOp4
 70
     1
102
RTVSPropertyOp5
 70
     1
102
RTVSPropertyOp6
 70
     1
102
RTVSPropertyOp7
 70
     1
102
RTVSPropertyOp8
 70
     1
102
RTVSPropertyOp9
 70
     1
102
RTVSPropertyOp10
 70
     1
102
RTVSPropertyOp11
 70
     1
102
RTVSPropertyOp12
 70
     1
102
RTVSPropertyOp13
 70
     1
102
RTVSPropertyOp14
 70
     1
102
RTVSPropertyOp15
 70
     1
102
RTVSPropertyOp16
 70
     1
102
RTVSPropertyOp17
 70
     1
102
RTVSPropertyOp18
 70
     1
102
RTVSPropertyOp19
 70
     1
102
RTVSPropertyOp20
 70
     1
102
RTVSPropertyOp21
 70
     1
102
RTVSPropertyOp22
 70
     1
102
RTVSPropertyOp23
 70
     1
102
RTVSPropertyOp24
 70
     1
102
RTVSPropertyOp25
 70
     1
102
RTVSPropertyOp26
 70
     1
102
RTVSPropertyOp27
 70
     1
102
RTVSPropertyOp28
 70
     1
102
RTVSPropertyOp29
 70
     1
102
RTVSPropertyOp30
 70
     1
102
RTVSPropertyOp31
 70
     1
102
RTVSPropertyOp32
 70
     1
102
RTVSPropertyOp33
 70
     1
102
RTVSPropertyOp34
 70
     1
102
RTVSPropertyOp35
 70
     1
102
RTVSPropertyOp36
 70
     1
102
RTVSPropertyOp37
 70
     1
102
RTVSPropertyOp38
 70
     1
102
RTVSPropertyOp39
 70
     1
102
RTVSPropertyOp40
 70
     1
102
RTVSPropertyOp41
 70
     1
102
RTVSPropertyOp42
 70
     1
102
RTVSPropertyOp43
 70
     1
102
RTVSPropertyOp44
 70
     1
102
RTVSPropertyOp45
 70
     1
102
RTVSPropertyOp46
 70
     1
102
RTVSPropertyOp47
 70
     1
102
RTVSPropertyOp48
 70
     1
102
RTVSPropertyOp49
 70
     1
102
RTVSPropertyOp50
 70
     1
102
RTVSPropertyOp51
 70
     0
102
RTVSPropertyOp52
 70
     0
102
RTVSPropertyOp53
 70
     1
102
RTVSPropertyOp54
 70
     1
102
RTVSPropertyOp55
 70
     1
102
RTVSPropertyOp56
 70
     1
102
RTVSPropertyOp57
 70
     1
102
RTVSPost2010Prop28
280
     0
102
RTVSPost2010PropOp28
 70
     1
102
RTVSPost2010Prop29
280
     1
102
RTVSPost2010PropOp29
 70
     1
102
RTVSPost2010Prop30
280
     1
102
RTVSPost2010PropOp30
 70
     1
102
RTVSPost2010Prop31
280
     0
102
RTVSPost2010PropOp31
 70
     1
102
RTVSPost2010Prop32
280
     0
102
RTVSPost2010PropOp32
 70
     1
102
RTVSPost2010Prop33
280
     0
102
RTVSPost2010PropOp33
 70
     1
102
RTVSPost2010Prop34
280
     0
102
RTVSPost2010PropOp34
 70
     1
102
RTVSPost2010Prop35
280
     0
102
RTVSPost2010PropOp35
 70
     1
102
RTVSPost2010Prop36
280
     0
102
RTVSPost2010PropOp36
 70
     1
102
RTVSPost2010Prop37
 90
       50
102
RTVSPost2010PropOp37
 70
     1
102
RTVSPost2010Prop38
140
0.0
102
RTVSPost2010PropOp38
 70
     1
102
RTVSPost2010Prop39
140
1.0
102
RTVSPost2010PropOp39
 70
     1
102
RTVSPost2010Prop40
 90
        0
102
RTVSPost2010PropOp40
 70
     1
102
RTVSPost2010Prop41ColorIndex
 90
       18
102
RTVSPost2010Prop41ColorRGB
 90
        0
102
RTVSPost2010PropOp41
 70
     1
102
RTVSPost2010Prop42
 90
       50
102
RTVSPost2010PropOp42
 70
     1
102
RTVSPost2010Prop43
 90
        3
102
RTVSPost2010PropOp43
 70
     1
102
RTVSPost2010Prop44ColorIndex
 90
        5
102
RTVSPost2010Prop44ColorRGB
 90
      255
102
RTVSPost2010PropOp44
 70
     1
102
RTVSPost2010Prop45
280
     0
102
RTVSPost2010PropOp45
 70
     1
102
RTVSPost2010Prop46
 90
       50
102
RTVSPost2010PropOp46
 70
     1
102
RTVSPost2010Prop47
 90
       50
102
RTVSPost2010PropOp47
 70
     1
102
RTVSPost2010Prop48
 90
       50
102
RTVSPost2010PropOp48
 70
     1
102
RTVSPost2010Prop49
280
     0
102
RTVSPost2010PropOp49
 70
     1
102
RTVSPost2010Prop50
 90
       50
102
RTVSPost2010PropOp50
 70
     1
102
RTVSPost2010Prop51ColorIndex
 90
      256
102
RTVSPost2010Prop51ColorRGB
 90
-16777216
102
RTVSPost2010PropOp51
 70
     0
102
RTVSPost2010Prop52
140
1.0
102
RTVSPost2010PropOp52
 70
     0
102
RTVSPost2010Prop53
 90
        2
102
RTVSPost2010PropOp53
 70
     1
102
RTVSPost2010Prop54
  1
strokes_ogs.tif
102
RTVSPost2010PropOp54
 70
     1
102
RTVSPost2010Prop55
280
     0
102
RTVSPost2010PropOp55
 70
     1
102
RTVSPost2010Prop56
140
1.0
102
RTVSPost2010PropOp56
 70
     1
102
RTVSPost2010Prop57
140
1.0
102
RTVSPost2010PropOp57
 70
     1
  0
XRECORD
  5
430
102
{ACAD_REACTORS
330
42F
102
}
330
42F
100
AcDbXrecord
280
     1
102
RTVSPropertyOp0
 70
     1
102
RTVSPropertyOp1
 70
     1
102
RTVSPropertyOp2
 70
     1
102
RTVSPropertyOp3
 70
     1
102
RTVSPropertyOp4
 70
     1
102
RTVSPropertyOp5
 70
     1
102
RTVSPropertyOp6
 70
     1
102
RTVSPropertyOp7
 70
     1
102
RTVSPropertyOp8
 70
     1
102
RTVSPropertyOp9
 70
     1
102
RTVSPropertyOp10
 70
     1
102
RTVSPropertyOp11
 70
     1
102
RTVSPropertyOp12
 70
     1
102
RTVSPropertyOp13
 70
     1
102
RTVSPropertyOp14
 70
     1
102
RTVSPropertyOp15
 70
     1
102
RTVSPropertyOp16
 70
     1
102
RTVSPropertyOp17
 70
     1
102
RTVSPropertyOp18
 70
     1
102
RTVSPropertyOp19
 70
     1
102
RTVSPropertyOp20
 70
     1
102
RTVSPropertyOp21
 70
     1
102
RTVSPropertyOp22
 70
     1
102
RTVSPropertyOp23
 70
     1
102
RTVSPropertyOp24
 70
     1
102
RTVSPropertyOp25
 70
     1
102
RTVSPropertyOp26
 70
     1
102
RTVSPropertyOp27
 70
     1
102
RTVSPropertyOp28
 70
     1
102
RTVSPropertyOp29
 70
     1
102
RTVSPropertyOp30
 70
     1
102
RTVSPropertyOp31
 70
     1
102
RTVSPropertyOp32
 70
     1
102
RTVSPropertyOp33
 70
     1
102
RTVSPropertyOp34
 70
     1
102
RTVSPropertyOp35
 70
     1
102
RTVSPropertyOp36
 70
     1
102
RTVSPropertyOp37
 70
     1
102
RTVSPropertyOp38
 70
     1
102
RTVSPropertyOp39
 70
     1
102
RTVSPropertyOp40
 70
     1
102
RTVSPropertyOp41
 70
     1
102
RTVSPropertyOp42
 70
     1
102
RTVSPropertyOp43
 70
     1
102
RTVSPropertyOp44
 70
     1
102
RTVSPropertyOp45
 70
     1
102
RTVSPropertyOp46
 70
     1
102
RTVSPropertyOp47
 70
     1
102
RTVSPropertyOp48
 70
     1
102
RTVSPropertyOp49
 70
     1
102
RTVSPropertyOp50
 70
     1
102
RTVSPropertyOp51
 70
     0
102
RTVSPropertyOp52
 70
     0
102
RTVSPropertyOp53
 70
     1
102
RTVSPropertyOp54
 70
     1
102
RTVSPropertyOp55
 70
     1
102
RTVSPropertyOp56
 70
     1
102
RTVSPropertyOp57
 70
     1
102
RTVSPost2010Prop28
280
     0
102
RTVSPost2010PropOp28
 70
     1
102
RTVSPost2010Prop29
280
     1
102
RTVSPost2010PropOp29
 70
     1
102
RTVSPost2010Prop30
280
     1
102
RTVSPost2010PropOp30
 70
     1
102
RTVSPost2010Prop31
280
     0
102
RTVSPost2010PropOp31
 70
     1
102
RTVSPost2010Prop32
280
     0
102
RTVSPost2010PropOp32
 70
     1
102
RTVSPost2010Prop33
280
     0
102
RTVSPost2010PropOp33
 70
     1
102
RTVSPost2010Prop34
280
     0
102
RTVSPost2010PropOp34
 70
     1
102
RTVSPost2010Prop35
280
     0
102
RTVSPost2010PropOp35
 70
     1
102
RTVSPost2010Prop36
280
     0
102
RTVSPost2010PropOp36
 70
     1
102
RTVSPost2010Prop37
 90
       50
102
RTVSPost2010PropOp37
 70
     1
102
RTVSPost2010Prop38
140
0.0
102
RTVSPost2010PropOp38
 70
     1
102
RTVSPost2010Prop39
140
1.0
102
RTVSPost2010PropOp39
 70
     1
102
RTVSPost2010Prop40
 90
        0
102
RTVSPost2010PropOp40
 70
     1
102
RTVSPost2010Prop41ColorIndex
 90
       18
102
RTVSPost2010Prop41ColorRGB
 90
        0
102
RTVSPost2010PropOp41
 70
     1
102
RTVSPost2010Prop42
 90
       50
102
RTVSPost2010PropOp42
 70
     1
102
RTVSPost2010Prop43
 90
        3
102
RTVSPost2010PropOp43
 70
     1
102
RTVSPost2010Prop44ColorIndex
 90
        5
102
RTVSPost2010Prop44ColorRGB
 90
      255
102
RTVSPost2010PropOp44
 70
     1
102
RTVSPost2010Prop45
280
     0
102
RTVSPost2010PropOp45
 70
     1
102
RTVSPost2010Prop46
 90
       50
102
RTVSPost2010PropOp46
 70
     1
102
RTVSPost2010Prop47
 90
       50
102
RTVSPost2010PropOp47
 70
     1
102
RTVSPost2010Prop48
 90
       50
102
RTVSPost2010PropOp48
 70
     1
102
RTVSPost2010Prop49
280
     0
102
RTVSPost2010PropOp49
 70
     1
102
RTVSPost2010Prop50
 90
       50
102
RTVSPost2010PropOp50
 70
     1
102
RTVSPost2010Prop51ColorIndex
 90
      256
102
RTVSPost2010Prop51ColorRGB
 90
-16777216
102
RTVSPost2010PropOp51
 70
     0
102
RTVSPost2010Prop52
140
1.0
102
RTVSPost2010PropOp52
 70
     0
102
RTVSPost2010Prop53
 90
        2
102
RTVSPost2010PropOp53
 70
     1
102
RTVSPost2010Prop54
  1
strokes_ogs.tif
102
RTVSPost2010PropOp54
 70
     1
102
RTVSPost2010Prop55
280
     0
102
RTVSPost2010PropOp55
 70
     1
102
RTVSPost2010Prop56
140
1.0
102
RTVSPost2010PropOp56
 70
     1
102
RTVSPost2010Prop57
140
1.0
102
RTVSPost2010PropOp57
 70
     1
  0
XRECORD
  5
424
102
{ACAD_REACTORS
330
423
102
}
330
423
100
AcDbXrecord
280
     1
102
RTVSPropertyOp0
 70
     1
102
RTVSPropertyOp1
 70
     1
102
RTVSPropertyOp2
 70
     1
102
RTVSPropertyOp3
 70
     1
102
RTVSPropertyOp4
 70
     1
102
RTVSPropertyOp5
 70
     1
102
RTVSPropertyOp6
 70
     1
102
RTVSPropertyOp7
 70
     1
102
RTVSPropertyOp8
 70
     1
102
RTVSPropertyOp9
 70
     1
102
RTVSPropertyOp10
 70
     1
102
RTVSPropertyOp11
 70
     1
102
RTVSPropertyOp12
 70
     1
102
RTVSPropertyOp13
 70
     1
102
RTVSPropertyOp14
 70
     1
102
RTVSPropertyOp15
 70
     1
102
RTVSPropertyOp16
 70
     1
102
RTVSPropertyOp17
 70
     1
102
RTVSPropertyOp18
 70
     1
102
RTVSPropertyOp19
 70
     1
102
RTVSPropertyOp20
 70
     1
102
RTVSPropertyOp21
 70
     1
102
RTVSPropertyOp22
 70
     1
102
RTVSPropertyOp23
 70
     1
102
RTVSPropertyOp24
 70
     1
102
RTVSPropertyOp25
 70
     1
102
RTVSPropertyOp26
 70
     1
102
RTVSPropertyOp27
 70
     1
102
RTVSPropertyOp28
 70
     1
102
RTVSPropertyOp29
 70
     1
102
RTVSPropertyOp30
 70
     1
102
RTVSPropertyOp31
 70
     1
102
RTVSPropertyOp32
 70
     1
102
RTVSPropertyOp33
 70
     1
102
RTVSPropertyOp34
 70
     1
102
RTVSPropertyOp35
 70
     1
102
RTVSPropertyOp36
 70
     1
102
RTVSPropertyOp37
 70
     1
102
RTVSPropertyOp38
 70
     1
102
RTVSPropertyOp39
 70
     1
102
RTVSPropertyOp40
 70
     1
102
RTVSPropertyOp41
 70
     1
102
RTVSPropertyOp42
 70
     1
102
RTVSPropertyOp43
 70
     1
102
RTVSPropertyOp44
 70
     1
102
RTVSPropertyOp45
 70
     1
102
RTVSPropertyOp46
 70
     1
102
RTVSPropertyOp47
 70
     1
102
RTVSPropertyOp48
 70
     1
102
RTVSPropertyOp49
 70
     1
102
RTVSPropertyOp50
 70
     1
102
RTVSPropertyOp51
 70
     0
102
RTVSPropertyOp52
 70
     0
102
RTVSPropertyOp53
 70
     1
102
RTVSPropertyOp54
 70
     1
102
RTVSPropertyOp55
 70
     1
102
RTVSPropertyOp56
 70
     1
102
RTVSPropertyOp57
 70
     1
102
RTVSPost2010Prop28
280
     0
102
RTVSPost2010PropOp28
 70
     1
102
RTVSPost2010Prop29
280
     1
102
RTVSPost2010PropOp29
 70
     1
102
RTVSPost2010Prop30
280
     1
102
RTVSPost2010PropOp30
 70
     1
102
RTVSPost2010Prop31
280
     0
102
RTVSPost2010PropOp31
 70
     1
102
RTVSPost2010Prop32
280
     0
102
RTVSPost2010PropOp32
 70
     1
102
RTVSPost2010Prop33
280
     0
102
RTVSPost2010PropOp33
 70
     1
102
RTVSPost2010Prop34
280
     0
102
RTVSPost2010PropOp34
 70
     1
102
RTVSPost2010Prop35
280
     0
102
RTVSPost2010PropOp35
 70
     1
102
RTVSPost2010Prop36
280
     0
102
RTVSPost2010PropOp36
 70
     1
102
RTVSPost2010Prop37
 90
       50
102
RTVSPost2010PropOp37
 70
     1
102
RTVSPost2010Prop38
140
0.0
102
RTVSPost2010PropOp38
 70
     1
102
RTVSPost2010Prop39
140
1.0
102
RTVSPost2010PropOp39
 70
     1
102
RTVSPost2010Prop40
 90
        0
102
RTVSPost2010PropOp40
 70
     1
102
RTVSPost2010Prop41ColorIndex
 90
       18
102
RTVSPost2010Prop41ColorRGB
 90
        0
102
RTVSPost2010PropOp41
 70
     1
102
RTVSPost2010Prop42
 90
       50
102
RTVSPost2010PropOp42
 70
     1
102
RTVSPost2010Prop43
 90
        3
102
RTVSPost2010PropOp43
 70
     1
102
RTVSPost2010Prop44ColorIndex
 90
        5
102
RTVSPost2010Prop44ColorRGB
 90
      255
102
RTVSPost2010PropOp44
 70
     1
102
RTVSPost2010Prop45
280
     0
102
RTVSPost2010PropOp45
 70
     1
102
RTVSPost2010Prop46
 90
       50
102
RTVSPost2010PropOp46
 70
     1
102
RTVSPost2010Prop47
 90
       50
102
RTVSPost2010PropOp47
 70
     1
102
RTVSPost2010Prop48
 90
       50
102
RTVSPost2010PropOp48
 70
     1
102
RTVSPost2010Prop49
280
     0
102
RTVSPost2010PropOp49
 70
     1
102
RTVSPost2010Prop50
 90
       50
102
RTVSPost2010PropOp50
 70
     1
102
RTVSPost2010Prop51ColorIndex
 90
      256
102
RTVSPost2010Prop51ColorRGB
 90
-16777216
102
RTVSPost2010PropOp51
 70
     0
102
RTVSPost2010Prop52
140
1.0
102
RTVSPost2010PropOp52
 70
     0
102
RTVSPost2010Prop53
 90
        2
102
RTVSPost2010PropOp53
 70
     1
102
RTVSPost2010Prop54
  1
strokes_ogs.tif
102
RTVSPost2010PropOp54
 70
     1
102
RTVSPost2010Prop55
280
     0
102
RTVSPost2010PropOp55
 70
     1
102
RTVSPost2010Prop56
140
1.0
102
RTVSPost2010PropOp56
 70
     1
102
RTVSPost2010Prop57
140
1.0
102
RTVSPost2010PropOp57
 70
     1
  0
XRECORD
  5
426
102
{ACAD_REACTORS
330
425
102
}
330
425
100
AcDbXrecord
280
     1
102
RTVSPropertyOp0
 70
     1
102
RTVSPropertyOp1
 70
     1
102
RTVSPropertyOp2
 70
     1
102
RTVSPropertyOp3
 70
     1
102
RTVSPropertyOp4
 70
     1
102
RTVSPropertyOp5
 70
     1
102
RTVSPropertyOp6
 70
     1
102
RTVSPropertyOp7
 70
     1
102
RTVSPropertyOp8
 70
     1
102
RTVSPropertyOp9
 70
     1
102
RTVSPropertyOp10
 70
     1
102
RTVSPropertyOp11
 70
     1
102
RTVSPropertyOp12
 70
     1
102
RTVSPropertyOp13
 70
     1
102
RTVSPropertyOp14
 70
     1
102
RTVSPropertyOp15
 70
     1
102
RTVSPropertyOp16
 70
     1
102
RTVSPropertyOp17
 70
     1
102
RTVSPropertyOp18
 70
     1
102
RTVSPropertyOp19
 70
     1
102
RTVSPropertyOp20
 70
     1
102
RTVSPropertyOp21
 70
     1
102
RTVSPropertyOp22
 70
     1
102
RTVSPropertyOp23
 70
     1
102
RTVSPropertyOp24
 70
     1
102
RTVSPropertyOp25
 70
     1
102
RTVSPropertyOp26
 70
     1
102
RTVSPropertyOp27
 70
     1
102
RTVSPropertyOp28
 70
     1
102
RTVSPropertyOp29
 70
     1
102
RTVSPropertyOp30
 70
     1
102
RTVSPropertyOp31
 70
     1
102
RTVSPropertyOp32
 70
     1
102
RTVSPropertyOp33
 70
     1
102
RTVSPropertyOp34
 70
     1
102
RTVSPropertyOp35
 70
     1
102
RTVSPropertyOp36
 70
     1
102
RTVSPropertyOp37
 70
     1
102
RTVSPropertyOp38
 70
     1
102
RTVSPropertyOp39
 70
     1
102
RTVSPropertyOp40
 70
     1
102
RTVSPropertyOp41
 70
     1
102
RTVSPropertyOp42
 70
     1
102
RTVSPropertyOp43
 70
     1
102
RTVSPropertyOp44
 70
     1
102
RTVSPropertyOp45
 70
     1
102
RTVSPropertyOp46
 70
     1
102
RTVSPropertyOp47
 70
     1
102
RTVSPropertyOp48
 70
     1
102
RTVSPropertyOp49
 70
     1
102
RTVSPropertyOp50
 70
     1
102
RTVSPropertyOp51
 70
     0
102
RTVSPropertyOp52
 70
     0
102
RTVSPropertyOp53
 70
     1
102
RTVSPropertyOp54
 70
     1
102
RTVSPropertyOp55
 70
     1
102
RTVSPropertyOp56
 70
     1
102
RTVSPropertyOp57
 70
     1
102
RTVSPost2010Prop28
280
     0
102
RTVSPost2010PropOp28
 70
     1
102
RTVSPost2010Prop29
280
     1
102
RTVSPost2010PropOp29
 70
     1
102
RTVSPost2010Prop30
280
     1
102
RTVSPost2010PropOp30
 70
     1
102
RTVSPost2010Prop31
280
     0
102
RTVSPost2010PropOp31
 70
     1
102
RTVSPost2010Prop32
280
     0
102
RTVSPost2010PropOp32
 70
     1
102
RTVSPost2010Prop33
280
     0
102
RTVSPost2010PropOp33
 70
     1
102
RTVSPost2010Prop34
280
     0
102
RTVSPost2010PropOp34
 70
     1
102
RTVSPost2010Prop35
280
     0
102
RTVSPost2010PropOp35
 70
     1
102
RTVSPost2010Prop36
280
     0
102
RTVSPost2010PropOp36
 70
     1
102
RTVSPost2010Prop37
 90
       50
102
RTVSPost2010PropOp37
 70
     1
102
RTVSPost2010Prop38
140
0.0
102
RTVSPost2010PropOp38
 70
     1
102
RTVSPost2010Prop39
140
1.0
102
RTVSPost2010PropOp39
 70
     1
102
RTVSPost2010Prop40
 90
        0
102
RTVSPost2010PropOp40
 70
     1
102
RTVSPost2010Prop41ColorIndex
 90
       18
102
RTVSPost2010Prop41ColorRGB
 90
        0
102
RTVSPost2010PropOp41
 70
     1
102
RTVSPost2010Prop42
 90
       50
102
RTVSPost2010PropOp42
 70
     1
102
RTVSPost2010Prop43
 90
        3
102
RTVSPost2010PropOp43
 70
     1
102
RTVSPost2010Prop44ColorIndex
 90
        5
102
RTVSPost2010Prop44ColorRGB
 90
      255
102
RTVSPost2010PropOp44
 70
     1
102
RTVSPost2010Prop45
280
     0
102
RTVSPost2010PropOp45
 70
     1
102
RTVSPost2010Prop46
 90
       50
102
RTVSPost2010PropOp46
 70
     1
102
RTVSPost2010Prop47
 90
       50
102
RTVSPost2010PropOp47
 70
     1
102
RTVSPost2010Prop48
 90
       50
102
RTVSPost2010PropOp48
 70
     1
102
RTVSPost2010Prop49
280
     0
102
RTVSPost2010PropOp49
 70
     1
102
RTVSPost2010Prop50
 90
       50
102
RTVSPost2010PropOp50
 70
     1
102
RTVSPost2010Prop51ColorIndex
 90
      256
102
RTVSPost2010Prop51ColorRGB
 90
-16777216
102
RTVSPost2010PropOp51
 70
     0
102
RTVSPost2010Prop52
140
1.0
102
RTVSPost2010PropOp52
 70
     0
102
RTVSPost2010Prop53
 90
        2
102
RTVSPost2010PropOp53
 70
     1
102
RTVSPost2010Prop54
  1
strokes_ogs.tif
102
RTVSPost2010PropOp54
 70
     1
102
RTVSPost2010Prop55
280
     0
102
RTVSPost2010PropOp55
 70
     1
102
RTVSPost2010Prop56
140
1.0
102
RTVSPost2010PropOp56
 70
     1
102
RTVSPost2010Prop57
140
1.0
102
RTVSPost2010PropOp57
 70
     1
  0
XRECORD
  5
436
102
{ACAD_REACTORS
330
435
102
}
330
435
100
AcDbXrecord
280
     1
102
RTVSPropertyOp0
 70
     0
102
RTVSPropertyOp1
 70
     0
102
RTVSPropertyOp2
 70
     0
102
RTVSPropertyOp3
 70
     0
102
RTVSPropertyOp4
 70
     0
102
RTVSPropertyOp5
 70
     0
102
RTVSPropertyOp6
 70
     0
102
RTVSPropertyOp7
 70
     0
102
RTVSPropertyOp8
 70
     0
102
RTVSPropertyOp9
 70
     0
102
RTVSPropertyOp10
 70
     0
102
RTVSPropertyOp11
 70
     0
102
RTVSPropertyOp12
 70
     0
102
RTVSPropertyOp13
 70
     0
102
RTVSPropertyOp14
 70
     2
102
RTVSPropertyOp15
 70
     0
102
RTVSPropertyOp16
 70
     0
102
RTVSPropertyOp17
 70
     0
102
RTVSPropertyOp18
 70
     0
102
RTVSPropertyOp19
 70
     0
102
RTVSPropertyOp20
 70
     0
102
RTVSPropertyOp21
 70
     0
102
RTVSPropertyOp22
 70
     0
102
RTVSPropertyOp23
 70
     0
102
RTVSPropertyOp24
 70
     0
102
RTVSPropertyOp25
 70
     0
102
RTVSPropertyOp26
 70
     0
102
RTVSPropertyOp27
 70
     0
102
RTVSPropertyOp28
 70
     0
102
RTVSPropertyOp29
 70
     0
102
RTVSPropertyOp30
 70
     0
102
RTVSPropertyOp31
 70
     0
102
RTVSPropertyOp32
 70
     0
102
RTVSPropertyOp33
 70
     0
102
RTVSPropertyOp34
 70
     0
102
RTVSPropertyOp35
 70
     0
102
RTVSPropertyOp36
 70
     0
102
RTVSPropertyOp37
 70
     0
102
RTVSPropertyOp38
 70
     0
102
RTVSPropertyOp39
 70
     0
102
RTVSPropertyOp40
 70
     0
102
RTVSPropertyOp41
 70
     0
102
RTVSPropertyOp42
 70
     0
102
RTVSPropertyOp43
 70
     0
102
RTVSPropertyOp44
 70
     0
102
RTVSPropertyOp45
 70
     0
102
RTVSPropertyOp46
 70
     0
102
RTVSPropertyOp47
 70
     0
102
RTVSPropertyOp48
 70
     0
102
RTVSPropertyOp49
 70
     0
102
RTVSPropertyOp50
 70
     0
102
RTVSPropertyOp51
 70
     0
102
RTVSPropertyOp52
 70
     0
102
RTVSPropertyOp53
 70
     0
102
RTVSPropertyOp54
 70
     0
102
RTVSPropertyOp55
 70
     0
102
RTVSPropertyOp56
 70
     0
102
RTVSPropertyOp57
 70
     0
102
RTVSPost2010Prop28
280
     0
102
RTVSPost2010PropOp28
 70
     0
102
RTVSPost2010Prop29
280
     1
102
RTVSPost2010PropOp29
 70
     0
102
RTVSPost2010Prop30
280
     1
102
RTVSPost2010PropOp30
 70
     0
102
RTVSPost2010Prop31
280
     0
102
RTVSPost2010PropOp31
 70
     0
102
RTVSPost2010Prop32
280
     0
102
RTVSPost2010PropOp32
 70
     0
102
RTVSPost2010Prop33
280
     0
102
RTVSPost2010PropOp33
 70
     0
102
RTVSPost2010Prop34
280
     0
102
RTVSPost2010PropOp34
 70
     0
102
RTVSPost2010Prop35
280
     0
102
RTVSPost2010PropOp35
 70
     0
102
RTVSPost2010Prop36
280
     0
102
RTVSPost2010PropOp36
 70
     0
102
RTVSPost2010Prop37
 90
       50
102
RTVSPost2010PropOp37
 70
     0
102
RTVSPost2010Prop38
140
0.0
102
RTVSPost2010PropOp38
 70
     0
102
RTVSPost2010Prop39
140
1.0
102
RTVSPost2010PropOp39
 70
     0
102
RTVSPost2010Prop40
 90
        0
102
RTVSPost2010PropOp40
 70
     0
102
RTVSPost2010Prop41ColorIndex
 90
       18
102
RTVSPost2010Prop41ColorRGB
 90
        0
102
RTVSPost2010PropOp41
 70
     0
102
RTVSPost2010Prop42
 90
       50
102
RTVSPost2010PropOp42
 70
     0
102
RTVSPost2010Prop43
 90
        3
102
RTVSPost2010PropOp43
 70
     0
102
RTVSPost2010Prop44ColorIndex
 90
        5
102
RTVSPost2010Prop44ColorRGB
 90
      255
102
RTVSPost2010PropOp44
 70
     0
102
RTVSPost2010Prop45
280
     0
102
RTVSPost2010PropOp45
 70
     0
102
RTVSPost2010Prop46
 90
       50
102
RTVSPost2010PropOp46
 70
     0
102
RTVSPost2010Prop47
 90
       50
102
RTVSPost2010PropOp47
 70
     0
102
RTVSPost2010Prop48
 90
       50
102
RTVSPost2010PropOp48
 70
     0
102
RTVSPost2010Prop49
280
     0
102
RTVSPost2010PropOp49
 70
     0
102
RTVSPost2010Prop50
 90
       50
102
RTVSPost2010PropOp50
 70
     0
102
RTVSPost2010Prop51ColorIndex
 90
      256
102
RTVSPost2010Prop51ColorRGB
 90
-16777216
102
RTVSPost2010PropOp51
 70
     0
102
RTVSPost2010Prop52
140
1.0
102
RTVSPost2010PropOp52
 70
     0
102
RTVSPost2010Prop53
 90
        2
102
RTVSPost2010PropOp53
 70
     0
102
RTVSPost2010Prop54
  1
strokes_ogs.tif
102
RTVSPost2010PropOp54
 70
     0
102
RTVSPost2010Prop55
280
     0
102
RTVSPost2010PropOp55
 70
     0
102
RTVSPost2010Prop56
140
1.0
102
RTVSPost2010PropOp56
 70
     0
102
RTVSPost2010Prop57
140
1.0
102
RTVSPost2010PropOp57
 70
     0
  0
XRECORD
  5
42E
102
{ACAD_REACTORS
330
42D
102
}
330
42D
100
AcDbXrecord
280
     1
102
RTVSPropertyOp0
 70
     1
102
RTVSPropertyOp1
 70
     1
102
RTVSPropertyOp2
 70
     1
102
RTVSPropertyOp3
 70
     1
102
RTVSPropertyOp4
 70
     1
102
RTVSPropertyOp5
 70
     1
102
RTVSPropertyOp6
 70
     1
102
RTVSPropertyOp7
 70
     1
102
RTVSPropertyOp8
 70
     1
102
RTVSPropertyOp9
 70
     1
102
RTVSPropertyOp10
 70
     1
102
RTVSPropertyOp11
 70
     1
102
RTVSPropertyOp12
 70
     1
102
RTVSPropertyOp13
 70
     1
102
RTVSPropertyOp14
 70
     1
102
RTVSPropertyOp15
 70
     1
102
RTVSPropertyOp16
 70
     1
102
RTVSPropertyOp17
 70
     1
102
RTVSPropertyOp18
 70
     1
102
RTVSPropertyOp19
 70
     1
102
RTVSPropertyOp20
 70
     1
102
RTVSPropertyOp21
 70
     1
102
RTVSPropertyOp22
 70
     1
102
RTVSPropertyOp23
 70
     1
102
RTVSPropertyOp24
 70
     1
102
RTVSPropertyOp25
 70
     1
102
RTVSPropertyOp26
 70
     1
102
RTVSPropertyOp27
 70
     1
102
RTVSPropertyOp28
 70
     1
102
RTVSPropertyOp29
 70
     1
102
RTVSPropertyOp30
 70
     1
102
RTVSPropertyOp31
 70
     1
102
RTVSPropertyOp32
 70
     1
102
RTVSPropertyOp33
 70
     1
102
RTVSPropertyOp34
 70
     1
102
RTVSPropertyOp35
 70
     1
102
RTVSPropertyOp36
 70
     1
102
RTVSPropertyOp37
 70
     1
102
RTVSPropertyOp38
 70
     1
102
RTVSPropertyOp39
 70
     1
102
RTVSPropertyOp40
 70
     1
102
RTVSPropertyOp41
 70
     1
102
RTVSPropertyOp42
 70
     1
102
RTVSPropertyOp43
 70
     1
102
RTVSPropertyOp44
 70
     1
102
RTVSPropertyOp45
 70
     1
102
RTVSPropertyOp46
 70
     1
102
RTVSPropertyOp47
 70
     1
102
RTVSPropertyOp48
 70
     1
102
RTVSPropertyOp49
 70
     1
102
RTVSPropertyOp50
 70
     1
102
RTVSPropertyOp51
 70
     0
102
RTVSPropertyOp52
 70
     0
102
RTVSPropertyOp53
 70
     1
102
RTVSPropertyOp54
 70
     1
102
RTVSPropertyOp55
 70
     1
102
RTVSPropertyOp56
 70
     1
102
RTVSPropertyOp57
 70
     1
102
RTVSPost2010Prop28
280
     0
102
RTVSPost2010PropOp28
 70
     1
102
RTVSPost2010Prop29
280
     1
102
RTVSPost2010PropOp29
 70
     1
102
RTVSPost2010Prop30
280
     1
102
RTVSPost2010PropOp30
 70
     1
102
RTVSPost2010Prop31
280
     0
102
RTVSPost2010PropOp31
 70
     1
102
RTVSPost2010Prop32
280
     0
102
RTVSPost2010PropOp32
 70
     1
102
RTVSPost2010Prop33
280
     0
102
RTVSPost2010PropOp33
 70
     1
102
RTVSPost2010Prop34
280
     0
102
RTVSPost2010PropOp34
 70
     1
102
RTVSPost2010Prop35
280
     0
102
RTVSPost2010PropOp35
 70
     1
102
RTVSPost2010Prop36
280
     0
102
RTVSPost2010PropOp36
 70
     1
102
RTVSPost2010Prop37
 90
       50
102
RTVSPost2010PropOp37
 70
     1
102
RTVSPost2010Prop38
140
0.0
102
RTVSPost2010PropOp38
 70
     1
102
RTVSPost2010Prop39
140
1.0
102
RTVSPost2010PropOp39
 70
     1
102
RTVSPost2010Prop40
 90
        0
102
RTVSPost2010PropOp40
 70
     1
102
RTVSPost2010Prop41ColorIndex
 90
       18
102
RTVSPost2010Prop41ColorRGB
 90
        0
102
RTVSPost2010PropOp41
 70
     1
102
RTVSPost2010Prop42
 90
       50
102
RTVSPost2010PropOp42
 70
     1
102
RTVSPost2010Prop43
 90
        3
102
RTVSPost2010PropOp43
 70
     1
102
RTVSPost2010Prop44ColorIndex
 90
        5
102
RTVSPost2010Prop44ColorRGB
 90
      255
102
RTVSPost2010PropOp44
 70
     1
102
RTVSPost2010Prop45
280
     0
102
RTVSPost2010PropOp45
 70
     1
102
RTVSPost2010Prop46
 90
       50
102
RTVSPost2010PropOp46
 70
     1
102
RTVSPost2010Prop47
 90
       50
102
RTVSPost2010PropOp47
 70
     1
102
RTVSPost2010Prop48
 90
       50
102
RTVSPost2010PropOp48
 70
     1
102
RTVSPost2010Prop49
280
     0
102
RTVSPost2010PropOp49
 70
     1
102
RTVSPost2010Prop50
 90
       50
102
RTVSPost2010PropOp50
 70
     1
102
RTVSPost2010Prop51ColorIndex
 90
      256
102
RTVSPost2010Prop51ColorRGB
 90
-16777216
102
RTVSPost2010PropOp51
 70
     0
102
RTVSPost2010Prop52
140
1.0
102
RTVSPost2010PropOp52
 70
     0
102
RTVSPost2010Prop53
 90
        2
102
RTVSPost2010PropOp53
 70
     1
102
RTVSPost2010Prop54
  1
strokes_ogs.tif
102
RTVSPost2010PropOp54
 70
     1
102
RTVSPost2010Prop55
280
     0
102
RTVSPost2010PropOp55
 70
     1
102
RTVSPost2010Prop56
140
1.0
102
RTVSPost2010PropOp56
 70
     1
102
RTVSPost2010Prop57
140
1.0
102
RTVSPost2010PropOp57
 70
     1
  0
XRECORD
  5
412
102
{ACAD_REACTORS
330
411
102
}
330
411
100
AcDbXrecord
280
     1
102
RTVSPropertyOp0
 70
     1
102
RTVSPropertyOp1
 70
     1
102
RTVSPropertyOp2
 70
     1
102
RTVSPropertyOp3
 70
     1
102
RTVSPropertyOp4
 70
     1
102
RTVSPropertyOp5
 70
     1
102
RTVSPropertyOp6
 70
     1
102
RTVSPropertyOp7
 70
     1
102
RTVSPropertyOp8
 70
     1
102
RTVSPropertyOp9
 70
     1
102
RTVSPropertyOp10
 70
     1
102
RTVSPropertyOp11
 70
     1
102
RTVSPropertyOp12
 70
     1
102
RTVSPropertyOp13
 70
     1
102
RTVSPropertyOp14
 70
     1
102
RTVSPropertyOp15
 70
     1
102
RTVSPropertyOp16
 70
     1
102
RTVSPropertyOp17
 70
     1
102
RTVSPropertyOp18
 70
     1
102
RTVSPropertyOp19
 70
     1
102
RTVSPropertyOp20
 70
     1
102
RTVSPropertyOp21
 70
     1
102
RTVSPropertyOp22
 70
     1
102
RTVSPropertyOp23
 70
     1
102
RTVSPropertyOp24
 70
     1
102
RTVSPropertyOp25
 70
     1
102
RTVSPropertyOp26
 70
     1
102
RTVSPropertyOp27
 70
     1
102
RTVSPropertyOp28
 70
     1
102
RTVSPropertyOp29
 70
     1
102
RTVSPropertyOp30
 70
     1
102
RTVSPropertyOp31
 70
     1
102
RTVSPropertyOp32
 70
     1
102
RTVSPropertyOp33
 70
     1
102
RTVSPropertyOp34
 70
     1
102
RTVSPropertyOp35
 70
     1
102
RTVSPropertyOp36
 70
     1
102
RTVSPropertyOp37
 70
     1
102
RTVSPropertyOp38
 70
     1
102
RTVSPropertyOp39
 70
     1
102
RTVSPropertyOp40
 70
     1
102
RTVSPropertyOp41
 70
     1
102
RTVSPropertyOp42
 70
     1
102
RTVSPropertyOp43
 70
     1
102
RTVSPropertyOp44
 70
     1
102
RTVSPropertyOp45
 70
     1
102
RTVSPropertyOp46
 70
     1
102
RTVSPropertyOp47
 70
     1
102
RTVSPropertyOp48
 70
     1
102
RTVSPropertyOp49
 70
     1
102
RTVSPropertyOp50
 70
     1
102
RTVSPropertyOp51
 70
     0
102
RTVSPropertyOp52
 70
     0
102
RTVSPropertyOp53
 70
     1
102
RTVSPropertyOp54
 70
     1
102
RTVSPropertyOp55
 70
     1
102
RTVSPropertyOp56
 70
     1
102
RTVSPropertyOp57
 70
     1
102
RTVSPost2010Prop28
280
     0
102
RTVSPost2010PropOp28
 70
     1
102
RTVSPost2010Prop29
280
     1
102
RTVSPost2010PropOp29
 70
     1
102
RTVSPost2010Prop30
280
     1
102
RTVSPost2010PropOp30
 70
     1
102
RTVSPost2010Prop31
280
     0
102
RTVSPost2010PropOp31
 70
     1
102
RTVSPost2010Prop32
280
     0
102
RTVSPost2010PropOp32
 70
     1
102
RTVSPost2010Prop33
280
     0
102
RTVSPost2010PropOp33
 70
     1
102
RTVSPost2010Prop34
280
     0
102
RTVSPost2010PropOp34
 70
     1
102
RTVSPost2010Prop35
280
     0
102
RTVSPost2010PropOp35
 70
     1
102
RTVSPost2010Prop36
280
     0
102
RTVSPost2010PropOp36
 70
     1
102
RTVSPost2010Prop37
 90
       50
102
RTVSPost2010PropOp37
 70
     1
102
RTVSPost2010Prop38
140
0.0
102
RTVSPost2010PropOp38
 70
     1
102
RTVSPost2010Prop39
140
1.0
102
RTVSPost2010PropOp39
 70
     1
102
RTVSPost2010Prop40
 90
        0
102
RTVSPost2010PropOp40
 70
     1
102
RTVSPost2010Prop41ColorIndex
 90
       18
102
RTVSPost2010Prop41ColorRGB
 90
        0
102
RTVSPost2010PropOp41
 70
     1
102
RTVSPost2010Prop42
 90
       50
102
RTVSPost2010PropOp42
 70
     1
102
RTVSPost2010Prop43
 90
        3
102
RTVSPost2010PropOp43
 70
     1
102
RTVSPost2010Prop44ColorIndex
 90
        5
102
RTVSPost2010Prop44ColorRGB
 90
      255
102
RTVSPost2010PropOp44
 70
     1
102
RTVSPost2010Prop45
280
     0
102
RTVSPost2010PropOp45
 70
     1
102
RTVSPost2010Prop46
 90
       50
102
RTVSPost2010PropOp46
 70
     1
102
RTVSPost2010Prop47
 90
       50
102
RTVSPost2010PropOp47
 70
     1
102
RTVSPost2010Prop48
 90
       50
102
RTVSPost2010PropOp48
 70
     1
102
RTVSPost2010Prop49
280
     0
102
RTVSPost2010PropOp49
 70
     1
102
RTVSPost2010Prop50
 90
       50
102
RTVSPost2010PropOp50
 70
     1
102
RTVSPost2010Prop51ColorIndex
 90
      256
102
RTVSPost2010Prop51ColorRGB
 90
-16777216
102
RTVSPost2010PropOp51
 70
     0
102
RTVSPost2010Prop52
140
1.0
102
RTVSPost2010PropOp52
 70
     0
102
RTVSPost2010Prop53
 90
        2
102
RTVSPost2010PropOp53
 70
     1
102
RTVSPost2010Prop54
  1
strokes_ogs.tif
102
RTVSPost2010PropOp54
 70
     1
102
RTVSPost2010Prop55
280
     0
102
RTVSPost2010PropOp55
 70
     1
102
RTVSPost2010Prop56
140
1.0
102
RTVSPost2010PropOp56
 70
     1
102
RTVSPost2010Prop57
140
1.0
102
RTVSPost2010PropOp57
 70
     1
  0
XRECORD
  5
414
102
{ACAD_REACTORS
330
413
102
}
330
413
100
AcDbXrecord
280
     1
102
RTVSPropertyOp0
 70
     1
102
RTVSPropertyOp1
 70
     1
102
RTVSPropertyOp2
 70
     1
102
RTVSPropertyOp3
 70
     1
102
RTVSPropertyOp4
 70
     1
102
RTVSPropertyOp5
 70
     1
102
RTVSPropertyOp6
 70
     1
102
RTVSPropertyOp7
 70
     1
102
RTVSPropertyOp8
 70
     1
102
RTVSPropertyOp9
 70
     1
102
RTVSPropertyOp10
 70
     1
102
RTVSPropertyOp11
 70
     1
102
RTVSPropertyOp12
 70
     1
102
RTVSPropertyOp13
 70
     1
102
RTVSPropertyOp14
 70
     1
102
RTVSPropertyOp15
 70
     1
102
RTVSPropertyOp16
 70
     1
102
RTVSPropertyOp17
 70
     1
102
RTVSPropertyOp18
 70
     1
102
RTVSPropertyOp19
 70
     1
102
RTVSPropertyOp20
 70
     1
102
RTVSPropertyOp21
 70
     1
102
RTVSPropertyOp22
 70
     1
102
RTVSPropertyOp23
 70
     1
102
RTVSPropertyOp24
 70
     1
102
RTVSPropertyOp25
 70
     1
102
RTVSPropertyOp26
 70
     1
102
RTVSPropertyOp27
 70
     1
102
RTVSPropertyOp28
 70
     1
102
RTVSPropertyOp29
 70
     1
102
RTVSPropertyOp30
 70
     1
102
RTVSPropertyOp31
 70
     1
102
RTVSPropertyOp32
 70
     1
102
RTVSPropertyOp33
 70
     1
102
RTVSPropertyOp34
 70
     1
102
RTVSPropertyOp35
 70
     1
102
RTVSPropertyOp36
 70
     1
102
RTVSPropertyOp37
 70
     1
102
RTVSPropertyOp38
 70
     1
102
RTVSPropertyOp39
 70
     1
102
RTVSPropertyOp40
 70
     1
102
RTVSPropertyOp41
 70
     1
102
RTVSPropertyOp42
 70
     1
102
RTVSPropertyOp43
 70
     1
102
RTVSPropertyOp44
 70
     1
102
RTVSPropertyOp45
 70
     1
102
RTVSPropertyOp46
 70
     1
102
RTVSPropertyOp47
 70
     1
102
RTVSPropertyOp48
 70
     1
102
RTVSPropertyOp49
 70
     1
102
RTVSPropertyOp50
 70
     1
102
RTVSPropertyOp51
 70
     0
102
RTVSPropertyOp52
 70
     0
102
RTVSPropertyOp53
 70
     1
102
RTVSPropertyOp54
 70
     1
102
RTVSPropertyOp55
 70
     1
102
RTVSPropertyOp56
 70
     1
102
RTVSPropertyOp57
 70
     1
102
RTVSPost2010Prop28
280
     0
102
RTVSPost2010PropOp28
 70
     1
102
RTVSPost2010Prop29
280
     1
102
RTVSPost2010PropOp29
 70
     1
102
RTVSPost2010Prop30
280
     1
102
RTVSPost2010PropOp30
 70
     1
102
RTVSPost2010Prop31
280
     0
102
RTVSPost2010PropOp31
 70
     1
102
RTVSPost2010Prop32
280
     0
102
RTVSPost2010PropOp32
 70
     1
102
RTVSPost2010Prop33
280
     0
102
RTVSPost2010PropOp33
 70
     1
102
RTVSPost2010Prop34
280
     0
102
RTVSPost2010PropOp34
 70
     1
102
RTVSPost2010Prop35
280
     0
102
RTVSPost2010PropOp35
 70
     1
102
RTVSPost2010Prop36
280
     0
102
RTVSPost2010PropOp36
 70
     1
102
RTVSPost2010Prop37
 90
       50
102
RTVSPost2010PropOp37
 70
     1
102
RTVSPost2010Prop38
140
0.0
102
RTVSPost2010PropOp38
 70
     1
102
RTVSPost2010Prop39
140
1.0
102
RTVSPost2010PropOp39
 70
     1
102
RTVSPost2010Prop40
 90
        0
102
RTVSPost2010PropOp40
 70
     1
102
RTVSPost2010Prop41ColorIndex
 90
       18
102
RTVSPost2010Prop41ColorRGB
 90
        0
102
RTVSPost2010PropOp41
 70
     1
102
RTVSPost2010Prop42
 90
       50
102
RTVSPost2010PropOp42
 70
     1
102
RTVSPost2010Prop43
 90
        3
102
RTVSPost2010PropOp43
 70
     1
102
RTVSPost2010Prop44ColorIndex
 90
        5
102
RTVSPost2010Prop44ColorRGB
 90
      255
102
RTVSPost2010PropOp44
 70
     1
102
RTVSPost2010Prop45
280
     0
102
RTVSPost2010PropOp45
 70
     1
102
RTVSPost2010Prop46
 90
       50
102
RTVSPost2010PropOp46
 70
     1
102
RTVSPost2010Prop47
 90
       50
102
RTVSPost2010PropOp47
 70
     1
102
RTVSPost2010Prop48
 90
       50
102
RTVSPost2010PropOp48
 70
     1
102
RTVSPost2010Prop49
280
     0
102
RTVSPost2010PropOp49
 70
     1
102
RTVSPost2010Prop50
 90
       50
102
RTVSPost2010PropOp50
 70
     1
102
RTVSPost2010Prop51ColorIndex
 90
      256
102
RTVSPost2010Prop51ColorRGB
 90
-16777216
102
RTVSPost2010PropOp51
 70
     0
102
RTVSPost2010Prop52
140
1.0
102
RTVSPost2010PropOp52
 70
     0
102
RTVSPost2010Prop53
 90
        2
102
RTVSPost2010PropOp53
 70
     1
102
RTVSPost2010Prop54
  1
strokes_ogs.tif
102
RTVSPost2010PropOp54
 70
     1
102
RTVSPost2010Prop55
280
     0
102
RTVSPost2010PropOp55
 70
     1
102
RTVSPost2010Prop56
140
1.0
102
RTVSPost2010PropOp56
 70
     1
102
RTVSPost2010Prop57
140
1.0
102
RTVSPost2010PropOp57
 70
     1
  0
XRECORD
  5
416
102
{ACAD_REACTORS
330
415
102
}
330
415
100
AcDbXrecord
280
     1
102
RTVSPropertyOp0
 70
     1
102
RTVSPropertyOp1
 70
     1
102
RTVSPropertyOp2
 70
     1
102
RTVSPropertyOp3
 70
     1
102
RTVSPropertyOp4
 70
     1
102
RTVSPropertyOp5
 70
     1
102
RTVSPropertyOp6
 70
     1
102
RTVSPropertyOp7
 70
     1
102
RTVSPropertyOp8
 70
     1
102
RTVSPropertyOp9
 70
     1
102
RTVSPropertyOp10
 70
     1
102
RTVSPropertyOp11
 70
     1
102
RTVSPropertyOp12
 70
     1
102
RTVSPropertyOp13
 70
     1
102
RTVSPropertyOp14
 70
     1
102
RTVSPropertyOp15
 70
     1
102
RTVSPropertyOp16
 70
     1
102
RTVSPropertyOp17
 70
     1
102
RTVSPropertyOp18
 70
     1
102
RTVSPropertyOp19
 70
     1
102
RTVSPropertyOp20
 70
     1
102
RTVSPropertyOp21
 70
     1
102
RTVSPropertyOp22
 70
     1
102
RTVSPropertyOp23
 70
     1
102
RTVSPropertyOp24
 70
     1
102
RTVSPropertyOp25
 70
     1
102
RTVSPropertyOp26
 70
     1
102
RTVSPropertyOp27
 70
     1
102
RTVSPropertyOp28
 70
     1
102
RTVSPropertyOp29
 70
     1
102
RTVSPropertyOp30
 70
     1
102
RTVSPropertyOp31
 70
     1
102
RTVSPropertyOp32
 70
     1
102
RTVSPropertyOp33
 70
     1
102
RTVSPropertyOp34
 70
     1
102
RTVSPropertyOp35
 70
     1
102
RTVSPropertyOp36
 70
     1
102
RTVSPropertyOp37
 70
     1
102
RTVSPropertyOp38
 70
     1
102
RTVSPropertyOp39
 70
     1
102
RTVSPropertyOp40
 70
     1
102
RTVSPropertyOp41
 70
     1
102
RTVSPropertyOp42
 70
     1
102
RTVSPropertyOp43
 70
     1
102
RTVSPropertyOp44
 70
     1
102
RTVSPropertyOp45
 70
     1
102
RTVSPropertyOp46
 70
     1
102
RTVSPropertyOp47
 70
     1
102
RTVSPropertyOp48
 70
     1
102
RTVSPropertyOp49
 70
     1
102
RTVSPropertyOp50
 70
     1
102
RTVSPropertyOp51
 70
     0
102
RTVSPropertyOp52
 70
     0
102
RTVSPropertyOp53
 70
     1
102
RTVSPropertyOp54
 70
     1
102
RTVSPropertyOp55
 70
     1
102
RTVSPropertyOp56
 70
     1
102
RTVSPropertyOp57
 70
     1
102
RTVSPost2010Prop28
280
     0
102
RTVSPost2010PropOp28
 70
     1
102
RTVSPost2010Prop29
280
     1
102
RTVSPost2010PropOp29
 70
     1
102
RTVSPost2010Prop30
280
     1
102
RTVSPost2010PropOp30
 70
     1
102
RTVSPost2010Prop31
280
     0
102
RTVSPost2010PropOp31
 70
     1
102
RTVSPost2010Prop32
280
     0
102
RTVSPost2010PropOp32
 70
     1
102
RTVSPost2010Prop33
280
     0
102
RTVSPost2010PropOp33
 70
     1
102
RTVSPost2010Prop34
280
     0
102
RTVSPost2010PropOp34
 70
     1
102
RTVSPost2010Prop35
280
     0
102
RTVSPost2010PropOp35
 70
     1
102
RTVSPost2010Prop36
280
     0
102
RTVSPost2010PropOp36
 70
     1
102
RTVSPost2010Prop37
 90
       50
102
RTVSPost2010PropOp37
 70
     1
102
RTVSPost2010Prop38
140
0.0
102
RTVSPost2010PropOp38
 70
     1
102
RTVSPost2010Prop39
140
1.0
102
RTVSPost2010PropOp39
 70
     1
102
RTVSPost2010Prop40
 90
        0
102
RTVSPost2010PropOp40
 70
     1
102
RTVSPost2010Prop41ColorIndex
 90
       18
102
RTVSPost2010Prop41ColorRGB
 90
        0
102
RTVSPost2010PropOp41
 70
     1
102
RTVSPost2010Prop42
 90
       50
102
RTVSPost2010PropOp42
 70
     1
102
RTVSPost2010Prop43
 90
        3
102
RTVSPost2010PropOp43
 70
     1
102
RTVSPost2010Prop44ColorIndex
 90
        5
102
RTVSPost2010Prop44ColorRGB
 90
      255
102
RTVSPost2010PropOp44
 70
     1
102
RTVSPost2010Prop45
280
     0
102
RTVSPost2010PropOp45
 70
     1
102
RTVSPost2010Prop46
 90
       50
102
RTVSPost2010PropOp46
 70
     1
102
RTVSPost2010Prop47
 90
       50
102
RTVSPost2010PropOp47
 70
     1
102
RTVSPost2010Prop48
 90
       50
102
RTVSPost2010PropOp48
 70
     1
102
RTVSPost2010Prop49
280
     0
102
RTVSPost2010PropOp49
 70
     1
102
RTVSPost2010Prop50
 90
       50
102
RTVSPost2010PropOp50
 70
     1
102
RTVSPost2010Prop51ColorIndex
 90
      256
102
RTVSPost2010Prop51ColorRGB
 90
-16777216
102
RTVSPost2010PropOp51
 70
     0
102
RTVSPost2010Prop52
140
1.0
102
RTVSPost2010PropOp52
 70
     0
102
RTVSPost2010Prop53
 90
        2
102
RTVSPost2010PropOp53
 70
     1
102
RTVSPost2010Prop54
  1
strokes_ogs.tif
102
RTVSPost2010PropOp54
 70
     1
102
RTVSPost2010Prop55
280
     0
102
RTVSPost2010PropOp55
 70
     1
102
RTVSPost2010Prop56
140
1.0
102
RTVSPost2010PropOp56
 70
     1
102
RTVSPost2010Prop57
140
1.0
102
RTVSPost2010PropOp57
 70
     1
  0
XRECORD
  5
418
102
{ACAD_REACTORS
330
417
102
}
330
417
100
AcDbXrecord
280
     1
102
RTVSPropertyOp0
 70
     1
102
RTVSPropertyOp1
 70
     1
102
RTVSPropertyOp2
 70
     1
102
RTVSPropertyOp3
 70
     1
102
RTVSPropertyOp4
 70
     1
102
RTVSPropertyOp5
 70
     1
102
RTVSPropertyOp6
 70
     1
102
RTVSPropertyOp7
 70
     1
102
RTVSPropertyOp8
 70
     1
102
RTVSPropertyOp9
 70
     1
102
RTVSPropertyOp10
 70
     1
102
RTVSPropertyOp11
 70
     1
102
RTVSPropertyOp12
 70
     1
102
RTVSPropertyOp13
 70
     1
102
RTVSPropertyOp14
 70
     1
102
RTVSPropertyOp15
 70
     1
102
RTVSPropertyOp16
 70
     1
102
RTVSPropertyOp17
 70
     1
102
RTVSPropertyOp18
 70
     1
102
RTVSPropertyOp19
 70
     1
102
RTVSPropertyOp20
 70
     1
102
RTVSPropertyOp21
 70
     1
102
RTVSPropertyOp22
 70
     1
102
RTVSPropertyOp23
 70
     1
102
RTVSPropertyOp24
 70
     1
102
RTVSPropertyOp25
 70
     1
102
RTVSPropertyOp26
 70
     1
102
RTVSPropertyOp27
 70
     1
102
RTVSPropertyOp28
 70
     1
102
RTVSPropertyOp29
 70
     1
102
RTVSPropertyOp30
 70
     1
102
RTVSPropertyOp31
 70
     1
102
RTVSPropertyOp32
 70
     1
102
RTVSPropertyOp33
 70
     1
102
RTVSPropertyOp34
 70
     1
102
RTVSPropertyOp35
 70
     1
102
RTVSPropertyOp36
 70
     1
102
RTVSPropertyOp37
 70
     1
102
RTVSPropertyOp38
 70
     1
102
RTVSPropertyOp39
 70
     1
102
RTVSPropertyOp40
 70
     1
102
RTVSPropertyOp41
 70
     1
102
RTVSPropertyOp42
 70
     1
102
RTVSPropertyOp43
 70
     1
102
RTVSPropertyOp44
 70
     1
102
RTVSPropertyOp45
 70
     1
102
RTVSPropertyOp46
 70
     1
102
RTVSPropertyOp47
 70
     1
102
RTVSPropertyOp48
 70
     1
102
RTVSPropertyOp49
 70
     1
102
RTVSPropertyOp50
 70
     1
102
RTVSPropertyOp51
 70
     0
102
RTVSPropertyOp52
 70
     0
102
RTVSPropertyOp53
 70
     1
102
RTVSPropertyOp54
 70
     1
102
RTVSPropertyOp55
 70
     1
102
RTVSPropertyOp56
 70
     1
102
RTVSPropertyOp57
 70
     1
102
RTVSPost2010Prop28
280
     0
102
RTVSPost2010PropOp28
 70
     1
102
RTVSPost2010Prop29
280
     1
102
RTVSPost2010PropOp29
 70
     1
102
RTVSPost2010Prop30
280
     1
102
RTVSPost2010PropOp30
 70
     1
102
RTVSPost2010Prop31
280
     0
102
RTVSPost2010PropOp31
 70
     1
102
RTVSPost2010Prop32
280
     0
102
RTVSPost2010PropOp32
 70
     1
102
RTVSPost2010Prop33
280
     0
102
RTVSPost2010PropOp33
 70
     1
102
RTVSPost2010Prop34
280
     0
102
RTVSPost2010PropOp34
 70
     1
102
RTVSPost2010Prop35
280
     0
102
RTVSPost2010PropOp35
 70
     1
102
RTVSPost2010Prop36
280
     0
102
RTVSPost2010PropOp36
 70
     1
102
RTVSPost2010Prop37
 90
       50
102
RTVSPost2010PropOp37
 70
     1
102
RTVSPost2010Prop38
140
0.0
102
RTVSPost2010PropOp38
 70
     1
102
RTVSPost2010Prop39
140
1.0
102
RTVSPost2010PropOp39
 70
     1
102
RTVSPost2010Prop40
 90
        0
102
RTVSPost2010PropOp40
 70
     1
102
RTVSPost2010Prop41ColorIndex
 90
       18
102
RTVSPost2010Prop41ColorRGB
 90
        0
102
RTVSPost2010PropOp41
 70
     1
102
RTVSPost2010Prop42
 90
       50
102
RTVSPost2010PropOp42
 70
     1
102
RTVSPost2010Prop43
 90
        3
102
RTVSPost2010PropOp43
 70
     1
102
RTVSPost2010Prop44ColorIndex
 90
        5
102
RTVSPost2010Prop44ColorRGB
 90
      255
102
RTVSPost2010PropOp44
 70
     1
102
RTVSPost2010Prop45
280
     0
102
RTVSPost2010PropOp45
 70
     1
102
RTVSPost2010Prop46
 90
       50
102
RTVSPost2010PropOp46
 70
     1
102
RTVSPost2010Prop47
 90
       50
102
RTVSPost2010PropOp47
 70
     1
102
RTVSPost2010Prop48
 90
       50
102
RTVSPost2010PropOp48
 70
     1
102
RTVSPost2010Prop49
280
     0
102
RTVSPost2010PropOp49
 70
     1
102
RTVSPost2010Prop50
 90
       50
102
RTVSPost2010PropOp50
 70
     1
102
RTVSPost2010Prop51ColorIndex
 90
      256
102
RTVSPost2010Prop51ColorRGB
 90
-16777216
102
RTVSPost2010PropOp51
 70
     0
102
RTVSPost2010Prop52
140
1.0
102
RTVSPost2010PropOp52
 70
     0
102
RTVSPost2010Prop53
 90
        2
102
RTVSPost2010PropOp53
 70
     1
102
RTVSPost2010Prop54
  1
strokes_ogs.tif
102
RTVSPost2010PropOp54
 70
     1
102
RTVSPost2010Prop55
280
     0
102
RTVSPost2010PropOp55
 70
     1
102
RTVSPost2010Prop56
140
1.0
102
RTVSPost2010PropOp56
 70
     1
102
RTVSPost2010Prop57
140
1.0
102
RTVSPost2010PropOp57
 70
     1
  0
XRECORD
  5
41E
102
{ACAD_REACTORS
330
41D
102
}
330
41D
100
AcDbXrecord
280
     1
102
RTVSPropertyOp0
 70
     1
102
RTVSPropertyOp1
 70
     1
102
RTVSPropertyOp2
 70
     1
102
RTVSPropertyOp3
 70
     1
102
RTVSPropertyOp4
 70
     1
102
RTVSPropertyOp5
 70
     1
102
RTVSPropertyOp6
 70
     1
102
RTVSPropertyOp7
 70
     1
102
RTVSPropertyOp8
 70
     1
102
RTVSPropertyOp9
 70
     1
102
RTVSPropertyOp10
 70
     1
102
RTVSPropertyOp11
 70
     1
102
RTVSPropertyOp12
 70
     1
102
RTVSPropertyOp13
 70
     1
102
RTVSPropertyOp14
 70
     1
102
RTVSPropertyOp15
 70
     1
102
RTVSPropertyOp16
 70
     1
102
RTVSPropertyOp17
 70
     1
102
RTVSPropertyOp18
 70
     1
102
RTVSPropertyOp19
 70
     1
102
RTVSPropertyOp20
 70
     1
102
RTVSPropertyOp21
 70
     1
102
RTVSPropertyOp22
 70
     1
102
RTVSPropertyOp23
 70
     1
102
RTVSPropertyOp24
 70
     1
102
RTVSPropertyOp25
 70
     1
102
RTVSPropertyOp26
 70
     1
102
RTVSPropertyOp27
 70
     1
102
RTVSPropertyOp28
 70
     1
102
RTVSPropertyOp29
 70
     1
102
RTVSPropertyOp30
 70
     1
102
RTVSPropertyOp31
 70
     1
102
RTVSPropertyOp32
 70
     1
102
RTVSPropertyOp33
 70
     1
102
RTVSPropertyOp34
 70
     1
102
RTVSPropertyOp35
 70
     1
102
RTVSPropertyOp36
 70
     1
102
RTVSPropertyOp37
 70
     1
102
RTVSPropertyOp38
 70
     1
102
RTVSPropertyOp39
 70
     1
102
RTVSPropertyOp40
 70
     1
102
RTVSPropertyOp41
 70
     1
102
RTVSPropertyOp42
 70
     1
102
RTVSPropertyOp43
 70
     1
102
RTVSPropertyOp44
 70
     1
102
RTVSPropertyOp45
 70
     1
102
RTVSPropertyOp46
 70
     1
102
RTVSPropertyOp47
 70
     1
102
RTVSPropertyOp48
 70
     1
102
RTVSPropertyOp49
 70
     1
102
RTVSPropertyOp50
 70
     1
102
RTVSPropertyOp51
 70
     0
102
RTVSPropertyOp52
 70
     0
102
RTVSPropertyOp53
 70
     1
102
RTVSPropertyOp54
 70
     1
102
RTVSPropertyOp55
 70
     1
102
RTVSPropertyOp56
 70
     1
102
RTVSPropertyOp57
 70
     1
102
RTVSPost2010Prop28
280
     0
102
RTVSPost2010PropOp28
 70
     1
102
RTVSPost2010Prop29
280
     1
102
RTVSPost2010PropOp29
 70
     1
102
RTVSPost2010Prop30
280
     1
102
RTVSPost2010PropOp30
 70
     1
102
RTVSPost2010Prop31
280
     0
102
RTVSPost2010PropOp31
 70
     1
102
RTVSPost2010Prop32
280
     0
102
RTVSPost2010PropOp32
 70
     1
102
RTVSPost2010Prop33
280
     0
102
RTVSPost2010PropOp33
 70
     1
102
RTVSPost2010Prop34
280
     0
102
RTVSPost2010PropOp34
 70
     1
102
RTVSPost2010Prop35
280
     0
102
RTVSPost2010PropOp35
 70
     1
102
RTVSPost2010Prop36
280
     0
102
RTVSPost2010PropOp36
 70
     1
102
RTVSPost2010Prop37
 90
       50
102
RTVSPost2010PropOp37
 70
     1
102
RTVSPost2010Prop38
140
0.0
102
RTVSPost2010PropOp38
 70
     1
102
RTVSPost2010Prop39
140
1.0
102
RTVSPost2010PropOp39
 70
     1
102
RTVSPost2010Prop40
 90
        0
102
RTVSPost2010PropOp40
 70
     1
102
RTVSPost2010Prop41ColorIndex
 90
       18
102
RTVSPost2010Prop41ColorRGB
 90
        0
102
RTVSPost2010PropOp41
 70
     1
102
RTVSPost2010Prop42
 90
       50
102
RTVSPost2010PropOp42
 70
     1
102
RTVSPost2010Prop43
 90
        3
102
RTVSPost2010PropOp43
 70
     1
102
RTVSPost2010Prop44ColorIndex
 90
        5
102
RTVSPost2010Prop44ColorRGB
 90
      255
102
RTVSPost2010PropOp44
 70
     1
102
RTVSPost2010Prop45
280
     0
102
RTVSPost2010PropOp45
 70
     1
102
RTVSPost2010Prop46
 90
       50
102
RTVSPost2010PropOp46
 70
     1
102
RTVSPost2010Prop47
 90
       50
102
RTVSPost2010PropOp47
 70
     1
102
RTVSPost2010Prop48
 90
       50
102
RTVSPost2010PropOp48
 70
     1
102
RTVSPost2010Prop49
280
     0
102
RTVSPost2010PropOp49
 70
     1
102
RTVSPost2010Prop50
 90
       50
102
RTVSPost2010PropOp50
 70
     1
102
RTVSPost2010Prop51ColorIndex
 90
      256
102
RTVSPost2010Prop51ColorRGB
 90
-16777216
102
RTVSPost2010PropOp51
 70
     0
102
RTVSPost2010Prop52
140
1.0
102
RTVSPost2010PropOp52
 70
     0
102
RTVSPost2010Prop53
 90
        2
102
RTVSPost2010PropOp53
 70
     1
102
RTVSPost2010Prop54
  1
strokes_ogs.tif
102
RTVSPost2010PropOp54
 70
     1
102
RTVSPost2010Prop55
280
     0
102
RTVSPost2010PropOp55
 70
     1
102
RTVSPost2010Prop56
140
1.0
102
RTVSPost2010PropOp56
 70
     1
102
RTVSPost2010Prop57
140
1.0
102
RTVSPost2010PropOp57
 70
     1
  0
XRECORD
  5
432
102
{ACAD_REACTORS
330
431
102
}
330
431
100
AcDbXrecord
280
     1
102
RTVSPropertyOp0
 70
     0
102
RTVSPropertyOp1
 70
     0
102
RTVSPropertyOp2
 70
     0
102
RTVSPropertyOp3
 70
     0
102
RTVSPropertyOp4
 70
     0
102
RTVSPropertyOp5
 70
     0
102
RTVSPropertyOp6
 70
     0
102
RTVSPropertyOp7
 70
     0
102
RTVSPropertyOp8
 70
     0
102
RTVSPropertyOp9
 70
     0
102
RTVSPropertyOp10
 70
     0
102
RTVSPropertyOp11
 70
     0
102
RTVSPropertyOp12
 70
     0
102
RTVSPropertyOp13
 70
     0
102
RTVSPropertyOp14
 70
     2
102
RTVSPropertyOp15
 70
     0
102
RTVSPropertyOp16
 70
     0
102
RTVSPropertyOp17
 70
     0
102
RTVSPropertyOp18
 70
     0
102
RTVSPropertyOp19
 70
     0
102
RTVSPropertyOp20
 70
     0
102
RTVSPropertyOp21
 70
     0
102
RTVSPropertyOp22
 70
     0
102
RTVSPropertyOp23
 70
     0
102
RTVSPropertyOp24
 70
     0
102
RTVSPropertyOp25
 70
     0
102
RTVSPropertyOp26
 70
     0
102
RTVSPropertyOp27
 70
     0
102
RTVSPropertyOp28
 70
     0
102
RTVSPropertyOp29
 70
     0
102
RTVSPropertyOp30
 70
     0
102
RTVSPropertyOp31
 70
     0
102
RTVSPropertyOp32
 70
     0
102
RTVSPropertyOp33
 70
     0
102
RTVSPropertyOp34
 70
     0
102
RTVSPropertyOp35
 70
     0
102
RTVSPropertyOp36
 70
     0
102
RTVSPropertyOp37
 70
     0
102
RTVSPropertyOp38
 70
     0
102
RTVSPropertyOp39
 70
     0
102
RTVSPropertyOp40
 70
     0
102
RTVSPropertyOp41
 70
     0
102
RTVSPropertyOp42
 70
     0
102
RTVSPropertyOp43
 70
     0
102
RTVSPropertyOp44
 70
     0
102
RTVSPropertyOp45
 70
     0
102
RTVSPropertyOp46
 70
     0
102
RTVSPropertyOp47
 70
     0
102
RTVSPropertyOp48
 70
     0
102
RTVSPropertyOp49
 70
     0
102
RTVSPropertyOp50
 70
     0
102
RTVSPropertyOp51
 70
     0
102
RTVSPropertyOp52
 70
     0
102
RTVSPropertyOp53
 70
     0
102
RTVSPropertyOp54
 70
     0
102
RTVSPropertyOp55
 70
     0
102
RTVSPropertyOp56
 70
     0
102
RTVSPropertyOp57
 70
     0
102
RTVSPost2010Prop28
280
     0
102
RTVSPost2010PropOp28
 70
     0
102
RTVSPost2010Prop29
280
     1
102
RTVSPost2010PropOp29
 70
     0
102
RTVSPost2010Prop30
280
     1
102
RTVSPost2010PropOp30
 70
     0
102
RTVSPost2010Prop31
280
     0
102
RTVSPost2010PropOp31
 70
     0
102
RTVSPost2010Prop32
280
     0
102
RTVSPost2010PropOp32
 70
     0
102
RTVSPost2010Prop33
280
     0
102
RTVSPost2010PropOp33
 70
     0
102
RTVSPost2010Prop34
280
     0
102
RTVSPost2010PropOp34
 70
     0
102
RTVSPost2010Prop35
280
     0
102
RTVSPost2010PropOp35
 70
     0
102
RTVSPost2010Prop36
280
     0
102
RTVSPost2010PropOp36
 70
     0
102
RTVSPost2010Prop37
 90
       50
102
RTVSPost2010PropOp37
 70
     0
102
RTVSPost2010Prop38
140
0.0
102
RTVSPost2010PropOp38
 70
     0
102
RTVSPost2010Prop39
140
1.0
102
RTVSPost2010PropOp39
 70
     0
102
RTVSPost2010Prop40
 90
        0
102
RTVSPost2010PropOp40
 70
     0
102
RTVSPost2010Prop41ColorIndex
 90
       18
102
RTVSPost2010Prop41ColorRGB
 90
        0
102
RTVSPost2010PropOp41
 70
     0
102
RTVSPost2010Prop42
 90
       50
102
RTVSPost2010PropOp42
 70
     0
102
RTVSPost2010Prop43
 90
        3
102
RTVSPost2010PropOp43
 70
     0
102
RTVSPost2010Prop44ColorIndex
 90
        5
102
RTVSPost2010Prop44ColorRGB
 90
      255
102
RTVSPost2010PropOp44
 70
     0
102
RTVSPost2010Prop45
280
     0
102
RTVSPost2010PropOp45
 70
     0
102
RTVSPost2010Prop46
 90
       50
102
RTVSPost2010PropOp46
 70
     0
102
RTVSPost2010Prop47
 90
       50
102
RTVSPost2010PropOp47
 70
     0
102
RTVSPost2010Prop48
 90
       50
102
RTVSPost2010PropOp48
 70
     0
102
RTVSPost2010Prop49
280
     0
102
RTVSPost2010PropOp49
 70
     0
102
RTVSPost2010Prop50
 90
       50
102
RTVSPost2010PropOp50
 70
     0
102
RTVSPost2010Prop51ColorIndex
 90
      256
102
RTVSPost2010Prop51ColorRGB
 90
-16777216
102
RTVSPost2010PropOp51
 70
     0
102
RTVSPost2010Prop52
140
1.0
102
RTVSPost2010PropOp52
 70
     0
102
RTVSPost2010Prop53
 90
        2
102
RTVSPost2010PropOp53
 70
     0
102
RTVSPost2010Prop54
  1
strokes_ogs.tif
102
RTVSPost2010PropOp54
 70
     0
102
RTVSPost2010Prop55
280
     0
102
RTVSPost2010PropOp55
 70
     0
102
RTVSPost2010Prop56
140
1.0
102
RTVSPost2010PropOp56
 70
     0
102
RTVSPost2010Prop57
140
1.0
102
RTVSPost2010PropOp57
 70
     0
  0
XRECORD
  5
42C
102
{ACAD_REACTORS
330
42B
102
}
330
42B
100
AcDbXrecord
280
     1
102
RTVSPropertyOp0
 70
     1
102
RTVSPropertyOp1
 70
     1
102
RTVSPropertyOp2
 70
     1
102
RTVSPropertyOp3
 70
     1
102
RTVSPropertyOp4
 70
     1
102
RTVSPropertyOp5
 70
     1
102
RTVSPropertyOp6
 70
     1
102
RTVSPropertyOp7
 70
     1
102
RTVSPropertyOp8
 70
     1
102
RTVSPropertyOp9
 70
     1
102
RTVSPropertyOp10
 70
     1
102
RTVSPropertyOp11
 70
     1
102
RTVSPropertyOp12
 70
     1
102
RTVSPropertyOp13
 70
     1
102
RTVSPropertyOp14
 70
     1
102
RTVSPropertyOp15
 70
     1
102
RTVSPropertyOp16
 70
     1
102
RTVSPropertyOp17
 70
     1
102
RTVSPropertyOp18
 70
     1
102
RTVSPropertyOp19
 70
     1
102
RTVSPropertyOp20
 70
     1
102
RTVSPropertyOp21
 70
     1
102
RTVSPropertyOp22
 70
     1
102
RTVSPropertyOp23
 70
     1
102
RTVSPropertyOp24
 70
     1
102
RTVSPropertyOp25
 70
     1
102
RTVSPropertyOp26
 70
     1
102
RTVSPropertyOp27
 70
     1
102
RTVSPropertyOp28
 70
     1
102
RTVSPropertyOp29
 70
     1
102
RTVSPropertyOp30
 70
     1
102
RTVSPropertyOp31
 70
     1
102
RTVSPropertyOp32
 70
     1
102
RTVSPropertyOp33
 70
     1
102
RTVSPropertyOp34
 70
     1
102
RTVSPropertyOp35
 70
     1
102
RTVSPropertyOp36
 70
     1
102
RTVSPropertyOp37
 70
     1
102
RTVSPropertyOp38
 70
     1
102
RTVSPropertyOp39
 70
     1
102
RTVSPropertyOp40
 70
     1
102
RTVSPropertyOp41
 70
     1
102
RTVSPropertyOp42
 70
     1
102
RTVSPropertyOp43
 70
     1
102
RTVSPropertyOp44
 70
     1
102
RTVSPropertyOp45
 70
     1
102
RTVSPropertyOp46
 70
     1
102
RTVSPropertyOp47
 70
     1
102
RTVSPropertyOp48
 70
     1
102
RTVSPropertyOp49
 70
     1
102
RTVSPropertyOp50
 70
     1
102
RTVSPropertyOp51
 70
     0
102
RTVSPropertyOp52
 70
     0
102
RTVSPropertyOp53
 70
     1
102
RTVSPropertyOp54
 70
     1
102
RTVSPropertyOp55
 70
     1
102
RTVSPropertyOp56
 70
     1
102
RTVSPropertyOp57
 70
     1
102
RTVSPost2010Prop28
280
     0
102
RTVSPost2010PropOp28
 70
     1
102
RTVSPost2010Prop29
280
     1
102
RTVSPost2010PropOp29
 70
     1
102
RTVSPost2010Prop30
280
     1
102
RTVSPost2010PropOp30
 70
     1
102
RTVSPost2010Prop31
280
     0
102
RTVSPost2010PropOp31
 70
     1
102
RTVSPost2010Prop32
280
     0
102
RTVSPost2010PropOp32
 70
     1
102
RTVSPost2010Prop33
280
     0
102
RTVSPost2010PropOp33
 70
     1
102
RTVSPost2010Prop34
280
     0
102
RTVSPost2010PropOp34
 70
     1
102
RTVSPost2010Prop35
280
     0
102
RTVSPost2010PropOp35
 70
     1
102
RTVSPost2010Prop36
280
     0
102
RTVSPost2010PropOp36
 70
     1
102
RTVSPost2010Prop37
 90
       50
102
RTVSPost2010PropOp37
 70
     1
102
RTVSPost2010Prop38
140
0.0
102
RTVSPost2010PropOp38
 70
     1
102
RTVSPost2010Prop39
140
1.0
102
RTVSPost2010PropOp39
 70
     1
102
RTVSPost2010Prop40
 90
        0
102
RTVSPost2010PropOp40
 70
     1
102
RTVSPost2010Prop41ColorIndex
 90
       18
102
RTVSPost2010Prop41ColorRGB
 90
        0
102
RTVSPost2010PropOp41
 70
     1
102
RTVSPost2010Prop42
 90
       50
102
RTVSPost2010PropOp42
 70
     1
102
RTVSPost2010Prop43
 90
        3
102
RTVSPost2010PropOp43
 70
     1
102
RTVSPost2010Prop44ColorIndex
 90
        5
102
RTVSPost2010Prop44ColorRGB
 90
      255
102
RTVSPost2010PropOp44
 70
     1
102
RTVSPost2010Prop45
280
     0
102
RTVSPost2010PropOp45
 70
     1
102
RTVSPost2010Prop46
 90
       50
102
RTVSPost2010PropOp46
 70
     1
102
RTVSPost2010Prop47
 90
       50
102
RTVSPost2010PropOp47
 70
     1
102
RTVSPost2010Prop48
 90
       50
102
RTVSPost2010PropOp48
 70
     1
102
RTVSPost2010Prop49
280
     0
102
RTVSPost2010PropOp49
 70
     1
102
RTVSPost2010Prop50
 90
       50
102
RTVSPost2010PropOp50
 70
     1
102
RTVSPost2010Prop51ColorIndex
 90
      256
102
RTVSPost2010Prop51ColorRGB
 90
-16777216
102
RTVSPost2010PropOp51
 70
     0
102
RTVSPost2010Prop52
140
1.0
102
RTVSPost2010PropOp52
 70
     0
102
RTVSPost2010Prop53
 90
        2
102
RTVSPost2010PropOp53
 70
     1
102
RTVSPost2010Prop54
  1
strokes_ogs.tif
102
RTVSPost2010PropOp54
 70
     1
102
RTVSPost2010Prop55
280
     0
102
RTVSPost2010PropOp55
 70
     1
102
RTVSPost2010Prop56
140
1.0
102
RTVSPost2010PropOp56
 70
     1
102
RTVSPost2010Prop57
140
1.0
102
RTVSPost2010PropOp57
 70
     1
  0
XRECORD
  5
434
102
{ACAD_REACTORS
330
433
102
}
330
433
100
AcDbXrecord
280
     1
102
RTVSPropertyOp0
 70
     0
102
RTVSPropertyOp1
 70
     0
102
RTVSPropertyOp2
 70
     0
102
RTVSPropertyOp3
 70
     0
102
RTVSPropertyOp4
 70
     0
102
RTVSPropertyOp5
 70
     0
102
RTVSPropertyOp6
 70
     0
102
RTVSPropertyOp7
 70
     0
102
RTVSPropertyOp8
 70
     0
102
RTVSPropertyOp9
 70
     0
102
RTVSPropertyOp10
 70
     0
102
RTVSPropertyOp11
 70
     0
102
RTVSPropertyOp12
 70
     0
102
RTVSPropertyOp13
 70
     0
102
RTVSPropertyOp14
 70
     2
102
RTVSPropertyOp15
 70
     0
102
RTVSPropertyOp16
 70
     0
102
RTVSPropertyOp17
 70
     0
102
RTVSPropertyOp18
 70
     0
102
RTVSPropertyOp19
 70
     0
102
RTVSPropertyOp20
 70
     0
102
RTVSPropertyOp21
 70
     0
102
RTVSPropertyOp22
 70
     0
102
RTVSPropertyOp23
 70
     0
102
RTVSPropertyOp24
 70
     0
102
RTVSPropertyOp25
 70
     0
102
RTVSPropertyOp26
 70
     0
102
RTVSPropertyOp27
 70
     0
102
RTVSPropertyOp28
 70
     0
102
RTVSPropertyOp29
 70
     0
102
RTVSPropertyOp30
 70
     0
102
RTVSPropertyOp31
 70
     0
102
RTVSPropertyOp32
 70
     0
102
RTVSPropertyOp33
 70
     0
102
RTVSPropertyOp34
 70
     0
102
RTVSPropertyOp35
 70
     0
102
RTVSPropertyOp36
 70
     0
102
RTVSPropertyOp37
 70
     0
102
RTVSPropertyOp38
 70
     0
102
RTVSPropertyOp39
 70
     0
102
RTVSPropertyOp40
 70
     0
102
RTVSPropertyOp41
 70
     0
102
RTVSPropertyOp42
 70
     0
102
RTVSPropertyOp43
 70
     0
102
RTVSPropertyOp44
 70
     0
102
RTVSPropertyOp45
 70
     0
102
RTVSPropertyOp46
 70
     0
102
RTVSPropertyOp47
 70
     0
102
RTVSPropertyOp48
 70
     0
102
RTVSPropertyOp49
 70
     0
102
RTVSPropertyOp50
 70
     0
102
RTVSPropertyOp51
 70
     0
102
RTVSPropertyOp52
 70
     0
102
RTVSPropertyOp53
 70
     0
102
RTVSPropertyOp54
 70
     0
102
RTVSPropertyOp55
 70
     0
102
RTVSPropertyOp56
 70
     0
102
RTVSPropertyOp57
 70
     0
102
RTVSPost2010Prop28
280
     0
102
RTVSPost2010PropOp28
 70
     0
102
RTVSPost2010Prop29
280
     1
102
RTVSPost2010PropOp29
 70
     0
102
RTVSPost2010Prop30
280
     1
102
RTVSPost2010PropOp30
 70
     0
102
RTVSPost2010Prop31
280
     0
102
RTVSPost2010PropOp31
 70
     0
102
RTVSPost2010Prop32
280
     0
102
RTVSPost2010PropOp32
 70
     0
102
RTVSPost2010Prop33
280
     0
102
RTVSPost2010PropOp33
 70
     0
102
RTVSPost2010Prop34
280
     0
102
RTVSPost2010PropOp34
 70
     0
102
RTVSPost2010Prop35
280
     0
102
RTVSPost2010PropOp35
 70
     0
102
RTVSPost2010Prop36
280
     0
102
RTVSPost2010PropOp36
 70
     0
102
RTVSPost2010Prop37
 90
       50
102
RTVSPost2010PropOp37
 70
     0
102
RTVSPost2010Prop38
140
0.0
102
RTVSPost2010PropOp38
 70
     0
102
RTVSPost2010Prop39
140
1.0
102
RTVSPost2010PropOp39
 70
     0
102
RTVSPost2010Prop40
 90
        0
102
RTVSPost2010PropOp40
 70
     0
102
RTVSPost2010Prop41ColorIndex
 90
       18
102
RTVSPost2010Prop41ColorRGB
 90
        0
102
RTVSPost2010PropOp41
 70
     0
102
RTVSPost2010Prop42
 90
       50
102
RTVSPost2010PropOp42
 70
     0
102
RTVSPost2010Prop43
 90
        3
102
RTVSPost2010PropOp43
 70
     0
102
RTVSPost2010Prop44ColorIndex
 90
        5
102
RTVSPost2010Prop44ColorRGB
 90
      255
102
RTVSPost2010PropOp44
 70
     0
102
RTVSPost2010Prop45
280
     0
102
RTVSPost2010PropOp45
 70
     0
102
RTVSPost2010Prop46
 90
       50
102
RTVSPost2010PropOp46
 70
     0
102
RTVSPost2010Prop47
 90
       50
102
RTVSPost2010PropOp47
 70
     0
102
RTVSPost2010Prop48
 90
       50
102
RTVSPost2010PropOp48
 70
     0
102
RTVSPost2010Prop49
280
     0
102
RTVSPost2010PropOp49
 70
     0
102
RTVSPost2010Prop50
 90
       50
102
RTVSPost2010PropOp50
 70
     0
102
RTVSPost2010Prop51ColorIndex
 90
      256
102
RTVSPost2010Prop51ColorRGB
 90
-16777216
102
RTVSPost2010PropOp51
 70
     0
102
RTVSPost2010Prop52
140
1.0
102
RTVSPost2010PropOp52
 70
     0
102
RTVSPost2010Prop53
 90
        2
102
RTVSPost2010PropOp53
 70
     0
102
RTVSPost2010Prop54
  1
strokes_ogs.tif
102
RTVSPost2010PropOp54
 70
     0
102
RTVSPost2010Prop55
280
     0
102
RTVSPost2010PropOp55
 70
     0
102
RTVSPost2010Prop56
140
1.0
102
RTVSPost2010PropOp56
 70
     0
102
RTVSPost2010Prop57
140
1.0
102
RTVSPost2010PropOp57
 70
     0
  0
XRECORD
  5
422
102
{ACAD_REACTORS
330
421
102
}
330
421
100
AcDbXrecord
280
     1
102
RTVSPropertyOp0
 70
     1
102
RTVSPropertyOp1
 70
     1
102
RTVSPropertyOp2
 70
     1
102
RTVSPropertyOp3
 70
     1
102
RTVSPropertyOp4
 70
     1
102
RTVSPropertyOp5
 70
     1
102
RTVSPropertyOp6
 70
     1
102
RTVSPropertyOp7
 70
     1
102
RTVSPropertyOp8
 70
     1
102
RTVSPropertyOp9
 70
     1
102
RTVSPropertyOp10
 70
     1
102
RTVSPropertyOp11
 70
     1
102
RTVSPropertyOp12
 70
     1
102
RTVSPropertyOp13
 70
     1
102
RTVSPropertyOp14
 70
     1
102
RTVSPropertyOp15
 70
     1
102
RTVSPropertyOp16
 70
     1
102
RTVSPropertyOp17
 70
     1
102
RTVSPropertyOp18
 70
     1
102
RTVSPropertyOp19
 70
     1
102
RTVSPropertyOp20
 70
     1
102
RTVSPropertyOp21
 70
     1
102
RTVSPropertyOp22
 70
     1
102
RTVSPropertyOp23
 70
     1
102
RTVSPropertyOp24
 70
     1
102
RTVSPropertyOp25
 70
     1
102
RTVSPropertyOp26
 70
     1
102
RTVSPropertyOp27
 70
     1
102
RTVSPropertyOp28
 70
     1
102
RTVSPropertyOp29
 70
     1
102
RTVSPropertyOp30
 70
     1
102
RTVSPropertyOp31
 70
     1
102
RTVSPropertyOp32
 70
     1
102
RTVSPropertyOp33
 70
     1
102
RTVSPropertyOp34
 70
     1
102
RTVSPropertyOp35
 70
     1
102
RTVSPropertyOp36
 70
     1
102
RTVSPropertyOp37
 70
     1
102
RTVSPropertyOp38
 70
     1
102
RTVSPropertyOp39
 70
     1
102
RTVSPropertyOp40
 70
     1
102
RTVSPropertyOp41
 70
     1
102
RTVSPropertyOp42
 70
     1
102
RTVSPropertyOp43
 70
     1
102
RTVSPropertyOp44
 70
     1
102
RTVSPropertyOp45
 70
     1
102
RTVSPropertyOp46
 70
     1
102
RTVSPropertyOp47
 70
     1
102
RTVSPropertyOp48
 70
     1
102
RTVSPropertyOp49
 70
     1
102
RTVSPropertyOp50
 70
     1
102
RTVSPropertyOp51
 70
     0
102
RTVSPropertyOp52
 70
     0
102
RTVSPropertyOp53
 70
     1
102
RTVSPropertyOp54
 70
     1
102
RTVSPropertyOp55
 70
     1
102
RTVSPropertyOp56
 70
     1
102
RTVSPropertyOp57
 70
     1
102
RTVSPost2010Prop28
280
     0
102
RTVSPost2010PropOp28
 70
     1
102
RTVSPost2010Prop29
280
     1
102
RTVSPost2010PropOp29
 70
     1
102
RTVSPost2010Prop30
280
     1
102
RTVSPost2010PropOp30
 70
     1
102
RTVSPost2010Prop31
280
     0
102
RTVSPost2010PropOp31
 70
     1
102
RTVSPost2010Prop32
280
     0
102
RTVSPost2010PropOp32
 70
     1
102
RTVSPost2010Prop33
280
     0
102
RTVSPost2010PropOp33
 70
     1
102
RTVSPost2010Prop34
280
     0
102
RTVSPost2010PropOp34
 70
     1
102
RTVSPost2010Prop35
280
     0
102
RTVSPost2010PropOp35
 70
     1
102
RTVSPost2010Prop36
280
     0
102
RTVSPost2010PropOp36
 70
     1
102
RTVSPost2010Prop37
 90
       50
102
RTVSPost2010PropOp37
 70
     1
102
RTVSPost2010Prop38
140
0.0
102
RTVSPost2010PropOp38
 70
     1
102
RTVSPost2010Prop39
140
1.0
102
RTVSPost2010PropOp39
 70
     1
102
RTVSPost2010Prop40
 90
        0
102
RTVSPost2010PropOp40
 70
     1
102
RTVSPost2010Prop41ColorIndex
 90
       18
102
RTVSPost2010Prop41ColorRGB
 90
        0
102
RTVSPost2010PropOp41
 70
     1
102
RTVSPost2010Prop42
 90
       50
102
RTVSPost2010PropOp42
 70
     1
102
RTVSPost2010Prop43
 90
        3
102
RTVSPost2010PropOp43
 70
     1
102
RTVSPost2010Prop44ColorIndex
 90
        5
102
RTVSPost2010Prop44ColorRGB
 90
      255
102
RTVSPost2010PropOp44
 70
     1
102
RTVSPost2010Prop45
280
     0
102
RTVSPost2010PropOp45
 70
     1
102
RTVSPost2010Prop46
 90
       50
102
RTVSPost2010PropOp46
 70
     1
102
RTVSPost2010Prop47
 90
       50
102
RTVSPost2010PropOp47
 70
     1
102
RTVSPost2010Prop48
 90
       50
102
RTVSPost2010PropOp48
 70
     1
102
RTVSPost2010Prop49
280
     0
102
RTVSPost2010PropOp49
 70
     1
102
RTVSPost2010Prop50
 90
       50
102
RTVSPost2010PropOp50
 70
     1
102
RTVSPost2010Prop51ColorIndex
 90
      256
102
RTVSPost2010Prop51ColorRGB
 90
-16777216
102
RTVSPost2010PropOp51
 70
     0
102
RTVSPost2010Prop52
140
1.0
102
RTVSPost2010PropOp52
 70
     0
102
RTVSPost2010Prop53
 90
        2
102
RTVSPost2010PropOp53
 70
     1
102
RTVSPost2010Prop54
  1
strokes_ogs.tif
102
RTVSPost2010PropOp54
 70
     1
102
RTVSPost2010Prop55
280
     0
102
RTVSPost2010PropOp55
 70
     1
102
RTVSPost2010Prop56
140
1.0
102
RTVSPost2010PropOp56
 70
     1
102
RTVSPost2010Prop57
140
1.0
102
RTVSPost2010PropOp57
 70
     1
  0
XRECORD
  5
440
102
{ACAD_REACTORS
330
43F
102
}
330
43F
100
AcDbXrecord
280
     1
102
RTVSPropertyOp0
 70
     1
102
RTVSPropertyOp1
 70
     1
102
RTVSPropertyOp2
 70
     1
102
RTVSPropertyOp3
 70
     1
102
RTVSPropertyOp4
 70
     1
102
RTVSPropertyOp5
 70
     1
102
RTVSPropertyOp6
 70
     1
102
RTVSPropertyOp7
 70
     1
102
RTVSPropertyOp8
 70
     1
102
RTVSPropertyOp9
 70
     1
102
RTVSPropertyOp10
 70
     1
102
RTVSPropertyOp11
 70
     1
102
RTVSPropertyOp12
 70
     1
102
RTVSPropertyOp13
 70
     1
102
RTVSPropertyOp14
 70
     1
102
RTVSPropertyOp15
 70
     1
102
RTVSPropertyOp16
 70
     1
102
RTVSPropertyOp17
 70
     1
102
RTVSPropertyOp18
 70
     1
102
RTVSPropertyOp19
 70
     1
102
RTVSPropertyOp20
 70
     1
102
RTVSPropertyOp21
 70
     1
102
RTVSPropertyOp22
 70
     1
102
RTVSPropertyOp23
 70
     1
102
RTVSPropertyOp24
 70
     1
102
RTVSPropertyOp25
 70
     1
102
RTVSPropertyOp26
 70
     1
102
RTVSPropertyOp27
 70
     1
102
RTVSPropertyOp28
 70
     1
102
RTVSPropertyOp29
 70
     1
102
RTVSPropertyOp30
 70
     1
102
RTVSPropertyOp31
 70
     1
102
RTVSPropertyOp32
 70
     1
102
RTVSPropertyOp33
 70
     1
102
RTVSPropertyOp34
 70
     1
102
RTVSPropertyOp35
 70
     1
102
RTVSPropertyOp36
 70
     1
102
RTVSPropertyOp37
 70
     1
102
RTVSPropertyOp38
 70
     1
102
RTVSPropertyOp39
 70
     1
102
RTVSPropertyOp40
 70
     1
102
RTVSPropertyOp41
 70
     1
102
RTVSPropertyOp42
 70
     1
102
RTVSPropertyOp43
 70
     1
102
RTVSPropertyOp44
 70
     1
102
RTVSPropertyOp45
 70
     1
102
RTVSPropertyOp46
 70
     1
102
RTVSPropertyOp47
 70
     1
102
RTVSPropertyOp48
 70
     1
102
RTVSPropertyOp49
 70
     1
102
RTVSPropertyOp50
 70
     1
102
RTVSPropertyOp51
 70
     0
102
RTVSPropertyOp52
 70
     0
102
RTVSPropertyOp53
 70
     1
102
RTVSPropertyOp54
 70
     1
102
RTVSPropertyOp55
 70
     1
102
RTVSPropertyOp56
 70
     1
102
RTVSPropertyOp57
 70
     1
102
RTVSPost2010Prop28
280
     0
102
RTVSPost2010PropOp28
 70
     1
102
RTVSPost2010Prop29
280
     1
102
RTVSPost2010PropOp29
 70
     1
102
RTVSPost2010Prop30
280
     1
102
RTVSPost2010PropOp30
 70
     1
102
RTVSPost2010Prop31
280
     0
102
RTVSPost2010PropOp31
 70
     1
102
RTVSPost2010Prop32
280
     0
102
RTVSPost2010PropOp32
 70
     1
102
RTVSPost2010Prop33
280
     0
102
RTVSPost2010PropOp33
 70
     1
102
RTVSPost2010Prop34
280
     0
102
RTVSPost2010PropOp34
 70
     1
102
RTVSPost2010Prop35
280
     0
102
RTVSPost2010PropOp35
 70
     1
102
RTVSPost2010Prop36
280
     0
102
RTVSPost2010PropOp36
 70
     1
102
RTVSPost2010Prop37
 90
       50
102
RTVSPost2010PropOp37
 70
     1
102
RTVSPost2010Prop38
140
0.0
102
RTVSPost2010PropOp38
 70
     1
102
RTVSPost2010Prop39
140
1.0
102
RTVSPost2010PropOp39
 70
     1
102
RTVSPost2010Prop40
 90
        0
102
RTVSPost2010PropOp40
 70
     1
102
RTVSPost2010Prop41ColorIndex
 90
       18
102
RTVSPost2010Prop41ColorRGB
 90
        0
102
RTVSPost2010PropOp41
 70
     1
102
RTVSPost2010Prop42
 90
       50
102
RTVSPost2010PropOp42
 70
     1
102
RTVSPost2010Prop43
 90
        3
102
RTVSPost2010PropOp43
 70
     1
102
RTVSPost2010Prop44ColorIndex
 90
        5
102
RTVSPost2010Prop44ColorRGB
 90
      255
102
RTVSPost2010PropOp44
 70
     1
102
RTVSPost2010Prop45
280
     0
102
RTVSPost2010PropOp45
 70
     1
102
RTVSPost2010Prop46
 90
       50
102
RTVSPost2010PropOp46
 70
     1
102
RTVSPost2010Prop47
 90
       50
102
RTVSPost2010PropOp47
 70
     1
102
RTVSPost2010Prop48
 90
       50
102
RTVSPost2010PropOp48
 70
     1
102
RTVSPost2010Prop49
280
     0
102
RTVSPost2010PropOp49
 70
     1
102
RTVSPost2010Prop50
 90
       50
102
RTVSPost2010PropOp50
 70
     1
102
RTVSPost2010Prop51ColorIndex
 90
      256
102
RTVSPost2010Prop51ColorRGB
 90
-16777216
102
RTVSPost2010PropOp51
 70
     0
102
RTVSPost2010Prop52
140
1.0
102
RTVSPost2010PropOp52
 70
     0
102
RTVSPost2010Prop53
 90
        2
102
RTVSPost2010PropOp53
 70
     1
102
RTVSPost2010Prop54
  1
strokes_ogs.tif
102
RTVSPost2010PropOp54
 70
     1
102
RTVSPost2010Prop55
280
     0
102
RTVSPost2010PropOp55
 70
     1
102
RTVSPost2010Prop56
140
1.0
102
RTVSPost2010PropOp56
 70
     1
102
RTVSPost2010Prop57
140
1.0
102
RTVSPost2010PropOp57
 70
     1
  0
XRECORD
  5
43E
102
{ACAD_REACTORS
330
43D
102
}
330
43D
100
AcDbXrecord
280
     1
102
RTVSPropertyOp0
 70
     1
102
RTVSPropertyOp1
 70
     1
102
RTVSPropertyOp2
 70
     1
102
RTVSPropertyOp3
 70
     1
102
RTVSPropertyOp4
 70
     1
102
RTVSPropertyOp5
 70
     1
102
RTVSPropertyOp6
 70
     1
102
RTVSPropertyOp7
 70
     1
102
RTVSPropertyOp8
 70
     1
102
RTVSPropertyOp9
 70
     1
102
RTVSPropertyOp10
 70
     1
102
RTVSPropertyOp11
 70
     1
102
RTVSPropertyOp12
 70
     1
102
RTVSPropertyOp13
 70
     1
102
RTVSPropertyOp14
 70
     1
102
RTVSPropertyOp15
 70
     1
102
RTVSPropertyOp16
 70
     1
102
RTVSPropertyOp17
 70
     1
102
RTVSPropertyOp18
 70
     1
102
RTVSPropertyOp19
 70
     1
102
RTVSPropertyOp20
 70
     1
102
RTVSPropertyOp21
 70
     1
102
RTVSPropertyOp22
 70
     1
102
RTVSPropertyOp23
 70
     1
102
RTVSPropertyOp24
 70
     1
102
RTVSPropertyOp25
 70
     1
102
RTVSPropertyOp26
 70
     1
102
RTVSPropertyOp27
 70
     1
102
RTVSPropertyOp28
 70
     1
102
RTVSPropertyOp29
 70
     1
102
RTVSPropertyOp30
 70
     1
102
RTVSPropertyOp31
 70
     1
102
RTVSPropertyOp32
 70
     1
102
RTVSPropertyOp33
 70
     1
102
RTVSPropertyOp34
 70
     1
102
RTVSPropertyOp35
 70
     1
102
RTVSPropertyOp36
 70
     1
102
RTVSPropertyOp37
 70
     1
102
RTVSPropertyOp38
 70
     1
102
RTVSPropertyOp39
 70
     1
102
RTVSPropertyOp40
 70
     1
102
RTVSPropertyOp41
 70
     1
102
RTVSPropertyOp42
 70
     1
102
RTVSPropertyOp43
 70
     1
102
RTVSPropertyOp44
 70
     1
102
RTVSPropertyOp45
 70
     1
102
RTVSPropertyOp46
 70
     1
102
RTVSPropertyOp47
 70
     1
102
RTVSPropertyOp48
 70
     1
102
RTVSPropertyOp49
 70
     1
102
RTVSPropertyOp50
 70
     1
102
RTVSPropertyOp51
 70
     0
102
RTVSPropertyOp52
 70
     0
102
RTVSPropertyOp53
 70
     1
102
RTVSPropertyOp54
 70
     1
102
RTVSPropertyOp55
 70
     1
102
RTVSPropertyOp56
 70
     1
102
RTVSPropertyOp57
 70
     1
102
RTVSPost2010Prop28
280
     0
102
RTVSPost2010PropOp28
 70
     1
102
RTVSPost2010Prop29
280
     1
102
RTVSPost2010PropOp29
 70
     1
102
RTVSPost2010Prop30
280
     1
102
RTVSPost2010PropOp30
 70
     1
102
RTVSPost2010Prop31
280
     0
102
RTVSPost2010PropOp31
 70
     1
102
RTVSPost2010Prop32
280
     0
102
RTVSPost2010PropOp32
 70
     1
102
RTVSPost2010Prop33
280
     0
102
RTVSPost2010PropOp33
 70
     1
102
RTVSPost2010Prop34
280
     0
102
RTVSPost2010PropOp34
 70
     1
102
RTVSPost2010Prop35
280
     0
102
RTVSPost2010PropOp35
 70
     1
102
RTVSPost2010Prop36
280
     0
102
RTVSPost2010PropOp36
 70
     1
102
RTVSPost2010Prop37
 90
       50
102
RTVSPost2010PropOp37
 70
     1
102
RTVSPost2010Prop38
140
0.0
102
RTVSPost2010PropOp38
 70
     1
102
RTVSPost2010Prop39
140
1.0
102
RTVSPost2010PropOp39
 70
     1
102
RTVSPost2010Prop40
 90
        0
102
RTVSPost2010PropOp40
 70
     1
102
RTVSPost2010Prop41ColorIndex
 90
       18
102
RTVSPost2010Prop41ColorRGB
 90
        0
102
RTVSPost2010PropOp41
 70
     1
102
RTVSPost2010Prop42
 90
       50
102
RTVSPost2010PropOp42
 70
     1
102
RTVSPost2010Prop43
 90
        3
102
RTVSPost2010PropOp43
 70
     1
102
RTVSPost2010Prop44ColorIndex
 90
        5
102
RTVSPost2010Prop44ColorRGB
 90
      255
102
RTVSPost2010PropOp44
 70
     1
102
RTVSPost2010Prop45
280
     0
102
RTVSPost2010PropOp45
 70
     1
102
RTVSPost2010Prop46
 90
       50
102
RTVSPost2010PropOp46
 70
     1
102
RTVSPost2010Prop47
 90
       50
102
RTVSPost2010PropOp47
 70
     1
102
RTVSPost2010Prop48
 90
       50
102
RTVSPost2010PropOp48
 70
     1
102
RTVSPost2010Prop49
280
     0
102
RTVSPost2010PropOp49
 70
     1
102
RTVSPost2010Prop50
 90
       50
102
RTVSPost2010PropOp50
 70
     1
102
RTVSPost2010Prop51ColorIndex
 90
      256
102
RTVSPost2010Prop51ColorRGB
 90
-16777216
102
RTVSPost2010PropOp51
 70
     0
102
RTVSPost2010Prop52
140
1.0
102
RTVSPost2010PropOp52
 70
     0
102
RTVSPost2010Prop53
 90
        2
102
RTVSPost2010PropOp53
 70
     1
102
RTVSPost2010Prop54
  1
strokes_ogs.tif
102
RTVSPost2010PropOp54
 70
     1
102
RTVSPost2010Prop55
280
     0
102
RTVSPost2010PropOp55
 70
     1
102
RTVSPost2010Prop56
140
1.0
102
RTVSPost2010PropOp56
 70
     1
102
RTVSPost2010Prop57
140
1.0
102
RTVSPost2010PropOp57
 70
     1
  0
XRECORD
  5
438
102
{ACAD_REACTORS
330
437
102
}
330
437
100
AcDbXrecord
280
     1
102
RTVSPropertyOp0
 70
     1
102
RTVSPropertyOp1
 70
     1
102
RTVSPropertyOp2
 70
     1
102
RTVSPropertyOp3
 70
     1
102
RTVSPropertyOp4
 70
     1
102
RTVSPropertyOp5
 70
     1
102
RTVSPropertyOp6
 70
     1
102
RTVSPropertyOp7
 70
     1
102
RTVSPropertyOp8
 70
     1
102
RTVSPropertyOp9
 70
     1
102
RTVSPropertyOp10
 70
     1
102
RTVSPropertyOp11
 70
     1
102
RTVSPropertyOp12
 70
     1
102
RTVSPropertyOp13
 70
     1
102
RTVSPropertyOp14
 70
     1
102
RTVSPropertyOp15
 70
     1
102
RTVSPropertyOp16
 70
     1
102
RTVSPropertyOp17
 70
     1
102
RTVSPropertyOp18
 70
     1
102
RTVSPropertyOp19
 70
     1
102
RTVSPropertyOp20
 70
     1
102
RTVSPropertyOp21
 70
     1
102
RTVSPropertyOp22
 70
     1
102
RTVSPropertyOp23
 70
     1
102
RTVSPropertyOp24
 70
     1
102
RTVSPropertyOp25
 70
     1
102
RTVSPropertyOp26
 70
     1
102
RTVSPropertyOp27
 70
     1
102
RTVSPropertyOp28
 70
     1
102
RTVSPropertyOp29
 70
     1
102
RTVSPropertyOp30
 70
     1
102
RTVSPropertyOp31
 70
     1
102
RTVSPropertyOp32
 70
     1
102
RTVSPropertyOp33
 70
     1
102
RTVSPropertyOp34
 70
     1
102
RTVSPropertyOp35
 70
     1
102
RTVSPropertyOp36
 70
     1
102
RTVSPropertyOp37
 70
     1
102
RTVSPropertyOp38
 70
     1
102
RTVSPropertyOp39
 70
     1
102
RTVSPropertyOp40
 70
     1
102
RTVSPropertyOp41
 70
     1
102
RTVSPropertyOp42
 70
     1
102
RTVSPropertyOp43
 70
     1
102
RTVSPropertyOp44
 70
     1
102
RTVSPropertyOp45
 70
     1
102
RTVSPropertyOp46
 70
     1
102
RTVSPropertyOp47
 70
     1
102
RTVSPropertyOp48
 70
     1
102
RTVSPropertyOp49
 70
     1
102
RTVSPropertyOp50
 70
     1
102
RTVSPropertyOp51
 70
     0
102
RTVSPropertyOp52
 70
     0
102
RTVSPropertyOp53
 70
     1
102
RTVSPropertyOp54
 70
     1
102
RTVSPropertyOp55
 70
     1
102
RTVSPropertyOp56
 70
     1
102
RTVSPropertyOp57
 70
     1
102
RTVSPost2010Prop28
280
     0
102
RTVSPost2010PropOp28
 70
     1
102
RTVSPost2010Prop29
280
     1
102
RTVSPost2010PropOp29
 70
     1
102
RTVSPost2010Prop30
280
     1
102
RTVSPost2010PropOp30
 70
     1
102
RTVSPost2010Prop31
280
     0
102
RTVSPost2010PropOp31
 70
     1
102
RTVSPost2010Prop32
280
     0
102
RTVSPost2010PropOp32
 70
     1
102
RTVSPost2010Prop33
280
     0
102
RTVSPost2010PropOp33
 70
     1
102
RTVSPost2010Prop34
280
     0
102
RTVSPost2010PropOp34
 70
     1
102
RTVSPost2010Prop35
280
     0
102
RTVSPost2010PropOp35
 70
     1
102
RTVSPost2010Prop36
280
     0
102
RTVSPost2010PropOp36
 70
     1
102
RTVSPost2010Prop37
 90
       50
102
RTVSPost2010PropOp37
 70
     1
102
RTVSPost2010Prop38
140
0.0
102
RTVSPost2010PropOp38
 70
     1
102
RTVSPost2010Prop39
140
1.0
102
RTVSPost2010PropOp39
 70
     1
102
RTVSPost2010Prop40
 90
        0
102
RTVSPost2010PropOp40
 70
     1
102
RTVSPost2010Prop41ColorIndex
 90
       18
102
RTVSPost2010Prop41ColorRGB
 90
        0
102
RTVSPost2010PropOp41
 70
     1
102
RTVSPost2010Prop42
 90
       50
102
RTVSPost2010PropOp42
 70
     1
102
RTVSPost2010Prop43
 90
        3
102
RTVSPost2010PropOp43
 70
     1
102
RTVSPost2010Prop44ColorIndex
 90
        5
102
RTVSPost2010Prop44ColorRGB
 90
      255
102
RTVSPost2010PropOp44
 70
     1
102
RTVSPost2010Prop45
280
     0
102
RTVSPost2010PropOp45
 70
     1
102
RTVSPost2010Prop46
 90
       50
102
RTVSPost2010PropOp46
 70
     1
102
RTVSPost2010Prop47
 90
       50
102
RTVSPost2010PropOp47
 70
     1
102
RTVSPost2010Prop48
 90
       50
102
RTVSPost2010PropOp48
 70
     1
102
RTVSPost2010Prop49
280
     0
102
RTVSPost2010PropOp49
 70
     1
102
RTVSPost2010Prop50
 90
       50
102
RTVSPost2010PropOp50
 70
     1
102
RTVSPost2010Prop51ColorIndex
 90
      256
102
RTVSPost2010Prop51ColorRGB
 90
-16777216
102
RTVSPost2010PropOp51
 70
     0
102
RTVSPost2010Prop52
140
1.0
102
RTVSPost2010PropOp52
 70
     0
102
RTVSPost2010Prop53
 90
        2
102
RTVSPost2010PropOp53
 70
     1
102
RTVSPost2010Prop54
  1
strokes_ogs.tif
102
RTVSPost2010PropOp54
 70
     1
102
RTVSPost2010Prop55
280
     0
102
RTVSPost2010PropOp55
 70
     1
102
RTVSPost2010Prop56
140
1.0
102
RTVSPost2010PropOp56
 70
     1
102
RTVSPost2010Prop57
140
1.0
102
RTVSPost2010PropOp57
 70
     1
  0
XRECORD
  5
43A
102
{ACAD_REACTORS
330
439
102
}
330
439
100
AcDbXrecord
280
     1
102
RTVSPropertyOp0
 70
     1
102
RTVSPropertyOp1
 70
     1
102
RTVSPropertyOp2
 70
     1
102
RTVSPropertyOp3
 70
     1
102
RTVSPropertyOp4
 70
     1
102
RTVSPropertyOp5
 70
     1
102
RTVSPropertyOp6
 70
     1
102
RTVSPropertyOp7
 70
     1
102
RTVSPropertyOp8
 70
     1
102
RTVSPropertyOp9
 70
     1
102
RTVSPropertyOp10
 70
     1
102
RTVSPropertyOp11
 70
     1
102
RTVSPropertyOp12
 70
     1
102
RTVSPropertyOp13
 70
     1
102
RTVSPropertyOp14
 70
     1
102
RTVSPropertyOp15
 70
     1
102
RTVSPropertyOp16
 70
     1
102
RTVSPropertyOp17
 70
     1
102
RTVSPropertyOp18
 70
     1
102
RTVSPropertyOp19
 70
     1
102
RTVSPropertyOp20
 70
     1
102
RTVSPropertyOp21
 70
     1
102
RTVSPropertyOp22
 70
     1
102
RTVSPropertyOp23
 70
     1
102
RTVSPropertyOp24
 70
     1
102
RTVSPropertyOp25
 70
     1
102
RTVSPropertyOp26
 70
     1
102
RTVSPropertyOp27
 70
     1
102
RTVSPropertyOp28
 70
     1
102
RTVSPropertyOp29
 70
     1
102
RTVSPropertyOp30
 70
     1
102
RTVSPropertyOp31
 70
     1
102
RTVSPropertyOp32
 70
     1
102
RTVSPropertyOp33
 70
     1
102
RTVSPropertyOp34
 70
     1
102
RTVSPropertyOp35
 70
     1
102
RTVSPropertyOp36
 70
     1
102
RTVSPropertyOp37
 70
     1
102
RTVSPropertyOp38
 70
     1
102
RTVSPropertyOp39
 70
     1
102
RTVSPropertyOp40
 70
     1
102
RTVSPropertyOp41
 70
     1
102
RTVSPropertyOp42
 70
     1
102
RTVSPropertyOp43
 70
     1
102
RTVSPropertyOp44
 70
     1
102
RTVSPropertyOp45
 70
     1
102
RTVSPropertyOp46
 70
     1
102
RTVSPropertyOp47
 70
     1
102
RTVSPropertyOp48
 70
     1
102
RTVSPropertyOp49
 70
     1
102
RTVSPropertyOp50
 70
     1
102
RTVSPropertyOp51
 70
     0
102
RTVSPropertyOp52
 70
     0
102
RTVSPropertyOp53
 70
     1
102
RTVSPropertyOp54
 70
     1
102
RTVSPropertyOp55
 70
     1
102
RTVSPropertyOp56
 70
     1
102
RTVSPropertyOp57
 70
     1
102
RTVSPost2010Prop28
280
     0
102
RTVSPost2010PropOp28
 70
     1
102
RTVSPost2010Prop29
280
     1
102
RTVSPost2010PropOp29
 70
     1
102
RTVSPost2010Prop30
280
     1
102
RTVSPost2010PropOp30
 70
     1
102
RTVSPost2010Prop31
280
     0
102
RTVSPost2010PropOp31
 70
     1
102
RTVSPost2010Prop32
280
     0
102
RTVSPost2010PropOp32
 70
     1
102
RTVSPost2010Prop33
280
     0
102
RTVSPost2010PropOp33
 70
     1
102
RTVSPost2010Prop34
280
     0
102
RTVSPost2010PropOp34
 70
     1
102
RTVSPost2010Prop35
280
     0
102
RTVSPost2010PropOp35
 70
     1
102
RTVSPost2010Prop36
280
     0
102
RTVSPost2010PropOp36
 70
     1
102
RTVSPost2010Prop37
 90
       50
102
RTVSPost2010PropOp37
 70
     1
102
RTVSPost2010Prop38
140
0.0
102
RTVSPost2010PropOp38
 70
     1
102
RTVSPost2010Prop39
140
1.0
102
RTVSPost2010PropOp39
 70
     1
102
RTVSPost2010Prop40
 90
        0
102
RTVSPost2010PropOp40
 70
     1
102
RTVSPost2010Prop41ColorIndex
 90
       18
102
RTVSPost2010Prop41ColorRGB
 90
        0
102
RTVSPost2010PropOp41
 70
     1
102
RTVSPost2010Prop42
 90
       50
102
RTVSPost2010PropOp42
 70
     1
102
RTVSPost2010Prop43
 90
        3
102
RTVSPost2010PropOp43
 70
     1
102
RTVSPost2010Prop44ColorIndex
 90
        5
102
RTVSPost2010Prop44ColorRGB
 90
      255
102
RTVSPost2010PropOp44
 70
     1
102
RTVSPost2010Prop45
280
     0
102
RTVSPost2010PropOp45
 70
     1
102
RTVSPost2010Prop46
 90
       50
102
RTVSPost2010PropOp46
 70
     1
102
RTVSPost2010Prop47
 90
       50
102
RTVSPost2010PropOp47
 70
     1
102
RTVSPost2010Prop48
 90
       50
102
RTVSPost2010PropOp48
 70
     1
102
RTVSPost2010Prop49
280
     0
102
RTVSPost2010PropOp49
 70
     1
102
RTVSPost2010Prop50
 90
       50
102
RTVSPost2010PropOp50
 70
     1
102
RTVSPost2010Prop51ColorIndex
 90
      256
102
RTVSPost2010Prop51ColorRGB
 90
-16777216
102
RTVSPost2010PropOp51
 70
     0
102
RTVSPost2010Prop52
140
1.0
102
RTVSPost2010PropOp52
 70
     0
102
RTVSPost2010Prop53
 90
        2
102
RTVSPost2010PropOp53
 70
     1
102
RTVSPost2010Prop54
  1
strokes_ogs.tif
102
RTVSPost2010PropOp54
 70
     1
102
RTVSPost2010Prop55
280
     0
102
RTVSPost2010PropOp55
 70
     1
102
RTVSPost2010Prop56
140
1.0
102
RTVSPost2010PropOp56
 70
     1
102
RTVSPost2010Prop57
140
1.0
102
RTVSPost2010PropOp57
 70
     1
  0
XRECORD
  5
42A
102
{ACAD_REACTORS
330
429
102
}
330
429
100
AcDbXrecord
280
     1
102
RTVSPropertyOp0
 70
     1
102
RTVSPropertyOp1
 70
     1
102
RTVSPropertyOp2
 70
     1
102
RTVSPropertyOp3
 70
     1
102
RTVSPropertyOp4
 70
     1
102
RTVSPropertyOp5
 70
     1
102
RTVSPropertyOp6
 70
     1
102
RTVSPropertyOp7
 70
     1
102
RTVSPropertyOp8
 70
     1
102
RTVSPropertyOp9
 70
     1
102
RTVSPropertyOp10
 70
     1
102
RTVSPropertyOp11
 70
     1
102
RTVSPropertyOp12
 70
     1
102
RTVSPropertyOp13
 70
     1
102
RTVSPropertyOp14
 70
     1
102
RTVSPropertyOp15
 70
     1
102
RTVSPropertyOp16
 70
     1
102
RTVSPropertyOp17
 70
     1
102
RTVSPropertyOp18
 70
     1
102
RTVSPropertyOp19
 70
     1
102
RTVSPropertyOp20
 70
     1
102
RTVSPropertyOp21
 70
     1
102
RTVSPropertyOp22
 70
     1
102
RTVSPropertyOp23
 70
     1
102
RTVSPropertyOp24
 70
     1
102
RTVSPropertyOp25
 70
     1
102
RTVSPropertyOp26
 70
     1
102
RTVSPropertyOp27
 70
     1
102
RTVSPropertyOp28
 70
     1
102
RTVSPropertyOp29
 70
     1
102
RTVSPropertyOp30
 70
     1
102
RTVSPropertyOp31
 70
     1
102
RTVSPropertyOp32
 70
     1
102
RTVSPropertyOp33
 70
     1
102
RTVSPropertyOp34
 70
     1
102
RTVSPropertyOp35
 70
     1
102
RTVSPropertyOp36
 70
     1
102
RTVSPropertyOp37
 70
     1
102
RTVSPropertyOp38
 70
     1
102
RTVSPropertyOp39
 70
     1
102
RTVSPropertyOp40
 70
     1
102
RTVSPropertyOp41
 70
     1
102
RTVSPropertyOp42
 70
     1
102
RTVSPropertyOp43
 70
     1
102
RTVSPropertyOp44
 70
     1
102
RTVSPropertyOp45
 70
     1
102
RTVSPropertyOp46
 70
     1
102
RTVSPropertyOp47
 70
     1
102
RTVSPropertyOp48
 70
     1
102
RTVSPropertyOp49
 70
     1
102
RTVSPropertyOp50
 70
     1
102
RTVSPropertyOp51
 70
     0
102
RTVSPropertyOp52
 70
     0
102
RTVSPropertyOp53
 70
     1
102
RTVSPropertyOp54
 70
     1
102
RTVSPropertyOp55
 70
     1
102
RTVSPropertyOp56
 70
     1
102
RTVSPropertyOp57
 70
     1
102
RTVSPost2010Prop28
280
     0
102
RTVSPost2010PropOp28
 70
     1
102
RTVSPost2010Prop29
280
     1
102
RTVSPost2010PropOp29
 70
     1
102
RTVSPost2010Prop30
280
     1
102
RTVSPost2010PropOp30
 70
     1
102
RTVSPost2010Prop31
280
     0
102
RTVSPost2010PropOp31
 70
     1
102
RTVSPost2010Prop32
280
     0
102
RTVSPost2010PropOp32
 70
     1
102
RTVSPost2010Prop33
280
     0
102
RTVSPost2010PropOp33
 70
     1
102
RTVSPost2010Prop34
280
     0
102
RTVSPost2010PropOp34
 70
     1
102
RTVSPost2010Prop35
280
     0
102
RTVSPost2010PropOp35
 70
     1
102
RTVSPost2010Prop36
280
     0
102
RTVSPost2010PropOp36
 70
     1
102
RTVSPost2010Prop37
 90
       50
102
RTVSPost2010PropOp37
 70
     1
102
RTVSPost2010Prop38
140
0.0
102
RTVSPost2010PropOp38
 70
     1
102
RTVSPost2010Prop39
140
1.0
102
RTVSPost2010PropOp39
 70
     1
102
RTVSPost2010Prop40
 90
        0
102
RTVSPost2010PropOp40
 70
     1
102
RTVSPost2010Prop41ColorIndex
 90
       18
102
RTVSPost2010Prop41ColorRGB
 90
        0
102
RTVSPost2010PropOp41
 70
     1
102
RTVSPost2010Prop42
 90
       50
102
RTVSPost2010PropOp42
 70
     1
102
RTVSPost2010Prop43
 90
        3
102
RTVSPost2010PropOp43
 70
     1
102
RTVSPost2010Prop44ColorIndex
 90
        5
102
RTVSPost2010Prop44ColorRGB
 90
      255
102
RTVSPost2010PropOp44
 70
     1
102
RTVSPost2010Prop45
280
     0
102
RTVSPost2010PropOp45
 70
     1
102
RTVSPost2010Prop46
 90
       50
102
RTVSPost2010PropOp46
 70
     1
102
RTVSPost2010Prop47
 90
       50
102
RTVSPost2010PropOp47
 70
     1
102
RTVSPost2010Prop48
 90
       50
102
RTVSPost2010PropOp48
 70
     1
102
RTVSPost2010Prop49
280
     0
102
RTVSPost2010PropOp49
 70
     1
102
RTVSPost2010Prop50
 90
       50
102
RTVSPost2010PropOp50
 70
     1
102
RTVSPost2010Prop51ColorIndex
 90
      256
102
RTVSPost2010Prop51ColorRGB
 90
-16777216
102
RTVSPost2010PropOp51
 70
     0
102
RTVSPost2010Prop52
140
1.0
102
RTVSPost2010PropOp52
 70
     0
102
RTVSPost2010Prop53
 90
        2
102
RTVSPost2010PropOp53
 70
     1
102
RTVSPost2010Prop54
  1
strokes_ogs.tif
102
RTVSPost2010PropOp54
 70
     1
102
RTVSPost2010Prop55
280
     0
102
RTVSPost2010PropOp55
 70
     1
102
RTVSPost2010Prop56
140
1.0
102
RTVSPost2010PropOp56
 70
     1
102
RTVSPost2010Prop57
140
1.0
102
RTVSPost2010PropOp57
 70
     1
  0
XRECORD
  5
41C
102
{ACAD_REACTORS
330
41B
102
}
330
41B
100
AcDbXrecord
280
     1
102
RTVSPropertyOp0
 70
     1
102
RTVSPropertyOp1
 70
     1
102
RTVSPropertyOp2
 70
     1
102
RTVSPropertyOp3
 70
     1
102
RTVSPropertyOp4
 70
     1
102
RTVSPropertyOp5
 70
     1
102
RTVSPropertyOp6
 70
     1
102
RTVSPropertyOp7
 70
     1
102
RTVSPropertyOp8
 70
     1
102
RTVSPropertyOp9
 70
     1
102
RTVSPropertyOp10
 70
     1
102
RTVSPropertyOp11
 70
     1
102
RTVSPropertyOp12
 70
     1
102
RTVSPropertyOp13
 70
     1
102
RTVSPropertyOp14
 70
     1
102
RTVSPropertyOp15
 70
     1
102
RTVSPropertyOp16
 70
     1
102
RTVSPropertyOp17
 70
     1
102
RTVSPropertyOp18
 70
     1
102
RTVSPropertyOp19
 70
     1
102
RTVSPropertyOp20
 70
     1
102
RTVSPropertyOp21
 70
     1
102
RTVSPropertyOp22
 70
     1
102
RTVSPropertyOp23
 70
     1
102
RTVSPropertyOp24
 70
     1
102
RTVSPropertyOp25
 70
     1
102
RTVSPropertyOp26
 70
     1
102
RTVSPropertyOp27
 70
     1
102
RTVSPropertyOp28
 70
     1
102
RTVSPropertyOp29
 70
     1
102
RTVSPropertyOp30
 70
     1
102
RTVSPropertyOp31
 70
     1
102
RTVSPropertyOp32
 70
     1
102
RTVSPropertyOp33
 70
     1
102
RTVSPropertyOp34
 70
     1
102
RTVSPropertyOp35
 70
     1
102
RTVSPropertyOp36
 70
     1
102
RTVSPropertyOp37
 70
     1
102
RTVSPropertyOp38
 70
     1
102
RTVSPropertyOp39
 70
     1
102
RTVSPropertyOp40
 70
     1
102
RTVSPropertyOp41
 70
     1
102
RTVSPropertyOp42
 70
     1
102
RTVSPropertyOp43
 70
     1
102
RTVSPropertyOp44
 70
     1
102
RTVSPropertyOp45
 70
     1
102
RTVSPropertyOp46
 70
     1
102
RTVSPropertyOp47
 70
     1
102
RTVSPropertyOp48
 70
     1
102
RTVSPropertyOp49
 70
     1
102
RTVSPropertyOp50
 70
     1
102
RTVSPropertyOp51
 70
     0
102
RTVSPropertyOp52
 70
     0
102
RTVSPropertyOp53
 70
     1
102
RTVSPropertyOp54
 70
     1
102
RTVSPropertyOp55
 70
     1
102
RTVSPropertyOp56
 70
     1
102
RTVSPropertyOp57
 70
     1
102
RTVSPost2010Prop28
280
     0
102
RTVSPost2010PropOp28
 70
     1
102
RTVSPost2010Prop29
280
     1
102
RTVSPost2010PropOp29
 70
     1
102
RTVSPost2010Prop30
280
     1
102
RTVSPost2010PropOp30
 70
     1
102
RTVSPost2010Prop31
280
     0
102
RTVSPost2010PropOp31
 70
     1
102
RTVSPost2010Prop32
280
     0
102
RTVSPost2010PropOp32
 70
     1
102
RTVSPost2010Prop33
280
     0
102
RTVSPost2010PropOp33
 70
     1
102
RTVSPost2010Prop34
280
     0
102
RTVSPost2010PropOp34
 70
     1
102
RTVSPost2010Prop35
280
     0
102
RTVSPost2010PropOp35
 70
     1
102
RTVSPost2010Prop36
280
     0
102
RTVSPost2010PropOp36
 70
     1
102
RTVSPost2010Prop37
 90
       50
102
RTVSPost2010PropOp37
 70
     1
102
RTVSPost2010Prop38
140
0.0
102
RTVSPost2010PropOp38
 70
     1
102
RTVSPost2010Prop39
140
1.0
102
RTVSPost2010PropOp39
 70
     1
102
RTVSPost2010Prop40
 90
        0
102
RTVSPost2010PropOp40
 70
     1
102
RTVSPost2010Prop41ColorIndex
 90
       18
102
RTVSPost2010Prop41ColorRGB
 90
        0
102
RTVSPost2010PropOp41
 70
     1
102
RTVSPost2010Prop42
 90
       50
102
RTVSPost2010PropOp42
 70
     1
102
RTVSPost2010Prop43
 90
        3
102
RTVSPost2010PropOp43
 70
     1
102
RTVSPost2010Prop44ColorIndex
 90
        5
102
RTVSPost2010Prop44ColorRGB
 90
      255
102
RTVSPost2010PropOp44
 70
     1
102
RTVSPost2010Prop45
280
     0
102
RTVSPost2010PropOp45
 70
     1
102
RTVSPost2010Prop46
 90
       50
102
RTVSPost2010PropOp46
 70
     1
102
RTVSPost2010Prop47
 90
       50
102
RTVSPost2010PropOp47
 70
     1
102
RTVSPost2010Prop48
 90
       50
102
RTVSPost2010PropOp48
 70
     1
102
RTVSPost2010Prop49
280
     0
102
RTVSPost2010PropOp49
 70
     1
102
RTVSPost2010Prop50
 90
       50
102
RTVSPost2010PropOp50
 70
     1
102
RTVSPost2010Prop51ColorIndex
 90
      256
102
RTVSPost2010Prop51ColorRGB
 90
-16777216
102
RTVSPost2010PropOp51
 70
     0
102
RTVSPost2010Prop52
140
1.0
102
RTVSPost2010PropOp52
 70
     0
102
RTVSPost2010Prop53
 90
        2
102
RTVSPost2010PropOp53
 70
     1
102
RTVSPost2010Prop54
  1
strokes_ogs.tif
102
RTVSPost2010PropOp54
 70
     1
102
RTVSPost2010Prop55
280
     0
102
RTVSPost2010PropOp55
 70
     1
102
RTVSPost2010Prop56
140
1.0
102
RTVSPost2010PropOp56
 70
     1
102
RTVSPost2010Prop57
140
1.0
102
RTVSPost2010PropOp57
 70
     1
  0
XRECORD
  5
43C
102
{ACAD_REACTORS
330
43B
102
}
330
43B
100
AcDbXrecord
280
     1
102
RTVSPropertyOp0
 70
     1
102
RTVSPropertyOp1
 70
     1
102
RTVSPropertyOp2
 70
     1
102
RTVSPropertyOp3
 70
     1
102
RTVSPropertyOp4
 70
     1
102
RTVSPropertyOp5
 70
     1
102
RTVSPropertyOp6
 70
     1
102
RTVSPropertyOp7
 70
     1
102
RTVSPropertyOp8
 70
     1
102
RTVSPropertyOp9
 70
     1
102
RTVSPropertyOp10
 70
     1
102
RTVSPropertyOp11
 70
     1
102
RTVSPropertyOp12
 70
     1
102
RTVSPropertyOp13
 70
     1
102
RTVSPropertyOp14
 70
     1
102
RTVSPropertyOp15
 70
     1
102
RTVSPropertyOp16
 70
     1
102
RTVSPropertyOp17
 70
     1
102
RTVSPropertyOp18
 70
     1
102
RTVSPropertyOp19
 70
     1
102
RTVSPropertyOp20
 70
     1
102
RTVSPropertyOp21
 70
     1
102
RTVSPropertyOp22
 70
     1
102
RTVSPropertyOp23
 70
     1
102
RTVSPropertyOp24
 70
     1
102
RTVSPropertyOp25
 70
     1
102
RTVSPropertyOp26
 70
     1
102
RTVSPropertyOp27
 70
     1
102
RTVSPropertyOp28
 70
     1
102
RTVSPropertyOp29
 70
     1
102
RTVSPropertyOp30
 70
     1
102
RTVSPropertyOp31
 70
     1
102
RTVSPropertyOp32
 70
     1
102
RTVSPropertyOp33
 70
     1
102
RTVSPropertyOp34
 70
     1
102
RTVSPropertyOp35
 70
     1
102
RTVSPropertyOp36
 70
     1
102
RTVSPropertyOp37
 70
     1
102
RTVSPropertyOp38
 70
     1
102
RTVSPropertyOp39
 70
     1
102
RTVSPropertyOp40
 70
     1
102
RTVSPropertyOp41
 70
     1
102
RTVSPropertyOp42
 70
     1
102
RTVSPropertyOp43
 70
     1
102
RTVSPropertyOp44
 70
     1
102
RTVSPropertyOp45
 70
     1
102
RTVSPropertyOp46
 70
     1
102
RTVSPropertyOp47
 70
     1
102
RTVSPropertyOp48
 70
     1
102
RTVSPropertyOp49
 70
     1
102
RTVSPropertyOp50
 70
     1
102
RTVSPropertyOp51
 70
     0
102
RTVSPropertyOp52
 70
     0
102
RTVSPropertyOp53
 70
     1
102
RTVSPropertyOp54
 70
     1
102
RTVSPropertyOp55
 70
     1
102
RTVSPropertyOp56
 70
     1
102
RTVSPropertyOp57
 70
     1
102
RTVSPost2010Prop28
280
     0
102
RTVSPost2010PropOp28
 70
     1
102
RTVSPost2010Prop29
280
     1
102
RTVSPost2010PropOp29
 70
     1
102
RTVSPost2010Prop30
280
     1
102
RTVSPost2010PropOp30
 70
     1
102
RTVSPost2010Prop31
280
     0
102
RTVSPost2010PropOp31
 70
     1
102
RTVSPost2010Prop32
280
     0
102
RTVSPost2010PropOp32
 70
     1
102
RTVSPost2010Prop33
280
     0
102
RTVSPost2010PropOp33
 70
     1
102
RTVSPost2010Prop34
280
     0
102
RTVSPost2010PropOp34
 70
     1
102
RTVSPost2010Prop35
280
     0
102
RTVSPost2010PropOp35
 70
     1
102
RTVSPost2010Prop36
280
     0
102
RTVSPost2010PropOp36
 70
     1
102
RTVSPost2010Prop37
 90
       50
102
RTVSPost2010PropOp37
 70
     1
102
RTVSPost2010Prop38
140
0.0
102
RTVSPost2010PropOp38
 70
     1
102
RTVSPost2010Prop39
140
1.0
102
RTVSPost2010PropOp39
 70
     1
102
RTVSPost2010Prop40
 90
        0
102
RTVSPost2010PropOp40
 70
     1
102
RTVSPost2010Prop41ColorIndex
 90
       18
102
RTVSPost2010Prop41ColorRGB
 90
        0
102
RTVSPost2010PropOp41
 70
     1
102
RTVSPost2010Prop42
 90
       50
102
RTVSPost2010PropOp42
 70
     1
102
RTVSPost2010Prop43
 90
        3
102
RTVSPost2010PropOp43
 70
     1
102
RTVSPost2010Prop44ColorIndex
 90
        5
102
RTVSPost2010Prop44ColorRGB
 90
      255
102
RTVSPost2010PropOp44
 70
     1
102
RTVSPost2010Prop45
280
     0
102
RTVSPost2010PropOp45
 70
     1
102
RTVSPost2010Prop46
 90
       50
102
RTVSPost2010PropOp46
 70
     1
102
RTVSPost2010Prop47
 90
       50
102
RTVSPost2010PropOp47
 70
     1
102
RTVSPost2010Prop48
 90
       50
102
RTVSPost2010PropOp48
 70
     1
102
RTVSPost2010Prop49
280
     0
102
RTVSPost2010PropOp49
 70
     1
102
RTVSPost2010Prop50
 90
       50
102
RTVSPost2010PropOp50
 70
     1
102
RTVSPost2010Prop51ColorIndex
 90
      256
102
RTVSPost2010Prop51ColorRGB
 90
-16777216
102
RTVSPost2010PropOp51
 70
     0
102
RTVSPost2010Prop52
140
1.0
102
RTVSPost2010PropOp52
 70
     0
102
RTVSPost2010Prop53
 90
        2
102
RTVSPost2010PropOp53
 70
     1
102
RTVSPost2010Prop54
  1
strokes_ogs.tif
102
RTVSPost2010PropOp54
 70
     1
102
RTVSPost2010Prop55
280
     0
102
RTVSPost2010PropOp55
 70
     1
102
RTVSPost2010Prop56
140
1.0
102
RTVSPost2010PropOp56
 70
     1
102
RTVSPost2010Prop57
140
1.0
102
RTVSPost2010PropOp57
 70
     1
  0
ENDSEC
  0
EOF
