  0
SECTION
  2
HEADER
  9
$ACADVER
  1
AC1018
  9
$ACADMAINTVER
 70
     0
  9
$DWGCODEPAGE
  3
ANSI_932
  9
$INSBASE
 10
0.0
 20
0.0
 30
0.0
  9
$EXTMIN
 10
-2100.0
 20
-1485.0
 30
0.0
  9
$EXTMAX
 10
2100.0
 20
1485.0
 30
0.0
  9
$LIMMIN
 10
-2100.0
 20
-1485.0
  9
$LIMMAX
 10
2100.0
 20
1485.0
  9
$ORTHOMODE
 70
     0
  9
$REGENMODE
 70
     1
  9
$FILLMODE
 70
     1
  9
$QTEXTMODE
 70
     0
  9
$MIRRTEXT
 70
     1
  9
$LTSCALE
 40
10.0
  9
$ATTMODE
 70
     1
  9
$TEXTSIZE
 40
2.5
  9
$TRACEWID
 40
1.0
  9
$TEXTSTYLE
  7
Standard
  9
$CLAYER
  8
0
  9
$CELTYPE
  6
ByLayer
  9
$CECOLOR
 62
   256
  9
$CELTSCALE
 40
1.0
  9
$DISPSILH
 70
     0
  9
$DIMSCALE
 40
1.0
  9
$DIMASZ
 40
2.5
  9
$DIMEXO
 40
0.625
  9
$DIMDLI
 40
3.75
  9
$DIMRND
 40
0.0
  9
$DIMDLE
 40
0.0
  9
$DIMEXE
 40
1.25
  9
$DIMTP
 40
0.0
  9
$DIMTM
 40
0.0
  9
$DIMTXT
 40
2.5
  9
$DIMCEN
 40
2.5
  9
$DIMTSZ
 40
0.0
  9
$DIMTOL
 70
     0
  9
$DIMLIM
 70
     0
  9
$DIMTIH
 70
     0
  9
$DIMTOH
 70
     0
  9
$DIMSE1
 70
     0
  9
$DIMSE2
 70
     0
  9
$DIMTAD
 70
     1
  9
$DIMZIN
 70
     8
  9
$DIMBLK
  1

  9
$DIMASO
 70
     1
  9
$DIMSHO
 70
     1
  9
$DIMPOST
  1

  9
$DIMAPOST
  1

  9
$DIMALT
 70
     0
  9
$DIMALTD
 70
     3
  9
$DIMALTF
 40
0.03937007874016
  9
$DIMLFAC
 40
1.0
  9
$DIMTOFL
 70
     1
  9
$DIMTVP
 40
0.0
  9
$DIMTIX
 70
     0
  9
$DIMSOXD
 70
     0
  9
$DIMSAH
 70
     0
  9
$DIMBLK1
  1

  9
$DIMBLK2
  1

  9
$DIMSTYLE
  2
ISO-25
  9
$DIMCLRD
 70
     0
  9
$DIMCLRE
 70
     0
  9
$DIMCLRT
 70
     0
  9
$DIMTFAC
 40
1.0
  9
$DIMGAP
 40
0.625
  9
$DIMJUST
 70
     0
  9
$DIMSD1
 70
     0
  9
$DIMSD2
 70
     0
  9
$DIMTOLJ
 70
     0
  9
$DIMTZIN
 70
     8
  9
$DIMALTZ
 70
     0
  9
$DIMALTTZ
 70
     0
  9
$DIMUPT
 70
     0
  9
$DIMDEC
 70
     2
  9
$DIMTDEC
 70
     2
  9
$DIMALTU
 70
     2
  9
$DIMALTTD
 70
     3
  9
$DIMTXSTY
  7
Standard
  9
$DIMAUNIT
 70
     0
  9
$DIMADEC
 70
     0
  9
$DIMALTRND
 40
0.0
  9
$DIMAZIN
 70
     0
  9
$DIMDSEP
 70
    44
  9
$DIMATFIT
 70
     3
  9
$DIMFRAC
 70
     0
  9
$DIMLDRBLK
  1

  9
$DIMLUNIT
 70
     2
  9
$DIMLWD
 70
    -2
  9
$DIMLWE
 70
    -2
  9
$DIMTMOVE
 70
     0
  9
$LUNITS
 70
     2
  9
$LUPREC
 70
     4
  9
$SKETCHINC
 40
1.0
  9
$FILLETRAD
 40
10.0
  9
$AUNITS
 70
     0
  9
$AUPREC
 70
     0
  9
$MENU
  1
.
  9
$ELEVATION
 40
0.0
  9
$PELEVATION
 40
0.0
  9
$THICKNESS
 40
0.0
  9
$LIMCHECK
 70
     0
  9
$CHAMFERA
 40
0.0
  9
$CHAMFERB
 40
0.0
  9
$CHAMFERC
 40
0.0
  9
$CHAMFERD
 40
0.0
  9
$SKPOLY
 70
     0
  9
$TDCREATE
 40
2459927.629820614
  9
$TDUCREATE
 40
2459927.254820614
  9
$TDUPDATE
 40
2459927.629820764
  9
$TDUUPDATE
 40
2459927.254820764
  9
$TDINDWG
 40
0.0000000116
  9
$TDUSRTIMER
 40
0.0000000116
  9
$USRTIMER
 70
     1
  9
$ANGBASE
 50
0.0
  9
$ANGDIR
 70
     0
  9
$PDMODE
 70
     0
  9
$PDSIZE
 40
0.0
  9
$PLINEWID
 40
0.0
  9
$SPLFRAME
 70
     0
  9
$SPLINETYPE
 70
     6
  9
$SPLINESEGS
 70
     8
  9
$HANDSEED
  5
3D2
  9
$SURFTAB1
 70
     6
  9
$SURFTAB2
 70
     6
  9
$SURFTYPE
 70
     6
  9
$SURFU
 70
     6
  9
$SURFV
 70
     6
  9
$UCSBASE
  2

  9
$UCSNAME
  2

  9
$UCSORG
 10
0.0
 20
0.0
 30
0.0
  9
$UCSXDIR
 10
1.0
 20
0.0
 30
0.0
  9
$UCSYDIR
 10
0.0
 20
1.0
 30
0.0
  9
$UCSORTHOREF
  2

  9
$UCSORTHOVIEW
 70
     0
  9
$UCSORGTOP
 10
0.0
 20
0.0
 30
0.0
  9
$UCSORGBOTTOM
 10
0.0
 20
0.0
 30
0.0
  9
$UCSORGLEFT
 10
0.0
 20
0.0
 30
0.0
  9
$UCSORGRIGHT
 10
0.0
 20
0.0
 30
0.0
  9
$UCSORGFRONT
 10
0.0
 20
0.0
 30
0.0
  9
$UCSORGBACK
 10
0.0
 20
0.0
 30
0.0
  9
$PUCSBASE
  2

  9
$PUCSNAME
  2

  9
$PUCSORG
 10
0.0
 20
0.0
 30
0.0
  9
$PUCSXDIR
 10
1.0
 20
0.0
 30
0.0
  9
$PUCSYDIR
 10
0.0
 20
1.0
 30
0.0
  9
$PUCSORTHOREF
  2

  9
$PUCSORTHOVIEW
 70
     0
  9
$PUCSORGTOP
 10
0.0
 20
0.0
 30
0.0
  9
$PUCSORGBOTTOM
 10
0.0
 20
0.0
 30
0.0
  9
$PUCSORGLEFT
 10
0.0
 20
0.0
 30
0.0
  9
$PUCSORGRIGHT
 10
0.0
 20
0.0
 30
0.0
  9
$PUCSORGFRONT
 10
0.0
 20
0.0
 30
0.0
  9
$PUCSORGBACK
 10
0.0
 20
0.0
 30
0.0
  9
$USERI1
 70
     0
  9
$USERI2
 70
     0
  9
$USERI3
 70
     0
  9
$USERI4
 70
     0
  9
$USERI5
 70
     0
  9
$USERR1
 40
0.0
  9
$USERR2
 40
0.0
  9
$USERR3
 40
0.0
  9
$USERR4
 40
0.0
  9
$USERR5
 40
0.0
  9
$WORLDVIEW
 70
     1
  9
$SHADEDGE
 70
     3
  9
$SHADEDIF
 70
    70
  9
$TILEMODE
 70
     1
  9
$MAXACTVP
 70
    64
  9
$PINSBASE
 10
0.0
 20
0.0
 30
0.0
  9
$PLIMCHECK
 70
     0
  9
$PEXTMIN
 10
1.000000000000000E+20
 20
1.000000000000000E+20
 30
1.000000000000000E+20
  9
$PEXTMAX
 10
-1.000000000000000E+20
 20
-1.000000000000000E+20
 30
-1.000000000000000E+20
  9
$PLIMMIN
 10
0.0
 20
0.0
  9
$PLIMMAX
 10
420.0
 20
297.0
  9
$UNITMODE
 70
     0
  9
$VISRETAIN
 70
     1
  9
$PLINEGEN
 70
     0
  9
$PSLTSCALE
 70
     1
  9
$TREEDEPTH
 70
  3020
  9
$CMLSTYLE
  2
Standard
  9
$CMLJUST
 70
     0
  9
$CMLSCALE
 40
20.0
  9
$PROXYGRAPHICS
 70
     1
  9
$MEASUREMENT
 70
     1
  9
$CELWEIGHT
370
    -1
  9
$ENDCAPS
280
     0
  9
$JOINSTYLE
280
     0
  9
$LWDISPLAY
290
     0
  9
$INSUNITS
 70
     4
  9
$HYPERLINKBASE
  1

  9
$STYLESHEET
  1

  9
$XEDIT
290
     1
  9
$CEPSNTYPE
380
     0
  9
$PSTYLEMODE
290
     1
  9
$FINGERPRINTGUID
  2
{3843586A-EF52-46B7-9DDE-3C3813C16C71}
  9
$VERSIONGUID
  2
{FAEB1C32-E019-11D5-929B-00C0DF256EC4}
  9
$EXTNAMES
290
     1
  9
$PSVPSCALE
 40
0.0
  9
$OLESTARTUP
290
     0
  9
$SORTENTS
280
   127
  9
$INDEXCTL
280
     0
  9
$HIDETEXT
280
     1
  9
$XCLIPFRAME
290
     0
  9
$HALOGAP
280
     0
  9
$OBSCOLOR
 70
   257
  9
$OBSLTYPE
280
     0
  9
$INTERSECTIONDISPLAY
280
     0
  9
$INTERSECTIONCOLOR
 70
   257
  9
$DIMASSOC
280
     2
  9
$PROJECTNAME
  1

  0
ENDSEC
  0
SECTION
  2
CLASSES
  0
CLASS
  1
ACDBDICTIONARYWDFLT
  2
AcDbDictionaryWithDefault
  3
ObjectDBX Classes
 90
        0
 91
        4
280
     0
281
     0
  0
CLASS
  1
VISUALSTYLE
  2
AcDbVisualStyle
  3
ObjectDBX Classes
 90
     4095
 91
        4
280
     0
281
     0
  0
CLASS
  1
MATERIAL
  2
AcDbMaterial
  3
ObjectDBX Classes
 90
     1153
 91
        4
280
     0
281
     0
  0
CLASS
  1
SCALE
  2
AcDbScale
  3
ObjectDBX Classes
 90
     1153
 91
        4
280
     0
281
     0
  0
CLASS
  1
TABLESTYLE
  2
AcDbTableStyle
  3
ObjectDBX Classes
 90
     4095
 91
        4
280
     0
281
     0
  0
CLASS
  1
MLEADERSTYLE
  2
AcDbMLeaderStyle
  3
ACDB_MLEADERSTYLE_CLASS
 90
     4095
 91
        4
280
     0
281
     0
  0
CLASS
  1
SUN
  2
AcDbSun
  3
SCENEOE
 90
     1153
 91
        4
280
     0
281
     0
  0
CLASS
  1
DICTIONARYVAR
  2
AcDbDictionaryVar
  3
ObjectDBX Classes
 90
        0
 91
        4
280
     0
281
     0
  0
CLASS
  1
CELLSTYLEMAP
  2
AcDbCellStyleMap
  3
ObjectDBX Classes
 90
     1152
 91
        4
280
     0
281
     0
  0
ENDSEC
  0
SECTION
  2
TABLES
  0
TABLE
  2
VPORT
  5
8
102
{ACAD_XDICTIONARY
360
389
102
}
330
0
100
AcDbSymbolTable
 70
     1
  0
VPORT
  5
29
330
8
100
AcDbSymbolTableRecord
100
AcDbViewportTableRecord
  2
*Active
 70
     0
 10
0.0
 20
0.0
 11
1.0
 21
1.0
 12
0.0
 22
0.0
 13
0.0
 23
0.0
 14
10.0
 24
10.0
 15
10.0
 25
10.0
 16
0.0
 26
0.0
 36
1.0
 17
0.0
 27
0.0
 37
0.0
 40
3267.0
 41
1.414141414141414
 42
50.0
 43
0.0
 44
0.0
 50
0.0
 51
0.0
 71
     0
 72
 10000
 73
     1
 74
     3
 75
     0
 76
     0
 77
     0
 78
     0
281
     0
 65
     1
110
0.0
120
0.0
130
0.0
111
1.0
121
0.0
131
0.0
112
0.0
122
1.0
132
0.0
 79
     0
146
0.0
  0
ENDTAB
  0
TABLE
  2
LTYPE
  5
5
330
0
100
AcDbSymbolTable
 70
     5
  0
LTYPE
  5
14
330
5
100
AcDbSymbolTableRecord
100
AcDbLinetypeTableRecord
  2
ByBlock
 70
     0
  3

 72
    65
 73
     0
 40
0.0
  0
LTYPE
  5
15
330
5
100
AcDbSymbolTableRecord
100
AcDbLinetypeTableRecord
  2
ByLayer
 70
     0
  3

 72
    65
 73
     0
 40
0.0
  0
LTYPE
  5
16
330
5
100
AcDbSymbolTableRecord
100
AcDbLinetypeTableRecord
  2
Continuous
 70
     0
  3
Solid line
 72
    65
 73
     0
 40
0.0
  0
LTYPE
  5
6F
330
5
100
AcDbSymbolTableRecord
100
AcDbLinetypeTableRecord
  2
JWW_DASHED3
 70
     0
  3
---  ------  ------  ------  ---
 72
    65
 73
     2
 40
3.386666666666667
 49
2.54
 74
     0
 49
-0.8466666666666667
 74
     0
  0
LTYPE
  5
70
330
5
100
AcDbSymbolTableRecord
100
AcDbLinetypeTableRecord
  2
JWW_DASHED2
 70
     0
  3
--    ----    ----    ----    --
 72
    65
 73
     2
 40
3.386666666666667
 49
1.693333333333333
 74
     0
 49
-1.693333333333333
 74
     0
  0
LTYPE
  5
71
330
5
100
AcDbSymbolTableRecord
100
AcDbLinetypeTableRecord
  2
JWW_CENTER2
 70
     0
  3
-------------  --  -------------
 72
    65
 73
     4
 40
13.54666666666667
 49
11.00666666666667
 74
     0
 49
-0.8466666666666667
 74
     0
 49
0.8466666666666667
 74
     0
 49
-0.8466666666666667
 74
     0
  0
LTYPE
  5
72
330
5
100
AcDbSymbolTableRecord
100
AcDbLinetypeTableRecord
  2
JWW_CENTER1
 70
     0
  3
-----  --  ----------  --  -----
 72
    65
 73
     4
 40
6.773333333333333
 49
4.233333333333333
 74
     0
 49
-0.8466666666666667
 74
     0
 49
0.8466666666666667
 74
     0
 49
-0.8466666666666667
 74
     0
  0
ENDTAB
  0
TABLE
  2
LAYER
  5
2
330
0
100
AcDbSymbolTable
 70
    14
  0
LAYER
  5
10
330
2
100
AcDbSymbolTableRecord
100
AcDbLayerTableRecord
  2
0
 70
     0
 62
     7
  6
Continuous
370
    -3
390
F
  0
LAYER
  5
73
330
2
100
AcDbSymbolTableRecord
100
AcDbLayerTableRecord
  2
C-4
 70
     0
 62
     7
  6
Continuous
370
    -3
390
F
  0
LAYER
  5
74
330
2
100
AcDbSymbolTableRecord
100
AcDbLayerTableRecord
  2
C-2
 70
     0
 62
     7
  6
Continuous
370
    -3
390
F
  0
LAYER
  5
75
330
2
100
AcDbSymbolTableRecord
100
AcDbLayerTableRecord
  2
C-1
 70
     0
 62
     7
  6
Continuous
370
    -3
390
F
  0
LAYER
  5
76
330
2
100
AcDbSymbolTableRecord
100
AcDbLayerTableRecord
  2
C-5
 70
     0
 62
     7
  6
Continuous
370
    -3
390
F
  0
LAYER
  5
77
330
2
100
AcDbSymbolTableRecord
100
AcDbLayerTableRecord
  2
C-A
 70
     0
 62
     7
  6
Continuous
370
    -3
390
F
  0
LAYER
  5
78
330
2
100
AcDbSymbolTableRecord
100
AcDbLayerTableRecord
  2
D-2
 70
     0
 62
     7
  6
Continuous
370
    -3
390
F
  0
LAYER
  5
79
330
2
100
AcDbSymbolTableRecord
100
AcDbLayerTableRecord
  2
D-5
 70
     0
 62
     7
  6
Continuous
370
    -3
390
F
  0
LAYER
  5
7A
330
2
100
AcDbSymbolTableRecord
100
AcDbLayerTableRecord
  2
D-1
 70
     0
 62
     7
  6
Continuous
370
    -3
390
F
  0
LAYER
  5
7B
330
2
100
AcDbSymbolTableRecord
100
AcDbLayerTableRecord
  2
D-4
 70
     0
 62
     7
  6
Continuous
370
    -3
390
F
  0
LAYER
  5
7C
330
2
100
AcDbSymbolTableRecord
100
AcDbLayerTableRecord
  2
D-6
 70
     0
 62
     7
  6
Continuous
370
    -3
390
F
  0
LAYER
  5
7D
330
2
100
AcDbSymbolTableRecord
100
AcDbLayerTableRecord
  2
D-0
 70
     0
 62
     7
  6
Continuous
370
    -3
390
F
  0
LAYER
  5
7E
330
2
100
AcDbSymbolTableRecord
100
AcDbLayerTableRecord
  2
D-9
 70
     0
 62
     7
  6
Continuous
370
    -3
390
F
  0
LAYER
  5
7F
330
2
100
AcDbSymbolTableRecord
100
AcDbLayerTableRecord
  2
F-5ﾚｲﾔ
 70
     0
 62
     7
  6
Continuous
370
    -3
390
F
  0
ENDTAB
  0
TABLE
  2
STYLE
  5
3
330
0
100
AcDbSymbolTable
 70
     2
  0
STYLE
  5
11
330
3
100
AcDbSymbolTableRecord
100
AcDbTextStyleTableRecord
  2
Standard
 70
     0
 40
0.0
 41
1.0
 50
0.0
 71
     0
 42
2.5
  3
txt
  4

  0
STYLE
  5
6E
330
3
100
AcDbSymbolTableRecord
100
AcDbTextStyleTableRecord
  2
ＭＳ ゴシック
 70
     0
 40
1.0
 41
1.0
 50
0.0
 71
     0
 42
2.5
  3

  4

1001
ACAD
1000
MS Gothic
1071
    32817
  0
ENDTAB
  0
TABLE
  2
VIEW
  5
6
330
0
100
AcDbSymbolTable
 70
     0
  0
ENDTAB
  0
TABLE
  2
UCS
  5
7
330
0
100
AcDbSymbolTable
 70
     0
  0
ENDTAB
  0
TABLE
  2
APPID
  5
9
330
0
100
AcDbSymbolTable
 70
     2
  0
APPID
  5
12
330
9
100
AcDbSymbolTableRecord
100
AcDbRegAppTableRecord
  2
ACAD
 70
     0
  0
APPID
  5
3C8
330
9
100
AcDbSymbolTableRecord
100
AcDbRegAppTableRecord
  2
ACAD_MLEADERVER
 70
     0
  0
ENDTAB
  0
TABLE
  2
DIMSTYLE
  5
A
330
0
100
AcDbSymbolTable
 70
     1
100
AcDbDimStyleTable
  0
DIMSTYLE
105
27
330
A
100
AcDbSymbolTableRecord
100
AcDbDimStyleTableRecord
  2
ISO-25
 70
     0
 41
2.5
 42
0.625
 43
3.75
 44
1.25
 73
     0
 74
     0
 77
     1
 78
     8
140
2.5
141
2.5
143
0.03937007874016
147
0.625
171
     3
172
     1
178
     0
271
     2
272
     2
274
     3
278
    44
283
     0
284
     8
340
11
  0
ENDTAB
  0
TABLE
  2
BLOCK_RECORD
  5
1
330
0
100
AcDbSymbolTable
 70
     1
  0
BLOCK_RECORD
  5
1F
330
1
100
AcDbSymbolTableRecord
100
AcDbBlockTableRecord
  2
*Model_Space
340
22
  0
BLOCK_RECORD
  5
1B
330
1
100
AcDbSymbolTableRecord
100
AcDbBlockTableRecord
  2
*Paper_Space
340
1E
  0
BLOCK_RECORD
  5
23
330
1
100
AcDbSymbolTableRecord
100
AcDbBlockTableRecord
  2
*Paper_Space0
340
26
  0
ENDTAB
  0
ENDSEC
  0
SECTION
  2
BLOCKS
  0
BLOCK
  5
20
330
1F
100
AcDbEntity
  8
0
100
AcDbBlockBegin
  2
*Model_Space
 70
     0
 10
0.0
 20
0.0
 30
0.0
  3
*Model_Space
  1

  0
ENDBLK
  5
21
330
1F
100
AcDbEntity
  8
0
100
AcDbBlockEnd
  0
BLOCK
  5
1C
330
1B
100
AcDbEntity
 67
     1
  8
0
100
AcDbBlockBegin
  2
*Paper_Space
 70
     0
 10
0.0
 20
0.0
 30
0.0
  3
*Paper_Space
  1

  0
ENDBLK
  5
1D
330
1B
100
AcDbEntity
 67
     1
  8
0
100
AcDbBlockEnd
  0
BLOCK
  5
24
330
23
100
AcDbEntity
  8
0
100
AcDbBlockBegin
  2
*Paper_Space0
 70
     0
 10
0.0
 20
0.0
 30
0.0
  3
*Paper_Space0
  1

  0
ENDBLK
  5
25
330
23
100
AcDbEntity
  8
0
100
AcDbBlockEnd
  0
ENDSEC
  0
SECTION
  2
ENTITIES
  0
LWPOLYLINE
  5
80
330
1F
100
AcDbEntity
  8
C-4
  6
Continuous
 62
     7
370
     9
100
AcDbPolyline
 90
        4
 70
     1
 43
2.0
 10
-496.78397018845
 20
1011.459466057855
 42
0.4142135623731
 10
-497.78397018845
 20
1012.459466057855
 42
0.4142135623731
 10
-498.78397018845
 20
1011.459466057855
 42
0.4142135623731
 10
-497.78397018845
 20
1010.459466057855
 42
0.4142135623731
  0
LWPOLYLINE
  5
81
330
1F
100
AcDbEntity
  8
C-4
  6
Continuous
 62
     7
370
     9
100
AcDbPolyline
 90
        4
 70
     1
 43
2.0
 10
-494.783419222445
 20
1011.459466057855
 42
0.4142135623731
 10
-495.783419222445
 20
1012.459466057855
 42
0.4142135623731
 10
-496.783419222445
 20
1011.459466057855
 42
0.4142135623731
 10
-495.783419222445
 20
1010.459466057855
 42
0.4142135623731
  0
LWPOLYLINE
  5
82
330
1F
100
AcDbEntity
  8
C-4
  6
Continuous
 62
     7
370
     9
100
AcDbPolyline
 90
        4
 70
     1
 43
2.0
 10
499.2166187183276
 20
1011.459466057855
 42
0.4142135623731
 10
498.2166187183276
 20
1012.459466057855
 42
0.4142135623731
 10
497.2166187183276
 20
1011.459466057855
 42
0.4142135623731
 10
498.2166187183276
 20
1010.459466057855
 42
0.4142135623731
  0
LWPOLYLINE
  5
83
330
1F
100
AcDbEntity
  8
C-4
  6
Continuous
 62
     7
370
     9
100
AcDbPolyline
 90
        4
 70
     1
 43
2.0
 10
501.2161799250422
 20
1011.459466057855
 42
0.4142135623731
 10
500.2161799250422
 20
1012.459466057855
 42
0.4142135623731
 10
499.2161799250422
 20
1011.459466057855
 42
0.4142135623731
 10
500.2161799250422
 20
1010.459466057855
 42
0.4142135623731
  0
LWPOLYLINE
  5
84
330
1F
100
AcDbEntity
  8
C-4
  6
Continuous
 62
     7
370
     9
100
AcDbPolyline
 90
        4
 70
     1
 43
2.0
 10
-494.783419222445
 20
1091.458987674198
 42
0.4142135623731
 10
-495.783419222445
 20
1092.458987674198
 42
0.4142135623731
 10
-496.783419222445
 20
1091.458987674198
 42
0.4142135623731
 10
-495.783419222445
 20
1090.458987674198
 42
0.4142135623731
  0
LWPOLYLINE
  5
85
330
1F
100
AcDbEntity
  8
C-4
  6
Continuous
 62
     7
370
     9
100
AcDbPolyline
 90
        4
 70
     1
 43
2.0
 10
501.2161799250422
 20
1091.458987674198
 42
0.4142135623731
 10
500.2161799250422
 20
1092.458987674198
 42
0.4142135623731
 10
499.2161799250422
 20
1091.458987674198
 42
0.4142135623731
 10
500.2161799250422
 20
1090.458987674198
 42
0.4142135623731
  0
LWPOLYLINE
  5
86
330
1F
100
AcDbEntity
  8
C-4
  6
Continuous
 62
     7
370
     9
100
AcDbPolyline
 90
        4
 70
     1
 43
2.0
 10
347.2173049514359
 20
949.46044921875
 42
0.4142135623731
 10
346.2173049514359
 20
950.46044921875
 42
0.4142135623731
 10
345.2173049514359
 20
949.46044921875
 42
0.4142135623731
 10
346.2173049514359
 20
948.46044921875
 42
0.4142135623731
  0
LWPOLYLINE
  5
87
330
1F
100
AcDbEntity
  8
C-4
  6
Continuous
 62
     7
370
     9
100
AcDbPolyline
 90
        4
 70
     1
 43
2.0
 10
377.2164141680745
 20
949.46044921875
 42
0.4142135623731
 10
376.2164141680745
 20
950.46044921875
 42
0.4142135623731
 10
375.2164141680745
 20
949.46044921875
 42
0.4142135623731
 10
376.2164141680745
 20
948.46044921875
 42
0.4142135623731
  0
LINE
  5
88
330
1F
100
AcDbEntity
  8
C-2
  6
Continuous
 62
     3
370
     9
100
AcDbLine
 10
-495.783419222445
 20
464.4588491078972
 30
0.0
 11
-495.783419222445
 21
914.4586016680745
 31
0.0
  0
LINE
  5
89
330
1F
100
AcDbEntity
  8
C-2
  6
Continuous
 62
     3
370
     9
100
AcDbLine
 10
-495.783419222445
 20
914.4586016680745
 30
0.0
 11
498.2166187183276
 21
914.4586016680745
 31
0.0
  0
LINE
  5
8A
330
1F
100
AcDbEntity
  8
C-2
  6
Continuous
 62
     3
370
     9
100
AcDbLine
 10
498.2166187183276
 20
464.4588491078972
 30
0.0
 11
-495.783419222445
 21
464.4588491078972
 31
0.0
  0
LINE
  5
8B
330
1F
100
AcDbEntity
  8
C-2
  6
Continuous
 62
     3
370
     9
100
AcDbLine
 10
498.2166187183276
 20
914.4586016680745
 30
0.0
 11
498.2166187183276
 21
464.4588491078972
 31
0.0
  0
LINE
  5
8C
330
1F
100
AcDbEntity
  8
C-2
  6
Continuous
 62
     3
370
     9
100
AcDbLine
 10
-497.78397018845
 20
914.4586016680745
 30
0.0
 11
-497.78397018845
 21
464.4593439875425
 31
0.0
  0
LINE
  5
8D
330
1F
100
AcDbEntity
  8
C-2
  6
Continuous
 62
     3
370
     9
100
AcDbLine
 10
500.2161799250422
 20
914.4595914273651
 30
0.0
 11
500.2161799250422
 21
464.4593439875425
 31
0.0
  0
LINE
  5
8E
330
1F
100
AcDbEntity
  8
C-2
  6
Continuous
 62
     3
370
     9
100
AcDbLine
 10
-497.78397018845
 20
914.4586016680745
 30
0.0
 11
-646.783447265625
 21
914.4586016680745
 31
0.0
  0
LINE
  5
8F
330
1F
100
AcDbEntity
  8
C-2
  6
Continuous
 62
     3
370
     9
100
AcDbLine
 10
-497.78397018845
 20
464.4593439875425
 30
0.0
 11
-646.783447265625
 21
464.4593439875425
 31
0.0
  0
LINE
  5
90
330
1F
100
AcDbEntity
  8
C-2
  6
Continuous
 62
     3
370
     9
100
AcDbLine
 10
658.2156619510135
 20
914.4595914273651
 30
0.0
 11
500.2161799250422
 21
914.4595914273651
 31
0.0
  0
LINE
  5
91
330
1F
100
AcDbEntity
  8
C-2
  6
Continuous
 62
     3
370
     9
100
AcDbLine
 10
658.2156619510135
 20
464.4593439875425
 30
0.0
 11
500.2161799250422
 21
464.4593439875425
 31
0.0
  0
LINE
  5
92
330
1F
100
AcDbEntity
  8
C-1
  6
JWW_DASHED3
 62
     2
370
     9
100
AcDbLine
 10
658.2156619510135
 20
489.4596739073057
 30
0.0
 11
-646.783447265625
 21
489.4591790276607
 31
0.0
  0
LINE
  5
93
330
1F
100
AcDbEntity
  8
C-1
  6
JWW_DASHED3
 62
     2
370
     9
100
AcDbLine
 10
658.2156619510135
 20
889.4592615076016
 30
0.0
 11
-646.783447265625
 21
889.4592615076016
 31
0.0
  0
LINE
  5
94
330
1F
100
AcDbEntity
  8
C-1
  6
Continuous
 62
     2
370
     9
100
AcDbLine
 10
658.2156619510135
 20
916.4594000739021
 30
0.0
 11
-646.783447265625
 21
916.4594000739021
 31
0.0
  0
LINE
  5
95
330
1F
100
AcDbEntity
  8
C-1
  6
Continuous
 62
     2
370
     9
100
AcDbLine
 10
658.2156619510135
 20
919.4598553631758
 30
0.0
 11
-646.783447265625
 21
919.4598553631758
 31
0.0
  0
LINE
  5
96
330
1F
100
AcDbEntity
  8
C-1
  6
Continuous
 62
     2
370
     9
100
AcDbLine
 10
658.2156619510135
 20
462.4596590609164
 30
0.0
 11
-646.783447265625
 21
462.4591641812711
 31
0.0
  0
LINE
  5
97
330
1F
100
AcDbEntity
  8
C-1
  6
Continuous
 62
     2
370
     9
100
AcDbLine
 10
658.2156619510135
 20
459.4595749313768
 30
0.0
 11
-646.783447265625
 21
459.4590800517315
 31
0.0
  0
LINE
  5
98
330
1F
100
AcDbEntity
  8
C-2
  6
Continuous
 62
     3
370
     9
100
AcDbLine
 10
-666.7831420898438
 20
674.4592944995779
 30
0.0
 11
-626.7828864020269
 21
704.4598883551521
 31
0.0
  0
LINE
  5
99
330
1F
100
AcDbEntity
  8
C-2
  6
Continuous
 62
     3
370
     9
100
AcDbLine
 10
-666.7831420898438
 20
674.4592944995779
 30
0.0
 11
-646.783447265625
 21
674.4592944995779
 31
0.0
  0
LINE
  5
9A
330
1F
100
AcDbEntity
  8
C-2
  6
Continuous
 62
     3
370
     9
100
AcDbLine
 10
-646.783447265625
 20
704.4598883551521
 30
0.0
 11
-626.7828864020269
 21
704.4598883551521
 31
0.0
  0
LINE
  5
9B
330
1F
100
AcDbEntity
  8
C-2
  6
Continuous
 62
     3
370
     9
100
AcDbLine
 10
-646.783447265625
 20
674.4592944995779
 30
0.0
 11
-646.783447265625
 21
444.4592780035896
 31
0.0
  0
LINE
  5
9C
330
1F
100
AcDbEntity
  8
C-2
  6
Continuous
 62
     3
370
     9
100
AcDbLine
 10
-646.783447265625
 20
934.4596574113177
 30
0.0
 11
-646.783447265625
 21
704.4598883551521
 31
0.0
  0
LINE
  5
9D
330
1F
100
AcDbEntity
  8
C-2
  6
Continuous
 62
     3
370
     9
100
AcDbLine
 10
638.2160908467063
 20
674.4592944995779
 30
0.0
 11
678.2164702544344
 21
704.4598883551521
 31
0.0
  0
LINE
  5
9E
330
1F
100
AcDbEntity
  8
C-2
  6
Continuous
 62
     3
370
     9
100
AcDbLine
 10
638.2160908467063
 20
674.4592944995779
 30
0.0
 11
658.2156619510135
 21
674.4592944995779
 31
0.0
  0
LINE
  5
9F
330
1F
100
AcDbEntity
  8
C-2
  6
Continuous
 62
     3
370
     9
100
AcDbLine
 10
658.2156619510135
 20
704.4598883551521
 30
0.0
 11
678.2164702544344
 21
704.4598883551521
 31
0.0
  0
LINE
  5
A0
330
1F
100
AcDbEntity
  8
C-2
  6
Continuous
 62
     3
370
     9
100
AcDbLine
 10
658.2156619510135
 20
674.4592944995779
 30
0.0
 11
658.2156619510135
 21
444.4592780035896
 31
0.0
  0
LINE
  5
A1
330
1F
100
AcDbEntity
  8
C-2
  6
Continuous
 62
     3
370
     9
100
AcDbLine
 10
658.2156619510135
 20
934.4596574113177
 30
0.0
 11
658.2156619510135
 21
704.4598883551521
 31
0.0
  0
LINE
  5
A2
330
1F
100
AcDbEntity
  8
C-4
  6
Continuous
 62
     7
370
     9
100
AcDbLine
 10
-497.78397018845
 20
931.459202122044
 30
0.0
 11
-497.78397018845
 21
1014.459179027661
 31
0.0
  0
LINE
  5
A3
330
1F
100
AcDbEntity
  8
C-4
  6
Continuous
 62
     7
370
     9
100
AcDbLine
 10
-495.783419222445
 20
931.459202122044
 30
0.0
 11
-495.783419222445
 21
1094.459690403294
 31
0.0
  0
LINE
  5
A4
330
1F
100
AcDbEntity
  8
C-4
  6
Continuous
 62
     7
370
     9
100
AcDbLine
 10
498.2166187183276
 20
931.459202122044
 30
0.0
 11
498.2166187183276
 21
1014.459179027661
 31
0.0
  0
LINE
  5
A5
330
1F
100
AcDbEntity
  8
C-4
  6
Continuous
 62
     7
370
     9
100
AcDbLine
 10
500.2161799250422
 20
931.459202122044
 30
0.0
 11
500.2161799250422
 21
1094.459690403294
 31
0.0
  0
LINE
  5
A6
330
1F
100
AcDbEntity
  8
C-4
  6
Continuous
 62
     7
370
     9
100
AcDbLine
 10
-646.783447265625
 20
1091.458987674198
 30
0.0
 11
658.2156619510135
 21
1091.458987674198
 31
0.0
  0
LINE
  5
A7
330
1F
100
AcDbEntity
  8
C-4
  6
Continuous
 62
     7
370
     9
100
AcDbLine
 10
-646.783447265625
 20
1011.459466057855
 30
0.0
 11
658.2156619510135
 21
1011.459466057855
 31
0.0
  0
LINE
  5
A8
330
1F
100
AcDbEntity
  8
C-2
  6
Continuous
 62
     3
370
     9
100
AcDbLine
 10
-495.783419222445
 20
910.4587369351776
 30
0.0
 11
498.2166187183276
 21
910.4587369351776
 31
0.0
  0
LINE
  5
A9
330
1F
100
AcDbEntity
  8
C-2
  6
Continuous
 62
     3
370
     9
100
AcDbLine
 10
498.2166187183276
 20
468.458713840794
 30
0.0
 11
-495.783419222445
 21
468.458713840794
 31
0.0
  0
LINE
  5
AA
330
1F
100
AcDbEntity
  8
C-2
  6
Continuous
 62
     3
370
     9
100
AcDbLine
 10
-491.7835544895482
 20
468.458713840794
 30
0.0
 11
-491.7835544895482
 21
910.4587369351776
 31
0.0
  0
LINE
  5
AB
330
1F
100
AcDbEntity
  8
C-2
  6
Continuous
 62
     3
370
     9
100
AcDbLine
 10
-461.783455513619
 20
468.458713840794
 30
0.0
 11
-461.783455513619
 21
910.4587369351776
 31
0.0
  0
LINE
  5
AC
330
1F
100
AcDbEntity
  8
C-2
  6
Continuous
 62
     3
370
     9
100
AcDbLine
 10
-465.7838151261612
 20
468.458713840794
 30
0.0
 11
-465.7838151261612
 21
910.4587369351776
 31
0.0
  0
LINE
  5
AD
330
1F
100
AcDbEntity
  8
C-2
  6
Continuous
 62
     3
370
     9
100
AcDbLine
 10
-491.7835544895482
 20
837.9591163429054
 30
0.0
 11
-465.7838151261612
 21
837.9591163429054
 31
0.0
  0
LINE
  5
AE
330
1F
100
AcDbEntity
  8
C-2
  6
Continuous
 62
     3
370
     9
100
AcDbLine
 10
-491.7835544895482
 20
840.9585818728885
 30
0.0
 11
-465.7838151261612
 21
840.9585818728885
 31
0.0
  0
LINE
  5
AF
330
1F
100
AcDbEntity
  8
C-2
  6
Continuous
 62
     3
370
     9
100
AcDbLine
 10
-491.7835544895482
 20
740.9589942725929
 30
0.0
 11
-465.7838151261612
 21
740.9589942725929
 31
0.0
  0
LINE
  5
B0
330
1F
100
AcDbEntity
  8
C-2
  6
Continuous
 62
     3
370
     9
100
AcDbLine
 10
-491.7835544895482
 20
737.9590338629646
 30
0.0
 11
-465.7838151261612
 21
737.9590338629646
 31
0.0
  0
LINE
  5
B1
330
1F
100
AcDbEntity
  8
C-2
  6
Continuous
 62
     3
370
     9
100
AcDbLine
 10
-431.783727697424
 20
468.458713840794
 30
0.0
 11
-431.783727697424
 21
910.4587369351776
 31
0.0
  0
LINE
  5
B2
330
1F
100
AcDbEntity
  8
C-2
  6
Continuous
 62
     3
370
     9
100
AcDbLine
 10
-435.7837161502323
 20
468.458713840794
 30
0.0
 11
-435.7837161502323
 21
910.4587369351776
 31
0.0
  0
LINE
  5
B3
330
1F
100
AcDbEntity
  8
C-2
  6
Continuous
 62
     3
370
     9
100
AcDbLine
 10
-461.783455513619
 20
837.9591163429054
 30
0.0
 11
-435.7837161502323
 21
837.9591163429054
 31
0.0
  0
LINE
  5
B4
330
1F
100
AcDbEntity
  8
C-2
  6
Continuous
 62
     3
370
     9
100
AcDbLine
 10
-461.783455513619
 20
840.9585818728885
 30
0.0
 11
-435.7837161502323
 21
840.9585818728885
 31
0.0
  0
LINE
  5
B5
330
1F
100
AcDbEntity
  8
C-2
  6
Continuous
 62
     3
370
     9
100
AcDbLine
 10
-461.783455513619
 20
740.9589942725929
 30
0.0
 11
-435.7837161502323
 21
740.9589942725929
 31
0.0
  0
LINE
  5
B6
330
1F
100
AcDbEntity
  8
C-2
  6
Continuous
 62
     3
370
     9
100
AcDbLine
 10
-461.783455513619
 20
737.9590338629646
 30
0.0
 11
-435.7837161502323
 21
737.9590338629646
 31
0.0
  0
LINE
  5
B7
330
1F
100
AcDbEntity
  8
C-2
  6
Continuous
 62
     3
370
     9
100
AcDbLine
 10
-401.7836287214948
 20
468.458713840794
 30
0.0
 11
-401.7836287214948
 21
910.4587369351776
 31
0.0
  0
LINE
  5
B8
330
1F
100
AcDbEntity
  8
C-2
  6
Continuous
 62
     3
370
     9
100
AcDbLine
 10
-405.7834934543919
 20
468.458713840794
 30
0.0
 11
-405.7834934543919
 21
910.4587369351776
 31
0.0
  0
LINE
  5
B9
330
1F
100
AcDbEntity
  8
C-2
  6
Continuous
 62
     3
370
     9
100
AcDbLine
 10
-431.783727697424
 20
837.9591163429054
 30
0.0
 11
-405.7834934543919
 21
837.9591163429054
 31
0.0
  0
LINE
  5
BA
330
1F
100
AcDbEntity
  8
C-2
  6
Continuous
 62
     3
370
     9
100
AcDbLine
 10
-431.783727697424
 20
840.9585818728885
 30
0.0
 11
-405.7834934543919
 21
840.9585818728885
 31
0.0
  0
LINE
  5
BB
330
1F
100
AcDbEntity
  8
C-2
  6
Continuous
 62
     3
370
     9
100
AcDbLine
 10
-431.783727697424
 20
740.9589942725929
 30
0.0
 11
-405.7834934543919
 21
740.9589942725929
 31
0.0
  0
LINE
  5
BC
330
1F
100
AcDbEntity
  8
C-2
  6
Continuous
 62
     3
370
     9
100
AcDbLine
 10
-431.783727697424
 20
737.9590338629646
 30
0.0
 11
-405.7834934543919
 21
737.9590338629646
 31
0.0
  0
LINE
  5
BD
330
1F
100
AcDbEntity
  8
C-2
  6
Continuous
 62
     3
370
     9
100
AcDbLine
 10
-371.7835297455659
 20
468.458713840794
 30
0.0
 11
-371.7835297455659
 21
910.4587369351776
 31
0.0
  0
LINE
  5
BE
330
1F
100
AcDbEntity
  8
C-2
  6
Continuous
 62
     3
370
     9
100
AcDbLine
 10
-375.7833944784628
 20
468.458713840794
 30
0.0
 11
-375.7833944784628
 21
910.4587369351776
 31
0.0
  0
LINE
  5
BF
330
1F
100
AcDbEntity
  8
C-2
  6
Continuous
 62
     3
370
     9
100
AcDbLine
 10
-401.7836287214948
 20
837.9591163429054
 30
0.0
 11
-375.7833944784628
 21
837.9591163429054
 31
0.0
  0
LINE
  5
C0
330
1F
100
AcDbEntity
  8
C-2
  6
Continuous
 62
     3
370
     9
100
AcDbLine
 10
-401.7836287214948
 20
840.9585818728885
 30
0.0
 11
-375.7833944784628
 21
840.9585818728885
 31
0.0
  0
LINE
  5
C1
330
1F
100
AcDbEntity
  8
C-2
  6
Continuous
 62
     3
370
     9
100
AcDbLine
 10
-401.7836287214948
 20
740.9589942725929
 30
0.0
 11
-375.7833944784628
 21
740.9589942725929
 31
0.0
  0
LINE
  5
C2
330
1F
100
AcDbEntity
  8
C-2
  6
Continuous
 62
     3
370
     9
100
AcDbLine
 10
-401.7836287214948
 20
737.9590338629646
 30
0.0
 11
-375.7833944784628
 21
737.9590338629646
 31
0.0
  0
LINE
  5
C3
330
1F
100
AcDbEntity
  8
C-2
  6
Continuous
 62
     3
370
     9
100
AcDbLine
 10
-341.7838019293706
 20
468.458713840794
 30
0.0
 11
-341.7838019293706
 21
910.4587369351776
 31
0.0
  0
LINE
  5
C4
330
1F
100
AcDbEntity
  8
C-2
  6
Continuous
 62
     3
370
     9
100
AcDbLine
 10
-345.7837903821789
 20
468.458713840794
 30
0.0
 11
-345.7837903821789
 21
910.4587369351776
 31
0.0
  0
LINE
  5
C5
330
1F
100
AcDbEntity
  8
C-2
  6
Continuous
 62
     3
370
     9
100
AcDbLine
 10
-371.7835297455659
 20
837.9591163429054
 30
0.0
 11
-345.7837903821789
 21
837.9591163429054
 31
0.0
  0
LINE
  5
C6
330
1F
100
AcDbEntity
  8
C-2
  6
Continuous
 62
     3
370
     9
100
AcDbLine
 10
-371.7835297455659
 20
840.9585818728885
 30
0.0
 11
-345.7837903821789
 21
840.9585818728885
 31
0.0
  0
LINE
  5
C7
330
1F
100
AcDbEntity
  8
C-2
  6
Continuous
 62
     3
370
     9
100
AcDbLine
 10
-371.7835297455659
 20
740.9589942725929
 30
0.0
 11
-345.7837903821789
 21
740.9589942725929
 31
0.0
  0
LINE
  5
C8
330
1F
100
AcDbEntity
  8
C-2
  6
Continuous
 62
     3
370
     9
100
AcDbLine
 10
-371.7835297455659
 20
737.9590338629646
 30
0.0
 11
-345.7837903821789
 21
737.9590338629646
 31
0.0
  0
LINE
  5
C9
330
1F
100
AcDbEntity
  8
C-2
  6
Continuous
 62
     3
370
     9
100
AcDbLine
 10
-311.7837029534417
 20
468.458713840794
 30
0.0
 11
-311.7837029534417
 21
910.4587369351776
 31
0.0
  0
LINE
  5
CA
330
1F
100
AcDbEntity
  8
C-2
  6
Continuous
 62
     3
370
     9
100
AcDbLine
 10
-315.78369140625
 20
468.458713840794
 30
0.0
 11
-315.78369140625
 21
910.4587369351776
 31
0.0
  0
LINE
  5
CB
330
1F
100
AcDbEntity
  8
C-2
  6
Continuous
 62
     3
370
     9
100
AcDbLine
 10
-341.7838019293706
 20
837.9591163429054
 30
0.0
 11
-315.78369140625
 21
837.9591163429054
 31
0.0
  0
LINE
  5
CC
330
1F
100
AcDbEntity
  8
C-2
  6
Continuous
 62
     3
370
     9
100
AcDbLine
 10
-341.7838019293706
 20
840.9585818728885
 30
0.0
 11
-315.78369140625
 21
840.9585818728885
 31
0.0
  0
LINE
  5
CD
330
1F
100
AcDbEntity
  8
C-2
  6
Continuous
 62
     3
370
     9
100
AcDbLine
 10
-341.7838019293706
 20
740.9589942725929
 30
0.0
 11
-315.78369140625
 21
740.9589942725929
 31
0.0
  0
LINE
  5
CE
330
1F
100
AcDbEntity
  8
C-2
  6
Continuous
 62
     3
370
     9
100
AcDbLine
 10
-341.7838019293706
 20
737.9590338629646
 30
0.0
 11
-315.78369140625
 21
737.9590338629646
 31
0.0
  0
LINE
  5
CF
330
1F
100
AcDbEntity
  8
C-2
  6
Continuous
 62
     3
370
     9
100
AcDbLine
 10
-281.7836039775125
 20
468.458713840794
 30
0.0
 11
-281.7836039775125
 21
910.4587369351776
 31
0.0
  0
LINE
  5
D0
330
1F
100
AcDbEntity
  8
C-2
  6
Continuous
 62
     3
370
     9
100
AcDbLine
 10
-285.7834687104096
 20
468.458713840794
 30
0.0
 11
-285.7834687104096
 21
910.4587369351776
 31
0.0
  0
LINE
  5
D1
330
1F
100
AcDbEntity
  8
C-2
  6
Continuous
 62
     3
370
     9
100
AcDbLine
 10
-311.7837029534417
 20
837.9591163429054
 30
0.0
 11
-285.7834687104096
 21
837.9591163429054
 31
0.0
  0
LINE
  5
D2
330
1F
100
AcDbEntity
  8
C-2
  6
Continuous
 62
     3
370
     9
100
AcDbLine
 10
-311.7837029534417
 20
840.9585818728885
 30
0.0
 11
-285.7834687104096
 21
840.9585818728885
 31
0.0
  0
LINE
  5
D3
330
1F
100
AcDbEntity
  8
C-2
  6
Continuous
 62
     3
370
     9
100
AcDbLine
 10
-311.7837029534417
 20
740.9589942725929
 30
0.0
 11
-285.7834687104096
 21
740.9589942725929
 31
0.0
  0
LINE
  5
D4
330
1F
100
AcDbEntity
  8
C-2
  6
Continuous
 62
     3
370
     9
100
AcDbLine
 10
-311.7837029534417
 20
737.9590338629646
 30
0.0
 11
-285.7834687104096
 21
737.9590338629646
 31
0.0
  0
LINE
  5
D5
330
1F
100
AcDbEntity
  8
C-2
  6
Continuous
 62
     3
370
     9
100
AcDbLine
 10
-251.7833812816721
 20
468.458713840794
 30
0.0
 11
-251.7833812816721
 21
910.4587369351776
 31
0.0
  0
LINE
  5
D6
330
1F
100
AcDbEntity
  8
C-2
  6
Continuous
 62
     3
370
     9
100
AcDbLine
 10
-255.7833697344805
 20
468.458713840794
 30
0.0
 11
-255.7833697344805
 21
910.4587369351776
 31
0.0
  0
LINE
  5
D7
330
1F
100
AcDbEntity
  8
C-2
  6
Continuous
 62
     3
370
     9
100
AcDbLine
 10
-281.7836039775125
 20
837.9591163429054
 30
0.0
 11
-255.7833697344805
 21
837.9591163429054
 31
0.0
  0
LINE
  5
D8
330
1F
100
AcDbEntity
  8
C-2
  6
Continuous
 62
     3
370
     9
100
AcDbLine
 10
-281.7836039775125
 20
840.9585818728885
 30
0.0
 11
-255.7833697344805
 21
840.9585818728885
 31
0.0
  0
LINE
  5
D9
330
1F
100
AcDbEntity
  8
C-2
  6
Continuous
 62
     3
370
     9
100
AcDbLine
 10
-281.7836039775125
 20
740.9589942725929
 30
0.0
 11
-255.7833697344805
 21
740.9589942725929
 31
0.0
  0
LINE
  5
DA
330
1F
100
AcDbEntity
  8
C-2
  6
Continuous
 62
     3
370
     9
100
AcDbLine
 10
-281.7836039775125
 20
737.9590338629646
 30
0.0
 11
-255.7833697344805
 21
737.9590338629646
 31
0.0
  0
LINE
  5
DB
330
1F
100
AcDbEntity
  8
C-2
  6
Continuous
 62
     3
370
     9
100
AcDbLine
 10
-221.7832823057432
 20
468.458713840794
 30
0.0
 11
-221.7832823057432
 21
910.4587369351776
 31
0.0
  0
LINE
  5
DC
330
1F
100
AcDbEntity
  8
C-2
  6
Continuous
 62
     3
370
     9
100
AcDbLine
 10
-225.7837656381966
 20
468.458713840794
 30
0.0
 11
-225.7837656381966
 21
910.4587369351776
 31
0.0
  0
LINE
  5
DD
330
1F
100
AcDbEntity
  8
C-2
  6
Continuous
 62
     3
370
     9
100
AcDbLine
 10
-251.7833812816721
 20
837.9591163429054
 30
0.0
 11
-225.7837656381966
 21
837.9591163429054
 31
0.0
  0
LINE
  5
DE
330
1F
100
AcDbEntity
  8
C-2
  6
Continuous
 62
     3
370
     9
100
AcDbLine
 10
-251.7833812816721
 20
840.9585818728885
 30
0.0
 11
-225.7837656381966
 21
840.9585818728885
 31
0.0
  0
LINE
  5
DF
330
1F
100
AcDbEntity
  8
C-2
  6
Continuous
 62
     3
370
     9
100
AcDbLine
 10
-251.7833812816721
 20
740.9589942725929
 30
0.0
 11
-225.7837656381966
 21
740.9589942725929
 31
0.0
  0
LINE
  5
E0
330
1F
100
AcDbEntity
  8
C-2
  6
Continuous
 62
     3
370
     9
100
AcDbLine
 10
-251.7833812816721
 20
737.9590338629646
 30
0.0
 11
-225.7837656381966
 21
737.9590338629646
 31
0.0
  0
LINE
  5
E1
330
1F
100
AcDbEntity
  8
C-2
  6
Continuous
 62
     3
370
     9
100
AcDbLine
 10
-191.7836782094594
 20
468.458713840794
 30
0.0
 11
-191.7836782094594
 21
910.4587369351776
 31
0.0
  0
LINE
  5
E2
330
1F
100
AcDbEntity
  8
C-2
  6
Continuous
 62
     3
370
     9
100
AcDbLine
 10
-195.7835429423562
 20
468.458713840794
 30
0.0
 11
-195.7835429423562
 21
910.4587369351776
 31
0.0
  0
LINE
  5
E3
330
1F
100
AcDbEntity
  8
C-2
  6
Continuous
 62
     3
370
     9
100
AcDbLine
 10
-221.7832823057432
 20
837.9591163429054
 30
0.0
 11
-195.7835429423562
 21
837.9591163429054
 31
0.0
  0
LINE
  5
E4
330
1F
100
AcDbEntity
  8
C-2
  6
Continuous
 62
     3
370
     9
100
AcDbLine
 10
-221.7832823057432
 20
840.9585818728885
 30
0.0
 11
-195.7835429423562
 21
840.9585818728885
 31
0.0
  0
LINE
  5
E5
330
1F
100
AcDbEntity
  8
C-2
  6
Continuous
 62
     3
370
     9
100
AcDbLine
 10
-221.7832823057432
 20
740.9589942725929
 30
0.0
 11
-195.7835429423562
 21
740.9589942725929
 31
0.0
  0
LINE
  5
E6
330
1F
100
AcDbEntity
  8
C-2
  6
Continuous
 62
     3
370
     9
100
AcDbLine
 10
-221.7832823057432
 20
737.9590338629646
 30
0.0
 11
-195.7835429423562
 21
737.9590338629646
 31
0.0
  0
LINE
  5
E7
330
1F
100
AcDbEntity
  8
C-2
  6
Continuous
 62
     3
370
     9
100
AcDbLine
 10
-161.7835792335302
 20
468.458713840794
 30
0.0
 11
-161.7835792335302
 21
910.4587369351776
 31
0.0
  0
LINE
  5
E8
330
1F
100
AcDbEntity
  8
C-2
  6
Continuous
 62
     3
370
     9
100
AcDbLine
 10
-165.7834439664273
 20
468.458713840794
 30
0.0
 11
-165.7834439664273
 21
910.4587369351776
 31
0.0
  0
LINE
  5
E9
330
1F
100
AcDbEntity
  8
C-2
  6
Continuous
 62
     3
370
     9
100
AcDbLine
 10
-191.7836782094594
 20
837.9591163429054
 30
0.0
 11
-165.7834439664273
 21
837.9591163429054
 31
0.0
  0
LINE
  5
EA
330
1F
100
AcDbEntity
  8
C-2
  6
Continuous
 62
     3
370
     9
100
AcDbLine
 10
-191.7836782094594
 20
840.9585818728885
 30
0.0
 11
-165.7834439664273
 21
840.9585818728885
 31
0.0
  0
LINE
  5
EB
330
1F
100
AcDbEntity
  8
C-2
  6
Continuous
 62
     3
370
     9
100
AcDbLine
 10
-191.7836782094594
 20
740.9589942725929
 30
0.0
 11
-165.7834439664273
 21
740.9589942725929
 31
0.0
  0
LINE
  5
EC
330
1F
100
AcDbEntity
  8
C-2
  6
Continuous
 62
     3
370
     9
100
AcDbLine
 10
-191.7836782094594
 20
737.9590338629646
 30
0.0
 11
-165.7834439664273
 21
737.9590338629646
 31
0.0
  0
LINE
  5
ED
330
1F
100
AcDbEntity
  8
C-2
  6
Continuous
 62
     3
370
     9
100
AcDbLine
 10
-131.7833565376898
 20
468.458713840794
 30
0.0
 11
-131.7833565376898
 21
910.4587369351776
 31
0.0
  0
LINE
  5
EE
330
1F
100
AcDbEntity
  8
C-2
  6
Continuous
 62
     3
370
     9
100
AcDbLine
 10
-135.7838398701435
 20
468.458713840794
 30
0.0
 11
-135.7838398701435
 21
910.4587369351776
 31
0.0
  0
LINE
  5
EF
330
1F
100
AcDbEntity
  8
C-2
  6
Continuous
 62
     3
370
     9
100
AcDbLine
 10
-161.7835792335302
 20
837.9591163429054
 30
0.0
 11
-135.7838398701435
 21
837.9591163429054
 31
0.0
  0
LINE
  5
F0
330
1F
100
AcDbEntity
  8
C-2
  6
Continuous
 62
     3
370
     9
100
AcDbLine
 10
-161.7835792335302
 20
840.9585818728885
 30
0.0
 11
-135.7838398701435
 21
840.9585818728885
 31
0.0
  0
LINE
  5
F1
330
1F
100
AcDbEntity
  8
C-2
  6
Continuous
 62
     3
370
     9
100
AcDbLine
 10
-161.7835792335302
 20
740.9589942725929
 30
0.0
 11
-135.7838398701435
 21
740.9589942725929
 31
0.0
  0
LINE
  5
F2
330
1F
100
AcDbEntity
  8
C-2
  6
Continuous
 62
     3
370
     9
100
AcDbLine
 10
-161.7835792335302
 20
737.9590338629646
 30
0.0
 11
-135.7838398701435
 21
737.9590338629646
 31
0.0
  0
LINE
  5
F3
330
1F
100
AcDbEntity
  8
C-2
  6
Continuous
 62
     3
370
     9
100
AcDbLine
 10
-101.7837524414062
 20
468.458713840794
 30
0.0
 11
-101.7837524414062
 21
910.4587369351776
 31
0.0
  0
LINE
  5
F4
330
1F
100
AcDbEntity
  8
C-2
  6
Continuous
 62
     3
370
     9
100
AcDbLine
 10
-105.7836171743031
 20
468.458713840794
 30
0.0
 11
-105.7836171743031
 21
910.4587369351776
 31
0.0
  0
LINE
  5
F5
330
1F
100
AcDbEntity
  8
C-2
  6
Continuous
 62
     3
370
     9
100
AcDbLine
 10
-131.7833565376898
 20
837.9591163429054
 30
0.0
 11
-105.7836171743031
 21
837.9591163429054
 31
0.0
  0
LINE
  5
F6
330
1F
100
AcDbEntity
  8
C-2
  6
Continuous
 62
     3
370
     9
100
AcDbLine
 10
-131.7833565376898
 20
840.9585818728885
 30
0.0
 11
-105.7836171743031
 21
840.9585818728885
 31
0.0
  0
LINE
  5
F7
330
1F
100
AcDbEntity
  8
C-2
  6
Continuous
 62
     3
370
     9
100
AcDbLine
 10
-131.7833565376898
 20
740.9589942725929
 30
0.0
 11
-105.7836171743031
 21
740.9589942725929
 31
0.0
  0
LINE
  5
F8
330
1F
100
AcDbEntity
  8
C-2
  6
Continuous
 62
     3
370
     9
100
AcDbLine
 10
-131.7833565376898
 20
737.9590338629646
 30
0.0
 11
-105.7836171743031
 21
737.9590338629646
 31
0.0
  0
LINE
  5
F9
330
1F
100
AcDbEntity
  8
C-2
  6
Continuous
 62
     3
370
     9
100
AcDbLine
 10
-71.78352974556589
 20
468.458713840794
 30
0.0
 11
-71.78352974556589
 21
910.4587369351776
 31
0.0
  0
LINE
  5
FA
330
1F
100
AcDbEntity
  8
C-2
  6
Continuous
 62
     3
370
     9
100
AcDbLine
 10
-75.78351819837394
 20
468.458713840794
 30
0.0
 11
-75.78351819837394
 21
910.4587369351776
 31
0.0
  0
LINE
  5
FB
330
1F
100
AcDbEntity
  8
C-2
  6
Continuous
 62
     3
370
     9
100
AcDbLine
 10
-101.7837524414062
 20
837.9591163429054
 30
0.0
 11
-75.78351819837394
 21
837.9591163429054
 31
0.0
  0
LINE
  5
FC
330
1F
100
AcDbEntity
  8
C-2
  6
Continuous
 62
     3
370
     9
100
AcDbLine
 10
-101.7837524414062
 20
840.9585818728885
 30
0.0
 11
-75.78351819837394
 21
840.9585818728885
 31
0.0
  0
LINE
  5
FD
330
1F
100
AcDbEntity
  8
C-2
  6
Continuous
 62
     3
370
     9
100
AcDbLine
 10
-101.7837524414062
 20
740.9589942725929
 30
0.0
 11
-75.78351819837394
 21
740.9589942725929
 31
0.0
  0
LINE
  5
FE
330
1F
100
AcDbEntity
  8
C-2
  6
Continuous
 62
     3
370
     9
100
AcDbLine
 10
-101.7837524414062
 20
737.9590338629646
 30
0.0
 11
-75.78351819837394
 21
737.9590338629646
 31
0.0
  0
LINE
  5
FF
330
1F
100
AcDbEntity
  8
C-2
  6
Continuous
 62
     3
370
     9
100
AcDbLine
 10
-41.78343076963671
 20
468.458713840794
 30
0.0
 11
-41.78343076963671
 21
910.4587369351776
 31
0.0
  0
LINE
  5
100
330
1F
100
AcDbEntity
  8
C-2
  6
Continuous
 62
     3
370
     9
100
AcDbLine
 10
-45.78341922244505
 20
468.458713840794
 30
0.0
 11
-45.78341922244505
 21
910.4587369351776
 31
0.0
  0
LINE
  5
101
330
1F
100
AcDbEntity
  8
C-2
  6
Continuous
 62
     3
370
     9
100
AcDbLine
 10
-71.78352974556589
 20
837.9591163429054
 30
0.0
 11
-45.78341922244505
 21
837.9591163429054
 31
0.0
  0
LINE
  5
102
330
1F
100
AcDbEntity
  8
C-2
  6
Continuous
 62
     3
370
     9
100
AcDbLine
 10
-71.78352974556589
 20
840.9585818728885
 30
0.0
 11
-45.78341922244505
 21
840.9585818728885
 31
0.0
  0
LINE
  5
103
330
1F
100
AcDbEntity
  8
C-2
  6
Continuous
 62
     3
370
     9
100
AcDbLine
 10
-71.78352974556589
 20
740.9589942725929
 30
0.0
 11
-45.78341922244505
 21
740.9589942725929
 31
0.0
  0
LINE
  5
104
330
1F
100
AcDbEntity
  8
C-2
  6
Continuous
 62
     3
370
     9
100
AcDbLine
 10
-71.78352974556589
 20
737.9590338629646
 30
0.0
 11
-45.78341922244505
 21
737.9590338629646
 31
0.0
  0
LINE
  5
105
330
1F
100
AcDbEntity
  8
C-2
  6
Continuous
 62
     3
370
     9
100
AcDbLine
 10
-11.78382667335285
 20
468.458713840794
 30
0.0
 11
-11.78382667335285
 21
910.4587369351776
 31
0.0
  0
LINE
  5
106
330
1F
100
AcDbEntity
  8
C-2
  6
Continuous
 62
     3
370
     9
100
AcDbLine
 10
-15.78369140625
 20
468.458713840794
 30
0.0
 11
-15.78369140625
 21
910.4587369351776
 31
0.0
  0
LINE
  5
107
330
1F
100
AcDbEntity
  8
C-2
  6
Continuous
 62
     3
370
     9
100
AcDbLine
 10
-41.78343076963671
 20
837.9591163429054
 30
0.0
 11
-15.78369140625
 21
837.9591163429054
 31
0.0
  0
LINE
  5
108
330
1F
100
AcDbEntity
  8
C-2
  6
Continuous
 62
     3
370
     9
100
AcDbLine
 10
-41.78343076963671
 20
840.9585818728885
 30
0.0
 11
-15.78369140625
 21
840.9585818728885
 31
0.0
  0
LINE
  5
109
330
1F
100
AcDbEntity
  8
C-2
  6
Continuous
 62
     3
370
     9
100
AcDbLine
 10
-41.78343076963671
 20
740.9589942725929
 30
0.0
 11
-15.78369140625
 21
740.9589942725929
 31
0.0
  0
LINE
  5
10A
330
1F
100
AcDbEntity
  8
C-2
  6
Continuous
 62
     3
370
     9
100
AcDbLine
 10
-41.78343076963671
 20
737.9590338629646
 30
0.0
 11
-15.78369140625
 21
737.9590338629646
 31
0.0
  0
LINE
  5
10B
330
1F
100
AcDbEntity
  8
C-2
  6
Continuous
 62
     3
370
     9
100
AcDbLine
 10
18.21627230257604
 20
468.458713840794
 30
0.0
 11
18.21627230257604
 21
910.4587369351776
 31
0.0
  0
LINE
  5
10C
330
1F
100
AcDbEntity
  8
C-2
  6
Continuous
 62
     3
370
     9
100
AcDbLine
 10
14.21640756967918
 20
468.458713840794
 30
0.0
 11
14.21640756967918
 21
910.4587369351776
 31
0.0
  0
LINE
  5
10D
330
1F
100
AcDbEntity
  8
C-2
  6
Continuous
 62
     3
370
     9
100
AcDbLine
 10
-11.78382667335285
 20
837.9591163429054
 30
0.0
 11
14.21640756967918
 21
837.9591163429054
 31
0.0
  0
LINE
  5
10E
330
1F
100
AcDbEntity
  8
C-2
  6
Continuous
 62
     3
370
     9
100
AcDbLine
 10
-11.78382667335285
 20
840.9585818728885
 30
0.0
 11
14.21640756967918
 21
840.9585818728885
 31
0.0
  0
LINE
  5
10F
330
1F
100
AcDbEntity
  8
C-2
  6
Continuous
 62
     3
370
     9
100
AcDbLine
 10
-11.78382667335285
 20
740.9589942725929
 30
0.0
 11
14.21640756967918
 21
740.9589942725929
 31
0.0
  0
LINE
  5
110
330
1F
100
AcDbEntity
  8
C-2
  6
Continuous
 62
     3
370
     9
100
AcDbLine
 10
-11.78382667335285
 20
737.9590338629646
 30
0.0
 11
14.21640756967918
 21
737.9590338629646
 31
0.0
  0
LINE
  5
111
330
1F
100
AcDbEntity
  8
C-2
  6
Continuous
 62
     3
370
     9
100
AcDbLine
 10
48.21637127850522
 20
468.458713840794
 30
0.0
 11
48.21637127850522
 21
910.4587369351776
 31
0.0
  0
LINE
  5
112
330
1F
100
AcDbEntity
  8
C-2
  6
Continuous
 62
     3
370
     9
100
AcDbLine
 10
44.21650654560835
 20
468.458713840794
 30
0.0
 11
44.21650654560835
 21
910.4587369351776
 31
0.0
  0
LINE
  5
113
330
1F
100
AcDbEntity
  8
C-2
  6
Continuous
 62
     3
370
     9
100
AcDbLine
 10
18.21627230257604
 20
837.9591163429054
 30
0.0
 11
44.21650654560835
 21
837.9591163429054
 31
0.0
  0
LINE
  5
114
330
1F
100
AcDbEntity
  8
C-2
  6
Continuous
 62
     3
370
     9
100
AcDbLine
 10
18.21627230257604
 20
840.9585818728885
 30
0.0
 11
44.21650654560835
 21
840.9585818728885
 31
0.0
  0
LINE
  5
115
330
1F
100
AcDbEntity
  8
C-2
  6
Continuous
 62
     3
370
     9
100
AcDbLine
 10
18.21627230257604
 20
740.9589942725929
 30
0.0
 11
44.21650654560835
 21
740.9589942725929
 31
0.0
  0
LINE
  5
116
330
1F
100
AcDbEntity
  8
C-2
  6
Continuous
 62
     3
370
     9
100
AcDbLine
 10
18.21627230257604
 20
737.9590338629646
 30
0.0
 11
44.21650654560835
 21
737.9590338629646
 31
0.0
  0
LINE
  5
117
330
1F
100
AcDbEntity
  8
C-2
  6
Continuous
 62
     3
370
     9
100
AcDbLine
 10
78.21622281461174
 20
468.458713840794
 30
0.0
 11
78.21622281461174
 21
910.4587369351776
 31
0.0
  0
LINE
  5
118
330
1F
100
AcDbEntity
  8
C-2
  6
Continuous
 62
     3
370
     9
100
AcDbLine
 10
74.21660552153725
 20
468.458713840794
 30
0.0
 11
74.21660552153725
 21
910.4587369351776
 31
0.0
  0
LINE
  5
119
330
1F
100
AcDbEntity
  8
C-2
  6
Continuous
 62
     3
370
     9
100
AcDbLine
 10
48.21637127850522
 20
837.9591163429054
 30
0.0
 11
74.21660552153725
 21
837.9591163429054
 31
0.0
  0
LINE
  5
11A
330
1F
100
AcDbEntity
  8
C-2
  6
Continuous
 62
     3
370
     9
100
AcDbLine
 10
48.21637127850522
 20
840.9585818728885
 30
0.0
 11
74.21660552153725
 21
840.9585818728885
 31
0.0
  0
LINE
  5
11B
330
1F
100
AcDbEntity
  8
C-2
  6
Continuous
 62
     3
370
     9
100
AcDbLine
 10
48.21637127850522
 20
740.9589942725929
 30
0.0
 11
74.21660552153725
 21
740.9589942725929
 31
0.0
  0
LINE
  5
11C
330
1F
100
AcDbEntity
  8
C-2
  6
Continuous
 62
     3
370
     9
100
AcDbLine
 10
48.21637127850522
 20
737.9590338629646
 30
0.0
 11
74.21660552153725
 21
737.9590338629646
 31
0.0
  0
LINE
  5
11D
330
1F
100
AcDbEntity
  8
C-2
  6
Continuous
 62
     3
370
     9
100
AcDbLine
 10
108.2163217905406
 20
468.458713840794
 30
0.0
 11
108.2163217905406
 21
910.4587369351776
 31
0.0
  0
LINE
  5
11E
330
1F
100
AcDbEntity
  8
C-2
  6
Continuous
 62
     3
370
     9
100
AcDbLine
 10
104.2162096178211
 20
468.458713840794
 30
0.0
 11
104.2162096178211
 21
910.4587369351776
 31
0.0
  0
LINE
  5
11F
330
1F
100
AcDbEntity
  8
C-2
  6
Continuous
 62
     3
370
     9
100
AcDbLine
 10
78.21622281461174
 20
837.9591163429054
 30
0.0
 11
104.2162096178211
 21
837.9591163429054
 31
0.0
  0
LINE
  5
120
330
1F
100
AcDbEntity
  8
C-2
  6
Continuous
 62
     3
370
     9
100
AcDbLine
 10
78.21622281461174
 20
840.9585818728885
 30
0.0
 11
104.2162096178211
 21
840.9585818728885
 31
0.0
  0
LINE
  5
121
330
1F
100
AcDbEntity
  8
C-2
  6
Continuous
 62
     3
370
     9
100
AcDbLine
 10
78.21622281461174
 20
740.9589942725929
 30
0.0
 11
104.2162096178211
 21
740.9589942725929
 31
0.0
  0
LINE
  5
122
330
1F
100
AcDbEntity
  8
C-2
  6
Continuous
 62
     3
370
     9
100
AcDbLine
 10
78.21622281461174
 20
737.9590338629646
 30
0.0
 11
104.2162096178211
 21
737.9590338629646
 31
0.0
  0
LINE
  5
123
330
1F
100
AcDbEntity
  8
C-2
  6
Continuous
 62
     3
370
     9
100
AcDbLine
 10
138.2164207664698
 20
468.458713840794
 30
0.0
 11
138.2164207664698
 21
910.4587369351776
 31
0.0
  0
LINE
  5
124
330
1F
100
AcDbEntity
  8
C-2
  6
Continuous
 62
     3
370
     9
100
AcDbLine
 10
134.2165560335727
 20
468.458713840794
 30
0.0
 11
134.2165560335727
 21
910.4587369351776
 31
0.0
  0
LINE
  5
125
330
1F
100
AcDbEntity
  8
C-2
  6
Continuous
 62
     3
370
     9
100
AcDbLine
 10
108.2163217905406
 20
837.9591163429054
 30
0.0
 11
134.2165560335727
 21
837.9591163429054
 31
0.0
  0
LINE
  5
126
330
1F
100
AcDbEntity
  8
C-2
  6
Continuous
 62
     3
370
     9
100
AcDbLine
 10
108.2163217905406
 20
840.9585818728885
 30
0.0
 11
134.2165560335727
 21
840.9585818728885
 31
0.0
  0
LINE
  5
127
330
1F
100
AcDbEntity
  8
C-2
  6
Continuous
 62
     3
370
     9
100
AcDbLine
 10
108.2163217905406
 20
740.9589942725929
 30
0.0
 11
134.2165560335727
 21
740.9589942725929
 31
0.0
  0
LINE
  5
128
330
1F
100
AcDbEntity
  8
C-2
  6
Continuous
 62
     3
370
     9
100
AcDbLine
 10
108.2163217905406
 20
737.9590338629646
 30
0.0
 11
134.2165560335727
 21
737.9590338629646
 31
0.0
  0
LINE
  5
129
330
1F
100
AcDbEntity
  8
C-2
  6
Continuous
 62
     3
370
     9
100
AcDbLine
 10
168.2165197423987
 20
468.458713840794
 30
0.0
 11
168.2165197423987
 21
910.4587369351776
 31
0.0
  0
LINE
  5
12A
330
1F
100
AcDbEntity
  8
C-2
  6
Continuous
 62
     3
370
     9
100
AcDbLine
 10
164.2166550095018
 20
468.458713840794
 30
0.0
 11
164.2166550095018
 21
910.4587369351776
 31
0.0
  0
LINE
  5
12B
330
1F
100
AcDbEntity
  8
C-2
  6
Continuous
 62
     3
370
     9
100
AcDbLine
 10
138.2164207664698
 20
837.9591163429054
 30
0.0
 11
164.2166550095018
 21
837.9591163429054
 31
0.0
  0
LINE
  5
12C
330
1F
100
AcDbEntity
  8
C-2
  6
Continuous
 62
     3
370
     9
100
AcDbLine
 10
138.2164207664698
 20
840.9585818728885
 30
0.0
 11
164.2166550095018
 21
840.9585818728885
 31
0.0
  0
LINE
  5
12D
330
1F
100
AcDbEntity
  8
C-2
  6
Continuous
 62
     3
370
     9
100
AcDbLine
 10
138.2164207664698
 20
740.9589942725929
 30
0.0
 11
164.2166550095018
 21
740.9589942725929
 31
0.0
  0
LINE
  5
12E
330
1F
100
AcDbEntity
  8
C-2
  6
Continuous
 62
     3
370
     9
100
AcDbLine
 10
138.2164207664698
 20
737.9590338629646
 30
0.0
 11
164.2166550095018
 21
737.9590338629646
 31
0.0
  0
LINE
  5
12F
330
1F
100
AcDbEntity
  8
C-2
  6
Continuous
 62
     3
370
     9
100
AcDbLine
 10
198.2166187183279
 20
468.458713840794
 30
0.0
 11
198.2166187183279
 21
910.4587369351776
 31
0.0
  0
LINE
  5
130
330
1F
100
AcDbEntity
  8
C-2
  6
Continuous
 62
     3
370
     9
100
AcDbLine
 10
194.2162591057857
 20
468.458713840794
 30
0.0
 11
194.2162591057857
 21
910.4587369351776
 31
0.0
  0
LINE
  5
131
330
1F
100
AcDbEntity
  8
C-2
  6
Continuous
 62
     3
370
     9
100
AcDbLine
 10
168.2160248627534
 20
837.9591163429054
 30
0.0
 11
194.2162591057857
 21
837.9591163429054
 31
0.0
  0
LINE
  5
132
330
1F
100
AcDbEntity
  8
C-2
  6
Continuous
 62
     3
370
     9
100
AcDbLine
 10
168.2160248627534
 20
840.9585818728885
 30
0.0
 11
194.2162591057857
 21
840.9585818728885
 31
0.0
  0
LINE
  5
133
330
1F
100
AcDbEntity
  8
C-2
  6
Continuous
 62
     3
370
     9
100
AcDbLine
 10
168.2160248627534
 20
740.9589942725929
 30
0.0
 11
194.2162591057857
 21
740.9589942725929
 31
0.0
  0
LINE
  5
134
330
1F
100
AcDbEntity
  8
C-2
  6
Continuous
 62
     3
370
     9
100
AcDbLine
 10
168.2160248627534
 20
737.9590338629646
 30
0.0
 11
194.2162591057857
 21
737.9590338629646
 31
0.0
  0
LINE
  5
135
330
1F
100
AcDbEntity
  8
C-2
  6
Continuous
 62
     3
370
     9
100
AcDbLine
 10
228.2162228146117
 20
468.458713840794
 30
0.0
 11
228.2162228146117
 21
910.4587369351776
 31
0.0
  0
LINE
  5
136
330
1F
100
AcDbEntity
  8
C-2
  6
Continuous
 62
     3
370
     9
100
AcDbLine
 10
224.2163580817146
 20
468.458713840794
 30
0.0
 11
224.2163580817146
 21
910.4587369351776
 31
0.0
  0
LINE
  5
137
330
1F
100
AcDbEntity
  8
C-2
  6
Continuous
 62
     3
370
     9
100
AcDbLine
 10
198.2166187183279
 20
837.9591163429054
 30
0.0
 11
224.2163580817146
 21
837.9591163429054
 31
0.0
  0
LINE
  5
138
330
1F
100
AcDbEntity
  8
C-2
  6
Continuous
 62
     3
370
     9
100
AcDbLine
 10
198.2166187183279
 20
840.9585818728885
 30
0.0
 11
224.2163580817146
 21
840.9585818728885
 31
0.0
  0
LINE
  5
139
330
1F
100
AcDbEntity
  8
C-2
  6
Continuous
 62
     3
370
     9
100
AcDbLine
 10
198.2166187183279
 20
740.9589942725929
 30
0.0
 11
224.2163580817146
 21
740.9589942725929
 31
0.0
  0
LINE
  5
13A
330
1F
100
AcDbEntity
  8
C-2
  6
Continuous
 62
     3
370
     9
100
AcDbLine
 10
198.2166187183279
 20
737.9590338629646
 30
0.0
 11
224.2163580817146
 21
737.9590338629646
 31
0.0
  0
LINE
  5
13B
330
1F
100
AcDbEntity
  8
C-2
  6
Continuous
 62
     3
370
     9
100
AcDbLine
 10
258.2163217905406
 20
468.458713840794
 30
0.0
 11
258.2163217905406
 21
910.4587369351776
 31
0.0
  0
LINE
  5
13C
330
1F
100
AcDbEntity
  8
C-2
  6
Continuous
 62
     3
370
     9
100
AcDbLine
 10
254.2164570576438
 20
468.458713840794
 30
0.0
 11
254.2164570576438
 21
910.4587369351776
 31
0.0
  0
LINE
  5
13D
330
1F
100
AcDbEntity
  8
C-2
  6
Continuous
 62
     3
370
     9
100
AcDbLine
 10
228.2162228146117
 20
837.9591163429054
 30
0.0
 11
254.2164570576438
 21
837.9591163429054
 31
0.0
  0
LINE
  5
13E
330
1F
100
AcDbEntity
  8
C-2
  6
Continuous
 62
     3
370
     9
100
AcDbLine
 10
228.2162228146117
 20
840.9585818728885
 30
0.0
 11
254.2164570576438
 21
840.9585818728885
 31
0.0
  0
LINE
  5
13F
330
1F
100
AcDbEntity
  8
C-2
  6
Continuous
 62
     3
370
     9
100
AcDbLine
 10
228.2162228146117
 20
740.9589942725929
 30
0.0
 11
254.2164570576438
 21
740.9589942725929
 31
0.0
  0
LINE
  5
140
330
1F
100
AcDbEntity
  8
C-2
  6
Continuous
 62
     3
370
     9
100
AcDbLine
 10
228.2162228146117
 20
737.9590338629646
 30
0.0
 11
254.2164570576438
 21
737.9590338629646
 31
0.0
  0
LINE
  5
141
330
1F
100
AcDbEntity
  8
C-2
  6
Continuous
 62
     3
370
     9
100
AcDbLine
 10
288.2164207664698
 20
468.458713840794
 30
0.0
 11
288.2164207664698
 21
910.4587369351776
 31
0.0
  0
LINE
  5
142
330
1F
100
AcDbEntity
  8
C-2
  6
Continuous
 62
     3
370
     9
100
AcDbLine
 10
284.21630859375
 20
468.458713840794
 30
0.0
 11
284.21630859375
 21
910.4587369351776
 31
0.0
  0
LINE
  5
143
330
1F
100
AcDbEntity
  8
C-2
  6
Continuous
 62
     3
370
     9
100
AcDbLine
 10
258.2163217905406
 20
837.9591163429054
 30
0.0
 11
284.21630859375
 21
837.9591163429054
 31
0.0
  0
LINE
  5
144
330
1F
100
AcDbEntity
  8
C-2
  6
Continuous
 62
     3
370
     9
100
AcDbLine
 10
258.2163217905406
 20
840.9585818728885
 30
0.0
 11
284.21630859375
 21
840.9585818728885
 31
0.0
  0
LINE
  5
145
330
1F
100
AcDbEntity
  8
C-2
  6
Continuous
 62
     3
370
     9
100
AcDbLine
 10
258.2163217905406
 20
740.9589942725929
 30
0.0
 11
284.21630859375
 21
740.9589942725929
 31
0.0
  0
LINE
  5
146
330
1F
100
AcDbEntity
  8
C-2
  6
Continuous
 62
     3
370
     9
100
AcDbLine
 10
258.2163217905406
 20
737.9590338629646
 30
0.0
 11
284.21630859375
 21
737.9590338629646
 31
0.0
  0
LINE
  5
147
330
1F
100
AcDbEntity
  8
C-2
  6
Continuous
 62
     3
370
     9
100
AcDbLine
 10
318.216272302576
 20
468.458713840794
 30
0.0
 11
318.216272302576
 21
910.4587369351776
 31
0.0
  0
LINE
  5
148
330
1F
100
AcDbEntity
  8
C-2
  6
Continuous
 62
     3
370
     9
100
AcDbLine
 10
314.2164075696792
 20
468.458713840794
 30
0.0
 11
314.2164075696792
 21
910.4587369351776
 31
0.0
  0
LINE
  5
149
330
1F
100
AcDbEntity
  8
C-2
  6
Continuous
 62
     3
370
     9
100
AcDbLine
 10
288.2164207664698
 20
837.9591163429054
 30
0.0
 11
314.2164075696792
 21
837.9591163429054
 31
0.0
  0
LINE
  5
14A
330
1F
100
AcDbEntity
  8
C-2
  6
Continuous
 62
     3
370
     9
100
AcDbLine
 10
288.2164207664698
 20
840.9585818728885
 30
0.0
 11
314.2164075696792
 21
840.9585818728885
 31
0.0
  0
LINE
  5
14B
330
1F
100
AcDbEntity
  8
C-2
  6
Continuous
 62
     3
370
     9
100
AcDbLine
 10
288.2164207664698
 20
740.9589942725929
 30
0.0
 11
314.2164075696792
 21
740.9589942725929
 31
0.0
  0
LINE
  5
14C
330
1F
100
AcDbEntity
  8
C-2
  6
Continuous
 62
     3
370
     9
100
AcDbLine
 10
288.2164207664698
 20
737.9590338629646
 30
0.0
 11
314.2164075696792
 21
737.9590338629646
 31
0.0
  0
LINE
  5
14D
330
1F
100
AcDbEntity
  8
C-2
  6
Continuous
 62
     3
370
     9
100
AcDbLine
 10
348.2168661581505
 20
468.458713840794
 30
0.0
 11
348.2168661581505
 21
910.4587369351776
 31
0.0
  0
LINE
  5
14E
330
1F
100
AcDbEntity
  8
C-2
  6
Continuous
 62
     3
370
     9
100
AcDbLine
 10
344.2165065456084
 20
468.458713840794
 30
0.0
 11
344.2165065456084
 21
910.4587369351776
 31
0.0
  0
LINE
  5
14F
330
1F
100
AcDbEntity
  8
C-2
  6
Continuous
 62
     3
370
     9
100
AcDbLine
 10
318.216272302576
 20
837.9591163429054
 30
0.0
 11
344.2165065456084
 21
837.9591163429054
 31
0.0
  0
LINE
  5
150
330
1F
100
AcDbEntity
  8
C-2
  6
Continuous
 62
     3
370
     9
100
AcDbLine
 10
318.216272302576
 20
840.9585818728885
 30
0.0
 11
344.2165065456084
 21
840.9585818728885
 31
0.0
  0
LINE
  5
151
330
1F
100
AcDbEntity
  8
C-2
  6
Continuous
 62
     3
370
     9
100
AcDbLine
 10
318.216272302576
 20
740.9589942725929
 30
0.0
 11
344.2165065456084
 21
740.9589942725929
 31
0.0
  0
LINE
  5
152
330
1F
100
AcDbEntity
  8
C-2
  6
Continuous
 62
     3
370
     9
100
AcDbLine
 10
318.216272302576
 20
737.9590338629646
 30
0.0
 11
344.2165065456084
 21
737.9590338629646
 31
0.0
  0
LINE
  5
153
330
1F
100
AcDbEntity
  8
C-2
  6
Continuous
 62
     3
370
     9
100
AcDbLine
 10
378.2164702544344
 20
468.458713840794
 30
0.0
 11
378.2164702544344
 21
910.4587369351776
 31
0.0
  0
LINE
  5
154
330
1F
100
AcDbEntity
  8
C-2
  6
Continuous
 62
     3
370
     9
100
AcDbLine
 10
374.2166055215372
 20
468.458713840794
 30
0.0
 11
374.2166055215372
 21
910.4587369351776
 31
0.0
  0
LINE
  5
155
330
1F
100
AcDbEntity
  8
C-2
  6
Continuous
 62
     3
370
     9
100
AcDbLine
 10
348.2168661581505
 20
837.9591163429054
 30
0.0
 11
374.2166055215372
 21
837.9591163429054
 31
0.0
  0
LINE
  5
156
330
1F
100
AcDbEntity
  8
C-2
  6
Continuous
 62
     3
370
     9
100
AcDbLine
 10
348.2168661581505
 20
840.9585818728885
 30
0.0
 11
374.2166055215372
 21
840.9585818728885
 31
0.0
  0
LINE
  5
157
330
1F
100
AcDbEntity
  8
C-2
  6
Continuous
 62
     3
370
     9
100
AcDbLine
 10
348.2168661581505
 20
740.9589942725929
 30
0.0
 11
374.2166055215372
 21
740.9589942725929
 31
0.0
  0
LINE
  5
158
330
1F
100
AcDbEntity
  8
C-2
  6
Continuous
 62
     3
370
     9
100
AcDbLine
 10
348.2168661581505
 20
737.9590338629646
 30
0.0
 11
374.2166055215372
 21
737.9590338629646
 31
0.0
  0
LINE
  5
159
330
1F
100
AcDbEntity
  8
C-2
  6
Continuous
 62
     3
370
     9
100
AcDbLine
 10
408.2165692303633
 20
468.458713840794
 30
0.0
 11
408.2165692303633
 21
910.4587369351776
 31
0.0
  0
LINE
  5
15A
330
1F
100
AcDbEntity
  8
C-2
  6
Continuous
 62
     3
370
     9
100
AcDbLine
 10
404.2167044974664
 20
468.458713840794
 30
0.0
 11
404.2167044974664
 21
910.4587369351776
 31
0.0
  0
LINE
  5
15B
330
1F
100
AcDbEntity
  8
C-2
  6
Continuous
 62
     3
370
     9
100
AcDbLine
 10
378.2164702544344
 20
837.9591163429054
 30
0.0
 11
404.2167044974664
 21
837.9591163429054
 31
0.0
  0
LINE
  5
15C
330
1F
100
AcDbEntity
  8
C-2
  6
Continuous
 62
     3
370
     9
100
AcDbLine
 10
378.2164702544344
 20
840.9585818728885
 30
0.0
 11
404.2167044974664
 21
840.9585818728885
 31
0.0
  0
LINE
  5
15D
330
1F
100
AcDbEntity
  8
C-2
  6
Continuous
 62
     3
370
     9
100
AcDbLine
 10
378.2164702544344
 20
740.9589942725929
 30
0.0
 11
404.2167044974664
 21
740.9589942725929
 31
0.0
  0
LINE
  5
15E
330
1F
100
AcDbEntity
  8
C-2
  6
Continuous
 62
     3
370
     9
100
AcDbLine
 10
378.2164702544344
 20
737.9590338629646
 30
0.0
 11
404.2167044974664
 21
737.9590338629646
 31
0.0
  0
LINE
  5
15F
330
1F
100
AcDbEntity
  8
C-2
  6
Continuous
 62
     3
370
     9
100
AcDbLine
 10
438.2169156461151
 20
468.458713840794
 30
0.0
 11
438.2169156461151
 21
910.4587369351776
 31
0.0
  0
LINE
  5
160
330
1F
100
AcDbEntity
  8
C-2
  6
Continuous
 62
     3
370
     9
100
AcDbLine
 10
434.21630859375
 20
468.458713840794
 30
0.0
 11
434.21630859375
 21
910.4587369351776
 31
0.0
  0
LINE
  5
161
330
1F
100
AcDbEntity
  8
C-2
  6
Continuous
 62
     3
370
     9
100
AcDbLine
 10
408.2165692303633
 20
837.9591163429054
 30
0.0
 11
434.21630859375
 21
837.9591163429054
 31
0.0
  0
LINE
  5
162
330
1F
100
AcDbEntity
  8
C-2
  6
Continuous
 62
     3
370
     9
100
AcDbLine
 10
408.2165692303633
 20
840.9585818728885
 30
0.0
 11
434.21630859375
 21
840.9585818728885
 31
0.0
  0
LINE
  5
163
330
1F
100
AcDbEntity
  8
C-2
  6
Continuous
 62
     3
370
     9
100
AcDbLine
 10
408.2165692303633
 20
740.9589942725929
 30
0.0
 11
434.21630859375
 21
740.9589942725929
 31
0.0
  0
LINE
  5
164
330
1F
100
AcDbEntity
  8
C-2
  6
Continuous
 62
     3
370
     9
100
AcDbLine
 10
408.2165692303633
 20
737.9590338629646
 30
0.0
 11
434.21630859375
 21
737.9590338629646
 31
0.0
  0
LINE
  5
165
330
1F
100
AcDbEntity
  8
C-2
  6
Continuous
 62
     3
370
     9
100
AcDbLine
 10
468.2170146220443
 20
468.458713840794
 30
0.0
 11
468.2170146220443
 21
910.4587369351776
 31
0.0
  0
LINE
  5
166
330
1F
100
AcDbEntity
  8
C-2
  6
Continuous
 62
     3
370
     9
100
AcDbLine
 10
464.2164075696792
 20
468.458713840794
 30
0.0
 11
464.2164075696792
 21
910.4587369351776
 31
0.0
  0
LINE
  5
167
330
1F
100
AcDbEntity
  8
C-2
  6
Continuous
 62
     3
370
     9
100
AcDbLine
 10
438.2169156461151
 20
837.9591163429054
 30
0.0
 11
464.2164075696792
 21
837.9591163429054
 31
0.0
  0
LINE
  5
168
330
1F
100
AcDbEntity
  8
C-2
  6
Continuous
 62
     3
370
     9
100
AcDbLine
 10
438.2169156461151
 20
840.9585818728885
 30
0.0
 11
464.2164075696792
 21
840.9585818728885
 31
0.0
  0
LINE
  5
169
330
1F
100
AcDbEntity
  8
C-2
  6
Continuous
 62
     3
370
     9
100
AcDbLine
 10
438.2169156461151
 20
740.9589942725929
 30
0.0
 11
464.2164075696792
 21
740.9589942725929
 31
0.0
  0
LINE
  5
16A
330
1F
100
AcDbEntity
  8
C-2
  6
Continuous
 62
     3
370
     9
100
AcDbLine
 10
438.2169156461151
 20
737.9590338629646
 30
0.0
 11
464.2164075696792
 21
737.9590338629646
 31
0.0
  0
LINE
  5
16B
330
1F
100
AcDbEntity
  8
C-2
  6
Continuous
 62
     3
370
     9
100
AcDbLine
 10
494.2165065456084
 20
468.458713840794
 30
0.0
 11
494.2165065456084
 21
910.4587369351776
 31
0.0
  0
LINE
  5
16C
330
1F
100
AcDbEntity
  8
C-2
  6
Continuous
 62
     3
370
     9
100
AcDbLine
 10
468.2170146220443
 20
837.9591163429054
 30
0.0
 11
494.2165065456084
 21
837.9591163429054
 31
0.0
  0
LINE
  5
16D
330
1F
100
AcDbEntity
  8
C-2
  6
Continuous
 62
     3
370
     9
100
AcDbLine
 10
468.2170146220443
 20
840.9585818728885
 30
0.0
 11
494.2165065456084
 21
840.9585818728885
 31
0.0
  0
LINE
  5
16E
330
1F
100
AcDbEntity
  8
C-2
  6
Continuous
 62
     3
370
     9
100
AcDbLine
 10
468.2170146220443
 20
740.9589942725929
 30
0.0
 11
494.2165065456084
 21
740.9589942725929
 31
0.0
  0
LINE
  5
16F
330
1F
100
AcDbEntity
  8
C-2
  6
Continuous
 62
     3
370
     9
100
AcDbLine
 10
468.2170146220443
 20
737.9590338629646
 30
0.0
 11
494.2165065456084
 21
737.9590338629646
 31
0.0
  0
LINE
  5
170
330
1F
100
AcDbEntity
  8
C-2
  6
Continuous
 62
     3
370
     9
100
AcDbLine
 10
-491.7835544895482
 20
640.9591592324748
 30
0.0
 11
-465.7838151261612
 21
640.9591592324748
 31
0.0
  0
LINE
  5
171
330
1F
100
AcDbEntity
  8
C-2
  6
Continuous
 62
     3
370
     9
100
AcDbLine
 10
-491.7835544895482
 20
637.9589513830238
 30
0.0
 11
-465.7838151261612
 21
637.9589513830238
 31
0.0
  0
LINE
  5
172
330
1F
100
AcDbEntity
  8
C-2
  6
Continuous
 62
     3
370
     9
100
AcDbLine
 10
-461.783455513619
 20
640.9591592324748
 30
0.0
 11
-435.7837161502323
 21
640.9591592324748
 31
0.0
  0
LINE
  5
173
330
1F
100
AcDbEntity
  8
C-2
  6
Continuous
 62
     3
370
     9
100
AcDbLine
 10
-461.783455513619
 20
637.9589513830238
 30
0.0
 11
-435.7837161502323
 21
637.9589513830238
 31
0.0
  0
LINE
  5
174
330
1F
100
AcDbEntity
  8
C-2
  6
Continuous
 62
     3
370
     9
100
AcDbLine
 10
-431.783727697424
 20
640.9591592324748
 30
0.0
 11
-405.7834934543919
 21
640.9591592324748
 31
0.0
  0
LINE
  5
175
330
1F
100
AcDbEntity
  8
C-2
  6
Continuous
 62
     3
370
     9
100
AcDbLine
 10
-431.783727697424
 20
637.9589513830238
 30
0.0
 11
-405.7834934543919
 21
637.9589513830238
 31
0.0
  0
LINE
  5
176
330
1F
100
AcDbEntity
  8
C-2
  6
Continuous
 62
     3
370
     9
100
AcDbLine
 10
-401.7836287214948
 20
640.9591592324748
 30
0.0
 11
-375.7833944784628
 21
640.9591592324748
 31
0.0
  0
LINE
  5
177
330
1F
100
AcDbEntity
  8
C-2
  6
Continuous
 62
     3
370
     9
100
AcDbLine
 10
-401.7836287214948
 20
637.9589513830238
 30
0.0
 11
-375.7833944784628
 21
637.9589513830238
 31
0.0
  0
LINE
  5
178
330
1F
100
AcDbEntity
  8
C-2
  6
Continuous
 62
     3
370
     9
100
AcDbLine
 10
-371.7835297455659
 20
640.9591592324748
 30
0.0
 11
-345.7837903821789
 21
640.9591592324748
 31
0.0
  0
LINE
  5
179
330
1F
100
AcDbEntity
  8
C-2
  6
Continuous
 62
     3
370
     9
100
AcDbLine
 10
-371.7835297455659
 20
637.9589513830238
 30
0.0
 11
-345.7837903821789
 21
637.9589513830238
 31
0.0
  0
LINE
  5
17A
330
1F
100
AcDbEntity
  8
C-2
  6
Continuous
 62
     3
370
     9
100
AcDbLine
 10
-341.7838019293706
 20
640.9591592324748
 30
0.0
 11
-315.78369140625
 21
640.9591592324748
 31
0.0
  0
LINE
  5
17B
330
1F
100
AcDbEntity
  8
C-2
  6
Continuous
 62
     3
370
     9
100
AcDbLine
 10
-341.7838019293706
 20
637.9589513830238
 30
0.0
 11
-315.78369140625
 21
637.9589513830238
 31
0.0
  0
LINE
  5
17C
330
1F
100
AcDbEntity
  8
C-2
  6
Continuous
 62
     3
370
     9
100
AcDbLine
 10
-311.7837029534417
 20
640.9591592324748
 30
0.0
 11
-285.7834687104096
 21
640.9591592324748
 31
0.0
  0
LINE
  5
17D
330
1F
100
AcDbEntity
  8
C-2
  6
Continuous
 62
     3
370
     9
100
AcDbLine
 10
-311.7837029534417
 20
637.9589513830238
 30
0.0
 11
-285.7834687104096
 21
637.9589513830238
 31
0.0
  0
LINE
  5
17E
330
1F
100
AcDbEntity
  8
C-2
  6
Continuous
 62
     3
370
     9
100
AcDbLine
 10
-281.7836039775125
 20
640.9591592324748
 30
0.0
 11
-255.7833697344805
 21
640.9591592324748
 31
0.0
  0
LINE
  5
17F
330
1F
100
AcDbEntity
  8
C-2
  6
Continuous
 62
     3
370
     9
100
AcDbLine
 10
-281.7836039775125
 20
637.9589513830238
 30
0.0
 11
-255.7833697344805
 21
637.9589513830238
 31
0.0
  0
LINE
  5
180
330
1F
100
AcDbEntity
  8
C-2
  6
Continuous
 62
     3
370
     9
100
AcDbLine
 10
-251.7833812816721
 20
640.9591592324748
 30
0.0
 11
-225.7837656381966
 21
640.9591592324748
 31
0.0
  0
LINE
  5
181
330
1F
100
AcDbEntity
  8
C-2
  6
Continuous
 62
     3
370
     9
100
AcDbLine
 10
-251.7833812816721
 20
637.9589513830238
 30
0.0
 11
-225.7837656381966
 21
637.9589513830238
 31
0.0
  0
LINE
  5
182
330
1F
100
AcDbEntity
  8
C-2
  6
Continuous
 62
     3
370
     9
100
AcDbLine
 10
-221.7832823057432
 20
640.9591592324748
 30
0.0
 11
-195.7835429423562
 21
640.9591592324748
 31
0.0
  0
LINE
  5
183
330
1F
100
AcDbEntity
  8
C-2
  6
Continuous
 62
     3
370
     9
100
AcDbLine
 10
-221.7832823057432
 20
637.9589513830238
 30
0.0
 11
-195.7835429423562
 21
637.9589513830238
 31
0.0
  0
LINE
  5
184
330
1F
100
AcDbEntity
  8
C-2
  6
Continuous
 62
     3
370
     9
100
AcDbLine
 10
-191.7836782094594
 20
640.9591592324748
 30
0.0
 11
-165.7834439664273
 21
640.9591592324748
 31
0.0
  0
LINE
  5
185
330
1F
100
AcDbEntity
  8
C-2
  6
Continuous
 62
     3
370
     9
100
AcDbLine
 10
-191.7836782094594
 20
637.9589513830238
 30
0.0
 11
-165.7834439664273
 21
637.9589513830238
 31
0.0
  0
LINE
  5
186
330
1F
100
AcDbEntity
  8
C-2
  6
Continuous
 62
     3
370
     9
100
AcDbLine
 10
-161.7835792335302
 20
640.9591592324748
 30
0.0
 11
-135.7838398701435
 21
640.9591592324748
 31
0.0
  0
LINE
  5
187
330
1F
100
AcDbEntity
  8
C-2
  6
Continuous
 62
     3
370
     9
100
AcDbLine
 10
-161.7835792335302
 20
637.9589513830238
 30
0.0
 11
-135.7838398701435
 21
637.9589513830238
 31
0.0
  0
LINE
  5
188
330
1F
100
AcDbEntity
  8
C-2
  6
Continuous
 62
     3
370
     9
100
AcDbLine
 10
-131.7833565376898
 20
640.9591592324748
 30
0.0
 11
-105.7836171743031
 21
640.9591592324748
 31
0.0
  0
LINE
  5
189
330
1F
100
AcDbEntity
  8
C-2
  6
Continuous
 62
     3
370
     9
100
AcDbLine
 10
-131.7833565376898
 20
637.9589513830238
 30
0.0
 11
-105.7836171743031
 21
637.9589513830238
 31
0.0
  0
LINE
  5
18A
330
1F
100
AcDbEntity
  8
C-2
  6
Continuous
 62
     3
370
     9
100
AcDbLine
 10
-101.7837524414062
 20
640.9591592324748
 30
0.0
 11
-75.78351819837394
 21
640.9591592324748
 31
0.0
  0
LINE
  5
18B
330
1F
100
AcDbEntity
  8
C-2
  6
Continuous
 62
     3
370
     9
100
AcDbLine
 10
-101.7837524414062
 20
637.9589513830238
 30
0.0
 11
-75.78351819837394
 21
637.9589513830238
 31
0.0
  0
LINE
  5
18C
330
1F
100
AcDbEntity
  8
C-2
  6
Continuous
 62
     3
370
     9
100
AcDbLine
 10
-71.78352974556589
 20
640.9591592324748
 30
0.0
 11
-45.78341922244505
 21
640.9591592324748
 31
0.0
  0
LINE
  5
18D
330
1F
100
AcDbEntity
  8
C-2
  6
Continuous
 62
     3
370
     9
100
AcDbLine
 10
-71.78352974556589
 20
637.9589513830238
 30
0.0
 11
-45.78341922244505
 21
637.9589513830238
 31
0.0
  0
LINE
  5
18E
330
1F
100
AcDbEntity
  8
C-2
  6
Continuous
 62
     3
370
     9
100
AcDbLine
 10
-41.78343076963671
 20
640.9591592324748
 30
0.0
 11
-15.78369140625
 21
640.9591592324748
 31
0.0
  0
LINE
  5
18F
330
1F
100
AcDbEntity
  8
C-2
  6
Continuous
 62
     3
370
     9
100
AcDbLine
 10
-41.78343076963671
 20
637.9589513830238
 30
0.0
 11
-15.78369140625
 21
637.9589513830238
 31
0.0
  0
LINE
  5
190
330
1F
100
AcDbEntity
  8
C-2
  6
Continuous
 62
     3
370
     9
100
AcDbLine
 10
-11.78382667335285
 20
640.9591592324748
 30
0.0
 11
14.21640756967918
 21
640.9591592324748
 31
0.0
  0
LINE
  5
191
330
1F
100
AcDbEntity
  8
C-2
  6
Continuous
 62
     3
370
     9
100
AcDbLine
 10
-11.78382667335285
 20
637.9589513830238
 30
0.0
 11
14.21640756967918
 21
637.9589513830238
 31
0.0
  0
LINE
  5
192
330
1F
100
AcDbEntity
  8
C-2
  6
Continuous
 62
     3
370
     9
100
AcDbLine
 10
18.21627230257604
 20
640.9591592324748
 30
0.0
 11
44.21650654560835
 21
640.9591592324748
 31
0.0
  0
LINE
  5
193
330
1F
100
AcDbEntity
  8
C-2
  6
Continuous
 62
     3
370
     9
100
AcDbLine
 10
18.21627230257604
 20
637.9589513830238
 30
0.0
 11
44.21650654560835
 21
637.9589513830238
 31
0.0
  0
LINE
  5
194
330
1F
100
AcDbEntity
  8
C-2
  6
Continuous
 62
     3
370
     9
100
AcDbLine
 10
48.21637127850522
 20
640.9591592324748
 30
0.0
 11
74.21660552153725
 21
640.9591592324748
 31
0.0
  0
LINE
  5
195
330
1F
100
AcDbEntity
  8
C-2
  6
Continuous
 62
     3
370
     9
100
AcDbLine
 10
48.21637127850522
 20
637.9589513830238
 30
0.0
 11
74.21660552153725
 21
637.9589513830238
 31
0.0
  0
LINE
  5
196
330
1F
100
AcDbEntity
  8
C-2
  6
Continuous
 62
     3
370
     9
100
AcDbLine
 10
78.21622281461174
 20
640.9591592324748
 30
0.0
 11
104.2162096178211
 21
640.9591592324748
 31
0.0
  0
LINE
  5
197
330
1F
100
AcDbEntity
  8
C-2
  6
Continuous
 62
     3
370
     9
100
AcDbLine
 10
78.21622281461174
 20
637.9589513830238
 30
0.0
 11
104.2162096178211
 21
637.9589513830238
 31
0.0
  0
LINE
  5
198
330
1F
100
AcDbEntity
  8
C-2
  6
Continuous
 62
     3
370
     9
100
AcDbLine
 10
108.2163217905406
 20
640.9591592324748
 30
0.0
 11
134.2165560335727
 21
640.9591592324748
 31
0.0
  0
LINE
  5
199
330
1F
100
AcDbEntity
  8
C-2
  6
Continuous
 62
     3
370
     9
100
AcDbLine
 10
108.2163217905406
 20
637.9589513830238
 30
0.0
 11
134.2165560335727
 21
637.9589513830238
 31
0.0
  0
LINE
  5
19A
330
1F
100
AcDbEntity
  8
C-2
  6
Continuous
 62
     3
370
     9
100
AcDbLine
 10
138.2164207664698
 20
640.9591592324748
 30
0.0
 11
164.2166550095018
 21
640.9591592324748
 31
0.0
  0
LINE
  5
19B
330
1F
100
AcDbEntity
  8
C-2
  6
Continuous
 62
     3
370
     9
100
AcDbLine
 10
138.2164207664698
 20
637.9589513830238
 30
0.0
 11
164.2166550095018
 21
637.9589513830238
 31
0.0
  0
LINE
  5
19C
330
1F
100
AcDbEntity
  8
C-2
  6
Continuous
 62
     3
370
     9
100
AcDbLine
 10
168.2160248627534
 20
640.9591592324748
 30
0.0
 11
194.2162591057857
 21
640.9591592324748
 31
0.0
  0
LINE
  5
19D
330
1F
100
AcDbEntity
  8
C-2
  6
Continuous
 62
     3
370
     9
100
AcDbLine
 10
168.2160248627534
 20
637.9589513830238
 30
0.0
 11
194.2162591057857
 21
637.9589513830238
 31
0.0
  0
LINE
  5
19E
330
1F
100
AcDbEntity
  8
C-2
  6
Continuous
 62
     3
370
     9
100
AcDbLine
 10
198.2166187183279
 20
640.9591592324748
 30
0.0
 11
224.2163580817146
 21
640.9591592324748
 31
0.0
  0
LINE
  5
19F
330
1F
100
AcDbEntity
  8
C-2
  6
Continuous
 62
     3
370
     9
100
AcDbLine
 10
198.2166187183279
 20
637.9589513830238
 30
0.0
 11
224.2163580817146
 21
637.9589513830238
 31
0.0
  0
LINE
  5
1A0
330
1F
100
AcDbEntity
  8
C-2
  6
Continuous
 62
     3
370
     9
100
AcDbLine
 10
228.2162228146117
 20
640.9591592324748
 30
0.0
 11
254.2164570576438
 21
640.9591592324748
 31
0.0
  0
LINE
  5
1A1
330
1F
100
AcDbEntity
  8
C-2
  6
Continuous
 62
     3
370
     9
100
AcDbLine
 10
228.2162228146117
 20
637.9589513830238
 30
0.0
 11
254.2164570576438
 21
637.9589513830238
 31
0.0
  0
LINE
  5
1A2
330
1F
100
AcDbEntity
  8
C-2
  6
Continuous
 62
     3
370
     9
100
AcDbLine
 10
258.2163217905406
 20
640.9591592324748
 30
0.0
 11
284.21630859375
 21
640.9591592324748
 31
0.0
  0
LINE
  5
1A3
330
1F
100
AcDbEntity
  8
C-2
  6
Continuous
 62
     3
370
     9
100
AcDbLine
 10
258.2163217905406
 20
637.9589513830238
 30
0.0
 11
284.21630859375
 21
637.9589513830238
 31
0.0
  0
LINE
  5
1A4
330
1F
100
AcDbEntity
  8
C-2
  6
Continuous
 62
     3
370
     9
100
AcDbLine
 10
288.2164207664698
 20
640.9591592324748
 30
0.0
 11
314.2164075696792
 21
640.9591592324748
 31
0.0
  0
LINE
  5
1A5
330
1F
100
AcDbEntity
  8
C-2
  6
Continuous
 62
     3
370
     9
100
AcDbLine
 10
288.2164207664698
 20
637.9589513830238
 30
0.0
 11
314.2164075696792
 21
637.9589513830238
 31
0.0
  0
LINE
  5
1A6
330
1F
100
AcDbEntity
  8
C-2
  6
Continuous
 62
     3
370
     9
100
AcDbLine
 10
318.216272302576
 20
640.9591592324748
 30
0.0
 11
344.2165065456084
 21
640.9591592324748
 31
0.0
  0
LINE
  5
1A7
330
1F
100
AcDbEntity
  8
C-2
  6
Continuous
 62
     3
370
     9
100
AcDbLine
 10
318.216272302576
 20
637.9589513830238
 30
0.0
 11
344.2165065456084
 21
637.9589513830238
 31
0.0
  0
LINE
  5
1A8
330
1F
100
AcDbEntity
  8
C-2
  6
Continuous
 62
     3
370
     9
100
AcDbLine
 10
348.2168661581505
 20
640.9591592324748
 30
0.0
 11
374.2166055215372
 21
640.9591592324748
 31
0.0
  0
LINE
  5
1A9
330
1F
100
AcDbEntity
  8
C-2
  6
Continuous
 62
     3
370
     9
100
AcDbLine
 10
348.2168661581505
 20
637.9589513830238
 30
0.0
 11
374.2166055215372
 21
637.9589513830238
 31
0.0
  0
LINE
  5
1AA
330
1F
100
AcDbEntity
  8
C-2
  6
Continuous
 62
     3
370
     9
100
AcDbLine
 10
378.2164702544344
 20
640.9591592324748
 30
0.0
 11
404.2167044974664
 21
640.9591592324748
 31
0.0
  0
LINE
  5
1AB
330
1F
100
AcDbEntity
  8
C-2
  6
Continuous
 62
     3
370
     9
100
AcDbLine
 10
378.2164702544344
 20
637.9589513830238
 30
0.0
 11
404.2167044974664
 21
637.9589513830238
 31
0.0
  0
LINE
  5
1AC
330
1F
100
AcDbEntity
  8
C-2
  6
Continuous
 62
     3
370
     9
100
AcDbLine
 10
408.2165692303633
 20
640.9591592324748
 30
0.0
 11
434.21630859375
 21
640.9591592324748
 31
0.0
  0
LINE
  5
1AD
330
1F
100
AcDbEntity
  8
C-2
  6
Continuous
 62
     3
370
     9
100
AcDbLine
 10
408.2165692303633
 20
637.9589513830238
 30
0.0
 11
434.21630859375
 21
637.9589513830238
 31
0.0
  0
LINE
  5
1AE
330
1F
100
AcDbEntity
  8
C-2
  6
Continuous
 62
     3
370
     9
100
AcDbLine
 10
438.2169156461151
 20
640.9591592324748
 30
0.0
 11
464.2164075696792
 21
640.9591592324748
 31
0.0
  0
LINE
  5
1AF
330
1F
100
AcDbEntity
  8
C-2
  6
Continuous
 62
     3
370
     9
100
AcDbLine
 10
438.2169156461151
 20
637.9589513830238
 30
0.0
 11
464.2164075696792
 21
637.9589513830238
 31
0.0
  0
LINE
  5
1B0
330
1F
100
AcDbEntity
  8
C-2
  6
Continuous
 62
     3
370
     9
100
AcDbLine
 10
468.2170146220443
 20
640.9591592324748
 30
0.0
 11
494.2165065456084
 21
640.9591592324748
 31
0.0
  0
LINE
  5
1B1
330
1F
100
AcDbEntity
  8
C-2
  6
Continuous
 62
     3
370
     9
100
AcDbLine
 10
468.2170146220443
 20
637.9589513830238
 30
0.0
 11
494.2165065456084
 21
637.9589513830238
 31
0.0
  0
LINE
  5
1B2
330
1F
100
AcDbEntity
  8
C-2
  6
Continuous
 62
     3
370
     9
100
AcDbLine
 10
-491.7835544895482
 20
540.9590767525339
 30
0.0
 11
-465.7838151261612
 21
540.9590767525339
 31
0.0
  0
LINE
  5
1B3
330
1F
100
AcDbEntity
  8
C-2
  6
Continuous
 62
     3
370
     9
100
AcDbLine
 10
-491.7835544895482
 20
537.9591163429054
 30
0.0
 11
-465.7838151261612
 21
537.9591163429054
 31
0.0
  0
LINE
  5
1B4
330
1F
100
AcDbEntity
  8
C-2
  6
Continuous
 62
     3
370
     9
100
AcDbLine
 10
-461.783455513619
 20
540.9590767525339
 30
0.0
 11
-435.7837161502323
 21
540.9590767525339
 31
0.0
  0
LINE
  5
1B5
330
1F
100
AcDbEntity
  8
C-2
  6
Continuous
 62
     3
370
     9
100
AcDbLine
 10
-461.783455513619
 20
537.9591163429054
 30
0.0
 11
-435.7837161502323
 21
537.9591163429054
 31
0.0
  0
LINE
  5
1B6
330
1F
100
AcDbEntity
  8
C-2
  6
Continuous
 62
     3
370
     9
100
AcDbLine
 10
-431.783727697424
 20
540.9590767525339
 30
0.0
 11
-405.7834934543919
 21
540.9590767525339
 31
0.0
  0
LINE
  5
1B7
330
1F
100
AcDbEntity
  8
C-2
  6
Continuous
 62
     3
370
     9
100
AcDbLine
 10
-431.783727697424
 20
537.9591163429054
 30
0.0
 11
-405.7834934543919
 21
537.9591163429054
 31
0.0
  0
LINE
  5
1B8
330
1F
100
AcDbEntity
  8
C-2
  6
Continuous
 62
     3
370
     9
100
AcDbLine
 10
-401.7836287214948
 20
540.9590767525339
 30
0.0
 11
-375.7833944784628
 21
540.9590767525339
 31
0.0
  0
LINE
  5
1B9
330
1F
100
AcDbEntity
  8
C-2
  6
Continuous
 62
     3
370
     9
100
AcDbLine
 10
-401.7836287214948
 20
537.9591163429054
 30
0.0
 11
-375.7833944784628
 21
537.9591163429054
 31
0.0
  0
LINE
  5
1BA
330
1F
100
AcDbEntity
  8
C-2
  6
Continuous
 62
     3
370
     9
100
AcDbLine
 10
-371.7835297455659
 20
540.9590767525339
 30
0.0
 11
-345.7837903821789
 21
540.9590767525339
 31
0.0
  0
LINE
  5
1BB
330
1F
100
AcDbEntity
  8
C-2
  6
Continuous
 62
     3
370
     9
100
AcDbLine
 10
-371.7835297455659
 20
537.9591163429054
 30
0.0
 11
-345.7837903821789
 21
537.9591163429054
 31
0.0
  0
LINE
  5
1BC
330
1F
100
AcDbEntity
  8
C-2
  6
Continuous
 62
     3
370
     9
100
AcDbLine
 10
-341.7838019293706
 20
540.9590767525339
 30
0.0
 11
-315.78369140625
 21
540.9590767525339
 31
0.0
  0
LINE
  5
1BD
330
1F
100
AcDbEntity
  8
C-2
  6
Continuous
 62
     3
370
     9
100
AcDbLine
 10
-341.7838019293706
 20
537.9591163429054
 30
0.0
 11
-315.78369140625
 21
537.9591163429054
 31
0.0
  0
LINE
  5
1BE
330
1F
100
AcDbEntity
  8
C-2
  6
Continuous
 62
     3
370
     9
100
AcDbLine
 10
-311.7837029534417
 20
540.9590767525339
 30
0.0
 11
-285.7834687104096
 21
540.9590767525339
 31
0.0
  0
LINE
  5
1BF
330
1F
100
AcDbEntity
  8
C-2
  6
Continuous
 62
     3
370
     9
100
AcDbLine
 10
-311.7837029534417
 20
537.9591163429054
 30
0.0
 11
-285.7834687104096
 21
537.9591163429054
 31
0.0
  0
LINE
  5
1C0
330
1F
100
AcDbEntity
  8
C-2
  6
Continuous
 62
     3
370
     9
100
AcDbLine
 10
-281.7836039775125
 20
540.9590767525339
 30
0.0
 11
-255.7833697344805
 21
540.9590767525339
 31
0.0
  0
LINE
  5
1C1
330
1F
100
AcDbEntity
  8
C-2
  6
Continuous
 62
     3
370
     9
100
AcDbLine
 10
-281.7836039775125
 20
537.9591163429054
 30
0.0
 11
-255.7833697344805
 21
537.9591163429054
 31
0.0
  0
LINE
  5
1C2
330
1F
100
AcDbEntity
  8
C-2
  6
Continuous
 62
     3
370
     9
100
AcDbLine
 10
-251.7833812816721
 20
540.9590767525339
 30
0.0
 11
-225.7837656381966
 21
540.9590767525339
 31
0.0
  0
LINE
  5
1C3
330
1F
100
AcDbEntity
  8
C-2
  6
Continuous
 62
     3
370
     9
100
AcDbLine
 10
-251.7833812816721
 20
537.9591163429054
 30
0.0
 11
-225.7837656381966
 21
537.9591163429054
 31
0.0
  0
LINE
  5
1C4
330
1F
100
AcDbEntity
  8
C-2
  6
Continuous
 62
     3
370
     9
100
AcDbLine
 10
-221.7832823057432
 20
540.9590767525339
 30
0.0
 11
-195.7835429423562
 21
540.9590767525339
 31
0.0
  0
LINE
  5
1C5
330
1F
100
AcDbEntity
  8
C-2
  6
Continuous
 62
     3
370
     9
100
AcDbLine
 10
-221.7832823057432
 20
537.9591163429054
 30
0.0
 11
-195.7835429423562
 21
537.9591163429054
 31
0.0
  0
LINE
  5
1C6
330
1F
100
AcDbEntity
  8
C-2
  6
Continuous
 62
     3
370
     9
100
AcDbLine
 10
-191.7836782094594
 20
540.9590767525339
 30
0.0
 11
-165.7834439664273
 21
540.9590767525339
 31
0.0
  0
LINE
  5
1C7
330
1F
100
AcDbEntity
  8
C-2
  6
Continuous
 62
     3
370
     9
100
AcDbLine
 10
-191.7836782094594
 20
537.9591163429054
 30
0.0
 11
-165.7834439664273
 21
537.9591163429054
 31
0.0
  0
LINE
  5
1C8
330
1F
100
AcDbEntity
  8
C-2
  6
Continuous
 62
     3
370
     9
100
AcDbLine
 10
-161.7835792335302
 20
540.9590767525339
 30
0.0
 11
-135.7838398701435
 21
540.9590767525339
 31
0.0
  0
LINE
  5
1C9
330
1F
100
AcDbEntity
  8
C-2
  6
Continuous
 62
     3
370
     9
100
AcDbLine
 10
-161.7835792335302
 20
537.9591163429054
 30
0.0
 11
-135.7838398701435
 21
537.9591163429054
 31
0.0
  0
LINE
  5
1CA
330
1F
100
AcDbEntity
  8
C-2
  6
Continuous
 62
     3
370
     9
100
AcDbLine
 10
-131.7833565376898
 20
540.9590767525339
 30
0.0
 11
-105.7836171743031
 21
540.9590767525339
 31
0.0
  0
LINE
  5
1CB
330
1F
100
AcDbEntity
  8
C-2
  6
Continuous
 62
     3
370
     9
100
AcDbLine
 10
-131.7833565376898
 20
537.9591163429054
 30
0.0
 11
-105.7836171743031
 21
537.9591163429054
 31
0.0
  0
LINE
  5
1CC
330
1F
100
AcDbEntity
  8
C-2
  6
Continuous
 62
     3
370
     9
100
AcDbLine
 10
-101.7837524414062
 20
540.9590767525339
 30
0.0
 11
-75.78351819837394
 21
540.9590767525339
 31
0.0
  0
LINE
  5
1CD
330
1F
100
AcDbEntity
  8
C-2
  6
Continuous
 62
     3
370
     9
100
AcDbLine
 10
-101.7837524414062
 20
537.9591163429054
 30
0.0
 11
-75.78351819837394
 21
537.9591163429054
 31
0.0
  0
LINE
  5
1CE
330
1F
100
AcDbEntity
  8
C-2
  6
Continuous
 62
     3
370
     9
100
AcDbLine
 10
-71.78352974556589
 20
540.9590767525339
 30
0.0
 11
-45.78341922244505
 21
540.9590767525339
 31
0.0
  0
LINE
  5
1CF
330
1F
100
AcDbEntity
  8
C-2
  6
Continuous
 62
     3
370
     9
100
AcDbLine
 10
-71.78352974556589
 20
537.9591163429054
 30
0.0
 11
-45.78341922244505
 21
537.9591163429054
 31
0.0
  0
LINE
  5
1D0
330
1F
100
AcDbEntity
  8
C-2
  6
Continuous
 62
     3
370
     9
100
AcDbLine
 10
-41.78343076963671
 20
540.9590767525339
 30
0.0
 11
-15.78369140625
 21
540.9590767525339
 31
0.0
  0
LINE
  5
1D1
330
1F
100
AcDbEntity
  8
C-2
  6
Continuous
 62
     3
370
     9
100
AcDbLine
 10
-41.78343076963671
 20
537.9591163429054
 30
0.0
 11
-15.78369140625
 21
537.9591163429054
 31
0.0
  0
LINE
  5
1D2
330
1F
100
AcDbEntity
  8
C-2
  6
Continuous
 62
     3
370
     9
100
AcDbLine
 10
-11.78382667335285
 20
540.9590767525339
 30
0.0
 11
14.21640756967918
 21
540.9590767525339
 31
0.0
  0
LINE
  5
1D3
330
1F
100
AcDbEntity
  8
C-2
  6
Continuous
 62
     3
370
     9
100
AcDbLine
 10
-11.78382667335285
 20
537.9591163429054
 30
0.0
 11
14.21640756967918
 21
537.9591163429054
 31
0.0
  0
LINE
  5
1D4
330
1F
100
AcDbEntity
  8
C-2
  6
Continuous
 62
     3
370
     9
100
AcDbLine
 10
18.21627230257604
 20
540.9590767525339
 30
0.0
 11
44.21650654560835
 21
540.9590767525339
 31
0.0
  0
LINE
  5
1D5
330
1F
100
AcDbEntity
  8
C-2
  6
Continuous
 62
     3
370
     9
100
AcDbLine
 10
18.21627230257604
 20
537.9591163429054
 30
0.0
 11
44.21650654560835
 21
537.9591163429054
 31
0.0
  0
LINE
  5
1D6
330
1F
100
AcDbEntity
  8
C-2
  6
Continuous
 62
     3
370
     9
100
AcDbLine
 10
48.21637127850522
 20
540.9590767525339
 30
0.0
 11
74.21660552153725
 21
540.9590767525339
 31
0.0
  0
LINE
  5
1D7
330
1F
100
AcDbEntity
  8
C-2
  6
Continuous
 62
     3
370
     9
100
AcDbLine
 10
48.21637127850522
 20
537.9591163429054
 30
0.0
 11
74.21660552153725
 21
537.9591163429054
 31
0.0
  0
LINE
  5
1D8
330
1F
100
AcDbEntity
  8
C-2
  6
Continuous
 62
     3
370
     9
100
AcDbLine
 10
78.21622281461174
 20
540.9590767525339
 30
0.0
 11
104.2162096178211
 21
540.9590767525339
 31
0.0
  0
LINE
  5
1D9
330
1F
100
AcDbEntity
  8
C-2
  6
Continuous
 62
     3
370
     9
100
AcDbLine
 10
78.21622281461174
 20
537.9591163429054
 30
0.0
 11
104.2162096178211
 21
537.9591163429054
 31
0.0
  0
LINE
  5
1DA
330
1F
100
AcDbEntity
  8
C-2
  6
Continuous
 62
     3
370
     9
100
AcDbLine
 10
108.2163217905406
 20
540.9590767525339
 30
0.0
 11
134.2165560335727
 21
540.9590767525339
 31
0.0
  0
LINE
  5
1DB
330
1F
100
AcDbEntity
  8
C-2
  6
Continuous
 62
     3
370
     9
100
AcDbLine
 10
108.2163217905406
 20
537.9591163429054
 30
0.0
 11
134.2165560335727
 21
537.9591163429054
 31
0.0
  0
LINE
  5
1DC
330
1F
100
AcDbEntity
  8
C-2
  6
Continuous
 62
     3
370
     9
100
AcDbLine
 10
138.2164207664698
 20
540.9590767525339
 30
0.0
 11
164.2166550095018
 21
540.9590767525339
 31
0.0
  0
LINE
  5
1DD
330
1F
100
AcDbEntity
  8
C-2
  6
Continuous
 62
     3
370
     9
100
AcDbLine
 10
138.2164207664698
 20
537.9591163429054
 30
0.0
 11
164.2166550095018
 21
537.9591163429054
 31
0.0
  0
LINE
  5
1DE
330
1F
100
AcDbEntity
  8
C-2
  6
Continuous
 62
     3
370
     9
100
AcDbLine
 10
168.2160248627534
 20
540.9590767525339
 30
0.0
 11
194.2162591057857
 21
540.9590767525339
 31
0.0
  0
LINE
  5
1DF
330
1F
100
AcDbEntity
  8
C-2
  6
Continuous
 62
     3
370
     9
100
AcDbLine
 10
168.2160248627534
 20
537.9591163429054
 30
0.0
 11
194.2162591057857
 21
537.9591163429054
 31
0.0
  0
LINE
  5
1E0
330
1F
100
AcDbEntity
  8
C-2
  6
Continuous
 62
     3
370
     9
100
AcDbLine
 10
198.2166187183279
 20
540.9590767525339
 30
0.0
 11
224.2163580817146
 21
540.9590767525339
 31
0.0
  0
LINE
  5
1E1
330
1F
100
AcDbEntity
  8
C-2
  6
Continuous
 62
     3
370
     9
100
AcDbLine
 10
198.2166187183279
 20
537.9591163429054
 30
0.0
 11
224.2163580817146
 21
537.9591163429054
 31
0.0
  0
LINE
  5
1E2
330
1F
100
AcDbEntity
  8
C-2
  6
Continuous
 62
     3
370
     9
100
AcDbLine
 10
228.2162228146117
 20
540.9590767525339
 30
0.0
 11
254.2164570576438
 21
540.9590767525339
 31
0.0
  0
LINE
  5
1E3
330
1F
100
AcDbEntity
  8
C-2
  6
Continuous
 62
     3
370
     9
100
AcDbLine
 10
228.2162228146117
 20
537.9591163429054
 30
0.0
 11
254.2164570576438
 21
537.9591163429054
 31
0.0
  0
LINE
  5
1E4
330
1F
100
AcDbEntity
  8
C-2
  6
Continuous
 62
     3
370
     9
100
AcDbLine
 10
258.2163217905406
 20
540.9590767525339
 30
0.0
 11
284.21630859375
 21
540.9590767525339
 31
0.0
  0
LINE
  5
1E5
330
1F
100
AcDbEntity
  8
C-2
  6
Continuous
 62
     3
370
     9
100
AcDbLine
 10
258.2163217905406
 20
537.9591163429054
 30
0.0
 11
284.21630859375
 21
537.9591163429054
 31
0.0
  0
LINE
  5
1E6
330
1F
100
AcDbEntity
  8
C-2
  6
Continuous
 62
     3
370
     9
100
AcDbLine
 10
288.2164207664698
 20
540.9590767525339
 30
0.0
 11
314.2164075696792
 21
540.9590767525339
 31
0.0
  0
LINE
  5
1E7
330
1F
100
AcDbEntity
  8
C-2
  6
Continuous
 62
     3
370
     9
100
AcDbLine
 10
288.2164207664698
 20
537.9591163429054
 30
0.0
 11
314.2164075696792
 21
537.9591163429054
 31
0.0
  0
LINE
  5
1E8
330
1F
100
AcDbEntity
  8
C-2
  6
Continuous
 62
     3
370
     9
100
AcDbLine
 10
318.216272302576
 20
540.9590767525339
 30
0.0
 11
344.2165065456084
 21
540.9590767525339
 31
0.0
  0
LINE
  5
1E9
330
1F
100
AcDbEntity
  8
C-2
  6
Continuous
 62
     3
370
     9
100
AcDbLine
 10
318.216272302576
 20
537.9591163429054
 30
0.0
 11
344.2165065456084
 21
537.9591163429054
 31
0.0
  0
LINE
  5
1EA
330
1F
100
AcDbEntity
  8
C-2
  6
Continuous
 62
     3
370
     9
100
AcDbLine
 10
348.2168661581505
 20
540.9590767525339
 30
0.0
 11
374.2166055215372
 21
540.9590767525339
 31
0.0
  0
LINE
  5
1EB
330
1F
100
AcDbEntity
  8
C-2
  6
Continuous
 62
     3
370
     9
100
AcDbLine
 10
348.2168661581505
 20
537.9591163429054
 30
0.0
 11
374.2166055215372
 21
537.9591163429054
 31
0.0
  0
LINE
  5
1EC
330
1F
100
AcDbEntity
  8
C-2
  6
Continuous
 62
     3
370
     9
100
AcDbLine
 10
378.2164702544344
 20
540.9590767525339
 30
0.0
 11
404.2167044974664
 21
540.9590767525339
 31
0.0
  0
LINE
  5
1ED
330
1F
100
AcDbEntity
  8
C-2
  6
Continuous
 62
     3
370
     9
100
AcDbLine
 10
378.2164702544344
 20
537.9591163429054
 30
0.0
 11
404.2167044974664
 21
537.9591163429054
 31
0.0
  0
LINE
  5
1EE
330
1F
100
AcDbEntity
  8
C-2
  6
Continuous
 62
     3
370
     9
100
AcDbLine
 10
408.2165692303633
 20
540.9590767525339
 30
0.0
 11
434.21630859375
 21
540.9590767525339
 31
0.0
  0
LINE
  5
1EF
330
1F
100
AcDbEntity
  8
C-2
  6
Continuous
 62
     3
370
     9
100
AcDbLine
 10
408.2165692303633
 20
537.9591163429054
 30
0.0
 11
434.21630859375
 21
537.9591163429054
 31
0.0
  0
LINE
  5
1F0
330
1F
100
AcDbEntity
  8
C-2
  6
Continuous
 62
     3
370
     9
100
AcDbLine
 10
438.2169156461151
 20
540.9590767525339
 30
0.0
 11
464.2164075696792
 21
540.9590767525339
 31
0.0
  0
LINE
  5
1F1
330
1F
100
AcDbEntity
  8
C-2
  6
Continuous
 62
     3
370
     9
100
AcDbLine
 10
438.2169156461151
 20
537.9591163429054
 30
0.0
 11
464.2164075696792
 21
537.9591163429054
 31
0.0
  0
LINE
  5
1F2
330
1F
100
AcDbEntity
  8
C-2
  6
Continuous
 62
     3
370
     9
100
AcDbLine
 10
468.2170146220443
 20
540.9590767525339
 30
0.0
 11
494.2165065456084
 21
540.9590767525339
 31
0.0
  0
LINE
  5
1F3
330
1F
100
AcDbEntity
  8
C-2
  6
Continuous
 62
     3
370
     9
100
AcDbLine
 10
468.2170146220443
 20
537.9591163429054
 30
0.0
 11
494.2165065456084
 21
537.9591163429054
 31
0.0
  0
LINE
  5
1F4
330
1F
100
AcDbEntity
  8
C-5
  6
Continuous
 62
     7
370
     9
100
AcDbLine
 10
-283.7837837837836
 20
274.4594594594597
 30
0.0
 11
-283.7837837837836
 21
339.4590553077492
 31
0.0
  0
LINE
  5
1F5
330
1F
100
AcDbEntity
  8
C-5
  6
Continuous
 62
     7
370
     9
100
AcDbLine
 10
-283.7837837837836
 20
339.4590553077492
 30
0.0
 11
291.2161337362755
 21
339.4590553077492
 31
0.0
  0
LINE
  5
1F6
330
1F
100
AcDbEntity
  8
C-5
  6
Continuous
 62
     7
370
     9
100
AcDbLine
 10
291.2161337362755
 20
339.4590553077492
 30
0.0
 11
291.2161337362755
 21
274.4594594594597
 31
0.0
  0
LINE
  5
1F7
330
1F
100
AcDbEntity
  8
C-5
  6
Continuous
 62
     7
370
     9
100
AcDbLine
 10
291.2161337362755
 20
274.4594594594597
 30
0.0
 11
-283.7837837837836
 21
274.4594594594597
 31
0.0
  0
LINE
  5
1F8
330
1F
100
AcDbEntity
  8
C-4
  6
Continuous
 62
     7
370
     9
100
AcDbLine
 10
346.2173049514359
 20
949.46044921875
 30
0.0
 11
376.2164141680745
 21
949.46044921875
 31
0.0
  0
LINE
  5
1F9
330
1F
100
AcDbEntity
  8
C-4
  6
Continuous
 62
     7
370
     9
100
AcDbLine
 10
346.2173049514359
 20
906.4601094013938
 30
0.0
 11
346.2173049514359
 21
952.4601621885561
 31
0.0
  0
LINE
  5
1FA
330
1F
100
AcDbEntity
  8
C-4
  6
Continuous
 62
     7
370
     9
100
AcDbLine
 10
376.2164141680745
 20
906.4601094013938
 30
0.0
 11
376.2164141680745
 21
952.4601621885561
 31
0.0
  0
TEXT
  5
1FB
330
1F
100
AcDbEntity
  8
C-4
  6
Continuous
 62
     2
370
     9
100
AcDbText
 10
-523.7447377797719
 20
1022.098740234375
 30
0.0
 40
30.48
  1
2
 41
1.000000000000001
  7
ＭＳ ゴシック
100
AcDbText
  0
TEXT
  5
1FC
330
1F
100
AcDbEntity
  8
C-4
  6
Continuous
 62
     2
370
     9
100
AcDbText
 10
-31.28344561602603
 20
1022.098740234375
 30
0.0
 40
30.48
  1
994
 41
1.083333333333333
  7
ＭＳ ゴシック
100
AcDbText
  0
TEXT
  5
1FD
330
1F
100
AcDbEntity
  8
C-4
  6
Continuous
 62
     2
370
     9
100
AcDbText
 10
472.2549850876266
 20
1022.098740234375
 30
0.0
 40
30.48
  1
2
 41
0.9999999999999998
  7
ＭＳ ゴシック
100
AcDbText
  0
TEXT
  5
1FE
330
1F
100
AcDbEntity
  8
C-4
  6
Continuous
 62
     2
370
     9
100
AcDbText
 10
-30.28366501266873
 20
1102.099251610008
 30
0.0
 40
30.48
  1
996
 41
1.083333333333333
  7
ＭＳ ゴシック
100
AcDbText
  0
TEXT
  5
1FF
330
1F
100
AcDbEntity
  8
C-5
  6
Continuous
 62
     2
370
     9
100
AcDbText
 10
-263.783717799831
 20
292.5991295396961
 30
0.0
 40
30.48
  1
平面詳細図　Ｓ＝１：１０
 41
1.114583333333333
  7
ＭＳ ゴシック
100
AcDbText
  0
TEXT
  5
200
330
1F
100
AcDbEntity
  8
C-4
  6
Continuous
 62
     2
370
     9
100
AcDbText
 10
339.9667275918497
 20
960.1002182749156
 30
0.0
 40
30.48
  1
30
 41
1.0625
  7
ＭＳ ゴシック
100
AcDbText
  0
LINE
  5
201
330
1F
100
AcDbEntity
  8
C-A
  6
Continuous
 62
     3
370
     9
100
AcDbLine
 10
-240.033354475692
 20
924.4589513252292
 30
0.0
 11
-241.283354475692
 21
924.4589513252292
 31
0.0
  0
LINE
  5
202
330
1F
100
AcDbEntity
  8
C-A
  6
Continuous
 62
     3
370
     9
100
AcDbLine
 10
-240.033354475692
 20
924.4589513252292
 30
0.0
 11
-240.033354475692
 21
953.458935589603
 31
0.0
  0
LINE
  5
203
330
1F
100
AcDbEntity
  8
C-A
  6
Continuous
 62
     3
370
     9
100
AcDbLine
 10
-241.2880236651453
 20
920.458937973787
 30
0.0
 11
-240.7748705889735
 21
920.458937973787
 31
0.0
  0
LINE
  5
204
330
1F
100
AcDbEntity
  8
C-A
  6
Continuous
 62
     3
370
     9
100
AcDbLine
 10
-256.7832934405355
 20
920.458937973787
 30
0.0
 11
-256.2833239581146
 21
920.458937973787
 31
0.0
  0
LINE
  5
205
330
1F
100
AcDbEntity
  8
C-A
  6
Continuous
 62
     3
370
     9
100
AcDbLine
 10
-257.533415510848
 20
924.4589513252292
 30
0.0
 11
-256.2834460284266
 21
924.4589513252292
 31
0.0
  0
LINE
  5
206
330
1F
100
AcDbEntity
  8
C-A
  6
Continuous
 62
     3
370
     9
100
AcDbLine
 10
-257.533415510848
 20
924.4589513252292
 30
0.0
 11
-257.533415510848
 21
953.458935589603
 31
0.0
  0
LINE
  5
207
330
1F
100
AcDbEntity
  8
C-A
  6
Continuous
 62
     3
370
     9
100
AcDbLine
 10
-240.033354475692
 20
953.458935589603
 30
0.0
 11
-257.533415510848
 21
953.458935589603
 31
0.0
  0
LINE
  5
208
330
1F
100
AcDbEntity
  8
C-A
  6
JWW_DASHED2
 62
     3
370
     9
100
AcDbLine
 10
-242.0333849932699
 20
924.3130358169576
 30
0.0
 11
-242.0333849932699
 21
953.458935589603
 31
0.0
  0
LINE
  5
209
330
1F
100
AcDbEntity
  8
C-A
  6
JWW_DASHED2
 62
     3
370
     9
100
AcDbLine
 10
-255.5334155108487
 20
924.3130358169576
 30
0.0
 11
-255.5334155108487
 21
953.458935589603
 31
0.0
  0
LINE
  5
20A
330
1F
100
AcDbEntity
  8
C-A
  6
Continuous
 62
     3
370
     9
100
AcDbLine
 10
259.9666150067305
 20
924.4589513252292
 30
0.0
 11
258.7166150067305
 21
924.4589513252292
 31
0.0
  0
LINE
  5
20B
330
1F
100
AcDbEntity
  8
C-A
  6
Continuous
 62
     3
370
     9
100
AcDbLine
 10
259.9666150067305
 20
924.4589513252292
 30
0.0
 11
259.9666150067305
 21
953.458935589603
 31
0.0
  0
LINE
  5
20C
330
1F
100
AcDbEntity
  8
C-A
  6
Continuous
 62
     3
370
     9
100
AcDbLine
 10
258.7119763348524
 20
920.458937973787
 30
0.0
 11
259.2251599286051
 21
920.458937973787
 31
0.0
  0
LINE
  5
20D
330
1F
100
AcDbEntity
  8
C-A
  6
Continuous
 62
     3
370
     9
100
AcDbLine
 10
243.2167370770431
 20
920.458937973787
 30
0.0
 11
243.7166760418854
 21
920.458937973787
 31
0.0
  0
LINE
  5
20E
330
1F
100
AcDbEntity
  8
C-A
  6
Continuous
 62
     3
370
     9
100
AcDbLine
 10
242.4665539715711
 20
924.4589513252292
 30
0.0
 11
243.7165539715711
 21
924.4589513252292
 31
0.0
  0
LINE
  5
20F
330
1F
100
AcDbEntity
  8
C-A
  6
Continuous
 62
     3
370
     9
100
AcDbLine
 10
242.4665539715711
 20
924.4589513252292
 30
0.0
 11
242.4665539715711
 21
953.458935589603
 31
0.0
  0
LINE
  5
210
330
1F
100
AcDbEntity
  8
C-A
  6
Continuous
 62
     3
370
     9
100
AcDbLine
 10
259.9666150067305
 20
953.458935589603
 30
0.0
 11
242.4665539715711
 21
953.458935589603
 31
0.0
  0
LINE
  5
211
330
1F
100
AcDbEntity
  8
C-A
  6
JWW_DASHED2
 62
     3
370
     9
100
AcDbLine
 10
257.9666150067301
 20
924.3130358169576
 30
0.0
 11
257.9666150067301
 21
953.458935589603
 31
0.0
  0
LINE
  5
212
330
1F
100
AcDbEntity
  8
C-A
  6
JWW_DASHED2
 62
     3
370
     9
100
AcDbLine
 10
244.4666150067265
 20
924.3130358169576
 30
0.0
 11
244.4666150067265
 21
953.458935589603
 31
0.0
  0
LINE
  5
213
330
1F
100
AcDbEntity
  8
C-A
  6
JWW_CENTER2
 62
     7
370
     9
100
AcDbLine
 10
-248.783354475692
 20
910.9907568405167
 30
0.0
 11
-248.783354475692
 21
958.3911560485869
 31
0.0
  0
LINE
  5
214
330
1F
100
AcDbEntity
  8
C-A
  6
JWW_CENTER2
 62
     7
370
     9
100
AcDbLine
 10
-254.5593554522547
 20
943.458889813234
 30
0.0
 11
-243.0073229815518
 21
943.458889813234
 31
0.0
  0
LINE
  5
215
330
1F
100
AcDbEntity
  8
C-A
  6
JWW_CENTER2
 62
     7
370
     9
100
AcDbLine
 10
245.4406140301667
 20
943.458889813234
 30
0.0
 11
256.9926770184493
 21
943.458889813234
 31
0.0
  0
LINE
  5
216
330
1F
100
AcDbEntity
  8
C-A
  6
JWW_CENTER2
 62
     7
370
     9
100
AcDbLine
 10
251.2166760418854
 20
910.9907568405167
 30
0.0
 11
251.2166760418854
 21
958.3911560485869
 31
0.0
  0
ARC
  5
217
330
1F
100
AcDbEntity
  8
C-A
  6
Continuous
 62
     3
370
     9
100
AcDbCircle
 10
-240.7832934405364
 20
918.4589560935995
 30
0.0
 40
1.999999642372131
100
AcDbArc
 50
29.99926757812499
 51
89.75836181640624
  0
ARC
  5
218
330
1F
100
AcDbEntity
  8
C-A
  6
Continuous
 62
     3
370
     9
100
AcDbCircle
 10
-241.283354475692
 20
922.4589322517425
 30
0.0
 40
1.999999642372131
100
AcDbArc
 50
90.0
 51
269.86669921875
  0
ARC
  5
219
330
1F
100
AcDbEntity
  8
C-A
  6
Continuous
 62
     3
370
     9
100
AcDbCircle
 10
-256.7832934405355
 20
918.4589560935995
 30
0.0
 40
1.999999642372131
100
AcDbArc
 50
90.2759552001953
 51
150.0004730224609
  0
ARC
  5
21A
330
1F
100
AcDbEntity
  8
C-A
  6
Continuous
 62
     3
370
     9
100
AcDbCircle
 10
-256.2834460284266
 20
922.4589322517425
 30
0.0
 40
1.999999642372131
100
AcDbArc
 50
270.0
 51
90.0
  0
CIRCLE
  5
21B
330
1F
100
AcDbEntity
  8
C-A
  6
Continuous
 62
     3
370
     9
100
AcDbCircle
 10
-248.783354475692
 20
943.458889813234
 30
0.0
 40
4.249999523162842
  0
ARC
  5
21C
330
1F
100
AcDbEntity
  8
C-A
  6
Continuous
 62
     3
370
     9
100
AcDbCircle
 10
259.2166760418827
 20
918.4589560935995
 30
0.0
 40
1.999999642372131
100
AcDbArc
 50
29.99926757812499
 51
89.75836181640624
  0
ARC
  5
21D
330
1F
100
AcDbEntity
  8
C-A
  6
Continuous
 62
     3
370
     9
100
AcDbCircle
 10
258.7166150067305
 20
922.4589322517425
 30
0.0
 40
1.999999642372131
100
AcDbArc
 50
90.0
 51
269.86669921875
  0
ARC
  5
21E
330
1F
100
AcDbEntity
  8
C-A
  6
Continuous
 62
     3
370
     9
100
AcDbCircle
 10
243.2167370770431
 20
918.4589560935995
 30
0.0
 40
1.999999642372131
100
AcDbArc
 50
90.2759552001953
 51
150.0004730224609
  0
ARC
  5
21F
330
1F
100
AcDbEntity
  8
C-A
  6
Continuous
 62
     3
370
     9
100
AcDbCircle
 10
243.7165539715711
 20
922.4589322517425
 30
0.0
 40
1.999999642372131
100
AcDbArc
 50
270.0
 51
90.0
  0
CIRCLE
  5
220
330
1F
100
AcDbEntity
  8
C-A
  6
Continuous
 62
     3
370
     9
100
AcDbCircle
 10
251.2166760418854
 20
943.458889813234
 30
0.0
 40
4.249999523162842
  0
LINE
  5
221
330
1F
100
AcDbEntity
  8
C-A
  6
Continuous
 62
     3
370
     9
100
AcDbLine
 10
-240.033354475692
 20
454.4584999275769
 30
0.0
 11
-241.283354475692
 21
454.4584999275769
 31
0.0
  0
LINE
  5
222
330
1F
100
AcDbEntity
  8
C-A
  6
Continuous
 62
     3
370
     9
100
AcDbLine
 10
-240.033354475692
 20
454.4584999275769
 30
0.0
 11
-240.033354475692
 21
425.4585151863687
 31
0.0
  0
LINE
  5
223
330
1F
100
AcDbEntity
  8
C-A
  6
Continuous
 62
     3
370
     9
100
AcDbLine
 10
-241.2880236651453
 20
458.458515186366
 30
0.0
 11
-240.7748705889735
 21
458.458515186366
 31
0.0
  0
LINE
  5
224
330
1F
100
AcDbEntity
  8
C-A
  6
Continuous
 62
     3
370
     9
100
AcDbLine
 10
-256.7832934405355
 20
458.458515186366
 30
0.0
 11
-256.2833239581146
 21
458.458515186366
 31
0.0
  0
LINE
  5
225
330
1F
100
AcDbEntity
  8
C-A
  6
Continuous
 62
     3
370
     9
100
AcDbLine
 10
-257.533415510848
 20
454.4584999275769
 30
0.0
 11
-256.2834460284266
 21
454.4584999275769
 31
0.0
  0
LINE
  5
226
330
1F
100
AcDbEntity
  8
C-A
  6
Continuous
 62
     3
370
     9
100
AcDbLine
 10
-257.533415510848
 20
454.4584999275769
 30
0.0
 11
-257.533415510848
 21
425.4585151863687
 31
0.0
  0
LINE
  5
227
330
1F
100
AcDbEntity
  8
C-A
  6
Continuous
 62
     3
370
     9
100
AcDbLine
 10
-240.033354475692
 20
425.4585151863687
 30
0.0
 11
-257.533415510848
 21
425.4585151863687
 31
0.0
  0
LINE
  5
228
330
1F
100
AcDbEntity
  8
C-A
  6
JWW_DASHED2
 62
     3
370
     9
100
AcDbLine
 10
-242.0333849932699
 20
454.6044044685952
 30
0.0
 11
-242.0333849932699
 21
425.4585151863687
 31
0.0
  0
LINE
  5
229
330
1F
100
AcDbEntity
  8
C-A
  6
JWW_DASHED2
 62
     3
370
     9
100
AcDbLine
 10
-255.5334155108487
 20
454.6044044685952
 30
0.0
 11
-255.5334155108487
 21
425.4585151863687
 31
0.0
  0
LINE
  5
22A
330
1F
100
AcDbEntity
  8
C-4
  6
Continuous
 62
     7
370
     9
100
AcDbLine
 10
251.2167370770426
 20
414.7394600105865
 30
0.0
 11
251.2167370770426
 21
371.4582863045318
 31
0.0
  0
LINE
  5
22B
330
1F
100
AcDbEntity
  8
C-4
  6
Continuous
 62
     7
370
     9
100
AcDbLine
 10
-248.783354475692
 20
414.7394600105865
 30
0.0
 11
-248.783354475692
 21
371.4582863045318
 31
0.0
  0
LINE
  5
22C
330
1F
100
AcDbEntity
  8
C-4
  6
Continuous
 62
     7
370
     9
100
AcDbLine
 10
-248.783354475692
 20
374.4583473396863
 30
0.0
 11
251.2167370770426
 21
374.4583473396863
 31
0.0
  0
LINE
  5
22D
330
1F
100
AcDbEntity
  8
C-A
  6
Continuous
 62
     3
370
     9
100
AcDbLine
 10
259.9666150067305
 20
454.4584999275769
 30
0.0
 11
258.7166150067305
 21
454.4584999275769
 31
0.0
  0
LINE
  5
22E
330
1F
100
AcDbEntity
  8
C-A
  6
Continuous
 62
     3
370
     9
100
AcDbLine
 10
259.9666150067305
 20
454.4584999275769
 30
0.0
 11
259.9666150067305
 21
425.4585151863687
 31
0.0
  0
LINE
  5
22F
330
1F
100
AcDbEntity
  8
C-A
  6
Continuous
 62
     3
370
     9
100
AcDbLine
 10
258.7119763348524
 20
458.458515186366
 30
0.0
 11
259.2251599286051
 21
458.458515186366
 31
0.0
  0
LINE
  5
230
330
1F
100
AcDbEntity
  8
C-A
  6
Continuous
 62
     3
370
     9
100
AcDbLine
 10
243.2167370770431
 20
458.458515186366
 30
0.0
 11
243.7166760418854
 21
458.458515186366
 31
0.0
  0
LINE
  5
231
330
1F
100
AcDbEntity
  8
C-A
  6
Continuous
 62
     3
370
     9
100
AcDbLine
 10
242.4665539715711
 20
454.4584999275769
 30
0.0
 11
243.7165539715711
 21
454.4584999275769
 31
0.0
  0
LINE
  5
232
330
1F
100
AcDbEntity
  8
C-A
  6
Continuous
 62
     3
370
     9
100
AcDbLine
 10
242.4665539715711
 20
454.4584999275769
 30
0.0
 11
242.4665539715711
 21
425.4585151863687
 31
0.0
  0
LINE
  5
233
330
1F
100
AcDbEntity
  8
C-A
  6
Continuous
 62
     3
370
     9
100
AcDbLine
 10
259.9666150067305
 20
425.4585151863687
 30
0.0
 11
242.4665539715711
 21
425.4585151863687
 31
0.0
  0
LINE
  5
234
330
1F
100
AcDbEntity
  8
C-A
  6
JWW_DASHED2
 62
     3
370
     9
100
AcDbLine
 10
257.9666150067301
 20
454.6044044685952
 30
0.0
 11
257.9666150067301
 21
425.4585151863687
 31
0.0
  0
LINE
  5
235
330
1F
100
AcDbEntity
  8
C-A
  6
JWW_DASHED2
 62
     3
370
     9
100
AcDbLine
 10
244.4666150067265
 20
454.6044044685952
 30
0.0
 11
244.4666150067265
 21
425.4585151863687
 31
0.0
  0
LINE
  5
236
330
1F
100
AcDbEntity
  8
C-A
  6
JWW_CENTER2
 62
     7
370
     9
100
AcDbLine
 10
245.4406140301667
 20
435.4585609627331
 30
0.0
 11
256.9926770184493
 21
435.4585609627331
 31
0.0
  0
LINE
  5
237
330
1F
100
AcDbEntity
  8
C-A
  6
JWW_CENTER2
 62
     7
370
     9
100
AcDbLine
 10
251.2166760418854
 20
467.9266853523852
 30
0.0
 11
251.2166760418854
 21
420.5262947273825
 31
0.0
  0
LINE
  5
238
330
1F
100
AcDbEntity
  8
C-A
  6
JWW_CENTER2
 62
     7
370
     9
100
AcDbLine
 10
-254.5593554522547
 20
435.4585609627331
 30
0.0
 11
-243.0073229815518
 21
435.4585609627331
 31
0.0
  0
LINE
  5
239
330
1F
100
AcDbEntity
  8
C-A
  6
JWW_CENTER2
 62
     7
370
     9
100
AcDbLine
 10
-248.783354475692
 20
467.9266853523852
 30
0.0
 11
-248.783354475692
 21
420.5262947273825
 31
0.0
  0
ARC
  5
23A
330
1F
100
AcDbEntity
  8
C-A
  6
Continuous
 62
     3
370
     9
100
AcDbCircle
 10
-240.7832934405364
 20
460.4584846687878
 30
0.0
 40
1.999999642372131
100
AcDbArc
 50
270.2416229248047
 51
330.0007171630859
  0
ARC
  5
23B
330
1F
100
AcDbEntity
  8
C-A
  6
Continuous
 62
     3
370
     9
100
AcDbCircle
 10
-241.283354475692
 20
456.4585151863678
 30
0.0
 40
1.999999642372131
100
AcDbArc
 50
90.13328552246095
 51
270.0
  0
ARC
  5
23C
330
1F
100
AcDbEntity
  8
C-A
  6
Continuous
 62
     3
370
     9
100
AcDbCircle
 10
-256.7832934405355
 20
460.4584846687878
 30
0.0
 40
1.999999642372131
100
AcDbArc
 50
209.99951171875
 51
269.7240295410157
  0
ARC
  5
23D
330
1F
100
AcDbEntity
  8
C-A
  6
Continuous
 62
     3
370
     9
100
AcDbCircle
 10
-256.2834460284266
 20
456.4585151863678
 30
0.0
 40
1.999999642372131
100
AcDbArc
 50
270.0
 51
90.0
  0
CIRCLE
  5
23E
330
1F
100
AcDbEntity
  8
C-A
  6
Continuous
 62
     3
370
     9
100
AcDbCircle
 10
-248.783354475692
 20
435.4585609627331
 30
0.0
 40
4.249999523162842
  0
ARC
  5
23F
330
1F
100
AcDbEntity
  8
C-A
  6
Continuous
 62
     3
370
     9
100
AcDbCircle
 10
259.2166760418827
 20
460.4584846687878
 30
0.0
 40
1.999999642372131
100
AcDbArc
 50
270.2416229248047
 51
330.0007171630859
  0
ARC
  5
240
330
1F
100
AcDbEntity
  8
C-A
  6
Continuous
 62
     3
370
     9
100
AcDbCircle
 10
258.7166150067305
 20
456.4585151863678
 30
0.0
 40
1.999999642372131
100
AcDbArc
 50
90.13328552246095
 51
270.0
  0
ARC
  5
241
330
1F
100
AcDbEntity
  8
C-A
  6
Continuous
 62
     3
370
     9
100
AcDbCircle
 10
243.2167370770431
 20
460.4584846687878
 30
0.0
 40
1.999999642372131
100
AcDbArc
 50
209.99951171875
 51
269.7240295410157
  0
ARC
  5
242
330
1F
100
AcDbEntity
  8
C-A
  6
Continuous
 62
     3
370
     9
100
AcDbCircle
 10
243.7165539715711
 20
456.4585151863678
 30
0.0
 40
1.999999642372131
100
AcDbArc
 50
270.0
 51
90.0
  0
CIRCLE
  5
243
330
1F
100
AcDbEntity
  8
C-A
  6
Continuous
 62
     3
370
     9
100
AcDbCircle
 10
251.2166760418854
 20
435.4585609627331
 30
0.0
 40
4.249999523162842
  0
LWPOLYLINE
  5
244
330
1F
100
AcDbEntity
  8
C-4
  6
Continuous
 62
     7
370
     9
100
AcDbPolyline
 90
        4
 70
     1
 43
2.0
 10
252.2167370770426
 20
374.4583473396863
 42
0.4142135623731
 10
251.2167370770426
 20
375.4583473396863
 42
0.4142135623731
 10
250.2167370770426
 20
374.4583473396863
 42
0.4142135623731
 10
251.2167370770426
 20
373.4583473396862
 42
0.4142135623731
  0
LWPOLYLINE
  5
245
330
1F
100
AcDbEntity
  8
C-4
  6
Continuous
 62
     7
370
     9
100
AcDbPolyline
 90
        4
 70
     1
 43
2.0
 10
-247.783354475692
 20
374.4583473396863
 42
0.4142135623731
 10
-248.783354475692
 20
375.4583473396863
 42
0.4142135623731
 10
-249.783354475692
 20
374.4583473396863
 42
0.4142135623731
 10
-248.783354475692
 20
373.4583473396862
 42
0.4142135623731
  0
TEXT
  5
246
330
1F
100
AcDbEntity
  8
C-4
  6
Continuous
 62
     2
370
     9
100
AcDbText
 10
-31.28332395810432
 20
385.0981184578503
 30
0.0
 40
30.48
  1
500
 41
1.083333333333011
  7
ＭＳ ゴシック
100
AcDbText
  0
LINE
  5
247
330
1F
100
AcDbEntity
  8
D-2
  6
Continuous
 62
     3
370
     9
100
AcDbLine
 10
-705.3124776909539
 20
-406.6506958007812
 30
0.0
 11
-705.3124776909539
 21
-306.6508607606629
 31
0.0
  0
LINE
  5
248
330
1F
100
AcDbEntity
  8
D-2
  6
Continuous
 62
     3
370
     9
100
AcDbLine
 10
-685.312411707001
 20
-306.6508607606629
 30
0.0
 11
-685.312411707001
 21
-406.6506958007812
 31
0.0
  0
LINE
  5
249
330
1F
100
AcDbEntity
  8
D-2
  6
Continuous
 62
     3
370
     9
100
AcDbLine
 10
-1382.981054318118
 20
-461.8946054819468
 30
0.0
 11
-1382.981054318118
 21
-237.952039563978
 31
0.0
  0
LINE
  5
24A
330
1F
100
AcDbEntity
  8
D-2
  6
Continuous
 62
     3
370
     9
100
AcDbLine
 10
-1382.981054318118
 20
-406.6506958007812
 30
0.0
 11
-685.312411707001
 21
-406.6506958007812
 31
0.0
  0
LINE
  5
24B
330
1F
100
AcDbEntity
  8
D-2
  6
Continuous
 62
     3
370
     9
100
AcDbLine
 10
-685.312411707001
 20
-306.6508607606629
 30
0.0
 11
-1382.981054318118
 21
-306.6508607606629
 31
0.0
  0
LINE
  5
24C
330
1F
100
AcDbEntity
  8
D-5
  6
Continuous
 62
     7
370
     9
100
AcDbLine
 10
-86.74644919908296
 20
-356.6504071209881
 30
0.0
 11
-86.74644919908296
 21
-306.650118441195
 31
0.0
  0
LINE
  5
24D
330
1F
100
AcDbEntity
  8
D-5
  6
Continuous
 62
     7
370
     9
100
AcDbLine
 10
-86.74644919908296
 20
-306.650118441195
 30
0.0
 11
138.2533033610944
 21
-306.650118441195
 31
0.0
  0
LINE
  5
24E
330
1F
100
AcDbEntity
  8
D-5
  6
Continuous
 62
     7
370
     9
100
AcDbLine
 10
138.2533033610944
 20
-306.650118441195
 30
0.0
 11
138.2533033610944
 21
-356.6504071209881
 31
0.0
  0
LINE
  5
24F
330
1F
100
AcDbEntity
  8
D-5
  6
Continuous
 62
     7
370
     9
100
AcDbLine
 10
138.2533033610944
 20
-356.6504071209881
 30
0.0
 11
-86.74644919908296
 21
-356.6504071209881
 31
0.0
  0
TEXT
  5
250
330
1F
100
AcDbEntity
  8
D-5
  6
Continuous
 62
     2
370
     9
100
AcDbText
 10
-39.24641620710666
 20
-346.0102669050887
 30
0.0
 40
30.48
  1
仕　様
 41
1.083333333333333
  7
ＭＳ ゴシック
100
AcDbText
  0
LINE
  5
251
330
1F
100
AcDbEntity
  8
D-2
  6
Continuous
 62
     3
370
     9
100
AcDbLine
 10
-1067.813220010421
 20
-306.6508607606629
 30
0.0
 11
-1067.813220010421
 21
-381.6508607606629
 31
0.0
  0
LINE
  5
252
330
1F
100
AcDbEntity
  8
D-2
  6
Continuous
 62
     3
370
     9
100
AcDbLine
 10
-1052.813046802546
 20
-306.6508607606629
 30
0.0
 11
-1052.813046802546
 21
-381.6508607606629
 31
0.0
  0
LINE
  5
253
330
1F
100
AcDbEntity
  8
D-2
  6
Continuous
 62
     3
370
     9
100
AcDbLine
 10
-1047.812906586646
 20
-334.1507040487753
 30
0.0
 11
-1017.81305505054
 21
-344.1508607606629
 31
0.0
  0
LINE
  5
254
330
1F
100
AcDbEntity
  8
D-2
  6
Continuous
 62
     3
370
     9
100
AcDbLine
 10
-1017.81305505054
 20
-344.1508607606629
 30
0.0
 11
-1017.81305505054
 21
-371.6507040487753
 31
0.0
  0
LINE
  5
255
330
1F
100
AcDbEntity
  8
D-2
  6
Continuous
 62
     3
370
     9
100
AcDbLine
 10
-1047.812906586646
 20
-371.6507040487753
 30
0.0
 11
-1017.81305505054
 21
-371.6507040487753
 31
0.0
  0
LINE
  5
256
330
1F
100
AcDbEntity
  8
D-2
  6
Continuous
 62
     3
370
     9
100
AcDbLine
 10
-1047.812906586646
 20
-371.6507040487753
 30
0.0
 11
-1047.812906586646
 21
-381.6508607606629
 31
0.0
  0
LINE
  5
257
330
1F
100
AcDbEntity
  8
D-2
  6
Continuous
 62
     3
370
     9
100
AcDbLine
 10
-1047.812906586646
 20
-381.6508607606629
 30
0.0
 11
-1072.812617906853
 21
-381.6508607606629
 31
0.0
  0
LINE
  5
258
330
1F
100
AcDbEntity
  8
D-2
  6
Continuous
 62
     3
370
     9
100
AcDbLine
 10
-1072.812617906853
 20
-381.6508607606629
 30
0.0
 11
-1102.812840602694
 21
-371.6507040487753
 31
0.0
  0
LINE
  5
259
330
1F
100
AcDbEntity
  8
D-2
  6
Continuous
 62
     3
370
     9
100
AcDbLine
 10
-1102.812840602694
 20
-344.1508607606629
 30
0.0
 11
-1102.812840602694
 21
-371.6507040487753
 31
0.0
  0
LINE
  5
25A
330
1F
100
AcDbEntity
  8
D-2
  6
Continuous
 62
     3
370
     9
100
AcDbLine
 10
-1102.812840602694
 20
-344.1508607606629
 30
0.0
 11
-1072.812617906853
 21
-344.1508607606629
 31
0.0
  0
LINE
  5
25B
330
1F
100
AcDbEntity
  8
D-2
  6
Continuous
 62
     3
370
     9
100
AcDbLine
 10
-1072.812617906853
 20
-334.1507040487753
 30
0.0
 11
-1072.812617906853
 21
-344.1508607606629
 31
0.0
  0
LINE
  5
25C
330
1F
100
AcDbEntity
  8
D-2
  6
Continuous
 62
     3
370
     9
100
AcDbLine
 10
-1067.813220010421
 20
-334.1507040487753
 30
0.0
 11
-1072.812617906853
 21
-334.1507040487753
 31
0.0
  0
LINE
  5
25D
330
1F
100
AcDbEntity
  8
D-2
  6
Continuous
 62
     3
370
     9
100
AcDbLine
 10
-1047.812906586646
 20
-334.1507040487753
 30
0.0
 11
-1052.813046802546
 21
-334.1507040487753
 31
0.0
  0
LINE
  5
25E
330
1F
100
AcDbEntity
  8
D-1
  6
Continuous
 62
     2
370
     9
100
AcDbLine
 10
-680.3129862957767
 20
-421.65046021745
 30
0.0
 11
-675.312715094643
 21
-421.65046021745
 31
0.0
  0
LINE
  5
25F
330
1F
100
AcDbEntity
  8
D-1
  6
Continuous
 62
     2
370
     9
100
AcDbLine
 10
-675.312715094643
 20
-306.6511659364442
 30
0.0
 11
-675.312715094643
 21
-406.6506414155701
 31
0.0
  0
LINE
  5
260
330
1F
100
AcDbEntity
  8
D-4
  6
Continuous
 62
     7
370
     9
100
AcDbLine
 10
-685.311770720019
 20
-79.47978303239026
 30
0.0
 11
-680.311499755936
 21
-79.47978303239026
 31
0.0
  0
LINE
  5
261
330
1F
100
AcDbEntity
  8
D-4
  6
Continuous
 62
     7
370
     9
100
AcDbLine
 10
-810.3126024418643
 20
-188.2321481446949
 30
0.0
 11
-685.311770720019
 21
-188.2321481446949
 31
0.0
  0
LINE
  5
262
330
1F
100
AcDbEntity
  8
D-4
  6
Continuous
 62
     7
370
     9
100
AcDbLine
 10
-685.311770720019
 20
-293.6956481675843
 30
0.0
 11
-685.311770720019
 21
-76.48021027848401
 31
0.0
  0
LINE
  5
263
330
1F
100
AcDbEntity
  8
D-4
  6
Continuous
 62
     7
370
     9
100
AcDbLine
 10
-675.3117250614932
 20
-293.6956481675843
 30
0.0
 11
-675.3117250614932
 21
-76.48021027848401
 31
0.0
  0
LINE
  5
264
330
1F
100
AcDbEntity
  8
D-4
  6
Continuous
 62
     7
370
     9
100
AcDbLine
 10
-660.312890928345
 20
-293.6956481675843
 30
0.0
 11
-660.312890928345
 21
34.2164106626781
 31
0.0
  0
LINE
  5
265
330
1F
100
AcDbEntity
  8
D-6
  6
Continuous
 62
     6
370
     9
100
AcDbLine
 10
-410.3127168827822
 20
-552.6603250245789
 30
0.0
 11
-314.3018221073916
 21
-456.6503743867615
 31
0.0
  0
LINE
  5
266
330
1F
100
AcDbEntity
  8
D-6
  6
Continuous
 62
     6
370
     9
100
AcDbLine
 10
-410.3127168827822
 20
-456.6503743867615
 30
0.0
 11
-245.3117250614931
 21
-456.6503743867615
 31
0.0
  0
LINE
  5
267
330
1F
100
AcDbEntity
  8
D-6
  6
Continuous
 62
     6
370
     9
100
AcDbLine
 10
-410.3127168827822
 20
-566.801999066327
 30
0.0
 11
-300.1610826664736
 21
-456.6503743867615
 31
0.0
  0
LINE
  5
268
330
1F
100
AcDbEntity
  8
D-6
  6
Continuous
 62
     6
370
     9
100
AcDbLine
 10
-660.3123997860721
 20
-631.6509370546082
 30
0.0
 11
-660.3123997860721
 21
-806.650517437909
 31
0.0
  0
LINE
  5
269
330
1F
100
AcDbEntity
  8
D-6
  6
Continuous
 62
     6
370
     9
100
AcDbLine
 10
-410.3127168827822
 20
-456.6503743867615
 30
0.0
 11
-410.3127168827822
 21
-631.6509370546082
 31
0.0
  0
LINE
  5
26A
330
1F
100
AcDbEntity
  8
D-6
  6
Continuous
 62
     6
370
     9
100
AcDbLine
 10
-660.3123997860721
 20
-631.6509370546082
 30
0.0
 11
-410.3127168827822
 21
-631.6509370546082
 31
0.0
  0
LINE
  5
26B
330
1F
100
AcDbEntity
  8
D-6
  6
JWW_DASHED3
 62
     6
370
     9
100
AcDbLine
 10
-598.019587915497
 20
-734.1505555848817
 30
0.0
 11
-598.019587915497
 21
-631.6509370546082
 31
0.0
  0
LINE
  5
26C
330
1F
100
AcDbEntity
  8
D-6
  6
JWW_DASHED3
 62
     6
370
     9
100
AcDbLine
 10
-553.0191301518252
 20
-631.6509370546082
 30
0.0
 11
-553.0191301518252
 21
-734.1505555848817
 31
0.0
  0
LINE
  5
26D
330
1F
100
AcDbEntity
  8
D-4
  6
Continuous
 62
     7
370
     9
100
AcDbLine
 10
-810.3126024418643
 20
-293.6956481675843
 30
0.0
 11
-810.3126024418643
 21
-185.2315835694996
 31
0.0
  0
LINE
  5
26E
330
1F
100
AcDbEntity
  8
D-4
  6
Continuous
 62
     7
370
     9
100
AcDbLine
 10
-680.311499755936
 20
-79.47978303239026
 30
0.0
 11
-622.6513218098452
 21
-79.47978303239026
 31
0.0
  0
LINE
  5
26F
330
1F
100
AcDbEntity
  8
D-4
  6
Continuous
 62
     7
370
     9
100
AcDbLine
 10
-1382.980868738251
 20
-188.2321481446949
 30
0.0
 11
-810.3126024418643
 21
-188.2321481446949
 31
0.0
  0
LINE
  5
270
330
1F
100
AcDbEntity
  8
D-4
  6
Continuous
 62
     7
370
     9
100
AcDbLine
 10
-1382.980868738251
 20
-79.47978303239026
 30
0.0
 11
-685.311770720019
 21
-79.47978303239026
 31
0.0
  0
LINE
  5
271
330
1F
100
AcDbEntity
  8
D-4
  6
Continuous
 62
     7
370
     9
100
AcDbLine
 10
-1382.980868738251
 20
31.2159223814281
 30
0.0
 11
-660.312890928345
 21
31.2159223814281
 31
0.0
  0
LINE
  5
272
330
1F
100
AcDbEntity
  8
D-1
  6
Continuous
 62
     2
370
     9
100
AcDbLine
 10
-675.312715094643
 20
-406.6506414155701
 30
0.0
 11
-810.3130983525089
 21
-406.6506414155701
 31
0.0
  0
LINE
  5
273
330
1F
100
AcDbEntity
  8
D-1
  6
Continuous
 62
     2
370
     9
100
AcDbLine
 10
-810.3130983525089
 20
-421.65046021745
 30
0.0
 11
-810.3130983525089
 21
-406.6506414155701
 31
0.0
  0
LINE
  5
274
330
1F
100
AcDbEntity
  8
D-1
  6
Continuous
 62
     2
370
     9
100
AcDbLine
 10
-810.3130983525089
 20
-421.65046021745
 30
0.0
 11
-680.3129862957767
 21
-421.65046021745
 31
0.0
  0
LINE
  5
275
330
1F
100
AcDbEntity
  8
D-5
  6
Continuous
 62
     7
370
     9
100
AcDbLine
 10
-1152.306926172333
 20
-1002.592556927655
 30
0.0
 11
-1152.306926172333
 21
-937.593014691327
 31
0.0
  0
LINE
  5
276
330
1F
100
AcDbEntity
  8
D-5
  6
Continuous
 62
     7
370
     9
100
AcDbLine
 10
-1152.306926172333
 20
-937.593014691327
 30
0.0
 11
-577.3065160923769
 21
-937.593014691327
 31
0.0
  0
LINE
  5
277
330
1F
100
AcDbEntity
  8
D-5
  6
Continuous
 62
     7
370
     9
100
AcDbLine
 10
-577.3065160923769
 20
-937.593014691327
 30
0.0
 11
-577.3065160923769
 21
-1002.592556927655
 31
0.0
  0
LINE
  5
278
330
1F
100
AcDbEntity
  8
D-5
  6
Continuous
 62
     7
370
     9
100
AcDbLine
 10
-577.3065160923769
 20
-1002.592556927655
 30
0.0
 11
-1152.306926172333
 21
-1002.592556927655
 31
0.0
  0
LINE
  5
279
330
1F
100
AcDbEntity
  8
D-6
  6
Continuous
 62
     6
370
     9
100
AcDbLine
 10
-660.3123997860721
 20
-802.6590089540223
 30
0.0
 11
-489.3028902226259
 21
-631.6509370546082
 31
0.0
  0
LINE
  5
27A
330
1F
100
AcDbEntity
  8
D-6
  6
Continuous
 62
     6
370
     9
100
AcDbLine
 10
-650.1627206021121
 20
-806.650517437909
 30
0.0
 11
-475.162150781708
 21
-631.6509370546082
 31
0.0
  0
LINE
  5
27B
330
1F
100
AcDbEntity
  8
D-6
  6
Continuous
 62
     6
370
     9
100
AcDbLine
 10
-410.3127168827822
 20
-580.942681286786
 30
0.0
 11
-286.0204195195009
 21
-456.6503743867615
 31
0.0
  0
LINE
  5
27C
330
1F
100
AcDbEntity
  8
D-6
  6
Continuous
 62
     6
370
     9
100
AcDbLine
 10
-636.0227894001772
 20
-806.650517437909
 30
0.0
 11
-461.0220216923525
 21
-631.6509370546082
 31
0.0
  0
LINE
  5
27D
330
1F
100
AcDbEntity
  8
D-0
  6
Continuous
 62
     7
370
     9
100
AcDbLine
 10
-510.0190042668154
 20
-554.9870614747742
 30
0.0
 11
-510.0190042668154
 21
-553.4867791871766
 31
0.0
  0
LINE
  5
27E
330
1F
100
AcDbEntity
  8
D-0
  6
Continuous
 62
     7
370
     9
100
AcDbLine
 10
-510.0190042668154
 20
-553.4867791871766
 30
0.0
 11
-508.51896993454
 21
-553.4867791871766
 31
0.0
  0
LINE
  5
27F
330
1F
100
AcDbEntity
  8
D-0
  6
Continuous
 62
     7
370
     9
100
AcDbLine
 10
-508.51896993454
 20
-553.4867791871766
 30
0.0
 11
-508.51896993454
 21
-554.9870614747742
 31
0.0
  0
LINE
  5
280
330
1F
100
AcDbEntity
  8
D-0
  6
Continuous
 62
     7
370
     9
100
AcDbLine
 10
-508.51896993454
 20
-554.9870614747742
 30
0.0
 11
-510.0190042668154
 21
-554.9870614747742
 31
0.0
  0
LINE
  5
281
330
1F
100
AcDbEntity
  8
D-0
  6
Continuous
 62
     7
370
     9
100
AcDbLine
 10
-470.0909113102724
 20
-584.7637300233582
 30
0.0
 11
-470.0909113102724
 21
-583.2634477357606
 31
0.0
  0
LINE
  5
282
330
1F
100
AcDbEntity
  8
D-0
  6
Continuous
 62
     7
370
     9
100
AcDbLine
 10
-470.0909113102724
 20
-583.2634477357606
 30
0.0
 11
-468.590876977997
 21
-583.2634477357606
 31
0.0
  0
LINE
  5
283
330
1F
100
AcDbEntity
  8
D-0
  6
Continuous
 62
     7
370
     9
100
AcDbLine
 10
-468.590876977997
 20
-583.2634477357606
 30
0.0
 11
-468.590876977997
 21
-584.7637300233582
 31
0.0
  0
LINE
  5
284
330
1F
100
AcDbEntity
  8
D-0
  6
Continuous
 62
     7
370
     9
100
AcDbLine
 10
-468.590876977997
 20
-584.7637300233582
 30
0.0
 11
-470.0909113102724
 21
-584.7637300233582
 31
0.0
  0
LINE
  5
285
330
1F
100
AcDbEntity
  8
D-0
  6
Continuous
 62
     7
370
     9
100
AcDbLine
 10
-504.6050142460634
 20
-605.0660638551453
 30
0.0
 11
-504.6050142460634
 21
-603.5657815675477
 31
0.0
  0
LINE
  5
286
330
1F
100
AcDbEntity
  8
D-0
  6
Continuous
 62
     7
370
     9
100
AcDbLine
 10
-504.6050142460634
 20
-603.5657815675477
 30
0.0
 11
-503.104979913788
 21
-603.5657815675477
 31
0.0
  0
LINE
  5
287
330
1F
100
AcDbEntity
  8
D-0
  6
Continuous
 62
     7
370
     9
100
AcDbLine
 10
-503.104979913788
 20
-603.5657815675477
 30
0.0
 11
-503.104979913788
 21
-605.0660638551453
 31
0.0
  0
LINE
  5
288
330
1F
100
AcDbEntity
  8
D-0
  6
Continuous
 62
     7
370
     9
100
AcDbLine
 10
-503.104979913788
 20
-605.0660638551453
 30
0.0
 11
-504.6050142460634
 21
-605.0660638551453
 31
0.0
  0
LINE
  5
289
330
1F
100
AcDbEntity
  8
D-0
  6
Continuous
 62
     7
370
     9
100
AcDbLine
 10
-439.6372865849306
 20
-607.0964936952332
 30
0.0
 11
-439.6372865849306
 21
-605.5962114076356
 31
0.0
  0
LINE
  5
28A
330
1F
100
AcDbEntity
  8
D-0
  6
Continuous
 62
     7
370
     9
100
AcDbLine
 10
-439.6372865849306
 20
-605.5962114076356
 30
0.0
 11
-438.1372522526552
 21
-605.5962114076356
 31
0.0
  0
LINE
  5
28B
330
1F
100
AcDbEntity
  8
D-0
  6
Continuous
 62
     7
370
     9
100
AcDbLine
 10
-438.1372522526552
 20
-605.5962114076356
 30
0.0
 11
-438.1372522526552
 21
-607.0964936952332
 31
0.0
  0
LINE
  5
28C
330
1F
100
AcDbEntity
  8
D-0
  6
Continuous
 62
     7
370
     9
100
AcDbLine
 10
-438.1372522526552
 20
-607.0964936952332
 30
0.0
 11
-439.6372865849306
 21
-607.0964936952332
 31
0.0
  0
LINE
  5
28D
330
1F
100
AcDbEntity
  8
D-0
  6
Continuous
 62
     7
370
     9
100
AcDbLine
 10
-633.1868480854799
 20
-327.6001434068421
 30
0.0
 11
-633.1868480854799
 21
-326.0998015145997
 31
0.0
  0
LINE
  5
28E
330
1F
100
AcDbEntity
  8
D-0
  6
Continuous
 62
     7
370
     9
100
AcDbLine
 10
-633.1868480854799
 20
-326.0998015145997
 30
0.0
 11
-631.6868185215761
 21
-326.0998015145997
 31
0.0
  0
LINE
  5
28F
330
1F
100
AcDbEntity
  8
D-0
  6
Continuous
 62
     7
370
     9
100
AcDbLine
 10
-631.6868185215761
 20
-326.0998015145997
 30
0.0
 11
-631.6868185215761
 21
-327.6001434068421
 31
0.0
  0
LINE
  5
290
330
1F
100
AcDbEntity
  8
D-0
  6
Continuous
 62
     7
370
     9
100
AcDbLine
 10
-631.6868185215761
 20
-327.6001434068421
 30
0.0
 11
-633.1868480854799
 21
-327.6001434068421
 31
0.0
  0
LINE
  5
291
330
1F
100
AcDbEntity
  8
D-0
  6
Continuous
 62
     7
370
     9
100
AcDbLine
 10
-579.0470956974794
 20
-326.9233326654175
 30
0.0
 11
-579.0470956974794
 21
-325.422991965268
 31
0.0
  0
LINE
  5
292
330
1F
100
AcDbEntity
  8
D-0
  6
Continuous
 62
     7
370
     9
100
AcDbLine
 10
-579.0470956974794
 20
-325.422991965268
 30
0.0
 11
-577.5470709019472
 21
-325.422991965268
 31
0.0
  0
LINE
  5
293
330
1F
100
AcDbEntity
  8
D-0
  6
Continuous
 62
     7
370
     9
100
AcDbLine
 10
-577.5470709019472
 20
-325.422991965268
 30
0.0
 11
-577.5470709019472
 21
-326.9233326654175
 31
0.0
  0
LINE
  5
294
330
1F
100
AcDbEntity
  8
D-0
  6
Continuous
 62
     7
370
     9
100
AcDbLine
 10
-577.5470709019472
 20
-326.9233326654175
 30
0.0
 11
-579.0470956974794
 21
-326.9233326654175
 31
0.0
  0
LINE
  5
295
330
1F
100
AcDbEntity
  8
D-0
  6
Continuous
 62
     7
370
     9
100
AcDbLine
 10
-536.4120077305605
 20
-350.6097154359559
 30
0.0
 11
-536.4120077305605
 21
-349.1093711595277
 31
0.0
  0
LINE
  5
296
330
1F
100
AcDbEntity
  8
D-0
  6
Continuous
 62
     7
370
     9
100
AcDbLine
 10
-536.4120077305605
 20
-349.1093711595277
 30
0.0
 11
-534.9119829350283
 21
-349.1093711595277
 31
0.0
  0
LINE
  5
297
330
1F
100
AcDbEntity
  8
D-0
  6
Continuous
 62
     7
370
     9
100
AcDbLine
 10
-534.9119829350283
 20
-349.1093711595277
 30
0.0
 11
-534.9119829350283
 21
-350.6097154359559
 31
0.0
  0
LINE
  5
298
330
1F
100
AcDbEntity
  8
D-0
  6
Continuous
 62
     7
370
     9
100
AcDbLine
 10
-534.9119829350283
 20
-350.6097154359559
 30
0.0
 11
-536.4120077305605
 21
-350.6097154359559
 31
0.0
  0
LINE
  5
299
330
1F
100
AcDbEntity
  8
D-0
  6
Continuous
 62
     7
370
     9
100
AcDbLine
 10
-512.7258752995302
 20
-329.6305112580994
 30
0.0
 11
-512.7258752995302
 21
-328.1302337388734
 31
0.0
  0
LINE
  5
29A
330
1F
100
AcDbEntity
  8
D-0
  6
Continuous
 62
     7
370
     9
100
AcDbLine
 10
-512.7258752995302
 20
-328.1302337388734
 30
0.0
 11
-511.2258409672548
 21
-328.1302337388734
 31
0.0
  0
LINE
  5
29B
330
1F
100
AcDbEntity
  8
D-0
  6
Continuous
 62
     7
370
     9
100
AcDbLine
 10
-511.2258409672548
 20
-328.1302337388734
 30
0.0
 11
-511.2258409672548
 21
-329.6305112580994
 31
0.0
  0
LINE
  5
29C
330
1F
100
AcDbEntity
  8
D-0
  6
Continuous
 62
     7
370
     9
100
AcDbLine
 10
-511.2258409672548
 20
-329.6305112580994
 30
0.0
 11
-512.7258752995302
 21
-329.6305112580994
 31
0.0
  0
LINE
  5
29D
330
1F
100
AcDbEntity
  8
D-0
  6
Continuous
 62
     7
370
     9
100
AcDbLine
 10
-512.04924337204
 20
-398.6587266664246
 30
0.0
 11
-512.04924337204
 21
-397.158444378827
 31
0.0
  0
LINE
  5
29E
330
1F
100
AcDbEntity
  8
D-0
  6
Continuous
 62
     7
370
     9
100
AcDbLine
 10
-512.04924337204
 20
-397.158444378827
 30
0.0
 11
-510.5491518193056
 21
-397.158444378827
 31
0.0
  0
LINE
  5
29F
330
1F
100
AcDbEntity
  8
D-0
  6
Continuous
 62
     7
370
     9
100
AcDbLine
 10
-510.5491518193056
 20
-397.158444378827
 30
0.0
 11
-510.5491518193056
 21
-398.6587266664246
 31
0.0
  0
LINE
  5
2A0
330
1F
100
AcDbEntity
  8
D-0
  6
Continuous
 62
     7
370
     9
100
AcDbLine
 10
-510.5491518193056
 20
-398.6587266664246
 30
0.0
 11
-512.04924337204
 21
-398.6587266664246
 31
0.0
  0
LINE
  5
2A1
330
1F
100
AcDbEntity
  8
D-0
  6
Continuous
 62
     7
370
     9
100
AcDbLine
 10
-383.4673570805361
 20
-327.6001434068421
 30
0.0
 11
-383.4673570805361
 21
-326.0998015145997
 31
0.0
  0
LINE
  5
2A2
330
1F
100
AcDbEntity
  8
D-0
  6
Continuous
 62
     7
370
     9
100
AcDbLine
 10
-383.4673570805361
 20
-326.0998015145997
 30
0.0
 11
-381.9673799687197
 21
-326.0998015145997
 31
0.0
  0
LINE
  5
2A3
330
1F
100
AcDbEntity
  8
D-0
  6
Continuous
 62
     7
370
     9
100
AcDbLine
 10
-381.9673799687197
 20
-326.0998015145997
 30
0.0
 11
-381.9673799687197
 21
-327.6001434068421
 31
0.0
  0
LINE
  5
2A4
330
1F
100
AcDbEntity
  8
D-0
  6
Continuous
 62
     7
370
     9
100
AcDbLine
 10
-381.9673799687197
 20
-327.6001434068421
 30
0.0
 11
-383.4673570805361
 21
-327.6001434068421
 31
0.0
  0
LINE
  5
2A5
330
1F
100
AcDbEntity
  8
D-0
  6
Continuous
 62
     7
370
     9
100
AcDbLine
 10
-332.7113985234072
 20
-330.307321999524
 30
0.0
 11
-332.7113985234072
 21
-328.8071040849427
 31
0.0
  0
LINE
  5
2A6
330
1F
100
AcDbEntity
  8
D-0
  6
Continuous
 62
     7
370
     9
100
AcDbLine
 10
-332.7113985234072
 20
-328.8071040849427
 30
0.0
 11
-331.2113832646181
 21
-328.8071040849427
 31
0.0
  0
LINE
  5
2A7
330
1F
100
AcDbEntity
  8
D-0
  6
Continuous
 62
     7
370
     9
100
AcDbLine
 10
-331.2113832646181
 20
-328.8071040849427
 30
0.0
 11
-331.2113832646181
 21
-330.307321999524
 31
0.0
  0
LINE
  5
2A8
330
1F
100
AcDbEntity
  8
D-0
  6
Continuous
 62
     7
370
     9
100
AcDbLine
 10
-331.2113832646181
 20
-330.307321999524
 30
0.0
 11
-332.7113985234072
 21
-330.307321999524
 31
0.0
  0
LINE
  5
2A9
330
1F
100
AcDbEntity
  8
D-0
  6
Continuous
 62
     7
370
     9
100
AcDbLine
 10
-267.7437471562197
 20
-328.2768921594361
 30
0.0
 11
-267.7437471562197
 21
-326.7766122560242
 31
0.0
  0
LINE
  5
2AA
330
1F
100
AcDbEntity
  8
D-0
  6
Continuous
 62
     7
370
     9
100
AcDbLine
 10
-267.7437471562197
 20
-326.7766122560242
 30
0.0
 11
-266.2436556034853
 21
-326.7766122560242
 31
0.0
  0
LINE
  5
2AB
330
1F
100
AcDbEntity
  8
D-0
  6
Continuous
 62
     7
370
     9
100
AcDbLine
 10
-266.2436556034853
 20
-326.7766122560242
 30
0.0
 11
-266.2436556034853
 21
-328.2768921594361
 31
0.0
  0
LINE
  5
2AC
330
1F
100
AcDbEntity
  8
D-0
  6
Continuous
 62
     7
370
     9
100
AcDbLine
 10
-266.2436556034853
 20
-328.2768921594361
 30
0.0
 11
-267.7437471562197
 21
-328.2768921594361
 31
0.0
  0
LINE
  5
2AD
330
1F
100
AcDbEntity
  8
D-0
  6
Continuous
 62
     7
370
     9
100
AcDbLine
 10
-292.106616418915
 20
-360.7608155946473
 30
0.0
 11
-292.106616418915
 21
-359.2606000642518
 31
0.0
  0
LINE
  5
2AE
330
1F
100
AcDbEntity
  8
D-0
  6
Continuous
 62
     7
370
     9
100
AcDbLine
 10
-292.106616418915
 20
-359.2606000642518
 30
0.0
 11
-290.6066011601259
 21
-359.2606000642518
 31
0.0
  0
LINE
  5
2AF
330
1F
100
AcDbEntity
  8
D-0
  6
Continuous
 62
     7
370
     9
100
AcDbLine
 10
-290.6066011601259
 20
-359.2606000642518
 30
0.0
 11
-290.6066011601259
 21
-360.7608155946473
 31
0.0
  0
LINE
  5
2B0
330
1F
100
AcDbEntity
  8
D-0
  6
Continuous
 62
     7
370
     9
100
AcDbLine
 10
-290.6066011601259
 20
-360.7608155946473
 30
0.0
 11
-292.106616418915
 21
-360.7608155946473
 31
0.0
  0
LINE
  5
2B1
330
1F
100
AcDbEntity
  8
D-0
  6
Continuous
 62
     7
370
     9
100
AcDbLine
 10
-332.03459493454
 20
-384.4467000703553
 30
0.0
 11
-332.03459493454
 21
-382.9464225511292
 31
0.0
  0
LINE
  5
2B2
330
1F
100
AcDbEntity
  8
D-0
  6
Continuous
 62
     7
370
     9
100
AcDbLine
 10
-332.03459493454
 20
-382.9464225511292
 30
0.0
 11
-330.5345796757509
 21
-382.9464225511292
 31
0.0
  0
LINE
  5
2B3
330
1F
100
AcDbEntity
  8
D-0
  6
Continuous
 62
     7
370
     9
100
AcDbLine
 10
-330.5345796757509
 20
-382.9464225511292
 30
0.0
 11
-330.5345796757509
 21
-384.4467000703553
 31
0.0
  0
LINE
  5
2B4
330
1F
100
AcDbEntity
  8
D-0
  6
Continuous
 62
     7
370
     9
100
AcDbLine
 10
-330.5345796757509
 20
-384.4467000703553
 30
0.0
 11
-332.03459493454
 21
-384.4467000703553
 31
0.0
  0
LINE
  5
2B5
330
1F
100
AcDbEntity
  8
D-0
  6
Continuous
 62
     7
370
     9
100
AcDbLine
 10
-359.7812151127627
 20
-398.6587266664246
 30
0.0
 11
-359.7812151127627
 21
-397.158444378827
 31
0.0
  0
LINE
  5
2B6
330
1F
100
AcDbEntity
  8
D-0
  6
Continuous
 62
     7
370
     9
100
AcDbLine
 10
-359.7812151127627
 20
-397.158444378827
 30
0.0
 11
-358.2812380009462
 21
-397.158444378827
 31
0.0
  0
LINE
  5
2B7
330
1F
100
AcDbEntity
  8
D-0
  6
Continuous
 62
     7
370
     9
100
AcDbLine
 10
-358.2812380009462
 20
-397.158444378827
 30
0.0
 11
-358.2812380009462
 21
-398.6587266664246
 31
0.0
  0
LINE
  5
2B8
330
1F
100
AcDbEntity
  8
D-0
  6
Continuous
 62
     7
370
     9
100
AcDbLine
 10
-358.2812380009462
 20
-398.6587266664246
 30
0.0
 11
-359.7812151127627
 21
-398.6587266664246
 31
0.0
  0
LINE
  5
2B9
330
1F
100
AcDbEntity
  8
D-0
  6
Continuous
 62
     7
370
     9
100
AcDbLine
 10
-384.8208498173525
 20
-369.5583610276917
 30
0.0
 11
-384.8208498173525
 21
-368.0580787400941
 31
0.0
  0
LINE
  5
2BA
330
1F
100
AcDbEntity
  8
D-0
  6
Continuous
 62
     7
370
     9
100
AcDbLine
 10
-384.8208498173525
 20
-368.0580787400941
 30
0.0
 11
-383.3208154850771
 21
-368.0580787400941
 31
0.0
  0
LINE
  5
2BB
330
1F
100
AcDbEntity
  8
D-0
  6
Continuous
 62
     7
370
     9
100
AcDbLine
 10
-383.3208154850771
 20
-368.0580787400941
 30
0.0
 11
-383.3208154850771
 21
-369.5583610276917
 31
0.0
  0
LINE
  5
2BC
330
1F
100
AcDbEntity
  8
D-0
  6
Continuous
 62
     7
370
     9
100
AcDbLine
 10
-383.3208154850771
 20
-369.5583610276917
 30
0.0
 11
-384.8208498173525
 21
-369.5583610276917
 31
0.0
  0
LINE
  5
2BD
330
1F
100
AcDbEntity
  8
D-0
  6
Continuous
 62
     7
370
     9
100
AcDbLine
 10
-364.5185732060244
 20
-433.8493947725037
 30
0.0
 11
-364.5185732060244
 21
-432.3491124849061
 31
0.0
  0
LINE
  5
2BE
330
1F
100
AcDbEntity
  8
D-0
  6
Continuous
 62
     7
370
     9
100
AcDbLine
 10
-364.5185732060244
 20
-432.3491124849061
 30
0.0
 11
-363.01848165329
 21
-432.3491124849061
 31
0.0
  0
LINE
  5
2BF
330
1F
100
AcDbEntity
  8
D-0
  6
Continuous
 62
     7
370
     9
100
AcDbLine
 10
-363.01848165329
 20
-432.3491124849061
 30
0.0
 11
-363.01848165329
 21
-433.8493947725037
 31
0.0
  0
LINE
  5
2C0
330
1F
100
AcDbEntity
  8
D-0
  6
Continuous
 62
     7
370
     9
100
AcDbLine
 10
-363.01848165329
 20
-433.8493947725037
 30
0.0
 11
-364.5185732060244
 21
-433.8493947725037
 31
0.0
  0
LINE
  5
2C1
330
1F
100
AcDbEntity
  8
D-0
  6
Continuous
 62
     7
370
     9
100
AcDbLine
 10
-306.9949602299502
 20
-432.4957780580262
 30
0.0
 11
-306.9949602299502
 21
-430.9954957704285
 31
0.0
  0
LINE
  5
2C2
330
1F
100
AcDbEntity
  8
D-0
  6
Continuous
 62
     7
370
     9
100
AcDbLine
 10
-306.9949602299502
 20
-430.9954957704285
 30
0.0
 11
-305.4949831181337
 21
-430.9954957704285
 31
0.0
  0
LINE
  5
2C3
330
1F
100
AcDbEntity
  8
D-0
  6
Continuous
 62
     7
370
     9
100
AcDbLine
 10
-305.4949831181337
 20
-430.9954957704285
 30
0.0
 11
-305.4949831181337
 21
-432.4957780580262
 31
0.0
  0
LINE
  5
2C4
330
1F
100
AcDbEntity
  8
D-0
  6
Continuous
 62
     7
370
     9
100
AcDbLine
 10
-305.4949831181337
 20
-432.4957780580262
 30
0.0
 11
-306.9949602299502
 21
-432.4957780580262
 31
0.0
  0
LINE
  5
2C5
330
1F
100
AcDbEntity
  8
D-0
  6
Continuous
 62
     7
370
     9
100
AcDbLine
 10
-257.5925325566103
 20
-431.8189649324158
 30
0.0
 11
-257.5925325566103
 21
-430.3186826448182
 31
0.0
  0
LINE
  5
2C6
330
1F
100
AcDbEntity
  8
D-0
  6
Continuous
 62
     7
370
     9
100
AcDbLine
 10
-257.5925325566103
 20
-430.3186826448182
 30
0.0
 11
-256.0924791508486
 21
-430.3186826448182
 31
0.0
  0
LINE
  5
2C7
330
1F
100
AcDbEntity
  8
D-0
  6
Continuous
 62
     7
370
     9
100
AcDbLine
 10
-256.0924791508486
 20
-430.3186826448182
 30
0.0
 11
-256.0924791508486
 21
-431.8189649324158
 31
0.0
  0
LINE
  5
2C8
330
1F
100
AcDbEntity
  8
D-0
  6
Continuous
 62
     7
370
     9
100
AcDbLine
 10
-256.0924791508486
 20
-431.8189649324158
 30
0.0
 11
-257.5925325566103
 21
-431.8189649324158
 31
0.0
  0
LINE
  5
2C9
330
1F
100
AcDbEntity
  8
D-0
  6
Continuous
 62
     7
370
     9
100
AcDbLine
 10
-269.7740053349306
 20
-391.8911199311951
 30
0.0
 11
-269.7740053349306
 21
-390.3908376435975
 31
0.0
  0
LINE
  5
2CA
330
1F
100
AcDbEntity
  8
D-0
  6
Continuous
 62
     7
370
     9
100
AcDbLine
 10
-269.7740053349306
 20
-390.3908376435975
 30
0.0
 11
-268.2739519291689
 21
-390.3908376435975
 31
0.0
  0
LINE
  5
2CB
330
1F
100
AcDbEntity
  8
D-0
  6
Continuous
 62
     7
370
     9
100
AcDbLine
 10
-268.2739519291689
 20
-390.3908376435975
 30
0.0
 11
-268.2739519291689
 21
-391.8911199311951
 31
0.0
  0
LINE
  5
2CC
330
1F
100
AcDbEntity
  8
D-0
  6
Continuous
 62
     7
370
     9
100
AcDbLine
 10
-268.2739519291689
 20
-391.8911199311951
 30
0.0
 11
-269.7740053349306
 21
-391.8911199311951
 31
0.0
  0
LINE
  5
2CD
330
1F
100
AcDbEntity
  8
D-0
  6
Continuous
 62
     7
370
     9
100
AcDbLine
 10
-791.3340448551944
 20
-563.1925134401063
 30
0.0
 11
-791.3340448551944
 21
-561.6922311525086
 31
0.0
  0
LINE
  5
2CE
330
1F
100
AcDbEntity
  8
D-0
  6
Continuous
 62
     7
370
     9
100
AcDbLine
 10
-791.3340448551944
 20
-561.6922311525086
 30
0.0
 11
-789.834010522919
 21
-561.6922311525086
 31
0.0
  0
LINE
  5
2CF
330
1F
100
AcDbEntity
  8
D-0
  6
Continuous
 62
     7
370
     9
100
AcDbLine
 10
-789.834010522919
 20
-561.6922311525086
 30
0.0
 11
-789.834010522919
 21
-563.1925134401063
 31
0.0
  0
LINE
  5
2D0
330
1F
100
AcDbEntity
  8
D-0
  6
Continuous
 62
     7
370
     9
100
AcDbLine
 10
-789.834010522919
 20
-563.1925134401063
 30
0.0
 11
-791.3340448551944
 21
-563.1925134401063
 31
0.0
  0
LINE
  5
2D1
330
1F
100
AcDbEntity
  8
D-0
  6
Continuous
 62
     7
370
     9
100
AcDbLine
 10
-686.6497840696147
 20
-563.1925134401063
 30
0.0
 11
-686.6497840696147
 21
-561.6922311525086
 31
0.0
  0
LINE
  5
2D2
330
1F
100
AcDbEntity
  8
D-0
  6
Continuous
 62
     7
370
     9
100
AcDbLine
 10
-686.6497840696147
 20
-561.6922311525086
 30
0.0
 11
-685.1497524381748
 21
-561.6922311525086
 31
0.0
  0
LINE
  5
2D3
330
1F
100
AcDbEntity
  8
D-0
  6
Continuous
 62
     7
370
     9
100
AcDbLine
 10
-685.1497524381748
 20
-561.6922311525086
 30
0.0
 11
-685.1497524381748
 21
-563.1925134401063
 31
0.0
  0
LINE
  5
2D4
330
1F
100
AcDbEntity
  8
D-0
  6
Continuous
 62
     7
370
     9
100
AcDbLine
 10
-685.1497524381748
 20
-563.1925134401063
 30
0.0
 11
-686.6497840696147
 21
-563.1925134401063
 31
0.0
  0
LINE
  5
2D5
330
1F
100
AcDbEntity
  8
D-0
  6
Continuous
 62
     7
370
     9
100
AcDbLine
 10
-700.7345997505954
 20
-651.5083436708192
 30
0.0
 11
-700.7345997505954
 21
-650.0080613832215
 31
0.0
  0
LINE
  5
2D6
330
1F
100
AcDbEntity
  8
D-0
  6
Continuous
 62
     7
370
     9
100
AcDbLine
 10
-700.7345997505954
 20
-650.0080613832215
 30
0.0
 11
-699.2345678025058
 21
-650.0080613832215
 31
0.0
  0
LINE
  5
2D7
330
1F
100
AcDbEntity
  8
D-0
  6
Continuous
 62
     7
370
     9
100
AcDbLine
 10
-699.2345678025058
 20
-650.0080613832215
 30
0.0
 11
-699.2345678025058
 21
-651.5083436708192
 31
0.0
  0
LINE
  5
2D8
330
1F
100
AcDbEntity
  8
D-0
  6
Continuous
 62
     7
370
     9
100
AcDbLine
 10
-699.2345678025058
 20
-651.5083436708192
 30
0.0
 11
-700.7345997505954
 21
-651.5083436708192
 31
0.0
  0
LINE
  5
2D9
330
1F
100
AcDbEntity
  8
D-0
  6
Continuous
 62
     7
370
     9
100
AcDbLine
 10
-688.5531272702983
 20
-616.1061029176453
 30
0.0
 11
-688.5531272702983
 21
-614.6058206300477
 31
0.0
  0
LINE
  5
2DA
330
1F
100
AcDbEntity
  8
D-0
  6
Continuous
 62
     7
370
     9
100
AcDbLine
 10
-688.5531272702983
 20
-614.6058206300477
 30
0.0
 11
-687.0530956202319
 21
-614.6058206300477
 31
0.0
  0
LINE
  5
2DB
330
1F
100
AcDbEntity
  8
D-0
  6
Continuous
 62
     7
370
     9
100
AcDbLine
 10
-687.0530956202319
 20
-614.6058206300477
 30
0.0
 11
-687.0530956202319
 21
-616.1061029176453
 31
0.0
  0
LINE
  5
2DC
330
1F
100
AcDbEntity
  8
D-0
  6
Continuous
 62
     7
370
     9
100
AcDbLine
 10
-687.0530956202319
 20
-616.1061029176453
 30
0.0
 11
-688.5531272702983
 21
-616.1061029176453
 31
0.0
  0
LINE
  5
2DD
330
1F
100
AcDbEntity
  8
D-0
  6
Continuous
 62
     7
370
     9
100
AcDbLine
 10
-789.0500520878604
 20
-653.7924318055848
 30
0.0
 11
-789.0500520878604
 21
-652.2921495179871
 31
0.0
  0
LINE
  5
2DE
330
1F
100
AcDbEntity
  8
D-0
  6
Continuous
 62
     7
370
     9
100
AcDbLine
 10
-789.0500520878604
 20
-652.2921495179871
 30
0.0
 11
-787.550017755585
 21
-652.2921495179871
 31
0.0
  0
LINE
  5
2DF
330
1F
100
AcDbEntity
  8
D-0
  6
Continuous
 62
     7
370
     9
100
AcDbLine
 10
-787.550017755585
 20
-652.2921495179871
 30
0.0
 11
-787.550017755585
 21
-653.7924318055848
 31
0.0
  0
LINE
  5
2E0
330
1F
100
AcDbEntity
  8
D-0
  6
Continuous
 62
     7
370
     9
100
AcDbLine
 10
-787.550017755585
 20
-653.7924318055848
 30
0.0
 11
-789.0500520878604
 21
-653.7924318055848
 31
0.0
  0
LINE
  5
2E1
330
1F
100
AcDbEntity
  8
D-0
  6
Continuous
 62
     7
370
     9
100
AcDbLine
 10
-744.8922657185367
 20
-656.8375901918153
 30
0.0
 11
-744.8922657185367
 21
-655.3373079042176
 31
0.0
  0
LINE
  5
2E2
330
1F
100
AcDbEntity
  8
D-0
  6
Continuous
 62
     7
370
     9
100
AcDbLine
 10
-744.8922657185367
 20
-655.3373079042176
 30
0.0
 11
-743.3922361546329
 21
-655.3373079042176
 31
0.0
  0
LINE
  5
2E3
330
1F
100
AcDbEntity
  8
D-0
  6
Continuous
 62
     7
370
     9
100
AcDbLine
 10
-743.3922361546329
 20
-655.3373079042176
 30
0.0
 11
-743.3922361546329
 21
-656.8375901918153
 31
0.0
  0
LINE
  5
2E4
330
1F
100
AcDbEntity
  8
D-0
  6
Continuous
 62
     7
370
     9
100
AcDbLine
 10
-743.3922361546329
 20
-656.8375901918153
 30
0.0
 11
-744.8922657185367
 21
-656.8375901918153
 31
0.0
  0
LINE
  5
2E5
330
1F
100
AcDbEntity
  8
D-0
  6
Continuous
 62
     7
370
     9
100
AcDbLine
 10
-741.4662241154483
 20
-619.1512422303895
 30
0.0
 11
-741.4662241154483
 21
-617.6509790162781
 31
0.0
  0
LINE
  5
2E6
330
1F
100
AcDbEntity
  8
D-0
  6
Continuous
 62
     7
370
     9
100
AcDbLine
 10
-741.4662241154483
 20
-617.6509790162781
 30
0.0
 11
-739.9661897831729
 21
-617.6509790162781
 31
0.0
  0
LINE
  5
2E7
330
1F
100
AcDbEntity
  8
D-0
  6
Continuous
 62
     7
370
     9
100
AcDbLine
 10
-739.9661897831729
 20
-617.6509790162781
 30
0.0
 11
-739.9661897831729
 21
-619.1512422303895
 31
0.0
  0
LINE
  5
2E8
330
1F
100
AcDbEntity
  8
D-0
  6
Continuous
 62
     7
370
     9
100
AcDbLine
 10
-739.9661897831729
 20
-619.1512422303895
 30
0.0
 11
-741.4662241154483
 21
-619.1512422303895
 31
0.0
  0
LINE
  5
2E9
330
1F
100
AcDbEntity
  8
D-0
  6
Continuous
 62
     7
370
     9
100
AcDbLine
 10
-792.0953249150089
 20
-617.628186200116
 30
0.0
 11
-792.0953249150089
 21
-616.1279039125184
 31
0.0
  0
LINE
  5
2EA
330
1F
100
AcDbEntity
  8
D-0
  6
Continuous
 62
     7
370
     9
100
AcDbLine
 10
-792.0953249150089
 20
-616.1279039125184
 30
0.0
 11
-790.5953001194766
 21
-616.1279039125184
 31
0.0
  0
LINE
  5
2EB
330
1F
100
AcDbEntity
  8
D-0
  6
Continuous
 62
     7
370
     9
100
AcDbLine
 10
-790.5953001194766
 20
-616.1279039125184
 30
0.0
 11
-790.5953001194766
 21
-617.628186200116
 31
0.0
  0
LINE
  5
2EC
330
1F
100
AcDbEntity
  8
D-0
  6
Continuous
 62
     7
370
     9
100
AcDbLine
 10
-790.5953001194766
 20
-617.628186200116
 30
0.0
 11
-792.0953249150089
 21
-617.628186200116
 31
0.0
  0
LINE
  5
2ED
330
1F
100
AcDbEntity
  8
D-0
  6
Continuous
 62
     7
370
     9
100
AcDbLine
 10
-783.7206625157169
 20
-739.062626812909
 30
0.0
 11
-783.7206625157169
 21
-737.5623445253113
 31
0.0
  0
LINE
  5
2EE
330
1F
100
AcDbEntity
  8
D-0
  6
Continuous
 62
     7
370
     9
100
AcDbLine
 10
-783.7206625157169
 20
-737.5623445253113
 30
0.0
 11
-782.2206377201846
 21
-737.5623445253113
 31
0.0
  0
LINE
  5
2EF
330
1F
100
AcDbEntity
  8
D-0
  6
Continuous
 62
     7
370
     9
100
AcDbLine
 10
-782.2206377201846
 20
-737.5623445253113
 30
0.0
 11
-782.2206377201846
 21
-739.062626812909
 31
0.0
  0
LINE
  5
2F0
330
1F
100
AcDbEntity
  8
D-0
  6
Continuous
 62
     7
370
     9
100
AcDbLine
 10
-782.2206377201846
 20
-739.062626812909
 30
0.0
 11
-783.7206625157169
 21
-739.062626812909
 31
0.0
  0
LINE
  5
2F1
330
1F
100
AcDbEntity
  8
D-0
  6
Continuous
 62
     7
370
     9
100
AcDbLine
 10
-731.9495081120303
 20
-735.2554445008973
 30
0.0
 11
-731.9495081120303
 21
-733.7551622132996
 31
0.0
  0
LINE
  5
2F2
330
1F
100
AcDbEntity
  8
D-0
  6
Continuous
 62
     7
370
     9
100
AcDbLine
 10
-731.9495081120303
 20
-733.7551622132996
 30
0.0
 11
-730.449473779755
 21
-733.7551622132996
 31
0.0
  0
LINE
  5
2F3
330
1F
100
AcDbEntity
  8
D-0
  6
Continuous
 62
     7
370
     9
100
AcDbLine
 10
-730.449473779755
 20
-733.7551622132996
 30
0.0
 11
-730.449473779755
 21
-735.2554445008973
 31
0.0
  0
LINE
  5
2F4
330
1F
100
AcDbEntity
  8
D-0
  6
Continuous
 62
     7
370
     9
100
AcDbLine
 10
-730.449473779755
 20
-735.2554445008973
 30
0.0
 11
-731.9495081120303
 21
-735.2554445008973
 31
0.0
  0
LINE
  5
2F5
330
1F
100
AcDbEntity
  8
D-0
  6
Continuous
 62
     7
370
     9
100
AcDbLine
 10
-682.0816858821681
 20
-737.1590165834168
 30
0.0
 11
-682.0816858821681
 21
-735.6587342958192
 31
0.0
  0
LINE
  5
2F6
330
1F
100
AcDbEntity
  8
D-0
  6
Continuous
 62
     7
370
     9
100
AcDbLine
 10
-682.0816858821681
 20
-735.6587342958192
 30
0.0
 11
-680.5816542321018
 21
-735.6587342958192
 31
0.0
  0
LINE
  5
2F7
330
1F
100
AcDbEntity
  8
D-0
  6
Continuous
 62
     7
370
     9
100
AcDbLine
 10
-680.5816542321018
 20
-735.6587342958192
 30
0.0
 11
-680.5816542321018
 21
-737.1590165834168
 31
0.0
  0
LINE
  5
2F8
330
1F
100
AcDbEntity
  8
D-0
  6
Continuous
 62
     7
370
     9
100
AcDbLine
 10
-680.5816542321018
 20
-737.1590165834168
 30
0.0
 11
-682.0816858821681
 21
-737.1590165834168
 31
0.0
  0
LINE
  5
2F9
330
1F
100
AcDbEntity
  8
D-0
  6
Continuous
 62
     7
370
     9
100
AcDbLine
 10
-706.8252705746463
 20
-763.0442933778504
 30
0.0
 11
-706.8252705746463
 21
-761.5440110902528
 31
0.0
  0
LINE
  5
2FA
330
1F
100
AcDbEntity
  8
D-0
  6
Continuous
 62
     7
370
     9
100
AcDbLine
 10
-706.8252705746463
 20
-761.5440110902528
 30
0.0
 11
-705.3252410107425
 21
-761.5440110902528
 31
0.0
  0
LINE
  5
2FB
330
1F
100
AcDbEntity
  8
D-0
  6
Continuous
 62
     7
370
     9
100
AcDbLine
 10
-705.3252410107425
 20
-761.5440110902528
 30
0.0
 11
-705.3252410107425
 21
-763.0442933778504
 31
0.0
  0
LINE
  5
2FC
330
1F
100
AcDbEntity
  8
D-0
  6
Continuous
 62
     7
370
     9
100
AcDbLine
 10
-705.3252410107425
 20
-763.0442933778504
 30
0.0
 11
-706.8252705746463
 21
-763.0442933778504
 31
0.0
  0
LINE
  5
2FD
330
1F
100
AcDbEntity
  8
D-0
  6
Continuous
 62
     7
370
     9
100
AcDbLine
 10
-747.1762537174991
 20
-774.8453645448426
 30
0.0
 11
-747.1762537174991
 21
-773.3450822572449
 31
0.0
  0
LINE
  5
2FE
330
1F
100
AcDbEntity
  8
D-0
  6
Continuous
 62
     7
370
     9
100
AcDbLine
 10
-747.1762537174991
 20
-773.3450822572449
 30
0.0
 11
-745.6762193852237
 21
-773.3450822572449
 31
0.0
  0
LINE
  5
2FF
330
1F
100
AcDbEntity
  8
D-0
  6
Continuous
 62
     7
370
     9
100
AcDbLine
 10
-745.6762193852237
 20
-773.3450822572449
 30
0.0
 11
-745.6762193852237
 21
-774.8453645448426
 31
0.0
  0
LINE
  5
300
330
1F
100
AcDbEntity
  8
D-0
  6
Continuous
 62
     7
370
     9
100
AcDbLine
 10
-745.6762193852237
 20
-774.8453645448426
 30
0.0
 11
-747.1762537174991
 21
-774.8453645448426
 31
0.0
  0
LINE
  5
301
330
1F
100
AcDbEntity
  8
D-0
  6
Continuous
 62
     7
370
     9
100
AcDbLine
 10
-794.379441660004
 20
-772.561276410077
 30
0.0
 11
-794.379441660004
 21
-771.0609941224793
 31
0.0
  0
LINE
  5
302
330
1F
100
AcDbEntity
  8
D-0
  6
Continuous
 62
     7
370
     9
100
AcDbLine
 10
-794.379441660004
 20
-771.0609941224793
 30
0.0
 11
-792.8794073277286
 21
-771.0609941224793
 31
0.0
  0
LINE
  5
303
330
1F
100
AcDbEntity
  8
D-0
  6
Continuous
 62
     7
370
     9
100
AcDbLine
 10
-792.8794073277286
 20
-771.0609941224793
 30
0.0
 11
-792.8794073277286
 21
-772.561276410077
 31
0.0
  0
LINE
  5
304
330
1F
100
AcDbEntity
  8
D-0
  6
Continuous
 62
     7
370
     9
100
AcDbLine
 10
-792.8794073277286
 20
-772.561276410077
 30
0.0
 11
-794.379441660004
 21
-772.561276410077
 31
0.0
  0
LINE
  5
305
330
1F
100
AcDbEntity
  8
D-0
  6
Continuous
 62
     7
370
     9
100
AcDbLine
 10
-778.010508936005
 20
-801.1116533021668
 30
0.0
 11
-778.010508936005
 21
-799.6113710145692
 31
0.0
  0
LINE
  5
306
330
1F
100
AcDbEntity
  8
D-0
  6
Continuous
 62
     7
370
     9
100
AcDbLine
 10
-778.010508936005
 20
-799.6113710145692
 30
0.0
 11
-776.5104841404727
 21
-799.6113710145692
 31
0.0
  0
LINE
  5
307
330
1F
100
AcDbEntity
  8
D-0
  6
Continuous
 62
     7
370
     9
100
AcDbLine
 10
-776.5104841404727
 20
-799.6113710145692
 30
0.0
 11
-776.5104841404727
 21
-801.1116533021668
 31
0.0
  0
LINE
  5
308
330
1F
100
AcDbEntity
  8
D-0
  6
Continuous
 62
     7
370
     9
100
AcDbLine
 10
-776.5104841404727
 20
-801.1116533021668
 30
0.0
 11
-778.010508936005
 21
-801.1116533021668
 31
0.0
  0
LINE
  5
309
330
1F
100
AcDbEntity
  8
D-0
  6
Continuous
 62
     7
370
     9
100
AcDbLine
 10
-726.2394785099796
 20
-799.5890931825379
 30
0.0
 11
-726.2394785099796
 21
-798.0888108949403
 31
0.0
  0
LINE
  5
30A
330
1F
100
AcDbEntity
  8
D-0
  6
Continuous
 62
     7
370
     9
100
AcDbLine
 10
-726.2394785099796
 20
-798.0888108949403
 30
0.0
 11
-724.7394417935184
 21
-798.0888108949403
 31
0.0
  0
LINE
  5
30B
330
1F
100
AcDbEntity
  8
D-0
  6
Continuous
 62
     7
370
     9
100
AcDbLine
 10
-724.7394417935184
 20
-798.0888108949403
 30
0.0
 11
-724.7394417935184
 21
-799.5890931825379
 31
0.0
  0
LINE
  5
30C
330
1F
100
AcDbEntity
  8
D-0
  6
Continuous
 62
     7
370
     9
100
AcDbLine
 10
-724.7394417935184
 20
-799.5890931825379
 30
0.0
 11
-726.2394785099796
 21
-799.5890931825379
 31
0.0
  0
LINE
  5
30D
330
1F
100
AcDbEntity
  8
D-0
  6
Continuous
 62
     7
370
     9
100
AcDbLine
 10
-688.1724833660892
 20
-799.5890931825379
 30
0.0
 11
-688.1724833660892
 21
-798.0888108949403
 31
0.0
  0
LINE
  5
30E
330
1F
100
AcDbEntity
  8
D-0
  6
Continuous
 62
     7
370
     9
100
AcDbLine
 10
-688.1724833660892
 20
-798.0888108949403
 30
0.0
 11
-686.6724517160228
 21
-798.0888108949403
 31
0.0
  0
LINE
  5
30F
330
1F
100
AcDbEntity
  8
D-0
  6
Continuous
 62
     7
370
     9
100
AcDbLine
 10
-686.6724517160228
 20
-798.0888108949403
 30
0.0
 11
-686.6724517160228
 21
-799.5890931825379
 31
0.0
  0
LINE
  5
310
330
1F
100
AcDbEntity
  8
D-0
  6
Continuous
 62
     7
370
     9
100
AcDbLine
 10
-686.6724517160228
 20
-799.5890931825379
 30
0.0
 11
-688.1724833660892
 21
-799.5890931825379
 31
0.0
  0
LINE
  5
311
330
1F
100
AcDbEntity
  8
D-0
  6
Continuous
 62
     7
370
     9
100
AcDbLine
 10
-631.1482404881289
 20
-616.5842179994324
 30
0.0
 11
-631.1482404881289
 21
-615.0834588746766
 31
0.0
  0
LINE
  5
312
330
1F
100
AcDbEntity
  8
D-0
  6
Continuous
 62
     7
370
     9
100
AcDbLine
 10
-631.1482404881289
 20
-615.0834588746766
 30
0.0
 11
-629.648210924225
 21
-615.0834588746766
 31
0.0
  0
LINE
  5
313
330
1F
100
AcDbEntity
  8
D-0
  6
Continuous
 62
     7
370
     9
100
AcDbLine
 10
-629.648210924225
 20
-615.0834588746766
 30
0.0
 11
-629.648210924225
 21
-616.5842179994324
 31
0.0
  0
LINE
  5
314
330
1F
100
AcDbEntity
  8
D-0
  6
Continuous
 62
     7
370
     9
100
AcDbLine
 10
-629.648210924225
 20
-616.5842179994324
 30
0.0
 11
-631.1482404881289
 21
-616.5842179994324
 31
0.0
  0
LINE
  5
315
330
1F
100
AcDbEntity
  8
D-6
  6
Continuous
 62
     6
370
     9
100
AcDbLine
 10
-810.3130983525089
 20
-421.65046021745
 30
0.0
 11
-810.3130983525089
 21
-806.650517437909
 31
0.0
  0
LINE
  5
316
330
1F
100
AcDbEntity
  8
D-4
  6
Continuous
 62
     7
370
     9
100
AcDbLine
 10
-810.3130983525089
 20
-711.4061097841004
 30
0.0
 11
-660.3123997860721
 21
-711.4061097841004
 31
0.0
  0
LINE
  5
317
330
1F
100
AcDbEntity
  8
D-4
  6
Continuous
 62
     7
370
     9
100
AcDbLine
 10
-810.3130983525089
 20
-865.0030641298035
 30
0.0
 11
-410.3127168827822
 21
-865.0030641298035
 31
0.0
  0
LINE
  5
318
330
1F
100
AcDbEntity
  8
D-4
  6
Continuous
 62
     7
370
     9
100
AcDbLine
 10
-810.3130983525089
 20
-868.003056500409
 30
0.0
 11
-810.3130983525089
 21
-826.650517437909
 31
0.0
  0
LINE
  5
319
330
1F
100
AcDbEntity
  8
D-4
  6
Continuous
 62
     7
370
     9
100
AcDbLine
 10
-410.3127168827822
 20
-868.003056500409
 30
0.0
 11
-410.3127168827822
 21
-651.6509370546082
 31
0.0
  0
LINE
  5
31A
330
1F
100
AcDbEntity
  8
D-1
  6
Continuous
 62
     2
370
     9
100
AcDbLine
 10
-660.312890928345
 20
-406.6506414155701
 30
0.0
 11
-660.312890928345
 21
-306.6511659364442
 31
0.0
  0
LINE
  5
31B
330
1F
100
AcDbEntity
  8
D-1
  6
Continuous
 62
     2
370
     9
100
AcDbLine
 10
-675.312715094643
 20
-306.6511659364442
 30
0.0
 11
-660.312890928345
 21
-306.6511659364442
 31
0.0
  0
LINE
  5
31C
330
1F
100
AcDbEntity
  8
D-6
  6
Continuous
 62
     6
370
     9
100
AcDbLine
 10
-660.312890928345
 20
-306.6511659364442
 30
0.0
 11
-245.3122209721377
 21
-306.6511659364442
 31
0.0
  0
LINE
  5
31D
330
1F
100
AcDbEntity
  8
D-4
  6
Continuous
 62
     7
370
     9
100
AcDbLine
 10
-141.5502046757509
 20
-306.6511659364442
 30
0.0
 11
-141.5502046757509
 21
-631.6509370546082
 31
0.0
  0
LINE
  5
31E
330
1F
100
AcDbEntity
  8
D-4
  6
Continuous
 62
     7
370
     9
100
AcDbLine
 10
-138.5502123051455
 20
-306.6511659364442
 30
0.0
 11
-225.3122209721377
 21
-306.6511659364442
 31
0.0
  0
LINE
  5
31F
330
1F
100
AcDbEntity
  8
D-4
  6
Continuous
 62
     7
370
     9
100
AcDbLine
 10
-138.5502123051455
 20
-631.6509370546082
 30
0.0
 11
-390.3127168827822
 21
-631.6509370546082
 31
0.0
  0
ARC
  5
320
330
1F
100
AcDbEntity
  8
D-1
  6
Continuous
 62
     2
370
     9
100
AcDbCircle
 10
-675.312715094643
 20
-406.6506414155701
 30
0.0
 40
15.0
100
AcDbArc
 50
270.0
 51
0.0
  0
LWPOLYLINE
  5
321
330
1F
100
AcDbEntity
  8
D-4
  6
Continuous
 62
     7
370
     9
100
AcDbPolyline
 90
        4
 70
     1
 43
2.0
 10
-674.3117250614932
 20
-79.47978303239026
 42
0.4142135623731
 10
-675.3117250614932
 20
-78.47978303239026
 42
0.4142135623731
 10
-676.3117250614931
 20
-79.47978303239026
 42
0.4142135623731
 10
-675.3117250614932
 20
-80.47978303239026
 42
0.4142135623731
  0
LWPOLYLINE
  5
322
330
1F
100
AcDbEntity
  8
D-4
  6
Continuous
 62
     7
370
     9
100
AcDbPolyline
 90
        4
 70
     1
 43
2.0
 10
-809.3126024418643
 20
-188.2321481446949
 42
0.4142135623731
 10
-810.3126024418643
 20
-187.2321481446949
 42
0.4142135623731
 10
-811.3126024418642
 20
-188.2321481446949
 42
0.4142135623731
 10
-810.3126024418643
 20
-189.232148144695
 42
0.4142135623731
  0
LWPOLYLINE
  5
323
330
1F
100
AcDbEntity
  8
D-4
  6
Continuous
 62
     7
370
     9
100
AcDbPolyline
 90
        4
 70
     1
 43
2.0
 10
-684.311770720019
 20
-188.2321481446949
 42
0.4142135623731
 10
-685.311770720019
 20
-187.2321481446949
 42
0.4142135623731
 10
-686.3117707200189
 20
-188.2321481446949
 42
0.4142135623731
 10
-685.311770720019
 20
-189.232148144695
 42
0.4142135623731
  0
LWPOLYLINE
  5
324
330
1F
100
AcDbEntity
  8
D-4
  6
Continuous
 62
     7
370
     9
100
AcDbPolyline
 90
        4
 70
     1
 43
2.0
 10
-684.311770720019
 20
-79.47978303239026
 42
0.4142135623731
 10
-685.311770720019
 20
-78.47978303239026
 42
0.4142135623731
 10
-686.3117707200189
 20
-79.47978303239026
 42
0.4142135623731
 10
-685.311770720019
 20
-80.47978303239026
 42
0.4142135623731
  0
LWPOLYLINE
  5
325
330
1F
100
AcDbEntity
  8
D-4
  6
Continuous
 62
     7
370
     9
100
AcDbPolyline
 90
        4
 70
     1
 43
2.0
 10
-659.312890928345
 20
-79.47978303239026
 42
0.4142135623731
 10
-660.312890928345
 20
-78.47978303239026
 42
0.4142135623731
 10
-661.3128909283449
 20
-79.47978303239026
 42
0.4142135623731
 10
-660.312890928345
 20
-80.47978303239026
 42
0.4142135623731
  0
LWPOLYLINE
  5
326
330
1F
100
AcDbEntity
  8
D-4
  6
Continuous
 62
     7
370
     9
100
AcDbPolyline
 90
        4
 70
     1
 43
2.0
 10
-659.312890928345
 20
31.2159223814281
 42
0.4142135623731
 10
-660.312890928345
 20
32.2159223814281
 42
0.4142135623731
 10
-661.3128909283449
 20
31.2159223814281
 42
0.4142135623731
 10
-660.312890928345
 20
30.2159223814281
 42
0.4142135623731
  0
LWPOLYLINE
  5
327
330
1F
100
AcDbEntity
  8
D-4
  6
Continuous
 62
     7
370
     9
100
AcDbPolyline
 90
        4
 70
     1
 43
2.0
 10
-809.3130983525089
 20
-711.4061097841004
 42
0.4142135623731
 10
-810.3130983525089
 20
-710.4061097841004
 42
0.4142135623731
 10
-811.3130983525087
 20
-711.4061097841004
 42
0.4142135623731
 10
-810.3130983525089
 20
-712.4061097841003
 42
0.4142135623731
  0
LWPOLYLINE
  5
328
330
1F
100
AcDbEntity
  8
D-4
  6
Continuous
 62
     7
370
     9
100
AcDbPolyline
 90
        4
 70
     1
 43
2.0
 10
-659.3123997860721
 20
-711.4061097841004
 42
0.4142135623731
 10
-660.3123997860721
 20
-710.4061097841004
 42
0.4142135623731
 10
-661.312399786072
 20
-711.4061097841004
 42
0.4142135623731
 10
-660.3123997860721
 20
-712.4061097841003
 42
0.4142135623731
  0
LWPOLYLINE
  5
329
330
1F
100
AcDbEntity
  8
D-4
  6
Continuous
 62
     7
370
     9
100
AcDbPolyline
 90
        4
 70
     1
 43
2.0
 10
-809.3130983525089
 20
-865.0030641298035
 42
0.4142135623731
 10
-810.3130983525089
 20
-864.0030641298035
 42
0.4142135623731
 10
-811.3130983525087
 20
-865.0030641298035
 42
0.4142135623731
 10
-810.3130983525089
 20
-866.0030641298034
 42
0.4142135623731
  0
LWPOLYLINE
  5
32A
330
1F
100
AcDbEntity
  8
D-4
  6
Continuous
 62
     7
370
     9
100
AcDbPolyline
 90
        4
 70
     1
 43
2.0
 10
-409.3127168827822
 20
-865.0030641298035
 42
0.4142135623731
 10
-410.3127168827822
 20
-864.0030641298035
 42
0.4142135623731
 10
-411.3127168827822
 20
-865.0030641298035
 42
0.4142135623731
 10
-410.3127168827822
 20
-866.0030641298034
 42
0.4142135623731
  0
LWPOLYLINE
  5
32B
330
1F
100
AcDbEntity
  8
D-4
  6
Continuous
 62
     7
370
     9
100
AcDbPolyline
 90
        4
 70
     1
 43
2.0
 10
-140.5502046757509
 20
-306.6511659364442
 42
0.4142135623731
 10
-141.5502046757509
 20
-305.6511659364441
 42
0.4142135623731
 10
-142.5502046757509
 20
-306.6511659364442
 42
0.4142135623731
 10
-141.5502046757509
 20
-307.6511659364442
 42
0.4142135623731
  0
LWPOLYLINE
  5
32C
330
1F
100
AcDbEntity
  8
D-4
  6
Continuous
 62
     7
370
     9
100
AcDbPolyline
 90
        4
 70
     1
 43
2.0
 10
-140.5502046757509
 20
-631.6509370546082
 42
0.4142135623731
 10
-141.5502046757509
 20
-630.6509370546082
 42
0.4142135623731
 10
-142.5502046757509
 20
-631.6509370546082
 42
0.4142135623731
 10
-141.5502046757509
 20
-632.6509370546082
 42
0.4142135623731
  0
TEXT
  5
32D
330
1F
100
AcDbEntity
  8
D-4
  6
Continuous
 62
     2
370
     9
100
AcDbText
 10
-769.0618490391544
 20
-177.5919383363453
 30
0.0
 40
30.48
  1
25
 41
1.0625
  7
ＭＳ ゴシック
100
AcDbText
  0
TEXT
  5
32E
330
1F
100
AcDbEntity
  8
D-4
  6
Continuous
 62
     2
370
     9
100
AcDbText
 10
-678.1804882698825
 20
-856.093754132245
 30
0.0
 40
30.48
  1
75～80
 41
1.104166666666667
  7
ＭＳ ゴシック
100
AcDbText
  0
TEXT
  5
32F
330
1F
100
AcDbEntity
  8
D-4
  6
Continuous
 62
     2
370
     9
100
AcDbText
 10
-154.7976265507509
 20
-529.6557171168142
 30
0.0
 40
30.48
  1
55～65
 50
90.00000250447756
 41
1.104166666666667
  7
ＭＳ ゴシック
100
AcDbText
  0
TEXT
  5
330
330
1F
100
AcDbEntity
  8
D-4
  6
Continuous
 62
     2
370
     9
100
AcDbText
 10
-647.0115374737552
 20
-68.84045060441174
 30
0.0
 40
30.48
  1
3
 41
1.000000000000003
  7
ＭＳ ゴシック
100
AcDbText
  0
TEXT
  5
331
330
1F
100
AcDbEntity
  8
D-4
  6
Continuous
 62
     2
370
     9
100
AcDbText
 10
-712.1528004818729
 20
-68.84045060441174
 30
0.0
 40
30.48
  1
2
 41
0.9999999999999998
  7
ＭＳ ゴシック
100
AcDbText
  0
TEXT
  5
332
330
1F
100
AcDbEntity
  8
D-5
  6
Continuous
 62
     2
370
     9
100
AcDbText
 10
-1108.881099145966
 20
-980.9816401796082
 30
0.0
 40
30.48
  1
断面詳細図　Ｓ＝１：２
 41
1.113636363636364
  7
ＭＳ ゴシック
100
AcDbText
  0
LINE
  5
333
330
1F
100
AcDbEntity
  8
D-4
  6
Continuous
 62
     7
370
     9
100
AcDbLine
 10
-810.3041814976505
 20
-539.7527436952332
 30
0.0
 11
-660.3040694409183
 21
-539.7527436952332
 31
0.0
  0
LINE
  5
334
330
1F
100
AcDbEntity
  8
D-4
  6
Continuous
 62
     7
370
     9
100
AcDbLine
 10
-660.3040694409183
 20
-539.7527436952332
 30
0.0
 11
-490.3038477116396
 21
-539.7527436952332
 31
0.0
  0
LINE
  5
335
330
1F
100
AcDbEntity
  8
D-4
  6
Continuous
 62
     7
370
     9
100
AcDbLine
 10
-490.3038477116396
 20
-542.752755139325
 30
0.0
 11
-490.3038477116396
 21
-458.149073574994
 31
0.0
  0
LINE
  5
336
330
1F
100
AcDbEntity
  8
D-4
  6
Continuous
 62
     7
370
     9
100
AcDbLine
 10
-427.3478769474794
 20
-453.1491403321961
 30
0.0
 11
-485.3038477116396
 21
-453.1491403321961
 31
0.0
  0
LINE
  5
337
330
1F
100
AcDbEntity
  8
D-4
  6
Continuous
 62
     7
370
     9
100
AcDbLine
 10
-430.3478693180849
 20
-421.6499643068055
 30
0.0
 11
-430.3478693180849
 21
-538.4000901918153
 31
0.0
  0
LINE
  5
338
330
1F
100
AcDbEntity
  8
D-4
  6
Continuous
 62
     7
370
     9
100
AcDbLine
 10
-660.3040694409183
 20
-542.752755139325
 30
0.0
 11
-660.3040694409183
 21
-458.149073574994
 31
0.0
  0
LINE
  5
339
330
1F
100
AcDbEntity
  8
D-9
  6
Continuous
 62
     4
370
     9
100
AcDbLine
 10
-620.3038906269838
 20
-453.1491403321961
 30
0.0
 11
-505.3038477116396
 21
-453.1491403321961
 31
0.0
  0
LINE
  5
33A
330
1F
100
AcDbEntity
  8
D-9
  6
Continuous
 62
     4
370
     9
100
AcDbLine
 10
-635.3039621525576
 20
-438.149073574994
 30
0.0
 11
-635.3039621525576
 21
-424.1491059999207
 31
0.0
  0
LINE
  5
33B
330
1F
100
AcDbEntity
  8
D-9
  6
Continuous
 62
     4
370
     9
100
AcDbLine
 10
-490.3040384465029
 20
-438.149073574994
 30
0.0
 11
-490.3040384465029
 21
-424.1491059999207
 31
0.0
  0
LINE
  5
33C
330
1F
100
AcDbEntity
  8
D-9
  6
Continuous
 62
     4
370
     9
100
AcDbLine
 10
-655.3040551358035
 20
-434.1491536836365
 30
0.0
 11
-655.3040551358035
 21
-424.1491059999207
 31
0.0
  0
LINE
  5
33D
330
1F
100
AcDbEntity
  8
D-9
  6
Continuous
 62
     4
370
     9
100
AcDbLine
 10
-635.2789377384951
 20
-434.1491536836365
 30
0.0
 11
-685.3037661177141
 21
-434.1491536836365
 31
0.0
  0
LINE
  5
33E
330
1F
100
AcDbEntity
  8
D-9
  6
Continuous
 62
     4
370
     9
100
AcDbLine
 10
-490.3040384465029
 20
-424.1491059999207
 30
0.0
 11
-685.3037661177141
 21
-424.1491059999207
 31
0.0
  0
LINE
  5
33F
330
1F
100
AcDbEntity
  8
D-9
  6
Continuous
 62
     3
370
     9
100
AcDbLine
 10
-785.304095666962
 20
-421.65046021745
 30
0.0
 11
-785.304095666962
 21
-444.1504411439637
 31
0.0
  0
LINE
  5
340
330
1F
100
AcDbEntity
  8
D-9
  6
Continuous
 62
     3
370
     9
100
AcDbLine
 10
-685.3037661177141
 20
-444.1504411439637
 30
0.0
 11
-785.304095666962
 21
-444.1504411439637
 31
0.0
  0
LINE
  5
341
330
1F
100
AcDbEntity
  8
D-9
  6
Continuous
 62
     3
370
     9
100
AcDbLine
 10
-685.3037661177141
 20
-421.65046021745
 30
0.0
 11
-785.304095666962
 21
-421.65046021745
 31
0.0
  0
LINE
  5
342
330
1F
100
AcDbEntity
  8
D-9
  6
Continuous
 62
     2
370
     9
100
AcDbLine
 10
-721.5541958027652
 20
-446.6490869264344
 30
0.0
 11
-721.5541958027652
 21
-444.1504411439637
 31
0.0
  0
LINE
  5
343
330
1F
100
AcDbEntity
  8
D-9
  6
Continuous
 62
     2
370
     9
100
AcDbLine
 10
-730.3049062901309
 20
-454.1484956483582
 30
0.0
 11
-721.5541958027652
 21
-446.6490869264344
 31
0.0
  0
LINE
  5
344
330
1F
100
AcDbEntity
  8
D-9
  6
Continuous
 62
     2
370
     9
100
AcDbLine
 10
-740.3038238697818
 20
-454.1484956483582
 30
0.0
 11
-730.3049062901309
 21
-454.1484956483582
 31
0.0
  0
LINE
  5
345
330
1F
100
AcDbEntity
  8
D-9
  6
Continuous
 62
     2
370
     9
100
AcDbLine
 10
-749.0542864018253
 20
-446.6490869264344
 30
0.0
 11
-740.3038238697818
 21
-454.1484956483582
 31
0.0
  0
LINE
  5
346
330
1F
100
AcDbEntity
  8
D-9
  6
Continuous
 62
     2
370
     9
100
AcDbLine
 10
-749.0542864018253
 20
-446.6490869264344
 30
0.0
 11
-749.0542864018253
 21
-444.1504411439637
 31
0.0
  0
LINE
  5
347
330
1F
100
AcDbEntity
  8
D-9
  6
Continuous
 62
     2
370
     9
100
AcDbLine
 10
-749.0542864018253
 20
-446.6490869264344
 30
0.0
 11
-721.5541958027652
 21
-446.6490869264344
 31
0.0
  0
LINE
  5
348
330
1F
100
AcDbEntity
  8
D-9
  6
Continuous
 62
     3
370
     9
100
AcDbLine
 10
-685.3037661177141
 20
-421.65046021745
 30
0.0
 11
-685.3037661177141
 21
-444.1504411439637
 31
0.0
  0
LINE
  5
349
330
1F
100
AcDbEntity
  8
D-9
  6
Continuous
 62
     3
370
     9
100
AcDbLine
 10
-685.3037661177141
 20
-431.65046021745
 30
0.0
 11
-785.304095666962
 21
-431.65046021745
 31
0.0
  0
LINE
  5
34A
330
1F
100
AcDbEntity
  8
D-9
  6
JWW_DASHED2
 62
     3
370
     9
100
AcDbLine
 10
-685.3037661177141
 20
-434.1504411439637
 30
0.0
 11
-785.304095666962
 21
-434.1504411439637
 31
0.0
  0
LINE
  5
34B
330
1F
100
AcDbEntity
  8
D-9
  6
JWW_CENTER1
 62
     4
370
     9
100
AcDbLine
 10
-735.3039287739566
 20
-461.8894605378846
 30
0.0
 11
-735.3039287739566
 21
-421.65046021745
 31
0.0
  0
ARC
  5
34C
330
1F
100
AcDbEntity
  8
D-9
  6
Continuous
 62
     4
370
     9
100
AcDbCircle
 10
-620.3038906269838
 20
-438.149073574994
 30
0.0
 40
15.00000238418579
100
AcDbArc
 50
180.0
 51
270.0
  0
ARC
  5
34D
330
1F
100
AcDbEntity
  8
D-9
  6
Continuous
 62
     4
370
     9
100
AcDbCircle
 10
-505.3038477116396
 20
-438.149073574994
 30
0.0
 40
15.00000238418579
100
AcDbArc
 50
270.0
 51
0.0
  0
LWPOLYLINE
  5
34E
330
1F
100
AcDbEntity
  8
D-4
  6
Continuous
 62
     7
370
     9
100
AcDbPolyline
 90
        4
 70
     1
 43
2.0
 10
-809.3041814976505
 20
-539.7527436952332
 42
0.4142135623731
 10
-810.3041814976505
 20
-538.7527436952332
 42
0.4142135623731
 10
-811.3041814976503
 20
-539.7527436952332
 42
0.4142135623731
 10
-810.3041814976505
 20
-540.7527436952332
 42
0.4142135623731
  0
LWPOLYLINE
  5
34F
330
1F
100
AcDbEntity
  8
D-4
  6
Continuous
 62
     7
370
     9
100
AcDbPolyline
 90
        4
 70
     1
 43
2.0
 10
-659.3040694409183
 20
-539.7527436952332
 42
0.4142135623731
 10
-660.3040694409183
 20
-538.7527436952332
 42
0.4142135623731
 10
-661.3040694409182
 20
-539.7527436952332
 42
0.4142135623731
 10
-660.3040694409183
 20
-540.7527436952332
 42
0.4142135623731
  0
LWPOLYLINE
  5
350
330
1F
100
AcDbEntity
  8
D-4
  6
Continuous
 62
     7
370
     9
100
AcDbPolyline
 90
        4
 70
     1
 43
2.0
 10
-489.3038477116396
 20
-539.7527436952332
 42
0.4142135623731
 10
-490.3038477116396
 20
-538.7527436952332
 42
0.4142135623731
 10
-491.3038477116396
 20
-539.7527436952332
 42
0.4142135623731
 10
-490.3038477116396
 20
-540.7527436952332
 42
0.4142135623731
  0
LWPOLYLINE
  5
351
330
1F
100
AcDbEntity
  8
D-4
  6
Continuous
 62
     7
370
     9
100
AcDbPolyline
 90
        4
 70
     1
 43
2.0
 10
-429.3478693180849
 20
-453.1491403321961
 42
0.4142135623731
 10
-430.3478693180849
 20
-452.1491403321961
 42
0.4142135623731
 10
-431.3478693180849
 20
-453.1491403321961
 42
0.4142135623731
 10
-430.3478693180849
 20
-454.1491403321961
 42
0.4142135623731
  0
TEXT
  5
352
330
1F
100
AcDbEntity
  8
D-4
  6
Continuous
 62
     2
370
     9
100
AcDbText
 10
-756.5541242771915
 20
-528.112739880536
 30
0.0
 40
30.48
  1
30
 41
1.0625
  7
ＭＳ ゴシック
100
AcDbText
  0
TEXT
  5
353
330
1F
100
AcDbEntity
  8
D-4
  6
Continuous
 62
     2
370
     9
100
AcDbText
 10
-649.9378775769046
 20
-528.112739880536
 30
0.0
 40
30.48
  1
34
 41
1.062500000000002
  7
ＭＳ ゴシック
100
AcDbText
  0
TEXT
  5
354
330
1F
100
AcDbEntity
  8
D-4
  6
Continuous
 62
     2
370
     9
100
AcDbText
 10
-441.9878731327822
 20
-524.8443538965993
 30
0.0
 40
30.48
  1
6.5
 50
90.00000250447674
 41
1.083333333333334
  7
ＭＳ ゴシック
100
AcDbText
  0
LINE
  5
355
330
1F
100
AcDbEntity
  8
D-4
  6
Continuous
 62
     7
370
     9
100
AcDbLine
 10
-626.3019346409609
 20
-421.6499643068055
 30
0.0
 11
-427.3473047428896
 21
-421.6499643068055
 31
0.0
  0
LWPOLYLINE
  5
356
330
1F
100
AcDbEntity
  8
D-4
  6
Continuous
 62
     7
370
     9
100
AcDbPolyline
 90
        4
 70
     1
 43
2.0
 10
-429.3478693180849
 20
-421.6499643068055
 42
0.4142135623731
 10
-430.3478693180849
 20
-420.6499643068054
 42
0.4142135623731
 10
-431.3478693180849
 20
-421.6499643068055
 42
0.4142135623731
 10
-430.3478693180849
 20
-422.6499643068055
 42
0.4142135623731
  0
LINE
  5
357
330
1F
100
AcDbEntity
  8
D-4
  6
Continuous
 62
     7
370
     9
100
AcDbLine
 10
-430.3478693180849
 20
-421.6499643068055
 30
0.0
 11
-430.3478693180849
 21
-306.6511659364442
 31
0.0
  0
LWPOLYLINE
  5
358
330
1F
100
AcDbEntity
  8
D-4
  6
Continuous
 62
     7
370
     9
100
AcDbPolyline
 90
        4
 70
     1
 43
2.0
 10
-429.3478693180849
 20
-306.6511659364442
 42
0.4142135623731
 10
-430.3478693180849
 20
-305.6511659364441
 42
0.4142135623731
 10
-431.3478693180849
 20
-306.6511659364442
 42
0.4142135623731
 10
-430.3478693180849
 20
-307.6511659364442
 42
0.4142135623731
  0
TEXT
  5
359
330
1F
100
AcDbEntity
  8
D-4
  6
Continuous
 62
     2
370
   211
100
AcDbText
 10
-445.9878693180849
 20
-385.4005651216248
 30
0.0
 40
30.48
  1
23
 50
90.0
 41
1.0625
  7
ＭＳ ゴシック
100
AcDbText
  0
LINE
  5
35A
330
1F
100
AcDbEntity
  8
D-6
  6
Continuous
 62
     6
370
     9
100
AcDbLine
 10
-553.0191301518252
 20
-631.6509370546082
 30
0.0
 11
-553.0191301518252
 21
-453.1491403321961
 31
0.0
  0
LINE
  5
35B
330
1F
100
AcDbEntity
  8
D-6
  6
Continuous
 62
     6
370
     9
100
AcDbLine
 10
-598.019587915497
 20
-631.6509370546082
 30
0.0
 11
-598.019587915497
 21
-453.1491403321961
 31
0.0
  0
LINE
  5
35C
330
1F
100
AcDbEntity
  8
D-6
  6
Continuous
 62
     6
370
     9
100
AcDbLine
 10
-598.019587915497
 20
-424.1491059999207
 30
0.0
 11
-598.019587915497
 21
-389.1491059999207
 31
0.0
  0
LINE
  5
35D
330
1F
100
AcDbEntity
  8
D-6
  6
Continuous
 62
     6
370
     9
100
AcDbLine
 10
-553.0191301518252
 20
-424.1491059999207
 30
0.0
 11
-553.0191301518252
 21
-389.1491059999207
 31
0.0
  0
LINE
  5
35E
330
1F
100
AcDbEntity
  8
D-6
  6
Continuous
 62
     6
370
     9
100
AcDbLine
 10
-598.019587915497
 20
-389.1491059999207
 30
0.0
 11
-553.0191301518252
 21
-389.1491059999207
 31
0.0
  0
LINE
  5
35F
330
1F
100
AcDbEntity
  8
D-6
  6
JWW_CENTER2
 62
     6
370
     9
100
AcDbLine
 10
-575.5193590336611
 20
-376.8357114534119
 30
0.0
 11
-575.5193590336611
 21
-744.9834565858582
 31
0.0
  0
LINE
  5
360
330
1F
100
AcDbEntity
  8
D-5
  6
Continuous
 62
     7
370
     9
100
AcDbLine
 10
-642.1930574589542
 20
-424.1491059999207
 30
0.0
 11
-628.3813690357973
 21
-403.3106832246522
 31
0.0
  0
LINE
  5
361
330
1F
100
AcDbEntity
  8
D-5
  6
Continuous
 62
     7
370
     9
100
AcDbLine
 10
-642.1930574589542
 20
-424.1491059999207
 30
0.0
 11
-623.4593795948794
 21
-407.5949983339051
 31
0.0
  0
LINE
  5
362
330
1F
100
AcDbEntity
  8
D-5
  6
Continuous
 62
     7
370
     9
100
AcDbLine
 10
-467.6439260655214
 20
-223.601677868816
 30
0.0
 11
-642.1930574589542
 21
-424.1491059999207
 31
0.0
  0
TEXT
  5
363
330
1F
100
AcDbEntity
  8
D-5
  6
Continuous
 62
     7
370
     9
100
AcDbText
 10
-453.9996885472109
 20
-214.7127880983082
 30
0.0
 40
22.86
  1
アンカー＠５００
 41
1.145833333333333
  7
ＭＳ ゴシック
100
AcDbText
  0
LINE
  5
364
330
1F
100
AcDbEntity
  8
D-5
  6
Continuous
 62
     7
370
     9
100
AcDbLine
 10
-477.0502127108156
 20
-28.03354608504989
 30
0.0
 11
-719.5491489428409
 21
-306.6508607606629
 31
0.0
  0
LINE
  5
365
330
1F
100
AcDbEntity
  8
D-5
  6
Continuous
 62
     7
370
     9
100
AcDbLine
 10
-719.5491489428409
 20
-306.6508607606629
 30
0.0
 11
-705.7384523409733
 21
-285.8129297237138
 31
0.0
  0
LINE
  5
366
330
1F
100
AcDbEntity
  8
D-5
  6
Continuous
 62
     7
370
     9
100
AcDbLine
 10
-719.5491489428409
 20
-306.6508607606629
 30
0.0
 11
-700.815473462952
 21
-290.0972490052918
 31
0.0
  0
TEXT
  5
367
330
1F
100
AcDbEntity
  8
D-5
  6
Continuous
 62
     7
370
     9
100
AcDbText
 10
-473.7377922572485
 20
60.86599201984269
 30
0.0
 40
22.86
  1
ステンレス製グレーチング
 41
1.152777777777778
  7
ＭＳ ゴシック
100
AcDbText
  0
LINE
  5
368
330
1F
100
AcDbEntity
  8
D-5
  6
Continuous
 62
     7
370
     9
100
AcDbLine
 10
-470.2234943856259
 20
-117.4124532132434
 30
0.0
 11
-15.62643068706699
 21
-117.4124532132434
 31
0.0
  0
LINE
  5
369
330
1F
100
AcDbEntity
  8
D-5
  6
Continuous
 62
     7
370
     9
100
AcDbLine
 10
-660.3129052334598
 20
-335.814240955596
 30
0.0
 11
-646.5022086315921
 21
-314.9763099186468
 31
0.0
  0
LINE
  5
36A
330
1F
100
AcDbEntity
  8
D-5
  6
Continuous
 62
     7
370
     9
100
AcDbLine
 10
-470.2234943856259
 20
-117.4124532132434
 30
0.0
 11
-660.3129052334598
 21
-335.814240955596
 31
0.0
  0
LINE
  5
36B
330
1F
100
AcDbEntity
  8
D-5
  6
Continuous
 62
     7
370
     9
100
AcDbLine
 10
-660.3129052334598
 20
-335.814240955596
 30
0.0
 11
-641.5792297535709
 21
-319.2606292002249
 31
0.0
  0
TEXT
  5
36C
330
1F
100
AcDbEntity
  8
D-5
  6
Continuous
 62
     7
370
     9
100
AcDbText
 10
-465.8361008607118
 20
-108.4234848599745
 30
0.0
 40
22.86
  1
ステンレス製受枠ＲＬ－２０
 50
359.9999368586928
 41
1.153846153846155
  7
ＭＳ ゴシック
100
AcDbText
  0
TEXT
  5
36D
330
1F
100
AcDbEntity
  8
D-4
  6
Continuous
 62
     2
370
     9
100
AcDbText
 10
-801.5627490692905
 20
-698.8590828506711
 30
0.0
 40
30.48
  1
25～30
 41
1.104166666666667
  7
ＭＳ ゴシック
100
AcDbText
  0
TEXT
  5
36E
330
1F
100
AcDbEntity
  8
D-5
  6
Continuous
 62
     7
370
     9
100
AcDbText
 10
-475.2893057316359
 20
19.20785523261726
 30
0.0
 40
22.86
  1
プレーンタイプ　横断溝・側溝用
 41
1.155555555555555
  7
ＭＳ ゴシック
100
AcDbText
  0
LINE
  5
36F
330
1F
100
AcDbEntity
  8
D-5
  6
Continuous
 62
     7
370
     9
100
AcDbLine
 10
-477.0502127108156
 20
-28.03354608504989
 30
0.0
 11
38.19601709625125
 21
-28.03354608504989
 31
0.0
  0
LWPOLYLINE
  5
370
330
1F
100
AcDbEntity
  8
D-4
  6
Continuous
 62
     7
370
     9
100
AcDbPolyline
 90
        4
 70
     1
 43
2.0
 10
-1442.38204292269
 20
-306.6511545954512
 42
0.4142135623731
 10
-1443.38204292269
 20
-305.6511545954512
 42
0.4142135623731
 10
-1444.382042922689
 20
-306.6511545954512
 42
0.4142135623731
 10
-1443.38204292269
 20
-307.6511545954512
 42
0.4142135623731
  0
LWPOLYLINE
  5
371
330
1F
100
AcDbEntity
  8
D-4
  6
Continuous
 62
     7
370
     9
100
AcDbPolyline
 90
        4
 70
     1
 43
2.0
 10
-1442.38204292269
 20
-406.6509896355695
 42
0.4142135623731
 10
-1443.38204292269
 20
-405.6509896355695
 42
0.4142135623731
 10
-1444.382042922689
 20
-406.6509896355695
 42
0.4142135623731
 10
-1443.38204292269
 20
-407.6509896355696
 42
0.4142135623731
  0
LINE
  5
372
330
1F
100
AcDbEntity
  8
D-4
  6
Continuous
 62
     7
370
     9
100
AcDbLine
 10
-1443.38204292269
 20
-406.6509896355695
 30
0.0
 11
-1443.38204292269
 21
-306.6511545954512
 31
0.0
  0
LINE
  5
373
330
1F
100
AcDbEntity
  8
D-4
  6
Continuous
 62
     7
370
     9
100
AcDbLine
 10
-1388.330888863356
 20
-406.6509896355695
 30
0.0
 11
-1446.381941472363
 21
-406.6509896355695
 31
0.0
  0
LINE
  5
374
330
1F
100
AcDbEntity
  8
D-4
  6
Continuous
 62
     7
370
     9
100
AcDbLine
 10
-1388.330888863356
 20
-306.6511545954512
 30
0.0
 11
-1446.381941472363
 21
-306.6511545954512
 31
0.0
  0
TEXT
  5
375
330
1F
100
AcDbEntity
  8
D-4
  6
Continuous
 62
     2
370
     9
100
AcDbText
 10
-1454.02218313859
 20
-377.9010803635044
 30
0.0
 40
30.48
  1
20
 50
90.0
 41
1.0625
  7
ＭＳ ゴシック
100
AcDbText
  0
TEXT
  5
376
330
1F
100
AcDbEntity
  8
D-4
  6
Continuous
 62
     2
370
     9
100
AcDbText
 10
-1381.01545422706
 20
-177.5918826623854
 30
0.0
 40
30.48
  1
400
 41
1.083333333333333
  7
ＭＳ ゴシック
100
AcDbText
  0
TEXT
  5
377
330
1F
100
AcDbEntity
  8
D-4
  6
Continuous
 62
     2
370
     9
100
AcDbText
 10
-1381.01545422706
 20
-68.83948249610576
 30
0.0
 40
30.48
  1
450
 41
1.083333333333333
  7
ＭＳ ゴシック
100
AcDbText
  0
TEXT
  5
378
330
1F
100
AcDbEntity
  8
D-4
  6
Continuous
 62
     2
370
     9
100
AcDbText
 10
-1381.01545422706
 20
39.91291767017366
 30
0.0
 40
30.48
  1
460
 41
1.083333333333333
  7
ＭＳ ゴシック
100
AcDbText
  0
TEXT
  5
379
330
1F
100
AcDbEntity
  8
D-5
  6
Continuous
 62
     7
370
     9
100
AcDbText
 10
-475.5071055538527
 20
-19.59973687340993
 30
0.0
 40
22.86
  1
ＳＭＧ１４５２０（Ｐ＝３０）
 41
1.154761904761905
  7
ＭＳ ゴシック
100
AcDbText
  0
TEXT
  5
37A
330
1F
100
AcDbEntity
  8
D-5
  6
Continuous
 62
     2
370
     9
100
AcDbText
 10
75.05544058132251
 20
-514.8746967653993
 30
0.0
 40
30.48
  1
材質：メインバー　ＦＢ４×２０（ＳＵＳ３０４）
 41
1.119565217391304
  7
ＭＳ ゴシック
100
AcDbText
  0
TEXT
  5
37B
330
1F
100
AcDbEntity
  8
D-5
  6
Continuous
 62
     2
370
     9
100
AcDbText
 10
75.05544058132251
 20
-569.8750019411806
 30
0.0
 40
30.48
  1
　　　クロスバー　ＦＢ３×１５（ＳＵＳ３０４）
 41
1.119565217391304
  7
ＭＳ ゴシック
100
AcDbText
  0
TEXT
  5
37C
330
1F
100
AcDbEntity
  8
D-5
  6
Continuous
 62
     2
370
     9
100
AcDbText
 10
75.05544058132251
 20
-624.8750596771392
 30
0.0
 40
30.48
  1
　　　サイドバー　ＦＢ４×２０（ＳＵＳ３０４）
 41
1.119565217391304
  7
ＭＳ ゴシック
100
AcDbText
  0
TEXT
  5
37D
330
1F
100
AcDbEntity
  8
D-5
  6
Continuous
 62
     2
370
     9
100
AcDbText
 10
75.05544058132251
 20
-679.8749936931866
 30
0.0
 40
30.48
  1
定尺：９９４
 41
1.104166666666667
  7
ＭＳ ゴシック
100
AcDbText
  0
TEXT
  5
37E
330
1F
100
AcDbEntity
  8
D-5
  6
Continuous
 62
     2
370
     9
100
AcDbText
 10
75.05540140335064
 20
-854.8744245815944
 30
0.0
 40
30.48
  1
定尺：２０００
 41
1.107142857142857
  7
ＭＳ ゴシック
100
AcDbText
  0
TEXT
  5
37F
330
1F
100
AcDbEntity
  8
D-5
  6
Continuous
 62
     2
370
     9
100
AcDbText
 10
15.34348734085064
 20
-744.8744245815944
 30
0.0
 40
30.48
  1
ステンレス製受枠　ＲＬ－２０
 41
1.116071428571428
  7
ＭＳ ゴシック
100
AcDbText
  0
TEXT
  5
380
330
1F
100
AcDbEntity
  8
D-5
  6
Continuous
 62
     2
370
     9
100
AcDbText
 10
75.05540140335064
 20
-799.8754164028835
 30
0.0
 40
30.48
  1
材質：ステンレス鋼板ｔ＝３．０（ＳＵＳ３０４）
 41
1.119565217391304
  7
ＭＳ ゴシック
100
AcDbText
  0
TEXT
  5
381
330
1F
100
AcDbEntity
  8
D-5
  6
Continuous
 62
     2
370
     9
100
AcDbText
 10
75.05540140335064
 20
-909.8745008755398
 30
0.0
 40
30.48
  1
施工場所の状況に合わせて、アンカーをプライヤー等で折り曲げてご使用ください。
 41
1.121710526315789
  7
ＭＳ ゴシック
100
AcDbText
  0
TEXT
  5
382
330
1F
100
AcDbEntity
  8
D-5
  6
Continuous
 62
     2
370
     9
100
AcDbText
 10
15.34375746265688
 20
-458.3879835390946
 30
0.0
 40
30.48
  1
ＳＭＧ　１４５２０（Ｐ＝３０）
 41
1.116666666666666
  7
ＭＳ ゴシック
100
AcDbText
  0
TEXT
  5
383
330
1F
100
AcDbEntity
  8
D-5
  6
Continuous
 62
     2
370
     9
100
AcDbText
 10
15.34375746265681
 20
-408.9307496436865
 30
0.0
 40
30.48
  1
ステンレス製グレーチング プレーンタイプ 横断溝・側溝用
 41
1.12037037037037
  7
ＭＳ ゴシック
100
AcDbText
  0
TEXT
  5
384
330
1F
100
AcDbEntity
  8
D-5
  6
Continuous
 62
     7
370
     9
100
AcDbText
 10
-453.9996885472109
 20
-254.0307106904714
 30
0.0
 40
22.86
  1
ｔ＝２．０（ＳＥＣＣ）
 41
1.151515151515152
  7
ＭＳ ゴシック
100
AcDbText
  0
LINE
  5
385
330
1F
100
AcDbEntity
  8
D-5
  6
Continuous
 62
     7
370
     9
100
AcDbLine
 10
-467.6439260655214
 20
-223.601677868816
 30
0.0
 11
-86.7687242798354
 21
-223.601677868816
 31
0.0
  0
TEXT
  5
386
330
1F
100
AcDbEntity
  8
D-5
  6
Continuous
 62
     3
370
     9
100
AcDbText
 10
188.2533033610944
 20
-349.6004071209881
 30
0.0
 40
38.1
  1
※適用荷重：歩行用
 41
1.088888888888889
  7
ＭＳ ゴシック
100
AcDbText
  0
TEXT
  5
387
330
1F
100
AcDbEntity
  8
F-5ﾚｲﾔ
  6
Continuous
 62
     2
370
     9
100
AcDbText
 10
-344.2278368794325
 20
-1368.974804964539
 30
0.0
 40
30.48
  1
ＳＭＧ　１４５２０（Ｐ＝３０）＋ＲＬ－２０
 41
0.8988095238095238
  7
ＭＳ ゴシック
100
AcDbText
  0
TEXT
  5
388
330
1F
100
AcDbEntity
  8
F-5ﾚｲﾔ
  6
Continuous
 62
     2
370
     9
100
AcDbText
 10
-834.7810283687943
 20
-1325.910975177305
 30
0.0
 40
30.48
  1
ステンレス製グレーチング　プレーンタイプ　横断溝・側溝用
 41
0.8991071428571427
  7
ＭＳ ゴシック
100
AcDbText
  0
ENDSEC
  0
SECTION
  2
OBJECTS
  0
DICTIONARY
  5
C
330
0
100
AcDbDictionary
281
     1
  3
ACAD_DETAILVIEWSTYLE
350
3CE
  3
ACAD_GROUP
350
D
  3
ACAD_LAYOUT
350
1A
  3
ACAD_MATERIAL
350
43
  3
ACAD_MLEADERSTYLE
350
6B
  3
ACAD_MLINESTYLE
350
17
  3
ACAD_PLOTSETTINGS
350
19
  3
ACAD_PLOTSTYLENAME
350
E
  3
ACAD_SCALELIST
350
47
  3
ACAD_SECTIONVIEWSTYLE
350
3CF
  3
ACAD_TABLESTYLE
350
69
  3
ACAD_VISUALSTYLE
350
2A
  3
ACDB_RECOMPOSE_DATA
350
3CB
  3
AcDbVariableDictionary
350
38B
  0
DICTIONARY
  5
389
330
8
100
AcDbDictionary
280
     1
281
     1
  3
ACAD_XREC_ROUNDTRIP
360
38A
  0
DICTIONARY
  5
3CE
102
{ACAD_REACTORS
330
C
102
}
330
C
100
AcDbDictionary
281
     1
  0
DICTIONARY
  5
D
102
{ACAD_REACTORS
330
C
102
}
330
C
100
AcDbDictionary
281
     1
  0
DICTIONARY
  5
1A
102
{ACAD_REACTORS
330
C
102
}
330
C
100
AcDbDictionary
281
     1
  3
Layout1
350
1E
  3
Layout2
350
26
  3
Model
350
22
  0
DICTIONARY
  5
43
102
{ACAD_REACTORS
330
C
102
}
330
C
100
AcDbDictionary
281
     1
  3
ByBlock
350
45
  3
ByLayer
350
44
  3
Global
350
46
  0
DICTIONARY
  5
6B
102
{ACAD_REACTORS
330
C
102
}
330
C
100
AcDbDictionary
281
     1
  3
Standard
350
6C
  0
DICTIONARY
  5
17
102
{ACAD_REACTORS
330
C
102
}
330
C
100
AcDbDictionary
281
     1
  3
Standard
350
18
  0
DICTIONARY
  5
19
102
{ACAD_REACTORS
330
C
102
}
330
C
100
AcDbDictionary
281
     1
  0
ACDBDICTIONARYWDFLT
  5
E
102
{ACAD_REACTORS
330
C
102
}
330
C
100
AcDbDictionary
281
     1
  3
Normal
350
F
100
AcDbDictionaryWithDefault
340
F
  0
DICTIONARY
  5
47
102
{ACAD_REACTORS
330
C
102
}
330
C
100
AcDbDictionary
281
     1
  3
A0
350
48
  3
A1
350
49
  3
A2
350
4A
  3
A3
350
4B
  3
A4
350
4C
  3
A5
350
4D
  3
A6
350
4E
  3
A7
350
4F
  3
A8
350
50
  3
A9
350
51
  3
B0
350
52
  3
B1
350
53
  3
B2
350
54
  3
B3
350
55
  3
B4
350
56
  3
B5
350
57
  3
B6
350
58
  3
B7
350
59
  3
B8
350
5A
  3
B9
350
5B
  3
C0
350
5C
  3
C1
350
5D
  3
C2
350
5E
  3
C3
350
5F
  3
C4
350
60
  3
C5
350
61
  3
C6
350
62
  3
C7
350
63
  3
C8
350
64
  3
C9
350
65
  3
D0
350
66
  3
D1
350
67
  3
D2
350
68
  0
DICTIONARY
  5
3CF
102
{ACAD_REACTORS
330
C
102
}
330
C
100
AcDbDictionary
281
     1
  0
DICTIONARY
  5
69
102
{ACAD_REACTORS
330
C
102
}
330
C
100
AcDbDictionary
281
     1
  3
Standard
350
6A
  0
DICTIONARY
  5
2A
102
{ACAD_REACTORS
330
C
102
}
330
C
100
AcDbDictionary
281
     1
  3
2dWireframe
350
2F
  3
Basic
350
32
  3
Brighten
350
36
  3
ColorChange
350
3A
  3
Conceptual
350
34
  3
Dim
350
35
  3
EdgeColorOff
350
3D
  3
Facepattern
350
39
  3
Flat
350
2B
  3
FlatWithEdges
350
2C
  3
Gouraud
350
2D
  3
GouraudWithEdges
350
2E
  3
Hidden
350
31
  3
JitterOff
350
3B
  3
Linepattern
350
38
  3
OverhangOff
350
3C
  3
Realistic
350
33
  3
Shaded
350
42
  3
Shaded with edges
350
41
  3
Shades of Gray
350
3E
  3
Sketchy
350
3F
  3
Thicken
350
37
  3
Wireframe
350
30
  3
X-Ray
350
40
  0
XRECORD
  5
3CB
102
{ACAD_REACTORS
330
C
102
}
330
C
100
AcDbXrecord
280
     1
 90
        1
330
6A
  0
DICTIONARY
  5
38B
102
{ACAD_REACTORS
330
C
102
}
330
C
100
AcDbDictionary
281
     1
  3
CANNOSCALE
350
38C
  3
CENTEREXE
350
3D0
  3
CENTERLTYPEFILE
350
3D1
  3
CMLEADERSTYLE
350
3CD
  3
CTABLESTYLE
350
3CC
  3
MSLTSCALE
350
38D
  3
XCLIPFRAME
350
38E
  0
XRECORD
  5
38A
102
{ACAD_REACTORS
330
389
102
}
330
389
100
AcDbXrecord
280
     1
102
VTR_0.000_0.000_1.000_1.000_VISUALSTYLE
340
2F
102
VTR_0.000_0.000_1.000_1.000_GRIDDISPLAY
 70
     3
102
VTR_0.000_0.000_1.000_1.000_GRIDMAJOR
 70
     5
102
VTR_0.000_0.000_1.000_1.000_DEFAULTLIGHTING
280
     1
102
VTR_0.000_0.000_1.000_1.000_DEFAULTLIGHTINGTYPE
 70
     1
102
VTR_0.000_0.000_1.000_1.000_BRIGHTNESS
141
0.0
102
VTR_0.000_0.000_1.000_1.000_CONTRAST
142
0.0
  0
LAYOUT
  5
1E
102
{ACAD_REACTORS
330
1A
102
}
330
1A
100
AcDbPlotSettings
  1

  2
none_device
  4

  6

 40
0.0
 41
0.0
 42
0.0
 43
0.0
 44
0.0
 45
0.0
 46
0.0
 47
0.0
 48
0.0
 49
0.0
140
0.0
141
0.0
142
1.0
143
1.0
 70
   688
 72
     1
 73
     0
 74
     5
  7

 75
    16
 76
     0
 77
     5
 78
   300
147
1.0
148
0.0
149
0.0
100
AcDbLayout
  1
Layout1
 70
     1
 71
     1
 10
0.0
 20
0.0
 11
420.0
 21
297.0
 12
0.0
 22
0.0
 32
0.0
 14
1.000000000000000E+20
 24
1.000000000000000E+20
 34
1.000000000000000E+20
 15
-1.000000000000000E+20
 25
-1.000000000000000E+20
 35
-1.000000000000000E+20
146
0.0
 13
0.0
 23
0.0
 33
0.0
 16
1.0
 26
0.0
 36
0.0
 17
0.0
 27
1.0
 37
0.0
 76
     0
330
1B
  0
LAYOUT
  5
26
102
{ACAD_REACTORS
330
1A
102
}
330
1A
100
AcDbPlotSettings
  1

  2
none_device
  4

  6

 40
0.0
 41
0.0
 42
0.0
 43
0.0
 44
0.0
 45
0.0
 46
0.0
 47
0.0
 48
0.0
 49
0.0
140
0.0
141
0.0
142
1.0
143
1.0
 70
   688
 72
     1
 73
     0
 74
     5
  7

 75
    16
 76
     0
 77
     5
 78
   300
147
1.0
148
0.0
149
0.0
100
AcDbLayout
  1
Layout2
 70
     1
 71
     2
 10
0.0
 20
0.0
 11
0.0
 21
0.0
 12
0.0
 22
0.0
 32
0.0
 14
0.0
 24
0.0
 34
0.0
 15
0.0
 25
0.0
 35
0.0
146
0.0
 13
0.0
 23
0.0
 33
0.0
 16
1.0
 26
0.0
 36
0.0
 17
0.0
 27
1.0
 37
0.0
 76
     0
330
23
  0
LAYOUT
  5
22
102
{ACAD_REACTORS
330
1A
102
}
330
1A
100
AcDbPlotSettings
  1

  2
none_device
  4
Letter_(8.50_x_11.00_Inches)
  6

 40
6.35
 41
6.35
 42
6.35000508
 43
6.35000508
 44
215.9
 45
279.4
 46
0.0
 47
0.0
 48
0.0
 49
0.0
140
0.0
141
0.0
142
1.0
143
1.0
 70
  1712
 72
     1
 73
     0
 74
     0
  7

 75
     0
 76
     0
 77
     5
 78
   300
147
1.0
148
0.0
149
0.0
100
AcDbLayout
  1
Model
 70
     1
 71
     0
 10
-2100.0
 20
-1485.0
 11
2100.0
 21
1485.0
 12
0.0
 22
0.0
 32
0.0
 14
-2100.0
 24
-1485.0
 34
0.0
 15
2100.0
 25
1485.0
 35
0.0
146
0.0
 13
0.0
 23
0.0
 33
0.0
 16
1.0
 26
0.0
 36
0.0
 17
0.0
 27
1.0
 37
0.0
 76
     0
330
1F
331
29
  0
MATERIAL
  5
45
102
{ACAD_REACTORS
330
43
102
}
102
{ACAD_XDICTIONARY
360
3C1
102
}
330
43
100
AcDbMaterial
  1
ByBlock
  0
MATERIAL
  5
44
102
{ACAD_REACTORS
330
43
102
}
102
{ACAD_XDICTIONARY
360
3BF
102
}
330
43
100
AcDbMaterial
  1
ByLayer
  0
MATERIAL
  5
46
102
{ACAD_REACTORS
330
43
102
}
102
{ACAD_XDICTIONARY
360
3C3
102
}
330
43
100
AcDbMaterial
  1
Global
  0
MLEADERSTYLE
  5
6C
102
{ACAD_REACTORS
330
6B
102
}
102
{ACAD_XDICTIONARY
360
3C9
102
}
330
6B
100
AcDbMLeaderStyle
170
     2
171
     1
172
     0
 90
        2
 40
0.0
 41
0.0
173
     1
 91
-1056964608
340
14
 92
       -2
290
     1
 42
2.0
291
     1
 43
8.0
  3
Standard
341
0
 44
4.0
300

342
11
174
     1
178
     6
175
     1
176
     0
 93
-1056964608
 45
4.0
292
     0
297
     0
 46
4.0
343
0
 94
-1056964608
 47
1.0
 49
1.0
140
1.0
293
     1
141
0.0
294
     1
177
     0
142
1.0
295
     0
296
     0
143
3.75
1001
ACAD_MLEADERVER
1070
     2
  0
MLINESTYLE
  5
18
102
{ACAD_REACTORS
330
17
102
}
330
17
100
AcDbMlineStyle
  2
Standard
 70
     0
  3

 62
   256
 51
90.0
 52
90.0
 71
     2
 49
0.5
 62
   256
  6
BYLAYER
 49
-0.5
 62
   256
  6
BYLAYER
  0
ACDBPLACEHOLDER
  5
F
102
{ACAD_REACTORS
330
E
102
}
330
E
  0
SCALE
  5
48
102
{ACAD_REACTORS
330
47
102
}
330
47
100
AcDbScale
 70
     0
300
1:1
140
1.0
141
1.0
290
     1
  0
SCALE
  5
49
102
{ACAD_REACTORS
330
47
102
}
330
47
100
AcDbScale
 70
     0
300
1:2
140
1.0
141
2.0
290
     0
  0
SCALE
  5
4A
102
{ACAD_REACTORS
330
47
102
}
330
47
100
AcDbScale
 70
     0
300
1:4
140
1.0
141
4.0
290
     0
  0
SCALE
  5
4B
102
{ACAD_REACTORS
330
47
102
}
330
47
100
AcDbScale
 70
     0
300
1:5
140
1.0
141
5.0
290
     0
  0
SCALE
  5
4C
102
{ACAD_REACTORS
330
47
102
}
330
47
100
AcDbScale
 70
     0
300
1:8
140
1.0
141
8.0
290
     0
  0
SCALE
  5
4D
102
{ACAD_REACTORS
330
47
102
}
330
47
100
AcDbScale
 70
     0
300
1:10
140
1.0
141
10.0
290
     0
  0
SCALE
  5
4E
102
{ACAD_REACTORS
330
47
102
}
330
47
100
AcDbScale
 70
     0
300
1:16
140
1.0
141
16.0
290
     0
  0
SCALE
  5
4F
102
{ACAD_REACTORS
330
47
102
}
330
47
100
AcDbScale
 70
     0
300
1:20
140
1.0
141
20.0
290
     0
  0
SCALE
  5
50
102
{ACAD_REACTORS
330
47
102
}
330
47
100
AcDbScale
 70
     0
300
1:30
140
1.0
141
30.0
290
     0
  0
SCALE
  5
51
102
{ACAD_REACTORS
330
47
102
}
330
47
100
AcDbScale
 70
     0
300
1:40
140
1.0
141
40.0
290
     0
  0
SCALE
  5
52
102
{ACAD_REACTORS
330
47
102
}
330
47
100
AcDbScale
 70
     0
300
1:50
140
1.0
141
50.0
290
     0
  0
SCALE
  5
53
102
{ACAD_REACTORS
330
47
102
}
330
47
100
AcDbScale
 70
     0
300
1:100
140
1.0
141
100.0
290
     0
  0
SCALE
  5
54
102
{ACAD_REACTORS
330
47
102
}
330
47
100
AcDbScale
 70
     0
300
2:1
140
2.0
141
1.0
290
     0
  0
SCALE
  5
55
102
{ACAD_REACTORS
330
47
102
}
330
47
100
AcDbScale
 70
     0
300
4:1
140
4.0
141
1.0
290
     0
  0
SCALE
  5
56
102
{ACAD_REACTORS
330
47
102
}
330
47
100
AcDbScale
 70
     0
300
8:1
140
8.0
141
1.0
290
     0
  0
SCALE
  5
57
102
{ACAD_REACTORS
330
47
102
}
330
47
100
AcDbScale
 70
     0
300
10:1
140
10.0
141
1.0
290
     0
  0
SCALE
  5
58
102
{ACAD_REACTORS
330
47
102
}
330
47
100
AcDbScale
 70
     0
300
100:1
140
100.0
141
1.0
290
     0
  0
SCALE
  5
59
102
{ACAD_REACTORS
330
47
102
}
330
47
100
AcDbScale
 70
     0
300
1/128" = 1'-0"
140
0.0078125
141
12.0
290
     0
  0
SCALE
  5
5A
102
{ACAD_REACTORS
330
47
102
}
330
47
100
AcDbScale
 70
     0
300
1/64" = 1'-0"
140
0.015625
141
12.0
290
     0
  0
SCALE
  5
5B
102
{ACAD_REACTORS
330
47
102
}
330
47
100
AcDbScale
 70
     0
300
1/32" = 1'-0"
140
0.03125
141
12.0
290
     0
  0
SCALE
  5
5C
102
{ACAD_REACTORS
330
47
102
}
330
47
100
AcDbScale
 70
     0
300
1/16" = 1'-0"
140
0.0625
141
12.0
290
     0
  0
SCALE
  5
5D
102
{ACAD_REACTORS
330
47
102
}
330
47
100
AcDbScale
 70
     0
300
3/32" = 1'-0"
140
0.09375
141
12.0
290
     0
  0
SCALE
  5
5E
102
{ACAD_REACTORS
330
47
102
}
330
47
100
AcDbScale
 70
     0
300
1/8" = 1'-0"
140
0.125
141
12.0
290
     0
  0
SCALE
  5
5F
102
{ACAD_REACTORS
330
47
102
}
330
47
100
AcDbScale
 70
     0
300
3/16" = 1'-0"
140
0.1875
141
12.0
290
     0
  0
SCALE
  5
60
102
{ACAD_REACTORS
330
47
102
}
330
47
100
AcDbScale
 70
     0
300
1/4" = 1'-0"
140
0.25
141
12.0
290
     0
  0
SCALE
  5
61
102
{ACAD_REACTORS
330
47
102
}
330
47
100
AcDbScale
 70
     0
300
3/8" = 1'-0"
140
0.375
141
12.0
290
     0
  0
SCALE
  5
62
102
{ACAD_REACTORS
330
47
102
}
330
47
100
AcDbScale
 70
     0
300
1/2" = 1'-0"
140
0.5
141
12.0
290
     0
  0
SCALE
  5
63
102
{ACAD_REACTORS
330
47
102
}
330
47
100
AcDbScale
 70
     0
300
3/4" = 1'-0"
140
0.75
141
12.0
290
     0
  0
SCALE
  5
64
102
{ACAD_REACTORS
330
47
102
}
330
47
100
AcDbScale
 70
     0
300
1" = 1'-0"
140
1.0
141
12.0
290
     0
  0
SCALE
  5
65
102
{ACAD_REACTORS
330
47
102
}
330
47
100
AcDbScale
 70
     0
300
1-1/2" = 1'-0"
140
1.5
141
12.0
290
     0
  0
SCALE
  5
66
102
{ACAD_REACTORS
330
47
102
}
330
47
100
AcDbScale
 70
     0
300
3" = 1'-0"
140
3.0
141
12.0
290
     0
  0
SCALE
  5
67
102
{ACAD_REACTORS
330
47
102
}
330
47
100
AcDbScale
 70
     0
300
6" = 1'-0"
140
6.0
141
12.0
290
     0
  0
SCALE
  5
68
102
{ACAD_REACTORS
330
47
102
}
330
47
100
AcDbScale
 70
     0
300
1'-0" = 1'-0"
140
12.0
141
12.0
290
     0
  0
TABLESTYLE
  5
6A
102
{ACAD_REACTORS
330
69
102
}
102
{ACAD_XDICTIONARY
360
3C5
102
}
330
69
100
AcDbTableStyle
  3
Standard
 70
     0
 71
     0
 40
0.06
 41
0.06
280
     0
281
     0
  7
Standard
140
4.5
170
     2
 62
     0
 63
   257
283
     0
274
    -2
284
     1
 64
     0
275
    -2
285
     1
 65
     0
276
    -2
286
     1
 66
     0
277
    -2
287
     1
 67
     0
278
    -2
288
     1
 68
     0
279
    -2
289
     1
 69
     0
  7
Standard
140
6.0
170
     5
 62
     0
 63
   257
283
     0
274
    -2
284
     1
 64
     0
275
    -2
285
     1
 65
     0
276
    -2
286
     1
 66
     0
277
    -2
287
     1
 67
     0
278
    -2
288
     1
 68
     0
279
    -2
289
     1
 69
     0
  7
Standard
140
4.5
170
     5
 62
     0
 63
   257
283
     0
274
    -2
284
     1
 64
     0
275
    -2
285
     1
 65
     0
276
    -2
286
     1
 66
     0
277
    -2
287
     1
 67
     0
278
    -2
288
     1
 68
     0
279
    -2
289
     1
 69
     0
  0
VISUALSTYLE
  5
2F
102
{ACAD_REACTORS
330
2A
102
}
102
{ACAD_XDICTIONARY
360
397
102
}
330
2A
100
AcDbVisualStyle
  2
2dWireframe
 70
     4
 71
     0
 72
     2
 73
     0
 90
        0
 40
0.6
 41
30.0
 62
     5
 63
     7
421
 16777215
 74
     1
 91
        4
 64
     7
 65
   257
 75
     1
175
     1
 42
1.0
 92
        0
 66
   257
 43
1.0
 76
     1
 77
     6
 78
     2
 67
     7
 79
     5
170
     0
171
     0
290
     0
174
     0
 93
        1
 44
0.0
173
     0
291
     0
 45
0.0
1001
ACAD
1000
AcDbSavedByObjectVersion
1070
     0
  0
VISUALSTYLE
  5
32
102
{ACAD_REACTORS
330
2A
102
}
102
{ACAD_XDICTIONARY
360
39D
102
}
330
2A
100
AcDbVisualStyle
  2
Basic
 70
     7
 71
     1
 72
     0
 73
     1
 90
        0
 40
0.6
 41
30.0
 62
     5
 63
     7
421
 16777215
 74
     0
 91
        4
 64
     7
 65
   257
 75
     1
175
     1
 42
1.0
 92
        8
 66
     7
 43
1.0
 76
     1
 77
     6
 78
     2
 67
     7
 79
     5
170
     0
171
     0
290
     0
174
     0
 93
        1
 44
0.0
173
     0
291
     1
 45
0.0
1001
ACAD
1000
AcDbSavedByObjectVersion
1070
     0
  0
VISUALSTYLE
  5
36
102
{ACAD_REACTORS
330
2A
102
}
102
{ACAD_XDICTIONARY
360
3A5
102
}
330
2A
100
AcDbVisualStyle
  2
Brighten
 70
    12
 71
     2
 72
     2
 73
     0
 90
        0
 40
0.6
 41
30.0
 62
     5
 63
     7
421
 16777215
 74
     1
 91
        4
 64
     7
 65
   257
 75
     1
175
     1
 42
1.0
 92
        8
 66
     7
 43
1.0
 76
     1
 77
     6
 78
     2
 67
     7
 79
     5
170
     0
171
     0
290
     0
174
     0
 93
        1
 44
50.0
173
     0
291
     1
 45
0.0
1001
ACAD
1000
AcDbSavedByObjectVersion
1070
     0
  0
VISUALSTYLE
  5
3A
102
{ACAD_REACTORS
330
2A
102
}
102
{ACAD_XDICTIONARY
360
3AD
102
}
330
2A
100
AcDbVisualStyle
  2
ColorChange
 70
    16
 71
     2
 72
     2
 73
     3
 90
        0
 40
0.6
 41
30.0
 62
     5
 63
     8
421
  8421504
 74
     1
 91
        4
 64
     7
 65
   257
 75
     1
175
     1
 42
1.0
 92
        8
 66
     8
424
  8421504
 43
1.0
 76
     1
 77
     6
 78
     2
 67
     7
 79
     5
170
     0
171
     0
290
     0
174
     0
 93
        1
 44
0.0
173
     0
291
     1
 45
0.0
1001
ACAD
1000
AcDbSavedByObjectVersion
1070
     0
  0
VISUALSTYLE
  5
34
102
{ACAD_REACTORS
330
2A
102
}
102
{ACAD_XDICTIONARY
360
3A1
102
}
330
2A
100
AcDbVisualStyle
  2
Conceptual
 70
     9
 71
     3
 72
     2
 73
     0
 90
        0
 40
0.6
 41
30.0
 62
     5
 63
     7
421
 16777215
 74
     2
 91
        2
 64
     7
 65
   257
 75
     1
175
     1
 42
179.0
 92
        8
 66
     7
 43
1.0
 76
     1
 77
     6
 78
     2
 67
     7
 79
     3
170
     0
171
     0
290
     0
174
     0
 93
        1
 44
0.0
173
     0
291
     0
 45
0.0
1001
ACAD
1000
AcDbSavedByObjectVersion
1070
     0
  0
VISUALSTYLE
  5
35
102
{ACAD_REACTORS
330
2A
102
}
102
{ACAD_XDICTIONARY
360
3A3
102
}
330
2A
100
AcDbVisualStyle
  2
Dim
 70
    11
 71
     2
 72
     2
 73
     0
 90
        0
 40
0.6
 41
30.0
 62
     5
 63
     7
421
 16777215
 74
     1
 91
        4
 64
     7
 65
   257
 75
     1
175
     1
 42
1.0
 92
        8
 66
     7
 43
1.0
 76
     1
 77
     6
 78
     2
 67
     7
 79
     5
170
     0
171
     0
290
     0
174
     0
 93
        1
 44
-50.0
173
     0
291
     1
 45
0.0
1001
ACAD
1000
AcDbSavedByObjectVersion
1070
     0
  0
VISUALSTYLE
  5
3D
102
{ACAD_REACTORS
330
2A
102
}
102
{ACAD_XDICTIONARY
360
3B3
102
}
330
2A
100
AcDbVisualStyle
  2
EdgeColorOff
 70
    22
 71
     2
 72
     2
 73
     0
 90
        0
 40
0.6
 41
30.0
 62
     5
 63
     7
421
 16777215
 74
     1
 91
        4
 64
     7
 65
   257
 75
     1
175
     1
 42
1.0
 92
        8
 66
     7
 43
1.0
 76
     1
 77
     6
 78
     2
 67
     7
 79
     5
170
     0
171
     0
290
     0
174
     0
 93
        1
 44
0.0
173
     0
291
     1
 45
0.0
1001
ACAD
1000
AcDbSavedByObjectVersion
1070
     0
  0
VISUALSTYLE
  5
39
102
{ACAD_REACTORS
330
2A
102
}
102
{ACAD_XDICTIONARY
360
3AB
102
}
330
2A
100
AcDbVisualStyle
  2
Facepattern
 70
    15
 71
     2
 72
     2
 73
     0
 90
        0
 40
0.6
 41
30.0
 62
     5
 63
     7
421
 16777215
 74
     1
 91
        4
 64
     7
 65
   257
 75
     1
175
     1
 42
1.0
 92
        8
 66
     7
 43
1.0
 76
     1
 77
     6
 78
     2
 67
     7
 79
     5
170
     0
171
     0
290
     0
174
     0
 93
        1
 44
0.0
173
     0
291
     1
 45
0.0
1001
ACAD
1000
AcDbSavedByObjectVersion
1070
     0
  0
VISUALSTYLE
  5
2B
102
{ACAD_REACTORS
330
2A
102
}
102
{ACAD_XDICTIONARY
360
38F
102
}
330
2A
100
AcDbVisualStyle
  2
Flat
 70
     0
 71
     2
 72
     1
 73
     1
 90
        2
 40
0.6
 41
30.0
 62
     5
 63
     7
421
 16777215
 74
     0
 91
        0
 64
     7
 65
   257
 75
     1
175
     1
 42
1.0
 92
        8
 66
     7
 43
1.0
 76
     1
 77
     6
 78
     2
 67
     7
 79
     5
170
     0
171
     0
290
     0
174
     0
 93
       13
 44
0.0
173
     0
291
     1
 45
0.0
1001
ACAD
1000
AcDbSavedByObjectVersion
1070
     0
  0
VISUALSTYLE
  5
2C
102
{ACAD_REACTORS
330
2A
102
}
102
{ACAD_XDICTIONARY
360
391
102
}
330
2A
100
AcDbVisualStyle
  2
FlatWithEdges
 70
     1
 71
     2
 72
     1
 73
     1
 90
        2
 40
0.6
 41
30.0
 62
     5
 63
     7
421
 16777215
 74
     1
 91
        0
 64
     7
 65
   257
 75
     1
175
     1
 42
1.0
 92
        0
 66
   257
 43
1.0
 76
     1
 77
     6
 78
     2
 67
     7
 79
     5
170
     0
171
     0
290
     0
174
     0
 93
       13
 44
0.0
173
     0
291
     1
 45
0.0
1001
ACAD
1000
AcDbSavedByObjectVersion
1070
     0
  0
VISUALSTYLE
  5
2D
102
{ACAD_REACTORS
330
2A
102
}
102
{ACAD_XDICTIONARY
360
393
102
}
330
2A
100
AcDbVisualStyle
  2
Gouraud
 70
     2
 71
     2
 72
     2
 73
     1
 90
        2
 40
0.6
 41
30.0
 62
     5
 63
     7
421
 16777215
 74
     0
 91
        0
 64
     7
 65
   257
 75
     1
175
     1
 42
1.0
 92
        0
 66
     7
 43
1.0
 76
     1
 77
     6
 78
     2
 67
     7
 79
     5
170
     0
171
     0
290
     0
174
     0
 93
       13
 44
0.0
173
     0
291
     1
 45
0.0
1001
ACAD
1000
AcDbSavedByObjectVersion
1070
     0
  0
VISUALSTYLE
  5
2E
102
{ACAD_REACTORS
330
2A
102
}
102
{ACAD_XDICTIONARY
360
395
102
}
330
2A
100
AcDbVisualStyle
  2
GouraudWithEdges
 70
     3
 71
     2
 72
     2
 73
     1
 90
        2
 40
0.6
 41
30.0
 62
     5
 63
     7
421
 16777215
 74
     1
 91
        0
 64
     7
 65
   257
 75
     1
175
     1
 42
1.0
 92
        0
 66
   257
 43
1.0
 76
     1
 77
     6
 78
     2
 67
     7
 79
     5
170
     0
171
     0
290
     0
174
     0
 93
       13
 44
0.0
173
     0
291
     1
 45
0.0
1001
ACAD
1000
AcDbSavedByObjectVersion
1070
     0
  0
VISUALSTYLE
  5
31
102
{ACAD_REACTORS
330
2A
102
}
102
{ACAD_XDICTIONARY
360
39B
102
}
330
2A
100
AcDbVisualStyle
  2
Hidden
 70
     6
 71
     1
 72
     2
 73
     2
 90
        0
 40
0.6
 41
30.0
 62
     5
 63
     7
421
 16777215
 74
     2
 91
        2
 64
     7
 65
   257
 75
     2
175
     1
 42
40.0
 92
        0
 66
   257
 43
1.0
 76
     1
 77
     6
 78
     2
 67
     7
 79
     3
170
     0
171
     0
290
     0
174
     0
 93
        1
 44
0.0
173
     0
291
     0
 45
0.0
1001
ACAD
1000
AcDbSavedByObjectVersion
1070
     0
  0
VISUALSTYLE
  5
3B
102
{ACAD_REACTORS
330
2A
102
}
102
{ACAD_XDICTIONARY
360
3AF
102
}
330
2A
100
AcDbVisualStyle
  2
JitterOff
 70
    20
 71
     2
 72
     2
 73
     0
 90
        0
 40
0.6
 41
30.0
 62
     5
 63
     7
421
 16777215
 74
     1
 91
        4
 64
     7
 65
   257
 75
     1
175
     1
 42
1.0
 92
       10
 66
     7
 43
1.0
 76
     1
 77
     6
 78
     2
 67
     7
 79
     5
170
     0
171
     0
290
     0
174
     0
 93
        1
 44
0.0
173
     0
291
     1
 45
0.0
1001
ACAD
1000
AcDbSavedByObjectVersion
1070
     0
  0
VISUALSTYLE
  5
38
102
{ACAD_REACTORS
330
2A
102
}
102
{ACAD_XDICTIONARY
360
3A9
102
}
330
2A
100
AcDbVisualStyle
  2
Linepattern
 70
    14
 71
     2
 72
     2
 73
     0
 90
        0
 40
0.6
 41
30.0
 62
     5
 63
     7
421
 16777215
 74
     1
 91
        4
 64
     7
 65
   257
 75
     7
175
     7
 42
1.0
 92
        8
 66
     7
 43
1.0
 76
     1
 77
     6
 78
     2
 67
     7
 79
     5
170
     0
171
     0
290
     0
174
     0
 93
        1
 44
0.0
173
     0
291
     1
 45
0.0
1001
ACAD
1000
AcDbSavedByObjectVersion
1070
     0
  0
VISUALSTYLE
  5
3C
102
{ACAD_REACTORS
330
2A
102
}
102
{ACAD_XDICTIONARY
360
3B1
102
}
330
2A
100
AcDbVisualStyle
  2
OverhangOff
 70
    21
 71
     2
 72
     2
 73
     0
 90
        0
 40
0.6
 41
30.0
 62
     5
 63
     7
421
 16777215
 74
     1
 91
        4
 64
     7
 65
   257
 75
     1
175
     1
 42
1.0
 92
        9
 66
     7
 43
1.0
 76
     1
 77
     6
 78
     2
 67
     7
 79
     5
170
     0
171
     0
290
     0
174
     0
 93
        1
 44
0.0
173
     0
291
     1
 45
0.0
1001
ACAD
1000
AcDbSavedByObjectVersion
1070
     0
  0
VISUALSTYLE
  5
33
102
{ACAD_REACTORS
330
2A
102
}
102
{ACAD_XDICTIONARY
360
39F
102
}
330
2A
100
AcDbVisualStyle
  2
Realistic
 70
     8
 71
     2
 72
     3
 73
     0
 90
        2
 40
0.6
 41
30.0
 62
     5
 63
     7
421
 16777215
 74
     0
 91
        0
 64
     7
 65
   257
 75
     1
175
     1
 42
1.0
 92
        8
 66
   257
 43
1.0
 76
     1
 77
     6
 78
     2
 67
     7
 79
     3
170
     0
171
     0
290
     0
174
     0
 93
       13
 44
0.0
173
     0
291
     0
 45
0.0
1001
ACAD
1000
AcDbSavedByObjectVersion
1070
     0
  0
VISUALSTYLE
  5
42
102
{ACAD_REACTORS
330
2A
102
}
102
{ACAD_XDICTIONARY
360
3BD
102
}
330
2A
100
AcDbVisualStyle
  2
Shaded
 70
    27
 71
     2
 72
     2
 73
     1
 90
        2
 40
0.6
 41
30.0
 62
     5
 63
     7
421
 16777215
 74
     0
 91
        4
 64
     7
 65
   257
 75
     1
175
     1
 42
1.0
 92
        8
 66
   257
 43
1.0
 76
     1
 77
     6
 78
     2
 67
     8
425
  7895160
 79
     3
170
     0
171
     0
290
     0
174
     0
 93
        5
 44
0.0
173
     0
291
     0
 45
0.0
1001
ACAD
1000
AcDbSavedByObjectVersion
1070
     0
  0
VISUALSTYLE
  5
41
102
{ACAD_REACTORS
330
2A
102
}
102
{ACAD_XDICTIONARY
360
3BB
102
}
330
2A
100
AcDbVisualStyle
  2
Shaded with edges
 70
    26
 71
     2
 72
     2
 73
     1
 90
        2
 40
0.6
 41
30.0
 62
     5
 63
     7
421
 16777215
 74
     1
 91
       10
 64
     7
 65
   257
 75
     2
175
     1
 42
1.0
 92
        8
 66
   257
 43
1.0
 76
     1
 77
     6
 78
     2
 67
     7
 79
     3
170
     0
171
     0
290
     0
174
     0
 93
        5
 44
0.0
173
     0
291
     0
 45
0.0
1001
ACAD
1000
AcDbSavedByObjectVersion
1070
     0
  0
VISUALSTYLE
  5
3E
102
{ACAD_REACTORS
330
2A
102
}
102
{ACAD_XDICTIONARY
360
3B5
102
}
330
2A
100
AcDbVisualStyle
  2
Shades of Gray
 70
    23
 71
     2
 72
     2
 73
     3
 90
        0
 40
0.6
 41
30.0
 62
     5
 63
     7
421
 16777215
 74
     2
 91
        2
 64
     7
 65
     7
 75
     1
175
     1
 42
40.0
 92
        8
 66
     7
 43
1.0
 76
     1
 77
     6
 78
     2
 67
     7
 79
     3
170
     0
171
     0
290
     0
174
     0
 93
        1
 44
0.0
173
     0
291
     0
 45
0.0
1001
ACAD
1000
AcDbSavedByObjectVersion
1070
     0
  0
VISUALSTYLE
  5
3F
102
{ACAD_REACTORS
330
2A
102
}
102
{ACAD_XDICTIONARY
360
3B7
102
}
330
2A
100
AcDbVisualStyle
  2
Sketchy
 70
    24
 71
     1
 72
     2
 73
     2
 90
        0
 40
0.6
 41
30.0
 62
     5
 63
     7
421
 16777215
 74
     2
 91
        2
 64
     7
 65
     7
 75
     1
175
     1
 42
40.0
 92
       11
 66
     7
 43
1.0
 76
     1
 77
     6
 78
     2
 67
     7
 79
     6
170
     0
171
     0
290
     0
174
     0
 93
        1
 44
0.0
173
     0
291
     0
 45
0.0
1001
ACAD
1000
AcDbSavedByObjectVersion
1070
     0
  0
VISUALSTYLE
  5
37
102
{ACAD_REACTORS
330
2A
102
}
102
{ACAD_XDICTIONARY
360
3A7
102
}
330
2A
100
AcDbVisualStyle
  2
Thicken
 70
    13
 71
     2
 72
     2
 73
     0
 90
        0
 40
0.6
 41
30.0
 62
     5
 63
     7
421
 16777215
 74
     1
 91
        4
 64
     7
 65
   257
 75
     1
175
     1
 42
1.0
 92
       12
 66
     7
 43
1.0
 76
     1
 77
     6
 78
     2
 67
     7
 79
     5
170
     0
171
     0
290
     0
174
     0
 93
        1
 44
0.0
173
     0
291
     1
 45
0.0
1001
ACAD
1000
AcDbSavedByObjectVersion
1070
     0
  0
VISUALSTYLE
  5
30
102
{ACAD_REACTORS
330
2A
102
}
102
{ACAD_XDICTIONARY
360
399
102
}
330
2A
100
AcDbVisualStyle
  2
Wireframe
 70
     5
 71
     0
 72
     2
 73
     0
 90
        0
 40
0.6
 41
30.0
 62
     5
 63
     7
421
 16777215
 74
     1
 91
        4
 64
     7
 65
   257
 75
     1
175
     1
 42
1.0
 92
        0
 66
   257
 43
1.0
 76
     1
 77
     6
 78
     2
 67
     7
 79
     3
170
     0
171
     0
290
     0
174
     0
 93
        1
 44
0.0
173
     0
291
     0
 45
0.0
1001
ACAD
1000
AcDbSavedByObjectVersion
1070
     0
  0
VISUALSTYLE
  5
40
102
{ACAD_REACTORS
330
2A
102
}
102
{ACAD_XDICTIONARY
360
3B9
102
}
330
2A
100
AcDbVisualStyle
  2
X-Ray
 70
    25
 71
     2
 72
     2
 73
     1
 90
        1
 40
0.5
 41
30.0
 62
     5
 63
     7
421
 16777215
 74
     1
 91
        0
 64
     7
 65
   257
 75
     1
175
     1
 42
1.0
 92
        8
 66
     7
 43
1.0
 76
     1
 77
     6
 78
     2
 67
     7
 79
     3
170
     0
171
     0
290
     0
174
     0
 93
       13
 44
0.0
173
     0
291
     0
 45
0.0
1001
ACAD
1000
AcDbSavedByObjectVersion
1070
     0
  0
DICTIONARYVAR
  5
38C
102
{ACAD_REACTORS
330
38B
102
}
330
38B
100
DictionaryVariables
280
     0
  1
1:1
  0
DICTIONARYVAR
  5
3D0
102
{ACAD_REACTORS
330
38B
102
}
330
38B
100
DictionaryVariables
280
     0
  1
3.500000
  0
DICTIONARYVAR
  5
3D1
102
{ACAD_REACTORS
330
38B
102
}
330
38B
100
DictionaryVariables
280
     0
  1
acadiso.lin
  0
DICTIONARYVAR
  5
3CD
102
{ACAD_REACTORS
330
38B
102
}
330
38B
100
DictionaryVariables
280
     0
  1
Standard
  0
DICTIONARYVAR
  5
3CC
102
{ACAD_REACTORS
330
38B
102
}
330
38B
100
DictionaryVariables
280
     0
  1
Standard
  0
DICTIONARYVAR
  5
38D
102
{ACAD_REACTORS
330
38B
102
}
330
38B
100
DictionaryVariables
280
     0
  1
1
  0
DICTIONARYVAR
  5
38E
102
{ACAD_REACTORS
330
38B
102
}
330
38B
100
DictionaryVariables
280
     0
  1
2
  0
DICTIONARY
  5
3C1
330
45
100
AcDbDictionary
280
     1
281
     1
  3
ACAD_XREC_ROUNDTRIP
360
3C2
  0
DICTIONARY
  5
3BF
330
44
100
AcDbDictionary
280
     1
281
     1
  3
ACAD_XREC_ROUNDTRIP
360
3C0
  0
DICTIONARY
  5
3C3
330
46
100
AcDbDictionary
280
     1
281
     1
  3
ACAD_XREC_ROUNDTRIP
360
3C4
  0
DICTIONARY
  5
3C9
330
6C
100
AcDbDictionary
280
     1
281
     1
  3
ACAD_XREC_ROUNDTRIP
360
3CA
  0
DICTIONARY
  5
3C5
330
6A
100
AcDbDictionary
280
     1
281
     1
  3
ACAD_ROUNDTRIP_2008_TABLESTYLE_CELLSTYLEMAP
360
3C7
  3
ACAD_XREC_ROUNDTRIP
360
3C6
  0
DICTIONARY
  5
397
330
2F
100
AcDbDictionary
280
     1
281
     1
  3
ACAD_XREC_ROUNDTRIP
360
398
  0
DICTIONARY
  5
39D
330
32
100
AcDbDictionary
280
     1
281
     1
  3
ACAD_XREC_ROUNDTRIP
360
39E
  0
DICTIONARY
  5
3A5
330
36
100
AcDbDictionary
280
     1
281
     1
  3
ACAD_XREC_ROUNDTRIP
360
3A6
  0
DICTIONARY
  5
3AD
330
3A
100
AcDbDictionary
280
     1
281
     1
  3
ACAD_XREC_ROUNDTRIP
360
3AE
  0
DICTIONARY
  5
3A1
330
34
100
AcDbDictionary
280
     1
281
     1
  3
ACAD_XREC_ROUNDTRIP
360
3A2
  0
DICTIONARY
  5
3A3
330
35
100
AcDbDictionary
280
     1
281
     1
  3
ACAD_XREC_ROUNDTRIP
360
3A4
  0
DICTIONARY
  5
3B3
330
3D
100
AcDbDictionary
280
     1
281
     1
  3
ACAD_XREC_ROUNDTRIP
360
3B4
  0
DICTIONARY
  5
3AB
330
39
100
AcDbDictionary
280
     1
281
     1
  3
ACAD_XREC_ROUNDTRIP
360
3AC
  0
DICTIONARY
  5
38F
330
2B
100
AcDbDictionary
280
     1
281
     1
  3
ACAD_XREC_ROUNDTRIP
360
390
  0
DICTIONARY
  5
391
330
2C
100
AcDbDictionary
280
     1
281
     1
  3
ACAD_XREC_ROUNDTRIP
360
392
  0
DICTIONARY
  5
393
330
2D
100
AcDbDictionary
280
     1
281
     1
  3
ACAD_XREC_ROUNDTRIP
360
394
  0
DICTIONARY
  5
395
330
2E
100
AcDbDictionary
280
     1
281
     1
  3
ACAD_XREC_ROUNDTRIP
360
396
  0
DICTIONARY
  5
39B
330
31
100
AcDbDictionary
280
     1
281
     1
  3
ACAD_XREC_ROUNDTRIP
360
39C
  0
DICTIONARY
  5
3AF
330
3B
100
AcDbDictionary
280
     1
281
     1
  3
ACAD_XREC_ROUNDTRIP
360
3B0
  0
DICTIONARY
  5
3A9
330
38
100
AcDbDictionary
280
     1
281
     1
  3
ACAD_XREC_ROUNDTRIP
360
3AA
  0
DICTIONARY
  5
3B1
330
3C
100
AcDbDictionary
280
     1
281
     1
  3
ACAD_XREC_ROUNDTRIP
360
3B2
  0
DICTIONARY
  5
39F
330
33
100
AcDbDictionary
280
     1
281
     1
  3
ACAD_XREC_ROUNDTRIP
360
3A0
  0
DICTIONARY
  5
3BD
330
42
100
AcDbDictionary
280
     1
281
     1
  3
ACAD_XREC_ROUNDTRIP
360
3BE
  0
DICTIONARY
  5
3BB
330
41
100
AcDbDictionary
280
     1
281
     1
  3
ACAD_XREC_ROUNDTRIP
360
3BC
  0
DICTIONARY
  5
3B5
330
3E
100
AcDbDictionary
280
     1
281
     1
  3
ACAD_XREC_ROUNDTRIP
360
3B6
  0
DICTIONARY
  5
3B7
330
3F
100
AcDbDictionary
280
     1
281
     1
  3
ACAD_XREC_ROUNDTRIP
360
3B8
  0
DICTIONARY
  5
3A7
330
37
100
AcDbDictionary
280
     1
281
     1
  3
ACAD_XREC_ROUNDTRIP
360
3A8
  0
DICTIONARY
  5
399
330
30
100
AcDbDictionary
280
     1
281
     1
  3
ACAD_XREC_ROUNDTRIP
360
39A
  0
DICTIONARY
  5
3B9
330
40
100
AcDbDictionary
280
     1
281
     1
  3
ACAD_XREC_ROUNDTRIP
360
3BA
  0
XRECORD
  5
3C2
102
{ACAD_REACTORS
330
3C1
102
}
330
3C1
100
AcDbXrecord
280
     1
102
MATERIAL
148
0.0
149
0.0
149
0.0
 93
        0
 94
      127
282
     0
 72
     1
 77
     1
171
     1
175
     1
179
     1
273
     0
  0
XRECORD
  5
3C0
102
{ACAD_REACTORS
330
3BF
102
}
330
3BF
100
AcDbXrecord
280
     1
102
MATERIAL
148
0.0
149
0.0
149
0.0
 93
        0
 94
      127
282
     0
 72
     1
 77
     1
171
     1
175
     1
179
     1
273
     0
  0
XRECORD
  5
3C4
102
{ACAD_REACTORS
330
3C3
102
}
330
3C3
100
AcDbXrecord
280
     1
102
MATERIAL
148
0.0
149
0.0
149
0.0
 93
        0
 94
      127
282
     0
 72
     1
 77
     1
171
     1
175
     1
179
     1
273
     0
  0
XRECORD
  5
3CA
102
{ACAD_REACTORS
330
3C9
102
}
330
3C9
100
AcDbXrecord
280
     1
102
ACAD_ROUNDTRIP_2010_MLEADER_STYLE
  0
CELLSTYLEMAP
  5
3C7
102
{ACAD_REACTORS
330
3C5
102
}
330
3C5
100
AcDbCellStyleMap
 90
        3
300
CELLSTYLE
  1
TABLEFORMAT_BEGIN
 90
        5
170
     1
 91
        0
 92
    32768
 62
   257
 93
        1
300
CONTENTFORMAT
  1
CONTENTFORMAT_BEGIN
 90
        0
 91
        0
 92
        4
 93
        0
300

 40
0.0
140
1.0
 94
        5
 62
     0
340
11
144
6.0
309
CONTENTFORMAT_END
171
     1
301
MARGIN
  1
CELLMARGIN_BEGIN
 40
1.5
 40
1.5
 40
1.5
 40
1.5
 40
1.5
 40
1.5
309
CELLMARGIN_END
 94
        6
 95
        1
302
GRIDFORMAT
  1
GRIDFORMAT_BEGIN
 90
        0
 91
        1
 62
     0
 92
       -2
340
14
 93
        0
 40
0.045
309
GRIDFORMAT_END
 95
        2
302
GRIDFORMAT
  1
GRIDFORMAT_BEGIN
 90
        0
 91
        1
 62
     0
 92
       -2
340
14
 93
        0
 40
0.045
309
GRIDFORMAT_END
 95
        4
302
GRIDFORMAT
  1
GRIDFORMAT_BEGIN
 90
        0
 91
        1
 62
     0
 92
       -2
340
14
 93
        0
 40
0.045
309
GRIDFORMAT_END
 95
        8
302
GRIDFORMAT
  1
GRIDFORMAT_BEGIN
 90
        0
 91
        1
 62
     0
 92
       -2
340
14
 93
        0
 40
0.045
309
GRIDFORMAT_END
 95
       16
302
GRIDFORMAT
  1
GRIDFORMAT_BEGIN
 90
        0
 91
        1
 62
     0
 92
       -2
340
14
 93
        0
 40
0.045
309
GRIDFORMAT_END
 95
       32
302
GRIDFORMAT
  1
GRIDFORMAT_BEGIN
 90
        0
 91
        1
 62
     0
 92
       -2
340
14
 93
        0
 40
0.045
309
GRIDFORMAT_END
309
TABLEFORMAT_END
  1
CELLSTYLE_BEGIN
 90
        1
 91
        1
300
_TITLE
309
CELLSTYLE_END
300
CELLSTYLE
  1
TABLEFORMAT_BEGIN
 90
        5
170
     1
 91
        0
 92
        0
 62
   257
 93
        1
300
CONTENTFORMAT
  1
CONTENTFORMAT_BEGIN
 90
        0
 91
        0
 92
        4
 93
        0
300

 40
0.0
140
1.0
 94
        5
 62
     0
340
11
144
4.5
309
CONTENTFORMAT_END
171
     1
301
MARGIN
  1
CELLMARGIN_BEGIN
 40
1.5
 40
1.5
 40
1.5
 40
1.5
 40
1.5
 40
1.5
309
CELLMARGIN_END
 94
        6
 95
        1
302
GRIDFORMAT
  1
GRIDFORMAT_BEGIN
 90
        0
 91
        1
 62
     0
 92
       -2
340
14
 93
        0
 40
0.045
309
GRIDFORMAT_END
 95
        2
302
GRIDFORMAT
  1
GRIDFORMAT_BEGIN
 90
        0
 91
        1
 62
     0
 92
       -2
340
14
 93
        0
 40
0.045
309
GRIDFORMAT_END
 95
        4
302
GRIDFORMAT
  1
GRIDFORMAT_BEGIN
 90
        0
 91
        1
 62
     0
 92
       -2
340
14
 93
        0
 40
0.045
309
GRIDFORMAT_END
 95
        8
302
GRIDFORMAT
  1
GRIDFORMAT_BEGIN
 90
        0
 91
        1
 62
     0
 92
       -2
340
14
 93
        0
 40
0.045
309
GRIDFORMAT_END
 95
       16
302
GRIDFORMAT
  1
GRIDFORMAT_BEGIN
 90
        0
 91
        1
 62
     0
 92
       -2
340
14
 93
        0
 40
0.045
309
GRIDFORMAT_END
 95
       32
302
GRIDFORMAT
  1
GRIDFORMAT_BEGIN
 90
        0
 91
        1
 62
     0
 92
       -2
340
14
 93
        0
 40
0.045
309
GRIDFORMAT_END
309
TABLEFORMAT_END
  1
CELLSTYLE_BEGIN
 90
        2
 91
        1
300
_HEADER
309
CELLSTYLE_END
300
CELLSTYLE
  1
TABLEFORMAT_BEGIN
 90
        5
170
     1
 91
        0
 92
        0
 62
   257
 93
        1
300
CONTENTFORMAT
  1
CONTENTFORMAT_BEGIN
 90
        0
 91
        0
 92
        4
 93
        0
300

 40
0.0
140
1.0
 94
        2
 62
     0
340
11
144
4.5
309
CONTENTFORMAT_END
171
     1
301
MARGIN
  1
CELLMARGIN_BEGIN
 40
1.5
 40
1.5
 40
1.5
 40
1.5
 40
1.5
 40
1.5
309
CELLMARGIN_END
 94
        6
 95
        1
302
GRIDFORMAT
  1
GRIDFORMAT_BEGIN
 90
        0
 91
        1
 62
     0
 92
       -2
340
14
 93
        0
 40
0.045
309
GRIDFORMAT_END
 95
        2
302
GRIDFORMAT
  1
GRIDFORMAT_BEGIN
 90
        0
 91
        1
 62
     0
 92
       -2
340
14
 93
        0
 40
0.045
309
GRIDFORMAT_END
 95
        4
302
GRIDFORMAT
  1
GRIDFORMAT_BEGIN
 90
        0
 91
        1
 62
     0
 92
       -2
340
14
 93
        0
 40
0.045
309
GRIDFORMAT_END
 95
        8
302
GRIDFORMAT
  1
GRIDFORMAT_BEGIN
 90
        0
 91
        1
 62
     0
 92
       -2
340
14
 93
        0
 40
0.045
309
GRIDFORMAT_END
 95
       16
302
GRIDFORMAT
  1
GRIDFORMAT_BEGIN
 90
        0
 91
        1
 62
     0
 92
       -2
340
14
 93
        0
 40
0.045
309
GRIDFORMAT_END
 95
       32
302
GRIDFORMAT
  1
GRIDFORMAT_BEGIN
 90
        0
 91
        1
 62
     0
 92
       -2
340
14
 93
        0
 40
0.045
309
GRIDFORMAT_END
309
TABLEFORMAT_END
  1
CELLSTYLE_BEGIN
 90
        3
 91
        2
300
_DATA
309
CELLSTYLE_END
  0
XRECORD
  5
3C6
102
{ACAD_REACTORS
330
3C5
102
}
330
3C5
100
AcDbXrecord
280
     1
102
ACAD_ROUNDTRIP_PRE2007_TABLESTYLE
 90
        4
 91
        0
  1

 92
        4
 93
        0
  2

 94
        4
 95
        0
  3

  0
XRECORD
  5
398
102
{ACAD_REACTORS
330
397
102
}
330
397
100
AcDbXrecord
280
     1
102
RTVSPropertyOp0
 70
     1
102
RTVSPropertyOp1
 70
     1
102
RTVSPropertyOp2
 70
     1
102
RTVSPropertyOp3
 70
     1
102
RTVSPropertyOp4
 70
     1
102
RTVSPropertyOp5
 70
     1
102
RTVSPropertyOp6
 70
     1
102
RTVSPropertyOp7
 70
     1
102
RTVSPropertyOp8
 70
     1
102
RTVSPropertyOp9
 70
     1
102
RTVSPropertyOp10
 70
     1
102
RTVSPropertyOp11
 70
     1
102
RTVSPropertyOp12
 70
     1
102
RTVSPropertyOp13
 70
     1
102
RTVSPropertyOp14
 70
     1
102
RTVSPropertyOp15
 70
     1
102
RTVSPropertyOp16
 70
     1
102
RTVSPropertyOp17
 70
     1
102
RTVSPropertyOp18
 70
     1
102
RTVSPropertyOp19
 70
     1
102
RTVSPropertyOp20
 70
     1
102
RTVSPropertyOp21
 70
     1
102
RTVSPropertyOp22
 70
     1
102
RTVSPropertyOp23
 70
     1
102
RTVSPropertyOp24
 70
     1
102
RTVSPropertyOp25
 70
     1
102
RTVSPropertyOp26
 70
     1
102
RTVSPropertyOp27
 70
     1
102
RTVSPropertyOp28
 70
     1
102
RTVSPropertyOp29
 70
     1
102
RTVSPropertyOp30
 70
     1
102
RTVSPropertyOp31
 70
     1
102
RTVSPropertyOp32
 70
     1
102
RTVSPropertyOp33
 70
     1
102
RTVSPropertyOp34
 70
     1
102
RTVSPropertyOp35
 70
     1
102
RTVSPropertyOp36
 70
     1
102
RTVSPropertyOp37
 70
     1
102
RTVSPropertyOp38
 70
     1
102
RTVSPropertyOp39
 70
     1
102
RTVSPropertyOp40
 70
     1
102
RTVSPropertyOp41
 70
     1
102
RTVSPropertyOp42
 70
     1
102
RTVSPropertyOp43
 70
     1
102
RTVSPropertyOp44
 70
     1
102
RTVSPropertyOp45
 70
     1
102
RTVSPropertyOp46
 70
     1
102
RTVSPropertyOp47
 70
     1
102
RTVSPropertyOp48
 70
     1
102
RTVSPropertyOp49
 70
     1
102
RTVSPropertyOp50
 70
     1
102
RTVSPropertyOp51
 70
     0
102
RTVSPropertyOp52
 70
     0
102
RTVSPropertyOp53
 70
     1
102
RTVSPropertyOp54
 70
     1
102
RTVSPropertyOp55
 70
     1
102
RTVSPropertyOp56
 70
     1
102
RTVSPropertyOp57
 70
     1
102
RTVSPost2010Prop28
280
     1
102
RTVSPost2010PropOp28
 70
     1
102
RTVSPost2010Prop29
280
     1
102
RTVSPost2010PropOp29
 70
     1
102
RTVSPost2010Prop30
280
     0
102
RTVSPost2010PropOp30
 70
     1
102
RTVSPost2010Prop31
280
     0
102
RTVSPost2010PropOp31
 70
     1
102
RTVSPost2010Prop32
280
     0
102
RTVSPost2010PropOp32
 70
     1
102
RTVSPost2010Prop33
280
     0
102
RTVSPost2010PropOp33
 70
     1
102
RTVSPost2010Prop34
280
     0
102
RTVSPost2010PropOp34
 70
     1
102
RTVSPost2010Prop35
280
     0
102
RTVSPost2010PropOp35
 70
     1
102
RTVSPost2010Prop36
280
     0
102
RTVSPost2010PropOp36
 70
     1
102
RTVSPost2010Prop37
 90
       50
102
RTVSPost2010PropOp37
 70
     1
102
RTVSPost2010Prop38
140
0.0
102
RTVSPost2010PropOp38
 70
     1
102
RTVSPost2010Prop39
140
1.0
102
RTVSPost2010PropOp39
 70
     1
102
RTVSPost2010Prop40
 90
        0
102
RTVSPost2010PropOp40
 70
     1
102
RTVSPost2010Prop41ColorIndex
 90
       18
102
RTVSPost2010Prop41ColorRGB
 90
        0
102
RTVSPost2010PropOp41
 70
     1
102
RTVSPost2010Prop42
 90
       50
102
RTVSPost2010PropOp42
 70
     1
102
RTVSPost2010Prop43
 90
        3
102
RTVSPost2010PropOp43
 70
     1
102
RTVSPost2010Prop44ColorIndex
 90
        5
102
RTVSPost2010Prop44ColorRGB
 90
      255
102
RTVSPost2010PropOp44
 70
     1
102
RTVSPost2010Prop45
280
     0
102
RTVSPost2010PropOp45
 70
     1
102
RTVSPost2010Prop46
 90
       50
102
RTVSPost2010PropOp46
 70
     1
102
RTVSPost2010Prop47
 90
       50
102
RTVSPost2010PropOp47
 70
     1
102
RTVSPost2010Prop48
 90
       50
102
RTVSPost2010PropOp48
 70
     1
102
RTVSPost2010Prop49
280
     0
102
RTVSPost2010PropOp49
 70
     1
102
RTVSPost2010Prop50
 90
       50
102
RTVSPost2010PropOp50
 70
     1
102
RTVSPost2010Prop51ColorIndex
 90
      256
102
RTVSPost2010Prop51ColorRGB
 90
-16777216
102
RTVSPost2010PropOp51
 70
     0
102
RTVSPost2010Prop52
140
1.0
102
RTVSPost2010PropOp52
 70
     0
102
RTVSPost2010Prop53
 90
        2
102
RTVSPost2010PropOp53
 70
     1
102
RTVSPost2010Prop54
  1
strokes_ogs.tif
102
RTVSPost2010PropOp54
 70
     1
102
RTVSPost2010Prop55
280
     0
102
RTVSPost2010PropOp55
 70
     1
102
RTVSPost2010Prop56
140
1.0
102
RTVSPost2010PropOp56
 70
     1
102
RTVSPost2010Prop57
140
1.0
102
RTVSPost2010PropOp57
 70
     1
  0
XRECORD
  5
39E
102
{ACAD_REACTORS
330
39D
102
}
330
39D
100
AcDbXrecord
280
     1
102
RTVSPropertyOp0
 70
     1
102
RTVSPropertyOp1
 70
     1
102
RTVSPropertyOp2
 70
     1
102
RTVSPropertyOp3
 70
     1
102
RTVSPropertyOp4
 70
     1
102
RTVSPropertyOp5
 70
     1
102
RTVSPropertyOp6
 70
     1
102
RTVSPropertyOp7
 70
     1
102
RTVSPropertyOp8
 70
     1
102
RTVSPropertyOp9
 70
     1
102
RTVSPropertyOp10
 70
     1
102
RTVSPropertyOp11
 70
     1
102
RTVSPropertyOp12
 70
     1
102
RTVSPropertyOp13
 70
     1
102
RTVSPropertyOp14
 70
     1
102
RTVSPropertyOp15
 70
     1
102
RTVSPropertyOp16
 70
     1
102
RTVSPropertyOp17
 70
     1
102
RTVSPropertyOp18
 70
     1
102
RTVSPropertyOp19
 70
     1
102
RTVSPropertyOp20
 70
     1
102
RTVSPropertyOp21
 70
     1
102
RTVSPropertyOp22
 70
     1
102
RTVSPropertyOp23
 70
     1
102
RTVSPropertyOp24
 70
     1
102
RTVSPropertyOp25
 70
     1
102
RTVSPropertyOp26
 70
     1
102
RTVSPropertyOp27
 70
     1
102
RTVSPropertyOp28
 70
     1
102
RTVSPropertyOp29
 70
     1
102
RTVSPropertyOp30
 70
     1
102
RTVSPropertyOp31
 70
     1
102
RTVSPropertyOp32
 70
     1
102
RTVSPropertyOp33
 70
     1
102
RTVSPropertyOp34
 70
     1
102
RTVSPropertyOp35
 70
     1
102
RTVSPropertyOp36
 70
     1
102
RTVSPropertyOp37
 70
     1
102
RTVSPropertyOp38
 70
     1
102
RTVSPropertyOp39
 70
     1
102
RTVSPropertyOp40
 70
     1
102
RTVSPropertyOp41
 70
     1
102
RTVSPropertyOp42
 70
     1
102
RTVSPropertyOp43
 70
     1
102
RTVSPropertyOp44
 70
     1
102
RTVSPropertyOp45
 70
     1
102
RTVSPropertyOp46
 70
     1
102
RTVSPropertyOp47
 70
     1
102
RTVSPropertyOp48
 70
     1
102
RTVSPropertyOp49
 70
     1
102
RTVSPropertyOp50
 70
     1
102
RTVSPropertyOp51
 70
     0
102
RTVSPropertyOp52
 70
     0
102
RTVSPropertyOp53
 70
     1
102
RTVSPropertyOp54
 70
     1
102
RTVSPropertyOp55
 70
     1
102
RTVSPropertyOp56
 70
     1
102
RTVSPropertyOp57
 70
     1
102
RTVSPost2010Prop28
280
     0
102
RTVSPost2010PropOp28
 70
     1
102
RTVSPost2010Prop29
280
     1
102
RTVSPost2010PropOp29
 70
     1
102
RTVSPost2010Prop30
280
     1
102
RTVSPost2010PropOp30
 70
     1
102
RTVSPost2010Prop31
280
     0
102
RTVSPost2010PropOp31
 70
     1
102
RTVSPost2010Prop32
280
     0
102
RTVSPost2010PropOp32
 70
     1
102
RTVSPost2010Prop33
280
     0
102
RTVSPost2010PropOp33
 70
     1
102
RTVSPost2010Prop34
280
     0
102
RTVSPost2010PropOp34
 70
     1
102
RTVSPost2010Prop35
280
     0
102
RTVSPost2010PropOp35
 70
     1
102
RTVSPost2010Prop36
280
     0
102
RTVSPost2010PropOp36
 70
     1
102
RTVSPost2010Prop37
 90
       50
102
RTVSPost2010PropOp37
 70
     1
102
RTVSPost2010Prop38
140
0.0
102
RTVSPost2010PropOp38
 70
     1
102
RTVSPost2010Prop39
140
1.0
102
RTVSPost2010PropOp39
 70
     1
102
RTVSPost2010Prop40
 90
        0
102
RTVSPost2010PropOp40
 70
     1
102
RTVSPost2010Prop41ColorIndex
 90
       18
102
RTVSPost2010Prop41ColorRGB
 90
        0
102
RTVSPost2010PropOp41
 70
     1
102
RTVSPost2010Prop42
 90
       50
102
RTVSPost2010PropOp42
 70
     1
102
RTVSPost2010Prop43
 90
        3
102
RTVSPost2010PropOp43
 70
     1
102
RTVSPost2010Prop44ColorIndex
 90
        5
102
RTVSPost2010Prop44ColorRGB
 90
      255
102
RTVSPost2010PropOp44
 70
     1
102
RTVSPost2010Prop45
280
     0
102
RTVSPost2010PropOp45
 70
     1
102
RTVSPost2010Prop46
 90
       50
102
RTVSPost2010PropOp46
 70
     1
102
RTVSPost2010Prop47
 90
       50
102
RTVSPost2010PropOp47
 70
     1
102
RTVSPost2010Prop48
 90
       50
102
RTVSPost2010PropOp48
 70
     1
102
RTVSPost2010Prop49
280
     0
102
RTVSPost2010PropOp49
 70
     1
102
RTVSPost2010Prop50
 90
       50
102
RTVSPost2010PropOp50
 70
     1
102
RTVSPost2010Prop51ColorIndex
 90
      256
102
RTVSPost2010Prop51ColorRGB
 90
-16777216
102
RTVSPost2010PropOp51
 70
     0
102
RTVSPost2010Prop52
140
1.0
102
RTVSPost2010PropOp52
 70
     0
102
RTVSPost2010Prop53
 90
        2
102
RTVSPost2010PropOp53
 70
     1
102
RTVSPost2010Prop54
  1
strokes_ogs.tif
102
RTVSPost2010PropOp54
 70
     1
102
RTVSPost2010Prop55
280
     0
102
RTVSPost2010PropOp55
 70
     1
102
RTVSPost2010Prop56
140
1.0
102
RTVSPost2010PropOp56
 70
     1
102
RTVSPost2010Prop57
140
1.0
102
RTVSPost2010PropOp57
 70
     1
  0
XRECORD
  5
3A6
102
{ACAD_REACTORS
330
3A5
102
}
330
3A5
100
AcDbXrecord
280
     1
102
RTVSPropertyOp0
 70
     1
102
RTVSPropertyOp1
 70
     1
102
RTVSPropertyOp2
 70
     1
102
RTVSPropertyOp3
 70
     1
102
RTVSPropertyOp4
 70
     1
102
RTVSPropertyOp5
 70
     1
102
RTVSPropertyOp6
 70
     1
102
RTVSPropertyOp7
 70
     1
102
RTVSPropertyOp8
 70
     1
102
RTVSPropertyOp9
 70
     1
102
RTVSPropertyOp10
 70
     1
102
RTVSPropertyOp11
 70
     1
102
RTVSPropertyOp12
 70
     1
102
RTVSPropertyOp13
 70
     1
102
RTVSPropertyOp14
 70
     1
102
RTVSPropertyOp15
 70
     1
102
RTVSPropertyOp16
 70
     1
102
RTVSPropertyOp17
 70
     1
102
RTVSPropertyOp18
 70
     1
102
RTVSPropertyOp19
 70
     1
102
RTVSPropertyOp20
 70
     1
102
RTVSPropertyOp21
 70
     1
102
RTVSPropertyOp22
 70
     1
102
RTVSPropertyOp23
 70
     1
102
RTVSPropertyOp24
 70
     1
102
RTVSPropertyOp25
 70
     1
102
RTVSPropertyOp26
 70
     1
102
RTVSPropertyOp27
 70
     1
102
RTVSPropertyOp28
 70
     1
102
RTVSPropertyOp29
 70
     1
102
RTVSPropertyOp30
 70
     1
102
RTVSPropertyOp31
 70
     1
102
RTVSPropertyOp32
 70
     1
102
RTVSPropertyOp33
 70
     1
102
RTVSPropertyOp34
 70
     1
102
RTVSPropertyOp35
 70
     1
102
RTVSPropertyOp36
 70
     1
102
RTVSPropertyOp37
 70
     1
102
RTVSPropertyOp38
 70
     1
102
RTVSPropertyOp39
 70
     1
102
RTVSPropertyOp40
 70
     1
102
RTVSPropertyOp41
 70
     1
102
RTVSPropertyOp42
 70
     1
102
RTVSPropertyOp43
 70
     1
102
RTVSPropertyOp44
 70
     1
102
RTVSPropertyOp45
 70
     1
102
RTVSPropertyOp46
 70
     1
102
RTVSPropertyOp47
 70
     1
102
RTVSPropertyOp48
 70
     1
102
RTVSPropertyOp49
 70
     1
102
RTVSPropertyOp50
 70
     1
102
RTVSPropertyOp51
 70
     0
102
RTVSPropertyOp52
 70
     0
102
RTVSPropertyOp53
 70
     1
102
RTVSPropertyOp54
 70
     1
102
RTVSPropertyOp55
 70
     1
102
RTVSPropertyOp56
 70
     1
102
RTVSPropertyOp57
 70
     1
102
RTVSPost2010Prop28
280
     0
102
RTVSPost2010PropOp28
 70
     1
102
RTVSPost2010Prop29
280
     1
102
RTVSPost2010PropOp29
 70
     1
102
RTVSPost2010Prop30
280
     1
102
RTVSPost2010PropOp30
 70
     1
102
RTVSPost2010Prop31
280
     0
102
RTVSPost2010PropOp31
 70
     1
102
RTVSPost2010Prop32
280
     0
102
RTVSPost2010PropOp32
 70
     1
102
RTVSPost2010Prop33
280
     0
102
RTVSPost2010PropOp33
 70
     1
102
RTVSPost2010Prop34
280
     0
102
RTVSPost2010PropOp34
 70
     1
102
RTVSPost2010Prop35
280
     0
102
RTVSPost2010PropOp35
 70
     1
102
RTVSPost2010Prop36
280
     0
102
RTVSPost2010PropOp36
 70
     1
102
RTVSPost2010Prop37
 90
       50
102
RTVSPost2010PropOp37
 70
     1
102
RTVSPost2010Prop38
140
0.0
102
RTVSPost2010PropOp38
 70
     1
102
RTVSPost2010Prop39
140
1.0
102
RTVSPost2010PropOp39
 70
     1
102
RTVSPost2010Prop40
 90
        0
102
RTVSPost2010PropOp40
 70
     1
102
RTVSPost2010Prop41ColorIndex
 90
       18
102
RTVSPost2010Prop41ColorRGB
 90
        0
102
RTVSPost2010PropOp41
 70
     1
102
RTVSPost2010Prop42
 90
       50
102
RTVSPost2010PropOp42
 70
     1
102
RTVSPost2010Prop43
 90
        3
102
RTVSPost2010PropOp43
 70
     1
102
RTVSPost2010Prop44ColorIndex
 90
        5
102
RTVSPost2010Prop44ColorRGB
 90
      255
102
RTVSPost2010PropOp44
 70
     1
102
RTVSPost2010Prop45
280
     0
102
RTVSPost2010PropOp45
 70
     1
102
RTVSPost2010Prop46
 90
       50
102
RTVSPost2010PropOp46
 70
     1
102
RTVSPost2010Prop47
 90
       50
102
RTVSPost2010PropOp47
 70
     1
102
RTVSPost2010Prop48
 90
       50
102
RTVSPost2010PropOp48
 70
     1
102
RTVSPost2010Prop49
280
     0
102
RTVSPost2010PropOp49
 70
     1
102
RTVSPost2010Prop50
 90
       50
102
RTVSPost2010PropOp50
 70
     1
102
RTVSPost2010Prop51ColorIndex
 90
      256
102
RTVSPost2010Prop51ColorRGB
 90
-16777216
102
RTVSPost2010PropOp51
 70
     0
102
RTVSPost2010Prop52
140
1.0
102
RTVSPost2010PropOp52
 70
     0
102
RTVSPost2010Prop53
 90
        2
102
RTVSPost2010PropOp53
 70
     1
102
RTVSPost2010Prop54
  1
strokes_ogs.tif
102
RTVSPost2010PropOp54
 70
     1
102
RTVSPost2010Prop55
280
     0
102
RTVSPost2010PropOp55
 70
     1
102
RTVSPost2010Prop56
140
1.0
102
RTVSPost2010PropOp56
 70
     1
102
RTVSPost2010Prop57
140
1.0
102
RTVSPost2010PropOp57
 70
     1
  0
XRECORD
  5
3AE
102
{ACAD_REACTORS
330
3AD
102
}
330
3AD
100
AcDbXrecord
280
     1
102
RTVSPropertyOp0
 70
     1
102
RTVSPropertyOp1
 70
     1
102
RTVSPropertyOp2
 70
     1
102
RTVSPropertyOp3
 70
     1
102
RTVSPropertyOp4
 70
     1
102
RTVSPropertyOp5
 70
     1
102
RTVSPropertyOp6
 70
     1
102
RTVSPropertyOp7
 70
     1
102
RTVSPropertyOp8
 70
     1
102
RTVSPropertyOp9
 70
     1
102
RTVSPropertyOp10
 70
     1
102
RTVSPropertyOp11
 70
     1
102
RTVSPropertyOp12
 70
     1
102
RTVSPropertyOp13
 70
     1
102
RTVSPropertyOp14
 70
     1
102
RTVSPropertyOp15
 70
     1
102
RTVSPropertyOp16
 70
     1
102
RTVSPropertyOp17
 70
     1
102
RTVSPropertyOp18
 70
     1
102
RTVSPropertyOp19
 70
     1
102
RTVSPropertyOp20
 70
     1
102
RTVSPropertyOp21
 70
     1
102
RTVSPropertyOp22
 70
     1
102
RTVSPropertyOp23
 70
     1
102
RTVSPropertyOp24
 70
     1
102
RTVSPropertyOp25
 70
     1
102
RTVSPropertyOp26
 70
     1
102
RTVSPropertyOp27
 70
     1
102
RTVSPropertyOp28
 70
     1
102
RTVSPropertyOp29
 70
     1
102
RTVSPropertyOp30
 70
     1
102
RTVSPropertyOp31
 70
     1
102
RTVSPropertyOp32
 70
     1
102
RTVSPropertyOp33
 70
     1
102
RTVSPropertyOp34
 70
     1
102
RTVSPropertyOp35
 70
     1
102
RTVSPropertyOp36
 70
     1
102
RTVSPropertyOp37
 70
     1
102
RTVSPropertyOp38
 70
     1
102
RTVSPropertyOp39
 70
     1
102
RTVSPropertyOp40
 70
     1
102
RTVSPropertyOp41
 70
     1
102
RTVSPropertyOp42
 70
     1
102
RTVSPropertyOp43
 70
     1
102
RTVSPropertyOp44
 70
     1
102
RTVSPropertyOp45
 70
     1
102
RTVSPropertyOp46
 70
     1
102
RTVSPropertyOp47
 70
     1
102
RTVSPropertyOp48
 70
     1
102
RTVSPropertyOp49
 70
     1
102
RTVSPropertyOp50
 70
     1
102
RTVSPropertyOp51
 70
     0
102
RTVSPropertyOp52
 70
     0
102
RTVSPropertyOp53
 70
     1
102
RTVSPropertyOp54
 70
     1
102
RTVSPropertyOp55
 70
     1
102
RTVSPropertyOp56
 70
     1
102
RTVSPropertyOp57
 70
     1
102
RTVSPost2010Prop28
280
     0
102
RTVSPost2010PropOp28
 70
     1
102
RTVSPost2010Prop29
280
     1
102
RTVSPost2010PropOp29
 70
     1
102
RTVSPost2010Prop30
280
     1
102
RTVSPost2010PropOp30
 70
     1
102
RTVSPost2010Prop31
280
     0
102
RTVSPost2010PropOp31
 70
     1
102
RTVSPost2010Prop32
280
     0
102
RTVSPost2010PropOp32
 70
     1
102
RTVSPost2010Prop33
280
     0
102
RTVSPost2010PropOp33
 70
     1
102
RTVSPost2010Prop34
280
     0
102
RTVSPost2010PropOp34
 70
     1
102
RTVSPost2010Prop35
280
     0
102
RTVSPost2010PropOp35
 70
     1
102
RTVSPost2010Prop36
280
     0
102
RTVSPost2010PropOp36
 70
     1
102
RTVSPost2010Prop37
 90
       50
102
RTVSPost2010PropOp37
 70
     1
102
RTVSPost2010Prop38
140
0.0
102
RTVSPost2010PropOp38
 70
     1
102
RTVSPost2010Prop39
140
1.0
102
RTVSPost2010PropOp39
 70
     1
102
RTVSPost2010Prop40
 90
        0
102
RTVSPost2010PropOp40
 70
     1
102
RTVSPost2010Prop41ColorIndex
 90
       18
102
RTVSPost2010Prop41ColorRGB
 90
        0
102
RTVSPost2010PropOp41
 70
     1
102
RTVSPost2010Prop42
 90
       50
102
RTVSPost2010PropOp42
 70
     1
102
RTVSPost2010Prop43
 90
        3
102
RTVSPost2010PropOp43
 70
     1
102
RTVSPost2010Prop44ColorIndex
 90
        5
102
RTVSPost2010Prop44ColorRGB
 90
      255
102
RTVSPost2010PropOp44
 70
     1
102
RTVSPost2010Prop45
280
     0
102
RTVSPost2010PropOp45
 70
     1
102
RTVSPost2010Prop46
 90
       50
102
RTVSPost2010PropOp46
 70
     1
102
RTVSPost2010Prop47
 90
       50
102
RTVSPost2010PropOp47
 70
     1
102
RTVSPost2010Prop48
 90
       50
102
RTVSPost2010PropOp48
 70
     1
102
RTVSPost2010Prop49
280
     0
102
RTVSPost2010PropOp49
 70
     1
102
RTVSPost2010Prop50
 90
       50
102
RTVSPost2010PropOp50
 70
     1
102
RTVSPost2010Prop51ColorIndex
 90
      256
102
RTVSPost2010Prop51ColorRGB
 90
-16777216
102
RTVSPost2010PropOp51
 70
     0
102
RTVSPost2010Prop52
140
1.0
102
RTVSPost2010PropOp52
 70
     0
102
RTVSPost2010Prop53
 90
        2
102
RTVSPost2010PropOp53
 70
     1
102
RTVSPost2010Prop54
  1
strokes_ogs.tif
102
RTVSPost2010PropOp54
 70
     1
102
RTVSPost2010Prop55
280
     0
102
RTVSPost2010PropOp55
 70
     1
102
RTVSPost2010Prop56
140
1.0
102
RTVSPost2010PropOp56
 70
     1
102
RTVSPost2010Prop57
140
1.0
102
RTVSPost2010PropOp57
 70
     1
  0
XRECORD
  5
3A2
102
{ACAD_REACTORS
330
3A1
102
}
330
3A1
100
AcDbXrecord
280
     1
102
RTVSPropertyOp0
 70
     1
102
RTVSPropertyOp1
 70
     1
102
RTVSPropertyOp2
 70
     1
102
RTVSPropertyOp3
 70
     1
102
RTVSPropertyOp4
 70
     1
102
RTVSPropertyOp5
 70
     1
102
RTVSPropertyOp6
 70
     1
102
RTVSPropertyOp7
 70
     1
102
RTVSPropertyOp8
 70
     1
102
RTVSPropertyOp9
 70
     1
102
RTVSPropertyOp10
 70
     1
102
RTVSPropertyOp11
 70
     1
102
RTVSPropertyOp12
 70
     1
102
RTVSPropertyOp13
 70
     1
102
RTVSPropertyOp14
 70
     1
102
RTVSPropertyOp15
 70
     1
102
RTVSPropertyOp16
 70
     1
102
RTVSPropertyOp17
 70
     1
102
RTVSPropertyOp18
 70
     1
102
RTVSPropertyOp19
 70
     1
102
RTVSPropertyOp20
 70
     1
102
RTVSPropertyOp21
 70
     1
102
RTVSPropertyOp22
 70
     1
102
RTVSPropertyOp23
 70
     1
102
RTVSPropertyOp24
 70
     1
102
RTVSPropertyOp25
 70
     1
102
RTVSPropertyOp26
 70
     1
102
RTVSPropertyOp27
 70
     1
102
RTVSPropertyOp28
 70
     1
102
RTVSPropertyOp29
 70
     1
102
RTVSPropertyOp30
 70
     1
102
RTVSPropertyOp31
 70
     1
102
RTVSPropertyOp32
 70
     1
102
RTVSPropertyOp33
 70
     1
102
RTVSPropertyOp34
 70
     1
102
RTVSPropertyOp35
 70
     1
102
RTVSPropertyOp36
 70
     1
102
RTVSPropertyOp37
 70
     1
102
RTVSPropertyOp38
 70
     1
102
RTVSPropertyOp39
 70
     1
102
RTVSPropertyOp40
 70
     1
102
RTVSPropertyOp41
 70
     1
102
RTVSPropertyOp42
 70
     1
102
RTVSPropertyOp43
 70
     1
102
RTVSPropertyOp44
 70
     1
102
RTVSPropertyOp45
 70
     1
102
RTVSPropertyOp46
 70
     1
102
RTVSPropertyOp47
 70
     1
102
RTVSPropertyOp48
 70
     1
102
RTVSPropertyOp49
 70
     1
102
RTVSPropertyOp50
 70
     1
102
RTVSPropertyOp51
 70
     0
102
RTVSPropertyOp52
 70
     0
102
RTVSPropertyOp53
 70
     1
102
RTVSPropertyOp54
 70
     1
102
RTVSPropertyOp55
 70
     1
102
RTVSPropertyOp56
 70
     1
102
RTVSPropertyOp57
 70
     1
102
RTVSPost2010Prop28
280
     0
102
RTVSPost2010PropOp28
 70
     1
102
RTVSPost2010Prop29
280
     1
102
RTVSPost2010PropOp29
 70
     1
102
RTVSPost2010Prop30
280
     1
102
RTVSPost2010PropOp30
 70
     1
102
RTVSPost2010Prop31
280
     0
102
RTVSPost2010PropOp31
 70
     1
102
RTVSPost2010Prop32
280
     0
102
RTVSPost2010PropOp32
 70
     1
102
RTVSPost2010Prop33
280
     0
102
RTVSPost2010PropOp33
 70
     1
102
RTVSPost2010Prop34
280
     0
102
RTVSPost2010PropOp34
 70
     1
102
RTVSPost2010Prop35
280
     0
102
RTVSPost2010PropOp35
 70
     1
102
RTVSPost2010Prop36
280
     0
102
RTVSPost2010PropOp36
 70
     1
102
RTVSPost2010Prop37
 90
       50
102
RTVSPost2010PropOp37
 70
     1
102
RTVSPost2010Prop38
140
0.0
102
RTVSPost2010PropOp38
 70
     1
102
RTVSPost2010Prop39
140
1.0
102
RTVSPost2010PropOp39
 70
     1
102
RTVSPost2010Prop40
 90
        0
102
RTVSPost2010PropOp40
 70
     1
102
RTVSPost2010Prop41ColorIndex
 90
       18
102
RTVSPost2010Prop41ColorRGB
 90
        0
102
RTVSPost2010PropOp41
 70
     1
102
RTVSPost2010Prop42
 90
       50
102
RTVSPost2010PropOp42
 70
     1
102
RTVSPost2010Prop43
 90
        3
102
RTVSPost2010PropOp43
 70
     1
102
RTVSPost2010Prop44ColorIndex
 90
        5
102
RTVSPost2010Prop44ColorRGB
 90
      255
102
RTVSPost2010PropOp44
 70
     1
102
RTVSPost2010Prop45
280
     0
102
RTVSPost2010PropOp45
 70
     1
102
RTVSPost2010Prop46
 90
       50
102
RTVSPost2010PropOp46
 70
     1
102
RTVSPost2010Prop47
 90
       50
102
RTVSPost2010PropOp47
 70
     1
102
RTVSPost2010Prop48
 90
       50
102
RTVSPost2010PropOp48
 70
     1
102
RTVSPost2010Prop49
280
     0
102
RTVSPost2010PropOp49
 70
     1
102
RTVSPost2010Prop50
 90
       50
102
RTVSPost2010PropOp50
 70
     1
102
RTVSPost2010Prop51ColorIndex
 90
      256
102
RTVSPost2010Prop51ColorRGB
 90
-16777216
102
RTVSPost2010PropOp51
 70
     0
102
RTVSPost2010Prop52
140
1.0
102
RTVSPost2010PropOp52
 70
     0
102
RTVSPost2010Prop53
 90
        2
102
RTVSPost2010PropOp53
 70
     1
102
RTVSPost2010Prop54
  1
strokes_ogs.tif
102
RTVSPost2010PropOp54
 70
     1
102
RTVSPost2010Prop55
280
     0
102
RTVSPost2010PropOp55
 70
     1
102
RTVSPost2010Prop56
140
1.0
102
RTVSPost2010PropOp56
 70
     1
102
RTVSPost2010Prop57
140
1.0
102
RTVSPost2010PropOp57
 70
     1
  0
XRECORD
  5
3A4
102
{ACAD_REACTORS
330
3A3
102
}
330
3A3
100
AcDbXrecord
280
     1
102
RTVSPropertyOp0
 70
     1
102
RTVSPropertyOp1
 70
     1
102
RTVSPropertyOp2
 70
     1
102
RTVSPropertyOp3
 70
     1
102
RTVSPropertyOp4
 70
     1
102
RTVSPropertyOp5
 70
     1
102
RTVSPropertyOp6
 70
     1
102
RTVSPropertyOp7
 70
     1
102
RTVSPropertyOp8
 70
     1
102
RTVSPropertyOp9
 70
     1
102
RTVSPropertyOp10
 70
     1
102
RTVSPropertyOp11
 70
     1
102
RTVSPropertyOp12
 70
     1
102
RTVSPropertyOp13
 70
     1
102
RTVSPropertyOp14
 70
     1
102
RTVSPropertyOp15
 70
     1
102
RTVSPropertyOp16
 70
     1
102
RTVSPropertyOp17
 70
     1
102
RTVSPropertyOp18
 70
     1
102
RTVSPropertyOp19
 70
     1
102
RTVSPropertyOp20
 70
     1
102
RTVSPropertyOp21
 70
     1
102
RTVSPropertyOp22
 70
     1
102
RTVSPropertyOp23
 70
     1
102
RTVSPropertyOp24
 70
     1
102
RTVSPropertyOp25
 70
     1
102
RTVSPropertyOp26
 70
     1
102
RTVSPropertyOp27
 70
     1
102
RTVSPropertyOp28
 70
     1
102
RTVSPropertyOp29
 70
     1
102
RTVSPropertyOp30
 70
     1
102
RTVSPropertyOp31
 70
     1
102
RTVSPropertyOp32
 70
     1
102
RTVSPropertyOp33
 70
     1
102
RTVSPropertyOp34
 70
     1
102
RTVSPropertyOp35
 70
     1
102
RTVSPropertyOp36
 70
     1
102
RTVSPropertyOp37
 70
     1
102
RTVSPropertyOp38
 70
     1
102
RTVSPropertyOp39
 70
     1
102
RTVSPropertyOp40
 70
     1
102
RTVSPropertyOp41
 70
     1
102
RTVSPropertyOp42
 70
     1
102
RTVSPropertyOp43
 70
     1
102
RTVSPropertyOp44
 70
     1
102
RTVSPropertyOp45
 70
     1
102
RTVSPropertyOp46
 70
     1
102
RTVSPropertyOp47
 70
     1
102
RTVSPropertyOp48
 70
     1
102
RTVSPropertyOp49
 70
     1
102
RTVSPropertyOp50
 70
     1
102
RTVSPropertyOp51
 70
     0
102
RTVSPropertyOp52
 70
     0
102
RTVSPropertyOp53
 70
     1
102
RTVSPropertyOp54
 70
     1
102
RTVSPropertyOp55
 70
     1
102
RTVSPropertyOp56
 70
     1
102
RTVSPropertyOp57
 70
     1
102
RTVSPost2010Prop28
280
     0
102
RTVSPost2010PropOp28
 70
     1
102
RTVSPost2010Prop29
280
     1
102
RTVSPost2010PropOp29
 70
     1
102
RTVSPost2010Prop30
280
     1
102
RTVSPost2010PropOp30
 70
     1
102
RTVSPost2010Prop31
280
     0
102
RTVSPost2010PropOp31
 70
     1
102
RTVSPost2010Prop32
280
     0
102
RTVSPost2010PropOp32
 70
     1
102
RTVSPost2010Prop33
280
     0
102
RTVSPost2010PropOp33
 70
     1
102
RTVSPost2010Prop34
280
     0
102
RTVSPost2010PropOp34
 70
     1
102
RTVSPost2010Prop35
280
     0
102
RTVSPost2010PropOp35
 70
     1
102
RTVSPost2010Prop36
280
     0
102
RTVSPost2010PropOp36
 70
     1
102
RTVSPost2010Prop37
 90
       50
102
RTVSPost2010PropOp37
 70
     1
102
RTVSPost2010Prop38
140
0.0
102
RTVSPost2010PropOp38
 70
     1
102
RTVSPost2010Prop39
140
1.0
102
RTVSPost2010PropOp39
 70
     1
102
RTVSPost2010Prop40
 90
        0
102
RTVSPost2010PropOp40
 70
     1
102
RTVSPost2010Prop41ColorIndex
 90
       18
102
RTVSPost2010Prop41ColorRGB
 90
        0
102
RTVSPost2010PropOp41
 70
     1
102
RTVSPost2010Prop42
 90
       50
102
RTVSPost2010PropOp42
 70
     1
102
RTVSPost2010Prop43
 90
        3
102
RTVSPost2010PropOp43
 70
     1
102
RTVSPost2010Prop44ColorIndex
 90
        5
102
RTVSPost2010Prop44ColorRGB
 90
      255
102
RTVSPost2010PropOp44
 70
     1
102
RTVSPost2010Prop45
280
     0
102
RTVSPost2010PropOp45
 70
     1
102
RTVSPost2010Prop46
 90
       50
102
RTVSPost2010PropOp46
 70
     1
102
RTVSPost2010Prop47
 90
       50
102
RTVSPost2010PropOp47
 70
     1
102
RTVSPost2010Prop48
 90
       50
102
RTVSPost2010PropOp48
 70
     1
102
RTVSPost2010Prop49
280
     0
102
RTVSPost2010PropOp49
 70
     1
102
RTVSPost2010Prop50
 90
       50
102
RTVSPost2010PropOp50
 70
     1
102
RTVSPost2010Prop51ColorIndex
 90
      256
102
RTVSPost2010Prop51ColorRGB
 90
-16777216
102
RTVSPost2010PropOp51
 70
     0
102
RTVSPost2010Prop52
140
1.0
102
RTVSPost2010PropOp52
 70
     0
102
RTVSPost2010Prop53
 90
        2
102
RTVSPost2010PropOp53
 70
     1
102
RTVSPost2010Prop54
  1
strokes_ogs.tif
102
RTVSPost2010PropOp54
 70
     1
102
RTVSPost2010Prop55
280
     0
102
RTVSPost2010PropOp55
 70
     1
102
RTVSPost2010Prop56
140
1.0
102
RTVSPost2010PropOp56
 70
     1
102
RTVSPost2010Prop57
140
1.0
102
RTVSPost2010PropOp57
 70
     1
  0
XRECORD
  5
3B4
102
{ACAD_REACTORS
330
3B3
102
}
330
3B3
100
AcDbXrecord
280
     1
102
RTVSPropertyOp0
 70
     0
102
RTVSPropertyOp1
 70
     0
102
RTVSPropertyOp2
 70
     0
102
RTVSPropertyOp3
 70
     0
102
RTVSPropertyOp4
 70
     0
102
RTVSPropertyOp5
 70
     0
102
RTVSPropertyOp6
 70
     0
102
RTVSPropertyOp7
 70
     0
102
RTVSPropertyOp8
 70
     0
102
RTVSPropertyOp9
 70
     0
102
RTVSPropertyOp10
 70
     0
102
RTVSPropertyOp11
 70
     0
102
RTVSPropertyOp12
 70
     0
102
RTVSPropertyOp13
 70
     0
102
RTVSPropertyOp14
 70
     2
102
RTVSPropertyOp15
 70
     0
102
RTVSPropertyOp16
 70
     0
102
RTVSPropertyOp17
 70
     0
102
RTVSPropertyOp18
 70
     0
102
RTVSPropertyOp19
 70
     0
102
RTVSPropertyOp20
 70
     0
102
RTVSPropertyOp21
 70
     0
102
RTVSPropertyOp22
 70
     0
102
RTVSPropertyOp23
 70
     0
102
RTVSPropertyOp24
 70
     0
102
RTVSPropertyOp25
 70
     0
102
RTVSPropertyOp26
 70
     0
102
RTVSPropertyOp27
 70
     0
102
RTVSPropertyOp28
 70
     0
102
RTVSPropertyOp29
 70
     0
102
RTVSPropertyOp30
 70
     0
102
RTVSPropertyOp31
 70
     0
102
RTVSPropertyOp32
 70
     0
102
RTVSPropertyOp33
 70
     0
102
RTVSPropertyOp34
 70
     0
102
RTVSPropertyOp35
 70
     0
102
RTVSPropertyOp36
 70
     0
102
RTVSPropertyOp37
 70
     0
102
RTVSPropertyOp38
 70
     0
102
RTVSPropertyOp39
 70
     0
102
RTVSPropertyOp40
 70
     0
102
RTVSPropertyOp41
 70
     0
102
RTVSPropertyOp42
 70
     0
102
RTVSPropertyOp43
 70
     0
102
RTVSPropertyOp44
 70
     0
102
RTVSPropertyOp45
 70
     0
102
RTVSPropertyOp46
 70
     0
102
RTVSPropertyOp47
 70
     0
102
RTVSPropertyOp48
 70
     0
102
RTVSPropertyOp49
 70
     0
102
RTVSPropertyOp50
 70
     0
102
RTVSPropertyOp51
 70
     0
102
RTVSPropertyOp52
 70
     0
102
RTVSPropertyOp53
 70
     0
102
RTVSPropertyOp54
 70
     0
102
RTVSPropertyOp55
 70
     0
102
RTVSPropertyOp56
 70
     0
102
RTVSPropertyOp57
 70
     0
102
RTVSPost2010Prop28
280
     0
102
RTVSPost2010PropOp28
 70
     0
102
RTVSPost2010Prop29
280
     1
102
RTVSPost2010PropOp29
 70
     0
102
RTVSPost2010Prop30
280
     1
102
RTVSPost2010PropOp30
 70
     0
102
RTVSPost2010Prop31
280
     0
102
RTVSPost2010PropOp31
 70
     0
102
RTVSPost2010Prop32
280
     0
102
RTVSPost2010PropOp32
 70
     0
102
RTVSPost2010Prop33
280
     0
102
RTVSPost2010PropOp33
 70
     0
102
RTVSPost2010Prop34
280
     0
102
RTVSPost2010PropOp34
 70
     0
102
RTVSPost2010Prop35
280
     0
102
RTVSPost2010PropOp35
 70
     0
102
RTVSPost2010Prop36
280
     0
102
RTVSPost2010PropOp36
 70
     0
102
RTVSPost2010Prop37
 90
       50
102
RTVSPost2010PropOp37
 70
     0
102
RTVSPost2010Prop38
140
0.0
102
RTVSPost2010PropOp38
 70
     0
102
RTVSPost2010Prop39
140
1.0
102
RTVSPost2010PropOp39
 70
     0
102
RTVSPost2010Prop40
 90
        0
102
RTVSPost2010PropOp40
 70
     0
102
RTVSPost2010Prop41ColorIndex
 90
       18
102
RTVSPost2010Prop41ColorRGB
 90
        0
102
RTVSPost2010PropOp41
 70
     0
102
RTVSPost2010Prop42
 90
       50
102
RTVSPost2010PropOp42
 70
     0
102
RTVSPost2010Prop43
 90
        3
102
RTVSPost2010PropOp43
 70
     0
102
RTVSPost2010Prop44ColorIndex
 90
        5
102
RTVSPost2010Prop44ColorRGB
 90
      255
102
RTVSPost2010PropOp44
 70
     0
102
RTVSPost2010Prop45
280
     0
102
RTVSPost2010PropOp45
 70
     0
102
RTVSPost2010Prop46
 90
       50
102
RTVSPost2010PropOp46
 70
     0
102
RTVSPost2010Prop47
 90
       50
102
RTVSPost2010PropOp47
 70
     0
102
RTVSPost2010Prop48
 90
       50
102
RTVSPost2010PropOp48
 70
     0
102
RTVSPost2010Prop49
280
     0
102
RTVSPost2010PropOp49
 70
     0
102
RTVSPost2010Prop50
 90
       50
102
RTVSPost2010PropOp50
 70
     0
102
RTVSPost2010Prop51ColorIndex
 90
      256
102
RTVSPost2010Prop51ColorRGB
 90
-16777216
102
RTVSPost2010PropOp51
 70
     0
102
RTVSPost2010Prop52
140
1.0
102
RTVSPost2010PropOp52
 70
     0
102
RTVSPost2010Prop53
 90
        2
102
RTVSPost2010PropOp53
 70
     0
102
RTVSPost2010Prop54
  1
strokes_ogs.tif
102
RTVSPost2010PropOp54
 70
     0
102
RTVSPost2010Prop55
280
     0
102
RTVSPost2010PropOp55
 70
     0
102
RTVSPost2010Prop56
140
1.0
102
RTVSPost2010PropOp56
 70
     0
102
RTVSPost2010Prop57
140
1.0
102
RTVSPost2010PropOp57
 70
     0
  0
XRECORD
  5
3AC
102
{ACAD_REACTORS
330
3AB
102
}
330
3AB
100
AcDbXrecord
280
     1
102
RTVSPropertyOp0
 70
     1
102
RTVSPropertyOp1
 70
     1
102
RTVSPropertyOp2
 70
     1
102
RTVSPropertyOp3
 70
     1
102
RTVSPropertyOp4
 70
     1
102
RTVSPropertyOp5
 70
     1
102
RTVSPropertyOp6
 70
     1
102
RTVSPropertyOp7
 70
     1
102
RTVSPropertyOp8
 70
     1
102
RTVSPropertyOp9
 70
     1
102
RTVSPropertyOp10
 70
     1
102
RTVSPropertyOp11
 70
     1
102
RTVSPropertyOp12
 70
     1
102
RTVSPropertyOp13
 70
     1
102
RTVSPropertyOp14
 70
     1
102
RTVSPropertyOp15
 70
     1
102
RTVSPropertyOp16
 70
     1
102
RTVSPropertyOp17
 70
     1
102
RTVSPropertyOp18
 70
     1
102
RTVSPropertyOp19
 70
     1
102
RTVSPropertyOp20
 70
     1
102
RTVSPropertyOp21
 70
     1
102
RTVSPropertyOp22
 70
     1
102
RTVSPropertyOp23
 70
     1
102
RTVSPropertyOp24
 70
     1
102
RTVSPropertyOp25
 70
     1
102
RTVSPropertyOp26
 70
     1
102
RTVSPropertyOp27
 70
     1
102
RTVSPropertyOp28
 70
     1
102
RTVSPropertyOp29
 70
     1
102
RTVSPropertyOp30
 70
     1
102
RTVSPropertyOp31
 70
     1
102
RTVSPropertyOp32
 70
     1
102
RTVSPropertyOp33
 70
     1
102
RTVSPropertyOp34
 70
     1
102
RTVSPropertyOp35
 70
     1
102
RTVSPropertyOp36
 70
     1
102
RTVSPropertyOp37
 70
     1
102
RTVSPropertyOp38
 70
     1
102
RTVSPropertyOp39
 70
     1
102
RTVSPropertyOp40
 70
     1
102
RTVSPropertyOp41
 70
     1
102
RTVSPropertyOp42
 70
     1
102
RTVSPropertyOp43
 70
     1
102
RTVSPropertyOp44
 70
     1
102
RTVSPropertyOp45
 70
     1
102
RTVSPropertyOp46
 70
     1
102
RTVSPropertyOp47
 70
     1
102
RTVSPropertyOp48
 70
     1
102
RTVSPropertyOp49
 70
     1
102
RTVSPropertyOp50
 70
     1
102
RTVSPropertyOp51
 70
     0
102
RTVSPropertyOp52
 70
     0
102
RTVSPropertyOp53
 70
     1
102
RTVSPropertyOp54
 70
     1
102
RTVSPropertyOp55
 70
     1
102
RTVSPropertyOp56
 70
     1
102
RTVSPropertyOp57
 70
     1
102
RTVSPost2010Prop28
280
     0
102
RTVSPost2010PropOp28
 70
     1
102
RTVSPost2010Prop29
280
     1
102
RTVSPost2010PropOp29
 70
     1
102
RTVSPost2010Prop30
280
     1
102
RTVSPost2010PropOp30
 70
     1
102
RTVSPost2010Prop31
280
     0
102
RTVSPost2010PropOp31
 70
     1
102
RTVSPost2010Prop32
280
     0
102
RTVSPost2010PropOp32
 70
     1
102
RTVSPost2010Prop33
280
     0
102
RTVSPost2010PropOp33
 70
     1
102
RTVSPost2010Prop34
280
     0
102
RTVSPost2010PropOp34
 70
     1
102
RTVSPost2010Prop35
280
     0
102
RTVSPost2010PropOp35
 70
     1
102
RTVSPost2010Prop36
280
     0
102
RTVSPost2010PropOp36
 70
     1
102
RTVSPost2010Prop37
 90
       50
102
RTVSPost2010PropOp37
 70
     1
102
RTVSPost2010Prop38
140
0.0
102
RTVSPost2010PropOp38
 70
     1
102
RTVSPost2010Prop39
140
1.0
102
RTVSPost2010PropOp39
 70
     1
102
RTVSPost2010Prop40
 90
        0
102
RTVSPost2010PropOp40
 70
     1
102
RTVSPost2010Prop41ColorIndex
 90
       18
102
RTVSPost2010Prop41ColorRGB
 90
        0
102
RTVSPost2010PropOp41
 70
     1
102
RTVSPost2010Prop42
 90
       50
102
RTVSPost2010PropOp42
 70
     1
102
RTVSPost2010Prop43
 90
        3
102
RTVSPost2010PropOp43
 70
     1
102
RTVSPost2010Prop44ColorIndex
 90
        5
102
RTVSPost2010Prop44ColorRGB
 90
      255
102
RTVSPost2010PropOp44
 70
     1
102
RTVSPost2010Prop45
280
     0
102
RTVSPost2010PropOp45
 70
     1
102
RTVSPost2010Prop46
 90
       50
102
RTVSPost2010PropOp46
 70
     1
102
RTVSPost2010Prop47
 90
       50
102
RTVSPost2010PropOp47
 70
     1
102
RTVSPost2010Prop48
 90
       50
102
RTVSPost2010PropOp48
 70
     1
102
RTVSPost2010Prop49
280
     0
102
RTVSPost2010PropOp49
 70
     1
102
RTVSPost2010Prop50
 90
       50
102
RTVSPost2010PropOp50
 70
     1
102
RTVSPost2010Prop51ColorIndex
 90
      256
102
RTVSPost2010Prop51ColorRGB
 90
-16777216
102
RTVSPost2010PropOp51
 70
     0
102
RTVSPost2010Prop52
140
1.0
102
RTVSPost2010PropOp52
 70
     0
102
RTVSPost2010Prop53
 90
        2
102
RTVSPost2010PropOp53
 70
     1
102
RTVSPost2010Prop54
  1
strokes_ogs.tif
102
RTVSPost2010PropOp54
 70
     1
102
RTVSPost2010Prop55
280
     0
102
RTVSPost2010PropOp55
 70
     1
102
RTVSPost2010Prop56
140
1.0
102
RTVSPost2010PropOp56
 70
     1
102
RTVSPost2010Prop57
140
1.0
102
RTVSPost2010PropOp57
 70
     1
  0
XRECORD
  5
390
102
{ACAD_REACTORS
330
38F
102
}
330
38F
100
AcDbXrecord
280
     1
102
RTVSPropertyOp0
 70
     1
102
RTVSPropertyOp1
 70
     1
102
RTVSPropertyOp2
 70
     1
102
RTVSPropertyOp3
 70
     1
102
RTVSPropertyOp4
 70
     1
102
RTVSPropertyOp5
 70
     1
102
RTVSPropertyOp6
 70
     1
102
RTVSPropertyOp7
 70
     1
102
RTVSPropertyOp8
 70
     1
102
RTVSPropertyOp9
 70
     1
102
RTVSPropertyOp10
 70
     1
102
RTVSPropertyOp11
 70
     1
102
RTVSPropertyOp12
 70
     1
102
RTVSPropertyOp13
 70
     1
102
RTVSPropertyOp14
 70
     1
102
RTVSPropertyOp15
 70
     1
102
RTVSPropertyOp16
 70
     1
102
RTVSPropertyOp17
 70
     1
102
RTVSPropertyOp18
 70
     1
102
RTVSPropertyOp19
 70
     1
102
RTVSPropertyOp20
 70
     1
102
RTVSPropertyOp21
 70
     1
102
RTVSPropertyOp22
 70
     1
102
RTVSPropertyOp23
 70
     1
102
RTVSPropertyOp24
 70
     1
102
RTVSPropertyOp25
 70
     1
102
RTVSPropertyOp26
 70
     1
102
RTVSPropertyOp27
 70
     1
102
RTVSPropertyOp28
 70
     1
102
RTVSPropertyOp29
 70
     1
102
RTVSPropertyOp30
 70
     1
102
RTVSPropertyOp31
 70
     1
102
RTVSPropertyOp32
 70
     1
102
RTVSPropertyOp33
 70
     1
102
RTVSPropertyOp34
 70
     1
102
RTVSPropertyOp35
 70
     1
102
RTVSPropertyOp36
 70
     1
102
RTVSPropertyOp37
 70
     1
102
RTVSPropertyOp38
 70
     1
102
RTVSPropertyOp39
 70
     1
102
RTVSPropertyOp40
 70
     1
102
RTVSPropertyOp41
 70
     1
102
RTVSPropertyOp42
 70
     1
102
RTVSPropertyOp43
 70
     1
102
RTVSPropertyOp44
 70
     1
102
RTVSPropertyOp45
 70
     1
102
RTVSPropertyOp46
 70
     1
102
RTVSPropertyOp47
 70
     1
102
RTVSPropertyOp48
 70
     1
102
RTVSPropertyOp49
 70
     1
102
RTVSPropertyOp50
 70
     1
102
RTVSPropertyOp51
 70
     0
102
RTVSPropertyOp52
 70
     0
102
RTVSPropertyOp53
 70
     1
102
RTVSPropertyOp54
 70
     1
102
RTVSPropertyOp55
 70
     1
102
RTVSPropertyOp56
 70
     1
102
RTVSPropertyOp57
 70
     1
102
RTVSPost2010Prop28
280
     0
102
RTVSPost2010PropOp28
 70
     1
102
RTVSPost2010Prop29
280
     1
102
RTVSPost2010PropOp29
 70
     1
102
RTVSPost2010Prop30
280
     1
102
RTVSPost2010PropOp30
 70
     1
102
RTVSPost2010Prop31
280
     0
102
RTVSPost2010PropOp31
 70
     1
102
RTVSPost2010Prop32
280
     0
102
RTVSPost2010PropOp32
 70
     1
102
RTVSPost2010Prop33
280
     0
102
RTVSPost2010PropOp33
 70
     1
102
RTVSPost2010Prop34
280
     0
102
RTVSPost2010PropOp34
 70
     1
102
RTVSPost2010Prop35
280
     0
102
RTVSPost2010PropOp35
 70
     1
102
RTVSPost2010Prop36
280
     0
102
RTVSPost2010PropOp36
 70
     1
102
RTVSPost2010Prop37
 90
       50
102
RTVSPost2010PropOp37
 70
     1
102
RTVSPost2010Prop38
140
0.0
102
RTVSPost2010PropOp38
 70
     1
102
RTVSPost2010Prop39
140
1.0
102
RTVSPost2010PropOp39
 70
     1
102
RTVSPost2010Prop40
 90
        0
102
RTVSPost2010PropOp40
 70
     1
102
RTVSPost2010Prop41ColorIndex
 90
       18
102
RTVSPost2010Prop41ColorRGB
 90
        0
102
RTVSPost2010PropOp41
 70
     1
102
RTVSPost2010Prop42
 90
       50
102
RTVSPost2010PropOp42
 70
     1
102
RTVSPost2010Prop43
 90
        3
102
RTVSPost2010PropOp43
 70
     1
102
RTVSPost2010Prop44ColorIndex
 90
        5
102
RTVSPost2010Prop44ColorRGB
 90
      255
102
RTVSPost2010PropOp44
 70
     1
102
RTVSPost2010Prop45
280
     0
102
RTVSPost2010PropOp45
 70
     1
102
RTVSPost2010Prop46
 90
       50
102
RTVSPost2010PropOp46
 70
     1
102
RTVSPost2010Prop47
 90
       50
102
RTVSPost2010PropOp47
 70
     1
102
RTVSPost2010Prop48
 90
       50
102
RTVSPost2010PropOp48
 70
     1
102
RTVSPost2010Prop49
280
     0
102
RTVSPost2010PropOp49
 70
     1
102
RTVSPost2010Prop50
 90
       50
102
RTVSPost2010PropOp50
 70
     1
102
RTVSPost2010Prop51ColorIndex
 90
      256
102
RTVSPost2010Prop51ColorRGB
 90
-16777216
102
RTVSPost2010PropOp51
 70
     0
102
RTVSPost2010Prop52
140
1.0
102
RTVSPost2010PropOp52
 70
     0
102
RTVSPost2010Prop53
 90
        2
102
RTVSPost2010PropOp53
 70
     1
102
RTVSPost2010Prop54
  1
strokes_ogs.tif
102
RTVSPost2010PropOp54
 70
     1
102
RTVSPost2010Prop55
280
     0
102
RTVSPost2010PropOp55
 70
     1
102
RTVSPost2010Prop56
140
1.0
102
RTVSPost2010PropOp56
 70
     1
102
RTVSPost2010Prop57
140
1.0
102
RTVSPost2010PropOp57
 70
     1
  0
XRECORD
  5
392
102
{ACAD_REACTORS
330
391
102
}
330
391
100
AcDbXrecord
280
     1
102
RTVSPropertyOp0
 70
     1
102
RTVSPropertyOp1
 70
     1
102
RTVSPropertyOp2
 70
     1
102
RTVSPropertyOp3
 70
     1
102
RTVSPropertyOp4
 70
     1
102
RTVSPropertyOp5
 70
     1
102
RTVSPropertyOp6
 70
     1
102
RTVSPropertyOp7
 70
     1
102
RTVSPropertyOp8
 70
     1
102
RTVSPropertyOp9
 70
     1
102
RTVSPropertyOp10
 70
     1
102
RTVSPropertyOp11
 70
     1
102
RTVSPropertyOp12
 70
     1
102
RTVSPropertyOp13
 70
     1
102
RTVSPropertyOp14
 70
     1
102
RTVSPropertyOp15
 70
     1
102
RTVSPropertyOp16
 70
     1
102
RTVSPropertyOp17
 70
     1
102
RTVSPropertyOp18
 70
     1
102
RTVSPropertyOp19
 70
     1
102
RTVSPropertyOp20
 70
     1
102
RTVSPropertyOp21
 70
     1
102
RTVSPropertyOp22
 70
     1
102
RTVSPropertyOp23
 70
     1
102
RTVSPropertyOp24
 70
     1
102
RTVSPropertyOp25
 70
     1
102
RTVSPropertyOp26
 70
     1
102
RTVSPropertyOp27
 70
     1
102
RTVSPropertyOp28
 70
     1
102
RTVSPropertyOp29
 70
     1
102
RTVSPropertyOp30
 70
     1
102
RTVSPropertyOp31
 70
     1
102
RTVSPropertyOp32
 70
     1
102
RTVSPropertyOp33
 70
     1
102
RTVSPropertyOp34
 70
     1
102
RTVSPropertyOp35
 70
     1
102
RTVSPropertyOp36
 70
     1
102
RTVSPropertyOp37
 70
     1
102
RTVSPropertyOp38
 70
     1
102
RTVSPropertyOp39
 70
     1
102
RTVSPropertyOp40
 70
     1
102
RTVSPropertyOp41
 70
     1
102
RTVSPropertyOp42
 70
     1
102
RTVSPropertyOp43
 70
     1
102
RTVSPropertyOp44
 70
     1
102
RTVSPropertyOp45
 70
     1
102
RTVSPropertyOp46
 70
     1
102
RTVSPropertyOp47
 70
     1
102
RTVSPropertyOp48
 70
     1
102
RTVSPropertyOp49
 70
     1
102
RTVSPropertyOp50
 70
     1
102
RTVSPropertyOp51
 70
     0
102
RTVSPropertyOp52
 70
     0
102
RTVSPropertyOp53
 70
     1
102
RTVSPropertyOp54
 70
     1
102
RTVSPropertyOp55
 70
     1
102
RTVSPropertyOp56
 70
     1
102
RTVSPropertyOp57
 70
     1
102
RTVSPost2010Prop28
280
     0
102
RTVSPost2010PropOp28
 70
     1
102
RTVSPost2010Prop29
280
     1
102
RTVSPost2010PropOp29
 70
     1
102
RTVSPost2010Prop30
280
     1
102
RTVSPost2010PropOp30
 70
     1
102
RTVSPost2010Prop31
280
     0
102
RTVSPost2010PropOp31
 70
     1
102
RTVSPost2010Prop32
280
     0
102
RTVSPost2010PropOp32
 70
     1
102
RTVSPost2010Prop33
280
     0
102
RTVSPost2010PropOp33
 70
     1
102
RTVSPost2010Prop34
280
     0
102
RTVSPost2010PropOp34
 70
     1
102
RTVSPost2010Prop35
280
     0
102
RTVSPost2010PropOp35
 70
     1
102
RTVSPost2010Prop36
280
     0
102
RTVSPost2010PropOp36
 70
     1
102
RTVSPost2010Prop37
 90
       50
102
RTVSPost2010PropOp37
 70
     1
102
RTVSPost2010Prop38
140
0.0
102
RTVSPost2010PropOp38
 70
     1
102
RTVSPost2010Prop39
140
1.0
102
RTVSPost2010PropOp39
 70
     1
102
RTVSPost2010Prop40
 90
        0
102
RTVSPost2010PropOp40
 70
     1
102
RTVSPost2010Prop41ColorIndex
 90
       18
102
RTVSPost2010Prop41ColorRGB
 90
        0
102
RTVSPost2010PropOp41
 70
     1
102
RTVSPost2010Prop42
 90
       50
102
RTVSPost2010PropOp42
 70
     1
102
RTVSPost2010Prop43
 90
        3
102
RTVSPost2010PropOp43
 70
     1
102
RTVSPost2010Prop44ColorIndex
 90
        5
102
RTVSPost2010Prop44ColorRGB
 90
      255
102
RTVSPost2010PropOp44
 70
     1
102
RTVSPost2010Prop45
280
     0
102
RTVSPost2010PropOp45
 70
     1
102
RTVSPost2010Prop46
 90
       50
102
RTVSPost2010PropOp46
 70
     1
102
RTVSPost2010Prop47
 90
       50
102
RTVSPost2010PropOp47
 70
     1
102
RTVSPost2010Prop48
 90
       50
102
RTVSPost2010PropOp48
 70
     1
102
RTVSPost2010Prop49
280
     0
102
RTVSPost2010PropOp49
 70
     1
102
RTVSPost2010Prop50
 90
       50
102
RTVSPost2010PropOp50
 70
     1
102
RTVSPost2010Prop51ColorIndex
 90
      256
102
RTVSPost2010Prop51ColorRGB
 90
-16777216
102
RTVSPost2010PropOp51
 70
     0
102
RTVSPost2010Prop52
140
1.0
102
RTVSPost2010PropOp52
 70
     0
102
RTVSPost2010Prop53
 90
        2
102
RTVSPost2010PropOp53
 70
     1
102
RTVSPost2010Prop54
  1
strokes_ogs.tif
102
RTVSPost2010PropOp54
 70
     1
102
RTVSPost2010Prop55
280
     0
102
RTVSPost2010PropOp55
 70
     1
102
RTVSPost2010Prop56
140
1.0
102
RTVSPost2010PropOp56
 70
     1
102
RTVSPost2010Prop57
140
1.0
102
RTVSPost2010PropOp57
 70
     1
  0
XRECORD
  5
394
102
{ACAD_REACTORS
330
393
102
}
330
393
100
AcDbXrecord
280
     1
102
RTVSPropertyOp0
 70
     1
102
RTVSPropertyOp1
 70
     1
102
RTVSPropertyOp2
 70
     1
102
RTVSPropertyOp3
 70
     1
102
RTVSPropertyOp4
 70
     1
102
RTVSPropertyOp5
 70
     1
102
RTVSPropertyOp6
 70
     1
102
RTVSPropertyOp7
 70
     1
102
RTVSPropertyOp8
 70
     1
102
RTVSPropertyOp9
 70
     1
102
RTVSPropertyOp10
 70
     1
102
RTVSPropertyOp11
 70
     1
102
RTVSPropertyOp12
 70
     1
102
RTVSPropertyOp13
 70
     1
102
RTVSPropertyOp14
 70
     1
102
RTVSPropertyOp15
 70
     1
102
RTVSPropertyOp16
 70
     1
102
RTVSPropertyOp17
 70
     1
102
RTVSPropertyOp18
 70
     1
102
RTVSPropertyOp19
 70
     1
102
RTVSPropertyOp20
 70
     1
102
RTVSPropertyOp21
 70
     1
102
RTVSPropertyOp22
 70
     1
102
RTVSPropertyOp23
 70
     1
102
RTVSPropertyOp24
 70
     1
102
RTVSPropertyOp25
 70
     1
102
RTVSPropertyOp26
 70
     1
102
RTVSPropertyOp27
 70
     1
102
RTVSPropertyOp28
 70
     1
102
RTVSPropertyOp29
 70
     1
102
RTVSPropertyOp30
 70
     1
102
RTVSPropertyOp31
 70
     1
102
RTVSPropertyOp32
 70
     1
102
RTVSPropertyOp33
 70
     1
102
RTVSPropertyOp34
 70
     1
102
RTVSPropertyOp35
 70
     1
102
RTVSPropertyOp36
 70
     1
102
RTVSPropertyOp37
 70
     1
102
RTVSPropertyOp38
 70
     1
102
RTVSPropertyOp39
 70
     1
102
RTVSPropertyOp40
 70
     1
102
RTVSPropertyOp41
 70
     1
102
RTVSPropertyOp42
 70
     1
102
RTVSPropertyOp43
 70
     1
102
RTVSPropertyOp44
 70
     1
102
RTVSPropertyOp45
 70
     1
102
RTVSPropertyOp46
 70
     1
102
RTVSPropertyOp47
 70
     1
102
RTVSPropertyOp48
 70
     1
102
RTVSPropertyOp49
 70
     1
102
RTVSPropertyOp50
 70
     1
102
RTVSPropertyOp51
 70
     0
102
RTVSPropertyOp52
 70
     0
102
RTVSPropertyOp53
 70
     1
102
RTVSPropertyOp54
 70
     1
102
RTVSPropertyOp55
 70
     1
102
RTVSPropertyOp56
 70
     1
102
RTVSPropertyOp57
 70
     1
102
RTVSPost2010Prop28
280
     0
102
RTVSPost2010PropOp28
 70
     1
102
RTVSPost2010Prop29
280
     1
102
RTVSPost2010PropOp29
 70
     1
102
RTVSPost2010Prop30
280
     1
102
RTVSPost2010PropOp30
 70
     1
102
RTVSPost2010Prop31
280
     0
102
RTVSPost2010PropOp31
 70
     1
102
RTVSPost2010Prop32
280
     0
102
RTVSPost2010PropOp32
 70
     1
102
RTVSPost2010Prop33
280
     0
102
RTVSPost2010PropOp33
 70
     1
102
RTVSPost2010Prop34
280
     0
102
RTVSPost2010PropOp34
 70
     1
102
RTVSPost2010Prop35
280
     0
102
RTVSPost2010PropOp35
 70
     1
102
RTVSPost2010Prop36
280
     0
102
RTVSPost2010PropOp36
 70
     1
102
RTVSPost2010Prop37
 90
       50
102
RTVSPost2010PropOp37
 70
     1
102
RTVSPost2010Prop38
140
0.0
102
RTVSPost2010PropOp38
 70
     1
102
RTVSPost2010Prop39
140
1.0
102
RTVSPost2010PropOp39
 70
     1
102
RTVSPost2010Prop40
 90
        0
102
RTVSPost2010PropOp40
 70
     1
102
RTVSPost2010Prop41ColorIndex
 90
       18
102
RTVSPost2010Prop41ColorRGB
 90
        0
102
RTVSPost2010PropOp41
 70
     1
102
RTVSPost2010Prop42
 90
       50
102
RTVSPost2010PropOp42
 70
     1
102
RTVSPost2010Prop43
 90
        3
102
RTVSPost2010PropOp43
 70
     1
102
RTVSPost2010Prop44ColorIndex
 90
        5
102
RTVSPost2010Prop44ColorRGB
 90
      255
102
RTVSPost2010PropOp44
 70
     1
102
RTVSPost2010Prop45
280
     0
102
RTVSPost2010PropOp45
 70
     1
102
RTVSPost2010Prop46
 90
       50
102
RTVSPost2010PropOp46
 70
     1
102
RTVSPost2010Prop47
 90
       50
102
RTVSPost2010PropOp47
 70
     1
102
RTVSPost2010Prop48
 90
       50
102
RTVSPost2010PropOp48
 70
     1
102
RTVSPost2010Prop49
280
     0
102
RTVSPost2010PropOp49
 70
     1
102
RTVSPost2010Prop50
 90
       50
102
RTVSPost2010PropOp50
 70
     1
102
RTVSPost2010Prop51ColorIndex
 90
      256
102
RTVSPost2010Prop51ColorRGB
 90
-16777216
102
RTVSPost2010PropOp51
 70
     0
102
RTVSPost2010Prop52
140
1.0
102
RTVSPost2010PropOp52
 70
     0
102
RTVSPost2010Prop53
 90
        2
102
RTVSPost2010PropOp53
 70
     1
102
RTVSPost2010Prop54
  1
strokes_ogs.tif
102
RTVSPost2010PropOp54
 70
     1
102
RTVSPost2010Prop55
280
     0
102
RTVSPost2010PropOp55
 70
     1
102
RTVSPost2010Prop56
140
1.0
102
RTVSPost2010PropOp56
 70
     1
102
RTVSPost2010Prop57
140
1.0
102
RTVSPost2010PropOp57
 70
     1
  0
XRECORD
  5
396
102
{ACAD_REACTORS
330
395
102
}
330
395
100
AcDbXrecord
280
     1
102
RTVSPropertyOp0
 70
     1
102
RTVSPropertyOp1
 70
     1
102
RTVSPropertyOp2
 70
     1
102
RTVSPropertyOp3
 70
     1
102
RTVSPropertyOp4
 70
     1
102
RTVSPropertyOp5
 70
     1
102
RTVSPropertyOp6
 70
     1
102
RTVSPropertyOp7
 70
     1
102
RTVSPropertyOp8
 70
     1
102
RTVSPropertyOp9
 70
     1
102
RTVSPropertyOp10
 70
     1
102
RTVSPropertyOp11
 70
     1
102
RTVSPropertyOp12
 70
     1
102
RTVSPropertyOp13
 70
     1
102
RTVSPropertyOp14
 70
     1
102
RTVSPropertyOp15
 70
     1
102
RTVSPropertyOp16
 70
     1
102
RTVSPropertyOp17
 70
     1
102
RTVSPropertyOp18
 70
     1
102
RTVSPropertyOp19
 70
     1
102
RTVSPropertyOp20
 70
     1
102
RTVSPropertyOp21
 70
     1
102
RTVSPropertyOp22
 70
     1
102
RTVSPropertyOp23
 70
     1
102
RTVSPropertyOp24
 70
     1
102
RTVSPropertyOp25
 70
     1
102
RTVSPropertyOp26
 70
     1
102
RTVSPropertyOp27
 70
     1
102
RTVSPropertyOp28
 70
     1
102
RTVSPropertyOp29
 70
     1
102
RTVSPropertyOp30
 70
     1
102
RTVSPropertyOp31
 70
     1
102
RTVSPropertyOp32
 70
     1
102
RTVSPropertyOp33
 70
     1
102
RTVSPropertyOp34
 70
     1
102
RTVSPropertyOp35
 70
     1
102
RTVSPropertyOp36
 70
     1
102
RTVSPropertyOp37
 70
     1
102
RTVSPropertyOp38
 70
     1
102
RTVSPropertyOp39
 70
     1
102
RTVSPropertyOp40
 70
     1
102
RTVSPropertyOp41
 70
     1
102
RTVSPropertyOp42
 70
     1
102
RTVSPropertyOp43
 70
     1
102
RTVSPropertyOp44
 70
     1
102
RTVSPropertyOp45
 70
     1
102
RTVSPropertyOp46
 70
     1
102
RTVSPropertyOp47
 70
     1
102
RTVSPropertyOp48
 70
     1
102
RTVSPropertyOp49
 70
     1
102
RTVSPropertyOp50
 70
     1
102
RTVSPropertyOp51
 70
     0
102
RTVSPropertyOp52
 70
     0
102
RTVSPropertyOp53
 70
     1
102
RTVSPropertyOp54
 70
     1
102
RTVSPropertyOp55
 70
     1
102
RTVSPropertyOp56
 70
     1
102
RTVSPropertyOp57
 70
     1
102
RTVSPost2010Prop28
280
     0
102
RTVSPost2010PropOp28
 70
     1
102
RTVSPost2010Prop29
280
     1
102
RTVSPost2010PropOp29
 70
     1
102
RTVSPost2010Prop30
280
     1
102
RTVSPost2010PropOp30
 70
     1
102
RTVSPost2010Prop31
280
     0
102
RTVSPost2010PropOp31
 70
     1
102
RTVSPost2010Prop32
280
     0
102
RTVSPost2010PropOp32
 70
     1
102
RTVSPost2010Prop33
280
     0
102
RTVSPost2010PropOp33
 70
     1
102
RTVSPost2010Prop34
280
     0
102
RTVSPost2010PropOp34
 70
     1
102
RTVSPost2010Prop35
280
     0
102
RTVSPost2010PropOp35
 70
     1
102
RTVSPost2010Prop36
280
     0
102
RTVSPost2010PropOp36
 70
     1
102
RTVSPost2010Prop37
 90
       50
102
RTVSPost2010PropOp37
 70
     1
102
RTVSPost2010Prop38
140
0.0
102
RTVSPost2010PropOp38
 70
     1
102
RTVSPost2010Prop39
140
1.0
102
RTVSPost2010PropOp39
 70
     1
102
RTVSPost2010Prop40
 90
        0
102
RTVSPost2010PropOp40
 70
     1
102
RTVSPost2010Prop41ColorIndex
 90
       18
102
RTVSPost2010Prop41ColorRGB
 90
        0
102
RTVSPost2010PropOp41
 70
     1
102
RTVSPost2010Prop42
 90
       50
102
RTVSPost2010PropOp42
 70
     1
102
RTVSPost2010Prop43
 90
        3
102
RTVSPost2010PropOp43
 70
     1
102
RTVSPost2010Prop44ColorIndex
 90
        5
102
RTVSPost2010Prop44ColorRGB
 90
      255
102
RTVSPost2010PropOp44
 70
     1
102
RTVSPost2010Prop45
280
     0
102
RTVSPost2010PropOp45
 70
     1
102
RTVSPost2010Prop46
 90
       50
102
RTVSPost2010PropOp46
 70
     1
102
RTVSPost2010Prop47
 90
       50
102
RTVSPost2010PropOp47
 70
     1
102
RTVSPost2010Prop48
 90
       50
102
RTVSPost2010PropOp48
 70
     1
102
RTVSPost2010Prop49
280
     0
102
RTVSPost2010PropOp49
 70
     1
102
RTVSPost2010Prop50
 90
       50
102
RTVSPost2010PropOp50
 70
     1
102
RTVSPost2010Prop51ColorIndex
 90
      256
102
RTVSPost2010Prop51ColorRGB
 90
-16777216
102
RTVSPost2010PropOp51
 70
     0
102
RTVSPost2010Prop52
140
1.0
102
RTVSPost2010PropOp52
 70
     0
102
RTVSPost2010Prop53
 90
        2
102
RTVSPost2010PropOp53
 70
     1
102
RTVSPost2010Prop54
  1
strokes_ogs.tif
102
RTVSPost2010PropOp54
 70
     1
102
RTVSPost2010Prop55
280
     0
102
RTVSPost2010PropOp55
 70
     1
102
RTVSPost2010Prop56
140
1.0
102
RTVSPost2010PropOp56
 70
     1
102
RTVSPost2010Prop57
140
1.0
102
RTVSPost2010PropOp57
 70
     1
  0
XRECORD
  5
39C
102
{ACAD_REACTORS
330
39B
102
}
330
39B
100
AcDbXrecord
280
     1
102
RTVSPropertyOp0
 70
     1
102
RTVSPropertyOp1
 70
     1
102
RTVSPropertyOp2
 70
     1
102
RTVSPropertyOp3
 70
     1
102
RTVSPropertyOp4
 70
     1
102
RTVSPropertyOp5
 70
     1
102
RTVSPropertyOp6
 70
     1
102
RTVSPropertyOp7
 70
     1
102
RTVSPropertyOp8
 70
     1
102
RTVSPropertyOp9
 70
     1
102
RTVSPropertyOp10
 70
     1
102
RTVSPropertyOp11
 70
     1
102
RTVSPropertyOp12
 70
     1
102
RTVSPropertyOp13
 70
     1
102
RTVSPropertyOp14
 70
     1
102
RTVSPropertyOp15
 70
     1
102
RTVSPropertyOp16
 70
     1
102
RTVSPropertyOp17
 70
     1
102
RTVSPropertyOp18
 70
     1
102
RTVSPropertyOp19
 70
     1
102
RTVSPropertyOp20
 70
     1
102
RTVSPropertyOp21
 70
     1
102
RTVSPropertyOp22
 70
     1
102
RTVSPropertyOp23
 70
     1
102
RTVSPropertyOp24
 70
     1
102
RTVSPropertyOp25
 70
     1
102
RTVSPropertyOp26
 70
     1
102
RTVSPropertyOp27
 70
     1
102
RTVSPropertyOp28
 70
     1
102
RTVSPropertyOp29
 70
     1
102
RTVSPropertyOp30
 70
     1
102
RTVSPropertyOp31
 70
     1
102
RTVSPropertyOp32
 70
     1
102
RTVSPropertyOp33
 70
     1
102
RTVSPropertyOp34
 70
     1
102
RTVSPropertyOp35
 70
     1
102
RTVSPropertyOp36
 70
     1
102
RTVSPropertyOp37
 70
     1
102
RTVSPropertyOp38
 70
     1
102
RTVSPropertyOp39
 70
     1
102
RTVSPropertyOp40
 70
     1
102
RTVSPropertyOp41
 70
     1
102
RTVSPropertyOp42
 70
     1
102
RTVSPropertyOp43
 70
     1
102
RTVSPropertyOp44
 70
     1
102
RTVSPropertyOp45
 70
     1
102
RTVSPropertyOp46
 70
     1
102
RTVSPropertyOp47
 70
     1
102
RTVSPropertyOp48
 70
     1
102
RTVSPropertyOp49
 70
     1
102
RTVSPropertyOp50
 70
     1
102
RTVSPropertyOp51
 70
     0
102
RTVSPropertyOp52
 70
     0
102
RTVSPropertyOp53
 70
     1
102
RTVSPropertyOp54
 70
     1
102
RTVSPropertyOp55
 70
     1
102
RTVSPropertyOp56
 70
     1
102
RTVSPropertyOp57
 70
     1
102
RTVSPost2010Prop28
280
     0
102
RTVSPost2010PropOp28
 70
     1
102
RTVSPost2010Prop29
280
     1
102
RTVSPost2010PropOp29
 70
     1
102
RTVSPost2010Prop30
280
     1
102
RTVSPost2010PropOp30
 70
     1
102
RTVSPost2010Prop31
280
     0
102
RTVSPost2010PropOp31
 70
     1
102
RTVSPost2010Prop32
280
     0
102
RTVSPost2010PropOp32
 70
     1
102
RTVSPost2010Prop33
280
     0
102
RTVSPost2010PropOp33
 70
     1
102
RTVSPost2010Prop34
280
     0
102
RTVSPost2010PropOp34
 70
     1
102
RTVSPost2010Prop35
280
     0
102
RTVSPost2010PropOp35
 70
     1
102
RTVSPost2010Prop36
280
     0
102
RTVSPost2010PropOp36
 70
     1
102
RTVSPost2010Prop37
 90
       50
102
RTVSPost2010PropOp37
 70
     1
102
RTVSPost2010Prop38
140
0.0
102
RTVSPost2010PropOp38
 70
     1
102
RTVSPost2010Prop39
140
1.0
102
RTVSPost2010PropOp39
 70
     1
102
RTVSPost2010Prop40
 90
        0
102
RTVSPost2010PropOp40
 70
     1
102
RTVSPost2010Prop41ColorIndex
 90
       18
102
RTVSPost2010Prop41ColorRGB
 90
        0
102
RTVSPost2010PropOp41
 70
     1
102
RTVSPost2010Prop42
 90
       50
102
RTVSPost2010PropOp42
 70
     1
102
RTVSPost2010Prop43
 90
        3
102
RTVSPost2010PropOp43
 70
     1
102
RTVSPost2010Prop44ColorIndex
 90
        5
102
RTVSPost2010Prop44ColorRGB
 90
      255
102
RTVSPost2010PropOp44
 70
     1
102
RTVSPost2010Prop45
280
     0
102
RTVSPost2010PropOp45
 70
     1
102
RTVSPost2010Prop46
 90
       50
102
RTVSPost2010PropOp46
 70
     1
102
RTVSPost2010Prop47
 90
       50
102
RTVSPost2010PropOp47
 70
     1
102
RTVSPost2010Prop48
 90
       50
102
RTVSPost2010PropOp48
 70
     1
102
RTVSPost2010Prop49
280
     0
102
RTVSPost2010PropOp49
 70
     1
102
RTVSPost2010Prop50
 90
       50
102
RTVSPost2010PropOp50
 70
     1
102
RTVSPost2010Prop51ColorIndex
 90
      256
102
RTVSPost2010Prop51ColorRGB
 90
-16777216
102
RTVSPost2010PropOp51
 70
     0
102
RTVSPost2010Prop52
140
1.0
102
RTVSPost2010PropOp52
 70
     0
102
RTVSPost2010Prop53
 90
        2
102
RTVSPost2010PropOp53
 70
     1
102
RTVSPost2010Prop54
  1
strokes_ogs.tif
102
RTVSPost2010PropOp54
 70
     1
102
RTVSPost2010Prop55
280
     0
102
RTVSPost2010PropOp55
 70
     1
102
RTVSPost2010Prop56
140
1.0
102
RTVSPost2010PropOp56
 70
     1
102
RTVSPost2010Prop57
140
1.0
102
RTVSPost2010PropOp57
 70
     1
  0
XRECORD
  5
3B0
102
{ACAD_REACTORS
330
3AF
102
}
330
3AF
100
AcDbXrecord
280
     1
102
RTVSPropertyOp0
 70
     0
102
RTVSPropertyOp1
 70
     0
102
RTVSPropertyOp2
 70
     0
102
RTVSPropertyOp3
 70
     0
102
RTVSPropertyOp4
 70
     0
102
RTVSPropertyOp5
 70
     0
102
RTVSPropertyOp6
 70
     0
102
RTVSPropertyOp7
 70
     0
102
RTVSPropertyOp8
 70
     0
102
RTVSPropertyOp9
 70
     0
102
RTVSPropertyOp10
 70
     0
102
RTVSPropertyOp11
 70
     0
102
RTVSPropertyOp12
 70
     0
102
RTVSPropertyOp13
 70
     0
102
RTVSPropertyOp14
 70
     2
102
RTVSPropertyOp15
 70
     0
102
RTVSPropertyOp16
 70
     0
102
RTVSPropertyOp17
 70
     0
102
RTVSPropertyOp18
 70
     0
102
RTVSPropertyOp19
 70
     0
102
RTVSPropertyOp20
 70
     0
102
RTVSPropertyOp21
 70
     0
102
RTVSPropertyOp22
 70
     0
102
RTVSPropertyOp23
 70
     0
102
RTVSPropertyOp24
 70
     0
102
RTVSPropertyOp25
 70
     0
102
RTVSPropertyOp26
 70
     0
102
RTVSPropertyOp27
 70
     0
102
RTVSPropertyOp28
 70
     0
102
RTVSPropertyOp29
 70
     0
102
RTVSPropertyOp30
 70
     0
102
RTVSPropertyOp31
 70
     0
102
RTVSPropertyOp32
 70
     0
102
RTVSPropertyOp33
 70
     0
102
RTVSPropertyOp34
 70
     0
102
RTVSPropertyOp35
 70
     0
102
RTVSPropertyOp36
 70
     0
102
RTVSPropertyOp37
 70
     0
102
RTVSPropertyOp38
 70
     0
102
RTVSPropertyOp39
 70
     0
102
RTVSPropertyOp40
 70
     0
102
RTVSPropertyOp41
 70
     0
102
RTVSPropertyOp42
 70
     0
102
RTVSPropertyOp43
 70
     0
102
RTVSPropertyOp44
 70
     0
102
RTVSPropertyOp45
 70
     0
102
RTVSPropertyOp46
 70
     0
102
RTVSPropertyOp47
 70
     0
102
RTVSPropertyOp48
 70
     0
102
RTVSPropertyOp49
 70
     0
102
RTVSPropertyOp50
 70
     0
102
RTVSPropertyOp51
 70
     0
102
RTVSPropertyOp52
 70
     0
102
RTVSPropertyOp53
 70
     0
102
RTVSPropertyOp54
 70
     0
102
RTVSPropertyOp55
 70
     0
102
RTVSPropertyOp56
 70
     0
102
RTVSPropertyOp57
 70
     0
102
RTVSPost2010Prop28
280
     0
102
RTVSPost2010PropOp28
 70
     0
102
RTVSPost2010Prop29
280
     1
102
RTVSPost2010PropOp29
 70
     0
102
RTVSPost2010Prop30
280
     1
102
RTVSPost2010PropOp30
 70
     0
102
RTVSPost2010Prop31
280
     0
102
RTVSPost2010PropOp31
 70
     0
102
RTVSPost2010Prop32
280
     0
102
RTVSPost2010PropOp32
 70
     0
102
RTVSPost2010Prop33
280
     0
102
RTVSPost2010PropOp33
 70
     0
102
RTVSPost2010Prop34
280
     0
102
RTVSPost2010PropOp34
 70
     0
102
RTVSPost2010Prop35
280
     0
102
RTVSPost2010PropOp35
 70
     0
102
RTVSPost2010Prop36
280
     0
102
RTVSPost2010PropOp36
 70
     0
102
RTVSPost2010Prop37
 90
       50
102
RTVSPost2010PropOp37
 70
     0
102
RTVSPost2010Prop38
140
0.0
102
RTVSPost2010PropOp38
 70
     0
102
RTVSPost2010Prop39
140
1.0
102
RTVSPost2010PropOp39
 70
     0
102
RTVSPost2010Prop40
 90
        0
102
RTVSPost2010PropOp40
 70
     0
102
RTVSPost2010Prop41ColorIndex
 90
       18
102
RTVSPost2010Prop41ColorRGB
 90
        0
102
RTVSPost2010PropOp41
 70
     0
102
RTVSPost2010Prop42
 90
       50
102
RTVSPost2010PropOp42
 70
     0
102
RTVSPost2010Prop43
 90
        3
102
RTVSPost2010PropOp43
 70
     0
102
RTVSPost2010Prop44ColorIndex
 90
        5
102
RTVSPost2010Prop44ColorRGB
 90
      255
102
RTVSPost2010PropOp44
 70
     0
102
RTVSPost2010Prop45
280
     0
102
RTVSPost2010PropOp45
 70
     0
102
RTVSPost2010Prop46
 90
       50
102
RTVSPost2010PropOp46
 70
     0
102
RTVSPost2010Prop47
 90
       50
102
RTVSPost2010PropOp47
 70
     0
102
RTVSPost2010Prop48
 90
       50
102
RTVSPost2010PropOp48
 70
     0
102
RTVSPost2010Prop49
280
     0
102
RTVSPost2010PropOp49
 70
     0
102
RTVSPost2010Prop50
 90
       50
102
RTVSPost2010PropOp50
 70
     0
102
RTVSPost2010Prop51ColorIndex
 90
      256
102
RTVSPost2010Prop51ColorRGB
 90
-16777216
102
RTVSPost2010PropOp51
 70
     0
102
RTVSPost2010Prop52
140
1.0
102
RTVSPost2010PropOp52
 70
     0
102
RTVSPost2010Prop53
 90
        2
102
RTVSPost2010PropOp53
 70
     0
102
RTVSPost2010Prop54
  1
strokes_ogs.tif
102
RTVSPost2010PropOp54
 70
     0
102
RTVSPost2010Prop55
280
     0
102
RTVSPost2010PropOp55
 70
     0
102
RTVSPost2010Prop56
140
1.0
102
RTVSPost2010PropOp56
 70
     0
102
RTVSPost2010Prop57
140
1.0
102
RTVSPost2010PropOp57
 70
     0
  0
XRECORD
  5
3AA
102
{ACAD_REACTORS
330
3A9
102
}
330
3A9
100
AcDbXrecord
280
     1
102
RTVSPropertyOp0
 70
     1
102
RTVSPropertyOp1
 70
     1
102
RTVSPropertyOp2
 70
     1
102
RTVSPropertyOp3
 70
     1
102
RTVSPropertyOp4
 70
     1
102
RTVSPropertyOp5
 70
     1
102
RTVSPropertyOp6
 70
     1
102
RTVSPropertyOp7
 70
     1
102
RTVSPropertyOp8
 70
     1
102
RTVSPropertyOp9
 70
     1
102
RTVSPropertyOp10
 70
     1
102
RTVSPropertyOp11
 70
     1
102
RTVSPropertyOp12
 70
     1
102
RTVSPropertyOp13
 70
     1
102
RTVSPropertyOp14
 70
     1
102
RTVSPropertyOp15
 70
     1
102
RTVSPropertyOp16
 70
     1
102
RTVSPropertyOp17
 70
     1
102
RTVSPropertyOp18
 70
     1
102
RTVSPropertyOp19
 70
     1
102
RTVSPropertyOp20
 70
     1
102
RTVSPropertyOp21
 70
     1
102
RTVSPropertyOp22
 70
     1
102
RTVSPropertyOp23
 70
     1
102
RTVSPropertyOp24
 70
     1
102
RTVSPropertyOp25
 70
     1
102
RTVSPropertyOp26
 70
     1
102
RTVSPropertyOp27
 70
     1
102
RTVSPropertyOp28
 70
     1
102
RTVSPropertyOp29
 70
     1
102
RTVSPropertyOp30
 70
     1
102
RTVSPropertyOp31
 70
     1
102
RTVSPropertyOp32
 70
     1
102
RTVSPropertyOp33
 70
     1
102
RTVSPropertyOp34
 70
     1
102
RTVSPropertyOp35
 70
     1
102
RTVSPropertyOp36
 70
     1
102
RTVSPropertyOp37
 70
     1
102
RTVSPropertyOp38
 70
     1
102
RTVSPropertyOp39
 70
     1
102
RTVSPropertyOp40
 70
     1
102
RTVSPropertyOp41
 70
     1
102
RTVSPropertyOp42
 70
     1
102
RTVSPropertyOp43
 70
     1
102
RTVSPropertyOp44
 70
     1
102
RTVSPropertyOp45
 70
     1
102
RTVSPropertyOp46
 70
     1
102
RTVSPropertyOp47
 70
     1
102
RTVSPropertyOp48
 70
     1
102
RTVSPropertyOp49
 70
     1
102
RTVSPropertyOp50
 70
     1
102
RTVSPropertyOp51
 70
     0
102
RTVSPropertyOp52
 70
     0
102
RTVSPropertyOp53
 70
     1
102
RTVSPropertyOp54
 70
     1
102
RTVSPropertyOp55
 70
     1
102
RTVSPropertyOp56
 70
     1
102
RTVSPropertyOp57
 70
     1
102
RTVSPost2010Prop28
280
     0
102
RTVSPost2010PropOp28
 70
     1
102
RTVSPost2010Prop29
280
     1
102
RTVSPost2010PropOp29
 70
     1
102
RTVSPost2010Prop30
280
     1
102
RTVSPost2010PropOp30
 70
     1
102
RTVSPost2010Prop31
280
     0
102
RTVSPost2010PropOp31
 70
     1
102
RTVSPost2010Prop32
280
     0
102
RTVSPost2010PropOp32
 70
     1
102
RTVSPost2010Prop33
280
     0
102
RTVSPost2010PropOp33
 70
     1
102
RTVSPost2010Prop34
280
     0
102
RTVSPost2010PropOp34
 70
     1
102
RTVSPost2010Prop35
280
     0
102
RTVSPost2010PropOp35
 70
     1
102
RTVSPost2010Prop36
280
     0
102
RTVSPost2010PropOp36
 70
     1
102
RTVSPost2010Prop37
 90
       50
102
RTVSPost2010PropOp37
 70
     1
102
RTVSPost2010Prop38
140
0.0
102
RTVSPost2010PropOp38
 70
     1
102
RTVSPost2010Prop39
140
1.0
102
RTVSPost2010PropOp39
 70
     1
102
RTVSPost2010Prop40
 90
        0
102
RTVSPost2010PropOp40
 70
     1
102
RTVSPost2010Prop41ColorIndex
 90
       18
102
RTVSPost2010Prop41ColorRGB
 90
        0
102
RTVSPost2010PropOp41
 70
     1
102
RTVSPost2010Prop42
 90
       50
102
RTVSPost2010PropOp42
 70
     1
102
RTVSPost2010Prop43
 90
        3
102
RTVSPost2010PropOp43
 70
     1
102
RTVSPost2010Prop44ColorIndex
 90
        5
102
RTVSPost2010Prop44ColorRGB
 90
      255
102
RTVSPost2010PropOp44
 70
     1
102
RTVSPost2010Prop45
280
     0
102
RTVSPost2010PropOp45
 70
     1
102
RTVSPost2010Prop46
 90
       50
102
RTVSPost2010PropOp46
 70
     1
102
RTVSPost2010Prop47
 90
       50
102
RTVSPost2010PropOp47
 70
     1
102
RTVSPost2010Prop48
 90
       50
102
RTVSPost2010PropOp48
 70
     1
102
RTVSPost2010Prop49
280
     0
102
RTVSPost2010PropOp49
 70
     1
102
RTVSPost2010Prop50
 90
       50
102
RTVSPost2010PropOp50
 70
     1
102
RTVSPost2010Prop51ColorIndex
 90
      256
102
RTVSPost2010Prop51ColorRGB
 90
-16777216
102
RTVSPost2010PropOp51
 70
     0
102
RTVSPost2010Prop52
140
1.0
102
RTVSPost2010PropOp52
 70
     0
102
RTVSPost2010Prop53
 90
        2
102
RTVSPost2010PropOp53
 70
     1
102
RTVSPost2010Prop54
  1
strokes_ogs.tif
102
RTVSPost2010PropOp54
 70
     1
102
RTVSPost2010Prop55
280
     0
102
RTVSPost2010PropOp55
 70
     1
102
RTVSPost2010Prop56
140
1.0
102
RTVSPost2010PropOp56
 70
     1
102
RTVSPost2010Prop57
140
1.0
102
RTVSPost2010PropOp57
 70
     1
  0
XRECORD
  5
3B2
102
{ACAD_REACTORS
330
3B1
102
}
330
3B1
100
AcDbXrecord
280
     1
102
RTVSPropertyOp0
 70
     0
102
RTVSPropertyOp1
 70
     0
102
RTVSPropertyOp2
 70
     0
102
RTVSPropertyOp3
 70
     0
102
RTVSPropertyOp4
 70
     0
102
RTVSPropertyOp5
 70
     0
102
RTVSPropertyOp6
 70
     0
102
RTVSPropertyOp7
 70
     0
102
RTVSPropertyOp8
 70
     0
102
RTVSPropertyOp9
 70
     0
102
RTVSPropertyOp10
 70
     0
102
RTVSPropertyOp11
 70
     0
102
RTVSPropertyOp12
 70
     0
102
RTVSPropertyOp13
 70
     0
102
RTVSPropertyOp14
 70
     2
102
RTVSPropertyOp15
 70
     0
102
RTVSPropertyOp16
 70
     0
102
RTVSPropertyOp17
 70
     0
102
RTVSPropertyOp18
 70
     0
102
RTVSPropertyOp19
 70
     0
102
RTVSPropertyOp20
 70
     0
102
RTVSPropertyOp21
 70
     0
102
RTVSPropertyOp22
 70
     0
102
RTVSPropertyOp23
 70
     0
102
RTVSPropertyOp24
 70
     0
102
RTVSPropertyOp25
 70
     0
102
RTVSPropertyOp26
 70
     0
102
RTVSPropertyOp27
 70
     0
102
RTVSPropertyOp28
 70
     0
102
RTVSPropertyOp29
 70
     0
102
RTVSPropertyOp30
 70
     0
102
RTVSPropertyOp31
 70
     0
102
RTVSPropertyOp32
 70
     0
102
RTVSPropertyOp33
 70
     0
102
RTVSPropertyOp34
 70
     0
102
RTVSPropertyOp35
 70
     0
102
RTVSPropertyOp36
 70
     0
102
RTVSPropertyOp37
 70
     0
102
RTVSPropertyOp38
 70
     0
102
RTVSPropertyOp39
 70
     0
102
RTVSPropertyOp40
 70
     0
102
RTVSPropertyOp41
 70
     0
102
RTVSPropertyOp42
 70
     0
102
RTVSPropertyOp43
 70
     0
102
RTVSPropertyOp44
 70
     0
102
RTVSPropertyOp45
 70
     0
102
RTVSPropertyOp46
 70
     0
102
RTVSPropertyOp47
 70
     0
102
RTVSPropertyOp48
 70
     0
102
RTVSPropertyOp49
 70
     0
102
RTVSPropertyOp50
 70
     0
102
RTVSPropertyOp51
 70
     0
102
RTVSPropertyOp52
 70
     0
102
RTVSPropertyOp53
 70
     0
102
RTVSPropertyOp54
 70
     0
102
RTVSPropertyOp55
 70
     0
102
RTVSPropertyOp56
 70
     0
102
RTVSPropertyOp57
 70
     0
102
RTVSPost2010Prop28
280
     0
102
RTVSPost2010PropOp28
 70
     0
102
RTVSPost2010Prop29
280
     1
102
RTVSPost2010PropOp29
 70
     0
102
RTVSPost2010Prop30
280
     1
102
RTVSPost2010PropOp30
 70
     0
102
RTVSPost2010Prop31
280
     0
102
RTVSPost2010PropOp31
 70
     0
102
RTVSPost2010Prop32
280
     0
102
RTVSPost2010PropOp32
 70
     0
102
RTVSPost2010Prop33
280
     0
102
RTVSPost2010PropOp33
 70
     0
102
RTVSPost2010Prop34
280
     0
102
RTVSPost2010PropOp34
 70
     0
102
RTVSPost2010Prop35
280
     0
102
RTVSPost2010PropOp35
 70
     0
102
RTVSPost2010Prop36
280
     0
102
RTVSPost2010PropOp36
 70
     0
102
RTVSPost2010Prop37
 90
       50
102
RTVSPost2010PropOp37
 70
     0
102
RTVSPost2010Prop38
140
0.0
102
RTVSPost2010PropOp38
 70
     0
102
RTVSPost2010Prop39
140
1.0
102
RTVSPost2010PropOp39
 70
     0
102
RTVSPost2010Prop40
 90
        0
102
RTVSPost2010PropOp40
 70
     0
102
RTVSPost2010Prop41ColorIndex
 90
       18
102
RTVSPost2010Prop41ColorRGB
 90
        0
102
RTVSPost2010PropOp41
 70
     0
102
RTVSPost2010Prop42
 90
       50
102
RTVSPost2010PropOp42
 70
     0
102
RTVSPost2010Prop43
 90
        3
102
RTVSPost2010PropOp43
 70
     0
102
RTVSPost2010Prop44ColorIndex
 90
        5
102
RTVSPost2010Prop44ColorRGB
 90
      255
102
RTVSPost2010PropOp44
 70
     0
102
RTVSPost2010Prop45
280
     0
102
RTVSPost2010PropOp45
 70
     0
102
RTVSPost2010Prop46
 90
       50
102
RTVSPost2010PropOp46
 70
     0
102
RTVSPost2010Prop47
 90
       50
102
RTVSPost2010PropOp47
 70
     0
102
RTVSPost2010Prop48
 90
       50
102
RTVSPost2010PropOp48
 70
     0
102
RTVSPost2010Prop49
280
     0
102
RTVSPost2010PropOp49
 70
     0
102
RTVSPost2010Prop50
 90
       50
102
RTVSPost2010PropOp50
 70
     0
102
RTVSPost2010Prop51ColorIndex
 90
      256
102
RTVSPost2010Prop51ColorRGB
 90
-16777216
102
RTVSPost2010PropOp51
 70
     0
102
RTVSPost2010Prop52
140
1.0
102
RTVSPost2010PropOp52
 70
     0
102
RTVSPost2010Prop53
 90
        2
102
RTVSPost2010PropOp53
 70
     0
102
RTVSPost2010Prop54
  1
strokes_ogs.tif
102
RTVSPost2010PropOp54
 70
     0
102
RTVSPost2010Prop55
280
     0
102
RTVSPost2010PropOp55
 70
     0
102
RTVSPost2010Prop56
140
1.0
102
RTVSPost2010PropOp56
 70
     0
102
RTVSPost2010Prop57
140
1.0
102
RTVSPost2010PropOp57
 70
     0
  0
XRECORD
  5
3A0
102
{ACAD_REACTORS
330
39F
102
}
330
39F
100
AcDbXrecord
280
     1
102
RTVSPropertyOp0
 70
     1
102
RTVSPropertyOp1
 70
     1
102
RTVSPropertyOp2
 70
     1
102
RTVSPropertyOp3
 70
     1
102
RTVSPropertyOp4
 70
     1
102
RTVSPropertyOp5
 70
     1
102
RTVSPropertyOp6
 70
     1
102
RTVSPropertyOp7
 70
     1
102
RTVSPropertyOp8
 70
     1
102
RTVSPropertyOp9
 70
     1
102
RTVSPropertyOp10
 70
     1
102
RTVSPropertyOp11
 70
     1
102
RTVSPropertyOp12
 70
     1
102
RTVSPropertyOp13
 70
     1
102
RTVSPropertyOp14
 70
     1
102
RTVSPropertyOp15
 70
     1
102
RTVSPropertyOp16
 70
     1
102
RTVSPropertyOp17
 70
     1
102
RTVSPropertyOp18
 70
     1
102
RTVSPropertyOp19
 70
     1
102
RTVSPropertyOp20
 70
     1
102
RTVSPropertyOp21
 70
     1
102
RTVSPropertyOp22
 70
     1
102
RTVSPropertyOp23
 70
     1
102
RTVSPropertyOp24
 70
     1
102
RTVSPropertyOp25
 70
     1
102
RTVSPropertyOp26
 70
     1
102
RTVSPropertyOp27
 70
     1
102
RTVSPropertyOp28
 70
     1
102
RTVSPropertyOp29
 70
     1
102
RTVSPropertyOp30
 70
     1
102
RTVSPropertyOp31
 70
     1
102
RTVSPropertyOp32
 70
     1
102
RTVSPropertyOp33
 70
     1
102
RTVSPropertyOp34
 70
     1
102
RTVSPropertyOp35
 70
     1
102
RTVSPropertyOp36
 70
     1
102
RTVSPropertyOp37
 70
     1
102
RTVSPropertyOp38
 70
     1
102
RTVSPropertyOp39
 70
     1
102
RTVSPropertyOp40
 70
     1
102
RTVSPropertyOp41
 70
     1
102
RTVSPropertyOp42
 70
     1
102
RTVSPropertyOp43
 70
     1
102
RTVSPropertyOp44
 70
     1
102
RTVSPropertyOp45
 70
     1
102
RTVSPropertyOp46
 70
     1
102
RTVSPropertyOp47
 70
     1
102
RTVSPropertyOp48
 70
     1
102
RTVSPropertyOp49
 70
     1
102
RTVSPropertyOp50
 70
     1
102
RTVSPropertyOp51
 70
     0
102
RTVSPropertyOp52
 70
     0
102
RTVSPropertyOp53
 70
     1
102
RTVSPropertyOp54
 70
     1
102
RTVSPropertyOp55
 70
     1
102
RTVSPropertyOp56
 70
     1
102
RTVSPropertyOp57
 70
     1
102
RTVSPost2010Prop28
280
     0
102
RTVSPost2010PropOp28
 70
     1
102
RTVSPost2010Prop29
280
     1
102
RTVSPost2010PropOp29
 70
     1
102
RTVSPost2010Prop30
280
     1
102
RTVSPost2010PropOp30
 70
     1
102
RTVSPost2010Prop31
280
     0
102
RTVSPost2010PropOp31
 70
     1
102
RTVSPost2010Prop32
280
     0
102
RTVSPost2010PropOp32
 70
     1
102
RTVSPost2010Prop33
280
     0
102
RTVSPost2010PropOp33
 70
     1
102
RTVSPost2010Prop34
280
     0
102
RTVSPost2010PropOp34
 70
     1
102
RTVSPost2010Prop35
280
     0
102
RTVSPost2010PropOp35
 70
     1
102
RTVSPost2010Prop36
280
     0
102
RTVSPost2010PropOp36
 70
     1
102
RTVSPost2010Prop37
 90
       50
102
RTVSPost2010PropOp37
 70
     1
102
RTVSPost2010Prop38
140
0.0
102
RTVSPost2010PropOp38
 70
     1
102
RTVSPost2010Prop39
140
1.0
102
RTVSPost2010PropOp39
 70
     1
102
RTVSPost2010Prop40
 90
        0
102
RTVSPost2010PropOp40
 70
     1
102
RTVSPost2010Prop41ColorIndex
 90
       18
102
RTVSPost2010Prop41ColorRGB
 90
        0
102
RTVSPost2010PropOp41
 70
     1
102
RTVSPost2010Prop42
 90
       50
102
RTVSPost2010PropOp42
 70
     1
102
RTVSPost2010Prop43
 90
        3
102
RTVSPost2010PropOp43
 70
     1
102
RTVSPost2010Prop44ColorIndex
 90
        5
102
RTVSPost2010Prop44ColorRGB
 90
      255
102
RTVSPost2010PropOp44
 70
     1
102
RTVSPost2010Prop45
280
     0
102
RTVSPost2010PropOp45
 70
     1
102
RTVSPost2010Prop46
 90
       50
102
RTVSPost2010PropOp46
 70
     1
102
RTVSPost2010Prop47
 90
       50
102
RTVSPost2010PropOp47
 70
     1
102
RTVSPost2010Prop48
 90
       50
102
RTVSPost2010PropOp48
 70
     1
102
RTVSPost2010Prop49
280
     0
102
RTVSPost2010PropOp49
 70
     1
102
RTVSPost2010Prop50
 90
       50
102
RTVSPost2010PropOp50
 70
     1
102
RTVSPost2010Prop51ColorIndex
 90
      256
102
RTVSPost2010Prop51ColorRGB
 90
-16777216
102
RTVSPost2010PropOp51
 70
     0
102
RTVSPost2010Prop52
140
1.0
102
RTVSPost2010PropOp52
 70
     0
102
RTVSPost2010Prop53
 90
        2
102
RTVSPost2010PropOp53
 70
     1
102
RTVSPost2010Prop54
  1
strokes_ogs.tif
102
RTVSPost2010PropOp54
 70
     1
102
RTVSPost2010Prop55
280
     0
102
RTVSPost2010PropOp55
 70
     1
102
RTVSPost2010Prop56
140
1.0
102
RTVSPost2010PropOp56
 70
     1
102
RTVSPost2010Prop57
140
1.0
102
RTVSPost2010PropOp57
 70
     1
  0
XRECORD
  5
3BE
102
{ACAD_REACTORS
330
3BD
102
}
330
3BD
100
AcDbXrecord
280
     1
102
RTVSPropertyOp0
 70
     1
102
RTVSPropertyOp1
 70
     1
102
RTVSPropertyOp2
 70
     1
102
RTVSPropertyOp3
 70
     1
102
RTVSPropertyOp4
 70
     1
102
RTVSPropertyOp5
 70
     1
102
RTVSPropertyOp6
 70
     1
102
RTVSPropertyOp7
 70
     1
102
RTVSPropertyOp8
 70
     1
102
RTVSPropertyOp9
 70
     1
102
RTVSPropertyOp10
 70
     1
102
RTVSPropertyOp11
 70
     1
102
RTVSPropertyOp12
 70
     1
102
RTVSPropertyOp13
 70
     1
102
RTVSPropertyOp14
 70
     1
102
RTVSPropertyOp15
 70
     1
102
RTVSPropertyOp16
 70
     1
102
RTVSPropertyOp17
 70
     1
102
RTVSPropertyOp18
 70
     1
102
RTVSPropertyOp19
 70
     1
102
RTVSPropertyOp20
 70
     1
102
RTVSPropertyOp21
 70
     1
102
RTVSPropertyOp22
 70
     1
102
RTVSPropertyOp23
 70
     1
102
RTVSPropertyOp24
 70
     1
102
RTVSPropertyOp25
 70
     1
102
RTVSPropertyOp26
 70
     1
102
RTVSPropertyOp27
 70
     1
102
RTVSPropertyOp28
 70
     1
102
RTVSPropertyOp29
 70
     1
102
RTVSPropertyOp30
 70
     1
102
RTVSPropertyOp31
 70
     1
102
RTVSPropertyOp32
 70
     1
102
RTVSPropertyOp33
 70
     1
102
RTVSPropertyOp34
 70
     1
102
RTVSPropertyOp35
 70
     1
102
RTVSPropertyOp36
 70
     1
102
RTVSPropertyOp37
 70
     1
102
RTVSPropertyOp38
 70
     1
102
RTVSPropertyOp39
 70
     1
102
RTVSPropertyOp40
 70
     1
102
RTVSPropertyOp41
 70
     1
102
RTVSPropertyOp42
 70
     1
102
RTVSPropertyOp43
 70
     1
102
RTVSPropertyOp44
 70
     1
102
RTVSPropertyOp45
 70
     1
102
RTVSPropertyOp46
 70
     1
102
RTVSPropertyOp47
 70
     1
102
RTVSPropertyOp48
 70
     1
102
RTVSPropertyOp49
 70
     1
102
RTVSPropertyOp50
 70
     1
102
RTVSPropertyOp51
 70
     0
102
RTVSPropertyOp52
 70
     0
102
RTVSPropertyOp53
 70
     1
102
RTVSPropertyOp54
 70
     1
102
RTVSPropertyOp55
 70
     1
102
RTVSPropertyOp56
 70
     1
102
RTVSPropertyOp57
 70
     1
102
RTVSPost2010Prop28
280
     0
102
RTVSPost2010PropOp28
 70
     1
102
RTVSPost2010Prop29
280
     1
102
RTVSPost2010PropOp29
 70
     1
102
RTVSPost2010Prop30
280
     1
102
RTVSPost2010PropOp30
 70
     1
102
RTVSPost2010Prop31
280
     0
102
RTVSPost2010PropOp31
 70
     1
102
RTVSPost2010Prop32
280
     0
102
RTVSPost2010PropOp32
 70
     1
102
RTVSPost2010Prop33
280
     0
102
RTVSPost2010PropOp33
 70
     1
102
RTVSPost2010Prop34
280
     0
102
RTVSPost2010PropOp34
 70
     1
102
RTVSPost2010Prop35
280
     0
102
RTVSPost2010PropOp35
 70
     1
102
RTVSPost2010Prop36
280
     0
102
RTVSPost2010PropOp36
 70
     1
102
RTVSPost2010Prop37
 90
       50
102
RTVSPost2010PropOp37
 70
     1
102
RTVSPost2010Prop38
140
0.0
102
RTVSPost2010PropOp38
 70
     1
102
RTVSPost2010Prop39
140
1.0
102
RTVSPost2010PropOp39
 70
     1
102
RTVSPost2010Prop40
 90
        0
102
RTVSPost2010PropOp40
 70
     1
102
RTVSPost2010Prop41ColorIndex
 90
       18
102
RTVSPost2010Prop41ColorRGB
 90
        0
102
RTVSPost2010PropOp41
 70
     1
102
RTVSPost2010Prop42
 90
       50
102
RTVSPost2010PropOp42
 70
     1
102
RTVSPost2010Prop43
 90
        3
102
RTVSPost2010PropOp43
 70
     1
102
RTVSPost2010Prop44ColorIndex
 90
        5
102
RTVSPost2010Prop44ColorRGB
 90
      255
102
RTVSPost2010PropOp44
 70
     1
102
RTVSPost2010Prop45
280
     0
102
RTVSPost2010PropOp45
 70
     1
102
RTVSPost2010Prop46
 90
       50
102
RTVSPost2010PropOp46
 70
     1
102
RTVSPost2010Prop47
 90
       50
102
RTVSPost2010PropOp47
 70
     1
102
RTVSPost2010Prop48
 90
       50
102
RTVSPost2010PropOp48
 70
     1
102
RTVSPost2010Prop49
280
     0
102
RTVSPost2010PropOp49
 70
     1
102
RTVSPost2010Prop50
 90
       50
102
RTVSPost2010PropOp50
 70
     1
102
RTVSPost2010Prop51ColorIndex
 90
      256
102
RTVSPost2010Prop51ColorRGB
 90
-16777216
102
RTVSPost2010PropOp51
 70
     0
102
RTVSPost2010Prop52
140
1.0
102
RTVSPost2010PropOp52
 70
     0
102
RTVSPost2010Prop53
 90
        2
102
RTVSPost2010PropOp53
 70
     1
102
RTVSPost2010Prop54
  1
strokes_ogs.tif
102
RTVSPost2010PropOp54
 70
     1
102
RTVSPost2010Prop55
280
     0
102
RTVSPost2010PropOp55
 70
     1
102
RTVSPost2010Prop56
140
1.0
102
RTVSPost2010PropOp56
 70
     1
102
RTVSPost2010Prop57
140
1.0
102
RTVSPost2010PropOp57
 70
     1
  0
XRECORD
  5
3BC
102
{ACAD_REACTORS
330
3BB
102
}
330
3BB
100
AcDbXrecord
280
     1
102
RTVSPropertyOp0
 70
     1
102
RTVSPropertyOp1
 70
     1
102
RTVSPropertyOp2
 70
     1
102
RTVSPropertyOp3
 70
     1
102
RTVSPropertyOp4
 70
     1
102
RTVSPropertyOp5
 70
     1
102
RTVSPropertyOp6
 70
     1
102
RTVSPropertyOp7
 70
     1
102
RTVSPropertyOp8
 70
     1
102
RTVSPropertyOp9
 70
     1
102
RTVSPropertyOp10
 70
     1
102
RTVSPropertyOp11
 70
     1
102
RTVSPropertyOp12
 70
     1
102
RTVSPropertyOp13
 70
     1
102
RTVSPropertyOp14
 70
     1
102
RTVSPropertyOp15
 70
     1
102
RTVSPropertyOp16
 70
     1
102
RTVSPropertyOp17
 70
     1
102
RTVSPropertyOp18
 70
     1
102
RTVSPropertyOp19
 70
     1
102
RTVSPropertyOp20
 70
     1
102
RTVSPropertyOp21
 70
     1
102
RTVSPropertyOp22
 70
     1
102
RTVSPropertyOp23
 70
     1
102
RTVSPropertyOp24
 70
     1
102
RTVSPropertyOp25
 70
     1
102
RTVSPropertyOp26
 70
     1
102
RTVSPropertyOp27
 70
     1
102
RTVSPropertyOp28
 70
     1
102
RTVSPropertyOp29
 70
     1
102
RTVSPropertyOp30
 70
     1
102
RTVSPropertyOp31
 70
     1
102
RTVSPropertyOp32
 70
     1
102
RTVSPropertyOp33
 70
     1
102
RTVSPropertyOp34
 70
     1
102
RTVSPropertyOp35
 70
     1
102
RTVSPropertyOp36
 70
     1
102
RTVSPropertyOp37
 70
     1
102
RTVSPropertyOp38
 70
     1
102
RTVSPropertyOp39
 70
     1
102
RTVSPropertyOp40
 70
     1
102
RTVSPropertyOp41
 70
     1
102
RTVSPropertyOp42
 70
     1
102
RTVSPropertyOp43
 70
     1
102
RTVSPropertyOp44
 70
     1
102
RTVSPropertyOp45
 70
     1
102
RTVSPropertyOp46
 70
     1
102
RTVSPropertyOp47
 70
     1
102
RTVSPropertyOp48
 70
     1
102
RTVSPropertyOp49
 70
     1
102
RTVSPropertyOp50
 70
     1
102
RTVSPropertyOp51
 70
     0
102
RTVSPropertyOp52
 70
     0
102
RTVSPropertyOp53
 70
     1
102
RTVSPropertyOp54
 70
     1
102
RTVSPropertyOp55
 70
     1
102
RTVSPropertyOp56
 70
     1
102
RTVSPropertyOp57
 70
     1
102
RTVSPost2010Prop28
280
     0
102
RTVSPost2010PropOp28
 70
     1
102
RTVSPost2010Prop29
280
     1
102
RTVSPost2010PropOp29
 70
     1
102
RTVSPost2010Prop30
280
     1
102
RTVSPost2010PropOp30
 70
     1
102
RTVSPost2010Prop31
280
     0
102
RTVSPost2010PropOp31
 70
     1
102
RTVSPost2010Prop32
280
     0
102
RTVSPost2010PropOp32
 70
     1
102
RTVSPost2010Prop33
280
     0
102
RTVSPost2010PropOp33
 70
     1
102
RTVSPost2010Prop34
280
     0
102
RTVSPost2010PropOp34
 70
     1
102
RTVSPost2010Prop35
280
     0
102
RTVSPost2010PropOp35
 70
     1
102
RTVSPost2010Prop36
280
     0
102
RTVSPost2010PropOp36
 70
     1
102
RTVSPost2010Prop37
 90
       50
102
RTVSPost2010PropOp37
 70
     1
102
RTVSPost2010Prop38
140
0.0
102
RTVSPost2010PropOp38
 70
     1
102
RTVSPost2010Prop39
140
1.0
102
RTVSPost2010PropOp39
 70
     1
102
RTVSPost2010Prop40
 90
        0
102
RTVSPost2010PropOp40
 70
     1
102
RTVSPost2010Prop41ColorIndex
 90
       18
102
RTVSPost2010Prop41ColorRGB
 90
        0
102
RTVSPost2010PropOp41
 70
     1
102
RTVSPost2010Prop42
 90
       50
102
RTVSPost2010PropOp42
 70
     1
102
RTVSPost2010Prop43
 90
        3
102
RTVSPost2010PropOp43
 70
     1
102
RTVSPost2010Prop44ColorIndex
 90
        5
102
RTVSPost2010Prop44ColorRGB
 90
      255
102
RTVSPost2010PropOp44
 70
     1
102
RTVSPost2010Prop45
280
     0
102
RTVSPost2010PropOp45
 70
     1
102
RTVSPost2010Prop46
 90
       50
102
RTVSPost2010PropOp46
 70
     1
102
RTVSPost2010Prop47
 90
       50
102
RTVSPost2010PropOp47
 70
     1
102
RTVSPost2010Prop48
 90
       50
102
RTVSPost2010PropOp48
 70
     1
102
RTVSPost2010Prop49
280
     0
102
RTVSPost2010PropOp49
 70
     1
102
RTVSPost2010Prop50
 90
       50
102
RTVSPost2010PropOp50
 70
     1
102
RTVSPost2010Prop51ColorIndex
 90
      256
102
RTVSPost2010Prop51ColorRGB
 90
-16777216
102
RTVSPost2010PropOp51
 70
     0
102
RTVSPost2010Prop52
140
1.0
102
RTVSPost2010PropOp52
 70
     0
102
RTVSPost2010Prop53
 90
        2
102
RTVSPost2010PropOp53
 70
     1
102
RTVSPost2010Prop54
  1
strokes_ogs.tif
102
RTVSPost2010PropOp54
 70
     1
102
RTVSPost2010Prop55
280
     0
102
RTVSPost2010PropOp55
 70
     1
102
RTVSPost2010Prop56
140
1.0
102
RTVSPost2010PropOp56
 70
     1
102
RTVSPost2010Prop57
140
1.0
102
RTVSPost2010PropOp57
 70
     1
  0
XRECORD
  5
3B6
102
{ACAD_REACTORS
330
3B5
102
}
330
3B5
100
AcDbXrecord
280
     1
102
RTVSPropertyOp0
 70
     1
102
RTVSPropertyOp1
 70
     1
102
RTVSPropertyOp2
 70
     1
102
RTVSPropertyOp3
 70
     1
102
RTVSPropertyOp4
 70
     1
102
RTVSPropertyOp5
 70
     1
102
RTVSPropertyOp6
 70
     1
102
RTVSPropertyOp7
 70
     1
102
RTVSPropertyOp8
 70
     1
102
RTVSPropertyOp9
 70
     1
102
RTVSPropertyOp10
 70
     1
102
RTVSPropertyOp11
 70
     1
102
RTVSPropertyOp12
 70
     1
102
RTVSPropertyOp13
 70
     1
102
RTVSPropertyOp14
 70
     1
102
RTVSPropertyOp15
 70
     1
102
RTVSPropertyOp16
 70
     1
102
RTVSPropertyOp17
 70
     1
102
RTVSPropertyOp18
 70
     1
102
RTVSPropertyOp19
 70
     1
102
RTVSPropertyOp20
 70
     1
102
RTVSPropertyOp21
 70
     1
102
RTVSPropertyOp22
 70
     1
102
RTVSPropertyOp23
 70
     1
102
RTVSPropertyOp24
 70
     1
102
RTVSPropertyOp25
 70
     1
102
RTVSPropertyOp26
 70
     1
102
RTVSPropertyOp27
 70
     1
102
RTVSPropertyOp28
 70
     1
102
RTVSPropertyOp29
 70
     1
102
RTVSPropertyOp30
 70
     1
102
RTVSPropertyOp31
 70
     1
102
RTVSPropertyOp32
 70
     1
102
RTVSPropertyOp33
 70
     1
102
RTVSPropertyOp34
 70
     1
102
RTVSPropertyOp35
 70
     1
102
RTVSPropertyOp36
 70
     1
102
RTVSPropertyOp37
 70
     1
102
RTVSPropertyOp38
 70
     1
102
RTVSPropertyOp39
 70
     1
102
RTVSPropertyOp40
 70
     1
102
RTVSPropertyOp41
 70
     1
102
RTVSPropertyOp42
 70
     1
102
RTVSPropertyOp43
 70
     1
102
RTVSPropertyOp44
 70
     1
102
RTVSPropertyOp45
 70
     1
102
RTVSPropertyOp46
 70
     1
102
RTVSPropertyOp47
 70
     1
102
RTVSPropertyOp48
 70
     1
102
RTVSPropertyOp49
 70
     1
102
RTVSPropertyOp50
 70
     1
102
RTVSPropertyOp51
 70
     0
102
RTVSPropertyOp52
 70
     0
102
RTVSPropertyOp53
 70
     1
102
RTVSPropertyOp54
 70
     1
102
RTVSPropertyOp55
 70
     1
102
RTVSPropertyOp56
 70
     1
102
RTVSPropertyOp57
 70
     1
102
RTVSPost2010Prop28
280
     0
102
RTVSPost2010PropOp28
 70
     1
102
RTVSPost2010Prop29
280
     1
102
RTVSPost2010PropOp29
 70
     1
102
RTVSPost2010Prop30
280
     1
102
RTVSPost2010PropOp30
 70
     1
102
RTVSPost2010Prop31
280
     0
102
RTVSPost2010PropOp31
 70
     1
102
RTVSPost2010Prop32
280
     0
102
RTVSPost2010PropOp32
 70
     1
102
RTVSPost2010Prop33
280
     0
102
RTVSPost2010PropOp33
 70
     1
102
RTVSPost2010Prop34
280
     0
102
RTVSPost2010PropOp34
 70
     1
102
RTVSPost2010Prop35
280
     0
102
RTVSPost2010PropOp35
 70
     1
102
RTVSPost2010Prop36
280
     0
102
RTVSPost2010PropOp36
 70
     1
102
RTVSPost2010Prop37
 90
       50
102
RTVSPost2010PropOp37
 70
     1
102
RTVSPost2010Prop38
140
0.0
102
RTVSPost2010PropOp38
 70
     1
102
RTVSPost2010Prop39
140
1.0
102
RTVSPost2010PropOp39
 70
     1
102
RTVSPost2010Prop40
 90
        0
102
RTVSPost2010PropOp40
 70
     1
102
RTVSPost2010Prop41ColorIndex
 90
       18
102
RTVSPost2010Prop41ColorRGB
 90
        0
102
RTVSPost2010PropOp41
 70
     1
102
RTVSPost2010Prop42
 90
       50
102
RTVSPost2010PropOp42
 70
     1
102
RTVSPost2010Prop43
 90
        3
102
RTVSPost2010PropOp43
 70
     1
102
RTVSPost2010Prop44ColorIndex
 90
        5
102
RTVSPost2010Prop44ColorRGB
 90
      255
102
RTVSPost2010PropOp44
 70
     1
102
RTVSPost2010Prop45
280
     0
102
RTVSPost2010PropOp45
 70
     1
102
RTVSPost2010Prop46
 90
       50
102
RTVSPost2010PropOp46
 70
     1
102
RTVSPost2010Prop47
 90
       50
102
RTVSPost2010PropOp47
 70
     1
102
RTVSPost2010Prop48
 90
       50
102
RTVSPost2010PropOp48
 70
     1
102
RTVSPost2010Prop49
280
     0
102
RTVSPost2010PropOp49
 70
     1
102
RTVSPost2010Prop50
 90
       50
102
RTVSPost2010PropOp50
 70
     1
102
RTVSPost2010Prop51ColorIndex
 90
      256
102
RTVSPost2010Prop51ColorRGB
 90
-16777216
102
RTVSPost2010PropOp51
 70
     0
102
RTVSPost2010Prop52
140
1.0
102
RTVSPost2010PropOp52
 70
     0
102
RTVSPost2010Prop53
 90
        2
102
RTVSPost2010PropOp53
 70
     1
102
RTVSPost2010Prop54
  1
strokes_ogs.tif
102
RTVSPost2010PropOp54
 70
     1
102
RTVSPost2010Prop55
280
     0
102
RTVSPost2010PropOp55
 70
     1
102
RTVSPost2010Prop56
140
1.0
102
RTVSPost2010PropOp56
 70
     1
102
RTVSPost2010Prop57
140
1.0
102
RTVSPost2010PropOp57
 70
     1
  0
XRECORD
  5
3B8
102
{ACAD_REACTORS
330
3B7
102
}
330
3B7
100
AcDbXrecord
280
     1
102
RTVSPropertyOp0
 70
     1
102
RTVSPropertyOp1
 70
     1
102
RTVSPropertyOp2
 70
     1
102
RTVSPropertyOp3
 70
     1
102
RTVSPropertyOp4
 70
     1
102
RTVSPropertyOp5
 70
     1
102
RTVSPropertyOp6
 70
     1
102
RTVSPropertyOp7
 70
     1
102
RTVSPropertyOp8
 70
     1
102
RTVSPropertyOp9
 70
     1
102
RTVSPropertyOp10
 70
     1
102
RTVSPropertyOp11
 70
     1
102
RTVSPropertyOp12
 70
     1
102
RTVSPropertyOp13
 70
     1
102
RTVSPropertyOp14
 70
     1
102
RTVSPropertyOp15
 70
     1
102
RTVSPropertyOp16
 70
     1
102
RTVSPropertyOp17
 70
     1
102
RTVSPropertyOp18
 70
     1
102
RTVSPropertyOp19
 70
     1
102
RTVSPropertyOp20
 70
     1
102
RTVSPropertyOp21
 70
     1
102
RTVSPropertyOp22
 70
     1
102
RTVSPropertyOp23
 70
     1
102
RTVSPropertyOp24
 70
     1
102
RTVSPropertyOp25
 70
     1
102
RTVSPropertyOp26
 70
     1
102
RTVSPropertyOp27
 70
     1
102
RTVSPropertyOp28
 70
     1
102
RTVSPropertyOp29
 70
     1
102
RTVSPropertyOp30
 70
     1
102
RTVSPropertyOp31
 70
     1
102
RTVSPropertyOp32
 70
     1
102
RTVSPropertyOp33
 70
     1
102
RTVSPropertyOp34
 70
     1
102
RTVSPropertyOp35
 70
     1
102
RTVSPropertyOp36
 70
     1
102
RTVSPropertyOp37
 70
     1
102
RTVSPropertyOp38
 70
     1
102
RTVSPropertyOp39
 70
     1
102
RTVSPropertyOp40
 70
     1
102
RTVSPropertyOp41
 70
     1
102
RTVSPropertyOp42
 70
     1
102
RTVSPropertyOp43
 70
     1
102
RTVSPropertyOp44
 70
     1
102
RTVSPropertyOp45
 70
     1
102
RTVSPropertyOp46
 70
     1
102
RTVSPropertyOp47
 70
     1
102
RTVSPropertyOp48
 70
     1
102
RTVSPropertyOp49
 70
     1
102
RTVSPropertyOp50
 70
     1
102
RTVSPropertyOp51
 70
     0
102
RTVSPropertyOp52
 70
     0
102
RTVSPropertyOp53
 70
     1
102
RTVSPropertyOp54
 70
     1
102
RTVSPropertyOp55
 70
     1
102
RTVSPropertyOp56
 70
     1
102
RTVSPropertyOp57
 70
     1
102
RTVSPost2010Prop28
280
     0
102
RTVSPost2010PropOp28
 70
     1
102
RTVSPost2010Prop29
280
     1
102
RTVSPost2010PropOp29
 70
     1
102
RTVSPost2010Prop30
280
     1
102
RTVSPost2010PropOp30
 70
     1
102
RTVSPost2010Prop31
280
     0
102
RTVSPost2010PropOp31
 70
     1
102
RTVSPost2010Prop32
280
     0
102
RTVSPost2010PropOp32
 70
     1
102
RTVSPost2010Prop33
280
     0
102
RTVSPost2010PropOp33
 70
     1
102
RTVSPost2010Prop34
280
     0
102
RTVSPost2010PropOp34
 70
     1
102
RTVSPost2010Prop35
280
     0
102
RTVSPost2010PropOp35
 70
     1
102
RTVSPost2010Prop36
280
     0
102
RTVSPost2010PropOp36
 70
     1
102
RTVSPost2010Prop37
 90
       50
102
RTVSPost2010PropOp37
 70
     1
102
RTVSPost2010Prop38
140
0.0
102
RTVSPost2010PropOp38
 70
     1
102
RTVSPost2010Prop39
140
1.0
102
RTVSPost2010PropOp39
 70
     1
102
RTVSPost2010Prop40
 90
        0
102
RTVSPost2010PropOp40
 70
     1
102
RTVSPost2010Prop41ColorIndex
 90
       18
102
RTVSPost2010Prop41ColorRGB
 90
        0
102
RTVSPost2010PropOp41
 70
     1
102
RTVSPost2010Prop42
 90
       50
102
RTVSPost2010PropOp42
 70
     1
102
RTVSPost2010Prop43
 90
        3
102
RTVSPost2010PropOp43
 70
     1
102
RTVSPost2010Prop44ColorIndex
 90
        5
102
RTVSPost2010Prop44ColorRGB
 90
      255
102
RTVSPost2010PropOp44
 70
     1
102
RTVSPost2010Prop45
280
     0
102
RTVSPost2010PropOp45
 70
     1
102
RTVSPost2010Prop46
 90
       50
102
RTVSPost2010PropOp46
 70
     1
102
RTVSPost2010Prop47
 90
       50
102
RTVSPost2010PropOp47
 70
     1
102
RTVSPost2010Prop48
 90
       50
102
RTVSPost2010PropOp48
 70
     1
102
RTVSPost2010Prop49
280
     0
102
RTVSPost2010PropOp49
 70
     1
102
RTVSPost2010Prop50
 90
       50
102
RTVSPost2010PropOp50
 70
     1
102
RTVSPost2010Prop51ColorIndex
 90
      256
102
RTVSPost2010Prop51ColorRGB
 90
-16777216
102
RTVSPost2010PropOp51
 70
     0
102
RTVSPost2010Prop52
140
1.0
102
RTVSPost2010PropOp52
 70
     0
102
RTVSPost2010Prop53
 90
        2
102
RTVSPost2010PropOp53
 70
     1
102
RTVSPost2010Prop54
  1
strokes_ogs.tif
102
RTVSPost2010PropOp54
 70
     1
102
RTVSPost2010Prop55
280
     0
102
RTVSPost2010PropOp55
 70
     1
102
RTVSPost2010Prop56
140
1.0
102
RTVSPost2010PropOp56
 70
     1
102
RTVSPost2010Prop57
140
1.0
102
RTVSPost2010PropOp57
 70
     1
  0
XRECORD
  5
3A8
102
{ACAD_REACTORS
330
3A7
102
}
330
3A7
100
AcDbXrecord
280
     1
102
RTVSPropertyOp0
 70
     1
102
RTVSPropertyOp1
 70
     1
102
RTVSPropertyOp2
 70
     1
102
RTVSPropertyOp3
 70
     1
102
RTVSPropertyOp4
 70
     1
102
RTVSPropertyOp5
 70
     1
102
RTVSPropertyOp6
 70
     1
102
RTVSPropertyOp7
 70
     1
102
RTVSPropertyOp8
 70
     1
102
RTVSPropertyOp9
 70
     1
102
RTVSPropertyOp10
 70
     1
102
RTVSPropertyOp11
 70
     1
102
RTVSPropertyOp12
 70
     1
102
RTVSPropertyOp13
 70
     1
102
RTVSPropertyOp14
 70
     1
102
RTVSPropertyOp15
 70
     1
102
RTVSPropertyOp16
 70
     1
102
RTVSPropertyOp17
 70
     1
102
RTVSPropertyOp18
 70
     1
102
RTVSPropertyOp19
 70
     1
102
RTVSPropertyOp20
 70
     1
102
RTVSPropertyOp21
 70
     1
102
RTVSPropertyOp22
 70
     1
102
RTVSPropertyOp23
 70
     1
102
RTVSPropertyOp24
 70
     1
102
RTVSPropertyOp25
 70
     1
102
RTVSPropertyOp26
 70
     1
102
RTVSPropertyOp27
 70
     1
102
RTVSPropertyOp28
 70
     1
102
RTVSPropertyOp29
 70
     1
102
RTVSPropertyOp30
 70
     1
102
RTVSPropertyOp31
 70
     1
102
RTVSPropertyOp32
 70
     1
102
RTVSPropertyOp33
 70
     1
102
RTVSPropertyOp34
 70
     1
102
RTVSPropertyOp35
 70
     1
102
RTVSPropertyOp36
 70
     1
102
RTVSPropertyOp37
 70
     1
102
RTVSPropertyOp38
 70
     1
102
RTVSPropertyOp39
 70
     1
102
RTVSPropertyOp40
 70
     1
102
RTVSPropertyOp41
 70
     1
102
RTVSPropertyOp42
 70
     1
102
RTVSPropertyOp43
 70
     1
102
RTVSPropertyOp44
 70
     1
102
RTVSPropertyOp45
 70
     1
102
RTVSPropertyOp46
 70
     1
102
RTVSPropertyOp47
 70
     1
102
RTVSPropertyOp48
 70
     1
102
RTVSPropertyOp49
 70
     1
102
RTVSPropertyOp50
 70
     1
102
RTVSPropertyOp51
 70
     0
102
RTVSPropertyOp52
 70
     0
102
RTVSPropertyOp53
 70
     1
102
RTVSPropertyOp54
 70
     1
102
RTVSPropertyOp55
 70
     1
102
RTVSPropertyOp56
 70
     1
102
RTVSPropertyOp57
 70
     1
102
RTVSPost2010Prop28
280
     0
102
RTVSPost2010PropOp28
 70
     1
102
RTVSPost2010Prop29
280
     1
102
RTVSPost2010PropOp29
 70
     1
102
RTVSPost2010Prop30
280
     1
102
RTVSPost2010PropOp30
 70
     1
102
RTVSPost2010Prop31
280
     0
102
RTVSPost2010PropOp31
 70
     1
102
RTVSPost2010Prop32
280
     0
102
RTVSPost2010PropOp32
 70
     1
102
RTVSPost2010Prop33
280
     0
102
RTVSPost2010PropOp33
 70
     1
102
RTVSPost2010Prop34
280
     0
102
RTVSPost2010PropOp34
 70
     1
102
RTVSPost2010Prop35
280
     0
102
RTVSPost2010PropOp35
 70
     1
102
RTVSPost2010Prop36
280
     0
102
RTVSPost2010PropOp36
 70
     1
102
RTVSPost2010Prop37
 90
       50
102
RTVSPost2010PropOp37
 70
     1
102
RTVSPost2010Prop38
140
0.0
102
RTVSPost2010PropOp38
 70
     1
102
RTVSPost2010Prop39
140
1.0
102
RTVSPost2010PropOp39
 70
     1
102
RTVSPost2010Prop40
 90
        0
102
RTVSPost2010PropOp40
 70
     1
102
RTVSPost2010Prop41ColorIndex
 90
       18
102
RTVSPost2010Prop41ColorRGB
 90
        0
102
RTVSPost2010PropOp41
 70
     1
102
RTVSPost2010Prop42
 90
       50
102
RTVSPost2010PropOp42
 70
     1
102
RTVSPost2010Prop43
 90
        3
102
RTVSPost2010PropOp43
 70
     1
102
RTVSPost2010Prop44ColorIndex
 90
        5
102
RTVSPost2010Prop44ColorRGB
 90
      255
102
RTVSPost2010PropOp44
 70
     1
102
RTVSPost2010Prop45
280
     0
102
RTVSPost2010PropOp45
 70
     1
102
RTVSPost2010Prop46
 90
       50
102
RTVSPost2010PropOp46
 70
     1
102
RTVSPost2010Prop47
 90
       50
102
RTVSPost2010PropOp47
 70
     1
102
RTVSPost2010Prop48
 90
       50
102
RTVSPost2010PropOp48
 70
     1
102
RTVSPost2010Prop49
280
     0
102
RTVSPost2010PropOp49
 70
     1
102
RTVSPost2010Prop50
 90
       50
102
RTVSPost2010PropOp50
 70
     1
102
RTVSPost2010Prop51ColorIndex
 90
      256
102
RTVSPost2010Prop51ColorRGB
 90
-16777216
102
RTVSPost2010PropOp51
 70
     0
102
RTVSPost2010Prop52
140
1.0
102
RTVSPost2010PropOp52
 70
     0
102
RTVSPost2010Prop53
 90
        2
102
RTVSPost2010PropOp53
 70
     1
102
RTVSPost2010Prop54
  1
strokes_ogs.tif
102
RTVSPost2010PropOp54
 70
     1
102
RTVSPost2010Prop55
280
     0
102
RTVSPost2010PropOp55
 70
     1
102
RTVSPost2010Prop56
140
1.0
102
RTVSPost2010PropOp56
 70
     1
102
RTVSPost2010Prop57
140
1.0
102
RTVSPost2010PropOp57
 70
     1
  0
XRECORD
  5
39A
102
{ACAD_REACTORS
330
399
102
}
330
399
100
AcDbXrecord
280
     1
102
RTVSPropertyOp0
 70
     1
102
RTVSPropertyOp1
 70
     1
102
RTVSPropertyOp2
 70
     1
102
RTVSPropertyOp3
 70
     1
102
RTVSPropertyOp4
 70
     1
102
RTVSPropertyOp5
 70
     1
102
RTVSPropertyOp6
 70
     1
102
RTVSPropertyOp7
 70
     1
102
RTVSPropertyOp8
 70
     1
102
RTVSPropertyOp9
 70
     1
102
RTVSPropertyOp10
 70
     1
102
RTVSPropertyOp11
 70
     1
102
RTVSPropertyOp12
 70
     1
102
RTVSPropertyOp13
 70
     1
102
RTVSPropertyOp14
 70
     1
102
RTVSPropertyOp15
 70
     1
102
RTVSPropertyOp16
 70
     1
102
RTVSPropertyOp17
 70
     1
102
RTVSPropertyOp18
 70
     1
102
RTVSPropertyOp19
 70
     1
102
RTVSPropertyOp20
 70
     1
102
RTVSPropertyOp21
 70
     1
102
RTVSPropertyOp22
 70
     1
102
RTVSPropertyOp23
 70
     1
102
RTVSPropertyOp24
 70
     1
102
RTVSPropertyOp25
 70
     1
102
RTVSPropertyOp26
 70
     1
102
RTVSPropertyOp27
 70
     1
102
RTVSPropertyOp28
 70
     1
102
RTVSPropertyOp29
 70
     1
102
RTVSPropertyOp30
 70
     1
102
RTVSPropertyOp31
 70
     1
102
RTVSPropertyOp32
 70
     1
102
RTVSPropertyOp33
 70
     1
102
RTVSPropertyOp34
 70
     1
102
RTVSPropertyOp35
 70
     1
102
RTVSPropertyOp36
 70
     1
102
RTVSPropertyOp37
 70
     1
102
RTVSPropertyOp38
 70
     1
102
RTVSPropertyOp39
 70
     1
102
RTVSPropertyOp40
 70
     1
102
RTVSPropertyOp41
 70
     1
102
RTVSPropertyOp42
 70
     1
102
RTVSPropertyOp43
 70
     1
102
RTVSPropertyOp44
 70
     1
102
RTVSPropertyOp45
 70
     1
102
RTVSPropertyOp46
 70
     1
102
RTVSPropertyOp47
 70
     1
102
RTVSPropertyOp48
 70
     1
102
RTVSPropertyOp49
 70
     1
102
RTVSPropertyOp50
 70
     1
102
RTVSPropertyOp51
 70
     0
102
RTVSPropertyOp52
 70
     0
102
RTVSPropertyOp53
 70
     1
102
RTVSPropertyOp54
 70
     1
102
RTVSPropertyOp55
 70
     1
102
RTVSPropertyOp56
 70
     1
102
RTVSPropertyOp57
 70
     1
102
RTVSPost2010Prop28
280
     0
102
RTVSPost2010PropOp28
 70
     1
102
RTVSPost2010Prop29
280
     1
102
RTVSPost2010PropOp29
 70
     1
102
RTVSPost2010Prop30
280
     1
102
RTVSPost2010PropOp30
 70
     1
102
RTVSPost2010Prop31
280
     0
102
RTVSPost2010PropOp31
 70
     1
102
RTVSPost2010Prop32
280
     0
102
RTVSPost2010PropOp32
 70
     1
102
RTVSPost2010Prop33
280
     0
102
RTVSPost2010PropOp33
 70
     1
102
RTVSPost2010Prop34
280
     0
102
RTVSPost2010PropOp34
 70
     1
102
RTVSPost2010Prop35
280
     0
102
RTVSPost2010PropOp35
 70
     1
102
RTVSPost2010Prop36
280
     0
102
RTVSPost2010PropOp36
 70
     1
102
RTVSPost2010Prop37
 90
       50
102
RTVSPost2010PropOp37
 70
     1
102
RTVSPost2010Prop38
140
0.0
102
RTVSPost2010PropOp38
 70
     1
102
RTVSPost2010Prop39
140
1.0
102
RTVSPost2010PropOp39
 70
     1
102
RTVSPost2010Prop40
 90
        0
102
RTVSPost2010PropOp40
 70
     1
102
RTVSPost2010Prop41ColorIndex
 90
       18
102
RTVSPost2010Prop41ColorRGB
 90
        0
102
RTVSPost2010PropOp41
 70
     1
102
RTVSPost2010Prop42
 90
       50
102
RTVSPost2010PropOp42
 70
     1
102
RTVSPost2010Prop43
 90
        3
102
RTVSPost2010PropOp43
 70
     1
102
RTVSPost2010Prop44ColorIndex
 90
        5
102
RTVSPost2010Prop44ColorRGB
 90
      255
102
RTVSPost2010PropOp44
 70
     1
102
RTVSPost2010Prop45
280
     0
102
RTVSPost2010PropOp45
 70
     1
102
RTVSPost2010Prop46
 90
       50
102
RTVSPost2010PropOp46
 70
     1
102
RTVSPost2010Prop47
 90
       50
102
RTVSPost2010PropOp47
 70
     1
102
RTVSPost2010Prop48
 90
       50
102
RTVSPost2010PropOp48
 70
     1
102
RTVSPost2010Prop49
280
     0
102
RTVSPost2010PropOp49
 70
     1
102
RTVSPost2010Prop50
 90
       50
102
RTVSPost2010PropOp50
 70
     1
102
RTVSPost2010Prop51ColorIndex
 90
      256
102
RTVSPost2010Prop51ColorRGB
 90
-16777216
102
RTVSPost2010PropOp51
 70
     0
102
RTVSPost2010Prop52
140
1.0
102
RTVSPost2010PropOp52
 70
     0
102
RTVSPost2010Prop53
 90
        2
102
RTVSPost2010PropOp53
 70
     1
102
RTVSPost2010Prop54
  1
strokes_ogs.tif
102
RTVSPost2010PropOp54
 70
     1
102
RTVSPost2010Prop55
280
     0
102
RTVSPost2010PropOp55
 70
     1
102
RTVSPost2010Prop56
140
1.0
102
RTVSPost2010PropOp56
 70
     1
102
RTVSPost2010Prop57
140
1.0
102
RTVSPost2010PropOp57
 70
     1
  0
XRECORD
  5
3BA
102
{ACAD_REACTORS
330
3B9
102
}
330
3B9
100
AcDbXrecord
280
     1
102
RTVSPropertyOp0
 70
     1
102
RTVSPropertyOp1
 70
     1
102
RTVSPropertyOp2
 70
     1
102
RTVSPropertyOp3
 70
     1
102
RTVSPropertyOp4
 70
     1
102
RTVSPropertyOp5
 70
     1
102
RTVSPropertyOp6
 70
     1
102
RTVSPropertyOp7
 70
     1
102
RTVSPropertyOp8
 70
     1
102
RTVSPropertyOp9
 70
     1
102
RTVSPropertyOp10
 70
     1
102
RTVSPropertyOp11
 70
     1
102
RTVSPropertyOp12
 70
     1
102
RTVSPropertyOp13
 70
     1
102
RTVSPropertyOp14
 70
     1
102
RTVSPropertyOp15
 70
     1
102
RTVSPropertyOp16
 70
     1
102
RTVSPropertyOp17
 70
     1
102
RTVSPropertyOp18
 70
     1
102
RTVSPropertyOp19
 70
     1
102
RTVSPropertyOp20
 70
     1
102
RTVSPropertyOp21
 70
     1
102
RTVSPropertyOp22
 70
     1
102
RTVSPropertyOp23
 70
     1
102
RTVSPropertyOp24
 70
     1
102
RTVSPropertyOp25
 70
     1
102
RTVSPropertyOp26
 70
     1
102
RTVSPropertyOp27
 70
     1
102
RTVSPropertyOp28
 70
     1
102
RTVSPropertyOp29
 70
     1
102
RTVSPropertyOp30
 70
     1
102
RTVSPropertyOp31
 70
     1
102
RTVSPropertyOp32
 70
     1
102
RTVSPropertyOp33
 70
     1
102
RTVSPropertyOp34
 70
     1
102
RTVSPropertyOp35
 70
     1
102
RTVSPropertyOp36
 70
     1
102
RTVSPropertyOp37
 70
     1
102
RTVSPropertyOp38
 70
     1
102
RTVSPropertyOp39
 70
     1
102
RTVSPropertyOp40
 70
     1
102
RTVSPropertyOp41
 70
     1
102
RTVSPropertyOp42
 70
     1
102
RTVSPropertyOp43
 70
     1
102
RTVSPropertyOp44
 70
     1
102
RTVSPropertyOp45
 70
     1
102
RTVSPropertyOp46
 70
     1
102
RTVSPropertyOp47
 70
     1
102
RTVSPropertyOp48
 70
     1
102
RTVSPropertyOp49
 70
     1
102
RTVSPropertyOp50
 70
     1
102
RTVSPropertyOp51
 70
     0
102
RTVSPropertyOp52
 70
     0
102
RTVSPropertyOp53
 70
     1
102
RTVSPropertyOp54
 70
     1
102
RTVSPropertyOp55
 70
     1
102
RTVSPropertyOp56
 70
     1
102
RTVSPropertyOp57
 70
     1
102
RTVSPost2010Prop28
280
     0
102
RTVSPost2010PropOp28
 70
     1
102
RTVSPost2010Prop29
280
     1
102
RTVSPost2010PropOp29
 70
     1
102
RTVSPost2010Prop30
280
     1
102
RTVSPost2010PropOp30
 70
     1
102
RTVSPost2010Prop31
280
     0
102
RTVSPost2010PropOp31
 70
     1
102
RTVSPost2010Prop32
280
     0
102
RTVSPost2010PropOp32
 70
     1
102
RTVSPost2010Prop33
280
     0
102
RTVSPost2010PropOp33
 70
     1
102
RTVSPost2010Prop34
280
     0
102
RTVSPost2010PropOp34
 70
     1
102
RTVSPost2010Prop35
280
     0
102
RTVSPost2010PropOp35
 70
     1
102
RTVSPost2010Prop36
280
     0
102
RTVSPost2010PropOp36
 70
     1
102
RTVSPost2010Prop37
 90
       50
102
RTVSPost2010PropOp37
 70
     1
102
RTVSPost2010Prop38
140
0.0
102
RTVSPost2010PropOp38
 70
     1
102
RTVSPost2010Prop39
140
1.0
102
RTVSPost2010PropOp39
 70
     1
102
RTVSPost2010Prop40
 90
        0
102
RTVSPost2010PropOp40
 70
     1
102
RTVSPost2010Prop41ColorIndex
 90
       18
102
RTVSPost2010Prop41ColorRGB
 90
        0
102
RTVSPost2010PropOp41
 70
     1
102
RTVSPost2010Prop42
 90
       50
102
RTVSPost2010PropOp42
 70
     1
102
RTVSPost2010Prop43
 90
        3
102
RTVSPost2010PropOp43
 70
     1
102
RTVSPost2010Prop44ColorIndex
 90
        5
102
RTVSPost2010Prop44ColorRGB
 90
      255
102
RTVSPost2010PropOp44
 70
     1
102
RTVSPost2010Prop45
280
     0
102
RTVSPost2010PropOp45
 70
     1
102
RTVSPost2010Prop46
 90
       50
102
RTVSPost2010PropOp46
 70
     1
102
RTVSPost2010Prop47
 90
       50
102
RTVSPost2010PropOp47
 70
     1
102
RTVSPost2010Prop48
 90
       50
102
RTVSPost2010PropOp48
 70
     1
102
RTVSPost2010Prop49
280
     0
102
RTVSPost2010PropOp49
 70
     1
102
RTVSPost2010Prop50
 90
       50
102
RTVSPost2010PropOp50
 70
     1
102
RTVSPost2010Prop51ColorIndex
 90
      256
102
RTVSPost2010Prop51ColorRGB
 90
-16777216
102
RTVSPost2010PropOp51
 70
     0
102
RTVSPost2010Prop52
140
1.0
102
RTVSPost2010PropOp52
 70
     0
102
RTVSPost2010Prop53
 90
        2
102
RTVSPost2010PropOp53
 70
     1
102
RTVSPost2010Prop54
  1
strokes_ogs.tif
102
RTVSPost2010PropOp54
 70
     1
102
RTVSPost2010Prop55
280
     0
102
RTVSPost2010PropOp55
 70
     1
102
RTVSPost2010Prop56
140
1.0
102
RTVSPost2010PropOp56
 70
     1
102
RTVSPost2010Prop57
140
1.0
102
RTVSPost2010PropOp57
 70
     1
  0
ENDSEC
  0
EOF
