  0
SECTION
  2
HEADER
  9
$ACADVER
  1
AC1018
  9
$ACADMAINTVER
 70
     0
  9
$DWGCODEPAGE
  3
ANSI_932
  9
$INSBASE
 10
0.0
 20
0.0
 30
0.0
  9
$EXTMIN
 10
-2100.0
 20
-1485.0
 30
0.0
  9
$EXTMAX
 10
2100.0
 20
1485.0
 30
0.0
  9
$LIMMIN
 10
-2100.0
 20
-1485.0
  9
$LIMMAX
 10
2100.0
 20
1485.0
  9
$ORTHOMODE
 70
     0
  9
$REGENMODE
 70
     1
  9
$FILLMODE
 70
     1
  9
$QTEXTMODE
 70
     0
  9
$MIRRTEXT
 70
     1
  9
$LTSCALE
 40
10.0
  9
$ATTMODE
 70
     1
  9
$TEXTSIZE
 40
2.5
  9
$TRACEWID
 40
1.0
  9
$TEXTSTYLE
  7
Standard
  9
$CLAYER
  8
0
  9
$CELTYPE
  6
ByLayer
  9
$CECOLOR
 62
   256
  9
$CELTSCALE
 40
1.0
  9
$DISPSILH
 70
     0
  9
$DIMSCALE
 40
1.0
  9
$DIMASZ
 40
2.5
  9
$DIMEXO
 40
0.625
  9
$DIMDLI
 40
3.75
  9
$DIMRND
 40
0.0
  9
$DIMDLE
 40
0.0
  9
$DIMEXE
 40
1.25
  9
$DIMTP
 40
0.0
  9
$DIMTM
 40
0.0
  9
$DIMTXT
 40
2.5
  9
$DIMCEN
 40
2.5
  9
$DIMTSZ
 40
0.0
  9
$DIMTOL
 70
     0
  9
$DIMLIM
 70
     0
  9
$DIMTIH
 70
     0
  9
$DIMTOH
 70
     0
  9
$DIMSE1
 70
     0
  9
$DIMSE2
 70
     0
  9
$DIMTAD
 70
     1
  9
$DIMZIN
 70
     8
  9
$DIMBLK
  1

  9
$DIMASO
 70
     1
  9
$DIMSHO
 70
     1
  9
$DIMPOST
  1

  9
$DIMAPOST
  1

  9
$DIMALT
 70
     0
  9
$DIMALTD
 70
     3
  9
$DIMALTF
 40
0.03937007874016
  9
$DIMLFAC
 40
1.0
  9
$DIMTOFL
 70
     1
  9
$DIMTVP
 40
0.0
  9
$DIMTIX
 70
     0
  9
$DIMSOXD
 70
     0
  9
$DIMSAH
 70
     0
  9
$DIMBLK1
  1

  9
$DIMBLK2
  1

  9
$DIMSTYLE
  2
ISO-25
  9
$DIMCLRD
 70
     0
  9
$DIMCLRE
 70
     0
  9
$DIMCLRT
 70
     0
  9
$DIMTFAC
 40
1.0
  9
$DIMGAP
 40
0.625
  9
$DIMJUST
 70
     0
  9
$DIMSD1
 70
     0
  9
$DIMSD2
 70
     0
  9
$DIMTOLJ
 70
     0
  9
$DIMTZIN
 70
     8
  9
$DIMALTZ
 70
     0
  9
$DIMALTTZ
 70
     0
  9
$DIMUPT
 70
     0
  9
$DIMDEC
 70
     2
  9
$DIMTDEC
 70
     2
  9
$DIMALTU
 70
     2
  9
$DIMALTTD
 70
     3
  9
$DIMTXSTY
  7
Standard
  9
$DIMAUNIT
 70
     0
  9
$DIMADEC
 70
     0
  9
$DIMALTRND
 40
0.0
  9
$DIMAZIN
 70
     0
  9
$DIMDSEP
 70
    44
  9
$DIMATFIT
 70
     3
  9
$DIMFRAC
 70
     0
  9
$DIMLDRBLK
  1

  9
$DIMLUNIT
 70
     2
  9
$DIMLWD
 70
    -2
  9
$DIMLWE
 70
    -2
  9
$DIMTMOVE
 70
     0
  9
$LUNITS
 70
     2
  9
$LUPREC
 70
     4
  9
$SKETCHINC
 40
1.0
  9
$FILLETRAD
 40
10.0
  9
$AUNITS
 70
     0
  9
$AUPREC
 70
     0
  9
$MENU
  1
.
  9
$ELEVATION
 40
0.0
  9
$PELEVATION
 40
0.0
  9
$THICKNESS
 40
0.0
  9
$LIMCHECK
 70
     0
  9
$CHAMFERA
 40
0.0
  9
$CHAMFERB
 40
0.0
  9
$CHAMFERC
 40
0.0
  9
$CHAMFERD
 40
0.0
  9
$SKPOLY
 70
     0
  9
$TDCREATE
 40
2459950.598112951
  9
$TDUCREATE
 40
2459950.223112951
  9
$TDUPDATE
 40
2459950.598113114
  9
$TDUUPDATE
 40
2459950.223113114
  9
$TDINDWG
 40
0.0000000116
  9
$TDUSRTIMER
 40
0.0000000116
  9
$USRTIMER
 70
     1
  9
$ANGBASE
 50
0.0
  9
$ANGDIR
 70
     0
  9
$PDMODE
 70
     0
  9
$PDSIZE
 40
0.0
  9
$PLINEWID
 40
0.0
  9
$SPLFRAME
 70
     0
  9
$SPLINETYPE
 70
     6
  9
$SPLINESEGS
 70
     8
  9
$HANDSEED
  5
47A
  9
$SURFTAB1
 70
     6
  9
$SURFTAB2
 70
     6
  9
$SURFTYPE
 70
     6
  9
$SURFU
 70
     6
  9
$SURFV
 70
     6
  9
$UCSBASE
  2

  9
$UCSNAME
  2

  9
$UCSORG
 10
0.0
 20
0.0
 30
0.0
  9
$UCSXDIR
 10
1.0
 20
0.0
 30
0.0
  9
$UCSYDIR
 10
0.0
 20
1.0
 30
0.0
  9
$UCSORTHOREF
  2

  9
$UCSORTHOVIEW
 70
     0
  9
$UCSORGTOP
 10
0.0
 20
0.0
 30
0.0
  9
$UCSORGBOTTOM
 10
0.0
 20
0.0
 30
0.0
  9
$UCSORGLEFT
 10
0.0
 20
0.0
 30
0.0
  9
$UCSORGRIGHT
 10
0.0
 20
0.0
 30
0.0
  9
$UCSORGFRONT
 10
0.0
 20
0.0
 30
0.0
  9
$UCSORGBACK
 10
0.0
 20
0.0
 30
0.0
  9
$PUCSBASE
  2

  9
$PUCSNAME
  2

  9
$PUCSORG
 10
0.0
 20
0.0
 30
0.0
  9
$PUCSXDIR
 10
1.0
 20
0.0
 30
0.0
  9
$PUCSYDIR
 10
0.0
 20
1.0
 30
0.0
  9
$PUCSORTHOREF
  2

  9
$PUCSORTHOVIEW
 70
     0
  9
$PUCSORGTOP
 10
0.0
 20
0.0
 30
0.0
  9
$PUCSORGBOTTOM
 10
0.0
 20
0.0
 30
0.0
  9
$PUCSORGLEFT
 10
0.0
 20
0.0
 30
0.0
  9
$PUCSORGRIGHT
 10
0.0
 20
0.0
 30
0.0
  9
$PUCSORGFRONT
 10
0.0
 20
0.0
 30
0.0
  9
$PUCSORGBACK
 10
0.0
 20
0.0
 30
0.0
  9
$USERI1
 70
     0
  9
$USERI2
 70
     0
  9
$USERI3
 70
     0
  9
$USERI4
 70
     0
  9
$USERI5
 70
     0
  9
$USERR1
 40
0.0
  9
$USERR2
 40
0.0
  9
$USERR3
 40
0.0
  9
$USERR4
 40
0.0
  9
$USERR5
 40
0.0
  9
$WORLDVIEW
 70
     1
  9
$SHADEDGE
 70
     3
  9
$SHADEDIF
 70
    70
  9
$TILEMODE
 70
     1
  9
$MAXACTVP
 70
    64
  9
$PINSBASE
 10
0.0
 20
0.0
 30
0.0
  9
$PLIMCHECK
 70
     0
  9
$PEXTMIN
 10
1.000000000000000E+20
 20
1.000000000000000E+20
 30
1.000000000000000E+20
  9
$PEXTMAX
 10
-1.000000000000000E+20
 20
-1.000000000000000E+20
 30
-1.000000000000000E+20
  9
$PLIMMIN
 10
0.0
 20
0.0
  9
$PLIMMAX
 10
420.0
 20
297.0
  9
$UNITMODE
 70
     0
  9
$VISRETAIN
 70
     1
  9
$PLINEGEN
 70
     0
  9
$PSLTSCALE
 70
     1
  9
$TREEDEPTH
 70
  3020
  9
$CMLSTYLE
  2
Standard
  9
$CMLJUST
 70
     0
  9
$CMLSCALE
 40
20.0
  9
$PROXYGRAPHICS
 70
     1
  9
$MEASUREMENT
 70
     1
  9
$CELWEIGHT
370
    -1
  9
$ENDCAPS
280
     0
  9
$JOINSTYLE
280
     0
  9
$LWDISPLAY
290
     0
  9
$INSUNITS
 70
     4
  9
$HYPERLINKBASE
  1

  9
$STYLESHEET
  1

  9
$XEDIT
290
     1
  9
$CEPSNTYPE
380
     0
  9
$PSTYLEMODE
290
     1
  9
$FINGERPRINTGUID
  2
{F76FFA67-89BE-4208-BEF5-98FF4B1C7C30}
  9
$VERSIONGUID
  2
{FAEB1C32-E019-11D5-929B-00C0DF256EC4}
  9
$EXTNAMES
290
     1
  9
$PSVPSCALE
 40
0.0
  9
$OLESTARTUP
290
     0
  9
$SORTENTS
280
   127
  9
$INDEXCTL
280
     0
  9
$HIDETEXT
280
     1
  9
$XCLIPFRAME
290
     0
  9
$HALOGAP
280
     0
  9
$OBSCOLOR
 70
   257
  9
$OBSLTYPE
280
     0
  9
$INTERSECTIONDISPLAY
280
     0
  9
$INTERSECTIONCOLOR
 70
   257
  9
$DIMASSOC
280
     2
  9
$PROJECTNAME
  1

  0
ENDSEC
  0
SECTION
  2
CLASSES
  0
CLASS
  1
ACDBDICTIONARYWDFLT
  2
AcDbDictionaryWithDefault
  3
ObjectDBX Classes
 90
        0
 91
        4
280
     0
281
     0
  0
CLASS
  1
VISUALSTYLE
  2
AcDbVisualStyle
  3
ObjectDBX Classes
 90
     4095
 91
        4
280
     0
281
     0
  0
CLASS
  1
MATERIAL
  2
AcDbMaterial
  3
ObjectDBX Classes
 90
     1153
 91
        4
280
     0
281
     0
  0
CLASS
  1
SCALE
  2
AcDbScale
  3
ObjectDBX Classes
 90
     1153
 91
        4
280
     0
281
     0
  0
CLASS
  1
TABLESTYLE
  2
AcDbTableStyle
  3
ObjectDBX Classes
 90
     4095
 91
        4
280
     0
281
     0
  0
CLASS
  1
MLEADERSTYLE
  2
AcDbMLeaderStyle
  3
ACDB_MLEADERSTYLE_CLASS
 90
     4095
 91
        4
280
     0
281
     0
  0
CLASS
  1
SUN
  2
AcDbSun
  3
SCENEOE
 90
     1153
 91
        4
280
     0
281
     0
  0
CLASS
  1
DICTIONARYVAR
  2
AcDbDictionaryVar
  3
ObjectDBX Classes
 90
        0
 91
        4
280
     0
281
     0
  0
CLASS
  1
CELLSTYLEMAP
  2
AcDbCellStyleMap
  3
ObjectDBX Classes
 90
     1152
 91
        4
280
     0
281
     0
  0
ENDSEC
  0
SECTION
  2
TABLES
  0
TABLE
  2
VPORT
  5
8
102
{ACAD_XDICTIONARY
360
431
102
}
330
0
100
AcDbSymbolTable
 70
     1
  0
VPORT
  5
29
330
8
100
AcDbSymbolTableRecord
100
AcDbViewportTableRecord
  2
*Active
 70
     0
 10
0.0
 20
0.0
 11
1.0
 21
1.0
 12
0.0
 22
0.0
 13
0.0
 23
0.0
 14
10.0
 24
10.0
 15
10.0
 25
10.0
 16
0.0
 26
0.0
 36
1.0
 17
0.0
 27
0.0
 37
0.0
 40
3267.0
 41
1.414141414141414
 42
50.0
 43
0.0
 44
0.0
 50
0.0
 51
0.0
 71
     0
 72
 10000
 73
     1
 74
     3
 75
     0
 76
     0
 77
     0
 78
     0
281
     0
 65
     1
110
0.0
120
0.0
130
0.0
111
1.0
121
0.0
131
0.0
112
0.0
122
1.0
132
0.0
 79
     0
146
0.0
  0
ENDTAB
  0
TABLE
  2
LTYPE
  5
5
330
0
100
AcDbSymbolTable
 70
     5
  0
LTYPE
  5
14
330
5
100
AcDbSymbolTableRecord
100
AcDbLinetypeTableRecord
  2
ByBlock
 70
     0
  3

 72
    65
 73
     0
 40
0.0
  0
LTYPE
  5
15
330
5
100
AcDbSymbolTableRecord
100
AcDbLinetypeTableRecord
  2
ByLayer
 70
     0
  3

 72
    65
 73
     0
 40
0.0
  0
LTYPE
  5
16
330
5
100
AcDbSymbolTableRecord
100
AcDbLinetypeTableRecord
  2
Continuous
 70
     0
  3
Solid line
 72
    65
 73
     0
 40
0.0
  0
LTYPE
  5
6F
330
5
100
AcDbSymbolTableRecord
100
AcDbLinetypeTableRecord
  2
JWW_DASHED3
 70
     0
  3
---  ------  ------  ------  ---
 72
    65
 73
     2
 40
3.386666666666667
 49
2.54
 74
     0
 49
-0.8466666666666667
 74
     0
  0
LTYPE
  5
70
330
5
100
AcDbSymbolTableRecord
100
AcDbLinetypeTableRecord
  2
JWW_DASHED2
 70
     0
  3
--    ----    ----    ----    --
 72
    65
 73
     2
 40
3.386666666666667
 49
1.693333333333333
 74
     0
 49
-1.693333333333333
 74
     0
  0
LTYPE
  5
71
330
5
100
AcDbSymbolTableRecord
100
AcDbLinetypeTableRecord
  2
JWW_CENTER1
 70
     0
  3
-----  --  ----------  --  -----
 72
    65
 73
     4
 40
6.773333333333333
 49
4.233333333333333
 74
     0
 49
-0.8466666666666667
 74
     0
 49
0.8466666666666667
 74
     0
 49
-0.8466666666666667
 74
     0
  0
LTYPE
  5
72
330
5
100
AcDbSymbolTableRecord
100
AcDbLinetypeTableRecord
  2
JWW_CENTER2
 70
     0
  3
-------------  --  -------------
 72
    65
 73
     4
 40
13.54666666666667
 49
11.00666666666667
 74
     0
 49
-0.8466666666666667
 74
     0
 49
0.8466666666666667
 74
     0
 49
-0.8466666666666667
 74
     0
  0
ENDTAB
  0
TABLE
  2
LAYER
  5
2
330
0
100
AcDbSymbolTable
 70
    15
  0
LAYER
  5
10
330
2
100
AcDbSymbolTableRecord
100
AcDbLayerTableRecord
  2
0
 70
     0
 62
     7
  6
Continuous
370
    -3
390
F
  0
LAYER
  5
73
330
2
100
AcDbSymbolTableRecord
100
AcDbLayerTableRecord
  2
C-4
 70
     0
 62
     7
  6
Continuous
370
    -3
390
F
  0
LAYER
  5
74
330
2
100
AcDbSymbolTableRecord
100
AcDbLayerTableRecord
  2
C-2
 70
     0
 62
     7
  6
Continuous
370
    -3
390
F
  0
LAYER
  5
75
330
2
100
AcDbSymbolTableRecord
100
AcDbLayerTableRecord
  2
C-5
 70
     0
 62
     7
  6
Continuous
370
    -3
390
F
  0
LAYER
  5
76
330
2
100
AcDbSymbolTableRecord
100
AcDbLayerTableRecord
  2
C-9
 70
     0
 62
     7
  6
Continuous
370
    -3
390
F
  0
LAYER
  5
77
330
2
100
AcDbSymbolTableRecord
100
AcDbLayerTableRecord
  2
D-1
 70
     0
 62
     7
  6
Continuous
370
    -3
390
F
  0
LAYER
  5
78
330
2
100
AcDbSymbolTableRecord
100
AcDbLayerTableRecord
  2
D-4
 70
     0
 62
     7
  6
Continuous
370
    -3
390
F
  0
LAYER
  5
79
330
2
100
AcDbSymbolTableRecord
100
AcDbLayerTableRecord
  2
D-6
 70
     0
 62
     7
  6
Continuous
370
    -3
390
F
  0
LAYER
  5
7A
330
2
100
AcDbSymbolTableRecord
100
AcDbLayerTableRecord
  2
D-5
 70
     0
 62
     7
  6
Continuous
370
    -3
390
F
  0
LAYER
  5
7B
330
2
100
AcDbSymbolTableRecord
100
AcDbLayerTableRecord
  2
D-0
 70
     0
 62
     7
  6
Continuous
370
    -3
390
F
  0
LAYER
  5
7C
330
2
100
AcDbSymbolTableRecord
100
AcDbLayerTableRecord
  2
D-9
 70
     0
 62
     7
  6
Continuous
370
    -3
390
F
  0
LAYER
  5
7D
330
2
100
AcDbSymbolTableRecord
100
AcDbLayerTableRecord
  2
D-2
 70
     0
 62
     7
  6
Continuous
370
    -3
390
F
  0
LAYER
  5
7E
330
2
100
AcDbSymbolTableRecord
100
AcDbLayerTableRecord
  2
F-5ﾚｲﾔ
 70
     0
 62
     7
  6
Continuous
370
    -3
390
F
  0
LAYER
  5
7F
330
2
100
AcDbSymbolTableRecord
100
AcDbLayerTableRecord
  2
C-1
 70
     0
 62
     7
  6
Continuous
370
    -3
390
F
  0
LAYER
  5
80
330
2
100
AcDbSymbolTableRecord
100
AcDbLayerTableRecord
  2
C-A
 70
     0
 62
     7
  6
Continuous
370
    -3
390
F
  0
ENDTAB
  0
TABLE
  2
STYLE
  5
3
330
0
100
AcDbSymbolTable
 70
     2
  0
STYLE
  5
11
330
3
100
AcDbSymbolTableRecord
100
AcDbTextStyleTableRecord
  2
Standard
 70
     0
 40
0.0
 41
1.0
 50
0.0
 71
     0
 42
2.5
  3
txt
  4

  0
STYLE
  5
6E
330
3
100
AcDbSymbolTableRecord
100
AcDbTextStyleTableRecord
  2
ＭＳ ゴシック
 70
     0
 40
1.0
 41
1.0
 50
0.0
 71
     0
 42
2.5
  3

  4

1001
ACAD
1000
MS Gothic
1071
    32817
  0
ENDTAB
  0
TABLE
  2
VIEW
  5
6
330
0
100
AcDbSymbolTable
 70
     0
  0
ENDTAB
  0
TABLE
  2
UCS
  5
7
330
0
100
AcDbSymbolTable
 70
     0
  0
ENDTAB
  0
TABLE
  2
APPID
  5
9
330
0
100
AcDbSymbolTable
 70
     2
  0
APPID
  5
12
330
9
100
AcDbSymbolTableRecord
100
AcDbRegAppTableRecord
  2
ACAD
 70
     0
  0
APPID
  5
470
330
9
100
AcDbSymbolTableRecord
100
AcDbRegAppTableRecord
  2
ACAD_MLEADERVER
 70
     0
  0
ENDTAB
  0
TABLE
  2
DIMSTYLE
  5
A
330
0
100
AcDbSymbolTable
 70
     1
100
AcDbDimStyleTable
  0
DIMSTYLE
105
27
330
A
100
AcDbSymbolTableRecord
100
AcDbDimStyleTableRecord
  2
ISO-25
 70
     0
 41
2.5
 42
0.625
 43
3.75
 44
1.25
 73
     0
 74
     0
 77
     1
 78
     8
140
2.5
141
2.5
143
0.03937007874016
147
0.625
171
     3
172
     1
178
     0
271
     2
272
     2
274
     3
278
    44
283
     0
284
     8
340
11
  0
ENDTAB
  0
TABLE
  2
BLOCK_RECORD
  5
1
330
0
100
AcDbSymbolTable
 70
     1
  0
BLOCK_RECORD
  5
1F
330
1
100
AcDbSymbolTableRecord
100
AcDbBlockTableRecord
  2
*Model_Space
340
22
  0
BLOCK_RECORD
  5
1B
330
1
100
AcDbSymbolTableRecord
100
AcDbBlockTableRecord
  2
*Paper_Space
340
1E
  0
BLOCK_RECORD
  5
23
330
1
100
AcDbSymbolTableRecord
100
AcDbBlockTableRecord
  2
*Paper_Space0
340
26
  0
ENDTAB
  0
ENDSEC
  0
SECTION
  2
BLOCKS
  0
BLOCK
  5
20
330
1F
100
AcDbEntity
  8
0
100
AcDbBlockBegin
  2
*Model_Space
 70
     0
 10
0.0
 20
0.0
 30
0.0
  3
*Model_Space
  1

  0
ENDBLK
  5
21
330
1F
100
AcDbEntity
  8
0
100
AcDbBlockEnd
  0
BLOCK
  5
1C
330
1B
100
AcDbEntity
 67
     1
  8
0
100
AcDbBlockBegin
  2
*Paper_Space
 70
     0
 10
0.0
 20
0.0
 30
0.0
  3
*Paper_Space
  1

  0
ENDBLK
  5
1D
330
1B
100
AcDbEntity
 67
     1
  8
0
100
AcDbBlockEnd
  0
BLOCK
  5
24
330
23
100
AcDbEntity
  8
0
100
AcDbBlockBegin
  2
*Paper_Space0
 70
     0
 10
0.0
 20
0.0
 30
0.0
  3
*Paper_Space0
  1

  0
ENDBLK
  5
25
330
23
100
AcDbEntity
  8
0
100
AcDbBlockEnd
  0
ENDSEC
  0
SECTION
  2
ENTITIES
  0
LWPOLYLINE
  5
81
330
1F
100
AcDbEntity
  8
C-4
  6
Continuous
 62
     7
370
     9
100
AcDbPolyline
 90
        4
 70
     1
 43
2.0
 10
793.3290355785473
 20
951.1002329233531
 42
0.4142135623731
 10
792.3290355785474
 20
952.1002329233531
 42
0.4142135623731
 10
791.3290355785475
 20
951.1002329233531
 42
0.4142135623731
 10
792.3290355785474
 20
950.1002329233531
 42
0.4142135623731
  0
LWPOLYLINE
  5
82
330
1F
100
AcDbEntity
  8
C-4
  6
Continuous
 62
     7
370
     9
100
AcDbPolyline
 90
        4
 70
     1
 43
2.0
 10
833.3284252269848
 20
951.1002329233531
 42
0.4142135623731
 10
832.3284252269849
 20
952.1002329233531
 42
0.4142135623731
 10
831.328425226985
 20
951.1002329233531
 42
0.4142135623731
 10
832.3284252269849
 20
950.1002329233531
 42
0.4142135623731
  0
LINE
  5
83
330
1F
100
AcDbEntity
  8
C-2
  6
Continuous
 62
     3
370
     9
100
AcDbLine
 10
-760.2969607791385
 20
927.7030656144427
 30
0.0
 11
-760.2969607791385
 21
822.7032140783359
 31
0.0
  0
LINE
  5
84
330
1F
100
AcDbEntity
  8
C-2
  6
Continuous
 62
     3
370
     9
100
AcDbLine
 10
832.3284252269849
 20
663.6627527185391
 30
0.0
 11
832.3284252269849
 21
893.6617794552367
 31
0.0
  0
LINE
  5
85
330
1F
100
AcDbEntity
  8
C-2
  6
Continuous
 62
     3
370
     9
100
AcDbLine
 10
792.3290355785474
 20
680.8709551836995
 30
0.0
 11
792.3290355785474
 21
910.8709716796875
 31
0.0
  0
LINE
  5
86
330
1F
100
AcDbEntity
  8
C-5
  6
Continuous
 62
     7
370
     9
100
AcDbLine
 10
920.6456364812078
 20
882.769478462838
 30
0.0
 11
828.6717595280828
 21
799.63885333087
 31
0.0
  0
LINE
  5
87
330
1F
100
AcDbEntity
  8
C-5
  6
Continuous
 62
     7
370
     9
100
AcDbLine
 10
828.6717595280828
 20
799.63885333087
 30
0.0
 11
844.8706549567146
 21
818.6795951224665
 31
0.0
  0
LINE
  5
88
330
1F
100
AcDbEntity
  8
C-5
  6
Continuous
 62
     7
370
     9
100
AcDbLine
 10
828.6717595280828
 20
799.63885333087
 30
0.0
 11
849.2476179793078
 21
813.8379401129646
 31
0.0
  0
LINE
  5
89
330
1F
100
AcDbEntity
  8
C-5
  6
Continuous
 62
     7
370
     9
100
AcDbLine
 10
594.7025608372047
 20
602.7027356946792
 30
0.0
 11
1032.736618454392
 21
602.7027356946792
 31
0.0
  0
LINE
  5
8A
330
1F
100
AcDbEntity
  8
C-9
  6
Continuous
 62
     6
370
     9
100
AcDbLine
 10
797.5188384184969
 20
680.2620057801943
 30
0.0
 11
792.3290355785474
 21
684.61669921875
 31
0.0
  0
LINE
  5
8B
330
1F
100
AcDbEntity
  8
C-9
  6
Continuous
 62
     6
370
     9
100
AcDbLine
 10
830.9489482157943
 20
664.2108319256758
 30
0.0
 11
792.3290355785474
 21
696.6170357369089
 31
0.0
  0
LINE
  5
8C
330
1F
100
AcDbEntity
  8
C-9
  6
Continuous
 62
     6
370
     9
100
AcDbLine
 10
796.8616382495776
 20
910.4117233688769
 30
0.0
 11
792.3290355785474
 21
907.7945523648651
 31
0.0
  0
LINE
  5
8D
330
1F
100
AcDbEntity
  8
C-9
  6
Continuous
 62
     6
370
     9
100
AcDbLine
 10
809.1076825116136
 20
905.4817323426943
 30
0.0
 11
792.3290355785474
 21
895.794463286529
 31
0.0
  0
LINE
  5
8E
330
1F
100
AcDbEntity
  8
C-9
  6
Continuous
 62
     6
370
     9
100
AcDbLine
 10
818.4987661000844
 20
898.9035446579394
 30
0.0
 11
792.3290355785474
 21
883.7946216480154
 31
0.0
  0
LINE
  5
8F
330
1F
100
AcDbEntity
  8
C-9
  6
Continuous
 62
     6
370
     9
100
AcDbLine
 10
831.1033506651182
 20
894.1811556429477
 30
0.0
 11
792.3290355785474
 21
871.7945325696792
 31
0.0
  0
LINE
  5
90
330
1F
100
AcDbEntity
  8
C-9
  6
Continuous
 62
     6
370
     9
100
AcDbLine
 10
832.3284252269849
 20
891.0532688450169
 30
0.0
 11
827.6114798880911
 21
895.0115636877113
 31
0.0
  0
LINE
  5
91
330
1F
100
AcDbEntity
  8
C-9
  6
Continuous
 62
     6
370
     9
100
AcDbLine
 10
832.3284252269849
 20
879.0529323268584
 30
0.0
 11
794.4129737647808
 21
910.8684972814613
 31
0.0
  0
LINE
  5
92
330
1F
100
AcDbEntity
  8
C-9
  6
Continuous
 62
     6
370
     9
100
AcDbLine
 10
832.3284252269849
 20
666.8888731260557
 30
0.0
 11
828.6074251741979
 21
664.7406005859375
 31
0.0
  0
LINE
  5
93
330
1F
100
AcDbEntity
  8
C-9
  6
Continuous
 62
     6
370
     9
100
AcDbLine
 10
832.3284252269849
 20
678.8887147645693
 30
0.0
 11
816.8250831397808
 21
669.9380740603885
 31
0.0
  0
LINE
  5
94
330
1F
100
AcDbEntity
  8
C-9
  6
Continuous
 62
     6
370
     9
100
AcDbLine
 10
832.3284252269849
 20
690.8883089632602
 30
0.0
 11
807.3775832717484
 21
676.4831048089106
 31
0.0
  0
LINE
  5
95
330
1F
100
AcDbEntity
  8
C-9
  6
Continuous
 62
     6
370
     9
100
AcDbLine
 10
832.3284252269849
 20
702.888645481419
 30
0.0
 11
794.2348170924834
 21
680.8952042863177
 31
0.0
  0
LINE
  5
96
330
1F
100
AcDbEntity
  8
C-9
  6
Continuous
 62
     6
370
     9
100
AcDbLine
 10
832.3284252269849
 20
675.0531500739021
 30
0.0
 11
792.3290355785474
 21
708.6166299355998
 31
0.0
  0
LINE
  5
97
330
1F
100
AcDbEntity
  8
C-9
  6
Continuous
 62
     6
370
     9
100
AcDbLine
 10
832.3284252269849
 20
687.053486592061
 30
0.0
 11
792.3290355785474
 21
720.6169664537586
 31
0.0
  0
LINE
  5
98
330
1F
100
AcDbEntity
  8
C-9
  6
Continuous
 62
     6
370
     9
100
AcDbLine
 10
832.3284252269849
 20
699.0530807907519
 30
0.0
 11
792.3290355785474
 21
732.6168080922721
 31
0.0
  0
LINE
  5
99
330
1F
100
AcDbEntity
  8
C-9
  6
Continuous
 62
     6
370
     9
100
AcDbLine
 10
832.3284252269849
 20
711.0534173089106
 30
0.0
 11
792.3290355785474
 21
744.6168971706084
 31
0.0
  0
LINE
  5
9A
330
1F
100
AcDbEntity
  8
C-9
  6
Continuous
 62
     6
370
     9
100
AcDbLine
 10
832.3284252269849
 20
867.0533381281675
 30
0.0
 11
792.3290355785474
 21
900.6168179898651
 31
0.0
  0
LINE
  5
9B
330
1F
100
AcDbEntity
  8
C-9
  6
Continuous
 62
     6
370
     9
100
AcDbLine
 10
832.3284252269849
 20
855.0530016100086
 30
0.0
 11
792.3290355785474
 21
888.6169763513516
 31
0.0
  0
LINE
  5
9C
330
1F
100
AcDbEntity
  8
C-9
  6
Continuous
 62
     6
370
     9
100
AcDbLine
 10
832.3284252269849
 20
843.0534074113177
 30
0.0
 11
792.3290355785474
 21
876.6168872730154
 31
0.0
  0
LINE
  5
9D
330
1F
100
AcDbEntity
  8
C-9
  6
Continuous
 62
     6
370
     9
100
AcDbLine
 10
832.3284252269849
 20
831.0535657728042
 30
0.0
 11
792.3290355785474
 21
864.6170456345019
 31
0.0
  0
LINE
  5
9E
330
1F
100
AcDbEntity
  8
C-9
  6
Continuous
 62
     6
370
     9
100
AcDbLine
 10
832.3284252269849
 20
819.0532292546453
 30
0.0
 11
792.3290355785474
 21
852.6167091163429
 31
0.0
  0
LINE
  5
9F
330
1F
100
AcDbEntity
  8
C-9
  6
Continuous
 62
     6
370
     9
100
AcDbLine
 10
832.3284252269849
 20
807.0533876161318
 30
0.0
 11
792.3290355785474
 21
840.6171149176521
 31
0.0
  0
LINE
  5
A0
330
1F
100
AcDbEntity
  8
C-9
  6
Continuous
 62
     6
370
     9
100
AcDbLine
 10
832.3284252269849
 20
795.0532985377959
 30
0.0
 11
792.3290355785474
 21
828.6167783994936
 31
0.0
  0
LINE
  5
A1
330
1F
100
AcDbEntity
  8
C-9
  6
Continuous
 62
     6
370
     9
100
AcDbLine
 10
832.3284252269849
 20
783.0534568992823
 30
0.0
 11
792.3290355785474
 21
816.61693676098
 31
0.0
  0
LINE
  5
A2
330
1F
100
AcDbEntity
  8
C-9
  6
Continuous
 62
     6
370
     9
100
AcDbLine
 10
832.3284252269849
 20
771.0531203811234
 30
0.0
 11
792.3290355785474
 21
804.6168476826438
 31
0.0
  0
LINE
  5
A3
330
1F
100
AcDbEntity
  8
C-9
  6
Continuous
 62
     6
370
     9
100
AcDbLine
 10
832.3284252269849
 20
759.0530313027873
 30
0.0
 11
792.3290355785474
 21
792.6165111644849
 31
0.0
  0
LINE
  5
A4
330
1F
100
AcDbEntity
  8
C-9
  6
Continuous
 62
     6
370
     9
100
AcDbLine
 10
832.3284252269849
 20
747.0531896642738
 30
0.0
 11
792.3290355785474
 21
780.6166695259714
 31
0.0
  0
LINE
  5
A5
330
1F
100
AcDbEntity
  8
C-9
  6
Continuous
 62
     6
370
     9
100
AcDbLine
 10
832.3284252269849
 20
735.0533480257602
 30
0.0
 11
792.3290355785474
 21
768.6170753272804
 31
0.0
  0
LINE
  5
A6
330
1F
100
AcDbEntity
  8
C-9
  6
Continuous
 62
     6
370
     9
100
AcDbLine
 10
832.3284252269849
 20
723.0532589474242
 30
0.0
 11
792.3290355785474
 21
756.6167388091217
 31
0.0
  0
LINE
  5
A7
330
1F
100
AcDbEntity
  8
C-9
  6
Continuous
 62
     6
370
     9
100
AcDbLine
 10
832.3284252269849
 20
714.8884871199325
 30
0.0
 11
792.3290355785474
 21
691.7946810335727
 31
0.0
  0
LINE
  5
A8
330
1F
100
AcDbEntity
  8
C-9
  6
Continuous
 62
     6
370
     9
100
AcDbLine
 10
832.3284252269849
 20
726.8885761982688
 30
0.0
 11
792.3290355785474
 21
703.7947701119089
 31
0.0
  0
LINE
  5
A9
330
1F
100
AcDbEntity
  8
C-9
  6
Continuous
 62
     6
370
     9
100
AcDbLine
 10
832.3284252269849
 20
738.8884178367823
 30
0.0
 11
792.3290355785474
 21
715.7951066300677
 31
0.0
  0
LINE
  5
AA
330
1F
100
AcDbEntity
  8
C-9
  6
Continuous
 62
     6
370
     9
100
AcDbLine
 10
832.3284252269849
 20
750.8882594752959
 30
0.0
 11
792.3290355785474
 21
727.794453388936
 31
0.0
  0
LINE
  5
AB
330
1F
100
AcDbEntity
  8
C-9
  6
Continuous
 62
     6
370
     9
100
AcDbLine
 10
832.3284252269849
 20
882.8884970175255
 30
0.0
 11
792.3290355785474
 21
859.7946909311656
 31
0.0
  0
LINE
  5
AC
330
1F
100
AcDbEntity
  8
C-9
  6
Continuous
 62
     6
370
     9
100
AcDbLine
 10
832.3284252269849
 20
762.8883485536318
 30
0.0
 11
792.3290355785474
 21
739.7945424672721
 31
0.0
  0
LINE
  5
AD
330
1F
100
AcDbEntity
  8
C-9
  6
Continuous
 62
     6
370
     9
100
AcDbLine
 10
832.3284252269849
 20
774.8886850717906
 30
0.0
 11
792.3290355785474
 21
751.7948789854307
 31
0.0
  0
LINE
  5
AE
330
1F
100
AcDbEntity
  8
C-9
  6
Continuous
 62
     6
370
     9
100
AcDbLine
 10
832.3284252269849
 20
786.8885267103042
 30
0.0
 11
792.3290355785474
 21
763.7947206239443
 31
0.0
  0
LINE
  5
AF
330
1F
100
AcDbEntity
  8
C-9
  6
Continuous
 62
     6
370
     9
100
AcDbLine
 10
832.3284252269849
 20
798.888120908995
 30
0.0
 11
792.3290355785474
 21
775.7943148226352
 31
0.0
  0
LINE
  5
B0
330
1F
100
AcDbEntity
  8
C-9
  6
Continuous
 62
     6
370
     9
100
AcDbLine
 10
832.3284252269849
 20
810.888457427154
 30
0.0
 11
792.3290355785474
 21
787.794651340794
 31
0.0
  0
LINE
  5
B1
330
1F
100
AcDbEntity
  8
C-9
  6
Continuous
 62
     6
370
     9
100
AcDbLine
 10
832.3284252269849
 20
822.8880516258448
 30
0.0
 11
792.3290355785474
 21
799.7949878589529
 31
0.0
  0
LINE
  5
B2
330
1F
100
AcDbEntity
  8
C-9
  6
Continuous
 62
     6
370
     9
100
AcDbLine
 10
832.3284252269849
 20
834.8878932643584
 30
0.0
 11
792.3290355785474
 21
811.7945820576438
 31
0.0
  0
LINE
  5
B3
330
1F
100
AcDbEntity
  8
C-9
  6
Continuous
 62
     6
370
     9
100
AcDbLine
 10
832.3284252269849
 20
846.8882297825169
 30
0.0
 11
792.3290355785474
 21
823.7944236961573
 31
0.0
  0
LINE
  5
B4
330
1F
100
AcDbEntity
  8
C-9
  6
Continuous
 62
     6
370
     9
100
AcDbLine
 10
832.3284252269849
 20
858.8885663006758
 30
0.0
 11
792.3290355785474
 21
835.7945127744936
 31
0.0
  0
LINE
  5
B5
330
1F
100
AcDbEntity
  8
C-9
  6
Continuous
 62
     6
370
     9
100
AcDbLine
 10
832.3284252269849
 20
870.8881604993667
 30
0.0
 11
792.3290355785474
 21
847.7948492926521
 31
0.0
  0
LINE
  5
B6
330
1F
100
AcDbEntity
  8
C-4
  6
Continuous
 62
     7
370
     9
100
AcDbLine
 10
792.3290355785474
 20
951.1002329233531
 30
0.0
 11
832.3284252269849
 21
951.1002329233531
 31
0.0
  0
LINE
  5
B7
330
1F
100
AcDbEntity
  8
C-4
  6
Continuous
 62
     7
370
     9
100
AcDbLine
 10
792.3290355785474
 20
925.8712686074748
 30
0.0
 11
792.3290355785474
 21
954.1001933329815
 31
0.0
  0
LINE
  5
B8
330
1F
100
AcDbEntity
  8
C-4
  6
Continuous
 62
     7
370
     9
100
AcDbLine
 10
832.3284252269849
 20
908.661828943201
 30
0.0
 11
832.3284252269849
 21
954.1001933329815
 31
0.0
  0
ARC
  5
B9
330
1F
100
AcDbEntity
  8
C-2
  6
Continuous
 62
     3
370
     9
100
AcDbCircle
 10
788.3615854624156
 20
641.6198235589106
 30
0.0
 40
39.7122589317528
100
AcDbArc
 50
50.82627868652344
 51
129.1737060546875
  0
ARC
  5
BA
330
1F
100
AcDbEntity
  8
C-2
  6
Continuous
 62
     3
370
     9
100
AcDbCircle
 10
838.5324838999156
 20
703.1922541437925
 30
0.0
 40
39.7122589317528
100
AcDbArc
 50
230.8262786865234
 51
309.1737060546875
  0
ARC
  5
BB
330
1F
100
AcDbEntity
  8
C-2
  6
Continuous
 62
     3
370
     9
100
AcDbCircle
 10
838.5324838999156
 20
933.1922706397804
 30
0.0
 40
39.7122589317528
100
AcDbArc
 50
230.8262786865234
 51
309.1737060546875
  0
ARC
  5
BC
330
1F
100
AcDbEntity
  8
C-2
  6
Continuous
 62
     3
370
     9
100
AcDbCircle
 10
788.3615854624156
 20
871.619592615076
 30
0.0
 40
39.7122589317528
100
AcDbArc
 50
50.82627868652344
 51
129.1737060546875
  0
TEXT
  5
BD
330
1F
100
AcDbEntity
  8
C-5
  6
Continuous
 62
     7
370
     9
100
AcDbText
 10
591.1411594700172
 20
613.6336535314613
 30
0.0
 40
22.86
  1
メインバー表面　Ｓ＝１：１
 41
1.153846153846154
  7
ＭＳ ゴシック
100
AcDbText
  0
TEXT
  5
BE
330
1F
100
AcDbEntity
  8
C-4
  6
Continuous
 62
     2
370
     9
100
AcDbText
 10
802.3285736908787
 20
961.7400019795188
 30
0.0
 40
30.48
  1
4
 41
0.9999999999999998
  7
ＭＳ ゴシック
100
AcDbText
  0
LINE
  5
BF
330
1F
100
AcDbEntity
  8
D-1
  6
Continuous
 62
     2
370
     9
100
AcDbLine
 10
-946.6725741188986
 20
-300.5635226895949
 30
0.0
 11
-941.6723029177649
 21
-300.5635226895949
 31
0.0
  0
LINE
  5
C0
330
1F
100
AcDbEntity
  8
D-1
  6
Continuous
 62
     2
370
     9
100
AcDbLine
 10
-941.6723029177649
 20
-185.5642284085891
 30
0.0
 11
-941.6723029177649
 21
-285.5637038877151
 31
0.0
  0
LINE
  5
C1
330
1F
100
AcDbEntity
  8
D-4
  6
Continuous
 62
     7
370
     9
100
AcDbLine
 10
-951.671358543141
 20
41.6071544954648
 30
0.0
 11
-946.6710875790579
 21
41.6071544954648
 31
0.0
  0
LINE
  5
C2
330
1F
100
AcDbEntity
  8
D-4
  6
Continuous
 62
     7
370
     9
100
AcDbLine
 10
-1076.672190264986
 20
-67.14521061683989
 30
0.0
 11
-951.671358543141
 21
-67.14521061683989
 31
0.0
  0
LINE
  5
C3
330
1F
100
AcDbEntity
  8
D-4
  6
Continuous
 62
     7
370
     9
100
AcDbLine
 10
-951.671358543141
 20
-172.6087106397292
 30
0.0
 11
-951.671358543141
 21
44.60672724937105
 31
0.0
  0
LINE
  5
C4
330
1F
100
AcDbEntity
  8
D-4
  6
Continuous
 62
     7
370
     9
100
AcDbLine
 10
-941.6713128846152
 20
-172.6087106397292
 30
0.0
 11
-941.6713128846152
 21
44.60672724937105
 31
0.0
  0
LINE
  5
C5
330
1F
100
AcDbEntity
  8
D-4
  6
Continuous
 62
     7
370
     9
100
AcDbLine
 10
-926.672478751467
 20
-172.6087106397292
 30
0.0
 11
-926.672478751467
 21
155.3033481905331
 31
0.0
  0
LINE
  5
C6
330
1F
100
AcDbEntity
  8
D-6
  6
Continuous
 62
     6
370
     9
100
AcDbLine
 10
-676.6723047059043
 20
-431.5733874967239
 30
0.0
 11
-580.6614099305136
 21
-335.5634368589065
 31
0.0
  0
LINE
  5
C7
330
1F
100
AcDbEntity
  8
D-6
  6
Continuous
 62
     6
370
     9
100
AcDbLine
 10
-676.6723047059043
 20
-335.5634368589065
 30
0.0
 11
-511.6713128846152
 21
-335.5634368589065
 31
0.0
  0
LINE
  5
C8
330
1F
100
AcDbEntity
  8
D-6
  6
Continuous
 62
     6
370
     9
100
AcDbLine
 10
-676.6723047059043
 20
-445.715061538472
 30
0.0
 11
-566.5206704895957
 21
-335.5634368589065
 31
0.0
  0
LINE
  5
C9
330
1F
100
AcDbEntity
  8
D-6
  6
Continuous
 62
     6
370
     9
100
AcDbLine
 10
-926.671987609194
 20
-510.5639995267532
 30
0.0
 11
-926.671987609194
 21
-685.5635799100539
 31
0.0
  0
LINE
  5
CA
330
1F
100
AcDbEntity
  8
D-6
  6
Continuous
 62
     6
370
     9
100
AcDbLine
 10
-676.6723047059043
 20
-335.5634368589065
 30
0.0
 11
-676.6723047059043
 21
-510.5639995267532
 31
0.0
  0
LINE
  5
CB
330
1F
100
AcDbEntity
  8
D-6
  6
Continuous
 62
     6
370
     9
100
AcDbLine
 10
-926.671987609194
 20
-510.5639995267532
 30
0.0
 11
-676.6723047059043
 21
-510.5639995267532
 31
0.0
  0
LINE
  5
CC
330
1F
100
AcDbEntity
  8
D-6
  6
JWW_DASHED3
 62
     6
370
     9
100
AcDbLine
 10
-864.3791757386191
 20
-613.0636180570266
 30
0.0
 11
-864.3791757386191
 21
-510.5639995267532
 31
0.0
  0
LINE
  5
CD
330
1F
100
AcDbEntity
  8
D-6
  6
JWW_DASHED3
 62
     6
370
     9
100
AcDbLine
 10
-819.3787179749472
 20
-510.5639995267532
 30
0.0
 11
-819.3787179749472
 21
-613.0636180570266
 31
0.0
  0
LINE
  5
CE
330
1F
100
AcDbEntity
  8
D-4
  6
Continuous
 62
     7
370
     9
100
AcDbLine
 10
-1076.672190264986
 20
-172.6087106397292
 30
0.0
 11
-1076.672190264986
 21
-64.14464604164458
 31
0.0
  0
LINE
  5
CF
330
1F
100
AcDbEntity
  8
D-4
  6
Continuous
 62
     7
370
     9
100
AcDbLine
 10
-946.6710875790579
 20
41.6071544954648
 30
0.0
 11
-889.0109096329672
 21
41.6071544954648
 31
0.0
  0
LINE
  5
D0
330
1F
100
AcDbEntity
  8
D-4
  6
Continuous
 62
     7
370
     9
100
AcDbLine
 10
-1649.340456561373
 20
-67.14521061683989
 30
0.0
 11
-1076.672190264986
 21
-67.14521061683989
 31
0.0
  0
LINE
  5
D1
330
1F
100
AcDbEntity
  8
D-4
  6
Continuous
 62
     7
370
     9
100
AcDbLine
 10
-1649.340456561373
 20
41.6071544954648
 30
0.0
 11
-951.671358543141
 21
41.6071544954648
 31
0.0
  0
LINE
  5
D2
330
1F
100
AcDbEntity
  8
D-4
  6
Continuous
 62
     7
370
     9
100
AcDbLine
 10
-1649.340456561373
 20
152.3028599092831
 30
0.0
 11
-926.672478751467
 21
152.3028599092831
 31
0.0
  0
LINE
  5
D3
330
1F
100
AcDbEntity
  8
D-1
  6
Continuous
 62
     2
370
     9
100
AcDbLine
 10
-941.6723029177649
 20
-285.5637038877151
 30
0.0
 11
-1076.672686175631
 21
-285.5637038877151
 31
0.0
  0
LINE
  5
D4
330
1F
100
AcDbEntity
  8
D-1
  6
Continuous
 62
     2
370
     9
100
AcDbLine
 10
-1076.672686175631
 20
-300.5635226895949
 30
0.0
 11
-1076.672686175631
 21
-285.5637038877151
 31
0.0
  0
LINE
  5
D5
330
1F
100
AcDbEntity
  8
D-1
  6
Continuous
 62
     2
370
     9
100
AcDbLine
 10
-1076.672686175631
 20
-300.5635226895949
 30
0.0
 11
-946.6725741188986
 21
-300.5635226895949
 31
0.0
  0
LINE
  5
D6
330
1F
100
AcDbEntity
  8
D-5
  6
Continuous
 62
     7
370
     9
100
AcDbLine
 10
-1418.666513995455
 20
-881.5056193998
 30
0.0
 11
-1418.666513995455
 21
-816.5060771634719
 31
0.0
  0
LINE
  5
D7
330
1F
100
AcDbEntity
  8
D-5
  6
Continuous
 62
     7
370
     9
100
AcDbLine
 10
-1418.666513995455
 20
-816.5060771634719
 30
0.0
 11
-843.666103915499
 21
-816.5060771634719
 31
0.0
  0
LINE
  5
D8
330
1F
100
AcDbEntity
  8
D-5
  6
Continuous
 62
     7
370
     9
100
AcDbLine
 10
-843.666103915499
 20
-816.5060771634719
 30
0.0
 11
-843.666103915499
 21
-881.5056193998
 31
0.0
  0
LINE
  5
D9
330
1F
100
AcDbEntity
  8
D-5
  6
Continuous
 62
     7
370
     9
100
AcDbLine
 10
-843.666103915499
 20
-881.5056193998
 30
0.0
 11
-1418.666513995455
 21
-881.5056193998
 31
0.0
  0
LINE
  5
DA
330
1F
100
AcDbEntity
  8
D-6
  6
Continuous
 62
     6
370
     9
100
AcDbLine
 10
-926.671987609194
 20
-681.5720714261672
 30
0.0
 11
-755.662478045748
 21
-510.5639995267532
 31
0.0
  0
LINE
  5
DB
330
1F
100
AcDbEntity
  8
D-6
  6
Continuous
 62
     6
370
     9
100
AcDbLine
 10
-916.5223084252341
 20
-685.5635799100539
 30
0.0
 11
-741.52173860483
 21
-510.5639995267532
 31
0.0
  0
LINE
  5
DC
330
1F
100
AcDbEntity
  8
D-6
  6
Continuous
 62
     6
370
     9
100
AcDbLine
 10
-676.6723047059043
 20
-459.8557437589309
 30
0.0
 11
-552.380007342623
 21
-335.5634368589065
 31
0.0
  0
LINE
  5
DD
330
1F
100
AcDbEntity
  8
D-6
  6
Continuous
 62
     6
370
     9
100
AcDbLine
 10
-902.3823772232993
 20
-685.5635799100539
 30
0.0
 11
-727.3816095154746
 21
-510.5639995267532
 31
0.0
  0
LINE
  5
DE
330
1F
100
AcDbEntity
  8
D-0
  6
Continuous
 62
     7
370
     9
100
AcDbLine
 10
-776.3785920899375
 20
-433.9001239469192
 30
0.0
 11
-776.3785920899375
 21
-432.3998416593216
 31
0.0
  0
LINE
  5
DF
330
1F
100
AcDbEntity
  8
D-0
  6
Continuous
 62
     7
370
     9
100
AcDbLine
 10
-776.3785920899375
 20
-432.3998416593216
 30
0.0
 11
-774.8785577576621
 21
-432.3998416593216
 31
0.0
  0
LINE
  5
E0
330
1F
100
AcDbEntity
  8
D-0
  6
Continuous
 62
     7
370
     9
100
AcDbLine
 10
-774.8785577576621
 20
-432.3998416593216
 30
0.0
 11
-774.8785577576621
 21
-433.9001239469192
 31
0.0
  0
LINE
  5
E1
330
1F
100
AcDbEntity
  8
D-0
  6
Continuous
 62
     7
370
     9
100
AcDbLine
 10
-774.8785577576621
 20
-433.9001239469192
 30
0.0
 11
-776.3785920899375
 21
-433.9001239469192
 31
0.0
  0
LINE
  5
E2
330
1F
100
AcDbEntity
  8
D-0
  6
Continuous
 62
     7
370
     9
100
AcDbLine
 10
-736.4504991333945
 20
-463.6767924955032
 30
0.0
 11
-736.4504991333945
 21
-462.1765102079056
 31
0.0
  0
LINE
  5
E3
330
1F
100
AcDbEntity
  8
D-0
  6
Continuous
 62
     7
370
     9
100
AcDbLine
 10
-736.4504991333945
 20
-462.1765102079056
 30
0.0
 11
-734.9504648011191
 21
-462.1765102079056
 31
0.0
  0
LINE
  5
E4
330
1F
100
AcDbEntity
  8
D-0
  6
Continuous
 62
     7
370
     9
100
AcDbLine
 10
-734.9504648011191
 20
-462.1765102079056
 30
0.0
 11
-734.9504648011191
 21
-463.6767924955032
 31
0.0
  0
LINE
  5
E5
330
1F
100
AcDbEntity
  8
D-0
  6
Continuous
 62
     7
370
     9
100
AcDbLine
 10
-734.9504648011191
 20
-463.6767924955032
 30
0.0
 11
-736.4504991333945
 21
-463.6767924955032
 31
0.0
  0
LINE
  5
E6
330
1F
100
AcDbEntity
  8
D-0
  6
Continuous
 62
     7
370
     9
100
AcDbLine
 10
-770.9646020691855
 20
-483.9791263272903
 30
0.0
 11
-770.9646020691855
 21
-482.4788440396927
 31
0.0
  0
LINE
  5
E7
330
1F
100
AcDbEntity
  8
D-0
  6
Continuous
 62
     7
370
     9
100
AcDbLine
 10
-770.9646020691855
 20
-482.4788440396927
 30
0.0
 11
-769.4645677369101
 21
-482.4788440396927
 31
0.0
  0
LINE
  5
E8
330
1F
100
AcDbEntity
  8
D-0
  6
Continuous
 62
     7
370
     9
100
AcDbLine
 10
-769.4645677369101
 20
-482.4788440396927
 30
0.0
 11
-769.4645677369101
 21
-483.9791263272903
 31
0.0
  0
LINE
  5
E9
330
1F
100
AcDbEntity
  8
D-0
  6
Continuous
 62
     7
370
     9
100
AcDbLine
 10
-769.4645677369101
 20
-483.9791263272903
 30
0.0
 11
-770.9646020691855
 21
-483.9791263272903
 31
0.0
  0
LINE
  5
EA
330
1F
100
AcDbEntity
  8
D-0
  6
Continuous
 62
     7
370
     9
100
AcDbLine
 10
-705.9968744080527
 20
-486.0095561673782
 30
0.0
 11
-705.9968744080527
 21
-484.5092738797806
 31
0.0
  0
LINE
  5
EB
330
1F
100
AcDbEntity
  8
D-0
  6
Continuous
 62
     7
370
     9
100
AcDbLine
 10
-705.9968744080527
 20
-484.5092738797806
 30
0.0
 11
-704.4968400757773
 21
-484.5092738797806
 31
0.0
  0
LINE
  5
EC
330
1F
100
AcDbEntity
  8
D-0
  6
Continuous
 62
     7
370
     9
100
AcDbLine
 10
-704.4968400757773
 20
-484.5092738797806
 30
0.0
 11
-704.4968400757773
 21
-486.0095561673782
 31
0.0
  0
LINE
  5
ED
330
1F
100
AcDbEntity
  8
D-0
  6
Continuous
 62
     7
370
     9
100
AcDbLine
 10
-704.4968400757773
 20
-486.0095561673782
 30
0.0
 11
-705.9968744080527
 21
-486.0095561673782
 31
0.0
  0
LINE
  5
EE
330
1F
100
AcDbEntity
  8
D-0
  6
Continuous
 62
     7
370
     9
100
AcDbLine
 10
-899.546435908602
 20
-206.513205878987
 30
0.0
 11
-899.546435908602
 21
-205.0128639867446
 31
0.0
  0
LINE
  5
EF
330
1F
100
AcDbEntity
  8
D-0
  6
Continuous
 62
     7
370
     9
100
AcDbLine
 10
-899.546435908602
 20
-205.0128639867446
 30
0.0
 11
-898.0464063446982
 21
-205.0128639867446
 31
0.0
  0
LINE
  5
F0
330
1F
100
AcDbEntity
  8
D-0
  6
Continuous
 62
     7
370
     9
100
AcDbLine
 10
-898.0464063446982
 20
-205.0128639867446
 30
0.0
 11
-898.0464063446982
 21
-206.513205878987
 31
0.0
  0
LINE
  5
F1
330
1F
100
AcDbEntity
  8
D-0
  6
Continuous
 62
     7
370
     9
100
AcDbLine
 10
-898.0464063446982
 20
-206.513205878987
 30
0.0
 11
-899.546435908602
 21
-206.513205878987
 31
0.0
  0
LINE
  5
F2
330
1F
100
AcDbEntity
  8
D-0
  6
Continuous
 62
     7
370
     9
100
AcDbLine
 10
-845.4066835206015
 20
-205.8363951375625
 30
0.0
 11
-845.4066835206015
 21
-204.3360544374129
 31
0.0
  0
LINE
  5
F3
330
1F
100
AcDbEntity
  8
D-0
  6
Continuous
 62
     7
370
     9
100
AcDbLine
 10
-845.4066835206015
 20
-204.3360544374129
 30
0.0
 11
-843.9066587250693
 21
-204.3360544374129
 31
0.0
  0
LINE
  5
F4
330
1F
100
AcDbEntity
  8
D-0
  6
Continuous
 62
     7
370
     9
100
AcDbLine
 10
-843.9066587250693
 20
-204.3360544374129
 30
0.0
 11
-843.9066587250693
 21
-205.8363951375625
 31
0.0
  0
LINE
  5
F5
330
1F
100
AcDbEntity
  8
D-0
  6
Continuous
 62
     7
370
     9
100
AcDbLine
 10
-843.9066587250693
 20
-205.8363951375625
 30
0.0
 11
-845.4066835206015
 21
-205.8363951375625
 31
0.0
  0
LINE
  5
F6
330
1F
100
AcDbEntity
  8
D-0
  6
Continuous
 62
     7
370
     9
100
AcDbLine
 10
-802.7715955536826
 20
-229.5227779081008
 30
0.0
 11
-802.7715955536826
 21
-228.0224336316726
 31
0.0
  0
LINE
  5
F7
330
1F
100
AcDbEntity
  8
D-0
  6
Continuous
 62
     7
370
     9
100
AcDbLine
 10
-802.7715955536826
 20
-228.0224336316726
 30
0.0
 11
-801.2715707581503
 21
-228.0224336316726
 31
0.0
  0
LINE
  5
F8
330
1F
100
AcDbEntity
  8
D-0
  6
Continuous
 62
     7
370
     9
100
AcDbLine
 10
-801.2715707581503
 20
-228.0224336316726
 30
0.0
 11
-801.2715707581503
 21
-229.5227779081008
 31
0.0
  0
LINE
  5
F9
330
1F
100
AcDbEntity
  8
D-0
  6
Continuous
 62
     7
370
     9
100
AcDbLine
 10
-801.2715707581503
 20
-229.5227779081008
 30
0.0
 11
-802.7715955536826
 21
-229.5227779081008
 31
0.0
  0
LINE
  5
FA
330
1F
100
AcDbEntity
  8
D-0
  6
Continuous
 62
     7
370
     9
100
AcDbLine
 10
-779.0854631226523
 20
-208.5435737302444
 30
0.0
 11
-779.0854631226523
 21
-207.0432962110183
 31
0.0
  0
LINE
  5
FB
330
1F
100
AcDbEntity
  8
D-0
  6
Continuous
 62
     7
370
     9
100
AcDbLine
 10
-779.0854631226523
 20
-207.0432962110183
 30
0.0
 11
-777.5854287903769
 21
-207.0432962110183
 31
0.0
  0
LINE
  5
FC
330
1F
100
AcDbEntity
  8
D-0
  6
Continuous
 62
     7
370
     9
100
AcDbLine
 10
-777.5854287903769
 20
-207.0432962110183
 30
0.0
 11
-777.5854287903769
 21
-208.5435737302444
 31
0.0
  0
LINE
  5
FD
330
1F
100
AcDbEntity
  8
D-0
  6
Continuous
 62
     7
370
     9
100
AcDbLine
 10
-777.5854287903769
 20
-208.5435737302444
 30
0.0
 11
-779.0854631226523
 21
-208.5435737302444
 31
0.0
  0
LINE
  5
FE
330
1F
100
AcDbEntity
  8
D-0
  6
Continuous
 62
     7
370
     9
100
AcDbLine
 10
-778.4088311951621
 20
-277.5717891385696
 30
0.0
 11
-778.4088311951621
 21
-276.0715068509719
 31
0.0
  0
LINE
  5
FF
330
1F
100
AcDbEntity
  8
D-0
  6
Continuous
 62
     7
370
     9
100
AcDbLine
 10
-778.4088311951621
 20
-276.0715068509719
 30
0.0
 11
-776.9087396424277
 21
-276.0715068509719
 31
0.0
  0
LINE
  5
100
330
1F
100
AcDbEntity
  8
D-0
  6
Continuous
 62
     7
370
     9
100
AcDbLine
 10
-776.9087396424277
 20
-276.0715068509719
 30
0.0
 11
-776.9087396424277
 21
-277.5717891385696
 31
0.0
  0
LINE
  5
101
330
1F
100
AcDbEntity
  8
D-0
  6
Continuous
 62
     7
370
     9
100
AcDbLine
 10
-776.9087396424277
 20
-277.5717891385696
 30
0.0
 11
-778.4088311951621
 21
-277.5717891385696
 31
0.0
  0
LINE
  5
102
330
1F
100
AcDbEntity
  8
D-0
  6
Continuous
 62
     7
370
     9
100
AcDbLine
 10
-649.8269449036582
 20
-206.513205878987
 30
0.0
 11
-649.8269449036582
 21
-205.0128639867446
 31
0.0
  0
LINE
  5
103
330
1F
100
AcDbEntity
  8
D-0
  6
Continuous
 62
     7
370
     9
100
AcDbLine
 10
-649.8269449036582
 20
-205.0128639867446
 30
0.0
 11
-648.3269677918418
 21
-205.0128639867446
 31
0.0
  0
LINE
  5
104
330
1F
100
AcDbEntity
  8
D-0
  6
Continuous
 62
     7
370
     9
100
AcDbLine
 10
-648.3269677918418
 20
-205.0128639867446
 30
0.0
 11
-648.3269677918418
 21
-206.513205878987
 31
0.0
  0
LINE
  5
105
330
1F
100
AcDbEntity
  8
D-0
  6
Continuous
 62
     7
370
     9
100
AcDbLine
 10
-648.3269677918418
 20
-206.513205878987
 30
0.0
 11
-649.8269449036582
 21
-206.513205878987
 31
0.0
  0
LINE
  5
106
330
1F
100
AcDbEntity
  8
D-0
  6
Continuous
 62
     7
370
     9
100
AcDbLine
 10
-599.0709863465293
 20
-209.2203844716689
 30
0.0
 11
-599.0709863465293
 21
-207.7201665570876
 31
0.0
  0
LINE
  5
107
330
1F
100
AcDbEntity
  8
D-0
  6
Continuous
 62
     7
370
     9
100
AcDbLine
 10
-599.0709863465293
 20
-207.7201665570876
 30
0.0
 11
-597.5709710877402
 21
-207.7201665570876
 31
0.0
  0
LINE
  5
108
330
1F
100
AcDbEntity
  8
D-0
  6
Continuous
 62
     7
370
     9
100
AcDbLine
 10
-597.5709710877402
 20
-207.7201665570876
 30
0.0
 11
-597.5709710877402
 21
-209.2203844716689
 31
0.0
  0
LINE
  5
109
330
1F
100
AcDbEntity
  8
D-0
  6
Continuous
 62
     7
370
     9
100
AcDbLine
 10
-597.5709710877402
 20
-209.2203844716689
 30
0.0
 11
-599.0709863465293
 21
-209.2203844716689
 31
0.0
  0
LINE
  5
10A
330
1F
100
AcDbEntity
  8
D-0
  6
Continuous
 62
     7
370
     9
100
AcDbLine
 10
-534.1033349793418
 20
-207.189954631581
 30
0.0
 11
-534.1033349793418
 21
-205.6896747281692
 31
0.0
  0
LINE
  5
10B
330
1F
100
AcDbEntity
  8
D-0
  6
Continuous
 62
     7
370
     9
100
AcDbLine
 10
-534.1033349793418
 20
-205.6896747281692
 30
0.0
 11
-532.6032434266074
 21
-205.6896747281692
 31
0.0
  0
LINE
  5
10C
330
1F
100
AcDbEntity
  8
D-0
  6
Continuous
 62
     7
370
     9
100
AcDbLine
 10
-532.6032434266074
 20
-205.6896747281692
 30
0.0
 11
-532.6032434266074
 21
-207.189954631581
 31
0.0
  0
LINE
  5
10D
330
1F
100
AcDbEntity
  8
D-0
  6
Continuous
 62
     7
370
     9
100
AcDbLine
 10
-532.6032434266074
 20
-207.189954631581
 30
0.0
 11
-534.1033349793418
 21
-207.189954631581
 31
0.0
  0
LINE
  5
10E
330
1F
100
AcDbEntity
  8
D-0
  6
Continuous
 62
     7
370
     9
100
AcDbLine
 10
-558.4662042420371
 20
-239.6738780667922
 30
0.0
 11
-558.4662042420371
 21
-238.1736625363967
 31
0.0
  0
LINE
  5
10F
330
1F
100
AcDbEntity
  8
D-0
  6
Continuous
 62
     7
370
     9
100
AcDbLine
 10
-558.4662042420371
 20
-238.1736625363967
 30
0.0
 11
-556.966188983248
 21
-238.1736625363967
 31
0.0
  0
LINE
  5
110
330
1F
100
AcDbEntity
  8
D-0
  6
Continuous
 62
     7
370
     9
100
AcDbLine
 10
-556.966188983248
 20
-238.1736625363967
 30
0.0
 11
-556.966188983248
 21
-239.6738780667922
 31
0.0
  0
LINE
  5
111
330
1F
100
AcDbEntity
  8
D-0
  6
Continuous
 62
     7
370
     9
100
AcDbLine
 10
-556.966188983248
 20
-239.6738780667922
 30
0.0
 11
-558.4662042420371
 21
-239.6738780667922
 31
0.0
  0
LINE
  5
112
330
1F
100
AcDbEntity
  8
D-0
  6
Continuous
 62
     7
370
     9
100
AcDbLine
 10
-598.3941827576621
 20
-263.3597625425002
 30
0.0
 11
-598.3941827576621
 21
-261.8594850232741
 31
0.0
  0
LINE
  5
113
330
1F
100
AcDbEntity
  8
D-0
  6
Continuous
 62
     7
370
     9
100
AcDbLine
 10
-598.3941827576621
 20
-261.8594850232741
 30
0.0
 11
-596.894167498873
 21
-261.8594850232741
 31
0.0
  0
LINE
  5
114
330
1F
100
AcDbEntity
  8
D-0
  6
Continuous
 62
     7
370
     9
100
AcDbLine
 10
-596.894167498873
 20
-261.8594850232741
 30
0.0
 11
-596.894167498873
 21
-263.3597625425002
 31
0.0
  0
LINE
  5
115
330
1F
100
AcDbEntity
  8
D-0
  6
Continuous
 62
     7
370
     9
100
AcDbLine
 10
-596.894167498873
 20
-263.3597625425002
 30
0.0
 11
-598.3941827576621
 21
-263.3597625425002
 31
0.0
  0
LINE
  5
116
330
1F
100
AcDbEntity
  8
D-0
  6
Continuous
 62
     7
370
     9
100
AcDbLine
 10
-626.1408029358847
 20
-277.5717891385696
 30
0.0
 11
-626.1408029358847
 21
-276.0715068509719
 31
0.0
  0
LINE
  5
117
330
1F
100
AcDbEntity
  8
D-0
  6
Continuous
 62
     7
370
     9
100
AcDbLine
 10
-626.1408029358847
 20
-276.0715068509719
 30
0.0
 11
-624.6408258240683
 21
-276.0715068509719
 31
0.0
  0
LINE
  5
118
330
1F
100
AcDbEntity
  8
D-0
  6
Continuous
 62
     7
370
     9
100
AcDbLine
 10
-624.6408258240683
 20
-276.0715068509719
 30
0.0
 11
-624.6408258240683
 21
-277.5717891385696
 31
0.0
  0
LINE
  5
119
330
1F
100
AcDbEntity
  8
D-0
  6
Continuous
 62
     7
370
     9
100
AcDbLine
 10
-624.6408258240683
 20
-277.5717891385696
 30
0.0
 11
-626.1408029358847
 21
-277.5717891385696
 31
0.0
  0
LINE
  5
11A
330
1F
100
AcDbEntity
  8
D-0
  6
Continuous
 62
     7
370
     9
100
AcDbLine
 10
-651.1804376404746
 20
-248.4714234998366
 30
0.0
 11
-651.1804376404746
 21
-246.971141212239
 31
0.0
  0
LINE
  5
11B
330
1F
100
AcDbEntity
  8
D-0
  6
Continuous
 62
     7
370
     9
100
AcDbLine
 10
-651.1804376404746
 20
-246.971141212239
 30
0.0
 11
-649.6804033081992
 21
-246.971141212239
 31
0.0
  0
LINE
  5
11C
330
1F
100
AcDbEntity
  8
D-0
  6
Continuous
 62
     7
370
     9
100
AcDbLine
 10
-649.6804033081992
 20
-246.971141212239
 30
0.0
 11
-649.6804033081992
 21
-248.4714234998366
 31
0.0
  0
LINE
  5
11D
330
1F
100
AcDbEntity
  8
D-0
  6
Continuous
 62
     7
370
     9
100
AcDbLine
 10
-649.6804033081992
 20
-248.4714234998366
 30
0.0
 11
-651.1804376404746
 21
-248.4714234998366
 31
0.0
  0
LINE
  5
11E
330
1F
100
AcDbEntity
  8
D-0
  6
Continuous
 62
     7
370
     9
100
AcDbLine
 10
-630.8781610291464
 20
-312.7624572446487
 30
0.0
 11
-630.8781610291464
 21
-311.262174957051
 31
0.0
  0
LINE
  5
11F
330
1F
100
AcDbEntity
  8
D-0
  6
Continuous
 62
     7
370
     9
100
AcDbLine
 10
-630.8781610291464
 20
-311.262174957051
 30
0.0
 11
-629.3780694764121
 21
-311.262174957051
 31
0.0
  0
LINE
  5
120
330
1F
100
AcDbEntity
  8
D-0
  6
Continuous
 62
     7
370
     9
100
AcDbLine
 10
-629.3780694764121
 20
-311.262174957051
 30
0.0
 11
-629.3780694764121
 21
-312.7624572446487
 31
0.0
  0
LINE
  5
121
330
1F
100
AcDbEntity
  8
D-0
  6
Continuous
 62
     7
370
     9
100
AcDbLine
 10
-629.3780694764121
 20
-312.7624572446487
 30
0.0
 11
-630.8781610291464
 21
-312.7624572446487
 31
0.0
  0
LINE
  5
122
330
1F
100
AcDbEntity
  8
D-0
  6
Continuous
 62
     7
370
     9
100
AcDbLine
 10
-573.3545480530722
 20
-311.4088405301711
 30
0.0
 11
-573.3545480530722
 21
-309.9085582425735
 31
0.0
  0
LINE
  5
123
330
1F
100
AcDbEntity
  8
D-0
  6
Continuous
 62
     7
370
     9
100
AcDbLine
 10
-573.3545480530722
 20
-309.9085582425735
 30
0.0
 11
-571.8545709412558
 21
-309.9085582425735
 31
0.0
  0
LINE
  5
124
330
1F
100
AcDbEntity
  8
D-0
  6
Continuous
 62
     7
370
     9
100
AcDbLine
 10
-571.8545709412558
 20
-309.9085582425735
 30
0.0
 11
-571.8545709412558
 21
-311.4088405301711
 31
0.0
  0
LINE
  5
125
330
1F
100
AcDbEntity
  8
D-0
  6
Continuous
 62
     7
370
     9
100
AcDbLine
 10
-571.8545709412558
 20
-311.4088405301711
 30
0.0
 11
-573.3545480530722
 21
-311.4088405301711
 31
0.0
  0
LINE
  5
126
330
1F
100
AcDbEntity
  8
D-0
  6
Continuous
 62
     7
370
     9
100
AcDbLine
 10
-523.9521203797324
 20
-310.7320274045608
 30
0.0
 11
-523.9521203797324
 21
-309.2317451169631
 31
0.0
  0
LINE
  5
127
330
1F
100
AcDbEntity
  8
D-0
  6
Continuous
 62
     7
370
     9
100
AcDbLine
 10
-523.9521203797324
 20
-309.2317451169631
 30
0.0
 11
-522.4520669739707
 21
-309.2317451169631
 31
0.0
  0
LINE
  5
128
330
1F
100
AcDbEntity
  8
D-0
  6
Continuous
 62
     7
370
     9
100
AcDbLine
 10
-522.4520669739707
 20
-309.2317451169631
 30
0.0
 11
-522.4520669739707
 21
-310.7320274045608
 31
0.0
  0
LINE
  5
129
330
1F
100
AcDbEntity
  8
D-0
  6
Continuous
 62
     7
370
     9
100
AcDbLine
 10
-522.4520669739707
 20
-310.7320274045608
 30
0.0
 11
-523.9521203797324
 21
-310.7320274045608
 31
0.0
  0
LINE
  5
12A
330
1F
100
AcDbEntity
  8
D-0
  6
Continuous
 62
     7
370
     9
100
AcDbLine
 10
-536.1335931580527
 20
-270.8041824033401
 30
0.0
 11
-536.1335931580527
 21
-269.3039001157424
 31
0.0
  0
LINE
  5
12B
330
1F
100
AcDbEntity
  8
D-0
  6
Continuous
 62
     7
370
     9
100
AcDbLine
 10
-536.1335931580527
 20
-269.3039001157424
 30
0.0
 11
-534.633539752291
 21
-269.3039001157424
 31
0.0
  0
LINE
  5
12C
330
1F
100
AcDbEntity
  8
D-0
  6
Continuous
 62
     7
370
     9
100
AcDbLine
 10
-534.633539752291
 20
-269.3039001157424
 30
0.0
 11
-534.633539752291
 21
-270.8041824033401
 31
0.0
  0
LINE
  5
12D
330
1F
100
AcDbEntity
  8
D-0
  6
Continuous
 62
     7
370
     9
100
AcDbLine
 10
-534.633539752291
 20
-270.8041824033401
 30
0.0
 11
-536.1335931580527
 21
-270.8041824033401
 31
0.0
  0
LINE
  5
12E
330
1F
100
AcDbEntity
  8
D-0
  6
Continuous
 62
     7
370
     9
100
AcDbLine
 10
-1057.693632678316
 20
-442.1055759122513
 30
0.0
 11
-1057.693632678316
 21
-440.6052936246536
 31
0.0
  0
LINE
  5
12F
330
1F
100
AcDbEntity
  8
D-0
  6
Continuous
 62
     7
370
     9
100
AcDbLine
 10
-1057.693632678316
 20
-440.6052936246536
 30
0.0
 11
-1056.193598346041
 21
-440.6052936246536
 31
0.0
  0
LINE
  5
130
330
1F
100
AcDbEntity
  8
D-0
  6
Continuous
 62
     7
370
     9
100
AcDbLine
 10
-1056.193598346041
 20
-440.6052936246536
 30
0.0
 11
-1056.193598346041
 21
-442.1055759122513
 31
0.0
  0
LINE
  5
131
330
1F
100
AcDbEntity
  8
D-0
  6
Continuous
 62
     7
370
     9
100
AcDbLine
 10
-1056.193598346041
 20
-442.1055759122513
 30
0.0
 11
-1057.693632678316
 21
-442.1055759122513
 31
0.0
  0
LINE
  5
132
330
1F
100
AcDbEntity
  8
D-0
  6
Continuous
 62
     7
370
     9
100
AcDbLine
 10
-953.0093718927367
 20
-442.1055759122513
 30
0.0
 11
-953.0093718927367
 21
-440.6052936246536
 31
0.0
  0
LINE
  5
133
330
1F
100
AcDbEntity
  8
D-0
  6
Continuous
 62
     7
370
     9
100
AcDbLine
 10
-953.0093718927367
 20
-440.6052936246536
 30
0.0
 11
-951.5093402612968
 21
-440.6052936246536
 31
0.0
  0
LINE
  5
134
330
1F
100
AcDbEntity
  8
D-0
  6
Continuous
 62
     7
370
     9
100
AcDbLine
 10
-951.5093402612968
 20
-440.6052936246536
 30
0.0
 11
-951.5093402612968
 21
-442.1055759122513
 31
0.0
  0
LINE
  5
135
330
1F
100
AcDbEntity
  8
D-0
  6
Continuous
 62
     7
370
     9
100
AcDbLine
 10
-951.5093402612968
 20
-442.1055759122513
 30
0.0
 11
-953.0093718927367
 21
-442.1055759122513
 31
0.0
  0
LINE
  5
136
330
1F
100
AcDbEntity
  8
D-0
  6
Continuous
 62
     7
370
     9
100
AcDbLine
 10
-967.0941875737174
 20
-530.4214061429641
 30
0.0
 11
-967.0941875737174
 21
-528.9211238553664
 31
0.0
  0
LINE
  5
137
330
1F
100
AcDbEntity
  8
D-0
  6
Continuous
 62
     7
370
     9
100
AcDbLine
 10
-967.0941875737174
 20
-528.9211238553664
 30
0.0
 11
-965.5941556256278
 21
-528.9211238553664
 31
0.0
  0
LINE
  5
138
330
1F
100
AcDbEntity
  8
D-0
  6
Continuous
 62
     7
370
     9
100
AcDbLine
 10
-965.5941556256278
 20
-528.9211238553664
 30
0.0
 11
-965.5941556256278
 21
-530.4214061429641
 31
0.0
  0
LINE
  5
139
330
1F
100
AcDbEntity
  8
D-0
  6
Continuous
 62
     7
370
     9
100
AcDbLine
 10
-965.5941556256278
 20
-530.4214061429641
 30
0.0
 11
-967.0941875737174
 21
-530.4214061429641
 31
0.0
  0
LINE
  5
13A
330
1F
100
AcDbEntity
  8
D-0
  6
Continuous
 62
     7
370
     9
100
AcDbLine
 10
-954.9127150934203
 20
-495.0191653897903
 30
0.0
 11
-954.9127150934203
 21
-493.5188831021927
 31
0.0
  0
LINE
  5
13B
330
1F
100
AcDbEntity
  8
D-0
  6
Continuous
 62
     7
370
     9
100
AcDbLine
 10
-954.9127150934203
 20
-493.5188831021927
 30
0.0
 11
-953.4126834433539
 21
-493.5188831021927
 31
0.0
  0
LINE
  5
13C
330
1F
100
AcDbEntity
  8
D-0
  6
Continuous
 62
     7
370
     9
100
AcDbLine
 10
-953.4126834433539
 20
-493.5188831021927
 30
0.0
 11
-953.4126834433539
 21
-495.0191653897903
 31
0.0
  0
LINE
  5
13D
330
1F
100
AcDbEntity
  8
D-0
  6
Continuous
 62
     7
370
     9
100
AcDbLine
 10
-953.4126834433539
 20
-495.0191653897903
 30
0.0
 11
-954.9127150934203
 21
-495.0191653897903
 31
0.0
  0
LINE
  5
13E
330
1F
100
AcDbEntity
  8
D-0
  6
Continuous
 62
     7
370
     9
100
AcDbLine
 10
-1055.409639910982
 20
-532.7054942777297
 30
0.0
 11
-1055.409639910982
 21
-531.205211990132
 31
0.0
  0
LINE
  5
13F
330
1F
100
AcDbEntity
  8
D-0
  6
Continuous
 62
     7
370
     9
100
AcDbLine
 10
-1055.409639910982
 20
-531.205211990132
 30
0.0
 11
-1053.909605578707
 21
-531.205211990132
 31
0.0
  0
LINE
  5
140
330
1F
100
AcDbEntity
  8
D-0
  6
Continuous
 62
     7
370
     9
100
AcDbLine
 10
-1053.909605578707
 20
-531.205211990132
 30
0.0
 11
-1053.909605578707
 21
-532.7054942777297
 31
0.0
  0
LINE
  5
141
330
1F
100
AcDbEntity
  8
D-0
  6
Continuous
 62
     7
370
     9
100
AcDbLine
 10
-1053.909605578707
 20
-532.7054942777297
 30
0.0
 11
-1055.409639910982
 21
-532.7054942777297
 31
0.0
  0
LINE
  5
142
330
1F
100
AcDbEntity
  8
D-0
  6
Continuous
 62
     7
370
     9
100
AcDbLine
 10
-1011.251853541659
 20
-535.7506526639602
 30
0.0
 11
-1011.251853541659
 21
-534.2503703763625
 31
0.0
  0
LINE
  5
143
330
1F
100
AcDbEntity
  8
D-0
  6
Continuous
 62
     7
370
     9
100
AcDbLine
 10
-1011.251853541659
 20
-534.2503703763625
 30
0.0
 11
-1009.751823977755
 21
-534.2503703763625
 31
0.0
  0
LINE
  5
144
330
1F
100
AcDbEntity
  8
D-0
  6
Continuous
 62
     7
370
     9
100
AcDbLine
 10
-1009.751823977755
 20
-534.2503703763625
 30
0.0
 11
-1009.751823977755
 21
-535.7506526639602
 31
0.0
  0
LINE
  5
145
330
1F
100
AcDbEntity
  8
D-0
  6
Continuous
 62
     7
370
     9
100
AcDbLine
 10
-1009.751823977755
 20
-535.7506526639602
 30
0.0
 11
-1011.251853541659
 21
-535.7506526639602
 31
0.0
  0
LINE
  5
146
330
1F
100
AcDbEntity
  8
D-0
  6
Continuous
 62
     7
370
     9
100
AcDbLine
 10
-1007.82581193857
 20
-498.0643047025345
 30
0.0
 11
-1007.82581193857
 21
-496.5640414884231
 31
0.0
  0
LINE
  5
147
330
1F
100
AcDbEntity
  8
D-0
  6
Continuous
 62
     7
370
     9
100
AcDbLine
 10
-1007.82581193857
 20
-496.5640414884231
 30
0.0
 11
-1006.325777606295
 21
-496.5640414884231
 31
0.0
  0
LINE
  5
148
330
1F
100
AcDbEntity
  8
D-0
  6
Continuous
 62
     7
370
     9
100
AcDbLine
 10
-1006.325777606295
 20
-496.5640414884231
 30
0.0
 11
-1006.325777606295
 21
-498.0643047025345
 31
0.0
  0
LINE
  5
149
330
1F
100
AcDbEntity
  8
D-0
  6
Continuous
 62
     7
370
     9
100
AcDbLine
 10
-1006.325777606295
 20
-498.0643047025345
 30
0.0
 11
-1007.82581193857
 21
-498.0643047025345
 31
0.0
  0
LINE
  5
14A
330
1F
100
AcDbEntity
  8
D-0
  6
Continuous
 62
     7
370
     9
100
AcDbLine
 10
-1058.454912738131
 20
-496.541248672261
 30
0.0
 11
-1058.454912738131
 21
-495.0409663846634
 31
0.0
  0
LINE
  5
14B
330
1F
100
AcDbEntity
  8
D-0
  6
Continuous
 62
     7
370
     9
100
AcDbLine
 10
-1058.454912738131
 20
-495.0409663846634
 30
0.0
 11
-1056.954887942599
 21
-495.0409663846634
 31
0.0
  0
LINE
  5
14C
330
1F
100
AcDbEntity
  8
D-0
  6
Continuous
 62
     7
370
     9
100
AcDbLine
 10
-1056.954887942599
 20
-495.0409663846634
 30
0.0
 11
-1056.954887942599
 21
-496.541248672261
 31
0.0
  0
LINE
  5
14D
330
1F
100
AcDbEntity
  8
D-0
  6
Continuous
 62
     7
370
     9
100
AcDbLine
 10
-1056.954887942599
 20
-496.541248672261
 30
0.0
 11
-1058.454912738131
 21
-496.541248672261
 31
0.0
  0
LINE
  5
14E
330
1F
100
AcDbEntity
  8
D-0
  6
Continuous
 62
     7
370
     9
100
AcDbLine
 10
-1050.080250338839
 20
-617.9756892850539
 30
0.0
 11
-1050.080250338839
 21
-616.4754069974563
 31
0.0
  0
LINE
  5
14F
330
1F
100
AcDbEntity
  8
D-0
  6
Continuous
 62
     7
370
     9
100
AcDbLine
 10
-1050.080250338839
 20
-616.4754069974563
 30
0.0
 11
-1048.580225543307
 21
-616.4754069974563
 31
0.0
  0
LINE
  5
150
330
1F
100
AcDbEntity
  8
D-0
  6
Continuous
 62
     7
370
     9
100
AcDbLine
 10
-1048.580225543307
 20
-616.4754069974563
 30
0.0
 11
-1048.580225543307
 21
-617.9756892850539
 31
0.0
  0
LINE
  5
151
330
1F
100
AcDbEntity
  8
D-0
  6
Continuous
 62
     7
370
     9
100
AcDbLine
 10
-1048.580225543307
 20
-617.9756892850539
 30
0.0
 11
-1050.080250338839
 21
-617.9756892850539
 31
0.0
  0
LINE
  5
152
330
1F
100
AcDbEntity
  8
D-0
  6
Continuous
 62
     7
370
     9
100
AcDbLine
 10
-998.3090959351523
 20
-614.1685069730422
 30
0.0
 11
-998.3090959351523
 21
-612.6682246854446
 31
0.0
  0
LINE
  5
153
330
1F
100
AcDbEntity
  8
D-0
  6
Continuous
 62
     7
370
     9
100
AcDbLine
 10
-998.3090959351523
 20
-612.6682246854446
 30
0.0
 11
-996.8090616028769
 21
-612.6682246854446
 31
0.0
  0
LINE
  5
154
330
1F
100
AcDbEntity
  8
D-0
  6
Continuous
 62
     7
370
     9
100
AcDbLine
 10
-996.8090616028769
 20
-612.6682246854446
 30
0.0
 11
-996.8090616028769
 21
-614.1685069730422
 31
0.0
  0
LINE
  5
155
330
1F
100
AcDbEntity
  8
D-0
  6
Continuous
 62
     7
370
     9
100
AcDbLine
 10
-996.8090616028769
 20
-614.1685069730422
 30
0.0
 11
-998.3090959351523
 21
-614.1685069730422
 31
0.0
  0
LINE
  5
156
330
1F
100
AcDbEntity
  8
D-0
  6
Continuous
 62
     7
370
     9
100
AcDbLine
 10
-948.4412737052901
 20
-616.0720790555617
 30
0.0
 11
-948.4412737052901
 21
-614.5717967679641
 31
0.0
  0
LINE
  5
157
330
1F
100
AcDbEntity
  8
D-0
  6
Continuous
 62
     7
370
     9
100
AcDbLine
 10
-948.4412737052901
 20
-614.5717967679641
 30
0.0
 11
-946.9412420552237
 21
-614.5717967679641
 31
0.0
  0
LINE
  5
158
330
1F
100
AcDbEntity
  8
D-0
  6
Continuous
 62
     7
370
     9
100
AcDbLine
 10
-946.9412420552237
 20
-614.5717967679641
 30
0.0
 11
-946.9412420552237
 21
-616.0720790555617
 31
0.0
  0
LINE
  5
159
330
1F
100
AcDbEntity
  8
D-0
  6
Continuous
 62
     7
370
     9
100
AcDbLine
 10
-946.9412420552237
 20
-616.0720790555617
 30
0.0
 11
-948.4412737052901
 21
-616.0720790555617
 31
0.0
  0
LINE
  5
15A
330
1F
100
AcDbEntity
  8
D-0
  6
Continuous
 62
     7
370
     9
100
AcDbLine
 10
-973.1848583977683
 20
-641.9573558499953
 30
0.0
 11
-973.1848583977683
 21
-640.4570735623977
 31
0.0
  0
LINE
  5
15B
330
1F
100
AcDbEntity
  8
D-0
  6
Continuous
 62
     7
370
     9
100
AcDbLine
 10
-973.1848583977683
 20
-640.4570735623977
 30
0.0
 11
-971.6848288338645
 21
-640.4570735623977
 31
0.0
  0
LINE
  5
15C
330
1F
100
AcDbEntity
  8
D-0
  6
Continuous
 62
     7
370
     9
100
AcDbLine
 10
-971.6848288338645
 20
-640.4570735623977
 30
0.0
 11
-971.6848288338645
 21
-641.9573558499953
 31
0.0
  0
LINE
  5
15D
330
1F
100
AcDbEntity
  8
D-0
  6
Continuous
 62
     7
370
     9
100
AcDbLine
 10
-971.6848288338645
 20
-641.9573558499953
 30
0.0
 11
-973.1848583977683
 21
-641.9573558499953
 31
0.0
  0
LINE
  5
15E
330
1F
100
AcDbEntity
  8
D-0
  6
Continuous
 62
     7
370
     9
100
AcDbLine
 10
-1013.535841540621
 20
-653.7584270169875
 30
0.0
 11
-1013.535841540621
 21
-652.2581447293899
 31
0.0
  0
LINE
  5
15F
330
1F
100
AcDbEntity
  8
D-0
  6
Continuous
 62
     7
370
     9
100
AcDbLine
 10
-1013.535841540621
 20
-652.2581447293899
 30
0.0
 11
-1012.035807208346
 21
-652.2581447293899
 31
0.0
  0
LINE
  5
160
330
1F
100
AcDbEntity
  8
D-0
  6
Continuous
 62
     7
370
     9
100
AcDbLine
 10
-1012.035807208346
 20
-652.2581447293899
 30
0.0
 11
-1012.035807208346
 21
-653.7584270169875
 31
0.0
  0
LINE
  5
161
330
1F
100
AcDbEntity
  8
D-0
  6
Continuous
 62
     7
370
     9
100
AcDbLine
 10
-1012.035807208346
 20
-653.7584270169875
 30
0.0
 11
-1013.535841540621
 21
-653.7584270169875
 31
0.0
  0
LINE
  5
162
330
1F
100
AcDbEntity
  8
D-0
  6
Continuous
 62
     7
370
     9
100
AcDbLine
 10
-1060.739029483126
 20
-651.4743388822219
 30
0.0
 11
-1060.739029483126
 21
-649.9740565946242
 31
0.0
  0
LINE
  5
163
330
1F
100
AcDbEntity
  8
D-0
  6
Continuous
 62
     7
370
     9
100
AcDbLine
 10
-1060.739029483126
 20
-649.9740565946242
 30
0.0
 11
-1059.238995150851
 21
-649.9740565946242
 31
0.0
  0
LINE
  5
164
330
1F
100
AcDbEntity
  8
D-0
  6
Continuous
 62
     7
370
     9
100
AcDbLine
 10
-1059.238995150851
 20
-649.9740565946242
 30
0.0
 11
-1059.238995150851
 21
-651.4743388822219
 31
0.0
  0
LINE
  5
165
330
1F
100
AcDbEntity
  8
D-0
  6
Continuous
 62
     7
370
     9
100
AcDbLine
 10
-1059.238995150851
 20
-651.4743388822219
 30
0.0
 11
-1060.739029483126
 21
-651.4743388822219
 31
0.0
  0
LINE
  5
166
330
1F
100
AcDbEntity
  8
D-0
  6
Continuous
 62
     7
370
     9
100
AcDbLine
 10
-1044.370096759127
 20
-680.0247157743117
 30
0.0
 11
-1044.370096759127
 21
-678.5244334867141
 31
0.0
  0
LINE
  5
167
330
1F
100
AcDbEntity
  8
D-0
  6
Continuous
 62
     7
370
     9
100
AcDbLine
 10
-1044.370096759127
 20
-678.5244334867141
 30
0.0
 11
-1042.870071963595
 21
-678.5244334867141
 31
0.0
  0
LINE
  5
168
330
1F
100
AcDbEntity
  8
D-0
  6
Continuous
 62
     7
370
     9
100
AcDbLine
 10
-1042.870071963595
 20
-678.5244334867141
 30
0.0
 11
-1042.870071963595
 21
-680.0247157743117
 31
0.0
  0
LINE
  5
169
330
1F
100
AcDbEntity
  8
D-0
  6
Continuous
 62
     7
370
     9
100
AcDbLine
 10
-1042.870071963595
 20
-680.0247157743117
 30
0.0
 11
-1044.370096759127
 21
-680.0247157743117
 31
0.0
  0
LINE
  5
16A
330
1F
100
AcDbEntity
  8
D-0
  6
Continuous
 62
     7
370
     9
100
AcDbLine
 10
-992.5990663331015
 20
-678.5021556546828
 30
0.0
 11
-992.5990663331015
 21
-677.0018733670852
 31
0.0
  0
LINE
  5
16B
330
1F
100
AcDbEntity
  8
D-0
  6
Continuous
 62
     7
370
     9
100
AcDbLine
 10
-992.5990663331015
 20
-677.0018733670852
 30
0.0
 11
-991.0990296166403
 21
-677.0018733670852
 31
0.0
  0
LINE
  5
16C
330
1F
100
AcDbEntity
  8
D-0
  6
Continuous
 62
     7
370
     9
100
AcDbLine
 10
-991.0990296166403
 20
-677.0018733670852
 30
0.0
 11
-991.0990296166403
 21
-678.5021556546828
 31
0.0
  0
LINE
  5
16D
330
1F
100
AcDbEntity
  8
D-0
  6
Continuous
 62
     7
370
     9
100
AcDbLine
 10
-991.0990296166403
 20
-678.5021556546828
 30
0.0
 11
-992.5990663331015
 21
-678.5021556546828
 31
0.0
  0
LINE
  5
16E
330
1F
100
AcDbEntity
  8
D-0
  6
Continuous
 62
     7
370
     9
100
AcDbLine
 10
-954.5320711892111
 20
-678.5021556546828
 30
0.0
 11
-954.5320711892111
 21
-677.0018733670852
 31
0.0
  0
LINE
  5
16F
330
1F
100
AcDbEntity
  8
D-0
  6
Continuous
 62
     7
370
     9
100
AcDbLine
 10
-954.5320711892111
 20
-677.0018733670852
 30
0.0
 11
-953.0320395391448
 21
-677.0018733670852
 31
0.0
  0
LINE
  5
170
330
1F
100
AcDbEntity
  8
D-0
  6
Continuous
 62
     7
370
     9
100
AcDbLine
 10
-953.0320395391448
 20
-677.0018733670852
 30
0.0
 11
-953.0320395391448
 21
-678.5021556546828
 31
0.0
  0
LINE
  5
171
330
1F
100
AcDbEntity
  8
D-0
  6
Continuous
 62
     7
370
     9
100
AcDbLine
 10
-953.0320395391448
 20
-678.5021556546828
 30
0.0
 11
-954.5320711892111
 21
-678.5021556546828
 31
0.0
  0
LINE
  5
172
330
1F
100
AcDbEntity
  8
D-0
  6
Continuous
 62
     7
370
     9
100
AcDbLine
 10
-897.5078283112509
 20
-495.4972804715774
 30
0.0
 11
-897.5078283112509
 21
-493.9965213468216
 31
0.0
  0
LINE
  5
173
330
1F
100
AcDbEntity
  8
D-0
  6
Continuous
 62
     7
370
     9
100
AcDbLine
 10
-897.5078283112509
 20
-493.9965213468216
 30
0.0
 11
-896.0077987473471
 21
-493.9965213468216
 31
0.0
  0
LINE
  5
174
330
1F
100
AcDbEntity
  8
D-0
  6
Continuous
 62
     7
370
     9
100
AcDbLine
 10
-896.0077987473471
 20
-493.9965213468216
 30
0.0
 11
-896.0077987473471
 21
-495.4972804715774
 31
0.0
  0
LINE
  5
175
330
1F
100
AcDbEntity
  8
D-0
  6
Continuous
 62
     7
370
     9
100
AcDbLine
 10
-896.0077987473471
 20
-495.4972804715774
 30
0.0
 11
-897.5078283112509
 21
-495.4972804715774
 31
0.0
  0
LINE
  5
176
330
1F
100
AcDbEntity
  8
D-6
  6
Continuous
 62
     6
370
     9
100
AcDbLine
 10
-1076.672686175631
 20
-300.5635226895949
 30
0.0
 11
-1076.672686175631
 21
-685.5635799100539
 31
0.0
  0
LINE
  5
177
330
1F
100
AcDbEntity
  8
D-4
  6
Continuous
 62
     7
370
     9
100
AcDbLine
 10
-1076.672686175631
 20
-590.3191722562453
 30
0.0
 11
-926.671987609194
 21
-590.3191722562453
 31
0.0
  0
LINE
  5
178
330
1F
100
AcDbEntity
  8
D-4
  6
Continuous
 62
     7
370
     9
100
AcDbLine
 10
-1076.672686175631
 20
-743.9161266019485
 30
0.0
 11
-676.6723047059043
 21
-743.9161266019485
 31
0.0
  0
LINE
  5
179
330
1F
100
AcDbEntity
  8
D-4
  6
Continuous
 62
     7
370
     9
100
AcDbLine
 10
-1076.672686175631
 20
-746.9161189725539
 30
0.0
 11
-1076.672686175631
 21
-705.5635799100539
 31
0.0
  0
LINE
  5
17A
330
1F
100
AcDbEntity
  8
D-4
  6
Continuous
 62
     7
370
     9
100
AcDbLine
 10
-676.6723047059043
 20
-746.9161189725539
 30
0.0
 11
-676.6723047059043
 21
-530.5639995267532
 31
0.0
  0
LINE
  5
17B
330
1F
100
AcDbEntity
  8
D-1
  6
Continuous
 62
     2
370
     9
100
AcDbLine
 10
-926.672478751467
 20
-285.5637038877151
 30
0.0
 11
-926.672478751467
 21
-185.5642284085891
 31
0.0
  0
LINE
  5
17C
330
1F
100
AcDbEntity
  8
D-1
  6
Continuous
 62
     2
370
     9
100
AcDbLine
 10
-941.6723029177649
 20
-185.5642284085891
 30
0.0
 11
-926.672478751467
 21
-185.5642284085891
 31
0.0
  0
LINE
  5
17D
330
1F
100
AcDbEntity
  8
D-6
  6
Continuous
 62
     6
370
     9
100
AcDbLine
 10
-926.672478751467
 20
-185.5642284085891
 30
0.0
 11
-511.6718087952597
 21
-185.5642284085891
 31
0.0
  0
LINE
  5
17E
330
1F
100
AcDbEntity
  8
D-4
  6
Continuous
 62
     7
370
     9
100
AcDbLine
 10
-407.909792498873
 20
-185.5642284085891
 30
0.0
 11
-407.909792498873
 21
-510.5639995267532
 31
0.0
  0
LINE
  5
17F
330
1F
100
AcDbEntity
  8
D-4
  6
Continuous
 62
     7
370
     9
100
AcDbLine
 10
-404.9098001282675
 20
-185.5642284085891
 30
0.0
 11
-491.6718087952597
 21
-185.5642284085891
 31
0.0
  0
LINE
  5
180
330
1F
100
AcDbEntity
  8
D-4
  6
Continuous
 62
     7
370
     9
100
AcDbLine
 10
-404.9098001282675
 20
-510.5639995267532
 30
0.0
 11
-656.6723047059043
 21
-510.5639995267532
 31
0.0
  0
ARC
  5
181
330
1F
100
AcDbEntity
  8
D-1
  6
Continuous
 62
     2
370
     9
100
AcDbCircle
 10
-941.6723029177649
 20
-285.5637038877151
 30
0.0
 40
15.0
100
AcDbArc
 50
270.0
 51
0.0
  0
LWPOLYLINE
  5
182
330
1F
100
AcDbEntity
  8
D-4
  6
Continuous
 62
     7
370
     9
100
AcDbPolyline
 90
        4
 70
     1
 43
2.0
 10
-940.6713128846152
 20
41.6071544954648
 42
0.4142135623731
 10
-941.6713128846152
 20
42.6071544954648
 42
0.4142135623731
 10
-942.6713128846152
 20
41.6071544954648
 42
0.4142135623731
 10
-941.6713128846152
 20
40.6071544954648
 42
0.4142135623731
  0
LWPOLYLINE
  5
183
330
1F
100
AcDbEntity
  8
D-4
  6
Continuous
 62
     7
370
     9
100
AcDbPolyline
 90
        4
 70
     1
 43
2.0
 10
-1075.672190264986
 20
-67.14521061683989
 42
0.4142135623731
 10
-1076.672190264986
 20
-66.14521061683989
 42
0.4142135623731
 10
-1077.672190264986
 20
-67.14521061683989
 42
0.4142135623731
 10
-1076.672190264986
 20
-68.14521061683989
 42
0.4142135623731
  0
LWPOLYLINE
  5
184
330
1F
100
AcDbEntity
  8
D-4
  6
Continuous
 62
     7
370
     9
100
AcDbPolyline
 90
        4
 70
     1
 43
2.0
 10
-950.671358543141
 20
-67.14521061683989
 42
0.4142135623731
 10
-951.671358543141
 20
-66.14521061683989
 42
0.4142135623731
 10
-952.671358543141
 20
-67.14521061683989
 42
0.4142135623731
 10
-951.671358543141
 20
-68.14521061683989
 42
0.4142135623731
  0
LWPOLYLINE
  5
185
330
1F
100
AcDbEntity
  8
D-4
  6
Continuous
 62
     7
370
     9
100
AcDbPolyline
 90
        4
 70
     1
 43
2.0
 10
-950.671358543141
 20
41.6071544954648
 42
0.4142135623731
 10
-951.671358543141
 20
42.6071544954648
 42
0.4142135623731
 10
-952.671358543141
 20
41.6071544954648
 42
0.4142135623731
 10
-951.671358543141
 20
40.6071544954648
 42
0.4142135623731
  0
LWPOLYLINE
  5
186
330
1F
100
AcDbEntity
  8
D-4
  6
Continuous
 62
     7
370
     9
100
AcDbPolyline
 90
        4
 70
     1
 43
2.0
 10
-925.672478751467
 20
41.6071544954648
 42
0.4142135623731
 10
-926.672478751467
 20
42.6071544954648
 42
0.4142135623731
 10
-927.672478751467
 20
41.6071544954648
 42
0.4142135623731
 10
-926.672478751467
 20
40.6071544954648
 42
0.4142135623731
  0
LWPOLYLINE
  5
187
330
1F
100
AcDbEntity
  8
D-4
  6
Continuous
 62
     7
370
     9
100
AcDbPolyline
 90
        4
 70
     1
 43
2.0
 10
-925.672478751467
 20
152.3028599092831
 42
0.4142135623731
 10
-926.672478751467
 20
153.3028599092831
 42
0.4142135623731
 10
-927.672478751467
 20
152.3028599092831
 42
0.4142135623731
 10
-926.672478751467
 20
151.3028599092832
 42
0.4142135623731
  0
LWPOLYLINE
  5
188
330
1F
100
AcDbEntity
  8
D-4
  6
Continuous
 62
     7
370
     9
100
AcDbPolyline
 90
        4
 70
     1
 43
2.0
 10
-1075.672686175631
 20
-590.3191722562453
 42
0.4142135623731
 10
-1076.672686175631
 20
-589.3191722562453
 42
0.4142135623731
 10
-1077.672686175631
 20
-590.3191722562453
 42
0.4142135623731
 10
-1076.672686175631
 20
-591.3191722562455
 42
0.4142135623731
  0
LWPOLYLINE
  5
189
330
1F
100
AcDbEntity
  8
D-4
  6
Continuous
 62
     7
370
     9
100
AcDbPolyline
 90
        4
 70
     1
 43
2.0
 10
-925.671987609194
 20
-590.3191722562453
 42
0.4142135623731
 10
-926.671987609194
 20
-589.3191722562453
 42
0.4142135623731
 10
-927.671987609194
 20
-590.3191722562453
 42
0.4142135623731
 10
-926.671987609194
 20
-591.3191722562455
 42
0.4142135623731
  0
LWPOLYLINE
  5
18A
330
1F
100
AcDbEntity
  8
D-4
  6
Continuous
 62
     7
370
     9
100
AcDbPolyline
 90
        4
 70
     1
 43
2.0
 10
-1075.672686175631
 20
-743.9161266019485
 42
0.4142135623731
 10
-1076.672686175631
 20
-742.9161266019486
 42
0.4142135623731
 10
-1077.672686175631
 20
-743.9161266019485
 42
0.4142135623731
 10
-1076.672686175631
 20
-744.9161266019485
 42
0.4142135623731
  0
LWPOLYLINE
  5
18B
330
1F
100
AcDbEntity
  8
D-4
  6
Continuous
 62
     7
370
     9
100
AcDbPolyline
 90
        4
 70
     1
 43
2.0
 10
-675.6723047059043
 20
-743.9161266019485
 42
0.4142135623731
 10
-676.6723047059043
 20
-742.9161266019486
 42
0.4142135623731
 10
-677.6723047059043
 20
-743.9161266019485
 42
0.4142135623731
 10
-676.6723047059043
 20
-744.9161266019485
 42
0.4142135623731
  0
LWPOLYLINE
  5
18C
330
1F
100
AcDbEntity
  8
D-4
  6
Continuous
 62
     7
370
     9
100
AcDbPolyline
 90
        4
 70
     1
 43
2.0
 10
-406.909792498873
 20
-185.5642284085891
 42
0.4142135623731
 10
-407.909792498873
 20
-184.5642284085891
 42
0.4142135623731
 10
-408.909792498873
 20
-185.5642284085891
 42
0.4142135623731
 10
-407.909792498873
 20
-186.5642284085891
 42
0.4142135623731
  0
LWPOLYLINE
  5
18D
330
1F
100
AcDbEntity
  8
D-4
  6
Continuous
 62
     7
370
     9
100
AcDbPolyline
 90
        4
 70
     1
 43
2.0
 10
-406.909792498873
 20
-510.5639995267532
 42
0.4142135623731
 10
-407.909792498873
 20
-509.5639995267532
 42
0.4142135623731
 10
-408.909792498873
 20
-510.5639995267532
 42
0.4142135623731
 10
-407.909792498873
 20
-511.5639995267532
 42
0.4142135623731
  0
TEXT
  5
18E
330
1F
100
AcDbEntity
  8
D-4
  6
Continuous
 62
     2
370
     9
100
AcDbText
 10
-1035.421436862276
 20
-56.50500080849028
 30
0.0
 40
30.48
  1
25
 41
1.0625
  7
ＭＳ ゴシック
100
AcDbText
  0
TEXT
  5
18F
330
1F
100
AcDbEntity
  8
D-4
  6
Continuous
 62
     2
370
     9
100
AcDbText
 10
-1060.873173312472
 20
-580.5424382474563
 30
0.0
 40
30.48
  1
25～30
 41
1.104166666666667
  7
ＭＳ ゴシック
100
AcDbText
  0
TEXT
  5
190
330
1F
100
AcDbEntity
  8
D-4
  6
Continuous
 62
     2
370
     9
100
AcDbText
 10
-944.5400760930045
 20
-735.0068166043899
 30
0.0
 40
30.48
  1
75～80
 41
1.104166666666667
  7
ＭＳ ゴシック
100
AcDbText
  0
TEXT
  5
191
330
1F
100
AcDbEntity
  8
D-4
  6
Continuous
 62
     2
370
     9
100
AcDbText
 10
-421.157214373873
 20
-408.5687795889592
 30
0.0
 40
30.48
  1
55～65
 50
90.00000250447756
 41
1.104166666666667
  7
ＭＳ ゴシック
100
AcDbText
  0
TEXT
  5
192
330
1F
100
AcDbEntity
  8
D-4
  6
Continuous
 62
     2
370
     9
100
AcDbText
 10
-913.3711252968772
 20
52.24648692344331
 30
0.0
 40
30.48
  1
3
 41
0.9999999999999998
  7
ＭＳ ゴシック
100
AcDbText
  0
TEXT
  5
193
330
1F
100
AcDbEntity
  8
D-4
  6
Continuous
 62
     2
370
     9
100
AcDbText
 10
-978.5123883049948
 20
52.24648692344331
 30
0.0
 40
30.48
  1
2
 41
0.9999999999999998
  7
ＭＳ ゴシック
100
AcDbText
  0
TEXT
  5
194
330
1F
100
AcDbEntity
  8
D-5
  6
Continuous
 62
     2
370
     9
100
AcDbText
 10
-1375.240686969088
 20
-859.8947026517532
 30
0.0
 40
30.48
  1
断面詳細図　Ｓ＝１：２
 41
1.113636363636364
  7
ＭＳ ゴシック
100
AcDbText
  0
LINE
  5
195
330
1F
100
AcDbEntity
  8
D-4
  6
Continuous
 62
     7
370
     9
100
AcDbLine
 10
-1076.663769320772
 20
-418.6658061673782
 30
0.0
 11
-926.6636572640402
 21
-418.6658061673782
 31
0.0
  0
LINE
  5
196
330
1F
100
AcDbEntity
  8
D-4
  6
Continuous
 62
     7
370
     9
100
AcDbLine
 10
-926.6636572640402
 20
-418.6658061673782
 30
0.0
 11
-756.6634355347617
 21
-418.6658061673782
 31
0.0
  0
LINE
  5
197
330
1F
100
AcDbEntity
  8
D-4
  6
Continuous
 62
     7
370
     9
100
AcDbLine
 10
-756.6634355347617
 20
-421.66581761147
 30
0.0
 11
-756.6634355347617
 21
-337.0621360471389
 31
0.0
  0
LINE
  5
198
330
1F
100
AcDbEntity
  8
D-4
  6
Continuous
 62
     7
370
     9
100
AcDbLine
 10
-693.7074647706015
 20
-332.062202804341
 30
0.0
 11
-751.6634355347617
 21
-332.062202804341
 31
0.0
  0
LINE
  5
199
330
1F
100
AcDbEntity
  8
D-4
  6
Continuous
 62
     7
370
     9
100
AcDbLine
 10
-696.707457141207
 20
-300.5630267789504
 30
0.0
 11
-696.707457141207
 21
-417.3131526639602
 31
0.0
  0
LINE
  5
19A
330
1F
100
AcDbEntity
  8
D-4
  6
Continuous
 62
     7
370
     9
100
AcDbLine
 10
-926.6636572640402
 20
-421.66581761147
 30
0.0
 11
-926.6636572640402
 21
-337.0621360471389
 31
0.0
  0
LINE
  5
19B
330
1F
100
AcDbEntity
  8
D-9
  6
Continuous
 62
     4
370
     9
100
AcDbLine
 10
-886.6634784501059
 20
-332.062202804341
 30
0.0
 11
-771.6634355347617
 21
-332.062202804341
 31
0.0
  0
LINE
  5
19C
330
1F
100
AcDbEntity
  8
D-9
  6
Continuous
 62
     4
370
     9
100
AcDbLine
 10
-901.6635499756796
 20
-317.0621360471389
 30
0.0
 11
-901.6635499756796
 21
-303.0621684720657
 31
0.0
  0
LINE
  5
19D
330
1F
100
AcDbEntity
  8
D-9
  6
Continuous
 62
     4
370
     9
100
AcDbLine
 10
-756.663626269625
 20
-317.0621360471389
 30
0.0
 11
-756.663626269625
 21
-303.0621684720657
 31
0.0
  0
LINE
  5
19E
330
1F
100
AcDbEntity
  8
D-9
  6
Continuous
 62
     4
370
     9
100
AcDbLine
 10
-921.6636429589255
 20
-313.0622161557815
 30
0.0
 11
-921.6636429589255
 21
-303.0621684720657
 31
0.0
  0
LINE
  5
19F
330
1F
100
AcDbEntity
  8
D-9
  6
Continuous
 62
     4
370
     9
100
AcDbLine
 10
-901.6385255616171
 20
-313.0622161557815
 30
0.0
 11
-951.663353940836
 21
-313.0622161557815
 31
0.0
  0
LINE
  5
1A0
330
1F
100
AcDbEntity
  8
D-9
  6
Continuous
 62
     4
370
     9
100
AcDbLine
 10
-756.663626269625
 20
-303.0621684720657
 30
0.0
 11
-951.663353940836
 21
-303.0621684720657
 31
0.0
  0
LINE
  5
1A1
330
1F
100
AcDbEntity
  8
D-9
  6
Continuous
 62
     3
370
     9
100
AcDbLine
 10
-1051.663683490084
 20
-300.5635226895949
 30
0.0
 11
-1051.663683490084
 21
-323.0635036161086
 31
0.0
  0
LINE
  5
1A2
330
1F
100
AcDbEntity
  8
D-9
  6
Continuous
 62
     3
370
     9
100
AcDbLine
 10
-951.663353940836
 20
-323.0635036161086
 30
0.0
 11
-1051.663683490084
 21
-323.0635036161086
 31
0.0
  0
LINE
  5
1A3
330
1F
100
AcDbEntity
  8
D-9
  6
Continuous
 62
     3
370
     9
100
AcDbLine
 10
-951.663353940836
 20
-300.5635226895949
 30
0.0
 11
-1051.663683490084
 21
-300.5635226895949
 31
0.0
  0
LINE
  5
1A4
330
1F
100
AcDbEntity
  8
D-9
  6
Continuous
 62
     2
370
     9
100
AcDbLine
 10
-987.9137836258872
 20
-325.5621493985793
 30
0.0
 11
-987.9137836258872
 21
-323.0635036161086
 31
0.0
  0
LINE
  5
1A5
330
1F
100
AcDbEntity
  8
D-9
  6
Continuous
 62
     2
370
     9
100
AcDbLine
 10
-996.6644941132529
 20
-333.0615581205032
 30
0.0
 11
-987.9137836258872
 21
-325.5621493985793
 31
0.0
  0
LINE
  5
1A6
330
1F
100
AcDbEntity
  8
D-9
  6
Continuous
 62
     2
370
     9
100
AcDbLine
 10
-1006.663411692904
 20
-333.0615581205032
 30
0.0
 11
-996.6644941132529
 21
-333.0615581205032
 31
0.0
  0
LINE
  5
1A7
330
1F
100
AcDbEntity
  8
D-9
  6
Continuous
 62
     2
370
     9
100
AcDbLine
 10
-1015.413874224947
 20
-325.5621493985793
 30
0.0
 11
-1006.663411692904
 21
-333.0615581205032
 31
0.0
  0
LINE
  5
1A8
330
1F
100
AcDbEntity
  8
D-9
  6
Continuous
 62
     2
370
     9
100
AcDbLine
 10
-1015.413874224947
 20
-325.5621493985793
 30
0.0
 11
-1015.413874224947
 21
-323.0635036161086
 31
0.0
  0
LINE
  5
1A9
330
1F
100
AcDbEntity
  8
D-9
  6
Continuous
 62
     2
370
     9
100
AcDbLine
 10
-1015.413874224947
 20
-325.5621493985793
 30
0.0
 11
-987.9137836258872
 21
-325.5621493985793
 31
0.0
  0
LINE
  5
1AA
330
1F
100
AcDbEntity
  8
D-9
  6
Continuous
 62
     3
370
     9
100
AcDbLine
 10
-951.663353940836
 20
-300.5635226895949
 30
0.0
 11
-951.663353940836
 21
-323.0635036161086
 31
0.0
  0
LINE
  5
1AB
330
1F
100
AcDbEntity
  8
D-9
  6
Continuous
 62
     3
370
     9
100
AcDbLine
 10
-951.663353940836
 20
-310.5635226895949
 30
0.0
 11
-1051.663683490084
 21
-310.5635226895949
 31
0.0
  0
LINE
  5
1AC
330
1F
100
AcDbEntity
  8
D-9
  6
JWW_DASHED2
 62
     3
370
     9
100
AcDbLine
 10
-951.663353940836
 20
-313.0635036161086
 30
0.0
 11
-1051.663683490084
 21
-313.0635036161086
 31
0.0
  0
LINE
  5
1AD
330
1F
100
AcDbEntity
  8
D-9
  6
JWW_CENTER1
 62
     4
370
     9
100
AcDbLine
 10
-1001.663516597079
 20
-340.8025230100295
 30
0.0
 11
-1001.663516597079
 21
-300.5635226895949
 31
0.0
  0
ARC
  5
1AE
330
1F
100
AcDbEntity
  8
D-9
  6
Continuous
 62
     4
370
     9
100
AcDbCircle
 10
-886.6634784501059
 20
-317.0621360471389
 30
0.0
 40
15.00000238418579
100
AcDbArc
 50
180.0
 51
270.0
  0
ARC
  5
1AF
330
1F
100
AcDbEntity
  8
D-9
  6
Continuous
 62
     4
370
     9
100
AcDbCircle
 10
-771.6634355347617
 20
-317.0621360471389
 30
0.0
 40
15.00000238418579
100
AcDbArc
 50
270.0
 51
0.0
  0
LWPOLYLINE
  5
1B0
330
1F
100
AcDbEntity
  8
D-4
  6
Continuous
 62
     7
370
     9
100
AcDbPolyline
 90
        4
 70
     1
 43
2.0
 10
-1075.663769320772
 20
-418.6658061673782
 42
0.4142135623731
 10
-1076.663769320772
 20
-417.6658061673782
 42
0.4142135623731
 10
-1077.663769320772
 20
-418.6658061673782
 42
0.4142135623731
 10
-1076.663769320772
 20
-419.6658061673782
 42
0.4142135623731
  0
LWPOLYLINE
  5
1B1
330
1F
100
AcDbEntity
  8
D-4
  6
Continuous
 62
     7
370
     9
100
AcDbPolyline
 90
        4
 70
     1
 43
2.0
 10
-925.6636572640402
 20
-418.6658061673782
 42
0.4142135623731
 10
-926.6636572640402
 20
-417.6658061673782
 42
0.4142135623731
 10
-927.6636572640402
 20
-418.6658061673782
 42
0.4142135623731
 10
-926.6636572640402
 20
-419.6658061673782
 42
0.4142135623731
  0
LWPOLYLINE
  5
1B2
330
1F
100
AcDbEntity
  8
D-4
  6
Continuous
 62
     7
370
     9
100
AcDbPolyline
 90
        4
 70
     1
 43
2.0
 10
-755.6634355347617
 20
-418.6658061673782
 42
0.4142135623731
 10
-756.6634355347617
 20
-417.6658061673782
 42
0.4142135623731
 10
-757.6634355347617
 20
-418.6658061673782
 42
0.4142135623731
 10
-756.6634355347617
 20
-419.6658061673782
 42
0.4142135623731
  0
LWPOLYLINE
  5
1B3
330
1F
100
AcDbEntity
  8
D-4
  6
Continuous
 62
     7
370
     9
100
AcDbPolyline
 90
        4
 70
     1
 43
2.0
 10
-695.707457141207
 20
-332.062202804341
 42
0.4142135623731
 10
-696.707457141207
 20
-331.062202804341
 42
0.4142135623731
 10
-697.707457141207
 20
-332.062202804341
 42
0.4142135623731
 10
-696.707457141207
 20
-333.062202804341
 42
0.4142135623731
  0
TEXT
  5
1B4
330
1F
100
AcDbEntity
  8
D-4
  6
Continuous
 62
     2
370
     9
100
AcDbText
 10
-1022.913712100313
 20
-407.0258023526809
 30
0.0
 40
30.48
  1
30
 41
1.0625
  7
ＭＳ ゴシック
100
AcDbText
  0
TEXT
  5
1B5
330
1F
100
AcDbEntity
  8
D-4
  6
Continuous
 62
     2
370
     9
100
AcDbText
 10
-916.2974654000266
 20
-407.0258023526809
 30
0.0
 40
30.48
  1
34
 41
1.0625
  7
ＭＳ ゴシック
100
AcDbText
  0
TEXT
  5
1B6
330
1F
100
AcDbEntity
  8
D-4
  6
Continuous
 62
     2
370
     9
100
AcDbText
 10
-708.3474609559042
 20
-403.7574163687443
 30
0.0
 40
30.48
  1
6.5
 50
90.00000250447674
 41
1.083333333333334
  7
ＭＳ ゴシック
100
AcDbText
  0
LINE
  5
1B7
330
1F
100
AcDbEntity
  8
D-4
  6
Continuous
 62
     7
370
     9
100
AcDbLine
 10
-892.661522464083
 20
-300.5630267789504
 30
0.0
 11
-693.7068925660117
 21
-300.5630267789504
 31
0.0
  0
LWPOLYLINE
  5
1B8
330
1F
100
AcDbEntity
  8
D-4
  6
Continuous
 62
     7
370
     9
100
AcDbPolyline
 90
        4
 70
     1
 43
2.0
 10
-695.707457141207
 20
-300.5630267789504
 42
0.4142135623731
 10
-696.707457141207
 20
-299.5630267789504
 42
0.4142135623731
 10
-697.707457141207
 20
-300.5630267789504
 42
0.4142135623731
 10
-696.707457141207
 20
-301.5630267789504
 42
0.4142135623731
  0
LINE
  5
1B9
330
1F
100
AcDbEntity
  8
D-4
  6
Continuous
 62
     7
370
     9
100
AcDbLine
 10
-696.707457141207
 20
-300.5630267789504
 30
0.0
 11
-696.707457141207
 21
-185.5642284085891
 31
0.0
  0
LWPOLYLINE
  5
1BA
330
1F
100
AcDbEntity
  8
D-4
  6
Continuous
 62
     7
370
     9
100
AcDbPolyline
 90
        4
 70
     1
 43
2.0
 10
-695.707457141207
 20
-185.5642284085891
 42
0.4142135623731
 10
-696.707457141207
 20
-184.5642284085891
 42
0.4142135623731
 10
-697.707457141207
 20
-185.5642284085891
 42
0.4142135623731
 10
-696.707457141207
 20
-186.5642284085891
 42
0.4142135623731
  0
TEXT
  5
1BB
330
1F
100
AcDbEntity
  8
D-4
  6
Continuous
 62
     2
370
   211
100
AcDbText
 10
-712.347457141207
 20
-264.3136275937698
 30
0.0
 40
30.48
  1
23
 50
90.0
 41
1.0625
  7
ＭＳ ゴシック
100
AcDbText
  0
LINE
  5
1BC
330
1F
100
AcDbEntity
  8
D-6
  6
Continuous
 62
     6
370
     9
100
AcDbLine
 10
-819.3787179749472
 20
-510.5639995267532
 30
0.0
 11
-819.3787179749472
 21
-332.062202804341
 31
0.0
  0
LINE
  5
1BD
330
1F
100
AcDbEntity
  8
D-6
  6
Continuous
 62
     6
370
     9
100
AcDbLine
 10
-864.3791757386191
 20
-510.5639995267532
 30
0.0
 11
-864.3791757386191
 21
-332.062202804341
 31
0.0
  0
LINE
  5
1BE
330
1F
100
AcDbEntity
  8
D-6
  6
Continuous
 62
     6
370
     9
100
AcDbLine
 10
-864.3791757386191
 20
-303.0621684720657
 30
0.0
 11
-864.3791757386191
 21
-268.0621684720657
 31
0.0
  0
LINE
  5
1BF
330
1F
100
AcDbEntity
  8
D-6
  6
Continuous
 62
     6
370
     9
100
AcDbLine
 10
-819.3787179749472
 20
-303.0621684720657
 30
0.0
 11
-819.3787179749472
 21
-268.0621684720657
 31
0.0
  0
LINE
  5
1C0
330
1F
100
AcDbEntity
  8
D-6
  6
Continuous
 62
     6
370
     9
100
AcDbLine
 10
-864.3791757386191
 20
-268.0621684720657
 30
0.0
 11
-819.3787179749472
 21
-268.0621684720657
 31
0.0
  0
LINE
  5
1C1
330
1F
100
AcDbEntity
  8
D-6
  6
JWW_CENTER2
 62
     6
370
     9
100
AcDbLine
 10
-841.8789468567832
 20
-255.7487739255569
 30
0.0
 11
-841.8789468567832
 21
-623.8965190580032
 31
0.0
  0
LINE
  5
1C2
330
1F
100
AcDbEntity
  8
D-5
  6
Continuous
 62
     7
370
     9
100
AcDbLine
 10
-908.5526452820761
 20
-303.0621684720657
 30
0.0
 11
-894.7409568589194
 21
-282.2237456967971
 31
0.0
  0
LINE
  5
1C3
330
1F
100
AcDbEntity
  8
D-5
  6
Continuous
 62
     7
370
     9
100
AcDbLine
 10
-908.5526452820761
 20
-303.0621684720657
 30
0.0
 11
-889.8189674180014
 21
-286.50806080605
 31
0.0
  0
LINE
  5
1C4
330
1F
100
AcDbEntity
  8
D-5
  6
Continuous
 62
     7
370
     9
100
AcDbLine
 10
-734.0035138886435
 20
-102.514740340961
 30
0.0
 11
-908.5526452820761
 21
-303.0621684720657
 31
0.0
  0
TEXT
  5
1C5
330
1F
100
AcDbEntity
  8
D-5
  6
Continuous
 62
     7
370
     9
100
AcDbText
 10
-720.359276370333
 20
-93.62585057045317
 30
0.0
 40
22.86
  1
アンカー＠５００
 41
1.145833333333333
  7
ＭＳ ゴシック
100
AcDbText
  0
LWPOLYLINE
  5
1C6
330
1F
100
AcDbEntity
  8
D-4
  6
Continuous
 62
     7
370
     9
100
AcDbPolyline
 90
        4
 70
     1
 43
2.0
 10
-1708.741630745812
 20
-185.5639232328078
 42
0.4142135623731
 10
-1709.741630745812
 20
-184.5639232328078
 42
0.4142135623731
 10
-1710.741630745812
 20
-185.5639232328078
 42
0.4142135623731
 10
-1709.741630745812
 20
-186.5639232328078
 42
0.4142135623731
  0
LWPOLYLINE
  5
1C7
330
1F
100
AcDbEntity
  8
D-4
  6
Continuous
 62
     7
370
     9
100
AcDbPolyline
 90
        4
 70
     1
 43
2.0
 10
-1708.741630745812
 20
-285.5637582729261
 42
0.4142135623731
 10
-1709.741630745812
 20
-284.5637582729261
 42
0.4142135623731
 10
-1710.741630745812
 20
-285.5637582729261
 42
0.4142135623731
 10
-1709.741630745812
 20
-286.5637582729261
 42
0.4142135623731
  0
LINE
  5
1C8
330
1F
100
AcDbEntity
  8
D-2
  6
Continuous
 62
     3
370
     9
100
AcDbLine
 10
-971.6720655140762
 20
-285.5637582729261
 30
0.0
 11
-971.6720655140762
 21
-185.5639232328078
 31
0.0
  0
LINE
  5
1C9
330
1F
100
AcDbEntity
  8
D-2
  6
Continuous
 62
     3
370
     9
100
AcDbLine
 10
-951.671999530123
 20
-185.5639232328078
 30
0.0
 11
-951.671999530123
 21
-285.5637582729261
 31
0.0
  0
LINE
  5
1CA
330
1F
100
AcDbEntity
  8
D-2
  6
Continuous
 62
     3
370
     9
100
AcDbLine
 10
-1649.340580281284
 20
-340.807606094136
 30
0.0
 11
-1649.340580281284
 21
-116.8651020361229
 31
0.0
  0
LINE
  5
1CB
330
1F
100
AcDbEntity
  8
D-2
  6
Continuous
 62
     3
370
     9
100
AcDbLine
 10
-1649.340580281284
 20
-285.5637582729261
 30
0.0
 11
-951.671999530123
 21
-285.5637582729261
 31
0.0
  0
LINE
  5
1CC
330
1F
100
AcDbEntity
  8
D-2
  6
Continuous
 62
     3
370
     9
100
AcDbLine
 10
-951.671999530123
 20
-185.5639232328078
 30
0.0
 11
-1649.340580281284
 21
-185.5639232328078
 31
0.0
  0
LINE
  5
1CD
330
1F
100
AcDbEntity
  8
D-4
  6
Continuous
 62
     7
370
     9
100
AcDbLine
 10
-1709.741630745812
 20
-285.5637582729261
 30
0.0
 11
-1709.741630745812
 21
-185.5639232328078
 31
0.0
  0
LINE
  5
1CE
330
1F
100
AcDbEntity
  8
D-4
  6
Continuous
 62
     7
370
     9
100
AcDbLine
 10
-1654.690476686478
 20
-285.5637582729261
 30
0.0
 11
-1712.741467435528
 21
-285.5637582729261
 31
0.0
  0
LINE
  5
1CF
330
1F
100
AcDbEntity
  8
D-4
  6
Continuous
 62
     7
370
     9
100
AcDbLine
 10
-1654.690476686478
 20
-185.5639232328078
 30
0.0
 11
-1712.741467435528
 21
-185.5639232328078
 31
0.0
  0
LINE
  5
1D0
330
1F
100
AcDbEntity
  8
D-2
  6
Continuous
 62
     3
370
     9
100
AcDbLine
 10
-1459.172807833544
 20
-185.5639232328078
 30
0.0
 11
-1459.172807833544
 21
-260.5639232328078
 31
0.0
  0
LINE
  5
1D1
330
1F
100
AcDbEntity
  8
D-2
  6
Continuous
 62
     3
370
     9
100
AcDbLine
 10
-1444.172634625668
 20
-185.5639232328078
 30
0.0
 11
-1444.172634625668
 21
-260.5639232328078
 31
0.0
  0
LINE
  5
1D2
330
1F
100
AcDbEntity
  8
D-2
  6
Continuous
 62
     3
370
     9
100
AcDbLine
 10
-1439.172494409769
 20
-213.0637665209202
 30
0.0
 11
-1409.172642873662
 21
-223.0639232328078
 31
0.0
  0
LINE
  5
1D3
330
1F
100
AcDbEntity
  8
D-2
  6
Continuous
 62
     3
370
     9
100
AcDbLine
 10
-1409.172642873662
 20
-223.0639232328078
 30
0.0
 11
-1409.172642873662
 21
-250.5637665209202
 31
0.0
  0
LINE
  5
1D4
330
1F
100
AcDbEntity
  8
D-2
  6
Continuous
 62
     3
370
     9
100
AcDbLine
 10
-1439.172494409769
 20
-250.5637665209202
 30
0.0
 11
-1409.172642873662
 21
-250.5637665209202
 31
0.0
  0
LINE
  5
1D5
330
1F
100
AcDbEntity
  8
D-2
  6
Continuous
 62
     3
370
     9
100
AcDbLine
 10
-1439.172494409769
 20
-250.5637665209202
 30
0.0
 11
-1439.172494409769
 21
-260.5639232328078
 31
0.0
  0
LINE
  5
1D6
330
1F
100
AcDbEntity
  8
D-2
  6
Continuous
 62
     3
370
     9
100
AcDbLine
 10
-1439.172494409769
 20
-260.5639232328078
 30
0.0
 11
-1464.172205729975
 21
-260.5639232328078
 31
0.0
  0
LINE
  5
1D7
330
1F
100
AcDbEntity
  8
D-2
  6
Continuous
 62
     3
370
     9
100
AcDbLine
 10
-1464.172205729975
 20
-260.5639232328078
 30
0.0
 11
-1494.172428425816
 21
-250.5637665209202
 31
0.0
  0
LINE
  5
1D8
330
1F
100
AcDbEntity
  8
D-2
  6
Continuous
 62
     3
370
     9
100
AcDbLine
 10
-1494.172428425816
 20
-223.0639232328078
 30
0.0
 11
-1494.172428425816
 21
-250.5637665209202
 31
0.0
  0
LINE
  5
1D9
330
1F
100
AcDbEntity
  8
D-2
  6
Continuous
 62
     3
370
     9
100
AcDbLine
 10
-1494.172428425816
 20
-223.0639232328078
 30
0.0
 11
-1464.172205729975
 21
-223.0639232328078
 31
0.0
  0
LINE
  5
1DA
330
1F
100
AcDbEntity
  8
D-2
  6
Continuous
 62
     3
370
     9
100
AcDbLine
 10
-1464.172205729975
 20
-213.0637665209202
 30
0.0
 11
-1464.172205729975
 21
-223.0639232328078
 31
0.0
  0
LINE
  5
1DB
330
1F
100
AcDbEntity
  8
D-2
  6
Continuous
 62
     3
370
     9
100
AcDbLine
 10
-1459.172807833544
 20
-213.0637665209202
 30
0.0
 11
-1464.172205729975
 21
-213.0637665209202
 31
0.0
  0
LINE
  5
1DC
330
1F
100
AcDbEntity
  8
D-2
  6
Continuous
 62
     3
370
     9
100
AcDbLine
 10
-1439.172494409769
 20
-213.0637665209202
 30
0.0
 11
-1444.172634625668
 21
-213.0637665209202
 31
0.0
  0
TEXT
  5
1DD
330
1F
100
AcDbEntity
  8
D-4
  6
Continuous
 62
     2
370
     9
100
AcDbText
 10
-1646.285688231031
 20
161.0001490328171
 30
0.0
 40
30.48
  1
210
 41
1.083333333333333
  7
ＭＳ ゴシック
100
AcDbText
  0
TEXT
  5
1DE
330
1F
100
AcDbEntity
  8
D-4
  6
Continuous
 62
     2
370
     9
100
AcDbText
 10
-1646.285688231031
 20
52.24774886653748
 30
0.0
 40
30.48
  1
200
 41
1.083333333333333
  7
ＭＳ ゴシック
100
AcDbText
  0
TEXT
  5
1DF
330
1F
100
AcDbEntity
  8
D-4
  6
Continuous
 62
     2
370
     9
100
AcDbText
 10
-1646.285688231031
 20
-56.50465129974194
 30
0.0
 40
30.48
  1
150
 41
1.083333333333333
  7
ＭＳ ゴシック
100
AcDbText
  0
TEXT
  5
1E0
330
1F
100
AcDbEntity
  8
D-4
  6
Continuous
 62
     2
370
     9
100
AcDbText
 10
-1720.381770961712
 20
-256.8138490008611
 30
0.0
 40
30.48
  1
20
 50
90.0
 41
1.0625
  7
ＭＳ ゴシック
100
AcDbText
  0
LINE
  5
1E1
330
1F
100
AcDbEntity
  8
D-5
  6
Continuous
 62
     7
370
     9
100
AcDbLine
 10
-1013.207284712967
 20
-185.5639232328078
 30
0.0
 11
-999.3965881110989
 21
-164.7259921958587
 31
0.0
  0
LINE
  5
1E2
330
1F
100
AcDbEntity
  8
D-5
  6
Continuous
 62
     7
370
     9
100
AcDbLine
 10
-1013.207284712967
 20
-185.5639232328078
 30
0.0
 11
-994.4736092330777
 21
-169.0103114774367
 31
0.0
  0
LINE
  5
1E3
330
1F
100
AcDbEntity
  8
D-5
  6
Continuous
 62
     7
370
     9
100
AcDbLine
 10
-839.21897688522
 20
13.18496094856062
 30
0.0
 11
-1013.207284712967
 21
-185.5639232328078
 31
0.0
  0
TEXT
  5
1E4
330
1F
100
AcDbEntity
  8
D-5
  6
Continuous
 62
     7
370
     9
100
AcDbText
 10
-836.8120060105366
 20
95.04103978618745
 30
0.0
 40
22.86
  1
ステンレス製グレーチング
 41
1.152777777777778
  7
ＭＳ ゴシック
100
AcDbText
  0
TEXT
  5
1E5
330
1F
100
AcDbEntity
  8
D-5
  6
Continuous
 62
     7
370
     9
100
AcDbText
 10
-836.8120060105366
 20
20.93578218483616
 30
0.0
 40
22.86
  1
ＳＭＱ１２０２０（Ｐ＝３０）
 41
1.154761904761905
  7
ＭＳ ゴシック
100
AcDbText
  0
LINE
  5
1E6
330
1F
100
AcDbEntity
  8
D-5
  6
Continuous
 62
     7
370
     9
100
AcDbLine
 10
-839.21897688522
 20
13.18496094856062
 30
0.0
 11
-317.3207598902712
 21
13.18496094856062
 31
0.0
  0
LINE
  5
1E7
330
1F
100
AcDbEntity
  8
D-5
  6
Continuous
 62
     7
370
     9
100
AcDbLine
 10
-926.6724823277457
 20
-217.7399481236075
 30
0.0
 11
-912.861785725878
 21
-196.9020170866583
 31
0.0
  0
LINE
  5
1E8
330
1F
100
AcDbEntity
  8
D-5
  6
Continuous
 62
     7
370
     9
100
AcDbLine
 10
-926.6724823277457
 20
-217.7399481236075
 30
0.0
 11
-907.9388068478568
 21
-201.1863363682364
 31
0.0
  0
LINE
  5
1E9
330
1F
100
AcDbEntity
  8
D-5
  6
Continuous
 62
     7
370
     9
100
AcDbLine
 10
-776.8566010754569
 20
-45.61012694230904
 30
0.0
 11
-926.6724823277457
 21
-217.7399481236075
 31
0.0
  0
LINE
  5
1EA
330
1F
100
AcDbEntity
  8
D-5
  6
Continuous
 62
     7
370
     9
100
AcDbLine
 10
-776.8566010754569
 20
-45.61012694230904
 30
0.0
 11
-323.5294411938651
 21
-45.61012694230904
 31
0.0
  0
TEXT
  5
1EB
330
1F
100
AcDbEntity
  8
D-5
  6
Continuous
 62
     7
370
     9
100
AcDbText
 10
-773.7391113675098
 20
-36.62115858904012
 30
0.0
 40
22.86
  1
ステンレス製受枠ＲＬ－２０
 50
359.9999368586928
 41
1.153846153846155
  7
ＭＳ ゴシック
100
AcDbText
  0
TEXT
  5
1EC
330
1F
100
AcDbEntity
  8
D-5
  6
Continuous
 62
     2
370
     9
100
AcDbText
 10
-380.7052733691952
 20
-1367.792426062282
 30
0.0
 40
30.48
  1
ＳＭＱ　１２０２０（Ｐ＝３０）＋ＲＬ－２０
 41
0.8988095238095238
  7
ＭＳ ゴシック
100
AcDbText
  0
TEXT
  5
1ED
330
1F
100
AcDbEntity
  8
D-5
  6
Continuous
 62
     7
370
     9
100
AcDbText
 10
-836.8120060105366
 20
57.57382556268668
 30
0.0
 40
22.86
  1
滑り止め模様付　横断溝・側溝用
 41
1.155555555555555
  7
ＭＳ ゴシック
100
AcDbText
  0
TEXT
  5
1EE
330
1F
100
AcDbEntity
  8
F-5ﾚｲﾔ
  6
Continuous
 62
     2
370
     9
100
AcDbText
 10
-849.7265499649399
 20
-1322.856255849516
 30
0.0
 40
30.48
  1
ステンレス製グレーチング　滑り止め模様付　横断溝・側溝用
 41
0.8991071428571427
  7
ＭＳ ゴシック
100
AcDbText
  0
LWPOLYLINE
  5
1EF
330
1F
100
AcDbEntity
  8
C-4
  6
Continuous
 62
     7
370
     9
100
AcDbPolyline
 90
        4
 70
     1
 43
2.0
 10
-610.2972362621408
 20
1004.70287426098
 42
0.4142135623731
 10
-611.2972362621408
 20
1005.70287426098
 42
0.4142135623731
 10
-612.2972362621409
 20
1004.70287426098
 42
0.4142135623731
 10
-611.2972362621408
 20
1003.70287426098
 42
0.4142135623731
  0
LWPOLYLINE
  5
1F0
330
1F
100
AcDbEntity
  8
C-4
  6
Continuous
 62
     7
370
     9
100
AcDbPolyline
 90
        4
 70
     1
 43
2.0
 10
-608.2969327359585
 20
1004.70287426098
 42
0.4142135623731
 10
-609.2969327359585
 20
1005.70287426098
 42
0.4142135623731
 10
-610.2969327359586
 20
1004.70287426098
 42
0.4142135623731
 10
-609.2969327359585
 20
1003.70287426098
 42
0.4142135623731
  0
LWPOLYLINE
  5
1F1
330
1F
100
AcDbEntity
  8
C-4
  6
Continuous
 62
     7
370
     9
100
AcDbPolyline
 90
        4
 70
     1
 43
2.0
 10
385.7031052048143
 20
1004.70287426098
 42
0.4142135623731
 10
384.7031052048143
 20
1005.70287426098
 42
0.4142135623731
 10
383.7031052048143
 20
1004.70287426098
 42
0.4142135623731
 10
384.7031052048143
 20
1003.70287426098
 42
0.4142135623731
  0
LWPOLYLINE
  5
1F2
330
1F
100
AcDbEntity
  8
C-4
  6
Continuous
 62
     7
370
     9
100
AcDbPolyline
 90
        4
 70
     1
 43
2.0
 10
387.7026664115289
 20
1004.70287426098
 42
0.4142135623731
 10
386.7026664115289
 20
1005.70287426098
 42
0.4142135623731
 10
385.7026664115289
 20
1004.70287426098
 42
0.4142135623731
 10
386.7026664115289
 20
1003.70287426098
 42
0.4142135623731
  0
LWPOLYLINE
  5
1F3
330
1F
100
AcDbEntity
  8
C-4
  6
Continuous
 62
     7
370
     9
100
AcDbPolyline
 90
        4
 70
     1
 43
2.0
 10
-608.2969327359585
 20
1084.702395877323
 42
0.4142135623731
 10
-609.2969327359585
 20
1085.702395877323
 42
0.4142135623731
 10
-610.2969327359586
 20
1084.702395877323
 42
0.4142135623731
 10
-609.2969327359585
 20
1083.702395877323
 42
0.4142135623731
  0
LWPOLYLINE
  5
1F4
330
1F
100
AcDbEntity
  8
C-4
  6
Continuous
 62
     7
370
     9
100
AcDbPolyline
 90
        4
 70
     1
 43
2.0
 10
387.7026664115289
 20
1084.702395877323
 42
0.4142135623731
 10
386.7026664115289
 20
1085.702395877323
 42
0.4142135623731
 10
385.7026664115289
 20
1084.702395877323
 42
0.4142135623731
 10
386.7026664115289
 20
1083.702395877323
 42
0.4142135623731
  0
LWPOLYLINE
  5
1F5
330
1F
100
AcDbEntity
  8
C-4
  6
Continuous
 62
     7
370
     9
100
AcDbPolyline
 90
        4
 70
     1
 43
2.0
 10
233.7032965582772
 20
942.7033625422297
 42
0.4142135623731
 10
232.7032965582771
 20
943.7033625422296
 42
0.4142135623731
 10
231.7032965582771
 20
942.7033625422297
 42
0.4142135623731
 10
232.7032965582771
 20
941.7033625422298
 42
0.4142135623731
  0
LWPOLYLINE
  5
1F6
330
1F
100
AcDbEntity
  8
C-4
  6
Continuous
 62
     7
370
     9
100
AcDbPolyline
 90
        4
 70
     1
 43
2.0
 10
263.7029006545611
 20
942.7033625422297
 42
0.4142135623731
 10
262.702900654561
 20
943.7033625422296
 42
0.4142135623731
 10
261.702900654561
 20
942.7033625422297
 42
0.4142135623731
 10
262.702900654561
 20
941.7033625422298
 42
0.4142135623731
  0
LINE
  5
1F7
330
1F
100
AcDbEntity
  8
C-2
  6
Continuous
 62
     3
370
     9
100
AcDbLine
 10
-609.2969327359585
 20
707.7020923511401
 30
0.0
 11
-609.2969327359585
 21
907.7020098711995
 31
0.0
  0
LINE
  5
1F8
330
1F
100
AcDbEntity
  8
C-2
  6
Continuous
 62
     3
370
     9
100
AcDbLine
 10
-609.2969327359585
 20
907.7020098711995
 30
0.0
 11
384.7031052048143
 21
907.7020098711995
 31
0.0
  0
LINE
  5
1F9
330
1F
100
AcDbEntity
  8
C-2
  6
Continuous
 62
     3
370
     9
100
AcDbLine
 10
384.7031052048143
 20
707.7020923511401
 30
0.0
 11
-609.2969327359585
 21
707.7020923511401
 31
0.0
  0
LINE
  5
1FA
330
1F
100
AcDbEntity
  8
C-2
  6
Continuous
 62
     3
370
     9
100
AcDbLine
 10
384.7031052048143
 20
907.7020098711995
 30
0.0
 11
384.7031052048143
 21
707.7020923511401
 31
0.0
  0
LINE
  5
1FB
330
1F
100
AcDbEntity
  8
C-2
  6
Continuous
 62
     3
370
     9
100
AcDbLine
 10
-611.2972362621408
 20
907.7020098711995
 30
0.0
 11
-611.2972362621408
 21
707.7025872307854
 31
0.0
  0
LINE
  5
1FC
330
1F
100
AcDbEntity
  8
C-2
  6
Continuous
 62
     3
370
     9
100
AcDbLine
 10
386.7026664115289
 20
907.7029996304901
 30
0.0
 11
386.7026664115289
 21
707.7025872307854
 31
0.0
  0
LINE
  5
1FD
330
1F
100
AcDbEntity
  8
C-2
  6
Continuous
 62
     3
370
     9
100
AcDbLine
 10
-611.2972362621408
 20
907.7020098711995
 30
0.0
 11
-760.2969607791385
 21
907.7020098711995
 31
0.0
  0
LINE
  5
1FE
330
1F
100
AcDbEntity
  8
C-2
  6
Continuous
 62
     3
370
     9
100
AcDbLine
 10
-611.2972362621408
 20
707.7025872307854
 30
0.0
 11
-760.2969607791385
 21
707.7025872307854
 31
0.0
  0
LINE
  5
1FF
330
1F
100
AcDbEntity
  8
C-2
  6
Continuous
 62
     3
370
     9
100
AcDbLine
 10
544.7021484375
 20
907.7029996304901
 30
0.0
 11
386.7026664115289
 21
907.7029996304901
 31
0.0
  0
LINE
  5
200
330
1F
100
AcDbEntity
  8
C-2
  6
Continuous
 62
     3
370
     9
100
AcDbLine
 10
544.7021484375
 20
707.7025872307854
 30
0.0
 11
386.7026664115289
 21
707.7025872307854
 31
0.0
  0
LINE
  5
201
330
1F
100
AcDbEntity
  8
C-1
  6
JWW_DASHED3
 62
     2
370
     9
100
AcDbLine
 10
544.7021484375
 20
732.702917150549
 30
0.0
 11
-760.2969607791385
 21
732.7024222709036
 31
0.0
  0
LINE
  5
202
330
1F
100
AcDbEntity
  8
C-1
  6
JWW_DASHED3
 62
     2
370
     9
100
AcDbLine
 10
544.7021484375
 20
882.7026697107266
 30
0.0
 11
-760.2969607791385
 21
882.7026697107266
 31
0.0
  0
LINE
  5
203
330
1F
100
AcDbEntity
  8
C-1
  6
Continuous
 62
     2
370
     9
100
AcDbLine
 10
544.7021484375
 20
909.7028082770271
 30
0.0
 11
-760.2969607791385
 21
909.7028082770271
 31
0.0
  0
LINE
  5
204
330
1F
100
AcDbEntity
  8
C-1
  6
Continuous
 62
     2
370
     9
100
AcDbLine
 10
544.7021484375
 20
912.7032635663005
 30
0.0
 11
-760.2969607791385
 21
912.7032635663005
 31
0.0
  0
LINE
  5
205
330
1F
100
AcDbEntity
  8
C-1
  6
Continuous
 62
     2
370
     9
100
AcDbLine
 10
544.7021484375
 20
705.7027785842484
 30
0.0
 11
-760.2969607791385
 21
705.7022837046031
 31
0.0
  0
LINE
  5
206
330
1F
100
AcDbEntity
  8
C-1
  6
Continuous
 62
     2
370
     9
100
AcDbLine
 10
544.7021484375
 20
702.7028181746198
 30
0.0
 11
-760.2969607791385
 21
702.7023232949745
 31
0.0
  0
LINE
  5
207
330
1F
100
AcDbEntity
  8
C-2
  6
Continuous
 62
     3
370
     9
100
AcDbLine
 10
-780.2966556033573
 20
792.702372782939
 30
0.0
 11
-740.2963999155404
 21
822.7032140783359
 31
0.0
  0
LINE
  5
208
330
1F
100
AcDbEntity
  8
C-2
  6
Continuous
 62
     3
370
     9
100
AcDbLine
 10
-780.2966556033573
 20
792.702372782939
 30
0.0
 11
-760.2969607791385
 21
792.702372782939
 31
0.0
  0
LINE
  5
209
330
1F
100
AcDbEntity
  8
C-2
  6
Continuous
 62
     3
370
     9
100
AcDbLine
 10
-760.2969607791385
 20
822.7032140783359
 30
0.0
 11
-740.2963999155404
 21
822.7032140783359
 31
0.0
  0
LINE
  5
20A
330
1F
100
AcDbEntity
  8
C-2
  6
Continuous
 62
     3
370
     9
100
AcDbLine
 10
-760.2969607791385
 20
792.702372782939
 30
0.0
 11
-760.2969607791385
 21
687.7025212468328
 31
0.0
  0
LINE
  5
20B
330
1F
100
AcDbEntity
  8
C-2
  6
Continuous
 62
     3
370
     9
100
AcDbLine
 10
524.7025773331927
 20
792.702372782939
 30
0.0
 11
564.7029567409209
 21
822.7032140783359
 31
0.0
  0
LINE
  5
20C
330
1F
100
AcDbEntity
  8
C-2
  6
Continuous
 62
     3
370
     9
100
AcDbLine
 10
524.7025773331927
 20
792.702372782939
 30
0.0
 11
544.7021484375
 21
792.702372782939
 31
0.0
  0
LINE
  5
20D
330
1F
100
AcDbEntity
  8
C-2
  6
Continuous
 62
     3
370
     9
100
AcDbLine
 10
544.7021484375
 20
822.7032140783359
 30
0.0
 11
564.7029567409209
 21
822.7032140783359
 31
0.0
  0
LINE
  5
20E
330
1F
100
AcDbEntity
  8
C-2
  6
Continuous
 62
     3
370
     9
100
AcDbLine
 10
544.7021484375
 20
792.702372782939
 30
0.0
 11
544.7021484375
 21
687.7025212468328
 31
0.0
  0
LINE
  5
20F
330
1F
100
AcDbEntity
  8
C-2
  6
Continuous
 62
     3
370
     9
100
AcDbLine
 10
544.7021484375
 20
927.7030656144427
 30
0.0
 11
544.7021484375
 21
822.7032140783359
 31
0.0
  0
LINE
  5
210
330
1F
100
AcDbEntity
  8
C-4
  6
Continuous
 62
     7
370
     9
100
AcDbLine
 10
-611.2972362621408
 20
924.7026103251687
 30
0.0
 11
-611.2972362621408
 21
1007.702587230785
 31
0.0
  0
LINE
  5
211
330
1F
100
AcDbEntity
  8
C-4
  6
Continuous
 62
     7
370
     9
100
AcDbLine
 10
-609.2969327359585
 20
924.7026103251687
 30
0.0
 11
-609.2969327359585
 21
1087.702851166596
 31
0.0
  0
LINE
  5
212
330
1F
100
AcDbEntity
  8
C-4
  6
Continuous
 62
     7
370
     9
100
AcDbLine
 10
384.7031052048143
 20
924.7026103251687
 30
0.0
 11
384.7031052048143
 21
1007.702587230785
 31
0.0
  0
LINE
  5
213
330
1F
100
AcDbEntity
  8
C-4
  6
Continuous
 62
     7
370
     9
100
AcDbLine
 10
386.7026664115289
 20
924.7026103251687
 30
0.0
 11
386.7026664115289
 21
1087.702851166596
 31
0.0
  0
LINE
  5
214
330
1F
100
AcDbEntity
  8
C-4
  6
Continuous
 62
     7
370
     9
100
AcDbLine
 10
-760.2969607791385
 20
1084.702395877323
 30
0.0
 11
544.7021484375
 21
1084.702395877323
 31
0.0
  0
LINE
  5
215
330
1F
100
AcDbEntity
  8
C-4
  6
Continuous
 62
     7
370
     9
100
AcDbLine
 10
-760.2969607791385
 20
1004.70287426098
 30
0.0
 11
544.7021484375
 21
1004.70287426098
 31
0.0
  0
LINE
  5
216
330
1F
100
AcDbEntity
  8
C-2
  6
Continuous
 62
     3
370
     9
100
AcDbLine
 10
-609.2969327359585
 20
903.7021451383026
 30
0.0
 11
384.7031052048143
 21
903.7021451383026
 31
0.0
  0
LINE
  5
217
330
1F
100
AcDbEntity
  8
C-2
  6
Continuous
 62
     3
370
     9
100
AcDbLine
 10
384.7031052048143
 20
711.701957084037
 30
0.0
 11
-609.2969327359585
 21
711.701957084037
 31
0.0
  0
LINE
  5
218
330
1F
100
AcDbEntity
  8
C-2
  6
Continuous
 62
     3
370
     9
100
AcDbLine
 10
-605.2970680030614
 20
711.701957084037
 30
0.0
 11
-605.2970680030614
 21
903.7021451383026
 31
0.0
  0
LINE
  5
219
330
1F
100
AcDbEntity
  8
C-2
  6
Continuous
 62
     3
370
     9
100
AcDbLine
 10
-575.2969690271325
 20
711.701957084037
 30
0.0
 11
-575.2969690271325
 21
903.7021451383026
 31
0.0
  0
LINE
  5
21A
330
1F
100
AcDbEntity
  8
C-2
  6
Continuous
 62
     3
370
     9
100
AcDbLine
 10
-579.2973286396748
 20
711.701957084037
 30
0.0
 11
-579.2973286396748
 21
903.7021451383026
 31
0.0
  0
LINE
  5
21B
330
1F
100
AcDbEntity
  8
C-2
  6
Continuous
 62
     3
370
     9
100
AcDbLine
 10
-605.2970680030614
 20
806.2021946262666
 30
0.0
 11
-579.2973286396748
 21
806.2021946262666
 31
0.0
  0
LINE
  5
21C
330
1F
100
AcDbEntity
  8
C-2
  6
Continuous
 62
     3
370
     9
100
AcDbLine
 10
-605.2970680030614
 20
809.2019075960724
 30
0.0
 11
-579.2973286396748
 21
809.2019075960724
 31
0.0
  0
LINE
  5
21D
330
1F
100
AcDbEntity
  8
C-2
  6
Continuous
 62
     3
370
     9
100
AcDbLine
 10
-545.2972412109375
 20
711.701957084037
 30
0.0
 11
-545.2972412109375
 21
903.7021451383026
 31
0.0
  0
LINE
  5
21E
330
1F
100
AcDbEntity
  8
C-2
  6
Continuous
 62
     3
370
     9
100
AcDbLine
 10
-549.2972296637456
 20
711.701957084037
 30
0.0
 11
-549.2972296637456
 21
903.7021451383026
 31
0.0
  0
LINE
  5
21F
330
1F
100
AcDbEntity
  8
C-2
  6
Continuous
 62
     3
370
     9
100
AcDbLine
 10
-575.2969690271325
 20
806.2021946262666
 30
0.0
 11
-549.2972296637456
 21
806.2021946262666
 31
0.0
  0
LINE
  5
220
330
1F
100
AcDbEntity
  8
C-2
  6
Continuous
 62
     3
370
     9
100
AcDbLine
 10
-575.2969690271325
 20
809.2019075960724
 30
0.0
 11
-549.2972296637456
 21
809.2019075960724
 31
0.0
  0
LINE
  5
221
330
1F
100
AcDbEntity
  8
C-2
  6
Continuous
 62
     3
370
     9
100
AcDbLine
 10
-515.2971422350083
 20
711.701957084037
 30
0.0
 11
-515.2971422350083
 21
903.7021451383026
 31
0.0
  0
LINE
  5
222
330
1F
100
AcDbEntity
  8
C-2
  6
Continuous
 62
     3
370
     9
100
AcDbLine
 10
-519.2970069679052
 20
711.701957084037
 30
0.0
 11
-519.2970069679052
 21
903.7021451383026
 31
0.0
  0
LINE
  5
223
330
1F
100
AcDbEntity
  8
C-2
  6
Continuous
 62
     3
370
     9
100
AcDbLine
 10
-545.2972412109375
 20
806.2021946262666
 30
0.0
 11
-519.2970069679052
 21
806.2021946262666
 31
0.0
  0
LINE
  5
224
330
1F
100
AcDbEntity
  8
C-2
  6
Continuous
 62
     3
370
     9
100
AcDbLine
 10
-545.2972412109375
 20
809.2019075960724
 30
0.0
 11
-519.2970069679052
 21
809.2019075960724
 31
0.0
  0
LINE
  5
225
330
1F
100
AcDbEntity
  8
C-2
  6
Continuous
 62
     3
370
     9
100
AcDbLine
 10
-485.2970432590794
 20
711.701957084037
 30
0.0
 11
-485.2970432590794
 21
903.7021451383026
 31
0.0
  0
LINE
  5
226
330
1F
100
AcDbEntity
  8
C-2
  6
Continuous
 62
     3
370
     9
100
AcDbLine
 10
-489.2969079919763
 20
711.701957084037
 30
0.0
 11
-489.2969079919763
 21
903.7021451383026
 31
0.0
  0
LINE
  5
227
330
1F
100
AcDbEntity
  8
C-2
  6
Continuous
 62
     3
370
     9
100
AcDbLine
 10
-515.2971422350083
 20
806.2021946262666
 30
0.0
 11
-489.2969079919763
 21
806.2021946262666
 31
0.0
  0
LINE
  5
228
330
1F
100
AcDbEntity
  8
C-2
  6
Continuous
 62
     3
370
     9
100
AcDbLine
 10
-515.2971422350083
 20
809.2019075960724
 30
0.0
 11
-489.2969079919763
 21
809.2019075960724
 31
0.0
  0
LINE
  5
229
330
1F
100
AcDbEntity
  8
C-2
  6
Continuous
 62
     3
370
     9
100
AcDbLine
 10
-455.2973154428841
 20
711.701957084037
 30
0.0
 11
-455.2973154428841
 21
903.7021451383026
 31
0.0
  0
LINE
  5
22A
330
1F
100
AcDbEntity
  8
C-2
  6
Continuous
 62
     3
370
     9
100
AcDbLine
 10
-459.2973038956924
 20
711.701957084037
 30
0.0
 11
-459.2973038956924
 21
903.7021451383026
 31
0.0
  0
LINE
  5
22B
330
1F
100
AcDbEntity
  8
C-2
  6
Continuous
 62
     3
370
     9
100
AcDbLine
 10
-485.2970432590794
 20
806.2021946262666
 30
0.0
 11
-459.2973038956924
 21
806.2021946262666
 31
0.0
  0
LINE
  5
22C
330
1F
100
AcDbEntity
  8
C-2
  6
Continuous
 62
     3
370
     9
100
AcDbLine
 10
-485.2970432590794
 20
809.2019075960724
 30
0.0
 11
-459.2973038956924
 21
809.2019075960724
 31
0.0
  0
LINE
  5
22D
330
1F
100
AcDbEntity
  8
C-2
  6
Continuous
 62
     3
370
     9
100
AcDbLine
 10
-425.2972164669552
 20
711.701957084037
 30
0.0
 11
-425.2972164669552
 21
903.7021451383026
 31
0.0
  0
LINE
  5
22E
330
1F
100
AcDbEntity
  8
C-2
  6
Continuous
 62
     3
370
     9
100
AcDbLine
 10
-429.2972049197635
 20
711.701957084037
 30
0.0
 11
-429.2972049197635
 21
903.7021451383026
 31
0.0
  0
LINE
  5
22F
330
1F
100
AcDbEntity
  8
C-2
  6
Continuous
 62
     3
370
     9
100
AcDbLine
 10
-455.2973154428841
 20
806.2021946262666
 30
0.0
 11
-429.2972049197635
 21
806.2021946262666
 31
0.0
  0
LINE
  5
230
330
1F
100
AcDbEntity
  8
C-2
  6
Continuous
 62
     3
370
     9
100
AcDbLine
 10
-455.2973154428841
 20
809.2019075960724
 30
0.0
 11
-429.2972049197635
 21
809.2019075960724
 31
0.0
  0
LINE
  5
231
330
1F
100
AcDbEntity
  8
C-2
  6
Continuous
 62
     3
370
     9
100
AcDbLine
 10
-395.297117491026
 20
711.701957084037
 30
0.0
 11
-395.297117491026
 21
903.7021451383026
 31
0.0
  0
LINE
  5
232
330
1F
100
AcDbEntity
  8
C-2
  6
Continuous
 62
     3
370
     9
100
AcDbLine
 10
-399.2969822239232
 20
711.701957084037
 30
0.0
 11
-399.2969822239232
 21
903.7021451383026
 31
0.0
  0
LINE
  5
233
330
1F
100
AcDbEntity
  8
C-2
  6
Continuous
 62
     3
370
     9
100
AcDbLine
 10
-425.2972164669552
 20
806.2021946262666
 30
0.0
 11
-399.2969822239232
 21
806.2021946262666
 31
0.0
  0
LINE
  5
234
330
1F
100
AcDbEntity
  8
C-2
  6
Continuous
 62
     3
370
     9
100
AcDbLine
 10
-425.2972164669552
 20
809.2019075960724
 30
0.0
 11
-399.2969822239232
 21
809.2019075960724
 31
0.0
  0
LINE
  5
235
330
1F
100
AcDbEntity
  8
C-2
  6
Continuous
 62
     3
370
     9
100
AcDbLine
 10
-365.2968947951857
 20
711.701957084037
 30
0.0
 11
-365.2968947951857
 21
903.7021451383026
 31
0.0
  0
LINE
  5
236
330
1F
100
AcDbEntity
  8
C-2
  6
Continuous
 62
     3
370
     9
100
AcDbLine
 10
-369.296883247994
 20
711.701957084037
 30
0.0
 11
-369.296883247994
 21
903.7021451383026
 31
0.0
  0
LINE
  5
237
330
1F
100
AcDbEntity
  8
C-2
  6
Continuous
 62
     3
370
     9
100
AcDbLine
 10
-395.297117491026
 20
806.2021946262666
 30
0.0
 11
-369.296883247994
 21
806.2021946262666
 31
0.0
  0
LINE
  5
238
330
1F
100
AcDbEntity
  8
C-2
  6
Continuous
 62
     3
370
     9
100
AcDbLine
 10
-395.297117491026
 20
809.2019075960724
 30
0.0
 11
-369.296883247994
 21
809.2019075960724
 31
0.0
  0
LINE
  5
239
330
1F
100
AcDbEntity
  8
C-2
  6
Continuous
 62
     3
370
     9
100
AcDbLine
 10
-335.2967958192568
 20
711.701957084037
 30
0.0
 11
-335.2967958192568
 21
903.7021451383026
 31
0.0
  0
LINE
  5
23A
330
1F
100
AcDbEntity
  8
C-2
  6
Continuous
 62
     3
370
     9
100
AcDbLine
 10
-339.2972791517101
 20
711.701957084037
 30
0.0
 11
-339.2972791517101
 21
903.7021451383026
 31
0.0
  0
LINE
  5
23B
330
1F
100
AcDbEntity
  8
C-2
  6
Continuous
 62
     3
370
     9
100
AcDbLine
 10
-365.2968947951857
 20
806.2021946262666
 30
0.0
 11
-339.2972791517101
 21
806.2021946262666
 31
0.0
  0
LINE
  5
23C
330
1F
100
AcDbEntity
  8
C-2
  6
Continuous
 62
     3
370
     9
100
AcDbLine
 10
-365.2968947951857
 20
809.2019075960724
 30
0.0
 11
-339.2972791517101
 21
809.2019075960724
 31
0.0
  0
LINE
  5
23D
330
1F
100
AcDbEntity
  8
C-2
  6
Continuous
 62
     3
370
     9
100
AcDbLine
 10
-305.2971917229729
 20
711.701957084037
 30
0.0
 11
-305.2971917229729
 21
903.7021451383026
 31
0.0
  0
LINE
  5
23E
330
1F
100
AcDbEntity
  8
C-2
  6
Continuous
 62
     3
370
     9
100
AcDbLine
 10
-309.2970564558698
 20
711.701957084037
 30
0.0
 11
-309.2970564558698
 21
903.7021451383026
 31
0.0
  0
LINE
  5
23F
330
1F
100
AcDbEntity
  8
C-2
  6
Continuous
 62
     3
370
     9
100
AcDbLine
 10
-335.2967958192568
 20
806.2021946262666
 30
0.0
 11
-309.2970564558698
 21
806.2021946262666
 31
0.0
  0
LINE
  5
240
330
1F
100
AcDbEntity
  8
C-2
  6
Continuous
 62
     3
370
     9
100
AcDbLine
 10
-335.2967958192568
 20
809.2019075960724
 30
0.0
 11
-309.2970564558698
 21
809.2019075960724
 31
0.0
  0
LINE
  5
241
330
1F
100
AcDbEntity
  8
C-2
  6
Continuous
 62
     3
370
     9
100
AcDbLine
 10
-275.2970927470437
 20
711.701957084037
 30
0.0
 11
-275.2970927470437
 21
903.7021451383026
 31
0.0
  0
LINE
  5
242
330
1F
100
AcDbEntity
  8
C-2
  6
Continuous
 62
     3
370
     9
100
AcDbLine
 10
-279.2969574799409
 20
711.701957084037
 30
0.0
 11
-279.2969574799409
 21
903.7021451383026
 31
0.0
  0
LINE
  5
243
330
1F
100
AcDbEntity
  8
C-2
  6
Continuous
 62
     3
370
     9
100
AcDbLine
 10
-305.2971917229729
 20
806.2021946262666
 30
0.0
 11
-279.2969574799409
 21
806.2021946262666
 31
0.0
  0
LINE
  5
244
330
1F
100
AcDbEntity
  8
C-2
  6
Continuous
 62
     3
370
     9
100
AcDbLine
 10
-305.2971917229729
 20
809.2019075960724
 30
0.0
 11
-279.2969574799409
 21
809.2019075960724
 31
0.0
  0
LINE
  5
245
330
1F
100
AcDbEntity
  8
C-2
  6
Continuous
 62
     3
370
     9
100
AcDbLine
 10
-245.2968700512034
 20
711.701957084037
 30
0.0
 11
-245.2968700512034
 21
903.7021451383026
 31
0.0
  0
LINE
  5
246
330
1F
100
AcDbEntity
  8
C-2
  6
Continuous
 62
     3
370
     9
100
AcDbLine
 10
-249.297353383657
 20
711.701957084037
 30
0.0
 11
-249.297353383657
 21
903.7021451383026
 31
0.0
  0
LINE
  5
247
330
1F
100
AcDbEntity
  8
C-2
  6
Continuous
 62
     3
370
     9
100
AcDbLine
 10
-275.2970927470437
 20
806.2021946262666
 30
0.0
 11
-249.297353383657
 21
806.2021946262666
 31
0.0
  0
LINE
  5
248
330
1F
100
AcDbEntity
  8
C-2
  6
Continuous
 62
     3
370
     9
100
AcDbLine
 10
-275.2970927470437
 20
809.2019075960724
 30
0.0
 11
-249.297353383657
 21
809.2019075960724
 31
0.0
  0
LINE
  5
249
330
1F
100
AcDbEntity
  8
C-2
  6
Continuous
 62
     3
370
     9
100
AcDbLine
 10
-215.2972659549198
 20
711.701957084037
 30
0.0
 11
-215.2972659549198
 21
903.7021451383026
 31
0.0
  0
LINE
  5
24A
330
1F
100
AcDbEntity
  8
C-2
  6
Continuous
 62
     3
370
     9
100
AcDbLine
 10
-219.2971306878167
 20
711.701957084037
 30
0.0
 11
-219.2971306878167
 21
903.7021451383026
 31
0.0
  0
LINE
  5
24B
330
1F
100
AcDbEntity
  8
C-2
  6
Continuous
 62
     3
370
     9
100
AcDbLine
 10
-245.2968700512034
 20
806.2021946262666
 30
0.0
 11
-219.2971306878167
 21
806.2021946262666
 31
0.0
  0
LINE
  5
24C
330
1F
100
AcDbEntity
  8
C-2
  6
Continuous
 62
     3
370
     9
100
AcDbLine
 10
-245.2968700512034
 20
809.2019075960724
 30
0.0
 11
-219.2971306878167
 21
809.2019075960724
 31
0.0
  0
LINE
  5
24D
330
1F
100
AcDbEntity
  8
C-2
  6
Continuous
 62
     3
370
     9
100
AcDbLine
 10
-185.2970432590791
 20
711.701957084037
 30
0.0
 11
-185.2970432590791
 21
903.7021451383026
 31
0.0
  0
LINE
  5
24E
330
1F
100
AcDbEntity
  8
C-2
  6
Continuous
 62
     3
370
     9
100
AcDbLine
 10
-189.2970317118875
 20
711.701957084037
 30
0.0
 11
-189.2970317118875
 21
903.7021451383026
 31
0.0
  0
LINE
  5
24F
330
1F
100
AcDbEntity
  8
C-2
  6
Continuous
 62
     3
370
     9
100
AcDbLine
 10
-215.2972659549198
 20
806.2021946262666
 30
0.0
 11
-189.2970317118875
 21
806.2021946262666
 31
0.0
  0
LINE
  5
250
330
1F
100
AcDbEntity
  8
C-2
  6
Continuous
 62
     3
370
     9
100
AcDbLine
 10
-215.2972659549198
 20
809.2019075960724
 30
0.0
 11
-189.2970317118875
 21
809.2019075960724
 31
0.0
  0
LINE
  5
251
330
1F
100
AcDbEntity
  8
C-2
  6
Continuous
 62
     3
370
     9
100
AcDbLine
 10
-155.2969442831503
 20
711.701957084037
 30
0.0
 11
-155.2969442831503
 21
903.7021451383026
 31
0.0
  0
LINE
  5
252
330
1F
100
AcDbEntity
  8
C-2
  6
Continuous
 62
     3
370
     9
100
AcDbLine
 10
-159.2969327359586
 20
711.701957084037
 30
0.0
 11
-159.2969327359586
 21
903.7021451383026
 31
0.0
  0
LINE
  5
253
330
1F
100
AcDbEntity
  8
C-2
  6
Continuous
 62
     3
370
     9
100
AcDbLine
 10
-185.2970432590791
 20
806.2021946262666
 30
0.0
 11
-159.2969327359586
 21
806.2021946262666
 31
0.0
  0
LINE
  5
254
330
1F
100
AcDbEntity
  8
C-2
  6
Continuous
 62
     3
370
     9
100
AcDbLine
 10
-185.2970432590791
 20
809.2019075960724
 30
0.0
 11
-159.2969327359586
 21
809.2019075960724
 31
0.0
  0
LINE
  5
255
330
1F
100
AcDbEntity
  8
C-2
  6
Continuous
 62
     3
370
     9
100
AcDbLine
 10
-125.2973401868664
 20
711.701957084037
 30
0.0
 11
-125.2973401868664
 21
903.7021451383026
 31
0.0
  0
LINE
  5
256
330
1F
100
AcDbEntity
  8
C-2
  6
Continuous
 62
     3
370
     9
100
AcDbLine
 10
-129.2972049197635
 20
711.701957084037
 30
0.0
 11
-129.2972049197635
 21
903.7021451383026
 31
0.0
  0
LINE
  5
257
330
1F
100
AcDbEntity
  8
C-2
  6
Continuous
 62
     3
370
     9
100
AcDbLine
 10
-155.2969442831503
 20
806.2021946262666
 30
0.0
 11
-129.2972049197635
 21
806.2021946262666
 31
0.0
  0
LINE
  5
258
330
1F
100
AcDbEntity
  8
C-2
  6
Continuous
 62
     3
370
     9
100
AcDbLine
 10
-155.2969442831503
 20
809.2019075960724
 30
0.0
 11
-129.2972049197635
 21
809.2019075960724
 31
0.0
  0
LINE
  5
259
330
1F
100
AcDbEntity
  8
C-2
  6
Continuous
 62
     3
370
     9
100
AcDbLine
 10
-95.2972412109375
 20
711.701957084037
 30
0.0
 11
-95.2972412109375
 21
903.7021451383026
 31
0.0
  0
LINE
  5
25A
330
1F
100
AcDbEntity
  8
C-2
  6
Continuous
 62
     3
370
     9
100
AcDbLine
 10
-99.29710594383437
 20
711.701957084037
 30
0.0
 11
-99.29710594383437
 21
903.7021451383026
 31
0.0
  0
LINE
  5
25B
330
1F
100
AcDbEntity
  8
C-2
  6
Continuous
 62
     3
370
     9
100
AcDbLine
 10
-125.2973401868664
 20
806.2021946262666
 30
0.0
 11
-99.29710594383437
 21
806.2021946262666
 31
0.0
  0
LINE
  5
25C
330
1F
100
AcDbEntity
  8
C-2
  6
Continuous
 62
     3
370
     9
100
AcDbLine
 10
-125.2973401868664
 20
809.2019075960724
 30
0.0
 11
-99.29710594383437
 21
809.2019075960724
 31
0.0
  0
LINE
  5
25D
330
1F
100
AcDbEntity
  8
C-2
  6
Continuous
 62
     3
370
     9
100
AcDbLine
 10
-65.29714223500832
 20
711.701957084037
 30
0.0
 11
-65.29714223500832
 21
903.7021451383026
 31
0.0
  0
LINE
  5
25E
330
1F
100
AcDbEntity
  8
C-2
  6
Continuous
 62
     3
370
     9
100
AcDbLine
 10
-69.29700696790519
 20
711.701957084037
 30
0.0
 11
-69.29700696790519
 21
903.7021451383026
 31
0.0
  0
LINE
  5
25F
330
1F
100
AcDbEntity
  8
C-2
  6
Continuous
 62
     3
370
     9
100
AcDbLine
 10
-95.2972412109375
 20
806.2021946262666
 30
0.0
 11
-69.29700696790519
 21
806.2021946262666
 31
0.0
  0
LINE
  5
260
330
1F
100
AcDbEntity
  8
C-2
  6
Continuous
 62
     3
370
     9
100
AcDbLine
 10
-95.2972412109375
 20
809.2019075960724
 30
0.0
 11
-69.29700696790519
 21
809.2019075960724
 31
0.0
  0
LINE
  5
261
330
1F
100
AcDbEntity
  8
C-2
  6
Continuous
 62
     3
370
     9
100
AcDbLine
 10
-35.29741441881328
 20
711.701957084037
 30
0.0
 11
-35.29741441881328
 21
903.7021451383026
 31
0.0
  0
LINE
  5
262
330
1F
100
AcDbEntity
  8
C-2
  6
Continuous
 62
     3
370
     9
100
AcDbLine
 10
-39.29678427206483
 20
711.701957084037
 30
0.0
 11
-39.29678427206483
 21
903.7021451383026
 31
0.0
  0
LINE
  5
263
330
1F
100
AcDbEntity
  8
C-2
  6
Continuous
 62
     3
370
     9
100
AcDbLine
 10
-65.29714223500832
 20
806.2021946262666
 30
0.0
 11
-39.29678427206483
 21
806.2021946262666
 31
0.0
  0
LINE
  5
264
330
1F
100
AcDbEntity
  8
C-2
  6
Continuous
 62
     3
370
     9
100
AcDbLine
 10
-65.29714223500832
 20
809.2019075960724
 30
0.0
 11
-39.29678427206483
 21
809.2019075960724
 31
0.0
  0
LINE
  5
265
330
1F
100
AcDbEntity
  8
C-2
  6
Continuous
 62
     3
370
     9
100
AcDbLine
 10
-5.297191722972912
 20
711.701957084037
 30
0.0
 11
-5.297191722972912
 21
903.7021451383026
 31
0.0
  0
LINE
  5
266
330
1F
100
AcDbEntity
  8
C-2
  6
Continuous
 62
     3
370
     9
100
AcDbLine
 10
-9.297303895692437
 20
711.701957084037
 30
0.0
 11
-9.297303895692437
 21
903.7021451383026
 31
0.0
  0
LINE
  5
267
330
1F
100
AcDbEntity
  8
C-2
  6
Continuous
 62
     3
370
     9
100
AcDbLine
 10
-35.29741441881328
 20
806.2021946262666
 30
0.0
 11
-9.297303895692437
 21
806.2021946262666
 31
0.0
  0
LINE
  5
268
330
1F
100
AcDbEntity
  8
C-2
  6
Continuous
 62
     3
370
     9
100
AcDbLine
 10
-35.29741441881328
 20
809.2019075960724
 30
0.0
 11
-9.297303895692437
 21
809.2019075960724
 31
0.0
  0
LINE
  5
269
330
1F
100
AcDbEntity
  8
C-2
  6
Continuous
 62
     3
370
     9
100
AcDbLine
 10
24.70290725295627
 20
711.701957084037
 30
0.0
 11
24.70290725295627
 21
903.7021451383026
 31
0.0
  0
LINE
  5
26A
330
1F
100
AcDbEntity
  8
C-2
  6
Continuous
 62
     3
370
     9
100
AcDbLine
 10
20.70304252005911
 20
711.701957084037
 30
0.0
 11
20.70304252005911
 21
903.7021451383026
 31
0.0
  0
LINE
  5
26B
330
1F
100
AcDbEntity
  8
C-2
  6
Continuous
 62
     3
370
     9
100
AcDbLine
 10
-5.297191722972912
 20
806.2021946262666
 30
0.0
 11
20.70304252005911
 21
806.2021946262666
 31
0.0
  0
LINE
  5
26C
330
1F
100
AcDbEntity
  8
C-2
  6
Continuous
 62
     3
370
     9
100
AcDbLine
 10
-5.297191722972912
 20
809.2019075960724
 30
0.0
 11
20.70304252005911
 21
809.2019075960724
 31
0.0
  0
LINE
  5
26D
330
1F
100
AcDbEntity
  8
C-2
  6
Continuous
 62
     3
370
     9
100
AcDbLine
 10
54.70300622888516
 20
711.701957084037
 30
0.0
 11
54.70300622888516
 21
903.7021451383026
 31
0.0
  0
LINE
  5
26E
330
1F
100
AcDbEntity
  8
C-2
  6
Continuous
 62
     3
370
     9
100
AcDbLine
 10
50.70314149598829
 20
711.701957084037
 30
0.0
 11
50.70314149598829
 21
903.7021451383026
 31
0.0
  0
LINE
  5
26F
330
1F
100
AcDbEntity
  8
C-2
  6
Continuous
 62
     3
370
     9
100
AcDbLine
 10
24.70290725295627
 20
806.2021946262666
 30
0.0
 11
50.70314149598829
 21
806.2021946262666
 31
0.0
  0
LINE
  5
270
330
1F
100
AcDbEntity
  8
C-2
  6
Continuous
 62
     3
370
     9
100
AcDbLine
 10
24.70290725295627
 20
809.2019075960724
 30
0.0
 11
50.70314149598829
 21
809.2019075960724
 31
0.0
  0
LINE
  5
271
330
1F
100
AcDbEntity
  8
C-2
  6
Continuous
 62
     3
370
     9
100
AcDbLine
 10
84.70310520481434
 20
711.701957084037
 30
0.0
 11
84.70310520481434
 21
903.7021451383026
 31
0.0
  0
LINE
  5
272
330
1F
100
AcDbEntity
  8
C-2
  6
Continuous
 62
     3
370
     9
100
AcDbLine
 10
80.70274559227215
 20
711.701957084037
 30
0.0
 11
80.70274559227215
 21
903.7021451383026
 31
0.0
  0
LINE
  5
273
330
1F
100
AcDbEntity
  8
C-2
  6
Continuous
 62
     3
370
     9
100
AcDbLine
 10
54.70251134924013
 20
806.2021946262666
 30
0.0
 11
80.70274559227215
 21
806.2021946262666
 31
0.0
  0
LINE
  5
274
330
1F
100
AcDbEntity
  8
C-2
  6
Continuous
 62
     3
370
     9
100
AcDbLine
 10
54.70251134924013
 20
809.2019075960724
 30
0.0
 11
80.70274559227215
 21
809.2019075960724
 31
0.0
  0
LINE
  5
275
330
1F
100
AcDbEntity
  8
C-2
  6
Continuous
 62
     3
370
     9
100
AcDbLine
 10
114.7027093010982
 20
711.701957084037
 30
0.0
 11
114.7027093010982
 21
903.7021451383026
 31
0.0
  0
LINE
  5
276
330
1F
100
AcDbEntity
  8
C-2
  6
Continuous
 62
     3
370
     9
100
AcDbLine
 10
110.702844568201
 20
711.701957084037
 30
0.0
 11
110.702844568201
 21
903.7021451383026
 31
0.0
  0
LINE
  5
277
330
1F
100
AcDbEntity
  8
C-2
  6
Continuous
 62
     3
370
     9
100
AcDbLine
 10
84.70310520481434
 20
806.2021946262666
 30
0.0
 11
110.702844568201
 21
806.2021946262666
 31
0.0
  0
LINE
  5
278
330
1F
100
AcDbEntity
  8
C-2
  6
Continuous
 62
     3
370
     9
100
AcDbLine
 10
84.70310520481434
 20
809.2019075960724
 30
0.0
 11
110.702844568201
 21
809.2019075960724
 31
0.0
  0
LINE
  5
279
330
1F
100
AcDbEntity
  8
C-2
  6
Continuous
 62
     3
370
     9
100
AcDbLine
 10
144.7028082770271
 20
711.701957084037
 30
0.0
 11
144.7028082770271
 21
903.7021451383026
 31
0.0
  0
LINE
  5
27A
330
1F
100
AcDbEntity
  8
C-2
  6
Continuous
 62
     3
370
     9
100
AcDbLine
 10
140.7029435441303
 20
711.701957084037
 30
0.0
 11
140.7029435441303
 21
903.7021451383026
 31
0.0
  0
LINE
  5
27B
330
1F
100
AcDbEntity
  8
C-2
  6
Continuous
 62
     3
370
     9
100
AcDbLine
 10
114.7027093010982
 20
806.2021946262666
 30
0.0
 11
140.7029435441303
 21
806.2021946262666
 31
0.0
  0
LINE
  5
27C
330
1F
100
AcDbEntity
  8
C-2
  6
Continuous
 62
     3
370
     9
100
AcDbLine
 10
114.7027093010982
 20
809.2019075960724
 30
0.0
 11
140.7029435441303
 21
809.2019075960724
 31
0.0
  0
LINE
  5
27D
330
1F
100
AcDbEntity
  8
C-2
  6
Continuous
 62
     3
370
     9
100
AcDbLine
 10
174.7029072529563
 20
711.701957084037
 30
0.0
 11
174.7029072529563
 21
903.7021451383026
 31
0.0
  0
LINE
  5
27E
330
1F
100
AcDbEntity
  8
C-2
  6
Continuous
 62
     3
370
     9
100
AcDbLine
 10
170.7027950802369
 20
711.701957084037
 30
0.0
 11
170.7027950802369
 21
903.7021451383026
 31
0.0
  0
LINE
  5
27F
330
1F
100
AcDbEntity
  8
C-2
  6
Continuous
 62
     3
370
     9
100
AcDbLine
 10
144.7028082770271
 20
806.2021946262666
 30
0.0
 11
170.7027950802369
 21
806.2021946262666
 31
0.0
  0
LINE
  5
280
330
1F
100
AcDbEntity
  8
C-2
  6
Continuous
 62
     3
370
     9
100
AcDbLine
 10
144.7028082770271
 20
809.2019075960724
 30
0.0
 11
170.7027950802369
 21
809.2019075960724
 31
0.0
  0
LINE
  5
281
330
1F
100
AcDbEntity
  8
C-2
  6
Continuous
 62
     3
370
     9
100
AcDbLine
 10
204.7027587890626
 20
711.701957084037
 30
0.0
 11
204.7027587890626
 21
903.7021451383026
 31
0.0
  0
LINE
  5
282
330
1F
100
AcDbEntity
  8
C-2
  6
Continuous
 62
     3
370
     9
100
AcDbLine
 10
200.7028940561657
 20
711.701957084037
 30
0.0
 11
200.7028940561657
 21
903.7021451383026
 31
0.0
  0
LINE
  5
283
330
1F
100
AcDbEntity
  8
C-2
  6
Continuous
 62
     3
370
     9
100
AcDbLine
 10
174.7029072529563
 20
806.2021946262666
 30
0.0
 11
200.7028940561657
 21
806.2021946262666
 31
0.0
  0
LINE
  5
284
330
1F
100
AcDbEntity
  8
C-2
  6
Continuous
 62
     3
370
     9
100
AcDbLine
 10
174.7029072529563
 20
809.2019075960724
 30
0.0
 11
200.7028940561657
 21
809.2019075960724
 31
0.0
  0
LINE
  5
285
330
1F
100
AcDbEntity
  8
C-2
  6
Continuous
 62
     3
370
     9
100
AcDbLine
 10
234.7033526446371
 20
711.701957084037
 30
0.0
 11
234.7033526446371
 21
903.7021451383026
 31
0.0
  0
LINE
  5
286
330
1F
100
AcDbEntity
  8
C-2
  6
Continuous
 62
     3
370
     9
100
AcDbLine
 10
230.7029930320949
 20
711.701957084037
 30
0.0
 11
230.7029930320949
 21
903.7021451383026
 31
0.0
  0
LINE
  5
287
330
1F
100
AcDbEntity
  8
C-2
  6
Continuous
 62
     3
370
     9
100
AcDbLine
 10
204.7027587890626
 20
806.2021946262666
 30
0.0
 11
230.7029930320949
 21
806.2021946262666
 31
0.0
  0
LINE
  5
288
330
1F
100
AcDbEntity
  8
C-2
  6
Continuous
 62
     3
370
     9
100
AcDbLine
 10
204.7027587890626
 20
809.2019075960724
 30
0.0
 11
230.7029930320949
 21
809.2019075960724
 31
0.0
  0
LINE
  5
289
330
1F
100
AcDbEntity
  8
C-2
  6
Continuous
 62
     3
370
     9
100
AcDbLine
 10
264.7029567409209
 20
711.701957084037
 30
0.0
 11
264.7029567409209
 21
903.7021451383026
 31
0.0
  0
LINE
  5
28A
330
1F
100
AcDbEntity
  8
C-2
  6
Continuous
 62
     3
370
     9
100
AcDbLine
 10
260.7030920080239
 20
711.701957084037
 30
0.0
 11
260.7030920080239
 21
903.7021451383026
 31
0.0
  0
LINE
  5
28B
330
1F
100
AcDbEntity
  8
C-2
  6
Continuous
 62
     3
370
     9
100
AcDbLine
 10
234.7033526446371
 20
806.2021946262666
 30
0.0
 11
260.7030920080239
 21
806.2021946262666
 31
0.0
  0
LINE
  5
28C
330
1F
100
AcDbEntity
  8
C-2
  6
Continuous
 62
     3
370
     9
100
AcDbLine
 10
234.7033526446371
 20
809.2019075960724
 30
0.0
 11
260.7030920080239
 21
809.2019075960724
 31
0.0
  0
LINE
  5
28D
330
1F
100
AcDbEntity
  8
C-2
  6
Continuous
 62
     3
370
     9
100
AcDbLine
 10
294.7030557168497
 20
711.701957084037
 30
0.0
 11
294.7030557168497
 21
903.7021451383026
 31
0.0
  0
LINE
  5
28E
330
1F
100
AcDbEntity
  8
C-2
  6
Continuous
 62
     3
370
     9
100
AcDbLine
 10
290.703190983953
 20
711.701957084037
 30
0.0
 11
290.703190983953
 21
903.7021451383026
 31
0.0
  0
LINE
  5
28F
330
1F
100
AcDbEntity
  8
C-2
  6
Continuous
 62
     3
370
     9
100
AcDbLine
 10
264.7029567409209
 20
806.2021946262666
 30
0.0
 11
290.703190983953
 21
806.2021946262666
 31
0.0
  0
LINE
  5
290
330
1F
100
AcDbEntity
  8
C-2
  6
Continuous
 62
     3
370
     9
100
AcDbLine
 10
264.7029567409209
 20
809.2019075960724
 30
0.0
 11
290.703190983953
 21
809.2019075960724
 31
0.0
  0
LINE
  5
291
330
1F
100
AcDbEntity
  8
C-2
  6
Continuous
 62
     3
370
     9
100
AcDbLine
 10
324.7034021326017
 20
711.701957084037
 30
0.0
 11
324.7034021326017
 21
903.7021451383026
 31
0.0
  0
LINE
  5
292
330
1F
100
AcDbEntity
  8
C-2
  6
Continuous
 62
     3
370
     9
100
AcDbLine
 10
320.7027950802367
 20
711.701957084037
 30
0.0
 11
320.7027950802367
 21
903.7021451383026
 31
0.0
  0
LINE
  5
293
330
1F
100
AcDbEntity
  8
C-2
  6
Continuous
 62
     3
370
     9
100
AcDbLine
 10
294.7030557168497
 20
806.2021946262666
 30
0.0
 11
320.7027950802367
 21
806.2021946262666
 31
0.0
  0
LINE
  5
294
330
1F
100
AcDbEntity
  8
C-2
  6
Continuous
 62
     3
370
     9
100
AcDbLine
 10
294.7030557168497
 20
809.2019075960724
 30
0.0
 11
320.7027950802367
 21
809.2019075960724
 31
0.0
  0
LINE
  5
295
330
1F
100
AcDbEntity
  8
C-2
  6
Continuous
 62
     3
370
     9
100
AcDbLine
 10
354.7035011085305
 20
711.701957084037
 30
0.0
 11
354.7035011085305
 21
903.7021451383026
 31
0.0
  0
LINE
  5
296
330
1F
100
AcDbEntity
  8
C-2
  6
Continuous
 62
     3
370
     9
100
AcDbLine
 10
350.7028940561656
 20
711.701957084037
 30
0.0
 11
350.7028940561656
 21
903.7021451383026
 31
0.0
  0
LINE
  5
297
330
1F
100
AcDbEntity
  8
C-2
  6
Continuous
 62
     3
370
     9
100
AcDbLine
 10
324.7034021326017
 20
806.2021946262666
 30
0.0
 11
350.7028940561656
 21
806.2021946262666
 31
0.0
  0
LINE
  5
298
330
1F
100
AcDbEntity
  8
C-2
  6
Continuous
 62
     3
370
     9
100
AcDbLine
 10
324.7034021326017
 20
809.2019075960724
 30
0.0
 11
350.7028940561656
 21
809.2019075960724
 31
0.0
  0
LINE
  5
299
330
1F
100
AcDbEntity
  8
C-2
  6
Continuous
 62
     3
370
     9
100
AcDbLine
 10
380.7029930320948
 20
711.701957084037
 30
0.0
 11
380.7029930320948
 21
903.7021451383026
 31
0.0
  0
LINE
  5
29A
330
1F
100
AcDbEntity
  8
C-2
  6
Continuous
 62
     3
370
     9
100
AcDbLine
 10
354.7035011085305
 20
806.2021946262666
 30
0.0
 11
380.7029930320948
 21
806.2021946262666
 31
0.0
  0
LINE
  5
29B
330
1F
100
AcDbEntity
  8
C-2
  6
Continuous
 62
     3
370
     9
100
AcDbLine
 10
354.7035011085305
 20
809.2019075960724
 30
0.0
 11
380.7029930320948
 21
809.2019075960724
 31
0.0
  0
LINE
  5
29C
330
1F
100
AcDbEntity
  8
C-9
  6
Continuous
 62
     6
370
     9
100
AcDbLine
 10
-609.2969327359585
 20
797.8120051203547
 30
0.0
 11
-608.7831239442568
 21
797.298320048564
 31
0.0
  0
LINE
  5
29D
330
1F
100
AcDbEntity
  8
C-9
  6
Continuous
 62
     6
370
     9
100
AcDbLine
 10
-609.2969327359585
 20
800.6402422930745
 30
0.0
 11
-607.1951788824956
 21
798.5384884396115
 31
0.0
  0
LINE
  5
29E
330
1F
100
AcDbEntity
  8
C-9
  6
Continuous
 62
     6
370
     9
100
AcDbLine
 10
-609.2969327359585
 20
803.4682320259714
 30
0.0
 11
-605.6072338207346
 21
799.7786568306589
 31
0.0
  0
LINE
  5
29F
330
1F
100
AcDbEntity
  8
C-9
  6
Continuous
 62
     6
370
     9
100
AcDbLine
 10
-609.2969327359585
 20
806.2974589579812
 30
0.0
 11
-605.2970680030614
 21
802.297099345439
 31
0.0
  0
LINE
  5
2A0
330
1F
100
AcDbEntity
  8
C-9
  6
Continuous
 62
     6
370
     9
100
AcDbLine
 10
-609.2969327359585
 20
809.1254486908781
 30
0.0
 11
-605.2970680030614
 21
805.1250890783359
 31
0.0
  0
LINE
  5
2A1
330
1F
100
AcDbEntity
  8
C-9
  6
Continuous
 62
     6
370
     9
100
AcDbLine
 10
-609.2969327359585
 20
811.9536858635979
 30
0.0
 11
-605.2970680030614
 21
807.953821130701
 31
0.0
  0
LINE
  5
2A2
330
1F
100
AcDbEntity
  8
C-9
  6
Continuous
 62
     6
370
     9
100
AcDbLine
 10
-609.2969327359585
 20
814.782417915963
 30
0.0
 11
-605.2970680030614
 21
810.7823057432432
 31
0.0
  0
LINE
  5
2A3
330
1F
100
AcDbEntity
  8
C-9
  6
Continuous
 62
     6
370
     9
100
AcDbLine
 10
-609.2969327359585
 20
817.6109025285052
 30
0.0
 11
-605.2970680030614
 21
813.610542915963
 31
0.0
  0
LINE
  5
2A4
330
1F
100
AcDbEntity
  8
C-9
  6
Continuous
 62
     6
370
     9
100
AcDbLine
 10
-609.2969327359585
 20
820.4391397012245
 30
0.0
 11
-605.2970680030614
 21
816.4392749683276
 31
0.0
  0
LINE
  5
2A5
330
1F
100
AcDbEntity
  8
C-9
  6
Continuous
 62
     6
370
     9
100
AcDbLine
 10
-609.2969327359585
 20
823.2671294341213
 30
0.0
 11
-605.2970680030614
 21
819.2677595808698
 31
0.0
  0
LINE
  5
2A6
330
1F
100
AcDbEntity
  8
C-9
  6
Continuous
 62
     6
370
     9
100
AcDbLine
 10
-609.2969327359585
 20
826.0958614864865
 30
0.0
 11
-605.2970680030614
 21
822.0959967535896
 31
0.0
  0
LINE
  5
2A7
330
1F
100
AcDbEntity
  8
C-9
  6
Continuous
 62
     6
370
     9
100
AcDbLine
 10
-609.2969327359585
 20
828.9245935388516
 30
0.0
 11
-605.2970680030614
 21
824.9239864864865
 31
0.0
  0
LINE
  5
2A8
330
1F
100
AcDbEntity
  8
C-9
  6
Continuous
 62
     6
370
     9
100
AcDbLine
 10
-609.2969327359585
 20
831.7525832717484
 30
0.0
 11
-605.2970680030614
 21
827.7532134184963
 31
0.0
  0
LINE
  5
2A9
330
1F
100
AcDbEntity
  8
C-9
  6
Continuous
 62
     6
370
     9
100
AcDbLine
 10
-609.2969327359585
 20
834.581315324113
 30
0.0
 11
-605.2970680030614
 21
830.5814505912161
 31
0.0
  0
LINE
  5
2AA
330
1F
100
AcDbEntity
  8
C-9
  6
Continuous
 62
     6
370
     9
100
AcDbLine
 10
-609.2969327359585
 20
837.4097999366552
 30
0.0
 11
-605.2970680030614
 21
833.409440324113
 31
0.0
  0
LINE
  5
2AB
330
1F
100
AcDbEntity
  8
C-9
  6
Continuous
 62
     6
370
     9
100
AcDbLine
 10
-609.2969327359585
 20
840.238037109375
 30
0.0
 11
-605.2970680030614
 21
836.2381723764781
 31
0.0
  0
LINE
  5
2AC
330
1F
100
AcDbEntity
  8
C-9
  6
Continuous
 62
     6
370
     9
100
AcDbLine
 10
-609.2969327359585
 20
843.0662742820948
 30
0.0
 11
-605.2970680030614
 21
839.0666569890203
 31
0.0
  0
LINE
  5
2AD
330
1F
100
AcDbEntity
  8
C-9
  6
Continuous
 62
     6
370
     9
100
AcDbLine
 10
-609.2969327359585
 20
845.894758894637
 30
0.0
 11
-605.2970680030614
 21
841.8948941617401
 31
0.0
  0
LINE
  5
2AE
330
1F
100
AcDbEntity
  8
C-9
  6
Continuous
 62
     6
370
     9
100
AcDbLine
 10
-609.2969327359585
 20
848.7234909470016
 30
0.0
 11
-605.2970680030614
 21
844.722883894637
 31
0.0
  0
LINE
  5
2AF
330
1F
100
AcDbEntity
  8
C-9
  6
Continuous
 62
     6
370
     9
100
AcDbLine
 10
-609.2969327359585
 20
851.5514806798984
 30
0.0
 11
-605.2970680030614
 21
847.5521108266469
 31
0.0
  0
LINE
  5
2B0
330
1F
100
AcDbEntity
  8
C-9
  6
Continuous
 62
     6
370
     9
100
AcDbLine
 10
-609.2969327359585
 20
854.3802127322635
 30
0.0
 11
-605.2970680030614
 21
850.3801005595437
 31
0.0
  0
LINE
  5
2B1
330
1F
100
AcDbEntity
  8
C-9
  6
Continuous
 62
     6
370
     9
100
AcDbLine
 10
-609.2969327359585
 20
857.2086973448057
 30
0.0
 11
-605.2970680030614
 21
853.2083377322635
 31
0.0
  0
LINE
  5
2B2
330
1F
100
AcDbEntity
  8
C-9
  6
Continuous
 62
     6
370
     9
100
AcDbLine
 10
-609.2969327359585
 20
860.0369345175255
 30
0.0
 11
-605.2970680030614
 21
856.0370697846281
 31
0.0
  0
LINE
  5
2B3
330
1F
100
AcDbEntity
  8
C-9
  6
Continuous
 62
     6
370
     9
100
AcDbLine
 10
-609.2969327359585
 20
862.8651716902448
 30
0.0
 11
-605.2970680030614
 21
858.8655543971709
 31
0.0
  0
LINE
  5
2B4
330
1F
100
AcDbEntity
  8
C-9
  6
Continuous
 62
     6
370
     9
100
AcDbLine
 10
-609.2969327359585
 20
865.693656302787
 30
0.0
 11
-605.2970680030614
 21
861.6937915698901
 31
0.0
  0
LINE
  5
2B5
330
1F
100
AcDbEntity
  8
C-9
  6
Continuous
 62
     6
370
     9
100
AcDbLine
 10
-609.2969327359585
 20
868.5223883551521
 30
0.0
 11
-605.2970680030614
 21
864.5220287426099
 31
0.0
  0
LINE
  5
2B6
330
1F
100
AcDbEntity
  8
C-9
  6
Continuous
 62
     6
370
     9
100
AcDbLine
 10
-609.2969327359585
 20
871.350378088049
 30
0.0
 11
-605.2970680030614
 21
867.3505133551521
 31
0.0
  0
LINE
  5
2B7
330
1F
100
AcDbEntity
  8
C-9
  6
Continuous
 62
     6
370
     9
100
AcDbLine
 10
-609.2969327359585
 20
874.1791101404141
 30
0.0
 11
-605.2970680030614
 21
870.1792454075166
 31
0.0
  0
LINE
  5
2B8
330
1F
100
AcDbEntity
  8
C-9
  6
Continuous
 62
     6
370
     9
100
AcDbLine
 10
-609.2969327359585
 20
877.0078421927786
 30
0.0
 11
-605.2970680030614
 21
873.0072351404141
 31
0.0
  0
LINE
  5
2B9
330
1F
100
AcDbEntity
  8
C-9
  6
Continuous
 62
     6
370
     9
100
AcDbLine
 10
-609.2969327359585
 20
879.8358319256755
 30
0.0
 11
-605.2970680030614
 21
875.8359671927786
 31
0.0
  0
LINE
  5
2BA
330
1F
100
AcDbEntity
  8
C-9
  6
Continuous
 62
     6
370
     9
100
AcDbLine
 10
-609.2969327359585
 20
882.6640690983953
 30
0.0
 11
-605.2970680030614
 21
878.6644518053208
 31
0.0
  0
LINE
  5
2BB
330
1F
100
AcDbEntity
  8
C-9
  6
Continuous
 62
     6
370
     9
100
AcDbLine
 10
-609.2969327359585
 20
885.4930485905828
 30
0.0
 11
-605.2970680030614
 21
881.4926889780406
 31
0.0
  0
LINE
  5
2BC
330
1F
100
AcDbEntity
  8
C-9
  6
Continuous
 62
     6
370
     9
100
AcDbLine
 10
-609.2969327359585
 20
888.3212857633026
 30
0.0
 11
-605.2970680030614
 21
884.3209261507599
 31
0.0
  0
LINE
  5
2BD
330
1F
100
AcDbEntity
  8
C-9
  6
Continuous
 62
     6
370
     9
100
AcDbLine
 10
-609.2969327359585
 20
891.1492754961995
 30
0.0
 11
-605.2970680030614
 21
887.1494107633026
 31
0.0
  0
LINE
  5
2BE
330
1F
100
AcDbEntity
  8
C-9
  6
Continuous
 62
     6
370
     9
100
AcDbLine
 10
-609.2969327359585
 20
893.978007548564
 30
0.0
 11
-605.2970680030614
 21
889.9781428156672
 31
0.0
  0
LINE
  5
2BF
330
1F
100
AcDbEntity
  8
C-9
  6
Continuous
 62
     6
370
     9
100
AcDbLine
 10
-609.2969327359585
 20
896.8067396009292
 30
0.0
 11
-605.2970680030614
 21
892.806132548564
 31
0.0
  0
LINE
  5
2C0
330
1F
100
AcDbEntity
  8
C-9
  6
Continuous
 62
     6
370
     9
100
AcDbLine
 10
-609.2969327359585
 20
899.634729333826
 30
0.0
 11
-605.2970680030614
 21
895.6343697212839
 31
0.0
  0
LINE
  5
2C1
330
1F
100
AcDbEntity
  8
C-9
  6
Continuous
 62
     6
370
     9
100
AcDbLine
 10
-609.2969327359585
 20
902.4629665065459
 30
0.0
 11
-605.2970680030614
 21
898.4635966532937
 31
0.0
  0
LINE
  5
2C2
330
1F
100
AcDbEntity
  8
C-9
  6
Continuous
 62
     6
370
     9
100
AcDbLine
 10
-607.7075030352617
 20
903.7026400179474
 30
0.0
 11
-605.2970680030614
 21
901.2915863861906
 31
0.0
  0
LINE
  5
2C3
330
1F
100
AcDbEntity
  8
C-9
  6
Continuous
 62
     6
370
     9
100
AcDbLine
 10
-609.2969327359585
 20
798.088395402238
 30
0.0
 11
-605.2970680030614
 21
802.0887550147802
 31
0.0
  0
LINE
  5
2C4
330
1F
100
AcDbEntity
  8
C-9
  6
Continuous
 62
     6
370
     9
100
AcDbLine
 10
-609.2969327359585
 20
800.9171274546031
 30
0.0
 11
-605.2970680030614
 21
804.9169921875
 31
0.0
  0
LINE
  5
2C5
330
1F
100
AcDbEntity
  8
C-9
  6
Continuous
 62
     6
370
     9
100
AcDbLine
 10
-609.2969327359585
 20
803.7456120671453
 30
0.0
 11
-605.2970680030614
 21
807.7457242398651
 31
0.0
  0
LINE
  5
2C6
330
1F
100
AcDbEntity
  8
C-9
  6
Continuous
 62
     6
370
     9
100
AcDbLine
 10
-609.2969327359585
 20
806.5738492398651
 30
0.0
 11
-605.2970680030614
 21
810.5742088524073
 31
0.0
  0
LINE
  5
2C7
330
1F
100
AcDbEntity
  8
C-9
  6
Continuous
 62
     6
370
     9
100
AcDbLine
 10
-609.2969327359585
 20
809.4025812922297
 30
0.0
 11
-605.2970680030614
 21
813.4024460251266
 31
0.0
  0
LINE
  5
2C8
330
1F
100
AcDbEntity
  8
C-9
  6
Continuous
 62
     6
370
     9
100
AcDbLine
 10
-609.2969327359585
 20
812.2310659047719
 30
0.0
 11
-605.2970680030614
 21
816.2304357580234
 31
0.0
  0
LINE
  5
2C9
330
1F
100
AcDbEntity
  8
C-9
  6
Continuous
 62
     6
370
     9
100
AcDbLine
 10
-609.2969327359585
 20
815.0593030774917
 30
0.0
 11
-605.2970680030614
 21
819.0591678103885
 31
0.0
  0
LINE
  5
2CA
330
1F
100
AcDbEntity
  8
C-9
  6
Continuous
 62
     6
370
     9
100
AcDbLine
 10
-609.2969327359585
 20
817.8872928103885
 30
0.0
 11
-605.2970680030614
 21
821.8878998627531
 31
0.0
  0
LINE
  5
2CB
330
1F
100
AcDbEntity
  8
C-9
  6
Continuous
 62
     6
370
     9
100
AcDbLine
 10
-609.2969327359585
 20
820.7160248627531
 30
0.0
 11
-605.2970680030614
 21
824.7158895956505
 31
0.0
  0
LINE
  5
2CC
330
1F
100
AcDbEntity
  8
C-9
  6
Continuous
 62
     6
370
     9
100
AcDbLine
 10
-609.2969327359585
 20
823.5447569151182
 30
0.0
 11
-605.2970680030614
 21
827.5446216480151
 31
0.0
  0
LINE
  5
2CD
330
1F
100
AcDbEntity
  8
C-9
  6
Continuous
 62
     6
370
     9
100
AcDbLine
 10
-609.2969327359585
 20
826.3727466480151
 30
0.0
 11
-605.2970680030614
 21
830.3731062605573
 31
0.0
  0
LINE
  5
2CE
330
1F
100
AcDbEntity
  8
C-9
  6
Continuous
 62
     6
370
     9
100
AcDbLine
 10
-609.2969327359585
 20
829.2014787003802
 30
0.0
 11
-605.2970680030614
 21
833.2013434332771
 31
0.0
  0
LINE
  5
2CF
330
1F
100
AcDbEntity
  8
C-9
  6
Continuous
 62
     6
370
     9
100
AcDbLine
 10
-609.2969327359585
 20
832.0299633129224
 30
0.0
 11
-605.2970680030614
 21
836.0295806059963
 31
0.0
  0
LINE
  5
2D0
330
1F
100
AcDbEntity
  8
C-9
  6
Continuous
 62
     6
370
     9
100
AcDbLine
 10
-609.2969327359585
 20
834.8582004856416
 30
0.0
 11
-605.2970680030614
 21
838.8580652185391
 31
0.0
  0
LINE
  5
2D1
330
1F
100
AcDbEntity
  8
C-9
  6
Continuous
 62
     6
370
     9
100
AcDbLine
 10
-609.2969327359585
 20
837.6864376583615
 30
0.0
 11
-605.2970680030614
 21
841.6867972709036
 31
0.0
  0
LINE
  5
2D2
330
1F
100
AcDbEntity
  8
C-9
  6
Continuous
 62
     6
370
     9
100
AcDbLine
 10
-609.2969327359585
 20
840.5149222709036
 30
0.0
 11
-605.2970680030614
 21
844.5147870038005
 31
0.0
  0
LINE
  5
2D3
330
1F
100
AcDbEntity
  8
C-9
  6
Continuous
 62
     6
370
     9
100
AcDbLine
 10
-609.2969327359585
 20
843.3436543232688
 30
0.0
 11
-605.2970680030614
 21
847.3435190561656
 31
0.0
  0
LINE
  5
2D4
330
1F
100
AcDbEntity
  8
C-9
  6
Continuous
 62
     6
370
     9
100
AcDbLine
 10
-609.2969327359585
 20
846.1716440561656
 30
0.0
 11
-605.2970680030614
 21
850.1722511085302
 31
0.0
  0
LINE
  5
2D5
330
1F
100
AcDbEntity
  8
C-9
  6
Continuous
 62
     6
370
     9
100
AcDbLine
 10
-609.2969327359585
 20
849.0003761085302
 30
0.0
 11
-605.2970680030614
 21
853.0002408414276
 31
0.0
  0
LINE
  5
2D6
330
1F
100
AcDbEntity
  8
C-9
  6
Continuous
 62
     6
370
     9
100
AcDbLine
 10
-609.2969327359585
 20
851.8291081608953
 30
0.0
 11
-605.2970680030614
 21
855.8284780141469
 31
0.0
  0
LINE
  5
2D7
330
1F
100
AcDbEntity
  8
C-9
  6
Continuous
 62
     6
370
     9
100
AcDbLine
 10
-609.2969327359585
 20
854.6570978937922
 30
0.0
 11
-605.2970680030614
 21
858.656962626689
 31
0.0
  0
LINE
  5
2D8
330
1F
100
AcDbEntity
  8
C-9
  6
Continuous
 62
     6
370
     9
100
AcDbLine
 10
-609.2969327359585
 20
857.485335066512
 30
0.0
 11
-605.2970680030614
 21
861.4856946790542
 31
0.0
  0
LINE
  5
2D9
330
1F
100
AcDbEntity
  8
C-9
  6
Continuous
 62
     6
370
     9
100
AcDbLine
 10
-609.2969327359585
 20
860.3138196790542
 30
0.0
 11
-605.2970680030614
 21
864.3139318517734
 31
0.0
  0
LINE
  5
2DA
330
1F
100
AcDbEntity
  8
C-9
  6
Continuous
 62
     6
370
     9
100
AcDbLine
 10
-609.2969327359585
 20
863.1425517314187
 30
0.0
 11
-605.2970680030614
 21
867.1424164643156
 31
0.0
  0
LINE
  5
2DB
330
1F
100
AcDbEntity
  8
C-9
  6
Continuous
 62
     6
370
     9
100
AcDbLine
 10
-609.2969327359585
 20
865.9707889041385
 30
0.0
 11
-605.2970680030614
 21
869.9711485166807
 31
0.0
  0
LINE
  5
2DC
330
1F
100
AcDbEntity
  8
C-9
  6
Continuous
 62
     6
370
     9
100
AcDbLine
 10
-609.2969327359585
 20
868.7987786370354
 30
0.0
 11
-605.2970680030614
 21
872.7991382495776
 31
0.0
  0
LINE
  5
2DD
330
1F
100
AcDbEntity
  8
C-9
  6
Continuous
 62
     6
370
     9
100
AcDbLine
 10
-609.2969327359585
 20
871.6280055690459
 30
0.0
 11
-605.2970680030614
 21
875.6273754222974
 31
0.0
  0
LINE
  5
2DE
330
1F
100
AcDbEntity
  8
C-9
  6
Continuous
 62
     6
370
     9
100
AcDbLine
 10
-609.2969327359585
 20
874.4559953019427
 30
0.0
 11
-605.2970680030614
 21
878.4566023543073
 31
0.0
  0
LINE
  5
2DF
330
1F
100
AcDbEntity
  8
C-9
  6
Continuous
 62
     6
370
     9
100
AcDbLine
 10
-609.2969327359585
 20
877.284232474662
 30
0.0
 11
-605.2970680030614
 21
881.2845920872041
 31
0.0
  0
LINE
  5
2E0
330
1F
100
AcDbEntity
  8
C-9
  6
Continuous
 62
     6
370
     9
100
AcDbLine
 10
-609.2969327359585
 20
880.1129645270271
 30
0.0
 11
-605.2970680030614
 21
884.112829259924
 31
0.0
  0
LINE
  5
2E1
330
1F
100
AcDbEntity
  8
C-9
  6
Continuous
 62
     6
370
     9
100
AcDbLine
 10
-609.2969327359585
 20
882.9414491395693
 30
0.0
 11
-605.2970680030614
 21
886.9413138724661
 31
0.0
  0
LINE
  5
2E2
330
1F
100
AcDbEntity
  8
C-9
  6
Continuous
 62
     6
370
     9
100
AcDbLine
 10
-609.2969327359585
 20
885.7696863122891
 30
0.0
 11
-605.2970680030614
 21
889.7700459248313
 31
0.0
  0
LINE
  5
2E3
330
1F
100
AcDbEntity
  8
C-9
  6
Continuous
 62
     6
370
     9
100
AcDbLine
 10
-609.2969327359585
 20
888.5981709248313
 30
0.0
 11
-605.2970680030614
 21
892.5982830975505
 31
0.0
  0
LINE
  5
2E4
330
1F
100
AcDbEntity
  8
C-9
  6
Continuous
 62
     6
370
     9
100
AcDbLine
 10
-609.2969327359585
 20
891.4269029771958
 30
0.0
 11
-605.2970680030614
 21
895.4262728304474
 31
0.0
  0
LINE
  5
2E5
330
1F
100
AcDbEntity
  8
C-9
  6
Continuous
 62
     6
370
     9
100
AcDbLine
 10
-609.2969327359585
 20
894.2548927100927
 30
0.0
 11
-605.2970680030614
 21
898.2550048828125
 31
0.0
  0
LINE
  5
2E6
330
1F
100
AcDbEntity
  8
C-9
  6
Continuous
 62
     6
370
     9
100
AcDbLine
 10
-609.2969327359585
 20
897.0836247624578
 30
0.0
 11
-605.2970680030614
 21
901.0834894953547
 31
0.0
  0
LINE
  5
2E7
330
1F
100
AcDbEntity
  8
C-9
  6
Continuous
 62
     6
370
     9
100
AcDbLine
 10
-609.2969327359585
 20
899.9118619351776
 30
0.0
 11
-605.5066495328335
 21
903.7026400179474
 31
0.0
  0
LINE
  5
2E8
330
1F
100
AcDbEntity
  8
C-9
  6
Continuous
 62
     6
370
     9
100
AcDbLine
 10
-609.2969327359585
 20
902.7403465477198
 30
0.0
 11
-608.3347629856419
 21
903.7026400179474
 31
0.0
  0
LINE
  5
2E9
330
1F
100
AcDbEntity
  8
C-9
  6
Continuous
 62
     6
370
     9
100
AcDbLine
 10
-579.2968337600294
 20
810.5158130542651
 30
0.0
 11
-575.2974639067779
 21
814.5161726668073
 31
0.0
  0
LINE
  5
2EA
330
1F
100
AcDbEntity
  8
C-9
  6
Continuous
 62
     6
370
     9
100
AcDbLine
 10
-579.2968337600294
 20
813.3445451066302
 30
0.0
 11
-575.2974639067779
 21
817.3444098395271
 31
0.0
  0
LINE
  5
2EB
330
1F
100
AcDbEntity
  8
C-9
  6
Continuous
 62
     6
370
     9
100
AcDbLine
 10
-579.2968337600294
 20
816.1730297191724
 30
0.0
 11
-575.2974639067779
 21
820.1728944520693
 31
0.0
  0
LINE
  5
2EC
330
1F
100
AcDbEntity
  8
C-9
  6
Continuous
 62
     6
370
     9
100
AcDbLine
 10
-579.2968337600294
 20
819.0012668918916
 30
0.0
 11
-575.2974639067779
 21
823.0011316247891
 31
0.0
  0
LINE
  5
2ED
330
1F
100
AcDbEntity
  8
C-9
  6
Continuous
 62
     6
370
     9
100
AcDbLine
 10
-579.2968337600294
 20
821.8295040646115
 30
0.0
 11
-575.2974639067779
 21
825.8298636771536
 31
0.0
  0
LINE
  5
2EE
330
1F
100
AcDbEntity
  8
C-9
  6
Continuous
 62
     6
370
     9
100
AcDbLine
 10
-579.2968337600294
 20
824.6579886771536
 30
0.0
 11
-575.2974639067779
 21
828.6578534100505
 31
0.0
  0
LINE
  5
2EF
330
1F
100
AcDbEntity
  8
C-9
  6
Continuous
 62
     6
370
     9
100
AcDbLine
 10
-579.2968337600294
 20
827.4867207295188
 30
0.0
 11
-575.2974639067779
 21
831.4865854624156
 31
0.0
  0
LINE
  5
2F0
330
1F
100
AcDbEntity
  8
C-9
  6
Continuous
 62
     6
370
     9
100
AcDbLine
 10
-579.2968337600294
 20
830.3147104624156
 30
0.0
 11
-575.2974639067779
 21
834.3150700749578
 31
0.0
  0
LINE
  5
2F1
330
1F
100
AcDbEntity
  8
C-9
  6
Continuous
 62
     6
370
     9
100
AcDbLine
 10
-579.2968337600294
 20
833.1434425147802
 30
0.0
 11
-575.2974639067779
 21
837.1433072476776
 31
0.0
  0
LINE
  5
2F2
330
1F
100
AcDbEntity
  8
C-9
  6
Continuous
 62
     6
370
     9
100
AcDbLine
 10
-579.2968337600294
 20
835.9719271273224
 30
0.0
 11
-575.2974639067779
 21
839.9715444203969
 31
0.0
  0
LINE
  5
2F3
330
1F
100
AcDbEntity
  8
C-9
  6
Continuous
 62
     6
370
     9
100
AcDbLine
 10
-579.2968337600294
 20
838.8001643000422
 30
0.0
 11
-575.2974639067779
 21
842.800029032939
 31
0.0
  0
LINE
  5
2F4
330
1F
100
AcDbEntity
  8
C-9
  6
Continuous
 62
     6
370
     9
100
AcDbLine
 10
-579.2968337600294
 20
841.628154032939
 30
0.0
 11
-575.2974639067779
 21
845.6287610853042
 31
0.0
  0
LINE
  5
2F5
330
1F
100
AcDbEntity
  8
C-9
  6
Continuous
 62
     6
370
     9
100
AcDbLine
 10
-579.2968337600294
 20
844.4568860853042
 30
0.0
 11
-575.2974639067779
 21
848.456750818201
 31
0.0
  0
LINE
  5
2F6
330
1F
100
AcDbEntity
  8
C-9
  6
Continuous
 62
     6
370
     9
100
AcDbLine
 10
-579.2968337600294
 20
847.2856181376687
 30
0.0
 11
-575.2974639067779
 21
851.2854828705656
 31
0.0
  0
LINE
  5
2F7
330
1F
100
AcDbEntity
  8
C-9
  6
Continuous
 62
     6
370
     9
100
AcDbLine
 10
-579.2968337600294
 20
850.1136078705656
 30
0.0
 11
-575.2974639067779
 21
854.1139674831084
 31
0.0
  0
LINE
  5
2F8
330
1F
100
AcDbEntity
  8
C-9
  6
Continuous
 62
     6
370
     9
100
AcDbLine
 10
-579.2968337600294
 20
852.9423399229307
 30
0.0
 11
-575.2974639067779
 21
856.9422046558276
 31
0.0
  0
LINE
  5
2F9
330
1F
100
AcDbEntity
  8
C-9
  6
Continuous
 62
     6
370
     9
100
AcDbLine
 10
-579.2968337600294
 20
855.7708245354729
 30
0.0
 11
-575.2974639067779
 21
859.7709367081927
 31
0.0
  0
LINE
  5
2FA
330
1F
100
AcDbEntity
  8
C-9
  6
Continuous
 62
     6
370
     9
100
AcDbLine
 10
-579.2968337600294
 20
858.5990617081927
 30
0.0
 11
-575.2974639067779
 21
862.5989264410896
 31
0.0
  0
LINE
  5
2FB
330
1F
100
AcDbEntity
  8
C-9
  6
Continuous
 62
     6
370
     9
100
AcDbLine
 10
-579.2968337600294
 20
861.427298880912
 30
0.0
 11
-575.2974639067779
 21
865.4276584934541
 31
0.0
  0
LINE
  5
2FC
330
1F
100
AcDbEntity
  8
C-9
  6
Continuous
 62
     6
370
     9
100
AcDbLine
 10
-579.2968337600294
 20
864.2557834934541
 30
0.0
 11
-575.2974639067779
 21
868.2556482263516
 31
0.0
  0
LINE
  5
2FD
330
1F
100
AcDbEntity
  8
C-9
  6
Continuous
 62
     6
370
     9
100
AcDbLine
 10
-579.2968337600294
 20
867.0845155458193
 30
0.0
 11
-575.2974639067779
 21
871.0843802787161
 31
0.0
  0
LINE
  5
2FE
330
1F
100
AcDbEntity
  8
C-9
  6
Continuous
 62
     6
370
     9
100
AcDbLine
 10
-579.2968337600294
 20
869.9125052787161
 30
0.0
 11
-575.2974639067779
 21
873.9131123310813
 31
0.0
  0
LINE
  5
2FF
330
1F
100
AcDbEntity
  8
C-9
  6
Continuous
 62
     6
370
     9
100
AcDbLine
 10
-579.2968337600294
 20
872.7412373310813
 30
0.0
 11
-575.2974639067779
 21
876.7411020639781
 31
0.0
  0
LINE
  5
300
330
1F
100
AcDbEntity
  8
C-9
  6
Continuous
 62
     6
370
     9
100
AcDbLine
 10
-579.2968337600294
 20
875.5699693834458
 30
0.0
 11
-575.2974639067779
 21
879.5693392366974
 31
0.0
  0
LINE
  5
301
330
1F
100
AcDbEntity
  8
C-9
  6
Continuous
 62
     6
370
     9
100
AcDbLine
 10
-579.2968337600294
 20
878.3979591163427
 30
0.0
 11
-575.2974639067779
 21
882.3983187288849
 31
0.0
  0
LINE
  5
302
330
1F
100
AcDbEntity
  8
C-9
  6
Continuous
 62
     6
370
     9
100
AcDbLine
 10
-579.2968337600294
 20
881.2261962890625
 30
0.0
 11
-575.2974639067779
 21
885.2265559016047
 31
0.0
  0
LINE
  5
303
330
1F
100
AcDbEntity
  8
C-9
  6
Continuous
 62
     6
370
     9
100
AcDbLine
 10
-579.2968337600294
 20
884.0546809016047
 30
0.0
 11
-575.2974639067779
 21
888.0547930743245
 31
0.0
  0
LINE
  5
304
330
1F
100
AcDbEntity
  8
C-9
  6
Continuous
 62
     6
370
     9
100
AcDbLine
 10
-579.2968337600294
 20
886.8834129539698
 30
0.0
 11
-575.2974639067779
 21
890.8832776868667
 31
0.0
  0
LINE
  5
305
330
1F
100
AcDbEntity
  8
C-9
  6
Continuous
 62
     6
370
     9
100
AcDbLine
 10
-579.2968337600294
 20
889.711650126689
 30
0.0
 11
-575.2974639067779
 21
893.7120097392312
 31
0.0
  0
LINE
  5
306
330
1F
100
AcDbEntity
  8
C-9
  6
Continuous
 62
     6
370
     9
100
AcDbLine
 10
-579.2968337600294
 20
892.5401347392312
 30
0.0
 11
-575.2974639067779
 21
896.5399994721281
 31
0.0
  0
LINE
  5
307
330
1F
100
AcDbEntity
  8
C-9
  6
Continuous
 62
     6
370
     9
100
AcDbLine
 10
-579.2968337600294
 20
895.3688667915964
 30
0.0
 11
-575.2974639067779
 21
899.3682366448479
 31
0.0
  0
LINE
  5
308
330
1F
100
AcDbEntity
  8
C-9
  6
Continuous
 62
     6
370
     9
100
AcDbLine
 10
-579.2968337600294
 20
898.1968565244932
 30
0.0
 11
-575.2974639067779
 21
902.1974635768584
 31
0.0
  0
LINE
  5
309
330
1F
100
AcDbEntity
  8
C-9
  6
Continuous
 62
     6
370
     9
100
AcDbLine
 10
-579.2968337600294
 20
811.3516647751266
 30
0.0
 11
-577.9006545608106
 21
809.9553618559963
 31
0.0
  0
LINE
  5
30A
330
1F
100
AcDbEntity
  8
C-9
  6
Continuous
 62
     6
370
     9
100
AcDbLine
 10
-579.2968337600294
 20
814.1803968274917
 30
0.0
 11
-576.3125857791385
 21
811.1955302470437
 31
0.0
  0
LINE
  5
30B
330
1F
100
AcDbEntity
  8
C-9
  6
Continuous
 62
     6
370
     9
100
AcDbLine
 10
-579.2968337600294
 20
817.0083865603885
 30
0.0
 11
-575.2974639067779
 21
813.0085218274917
 31
0.0
  0
LINE
  5
30C
330
1F
100
AcDbEntity
  8
C-9
  6
Continuous
 62
     6
370
     9
100
AcDbLine
 10
-579.2968337600294
 20
819.8366237331084
 30
0.0
 11
-575.2974639067779
 21
815.8372538798562
 31
0.0
  0
LINE
  5
30D
330
1F
100
AcDbEntity
  8
C-9
  6
Continuous
 62
     6
370
     9
100
AcDbLine
 10
-579.2968337600294
 20
822.6656032252959
 30
0.0
 11
-575.2974639067779
 21
818.6652436127531
 31
0.0
  0
LINE
  5
30E
330
1F
100
AcDbEntity
  8
C-9
  6
Continuous
 62
     6
370
     9
100
AcDbLine
 10
-579.2968337600294
 20
825.4938403980151
 30
0.0
 11
-575.2974639067779
 21
821.4934807854729
 31
0.0
  0
LINE
  5
30F
330
1F
100
AcDbEntity
  8
C-9
  6
Continuous
 62
     6
370
     9
100
AcDbLine
 10
-579.2968337600294
 20
828.3220775707349
 30
0.0
 11
-575.2974639067779
 21
824.3224602776604
 31
0.0
  0
LINE
  5
310
330
1F
100
AcDbEntity
  8
C-9
  6
Continuous
 62
     6
370
     9
100
AcDbLine
 10
-579.2968337600294
 20
831.1505621832771
 30
0.0
 11
-575.2974639067779
 21
827.1506974503802
 31
0.0
  0
LINE
  5
311
330
1F
100
AcDbEntity
  8
C-9
  6
Continuous
 62
     6
370
     9
100
AcDbLine
 10
-579.2968337600294
 20
833.9792942356416
 30
0.0
 11
-575.2974639067779
 21
829.9789346230995
 31
0.0
  0
LINE
  5
312
330
1F
100
AcDbEntity
  8
C-9
  6
Continuous
 62
     6
370
     9
100
AcDbLine
 10
-579.2968337600294
 20
836.8075314083615
 30
0.0
 11
-575.2974639067779
 21
832.8074192356416
 31
0.0
  0
LINE
  5
313
330
1F
100
AcDbEntity
  8
C-9
  6
Continuous
 62
     6
370
     9
100
AcDbLine
 10
-579.2968337600294
 20
839.6355211412583
 30
0.0
 11
-575.2974639067779
 21
835.6361512880068
 31
0.0
  0
LINE
  5
314
330
1F
100
AcDbEntity
  8
C-9
  6
Continuous
 62
     6
370
     9
100
AcDbLine
 10
-579.2968337600294
 20
842.4642531936234
 30
0.0
 11
-575.2974639067779
 21
838.4641410209036
 31
0.0
  0
LINE
  5
315
330
1F
100
AcDbEntity
  8
C-9
  6
Continuous
 62
     6
370
     9
100
AcDbLine
 10
-579.2968337600294
 20
845.2927378061656
 30
0.0
 11
-575.2974639067779
 21
841.2923781936234
 31
0.0
  0
LINE
  5
316
330
1F
100
AcDbEntity
  8
C-9
  6
Continuous
 62
     6
370
     9
100
AcDbLine
 10
-579.2968337600294
 20
848.1209749788849
 30
0.0
 11
-575.2974639067779
 21
844.121357685811
 31
0.0
  0
LINE
  5
317
330
1F
100
AcDbEntity
  8
C-9
  6
Continuous
 62
     6
370
     9
100
AcDbLine
 10
-579.2968337600294
 20
850.9494595914276
 30
0.0
 11
-575.2974639067779
 21
846.9495948585302
 31
0.0
  0
LINE
  5
318
330
1F
100
AcDbEntity
  8
C-9
  6
Continuous
 62
     6
370
     9
100
AcDbLine
 10
-579.2968337600294
 20
853.7781916437922
 30
0.0
 11
-575.2974639067779
 21
849.77783203125
 31
0.0
  0
LINE
  5
319
330
1F
100
AcDbEntity
  8
C-9
  6
Continuous
 62
     6
370
     9
100
AcDbLine
 10
-579.2968337600294
 20
856.606181376689
 30
0.0
 11
-575.2974639067779
 21
852.6063166437922
 31
0.0
  0
LINE
  5
31A
330
1F
100
AcDbEntity
  8
C-9
  6
Continuous
 62
     6
370
     9
100
AcDbLine
 10
-579.2968337600294
 20
859.4349134290542
 30
0.0
 11
-575.2974639067779
 21
855.4350486961573
 31
0.0
  0
LINE
  5
31B
330
1F
100
AcDbEntity
  8
C-9
  6
Continuous
 62
     6
370
     9
100
AcDbLine
 10
-579.2968337600294
 20
862.2636454814187
 30
0.0
 11
-575.2974639067779
 21
858.2630384290542
 31
0.0
  0
LINE
  5
31C
330
1F
100
AcDbEntity
  8
C-9
  6
Continuous
 62
     6
370
     9
100
AcDbLine
 10
-579.2968337600294
 20
865.0916352143156
 30
0.0
 11
-575.2974639067779
 21
861.0917704814187
 31
0.0
  0
LINE
  5
31D
330
1F
100
AcDbEntity
  8
C-9
  6
Continuous
 62
     6
370
     9
100
AcDbLine
 10
-579.2968337600294
 20
867.9198723870354
 30
0.0
 11
-575.2974639067779
 21
863.9205025337839
 31
0.0
  0
LINE
  5
31E
330
1F
100
AcDbEntity
  8
C-9
  6
Continuous
 62
     6
370
     9
100
AcDbLine
 10
-579.2968337600294
 20
870.7483569995776
 30
0.0
 11
-575.2974639067779
 21
866.7484922666807
 31
0.0
  0
LINE
  5
31F
330
1F
100
AcDbEntity
  8
C-9
  6
Continuous
 62
     6
370
     9
100
AcDbLine
 10
-579.2968337600294
 20
873.5770890519427
 30
0.0
 11
-575.2974639067779
 21
869.5767294394005
 31
0.0
  0
LINE
  5
320
330
1F
100
AcDbEntity
  8
C-9
  6
Continuous
 62
     6
370
     9
100
AcDbLine
 10
-579.2968337600294
 20
876.405326224662
 30
0.0
 11
-575.2974639067779
 21
872.4052140519427
 31
0.0
  0
LINE
  5
321
330
1F
100
AcDbEntity
  8
C-9
  6
Continuous
 62
     6
370
     9
100
AcDbLine
 10
-579.2968337600294
 20
879.2338108372041
 30
0.0
 11
-575.2974639067779
 21
875.2339461043073
 31
0.0
  0
LINE
  5
322
330
1F
100
AcDbEntity
  8
C-9
  6
Continuous
 62
     6
370
     9
100
AcDbLine
 10
-579.2968337600294
 20
882.062048009924
 30
0.0
 11
-575.2974639067779
 21
878.0621832770271
 31
0.0
  0
LINE
  5
323
330
1F
100
AcDbEntity
  8
C-9
  6
Continuous
 62
     6
370
     9
100
AcDbLine
 10
-579.2968337600294
 20
884.8905326224661
 30
0.0
 11
-575.2974639067779
 21
880.8906678895693
 31
0.0
  0
LINE
  5
324
330
1F
100
AcDbEntity
  8
C-9
  6
Continuous
 62
     6
370
     9
100
AcDbLine
 10
-579.2968337600294
 20
887.718769795186
 30
0.0
 11
-575.2974639067779
 21
883.7189050622891
 31
0.0
  0
LINE
  5
325
330
1F
100
AcDbEntity
  8
C-9
  6
Continuous
 62
     6
370
     9
100
AcDbLine
 10
-579.2968337600294
 20
890.5475018475505
 30
0.0
 11
-575.2974639067779
 21
886.5473896748313
 31
0.0
  0
LINE
  5
326
330
1F
100
AcDbEntity
  8
C-9
  6
Continuous
 62
     6
370
     9
100
AcDbLine
 10
-579.2968337600294
 20
893.3759864600927
 30
0.0
 11
-575.2974639067779
 21
889.3756268475505
 31
0.0
  0
LINE
  5
327
330
1F
100
AcDbEntity
  8
C-9
  6
Continuous
 62
     6
370
     9
100
AcDbLine
 10
-579.2968337600294
 20
896.2042236328125
 30
0.0
 11
-575.2974639067779
 21
892.2043588999156
 31
0.0
  0
LINE
  5
328
330
1F
100
AcDbEntity
  8
C-9
  6
Continuous
 62
     6
370
     9
100
AcDbLine
 10
-579.2968337600294
 20
899.0322133657094
 30
0.0
 11
-575.2974639067779
 21
895.0328435124578
 31
0.0
  0
LINE
  5
329
330
1F
100
AcDbEntity
  8
C-9
  6
Continuous
 62
     6
370
     9
100
AcDbLine
 10
-579.2968337600294
 20
901.8614402977198
 30
0.0
 11
-575.2974639067779
 21
897.8610806851776
 31
0.0
  0
LINE
  5
32A
330
1F
100
AcDbEntity
  8
C-9
  6
Continuous
 62
     6
370
     9
100
AcDbLine
 10
-579.2968337600294
 20
901.025093697213
 30
0.0
 11
-576.6207720782304
 21
903.7016502586573
 31
0.0
  0
LINE
  5
32B
330
1F
100
AcDbEntity
  8
C-9
  6
Continuous
 62
     6
370
     9
100
AcDbLine
 10
-578.309425147804
 20
903.7016502586573
 30
0.0
 11
-575.2974639067779
 21
900.6890704180745
 31
0.0
  0
LINE
  5
32C
330
1F
100
AcDbEntity
  8
C-9
  6
Continuous
 62
     6
370
     9
100
AcDbLine
 10
-575.480693095439
 20
903.7016502586573
 30
0.0
 11
-575.2974639067779
 21
903.5182973500844
 31
0.0
  0
LINE
  5
32D
330
1F
100
AcDbEntity
  8
C-9
  6
Continuous
 62
     6
370
     9
100
AcDbLine
 10
-549.2972296637456
 20
822.017558329814
 30
0.0
 11
-548.6065013988596
 21
821.3269537848396
 31
0.0
  0
LINE
  5
32E
330
1F
100
AcDbEntity
  8
C-9
  6
Continuous
 62
     6
370
     9
100
AcDbLine
 10
-549.2972296637456
 20
824.8457955025339
 30
0.0
 11
-547.0180614574533
 21
822.5666272962417
 31
0.0
  0
LINE
  5
32F
330
1F
100
AcDbEntity
  8
C-9
  6
Continuous
 62
     6
370
     9
100
AcDbLine
 10
-549.2972296637456
 20
827.6740326752531
 30
0.0
 11
-545.4301163956925
 21
823.8072905669338
 31
0.0
  0
LINE
  5
330
330
1F
100
AcDbEntity
  8
C-9
  6
Continuous
 62
     6
370
     9
100
AcDbLine
 10
-549.2972296637456
 20
830.5025172877959
 30
0.0
 11
-545.2972412109375
 21
826.5026525548984
 31
0.0
  0
LINE
  5
331
330
1F
100
AcDbEntity
  8
C-9
  6
Continuous
 62
     6
370
     9
100
AcDbLine
 10
-549.2972296637456
 20
833.3312493401604
 30
0.0
 11
-545.2972412109375
 21
829.3308897276182
 31
0.0
  0
LINE
  5
332
330
1F
100
AcDbEntity
  8
C-9
  6
Continuous
 62
     6
370
     9
100
AcDbLine
 10
-549.2972296637456
 20
836.1592390730573
 30
0.0
 11
-545.2972412109375
 21
832.1593743401604
 31
0.0
  0
LINE
  5
333
330
1F
100
AcDbEntity
  8
C-9
  6
Continuous
 62
     6
370
     9
100
AcDbLine
 10
-549.2972296637456
 20
838.9879711254224
 30
0.0
 11
-545.2972412109375
 21
834.9881063925255
 31
0.0
  0
LINE
  5
334
330
1F
100
AcDbEntity
  8
C-9
  6
Continuous
 62
     6
370
     9
100
AcDbLine
 10
-549.2972296637456
 20
841.816703177787
 30
0.0
 11
-545.2972412109375
 21
837.8160961254224
 31
0.0
  0
LINE
  5
335
330
1F
100
AcDbEntity
  8
C-9
  6
Continuous
 62
     6
370
     9
100
AcDbLine
 10
-549.2972296637456
 20
844.6446929106838
 30
0.0
 11
-545.2972412109375
 21
840.644828177787
 31
0.0
  0
LINE
  5
336
330
1F
100
AcDbEntity
  8
C-9
  6
Continuous
 62
     6
370
     9
100
AcDbLine
 10
-549.2972296637456
 20
847.4729300834036
 30
0.0
 11
-545.2972412109375
 21
843.4733127903291
 31
0.0
  0
LINE
  5
337
330
1F
100
AcDbEntity
  8
C-9
  6
Continuous
 62
     6
370
     9
100
AcDbLine
 10
-549.2972296637456
 20
850.3014146959458
 30
0.0
 11
-545.2972412109375
 21
846.301549963049
 31
0.0
  0
LINE
  5
338
330
1F
100
AcDbEntity
  8
C-9
  6
Continuous
 62
     6
370
     9
100
AcDbLine
 10
-549.2972296637456
 20
853.130146748311
 30
0.0
 11
-545.2972412109375
 21
849.1297871357688
 31
0.0
  0
LINE
  5
339
330
1F
100
AcDbEntity
  8
C-9
  6
Continuous
 62
     6
370
     9
100
AcDbLine
 10
-549.2972296637456
 20
855.9581364812078
 30
0.0
 11
-545.2972412109375
 21
851.958271748311
 31
0.0
  0
LINE
  5
33A
330
1F
100
AcDbEntity
  8
C-9
  6
Continuous
 62
     6
370
     9
100
AcDbLine
 10
-549.2972296637456
 20
858.7868685335724
 30
0.0
 11
-545.2972412109375
 21
854.7870038006755
 31
0.0
  0
LINE
  5
33B
330
1F
100
AcDbEntity
  8
C-9
  6
Continuous
 62
     6
370
     9
100
AcDbLine
 10
-549.2972296637456
 20
861.6156005859375
 30
0.0
 11
-545.2972412109375
 21
857.6149935335724
 31
0.0
  0
LINE
  5
33C
330
1F
100
AcDbEntity
  8
C-9
  6
Continuous
 62
     6
370
     9
100
AcDbLine
 10
-549.2972296637456
 20
864.4435903188344
 30
0.0
 11
-545.2972412109375
 21
860.4437255859375
 31
0.0
  0
LINE
  5
33D
330
1F
100
AcDbEntity
  8
C-9
  6
Continuous
 62
     6
370
     9
100
AcDbLine
 10
-549.2972296637456
 20
867.2723223711995
 30
0.0
 11
-545.2972412109375
 21
863.2724576383026
 31
0.0
  0
LINE
  5
33E
330
1F
100
AcDbEntity
  8
C-9
  6
Continuous
 62
     6
370
     9
100
AcDbLine
 10
-549.2972296637456
 20
870.1003121040964
 30
0.0
 11
-545.2972412109375
 21
866.1004473711995
 31
0.0
  0
LINE
  5
33F
330
1F
100
AcDbEntity
  8
C-9
  6
Continuous
 62
     6
370
     9
100
AcDbLine
 10
-549.2972296637456
 20
872.9290441564609
 30
0.0
 11
-545.2972412109375
 21
868.9286845439187
 31
0.0
  0
LINE
  5
340
330
1F
100
AcDbEntity
  8
C-9
  6
Continuous
 62
     6
370
     9
100
AcDbLine
 10
-549.2972296637456
 20
875.7570338893584
 30
0.0
 11
-545.2972412109375
 21
871.7571691564609
 31
0.0
  0
LINE
  5
341
330
1F
100
AcDbEntity
  8
C-9
  6
Continuous
 62
     6
370
     9
100
AcDbLine
 10
-549.2972296637456
 20
878.5857659417229
 30
0.0
 11
-545.2972412109375
 21
874.585901208826
 31
0.0
  0
LINE
  5
342
330
1F
100
AcDbEntity
  8
C-9
  6
Continuous
 62
     6
370
     9
100
AcDbLine
 10
-549.2972296637456
 20
881.414497994088
 30
0.0
 11
-545.2972412109375
 21
877.4138909417229
 31
0.0
  0
LINE
  5
343
330
1F
100
AcDbEntity
  8
C-9
  6
Continuous
 62
     6
370
     9
100
AcDbLine
 10
-549.2972296637456
 20
884.2424877269849
 30
0.0
 11
-545.2972412109375
 21
880.242622994088
 31
0.0
  0
LINE
  5
344
330
1F
100
AcDbEntity
  8
C-9
  6
Continuous
 62
     6
370
     9
100
AcDbLine
 10
-549.2972296637456
 20
887.0707248997041
 30
0.0
 11
-545.2972412109375
 21
883.0713550464526
 31
0.0
  0
LINE
  5
345
330
1F
100
AcDbEntity
  8
C-9
  6
Continuous
 62
     6
370
     9
100
AcDbLine
 10
-549.2972296637456
 20
889.8992095122463
 30
0.0
 11
-545.2972412109375
 21
885.8993447793495
 31
0.0
  0
LINE
  5
346
330
1F
100
AcDbEntity
  8
C-9
  6
Continuous
 62
     6
370
     9
100
AcDbLine
 10
-549.2972296637456
 20
892.7279415646115
 30
0.0
 11
-545.2972412109375
 21
888.7275819520693
 31
0.0
  0
LINE
  5
347
330
1F
100
AcDbEntity
  8
C-9
  6
Continuous
 62
     6
370
     9
100
AcDbLine
 10
-549.2972296637456
 20
895.5561787373313
 30
0.0
 11
-545.2972412109375
 21
891.5560665646115
 31
0.0
  0
LINE
  5
348
330
1F
100
AcDbEntity
  8
C-9
  6
Continuous
 62
     6
370
     9
100
AcDbLine
 10
-549.2972296637456
 20
898.3846633498734
 30
0.0
 11
-545.2972412109375
 21
894.3847986169766
 31
0.0
  0
LINE
  5
349
330
1F
100
AcDbEntity
  8
C-9
  6
Continuous
 62
     6
370
     9
100
AcDbLine
 10
-549.2972296637456
 20
901.213395402238
 30
0.0
 11
-545.2972412109375
 21
897.2130357896958
 31
0.0
  0
LINE
  5
34A
330
1F
100
AcDbEntity
  8
C-9
  6
Continuous
 62
     6
370
     9
100
AcDbLine
 10
-546.0191468934755
 20
823.3470524968328
 30
0.0
 11
-545.2972412109375
 21
824.0688344594594
 31
0.0
  0
LINE
  5
34B
330
1F
100
AcDbEntity
  8
C-9
  6
Continuous
 62
     6
370
     9
100
AcDbLine
 10
-549.2972296637456
 20
822.8977017789276
 30
0.0
 11
-545.2972412109375
 21
826.8970716321792
 31
0.0
  0
LINE
  5
34C
330
1F
100
AcDbEntity
  8
C-9
  6
Continuous
 62
     6
370
     9
100
AcDbLine
 10
-549.2972296637456
 20
825.7256915118245
 30
0.0
 11
-545.2972412109375
 21
829.7255562447214
 31
0.0
  0
LINE
  5
34D
330
1F
100
AcDbEntity
  8
C-9
  6
Continuous
 62
     6
370
     9
100
AcDbLine
 10
-549.2972296637456
 20
828.5539286845437
 30
0.0
 11
-545.2972412109375
 21
832.5542882970859
 31
0.0
  0
LINE
  5
34E
330
1F
100
AcDbEntity
  8
C-9
  6
Continuous
 62
     6
370
     9
100
AcDbLine
 10
-549.2972296637456
 20
831.3824132970859
 30
0.0
 11
-545.2972412109375
 21
835.3822780299834
 31
0.0
  0
LINE
  5
34F
330
1F
100
AcDbEntity
  8
C-9
  6
Continuous
 62
     6
370
     9
100
AcDbLine
 10
-549.2972296637456
 20
834.211145349451
 30
0.0
 11
-545.2972412109375
 21
838.2110100823479
 31
0.0
  0
LINE
  5
350
330
1F
100
AcDbEntity
  8
C-9
  6
Continuous
 62
     6
370
     9
100
AcDbLine
 10
-549.2972296637456
 20
837.0391350823479
 30
0.0
 11
-545.2972412109375
 21
841.039742134713
 31
0.0
  0
LINE
  5
351
330
1F
100
AcDbEntity
  8
C-9
  6
Continuous
 62
     6
370
     9
100
AcDbLine
 10
-549.2972296637456
 20
839.867867134713
 30
0.0
 11
-545.2972412109375
 21
843.8677318676099
 31
0.0
  0
LINE
  5
352
330
1F
100
AcDbEntity
  8
C-9
  6
Continuous
 62
     6
370
     9
100
AcDbLine
 10
-549.2972296637456
 20
842.6965991870776
 30
0.0
 11
-545.2972412109375
 21
846.6959690403291
 31
0.0
  0
LINE
  5
353
330
1F
100
AcDbEntity
  8
C-9
  6
Continuous
 62
     6
370
     9
100
AcDbLine
 10
-549.2972296637456
 20
845.5245889199745
 30
0.0
 11
-545.2972412109375
 21
849.5249485325166
 31
0.0
  0
LINE
  5
354
330
1F
100
AcDbEntity
  8
C-9
  6
Continuous
 62
     6
370
     9
100
AcDbLine
 10
-549.2972296637456
 20
848.3528260926943
 30
0.0
 11
-545.2972412109375
 21
852.3531857052365
 31
0.0
  0
LINE
  5
355
330
1F
100
AcDbEntity
  8
C-9
  6
Continuous
 62
     6
370
     9
100
AcDbLine
 10
-549.2972296637456
 20
851.1818055848818
 30
0.0
 11
-545.2972412109375
 21
855.1814228779563
 31
0.0
  0
LINE
  5
356
330
1F
100
AcDbEntity
  8
C-9
  6
Continuous
 62
     6
370
     9
100
AcDbLine
 10
-549.2972296637456
 20
854.0100427576016
 30
0.0
 11
-545.2972412109375
 21
858.0099074904984
 31
0.0
  0
LINE
  5
357
330
1F
100
AcDbEntity
  8
C-9
  6
Continuous
 62
     6
370
     9
100
AcDbLine
 10
-549.2972296637456
 20
856.8382799303208
 30
0.0
 11
-545.2972412109375
 21
860.838639542863
 31
0.0
  0
LINE
  5
358
330
1F
100
AcDbEntity
  8
C-9
  6
Continuous
 62
     6
370
     9
100
AcDbLine
 10
-549.2972296637456
 20
859.666764542863
 30
0.0
 11
-545.2972412109375
 21
863.6666292757599
 31
0.0
  0
LINE
  5
359
330
1F
100
AcDbEntity
  8
C-9
  6
Continuous
 62
     6
370
     9
100
AcDbLine
 10
-549.2972296637456
 20
862.4954965952281
 30
0.0
 11
-545.2972412109375
 21
866.495361328125
 31
0.0
  0
LINE
  5
35A
330
1F
100
AcDbEntity
  8
C-9
  6
Continuous
 62
     6
370
     9
100
AcDbLine
 10
-549.2972296637456
 20
865.323486328125
 30
0.0
 11
-545.2972412109375
 21
869.3240933804901
 31
0.0
  0
LINE
  5
35B
330
1F
100
AcDbEntity
  8
C-9
  6
Continuous
 62
     6
370
     9
100
AcDbLine
 10
-549.2972296637456
 20
868.1522183804901
 30
0.0
 11
-545.2972412109375
 21
872.152083113387
 31
0.0
  0
LINE
  5
35C
330
1F
100
AcDbEntity
  8
C-9
  6
Continuous
 62
     6
370
     9
100
AcDbLine
 10
-549.2972296637456
 20
870.9809504328547
 30
0.0
 11
-545.2972412109375
 21
874.9803202861062
 31
0.0
  0
LINE
  5
35D
330
1F
100
AcDbEntity
  8
C-9
  6
Continuous
 62
     6
370
     9
100
AcDbLine
 10
-549.2972296637456
 20
873.8089401657516
 30
0.0
 11
-545.2972412109375
 21
877.8088048986484
 31
0.0
  0
LINE
  5
35E
330
1F
100
AcDbEntity
  8
C-9
  6
Continuous
 62
     6
370
     9
100
AcDbLine
 10
-549.2972296637456
 20
876.6371773384714
 30
0.0
 11
-545.2972412109375
 21
880.6375369510135
 31
0.0
  0
LINE
  5
35F
330
1F
100
AcDbEntity
  8
C-9
  6
Continuous
 62
     6
370
     9
100
AcDbLine
 10
-549.2972296637456
 20
879.4656619510135
 30
0.0
 11
-545.2972412109375
 21
883.4657741237334
 31
0.0
  0
LINE
  5
360
330
1F
100
AcDbEntity
  8
C-9
  6
Continuous
 62
     6
370
     9
100
AcDbLine
 10
-549.2972296637456
 20
882.2943940033781
 30
0.0
 11
-545.2972412109375
 21
886.2942587362755
 31
0.0
  0
LINE
  5
361
330
1F
100
AcDbEntity
  8
C-9
  6
Continuous
 62
     6
370
     9
100
AcDbLine
 10
-549.2972296637456
 20
885.1226311760979
 30
0.0
 11
-545.2972412109375
 21
889.1229907886401
 31
0.0
  0
LINE
  5
362
330
1F
100
AcDbEntity
  8
C-9
  6
Continuous
 62
     6
370
     9
100
AcDbLine
 10
-549.2972296637456
 20
887.9511157886401
 30
0.0
 11
-545.2972412109375
 21
891.950980521537
 31
0.0
  0
LINE
  5
363
330
1F
100
AcDbEntity
  8
C-9
  6
Continuous
 62
     6
370
     9
100
AcDbLine
 10
-549.2972296637456
 20
890.7798478410052
 30
0.0
 11
-545.2972412109375
 21
894.7792176942568
 31
0.0
  0
LINE
  5
364
330
1F
100
AcDbEntity
  8
C-9
  6
Continuous
 62
     6
370
     9
100
AcDbLine
 10
-549.2972296637456
 20
893.6078375739021
 30
0.0
 11
-545.2972412109375
 21
897.6079497466213
 31
0.0
  0
LINE
  5
365
330
1F
100
AcDbEntity
  8
C-9
  6
Continuous
 62
     6
370
     9
100
AcDbLine
 10
-549.2972296637456
 20
896.4360747466213
 30
0.0
 11
-545.2972412109375
 21
900.4364343591641
 31
0.0
  0
LINE
  5
366
330
1F
100
AcDbEntity
  8
C-9
  6
Continuous
 62
     6
370
     9
100
AcDbLine
 10
-549.2972296637456
 20
899.2648067989865
 30
0.0
 11
-545.2972412109375
 21
903.2646715318833
 31
0.0
  0
LINE
  5
367
330
1F
100
AcDbEntity
  8
C-9
  6
Continuous
 62
     6
370
     9
100
AcDbLine
 10
-548.9573710673562
 20
903.7016502586573
 30
0.0
 11
-545.2972412109375
 21
900.041520402238
 31
0.0
  0
LINE
  5
368
330
1F
100
AcDbEntity
  8
C-9
  6
Continuous
 62
     6
370
     9
100
AcDbLine
 10
-546.1291338946367
 20
903.7016502586573
 30
0.0
 11
-545.2972412109375
 21
902.8702524546031
 31
0.0
  0
LINE
  5
369
330
1F
100
AcDbEntity
  8
C-9
  6
Continuous
 62
     6
370
     9
100
AcDbLine
 10
-549.2972296637456
 20
902.0932914115286
 30
0.0
 11
-547.6888708166175
 21
903.7016502586573
 31
0.0
  0
LINE
  5
36A
330
1F
100
AcDbEntity
  8
C-9
  6
Continuous
 62
     6
370
     9
100
AcDbLine
 10
-518.1143683356206
 20
832.9571203283359
 30
0.0
 11
-515.2971422350083
 21
835.7737278293916
 31
0.0
  0
LINE
  5
36B
330
1F
100
AcDbEntity
  8
C-9
  6
Continuous
 62
     6
370
     9
100
AcDbLine
 10
-519.2970069679052
 20
834.6025951488599
 30
0.0
 11
-515.2971422350083
 21
838.6024598817568
 31
0.0
  0
LINE
  5
36C
330
1F
100
AcDbEntity
  8
C-9
  6
Continuous
 62
     6
370
     9
100
AcDbLine
 10
-519.2970069679052
 20
837.4305848817568
 30
0.0
 11
-515.2971422350083
 21
841.4311919341213
 31
0.0
  0
LINE
  5
36D
330
1F
100
AcDbEntity
  8
C-9
  6
Continuous
 62
     6
370
     9
100
AcDbLine
 10
-519.2970069679052
 20
840.2593169341213
 30
0.0
 11
-515.2971422350083
 21
844.2591816670188
 31
0.0
  0
LINE
  5
36E
330
1F
100
AcDbEntity
  8
C-9
  6
Continuous
 62
     6
370
     9
100
AcDbLine
 10
-519.2970069679052
 20
843.0880489864865
 30
0.0
 11
-515.2971422350083
 21
847.0879137193833
 31
0.0
  0
LINE
  5
36F
330
1F
100
AcDbEntity
  8
C-9
  6
Continuous
 62
     6
370
     9
100
AcDbLine
 10
-519.2970069679052
 20
845.9160387193833
 30
0.0
 11
-515.2971422350083
 21
849.9163983319255
 31
0.0
  0
LINE
  5
370
330
1F
100
AcDbEntity
  8
C-9
  6
Continuous
 62
     6
370
     9
100
AcDbLine
 10
-519.2970069679052
 20
848.7442758921031
 30
0.0
 11
-515.2971422350083
 21
852.7446355046453
 31
0.0
  0
LINE
  5
371
330
1F
100
AcDbEntity
  8
C-9
  6
Continuous
 62
     6
370
     9
100
AcDbLine
 10
-519.2970069679052
 20
851.5732553842906
 30
0.0
 11
-515.2971422350083
 21
855.5728726773651
 31
0.0
  0
LINE
  5
372
330
1F
100
AcDbEntity
  8
C-9
  6
Continuous
 62
     6
370
     9
100
AcDbLine
 10
-519.2970069679052
 20
854.4014925570099
 30
0.0
 11
-515.2971422350083
 21
858.4013572899073
 31
0.0
  0
LINE
  5
373
330
1F
100
AcDbEntity
  8
C-9
  6
Continuous
 62
     6
370
     9
100
AcDbLine
 10
-519.2970069679052
 20
857.2297297297297
 30
0.0
 11
-515.2971422350083
 21
861.2300893422719
 31
0.0
  0
LINE
  5
374
330
1F
100
AcDbEntity
  8
C-9
  6
Continuous
 62
     6
370
     9
100
AcDbLine
 10
-519.2970069679052
 20
860.0582143422719
 30
0.0
 11
-515.2971422350083
 21
864.0580790751687
 31
0.0
  0
LINE
  5
375
330
1F
100
AcDbEntity
  8
C-9
  6
Continuous
 62
     6
370
     9
100
AcDbLine
 10
-519.2970069679052
 20
862.886946394637
 30
0.0
 11
-515.2971422350083
 21
866.8868111275339
 31
0.0
  0
LINE
  5
376
330
1F
100
AcDbEntity
  8
C-9
  6
Continuous
 62
     6
370
     9
100
AcDbLine
 10
-519.2970069679052
 20
865.7149361275339
 30
0.0
 11
-515.2971422350083
 21
869.7155431798984
 31
0.0
  0
LINE
  5
377
330
1F
100
AcDbEntity
  8
C-9
  6
Continuous
 62
     6
370
     9
100
AcDbLine
 10
-519.2970069679052
 20
868.5436681798984
 30
0.0
 11
-515.2971422350083
 21
872.5435329127959
 31
0.0
  0
LINE
  5
378
330
1F
100
AcDbEntity
  8
C-9
  6
Continuous
 62
     6
370
     9
100
AcDbLine
 10
-519.2970069679052
 20
871.3724002322635
 30
0.0
 11
-515.2971422350083
 21
875.3717700855151
 31
0.0
  0
LINE
  5
379
330
1F
100
AcDbEntity
  8
C-9
  6
Continuous
 62
     6
370
     9
100
AcDbLine
 10
-519.2970069679052
 20
874.2003899651604
 30
0.0
 11
-515.2971422350083
 21
878.2002546980573
 31
0.0
  0
LINE
  5
37A
330
1F
100
AcDbEntity
  8
C-9
  6
Continuous
 62
     6
370
     9
100
AcDbLine
 10
-519.2970069679052
 20
877.0286271378802
 30
0.0
 11
-515.2971422350083
 21
881.0289867504224
 31
0.0
  0
LINE
  5
37B
330
1F
100
AcDbEntity
  8
C-9
  6
Continuous
 62
     6
370
     9
100
AcDbLine
 10
-519.2970069679052
 20
879.8571117504224
 30
0.0
 11
-515.2971422350083
 21
883.8572239231416
 31
0.0
  0
LINE
  5
37C
330
1F
100
AcDbEntity
  8
C-9
  6
Continuous
 62
     6
370
     9
100
AcDbLine
 10
-519.2970069679052
 20
882.685843802787
 30
0.0
 11
-515.2971422350083
 21
886.6852136560391
 31
0.0
  0
LINE
  5
37D
330
1F
100
AcDbEntity
  8
C-9
  6
Continuous
 62
     6
370
     9
100
AcDbLine
 10
-519.2970069679052
 20
885.5138335356838
 30
0.0
 11
-515.2971422350083
 21
889.514440588049
 31
0.0
  0
LINE
  5
37E
330
1F
100
AcDbEntity
  8
C-9
  6
Continuous
 62
     6
370
     9
100
AcDbLine
 10
-519.2970069679052
 20
888.342565588049
 30
0.0
 11
-515.2971422350083
 21
892.3424303209458
 31
0.0
  0
LINE
  5
37F
330
1F
100
AcDbEntity
  8
C-9
  6
Continuous
 62
     6
370
     9
100
AcDbLine
 10
-519.2970069679052
 20
891.1712976404141
 30
0.0
 11
-515.2971422350083
 21
895.1706674936656
 31
0.0
  0
LINE
  5
380
330
1F
100
AcDbEntity
  8
C-9
  6
Continuous
 62
     6
370
     9
100
AcDbLine
 10
-519.2970069679052
 20
893.999287373311
 30
0.0
 11
-515.2971422350083
 21
897.9991521062078
 31
0.0
  0
LINE
  5
381
330
1F
100
AcDbEntity
  8
C-9
  6
Continuous
 62
     6
370
     9
100
AcDbLine
 10
-519.2970069679052
 20
896.8275245460302
 30
0.0
 11
-515.2971422350083
 21
900.8278841585724
 31
0.0
  0
LINE
  5
382
330
1F
100
AcDbEntity
  8
C-9
  6
Continuous
 62
     6
370
     9
100
AcDbLine
 10
-519.2970069679052
 20
899.6560091585724
 30
0.0
 11
-515.2971422350083
 21
903.6561213312922
 31
0.0
  0
LINE
  5
383
330
1F
100
AcDbEntity
  8
C-9
  6
Continuous
 62
     6
370
     9
100
AcDbLine
 10
-519.2970069679052
 20
902.4847412109375
 30
0.0
 11
-518.0807165197425
 21
903.7016502586573
 31
0.0
  0
LINE
  5
384
330
1F
100
AcDbEntity
  8
C-9
  6
Continuous
 62
     6
370
     9
100
AcDbLine
 10
-519.2970069679052
 20
834.8354360219594
 30
0.0
 11
-517.7239082955023
 21
833.26171875
 31
0.0
  0
LINE
  5
385
330
1F
100
AcDbEntity
  8
C-9
  6
Continuous
 62
     6
370
     9
100
AcDbLine
 10
-519.2970069679052
 20
837.6636731946792
 30
0.0
 11
-516.135468354096
 21
834.5018871410474
 31
0.0
  0
LINE
  5
386
330
1F
100
AcDbEntity
  8
C-9
  6
Continuous
 62
     6
370
     9
100
AcDbLine
 10
-519.2970069679052
 20
840.491662927576
 30
0.0
 11
-515.2971422350083
 21
836.4922930743245
 31
0.0
  0
LINE
  5
387
330
1F
100
AcDbEntity
  8
C-9
  6
Continuous
 62
     6
370
     9
100
AcDbLine
 10
-519.2970069679052
 20
843.3203949799406
 30
0.0
 11
-515.2971422350083
 21
839.3205302470437
 31
0.0
  0
LINE
  5
388
330
1F
100
AcDbEntity
  8
C-9
  6
Continuous
 62
     6
370
     9
100
AcDbLine
 10
-519.2970069679052
 20
846.1488795924834
 30
0.0
 11
-515.2971422350083
 21
842.1485199799406
 31
0.0
  0
LINE
  5
389
330
1F
100
AcDbEntity
  8
C-9
  6
Continuous
 62
     6
370
     9
100
AcDbLine
 10
-519.2970069679052
 20
848.9771167652026
 30
0.0
 11
-515.2971422350083
 21
844.9772520323057
 31
0.0
  0
LINE
  5
38A
330
1F
100
AcDbEntity
  8
C-9
  6
Continuous
 62
     6
370
     9
100
AcDbLine
 10
-519.2970069679052
 20
851.8058488175677
 30
0.0
 11
-515.2971422350083
 21
847.8057366448479
 31
0.0
  0
LINE
  5
38B
330
1F
100
AcDbEntity
  8
C-9
  6
Continuous
 62
     6
370
     9
100
AcDbLine
 10
-519.2970069679052
 20
854.6343334301099
 30
0.0
 11
-515.2971422350083
 21
850.6339738175677
 31
0.0
  0
LINE
  5
38C
330
1F
100
AcDbEntity
  8
C-9
  6
Continuous
 62
     6
370
     9
100
AcDbLine
 10
-519.2970069679052
 20
857.4625706028291
 30
0.0
 11
-515.2971422350083
 21
853.4627058699323
 31
0.0
  0
LINE
  5
38D
330
1F
100
AcDbEntity
  8
C-9
  6
Continuous
 62
     6
370
     9
100
AcDbLine
 10
-519.2970069679052
 20
860.2905603357266
 30
0.0
 11
-515.2971422350083
 21
856.2911904824745
 31
0.0
  0
LINE
  5
38E
330
1F
100
AcDbEntity
  8
C-9
  6
Continuous
 62
     6
370
     9
100
AcDbLine
 10
-519.2970069679052
 20
863.1192923880911
 30
0.0
 11
-515.2971422350083
 21
859.1194276551943
 31
0.0
  0
LINE
  5
38F
330
1F
100
AcDbEntity
  8
C-9
  6
Continuous
 62
     6
370
     9
100
AcDbLine
 10
-519.2970069679052
 20
865.9480244404563
 30
0.0
 11
-515.2971422350083
 21
861.9474173880911
 31
0.0
  0
LINE
  5
390
330
1F
100
AcDbEntity
  8
C-9
  6
Continuous
 62
     6
370
     9
100
AcDbLine
 10
-519.2970069679052
 20
868.7760141733531
 30
0.0
 11
-515.2971422350083
 21
864.7761494404563
 31
0.0
  0
LINE
  5
391
330
1F
100
AcDbEntity
  8
C-9
  6
Continuous
 62
     6
370
     9
100
AcDbLine
 10
-519.2970069679052
 20
871.6044987858953
 30
0.0
 11
-515.2971422350083
 21
867.6046340529984
 31
0.0
  0
LINE
  5
392
330
1F
100
AcDbEntity
  8
C-9
  6
Continuous
 62
     6
370
     9
100
AcDbLine
 10
-519.2970069679052
 20
874.4332308382599
 30
0.0
 11
-515.2971422350083
 21
870.4328712257177
 31
0.0
  0
LINE
  5
393
330
1F
100
AcDbEntity
  8
C-9
  6
Continuous
 62
     6
370
     9
100
AcDbLine
 10
-519.2970069679052
 20
877.2614680109797
 30
0.0
 11
-515.2971422350083
 21
873.2613558382599
 31
0.0
  0
LINE
  5
394
330
1F
100
AcDbEntity
  8
C-9
  6
Continuous
 62
     6
370
     9
100
AcDbLine
 10
-519.2970069679052
 20
880.0894577438766
 30
0.0
 11
-515.2971422350083
 21
876.090087890625
 31
0.0
  0
LINE
  5
395
330
1F
100
AcDbEntity
  8
C-9
  6
Continuous
 62
     6
370
     9
100
AcDbLine
 10
-519.2970069679052
 20
882.918684675887
 30
0.0
 11
-515.2971422350083
 21
878.9183250633448
 31
0.0
  0
LINE
  5
396
330
1F
100
AcDbEntity
  8
C-9
  6
Continuous
 62
     6
370
     9
100
AcDbLine
 10
-519.2970069679052
 20
885.7469218486062
 30
0.0
 11
-515.2971422350083
 21
881.7463147962417
 31
0.0
  0
LINE
  5
397
330
1F
100
AcDbEntity
  8
C-9
  6
Continuous
 62
     6
370
     9
100
AcDbLine
 10
-519.2970069679052
 20
888.5749115815031
 30
0.0
 11
-515.2971422350083
 21
884.5755417282516
 31
0.0
  0
LINE
  5
398
330
1F
100
AcDbEntity
  8
C-9
  6
Continuous
 62
     6
370
     9
100
AcDbLine
 10
-519.2970069679052
 20
891.4036436338682
 30
0.0
 11
-515.2971422350083
 21
887.4037789009714
 31
0.0
  0
LINE
  5
399
330
1F
100
AcDbEntity
  8
C-9
  6
Continuous
 62
     6
370
     9
100
AcDbLine
 10
-519.2970069679052
 20
894.2321282464104
 30
0.0
 11
-515.2971422350083
 21
890.2317686338682
 31
0.0
  0
LINE
  5
39A
330
1F
100
AcDbEntity
  8
C-9
  6
Continuous
 62
     6
370
     9
100
AcDbLine
 10
-519.2970069679052
 20
897.0603654191302
 30
0.0
 11
-515.2971422350083
 21
893.0605006862334
 31
0.0
  0
LINE
  5
39B
330
1F
100
AcDbEntity
  8
C-9
  6
Continuous
 62
     6
370
     9
100
AcDbLine
 10
-519.2970069679052
 20
899.8888500316724
 30
0.0
 11
-515.2971422350083
 21
895.8889852987755
 31
0.0
  0
LINE
  5
39C
330
1F
100
AcDbEntity
  8
C-9
  6
Continuous
 62
     6
370
     9
100
AcDbLine
 10
-519.2970069679052
 20
902.7170872043916
 30
0.0
 11
-515.2971422350083
 21
898.7172224714948
 31
0.0
  0
LINE
  5
39D
330
1F
100
AcDbEntity
  8
C-9
  6
Continuous
 62
     6
370
     9
100
AcDbLine
 10
-517.4529616897169
 20
903.7016502586573
 30
0.0
 11
-515.2971422350083
 21
901.5452122043916
 31
0.0
  0
LINE
  5
39E
330
1F
100
AcDbEntity
  8
C-9
  6
Continuous
 62
     6
370
     9
100
AcDbLine
 10
-489.2969079919763
 20
845.7287267736484
 30
0.0
 11
-488.4288890941721
 21
844.8607078758448
 31
0.0
  0
LINE
  5
39F
330
1F
100
AcDbEntity
  8
C-9
  6
Continuous
 62
     6
370
     9
100
AcDbLine
 10
-489.2969079919763
 20
848.5569639463682
 30
0.0
 11
-486.8409440324112
 21
846.101371146537
 31
0.0
  0
LINE
  5
3A0
330
1F
100
AcDbEntity
  8
C-9
  6
Continuous
 62
     6
370
     9
100
AcDbLine
 10
-489.2969079919763
 20
851.3854485589104
 30
0.0
 11
-485.2970432590794
 21
847.3855838260135
 31
0.0
  0
LINE
  5
3A1
330
1F
100
AcDbEntity
  8
C-9
  6
Continuous
 62
     6
370
     9
100
AcDbLine
 10
-489.2969079919763
 20
854.2141806112755
 30
0.0
 11
-485.2970432590794
 21
850.2138209987334
 31
0.0
  0
LINE
  5
3A2
330
1F
100
AcDbEntity
  8
C-9
  6
Continuous
 62
     6
370
     9
100
AcDbLine
 10
-489.2969079919763
 20
857.0424177839948
 30
0.0
 11
-485.2970432590794
 21
853.0423056112755
 31
0.0
  0
LINE
  5
3A3
330
1F
100
AcDbEntity
  8
C-9
  6
Continuous
 62
     6
370
     9
100
AcDbLine
 10
-489.2969079919763
 20
859.870902396537
 30
0.0
 11
-485.2970432590794
 21
855.8710376636401
 31
0.0
  0
LINE
  5
3A4
330
1F
100
AcDbEntity
  8
C-9
  6
Continuous
 62
     6
370
     9
100
AcDbLine
 10
-489.2969079919763
 20
862.6996344489021
 30
0.0
 11
-485.2970432590794
 21
858.6992748363599
 31
0.0
  0
LINE
  5
3A5
330
1F
100
AcDbEntity
  8
C-9
  6
Continuous
 62
     6
370
     9
100
AcDbLine
 10
-489.2969079919763
 20
865.527624181799
 30
0.0
 11
-485.2970432590794
 21
861.5272645692568
 31
0.0
  0
LINE
  5
3A6
330
1F
100
AcDbEntity
  8
C-9
  6
Continuous
 62
     6
370
     9
100
AcDbLine
 10
-489.2969079919763
 20
868.3558613545188
 30
0.0
 11
-485.2970432590794
 21
864.3564915012666
 31
0.0
  0
LINE
  5
3A7
330
1F
100
AcDbEntity
  8
C-9
  6
Continuous
 62
     6
370
     9
100
AcDbLine
 10
-489.2969079919763
 20
871.1845934068833
 30
0.0
 11
-485.2970432590794
 21
867.1844812341641
 31
0.0
  0
LINE
  5
3A8
330
1F
100
AcDbEntity
  8
C-9
  6
Continuous
 62
     6
370
     9
100
AcDbLine
 10
-489.2969079919763
 20
874.0130780194255
 30
0.0
 11
-485.2970432590794
 21
870.0127184068833
 31
0.0
  0
LINE
  5
3A9
330
1F
100
AcDbEntity
  8
C-9
  6
Continuous
 62
     6
370
     9
100
AcDbLine
 10
-489.2969079919763
 20
876.8413151921453
 30
0.0
 11
-485.2970432590794
 21
872.8412030194255
 31
0.0
  0
LINE
  5
3AA
330
1F
100
AcDbEntity
  8
C-9
  6
Continuous
 62
     6
370
     9
100
AcDbLine
 10
-489.2969079919763
 20
879.6697998046875
 30
0.0
 11
-485.2970432590794
 21
875.6699350717906
 31
0.0
  0
LINE
  5
3AB
330
1F
100
AcDbEntity
  8
C-9
  6
Continuous
 62
     6
370
     9
100
AcDbLine
 10
-489.2969079919763
 20
882.4985318570526
 30
0.0
 11
-485.2970432590794
 21
878.4981722445099
 31
0.0
  0
LINE
  5
3AC
330
1F
100
AcDbEntity
  8
C-9
  6
Continuous
 62
     6
370
     9
100
AcDbLine
 10
-489.2969079919763
 20
885.3265215899495
 30
0.0
 11
-485.2970432590794
 21
881.3261619774073
 31
0.0
  0
LINE
  5
3AD
330
1F
100
AcDbEntity
  8
C-9
  6
Continuous
 62
     6
370
     9
100
AcDbLine
 10
-489.2969079919763
 20
888.1547587626687
 30
0.0
 11
-485.2970432590794
 21
884.1553889094172
 31
0.0
  0
LINE
  5
3AE
330
1F
100
AcDbEntity
  8
C-9
  6
Continuous
 62
     6
370
     9
100
AcDbLine
 10
-489.2969079919763
 20
890.9834908150339
 30
0.0
 11
-485.2970432590794
 21
886.983378642314
 31
0.0
  0
LINE
  5
3AF
330
1F
100
AcDbEntity
  8
C-9
  6
Continuous
 62
     6
370
     9
100
AcDbLine
 10
-489.2969079919763
 20
893.811975427576
 30
0.0
 11
-485.2970432590794
 21
889.8116158150339
 31
0.0
  0
LINE
  5
3B0
330
1F
100
AcDbEntity
  8
C-9
  6
Continuous
 62
     6
370
     9
100
AcDbLine
 10
-489.2969079919763
 20
896.6402126002959
 30
0.0
 11
-485.2970432590794
 21
892.6403478673984
 31
0.0
  0
LINE
  5
3B1
330
1F
100
AcDbEntity
  8
C-9
  6
Continuous
 62
     6
370
     9
100
AcDbLine
 10
-489.2969079919763
 20
899.468697212838
 30
0.0
 11
-485.2970432590794
 21
895.4688324799406
 31
0.0
  0
LINE
  5
3B2
330
1F
100
AcDbEntity
  8
C-9
  6
Continuous
 62
     6
370
     9
100
AcDbLine
 10
-489.2969079919763
 20
902.2974292652026
 30
0.0
 11
-485.2970432590794
 21
898.2970696526604
 31
0.0
  0
LINE
  5
3B3
330
1F
100
AcDbEntity
  8
C-9
  6
Continuous
 62
     6
370
     9
100
AcDbLine
 10
-489.2969079919763
 20
844.3831490181589
 30
0.0
 11
-485.2970432590794
 21
848.383508630701
 31
0.0
  0
LINE
  5
3B4
330
1F
100
AcDbEntity
  8
C-9
  6
Continuous
 62
     6
370
     9
100
AcDbLine
 10
-489.2969079919763
 20
847.211633630701
 30
0.0
 11
-485.2970432590794
 21
851.2117458034209
 31
0.0
  0
LINE
  5
3B5
330
1F
100
AcDbEntity
  8
C-9
  6
Continuous
 62
     6
370
     9
100
AcDbLine
 10
-489.2969079919763
 20
850.0403656830656
 30
0.0
 11
-485.2970432590794
 21
854.0397355363177
 31
0.0
  0
LINE
  5
3B6
330
1F
100
AcDbEntity
  8
C-9
  6
Continuous
 62
     6
370
     9
100
AcDbLine
 10
-489.2969079919763
 20
852.868355415963
 30
0.0
 11
-485.2970432590794
 21
856.8689624683276
 31
0.0
  0
LINE
  5
3B7
330
1F
100
AcDbEntity
  8
C-9
  6
Continuous
 62
     6
370
     9
100
AcDbLine
 10
-489.2969079919763
 20
855.6965925886823
 30
0.0
 11
-485.2970432590794
 21
859.6969522012245
 31
0.0
  0
LINE
  5
3B8
330
1F
100
AcDbEntity
  8
C-9
  6
Continuous
 62
     6
370
     9
100
AcDbLine
 10
-489.2969079919763
 20
858.5258195206927
 30
0.0
 11
-485.2970432590794
 21
862.5251893739443
 31
0.0
  0
LINE
  5
3B9
330
1F
100
AcDbEntity
  8
C-9
  6
Continuous
 62
     6
370
     9
100
AcDbLine
 10
-489.2969079919763
 20
861.3538092535896
 30
0.0
 11
-485.2970432590794
 21
865.3536739864865
 31
0.0
  0
LINE
  5
3BA
330
1F
100
AcDbEntity
  8
C-9
  6
Continuous
 62
     6
370
     9
100
AcDbLine
 10
-489.2969079919763
 20
864.1820464263088
 30
0.0
 11
-485.2970432590794
 21
868.1824060388516
 31
0.0
  0
LINE
  5
3BB
330
1F
100
AcDbEntity
  8
C-9
  6
Continuous
 62
     6
370
     9
100
AcDbLine
 10
-489.2969079919763
 20
867.0105310388516
 30
0.0
 11
-485.2970432590794
 21
871.0106432115708
 31
0.0
  0
LINE
  5
3BC
330
1F
100
AcDbEntity
  8
C-9
  6
Continuous
 62
     6
370
     9
100
AcDbLine
 10
-489.2969079919763
 20
869.8392630912161
 30
0.0
 11
-485.2970432590794
 21
873.839127824113
 31
0.0
  0
LINE
  5
3BD
330
1F
100
AcDbEntity
  8
C-9
  6
Continuous
 62
     6
370
     9
100
AcDbLine
 10
-489.2969079919763
 20
872.667500263936
 30
0.0
 11
-485.2970432590794
 21
876.6678598764781
 31
0.0
  0
LINE
  5
3BE
330
1F
100
AcDbEntity
  8
C-9
  6
Continuous
 62
     6
370
     9
100
AcDbLine
 10
-489.2969079919763
 20
875.4959848764781
 30
0.0
 11
-485.2970432590794
 21
879.4960970491974
 31
0.0
  0
LINE
  5
3BF
330
1F
100
AcDbEntity
  8
C-9
  6
Continuous
 62
     6
370
     9
100
AcDbLine
 10
-489.2969079919763
 20
878.3247169288427
 30
0.0
 11
-485.2970432590794
 21
882.3240867820948
 31
0.0
  0
LINE
  5
3C0
330
1F
100
AcDbEntity
  8
C-9
  6
Continuous
 62
     6
370
     9
100
AcDbLine
 10
-489.2969079919763
 20
881.1527066617401
 30
0.0
 11
-485.2970432590794
 21
885.1528188344594
 31
0.0
  0
LINE
  5
3C1
330
1F
100
AcDbEntity
  8
C-9
  6
Continuous
 62
     6
370
     9
100
AcDbLine
 10
-489.2969079919763
 20
883.9809438344594
 30
0.0
 11
-485.2970432590794
 21
887.9813034470016
 31
0.0
  0
LINE
  5
3C2
330
1F
100
AcDbEntity
  8
C-9
  6
Continuous
 62
     6
370
     9
100
AcDbLine
 10
-489.2969079919763
 20
886.8096758868245
 30
0.0
 11
-485.2970432590794
 21
890.8095406197214
 31
0.0
  0
LINE
  5
3C3
330
1F
100
AcDbEntity
  8
C-9
  6
Continuous
 62
     6
370
     9
100
AcDbLine
 10
-489.2969079919763
 20
889.6381604993667
 30
0.0
 11
-485.2970432590794
 21
893.6380252322635
 31
0.0
  0
LINE
  5
3C4
330
1F
100
AcDbEntity
  8
C-9
  6
Continuous
 62
     6
370
     9
100
AcDbLine
 10
-489.2969079919763
 20
892.4663976720859
 30
0.0
 11
-485.2970432590794
 21
896.4667572846281
 31
0.0
  0
LINE
  5
3C5
330
1F
100
AcDbEntity
  8
C-9
  6
Continuous
 62
     6
370
     9
100
AcDbLine
 10
-489.2969079919763
 20
895.2948822846281
 30
0.0
 11
-485.2970432590794
 21
899.2949944573479
 31
0.0
  0
LINE
  5
3C6
330
1F
100
AcDbEntity
  8
C-9
  6
Continuous
 62
     6
370
     9
100
AcDbLine
 10
-489.2969079919763
 20
898.1236143369932
 30
0.0
 11
-485.2970432590794
 21
902.1229841902448
 31
0.0
  0
LINE
  5
3C7
330
1F
100
AcDbEntity
  8
C-9
  6
Continuous
 62
     6
370
     9
100
AcDbLine
 10
-489.2969079919763
 20
900.951851509713
 30
0.0
 11
-486.547109243032
 21
903.7016502586573
 31
0.0
  0
LINE
  5
3C8
330
1F
100
AcDbEntity
  8
C-9
  6
Continuous
 62
     6
370
     9
100
AcDbLine
 10
-487.8728918127109
 20
903.7016502586573
 30
0.0
 11
-485.2970432590794
 21
901.1255542652026
 31
0.0
  0
LINE
  5
3C9
330
1F
100
AcDbEntity
  8
C-5
  6
Continuous
 62
     7
370
     9
100
AcDbLine
 10
-397.2972972972971
 20
517.7027027027026
 30
0.0
 11
-397.2972972972971
 21
582.7022985509922
 31
0.0
  0
LINE
  5
3CA
330
1F
100
AcDbEntity
  8
C-5
  6
Continuous
 62
     7
370
     9
100
AcDbLine
 10
-397.2972972972971
 20
582.7022985509922
 30
0.0
 11
177.7026202227621
 21
582.7022985509922
 31
0.0
  0
LINE
  5
3CB
330
1F
100
AcDbEntity
  8
C-5
  6
Continuous
 62
     7
370
     9
100
AcDbLine
 10
177.7026202227621
 20
582.7022985509922
 30
0.0
 11
177.7026202227621
 21
517.7027027027026
 31
0.0
  0
LINE
  5
3CC
330
1F
100
AcDbEntity
  8
C-5
  6
Continuous
 62
     7
370
     9
100
AcDbLine
 10
177.7026202227621
 20
517.7027027027026
 30
0.0
 11
-397.2972972972971
 21
517.7027027027026
 31
0.0
  0
LINE
  5
3CD
330
1F
100
AcDbEntity
  8
C-4
  6
Continuous
 62
     7
370
     9
100
AcDbLine
 10
232.7032965582771
 20
942.7033625422297
 30
0.0
 11
262.702900654561
 21
942.7033625422297
 31
0.0
  0
LINE
  5
3CE
330
1F
100
AcDbEntity
  8
C-4
  6
Continuous
 62
     7
370
     9
100
AcDbLine
 10
232.7032965582771
 20
899.7032701646958
 30
0.0
 11
232.7032965582771
 21
945.7035703916807
 31
0.0
  0
LINE
  5
3CF
330
1F
100
AcDbEntity
  8
C-4
  6
Continuous
 62
     7
370
     9
100
AcDbLine
 10
262.702900654561
 20
899.7032701646958
 30
0.0
 11
262.702900654561
 21
945.7035703916807
 31
0.0
  0
TEXT
  5
3D0
330
1F
100
AcDbEntity
  8
C-4
  6
Continuous
 62
     2
370
     9
100
AcDbText
 10
-637.2582512932854
 20
1015.3421484375
 30
0.0
 40
30.48
  1
2
 41
0.9999999999999998
  7
ＭＳ ゴシック
100
AcDbText
  0
TEXT
  5
3D1
330
1F
100
AcDbEntity
  8
C-4
  6
Continuous
 62
     2
370
     9
100
AcDbText
 10
-144.7969591295396
 20
1015.3421484375
 30
0.0
 40
30.48
  1
994
 41
1.083333333333333
  7
ＭＳ ゴシック
100
AcDbText
  0
TEXT
  5
3D2
330
1F
100
AcDbEntity
  8
C-4
  6
Continuous
 62
     2
370
     9
100
AcDbText
 10
358.7414715741133
 20
1015.3421484375
 30
0.0
 40
30.48
  1
2
 41
0.9999999999999998
  7
ＭＳ ゴシック
100
AcDbText
  0
TEXT
  5
3D3
330
1F
100
AcDbEntity
  8
C-4
  6
Continuous
 62
     2
370
     9
100
AcDbText
 10
-143.7971785261823
 20
1095.342412373311
 30
0.0
 40
30.48
  1
996
 41
1.083333333333333
  7
ＭＳ ゴシック
100
AcDbText
  0
TEXT
  5
3D4
330
1F
100
AcDbEntity
  8
C-5
  6
Continuous
 62
     2
370
     9
100
AcDbText
 10
-377.2972313133445
 20
535.842372782939
 30
0.0
 40
30.48
  1
平面詳細図　Ｓ＝１：１０
 41
1.114583333333333
  7
ＭＳ ゴシック
100
AcDbText
  0
TEXT
  5
3D5
330
1F
100
AcDbEntity
  8
C-4
  6
Continuous
 62
     2
370
     9
100
AcDbText
 10
226.4532140783363
 20
953.3433790382177
 30
0.0
 40
30.48
  1
30
 41
1.0625
  7
ＭＳ ゴシック
100
AcDbText
  0
LINE
  5
3D6
330
1F
100
AcDbEntity
  8
C-A
  6
Continuous
 62
     3
370
     9
100
AcDbLine
 10
-353.5469615392739
 20
697.7026606927255
 30
0.0
 11
-354.7969615392739
 21
697.7026606927255
 31
0.0
  0
LINE
  5
3D7
330
1F
100
AcDbEntity
  8
C-A
  6
Continuous
 62
     3
370
     9
100
AcDbLine
 10
-353.5469615392739
 20
697.7026606927255
 30
0.0
 11
-353.5469615392739
 21
668.7026759515151
 31
0.0
  0
LINE
  5
3D8
330
1F
100
AcDbEntity
  8
C-A
  6
Continuous
 62
     3
370
     9
100
AcDbLine
 10
-354.8016307287261
 20
701.7026759515146
 30
0.0
 11
-354.2884776525543
 21
701.7026759515146
 31
0.0
  0
LINE
  5
3D9
330
1F
100
AcDbEntity
  8
C-A
  6
Continuous
 62
     3
370
     9
100
AcDbLine
 10
-370.2969005041163
 20
701.7026759515146
 30
0.0
 11
-369.7969310216953
 21
701.7026759515146
 31
0.0
  0
LINE
  5
3DA
330
1F
100
AcDbEntity
  8
C-A
  6
Continuous
 62
     3
370
     9
100
AcDbLine
 10
-371.0470225744288
 20
697.7026606927255
 30
0.0
 11
-369.7970530920074
 21
697.7026606927255
 31
0.0
  0
LINE
  5
3DB
330
1F
100
AcDbEntity
  8
C-A
  6
Continuous
 62
     3
370
     9
100
AcDbLine
 10
-371.0470225744288
 20
697.7026606927255
 30
0.0
 11
-371.0470225744288
 21
668.7026759515151
 31
0.0
  0
LINE
  5
3DC
330
1F
100
AcDbEntity
  8
C-A
  6
Continuous
 62
     3
370
     9
100
AcDbLine
 10
-353.5469615392739
 20
668.7026759515151
 30
0.0
 11
-371.0470225744288
 21
668.7026759515151
 31
0.0
  0
LINE
  5
3DD
330
1F
100
AcDbEntity
  8
C-A
  6
JWW_DASHED2
 62
     3
370
     9
100
AcDbLine
 10
-355.5469920568507
 20
697.8485652337416
 30
0.0
 11
-355.5469920568507
 21
668.7026759515151
 31
0.0
  0
LINE
  5
3DE
330
1F
100
AcDbEntity
  8
C-A
  6
JWW_DASHED2
 62
     3
370
     9
100
AcDbLine
 10
-369.0470225744306
 20
697.8485652337416
 30
0.0
 11
-369.0470225744306
 21
668.7026759515151
 31
0.0
  0
LINE
  5
3DF
330
1F
100
AcDbEntity
  8
C-4
  6
Continuous
 62
     7
370
     9
100
AcDbLine
 10
137.7031300134618
 20
657.9836207757352
 30
0.0
 11
137.7031300134618
 21
614.7024470696805
 31
0.0
  0
LINE
  5
3E0
330
1F
100
AcDbEntity
  8
C-4
  6
Continuous
 62
     7
370
     9
100
AcDbLine
 10
-362.2969615392739
 20
657.9836207757352
 30
0.0
 11
-362.2969615392739
 21
614.7024470696805
 31
0.0
  0
LINE
  5
3E1
330
1F
100
AcDbEntity
  8
C-4
  6
Continuous
 62
     7
370
     9
100
AcDbLine
 10
-362.2969615392739
 20
617.7025081048349
 30
0.0
 11
137.7031300134618
 21
617.7025081048349
 31
0.0
  0
LINE
  5
3E2
330
1F
100
AcDbEntity
  8
C-A
  6
Continuous
 62
     3
370
     9
100
AcDbLine
 10
146.4530079431475
 20
697.7026606927255
 30
0.0
 11
145.2030079431475
 21
697.7026606927255
 31
0.0
  0
LINE
  5
3E3
330
1F
100
AcDbEntity
  8
C-A
  6
Continuous
 62
     3
370
     9
100
AcDbLine
 10
146.4530079431475
 20
697.7026606927255
 30
0.0
 11
146.4530079431475
 21
668.7026759515151
 31
0.0
  0
LINE
  5
3E4
330
1F
100
AcDbEntity
  8
C-A
  6
Continuous
 62
     3
370
     9
100
AcDbLine
 10
145.1983692712739
 20
701.7026759515146
 30
0.0
 11
145.7115528650243
 21
701.7026759515146
 31
0.0
  0
LINE
  5
3E5
330
1F
100
AcDbEntity
  8
C-A
  6
Continuous
 62
     3
370
     9
100
AcDbLine
 10
129.70313001346
 20
701.7026759515146
 30
0.0
 11
130.2030689783047
 21
701.7026759515146
 31
0.0
  0
LINE
  5
3E6
330
1F
100
AcDbEntity
  8
C-A
  6
Continuous
 62
     3
370
     9
100
AcDbLine
 10
128.9529469079926
 20
697.7026606927255
 30
0.0
 11
130.2029469079926
 21
697.7026606927255
 31
0.0
  0
LINE
  5
3E7
330
1F
100
AcDbEntity
  8
C-A
  6
Continuous
 62
     3
370
     9
100
AcDbLine
 10
128.9529469079926
 20
697.7026606927255
 30
0.0
 11
128.9529469079926
 21
668.7026759515151
 31
0.0
  0
LINE
  5
3E8
330
1F
100
AcDbEntity
  8
C-A
  6
Continuous
 62
     3
370
     9
100
AcDbLine
 10
146.4530079431475
 20
668.7026759515151
 30
0.0
 11
128.9529469079926
 21
668.7026759515151
 31
0.0
  0
LINE
  5
3E9
330
1F
100
AcDbEntity
  8
C-A
  6
JWW_DASHED2
 62
     3
370
     9
100
AcDbLine
 10
144.4530079431493
 20
697.8485652337416
 30
0.0
 11
144.4530079431493
 21
668.7026759515151
 31
0.0
  0
LINE
  5
3EA
330
1F
100
AcDbEntity
  8
C-A
  6
JWW_DASHED2
 62
     3
370
     9
100
AcDbLine
 10
130.953007943148
 20
697.8485652337416
 30
0.0
 11
130.953007943148
 21
668.7026759515151
 31
0.0
  0
LINE
  5
3EB
330
1F
100
AcDbEntity
  8
C-A
  6
JWW_CENTER2
 62
     7
370
     9
100
AcDbLine
 10
131.9270069665859
 20
678.7027217278818
 30
0.0
 11
143.4790699548662
 21
678.7027217278818
 31
0.0
  0
LINE
  5
3EC
330
1F
100
AcDbEntity
  8
C-A
  6
JWW_CENTER2
 62
     7
370
     9
100
AcDbLine
 10
137.7030689783047
 20
711.1708461175316
 30
0.0
 11
137.7030689783047
 21
663.7704554925311
 31
0.0
  0
LINE
  5
3ED
330
1F
100
AcDbEntity
  8
C-A
  6
JWW_CENTER2
 62
     7
370
     9
100
AcDbLine
 10
-368.0729625158355
 20
678.7027217278818
 30
0.0
 11
-356.5209300451338
 21
678.7027217278818
 31
0.0
  0
LINE
  5
3EE
330
1F
100
AcDbEntity
  8
C-A
  6
JWW_CENTER2
 62
     7
370
     9
100
AcDbLine
 10
-362.2969615392739
 20
711.1708461175316
 30
0.0
 11
-362.2969615392739
 21
663.7704554925311
 31
0.0
  0
ARC
  5
3EF
330
1F
100
AcDbEntity
  8
C-A
  6
Continuous
 62
     3
370
     9
100
AcDbCircle
 10
-354.2969005041172
 20
703.7026454339365
 30
0.0
 40
1.999999642372131
100
AcDbArc
 50
270.2416229248047
 51
330.0007171630859
  0
ARC
  5
3F0
330
1F
100
AcDbEntity
  8
C-A
  6
Continuous
 62
     3
370
     9
100
AcDbCircle
 10
-354.7969615392739
 20
699.7026759515164
 30
0.0
 40
1.999999642372131
100
AcDbArc
 50
90.13328552246095
 51
270.0
  0
ARC
  5
3F1
330
1F
100
AcDbEntity
  8
C-A
  6
Continuous
 62
     3
370
     9
100
AcDbCircle
 10
-370.2969005041163
 20
703.7026454339365
 30
0.0
 40
1.999999642372131
100
AcDbArc
 50
209.99951171875
 51
269.7240295410157
  0
ARC
  5
3F2
330
1F
100
AcDbEntity
  8
C-A
  6
Continuous
 62
     3
370
     9
100
AcDbCircle
 10
-369.7970530920074
 20
699.7026759515164
 30
0.0
 40
1.999999642372131
100
AcDbArc
 50
270.0
 51
90.0
  0
CIRCLE
  5
3F3
330
1F
100
AcDbEntity
  8
C-A
  6
Continuous
 62
     3
370
     9
100
AcDbCircle
 10
-362.2969615392739
 20
678.7027217278818
 30
0.0
 40
4.249999523162842
  0
ARC
  5
3F4
330
1F
100
AcDbEntity
  8
C-A
  6
Continuous
 62
     3
370
     9
100
AcDbCircle
 10
145.7030689783042
 20
703.7026454339365
 30
0.0
 40
1.999999642372131
100
AcDbArc
 50
270.2416229248047
 51
330.0007171630859
  0
ARC
  5
3F5
330
1F
100
AcDbEntity
  8
C-A
  6
Continuous
 62
     3
370
     9
100
AcDbCircle
 10
145.2030079431475
 20
699.7026759515164
 30
0.0
 40
1.999999642372131
100
AcDbArc
 50
90.13328552246095
 51
270.0
  0
ARC
  5
3F6
330
1F
100
AcDbEntity
  8
C-A
  6
Continuous
 62
     3
370
     9
100
AcDbCircle
 10
129.70313001346
 20
703.7026454339365
 30
0.0
 40
1.999999642372131
100
AcDbArc
 50
209.99951171875
 51
269.7240295410157
  0
ARC
  5
3F7
330
1F
100
AcDbEntity
  8
C-A
  6
Continuous
 62
     3
370
     9
100
AcDbCircle
 10
130.2029469079926
 20
699.7026759515164
 30
0.0
 40
1.999999642372131
100
AcDbArc
 50
270.0
 51
90.0
  0
CIRCLE
  5
3F8
330
1F
100
AcDbEntity
  8
C-A
  6
Continuous
 62
     3
370
     9
100
AcDbCircle
 10
137.7030689783047
 20
678.7027217278818
 30
0.0
 40
4.249999523162842
  0
LWPOLYLINE
  5
3F9
330
1F
100
AcDbEntity
  8
C-4
  6
Continuous
 62
     7
370
     9
100
AcDbPolyline
 90
        4
 70
     1
 43
2.0
 10
138.7031300134618
 20
617.7025081048349
 42
0.4142135623731
 10
137.7031300134618
 20
618.7025081048349
 42
0.4142135623731
 10
136.7031300134618
 20
617.7025081048349
 42
0.4142135623731
 10
137.7031300134618
 20
616.7025081048349
 42
0.4142135623731
  0
LWPOLYLINE
  5
3FA
330
1F
100
AcDbEntity
  8
C-4
  6
Continuous
 62
     7
370
     9
100
AcDbPolyline
 90
        4
 70
     1
 43
2.0
 10
-361.2969615392739
 20
617.7025081048349
 42
0.4142135623731
 10
-362.2969615392739
 20
618.7025081048349
 42
0.4142135623731
 10
-363.2969615392739
 20
617.7025081048349
 42
0.4142135623731
 10
-362.2969615392739
 20
616.7025081048349
 42
0.4142135623731
  0
TEXT
  5
3FB
330
1F
100
AcDbEntity
  8
C-4
  6
Continuous
 62
     2
370
     9
100
AcDbText
 10
-144.7969310216953
 20
628.342279222999
 30
0.0
 40
30.48
  1
500
 41
1.083333333333333
  7
ＭＳ ゴシック
100
AcDbText
  0
LINE
  5
3FC
330
1F
100
AcDbEntity
  8
C-A
  6
Continuous
 62
     3
370
     9
100
AcDbLine
 10
-353.5469618055853
 20
917.7032771970835
 30
0.0
 11
-354.7969618055853
 21
917.7032771970835
 31
0.0
  0
LINE
  5
3FD
330
1F
100
AcDbEntity
  8
C-A
  6
Continuous
 62
     3
370
     9
100
AcDbLine
 10
-353.5469618055853
 20
917.7032771970835
 30
0.0
 11
-353.5469618055853
 21
946.7032614614573
 31
0.0
  0
LINE
  5
3FE
330
1F
100
AcDbEntity
  8
C-A
  6
Continuous
 62
     3
370
     9
100
AcDbLine
 10
-354.8016309950376
 20
913.7032638456412
 30
0.0
 11
-354.2884779188657
 21
913.7032638456412
 31
0.0
  0
LINE
  5
3FF
330
1F
100
AcDbEntity
  8
C-A
  6
Continuous
 62
     3
370
     9
100
AcDbLine
 10
-370.2969007704277
 20
913.7032638456412
 30
0.0
 11
-369.7969312880068
 21
913.7032638456412
 31
0.0
  0
LINE
  5
400
330
1F
100
AcDbEntity
  8
C-A
  6
Continuous
 62
     3
370
     9
100
AcDbLine
 10
-371.0470228407402
 20
917.7032771970835
 30
0.0
 11
-369.7970533583188
 21
917.7032771970835
 31
0.0
  0
LINE
  5
401
330
1F
100
AcDbEntity
  8
C-A
  6
Continuous
 62
     3
370
     9
100
AcDbLine
 10
-371.0470228407402
 20
917.7032771970835
 30
0.0
 11
-371.0470228407402
 21
946.7032614614573
 31
0.0
  0
LINE
  5
402
330
1F
100
AcDbEntity
  8
C-A
  6
Continuous
 62
     3
370
     9
100
AcDbLine
 10
-353.5469618055853
 20
946.7032614614573
 30
0.0
 11
-371.0470228407402
 21
946.7032614614573
 31
0.0
  0
LINE
  5
403
330
1F
100
AcDbEntity
  8
C-A
  6
JWW_DASHED2
 62
     3
370
     9
100
AcDbLine
 10
-355.5469923231621
 20
917.5573616888119
 30
0.0
 11
-355.5469923231621
 21
946.7032614614573
 31
0.0
  0
LINE
  5
404
330
1F
100
AcDbEntity
  8
C-A
  6
JWW_DASHED2
 62
     3
370
     9
100
AcDbLine
 10
-369.047022840742
 20
917.5573616888119
 30
0.0
 11
-369.047022840742
 21
946.7032614614573
 31
0.0
  0
LINE
  5
405
330
1F
100
AcDbEntity
  8
C-A
  6
Continuous
 62
     3
370
     9
100
AcDbLine
 10
146.4530076768361
 20
917.7032771970835
 30
0.0
 11
145.2030076768361
 21
917.7032771970835
 31
0.0
  0
LINE
  5
406
330
1F
100
AcDbEntity
  8
C-A
  6
Continuous
 62
     3
370
     9
100
AcDbLine
 10
146.4530076768361
 20
917.7032771970835
 30
0.0
 11
146.4530076768361
 21
946.7032614614573
 31
0.0
  0
LINE
  5
407
330
1F
100
AcDbEntity
  8
C-A
  6
Continuous
 62
     3
370
     9
100
AcDbLine
 10
145.1983690049625
 20
913.7032638456412
 30
0.0
 11
145.711552598713
 21
913.7032638456412
 31
0.0
  0
LINE
  5
408
330
1F
100
AcDbEntity
  8
C-A
  6
Continuous
 62
     3
370
     9
100
AcDbLine
 10
129.7031297471486
 20
913.7032638456412
 30
0.0
 11
130.2030687119932
 21
913.7032638456412
 31
0.0
  0
LINE
  5
409
330
1F
100
AcDbEntity
  8
C-A
  6
Continuous
 62
     3
370
     9
100
AcDbLine
 10
128.9529466416812
 20
917.7032771970835
 30
0.0
 11
130.2029466416812
 21
917.7032771970835
 31
0.0
  0
LINE
  5
40A
330
1F
100
AcDbEntity
  8
C-A
  6
Continuous
 62
     3
370
     9
100
AcDbLine
 10
128.9529466416812
 20
917.7032771970835
 30
0.0
 11
128.9529466416812
 21
946.7032614614573
 31
0.0
  0
LINE
  5
40B
330
1F
100
AcDbEntity
  8
C-A
  6
Continuous
 62
     3
370
     9
100
AcDbLine
 10
146.4530076768361
 20
946.7032614614573
 30
0.0
 11
128.9529466416812
 21
946.7032614614573
 31
0.0
  0
LINE
  5
40C
330
1F
100
AcDbEntity
  8
C-A
  6
JWW_DASHED2
 62
     3
370
     9
100
AcDbLine
 10
144.453007676838
 20
917.5573616888119
 30
0.0
 11
144.453007676838
 21
946.7032614614573
 31
0.0
  0
LINE
  5
40D
330
1F
100
AcDbEntity
  8
C-A
  6
JWW_DASHED2
 62
     3
370
     9
100
AcDbLine
 10
130.9530076768365
 20
917.5573616888119
 30
0.0
 11
130.9530076768365
 21
946.7032614614573
 31
0.0
  0
LINE
  5
40E
330
1F
100
AcDbEntity
  8
C-A
  6
JWW_CENTER2
 62
     7
370
     9
100
AcDbLine
 10
-362.2969618055853
 20
904.235082712371
 30
0.0
 11
-362.2969618055853
 21
951.6354819204412
 31
0.0
  0
LINE
  5
40F
330
1F
100
AcDbEntity
  8
C-A
  6
JWW_CENTER2
 62
     7
370
     9
100
AcDbLine
 10
-368.0729627821469
 20
936.7032156850883
 30
0.0
 11
-356.5209303114452
 21
936.7032156850883
 31
0.0
  0
LINE
  5
410
330
1F
100
AcDbEntity
  8
C-A
  6
JWW_CENTER2
 62
     7
370
     9
100
AcDbLine
 10
131.9270067002745
 20
936.7032156850883
 30
0.0
 11
143.4790696885549
 21
936.7032156850883
 31
0.0
  0
LINE
  5
411
330
1F
100
AcDbEntity
  8
C-A
  6
JWW_CENTER2
 62
     7
370
     9
100
AcDbLine
 10
137.7030687119933
 20
904.235082712371
 30
0.0
 11
137.7030687119933
 21
951.6354819204412
 31
0.0
  0
ARC
  5
412
330
1F
100
AcDbEntity
  8
C-A
  6
Continuous
 62
     3
370
     9
100
AcDbCircle
 10
-354.2969007704286
 20
911.7032819654537
 30
0.0
 40
1.999999642372131
100
AcDbArc
 50
29.99926757812499
 51
89.75836181640624
  0
ARC
  5
413
330
1F
100
AcDbEntity
  8
C-A
  6
Continuous
 62
     3
370
     9
100
AcDbCircle
 10
-354.7969618055853
 20
915.7032581235967
 30
0.0
 40
1.999999642372131
100
AcDbArc
 50
90.0
 51
269.86669921875
  0
ARC
  5
414
330
1F
100
AcDbEntity
  8
C-A
  6
Continuous
 62
     3
370
     9
100
AcDbCircle
 10
-370.2969007704277
 20
911.7032819654537
 30
0.0
 40
1.999999642372131
100
AcDbArc
 50
90.2759552001953
 51
150.0004730224609
  0
ARC
  5
415
330
1F
100
AcDbEntity
  8
C-A
  6
Continuous
 62
     3
370
     9
100
AcDbCircle
 10
-369.7970533583188
 20
915.7032581235967
 30
0.0
 40
1.999999642372131
100
AcDbArc
 50
270.0
 51
90.0
  0
CIRCLE
  5
416
330
1F
100
AcDbEntity
  8
C-A
  6
Continuous
 62
     3
370
     9
100
AcDbCircle
 10
-362.2969618055853
 20
936.7032156850883
 30
0.0
 40
4.249999523162842
  0
ARC
  5
417
330
1F
100
AcDbEntity
  8
C-A
  6
Continuous
 62
     3
370
     9
100
AcDbCircle
 10
145.7030687119928
 20
911.7032819654537
 30
0.0
 40
1.999999642372131
100
AcDbArc
 50
29.99926757812499
 51
89.75836181640624
  0
ARC
  5
418
330
1F
100
AcDbEntity
  8
C-A
  6
Continuous
 62
     3
370
     9
100
AcDbCircle
 10
145.2030076768361
 20
915.7032581235967
 30
0.0
 40
1.999999642372131
100
AcDbArc
 50
90.0
 51
269.86669921875
  0
ARC
  5
419
330
1F
100
AcDbEntity
  8
C-A
  6
Continuous
 62
     3
370
     9
100
AcDbCircle
 10
129.7031297471486
 20
911.7032819654537
 30
0.0
 40
1.999999642372131
100
AcDbArc
 50
90.2759552001953
 51
150.0004730224609
  0
ARC
  5
41A
330
1F
100
AcDbEntity
  8
C-A
  6
Continuous
 62
     3
370
     9
100
AcDbCircle
 10
130.2029466416812
 20
915.7032581235967
 30
0.0
 40
1.999999642372131
100
AcDbArc
 50
270.0
 51
90.0
  0
CIRCLE
  5
41B
330
1F
100
AcDbEntity
  8
C-A
  6
Continuous
 62
     3
370
     9
100
AcDbCircle
 10
137.7030687119933
 20
936.7032156850883
 30
0.0
 40
4.249999523162842
  0
TEXT
  5
41C
330
1F
100
AcDbEntity
  8
D-5
  6
Continuous
 62
     2
370
     9
100
AcDbText
 10
-195.9232331060695
 20
-224.9243768724826
 30
0.0
 40
30.48
  1
仕　様
 41
1.083333333333333
  7
ＭＳ ゴシック
100
AcDbText
  0
LINE
  5
41D
330
1F
100
AcDbEntity
  8
D-5
  6
Continuous
 62
     7
370
     9
100
AcDbLine
 10
-243.4232660980458
 20
-235.5645170883822
 30
0.0
 11
-243.4232660980458
 21
-185.5642284085891
 31
0.0
  0
LINE
  5
41E
330
1F
100
AcDbEntity
  8
D-5
  6
Continuous
 62
     7
370
     9
100
AcDbLine
 10
-243.4232660980458
 20
-185.5642284085891
 30
0.0
 11
-18.42351353786846
 21
-185.5642284085891
 31
0.0
  0
LINE
  5
41F
330
1F
100
AcDbEntity
  8
D-5
  6
Continuous
 62
     7
370
     9
100
AcDbLine
 10
-18.42351353786846
 20
-185.5642284085891
 30
0.0
 11
-18.42351353786846
 21
-235.5645170883822
 31
0.0
  0
LINE
  5
420
330
1F
100
AcDbEntity
  8
D-5
  6
Continuous
 62
     7
370
     9
100
AcDbLine
 10
-18.42351353786846
 20
-235.5645170883822
 30
0.0
 11
-243.4232660980458
 21
-235.5645170883822
 31
0.0
  0
TEXT
  5
421
330
1F
100
AcDbEntity
  8
D-5
  6
Continuous
 62
     2
370
     9
100
AcDbText
 10
-81.62137631764033
 20
-557.3064010484024
 30
0.0
 40
30.48
  1
定尺：９９４
 41
1.104166666666667
  7
ＭＳ ゴシック
100
AcDbText
  0
TEXT
  5
422
330
1F
100
AcDbEntity
  8
D-5
  6
Continuous
 62
     2
370
     9
100
AcDbText
 10
-81.62137631764033
 20
-392.3061041206153
 30
0.0
 40
30.48
  1
材質：メインバー　ＦＢ４×２０（ＳＵＳ３０４）
 41
1.119565217391304
  7
ＭＳ ゴシック
100
AcDbText
  0
TEXT
  5
423
330
1F
100
AcDbEntity
  8
D-5
  6
Continuous
 62
     2
370
     9
100
AcDbText
 10
-81.62137631764033
 20
-447.3064092963966
 30
0.0
 40
30.48
  1
　　　クロスバー　ＦＢ３×１５（ＳＵＳ３０４）
 41
1.119565217391304
  7
ＭＳ ゴシック
100
AcDbText
  0
TEXT
  5
424
330
1F
100
AcDbEntity
  8
D-5
  6
Continuous
 62
     2
370
     9
100
AcDbText
 10
-81.62137631764033
 20
-502.3064670323552
 30
0.0
 40
30.48
  1
　　　サイドバー　ＦＢ４×２０（ＳＵＳ３０４）
 41
1.119565217391304
  7
ＭＳ ゴシック
100
AcDbText
  0
TEXT
  5
425
330
1F
100
AcDbEntity
  8
D-5
  6
Continuous
 62
     2
370
     9
100
AcDbText
 10
-82.29059272591059
 20
-722.2935959531983
 30
0.0
 40
30.48
  1
定尺：２０００
 41
1.107142857142857
  7
ＭＳ ゴシック
100
AcDbText
  0
TEXT
  5
426
330
1F
100
AcDbEntity
  8
D-5
  6
Continuous
 62
     2
370
     9
100
AcDbText
 10
-82.29059272591059
 20
-667.2945877744874
 30
0.0
 40
30.48
  1
材質：ステンレス鋼板ｔ＝３．０（ＳＵＳ３０４）
 41
1.119565217391304
  7
ＭＳ ゴシック
100
AcDbText
  0
TEXT
  5
427
330
1F
100
AcDbEntity
  8
D-5
  6
Continuous
 62
     2
370
     9
100
AcDbText
 10
-142.0025067884106
 20
-612.2935959531983
 30
0.0
 40
30.48
  1
ステンレス製受枠　ＲＬ－２０
 41
1.116071428571428
  7
ＭＳ ゴシック
100
AcDbText
  0
TEXT
  5
428
330
1F
100
AcDbEntity
  8
D-5
  6
Continuous
 62
     2
370
     9
100
AcDbText
 10
-82.29059272591059
 20
-777.2936722471436
 30
0.0
 40
30.48
  1
施工場所の状況に合わせて、アンカーをプライヤー等で折り曲げてご使用ください。
 41
1.121710526315789
  7
ＭＳ ゴシック
100
AcDbText
  0
TEXT
  5
429
330
1F
100
AcDbEntity
  8
D-5
  6
Continuous
 62
     2
370
     9
100
AcDbText
 10
-147.7744223053669
 20
-333.6624691358025
 30
0.0
 40
30.48
  1
ＳＭＱ　１２０２０（Ｐ＝３０）
 41
1.116666666666666
  7
ＭＳ ゴシック
100
AcDbText
  0
TEXT
  5
42A
330
1F
100
AcDbEntity
  8
D-5
  6
Continuous
 62
     2
370
     9
100
AcDbText
 10
-147.7744223053669
 20
-281.9456501690298
 30
0.0
 40
30.48
  1
ステンレス製グレーチング　滑り止め模様付　横断溝・側溝用
 41
1.120535714285714
  7
ＭＳ ゴシック
100
AcDbText
  0
TEXT
  5
42B
330
1F
100
AcDbEntity
  8
D-5
  6
Continuous
 62
     7
370
     9
100
AcDbText
 10
-720.359276370333
 20
-132.9437731626162
 30
0.0
 40
22.86
  1
ｔ＝２．０（ＳＥＣＣ）
 41
1.151515151515152
  7
ＭＳ ゴシック
100
AcDbText
  0
LINE
  5
42C
330
1F
100
AcDbEntity
  8
D-5
  6
Continuous
 62
     7
370
     9
100
AcDbLine
 10
-734.0035138886435
 20
-102.514740340961
 30
0.0
 11
-352.9845679012345
 21
-102.514740340961
 31
0.0
  0
TEXT
  5
42D
330
1F
100
AcDbEntity
  8
D-5
  6
Continuous
 62
     3
370
     9
100
AcDbText
 10
31.57648646213147
 20
-159.6060359074106
 30
0.0
 40
38.1
  1
※適用荷重：Ｔ－２（横断溝用）
 41
1.093333333333333
  7
ＭＳ ゴシック
100
AcDbText
  0
TEXT
  5
42E
330
1F
100
AcDbEntity
  8
D-5
  6
Continuous
 62
     3
370
     9
100
AcDbText
 10
31.57648646213147
 20
-228.514146315269
 30
0.0
 40
38.1
  1
※適用荷重：Ｔ－１４（側溝用）
 41
1.093333333333333
  7
ＭＳ ゴシック
100
AcDbText
  0
TEXT
  5
42F
330
1F
100
AcDbEntity
  8
C-5
  6
Continuous
 62
     7
370
     9
100
AcDbText
 10
927.7199410103467
 20
894.0747727512669
 30
0.0
 40
22.86
  1
ローレット模様
 41
1.142857142857143
  7
ＭＳ ゴシック
100
AcDbText
  0
LINE
  5
430
330
1F
100
AcDbEntity
  8
C-5
  6
Continuous
 62
     7
370
     9
100
AcDbLine
 10
920.6456364812078
 20
882.769478462838
 30
0.0
 11
1167.719941010347
 21
882.769478462838
 31
0.0
  0
ENDSEC
  0
SECTION
  2
OBJECTS
  0
DICTIONARY
  5
C
330
0
100
AcDbDictionary
281
     1
  3
ACAD_DETAILVIEWSTYLE
350
476
  3
ACAD_GROUP
350
D
  3
ACAD_LAYOUT
350
1A
  3
ACAD_MATERIAL
350
43
  3
ACAD_MLEADERSTYLE
350
6B
  3
ACAD_MLINESTYLE
350
17
  3
ACAD_PLOTSETTINGS
350
19
  3
ACAD_PLOTSTYLENAME
350
E
  3
ACAD_SCALELIST
350
47
  3
ACAD_SECTIONVIEWSTYLE
350
477
  3
ACAD_TABLESTYLE
350
69
  3
ACAD_VISUALSTYLE
350
2A
  3
ACDB_RECOMPOSE_DATA
350
473
  3
AcDbVariableDictionary
350
433
  0
DICTIONARY
  5
431
330
8
100
AcDbDictionary
280
     1
281
     1
  3
ACAD_XREC_ROUNDTRIP
360
432
  0
DICTIONARY
  5
476
102
{ACAD_REACTORS
330
C
102
}
330
C
100
AcDbDictionary
281
     1
  0
DICTIONARY
  5
D
102
{ACAD_REACTORS
330
C
102
}
330
C
100
AcDbDictionary
281
     1
  0
DICTIONARY
  5
1A
102
{ACAD_REACTORS
330
C
102
}
330
C
100
AcDbDictionary
281
     1
  3
Layout1
350
1E
  3
Layout2
350
26
  3
Model
350
22
  0
DICTIONARY
  5
43
102
{ACAD_REACTORS
330
C
102
}
330
C
100
AcDbDictionary
281
     1
  3
ByBlock
350
45
  3
ByLayer
350
44
  3
Global
350
46
  0
DICTIONARY
  5
6B
102
{ACAD_REACTORS
330
C
102
}
330
C
100
AcDbDictionary
281
     1
  3
Standard
350
6C
  0
DICTIONARY
  5
17
102
{ACAD_REACTORS
330
C
102
}
330
C
100
AcDbDictionary
281
     1
  3
Standard
350
18
  0
DICTIONARY
  5
19
102
{ACAD_REACTORS
330
C
102
}
330
C
100
AcDbDictionary
281
     1
  0
ACDBDICTIONARYWDFLT
  5
E
102
{ACAD_REACTORS
330
C
102
}
330
C
100
AcDbDictionary
281
     1
  3
Normal
350
F
100
AcDbDictionaryWithDefault
340
F
  0
DICTIONARY
  5
47
102
{ACAD_REACTORS
330
C
102
}
330
C
100
AcDbDictionary
281
     1
  3
A0
350
48
  3
A1
350
49
  3
A2
350
4A
  3
A3
350
4B
  3
A4
350
4C
  3
A5
350
4D
  3
A6
350
4E
  3
A7
350
4F
  3
A8
350
50
  3
A9
350
51
  3
B0
350
52
  3
B1
350
53
  3
B2
350
54
  3
B3
350
55
  3
B4
350
56
  3
B5
350
57
  3
B6
350
58
  3
B7
350
59
  3
B8
350
5A
  3
B9
350
5B
  3
C0
350
5C
  3
C1
350
5D
  3
C2
350
5E
  3
C3
350
5F
  3
C4
350
60
  3
C5
350
61
  3
C6
350
62
  3
C7
350
63
  3
C8
350
64
  3
C9
350
65
  3
D0
350
66
  3
D1
350
67
  3
D2
350
68
  0
DICTIONARY
  5
477
102
{ACAD_REACTORS
330
C
102
}
330
C
100
AcDbDictionary
281
     1
  0
DICTIONARY
  5
69
102
{ACAD_REACTORS
330
C
102
}
330
C
100
AcDbDictionary
281
     1
  3
Standard
350
6A
  0
DICTIONARY
  5
2A
102
{ACAD_REACTORS
330
C
102
}
330
C
100
AcDbDictionary
281
     1
  3
2dWireframe
350
2F
  3
Basic
350
32
  3
Brighten
350
36
  3
ColorChange
350
3A
  3
Conceptual
350
34
  3
Dim
350
35
  3
EdgeColorOff
350
3D
  3
Facepattern
350
39
  3
Flat
350
2B
  3
FlatWithEdges
350
2C
  3
Gouraud
350
2D
  3
GouraudWithEdges
350
2E
  3
Hidden
350
31
  3
JitterOff
350
3B
  3
Linepattern
350
38
  3
OverhangOff
350
3C
  3
Realistic
350
33
  3
Shaded
350
42
  3
Shaded with edges
350
41
  3
Shades of Gray
350
3E
  3
Sketchy
350
3F
  3
Thicken
350
37
  3
Wireframe
350
30
  3
X-Ray
350
40
  0
XRECORD
  5
473
102
{ACAD_REACTORS
330
C
102
}
330
C
100
AcDbXrecord
280
     1
 90
        1
330
6A
  0
DICTIONARY
  5
433
102
{ACAD_REACTORS
330
C
102
}
330
C
100
AcDbDictionary
281
     1
  3
CANNOSCALE
350
434
  3
CENTEREXE
350
478
  3
CENTERLTYPEFILE
350
479
  3
CMLEADERSTYLE
350
475
  3
CTABLESTYLE
350
474
  3
MSLTSCALE
350
435
  3
XCLIPFRAME
350
436
  0
XRECORD
  5
432
102
{ACAD_REACTORS
330
431
102
}
330
431
100
AcDbXrecord
280
     1
102
VTR_0.000_0.000_1.000_1.000_VISUALSTYLE
340
2F
102
VTR_0.000_0.000_1.000_1.000_GRIDDISPLAY
 70
     3
102
VTR_0.000_0.000_1.000_1.000_GRIDMAJOR
 70
     5
102
VTR_0.000_0.000_1.000_1.000_DEFAULTLIGHTING
280
     1
102
VTR_0.000_0.000_1.000_1.000_DEFAULTLIGHTINGTYPE
 70
     1
102
VTR_0.000_0.000_1.000_1.000_BRIGHTNESS
141
0.0
102
VTR_0.000_0.000_1.000_1.000_CONTRAST
142
0.0
  0
LAYOUT
  5
1E
102
{ACAD_REACTORS
330
1A
102
}
330
1A
100
AcDbPlotSettings
  1

  2
none_device
  4

  6

 40
0.0
 41
0.0
 42
0.0
 43
0.0
 44
0.0
 45
0.0
 46
0.0
 47
0.0
 48
0.0
 49
0.0
140
0.0
141
0.0
142
1.0
143
1.0
 70
   688
 72
     1
 73
     0
 74
     5
  7

 75
    16
 76
     0
 77
     5
 78
   300
147
1.0
148
0.0
149
0.0
100
AcDbLayout
  1
Layout1
 70
     1
 71
     1
 10
0.0
 20
0.0
 11
420.0
 21
297.0
 12
0.0
 22
0.0
 32
0.0
 14
1.000000000000000E+20
 24
1.000000000000000E+20
 34
1.000000000000000E+20
 15
-1.000000000000000E+20
 25
-1.000000000000000E+20
 35
-1.000000000000000E+20
146
0.0
 13
0.0
 23
0.0
 33
0.0
 16
1.0
 26
0.0
 36
0.0
 17
0.0
 27
1.0
 37
0.0
 76
     0
330
1B
  0
LAYOUT
  5
26
102
{ACAD_REACTORS
330
1A
102
}
330
1A
100
AcDbPlotSettings
  1

  2
none_device
  4

  6

 40
0.0
 41
0.0
 42
0.0
 43
0.0
 44
0.0
 45
0.0
 46
0.0
 47
0.0
 48
0.0
 49
0.0
140
0.0
141
0.0
142
1.0
143
1.0
 70
   688
 72
     1
 73
     0
 74
     5
  7

 75
    16
 76
     0
 77
     5
 78
   300
147
1.0
148
0.0
149
0.0
100
AcDbLayout
  1
Layout2
 70
     1
 71
     2
 10
0.0
 20
0.0
 11
0.0
 21
0.0
 12
0.0
 22
0.0
 32
0.0
 14
0.0
 24
0.0
 34
0.0
 15
0.0
 25
0.0
 35
0.0
146
0.0
 13
0.0
 23
0.0
 33
0.0
 16
1.0
 26
0.0
 36
0.0
 17
0.0
 27
1.0
 37
0.0
 76
     0
330
23
  0
LAYOUT
  5
22
102
{ACAD_REACTORS
330
1A
102
}
330
1A
100
AcDbPlotSettings
  1

  2
none_device
  4
Letter_(8.50_x_11.00_Inches)
  6

 40
6.35
 41
6.35
 42
6.35000508
 43
6.35000508
 44
215.9
 45
279.4
 46
0.0
 47
0.0
 48
0.0
 49
0.0
140
0.0
141
0.0
142
1.0
143
1.0
 70
  1712
 72
     1
 73
     0
 74
     0
  7

 75
     0
 76
     0
 77
     5
 78
   300
147
1.0
148
0.0
149
0.0
100
AcDbLayout
  1
Model
 70
     1
 71
     0
 10
-2100.0
 20
-1485.0
 11
2100.0
 21
1485.0
 12
0.0
 22
0.0
 32
0.0
 14
-2100.0
 24
-1485.0
 34
0.0
 15
2100.0
 25
1485.0
 35
0.0
146
0.0
 13
0.0
 23
0.0
 33
0.0
 16
1.0
 26
0.0
 36
0.0
 17
0.0
 27
1.0
 37
0.0
 76
     0
330
1F
331
29
  0
MATERIAL
  5
45
102
{ACAD_REACTORS
330
43
102
}
102
{ACAD_XDICTIONARY
360
469
102
}
330
43
100
AcDbMaterial
  1
ByBlock
  0
MATERIAL
  5
44
102
{ACAD_REACTORS
330
43
102
}
102
{ACAD_XDICTIONARY
360
467
102
}
330
43
100
AcDbMaterial
  1
ByLayer
  0
MATERIAL
  5
46
102
{ACAD_REACTORS
330
43
102
}
102
{ACAD_XDICTIONARY
360
46B
102
}
330
43
100
AcDbMaterial
  1
Global
  0
MLEADERSTYLE
  5
6C
102
{ACAD_REACTORS
330
6B
102
}
102
{ACAD_XDICTIONARY
360
471
102
}
330
6B
100
AcDbMLeaderStyle
170
     2
171
     1
172
     0
 90
        2
 40
0.0
 41
0.0
173
     1
 91
-1056964608
340
14
 92
       -2
290
     1
 42
2.0
291
     1
 43
8.0
  3
Standard
341
0
 44
4.0
300

342
11
174
     1
178
     6
175
     1
176
     0
 93
-1056964608
 45
4.0
292
     0
297
     0
 46
4.0
343
0
 94
-1056964608
 47
1.0
 49
1.0
140
1.0
293
     1
141
0.0
294
     1
177
     0
142
1.0
295
     0
296
     0
143
3.75
1001
ACAD_MLEADERVER
1070
     2
  0
MLINESTYLE
  5
18
102
{ACAD_REACTORS
330
17
102
}
330
17
100
AcDbMlineStyle
  2
Standard
 70
     0
  3

 62
   256
 51
90.0
 52
90.0
 71
     2
 49
0.5
 62
   256
  6
BYLAYER
 49
-0.5
 62
   256
  6
BYLAYER
  0
ACDBPLACEHOLDER
  5
F
102
{ACAD_REACTORS
330
E
102
}
330
E
  0
SCALE
  5
48
102
{ACAD_REACTORS
330
47
102
}
330
47
100
AcDbScale
 70
     0
300
1:1
140
1.0
141
1.0
290
     1
  0
SCALE
  5
49
102
{ACAD_REACTORS
330
47
102
}
330
47
100
AcDbScale
 70
     0
300
1:2
140
1.0
141
2.0
290
     0
  0
SCALE
  5
4A
102
{ACAD_REACTORS
330
47
102
}
330
47
100
AcDbScale
 70
     0
300
1:4
140
1.0
141
4.0
290
     0
  0
SCALE
  5
4B
102
{ACAD_REACTORS
330
47
102
}
330
47
100
AcDbScale
 70
     0
300
1:5
140
1.0
141
5.0
290
     0
  0
SCALE
  5
4C
102
{ACAD_REACTORS
330
47
102
}
330
47
100
AcDbScale
 70
     0
300
1:8
140
1.0
141
8.0
290
     0
  0
SCALE
  5
4D
102
{ACAD_REACTORS
330
47
102
}
330
47
100
AcDbScale
 70
     0
300
1:10
140
1.0
141
10.0
290
     0
  0
SCALE
  5
4E
102
{ACAD_REACTORS
330
47
102
}
330
47
100
AcDbScale
 70
     0
300
1:16
140
1.0
141
16.0
290
     0
  0
SCALE
  5
4F
102
{ACAD_REACTORS
330
47
102
}
330
47
100
AcDbScale
 70
     0
300
1:20
140
1.0
141
20.0
290
     0
  0
SCALE
  5
50
102
{ACAD_REACTORS
330
47
102
}
330
47
100
AcDbScale
 70
     0
300
1:30
140
1.0
141
30.0
290
     0
  0
SCALE
  5
51
102
{ACAD_REACTORS
330
47
102
}
330
47
100
AcDbScale
 70
     0
300
1:40
140
1.0
141
40.0
290
     0
  0
SCALE
  5
52
102
{ACAD_REACTORS
330
47
102
}
330
47
100
AcDbScale
 70
     0
300
1:50
140
1.0
141
50.0
290
     0
  0
SCALE
  5
53
102
{ACAD_REACTORS
330
47
102
}
330
47
100
AcDbScale
 70
     0
300
1:100
140
1.0
141
100.0
290
     0
  0
SCALE
  5
54
102
{ACAD_REACTORS
330
47
102
}
330
47
100
AcDbScale
 70
     0
300
2:1
140
2.0
141
1.0
290
     0
  0
SCALE
  5
55
102
{ACAD_REACTORS
330
47
102
}
330
47
100
AcDbScale
 70
     0
300
4:1
140
4.0
141
1.0
290
     0
  0
SCALE
  5
56
102
{ACAD_REACTORS
330
47
102
}
330
47
100
AcDbScale
 70
     0
300
8:1
140
8.0
141
1.0
290
     0
  0
SCALE
  5
57
102
{ACAD_REACTORS
330
47
102
}
330
47
100
AcDbScale
 70
     0
300
10:1
140
10.0
141
1.0
290
     0
  0
SCALE
  5
58
102
{ACAD_REACTORS
330
47
102
}
330
47
100
AcDbScale
 70
     0
300
100:1
140
100.0
141
1.0
290
     0
  0
SCALE
  5
59
102
{ACAD_REACTORS
330
47
102
}
330
47
100
AcDbScale
 70
     0
300
1/128" = 1'-0"
140
0.0078125
141
12.0
290
     0
  0
SCALE
  5
5A
102
{ACAD_REACTORS
330
47
102
}
330
47
100
AcDbScale
 70
     0
300
1/64" = 1'-0"
140
0.015625
141
12.0
290
     0
  0
SCALE
  5
5B
102
{ACAD_REACTORS
330
47
102
}
330
47
100
AcDbScale
 70
     0
300
1/32" = 1'-0"
140
0.03125
141
12.0
290
     0
  0
SCALE
  5
5C
102
{ACAD_REACTORS
330
47
102
}
330
47
100
AcDbScale
 70
     0
300
1/16" = 1'-0"
140
0.0625
141
12.0
290
     0
  0
SCALE
  5
5D
102
{ACAD_REACTORS
330
47
102
}
330
47
100
AcDbScale
 70
     0
300
3/32" = 1'-0"
140
0.09375
141
12.0
290
     0
  0
SCALE
  5
5E
102
{ACAD_REACTORS
330
47
102
}
330
47
100
AcDbScale
 70
     0
300
1/8" = 1'-0"
140
0.125
141
12.0
290
     0
  0
SCALE
  5
5F
102
{ACAD_REACTORS
330
47
102
}
330
47
100
AcDbScale
 70
     0
300
3/16" = 1'-0"
140
0.1875
141
12.0
290
     0
  0
SCALE
  5
60
102
{ACAD_REACTORS
330
47
102
}
330
47
100
AcDbScale
 70
     0
300
1/4" = 1'-0"
140
0.25
141
12.0
290
     0
  0
SCALE
  5
61
102
{ACAD_REACTORS
330
47
102
}
330
47
100
AcDbScale
 70
     0
300
3/8" = 1'-0"
140
0.375
141
12.0
290
     0
  0
SCALE
  5
62
102
{ACAD_REACTORS
330
47
102
}
330
47
100
AcDbScale
 70
     0
300
1/2" = 1'-0"
140
0.5
141
12.0
290
     0
  0
SCALE
  5
63
102
{ACAD_REACTORS
330
47
102
}
330
47
100
AcDbScale
 70
     0
300
3/4" = 1'-0"
140
0.75
141
12.0
290
     0
  0
SCALE
  5
64
102
{ACAD_REACTORS
330
47
102
}
330
47
100
AcDbScale
 70
     0
300
1" = 1'-0"
140
1.0
141
12.0
290
     0
  0
SCALE
  5
65
102
{ACAD_REACTORS
330
47
102
}
330
47
100
AcDbScale
 70
     0
300
1-1/2" = 1'-0"
140
1.5
141
12.0
290
     0
  0
SCALE
  5
66
102
{ACAD_REACTORS
330
47
102
}
330
47
100
AcDbScale
 70
     0
300
3" = 1'-0"
140
3.0
141
12.0
290
     0
  0
SCALE
  5
67
102
{ACAD_REACTORS
330
47
102
}
330
47
100
AcDbScale
 70
     0
300
6" = 1'-0"
140
6.0
141
12.0
290
     0
  0
SCALE
  5
68
102
{ACAD_REACTORS
330
47
102
}
330
47
100
AcDbScale
 70
     0
300
1'-0" = 1'-0"
140
12.0
141
12.0
290
     0
  0
TABLESTYLE
  5
6A
102
{ACAD_REACTORS
330
69
102
}
102
{ACAD_XDICTIONARY
360
46D
102
}
330
69
100
AcDbTableStyle
  3
Standard
 70
     0
 71
     0
 40
0.06
 41
0.06
280
     0
281
     0
  7
Standard
140
4.5
170
     2
 62
     0
 63
   257
283
     0
274
    -2
284
     1
 64
     0
275
    -2
285
     1
 65
     0
276
    -2
286
     1
 66
     0
277
    -2
287
     1
 67
     0
278
    -2
288
     1
 68
     0
279
    -2
289
     1
 69
     0
  7
Standard
140
6.0
170
     5
 62
     0
 63
   257
283
     0
274
    -2
284
     1
 64
     0
275
    -2
285
     1
 65
     0
276
    -2
286
     1
 66
     0
277
    -2
287
     1
 67
     0
278
    -2
288
     1
 68
     0
279
    -2
289
     1
 69
     0
  7
Standard
140
4.5
170
     5
 62
     0
 63
   257
283
     0
274
    -2
284
     1
 64
     0
275
    -2
285
     1
 65
     0
276
    -2
286
     1
 66
     0
277
    -2
287
     1
 67
     0
278
    -2
288
     1
 68
     0
279
    -2
289
     1
 69
     0
  0
VISUALSTYLE
  5
2F
102
{ACAD_REACTORS
330
2A
102
}
102
{ACAD_XDICTIONARY
360
43F
102
}
330
2A
100
AcDbVisualStyle
  2
2dWireframe
 70
     4
 71
     0
 72
     2
 73
     0
 90
        0
 40
0.6
 41
30.0
 62
     5
 63
     7
421
 16777215
 74
     1
 91
        4
 64
     7
 65
   257
 75
     1
175
     1
 42
1.0
 92
        0
 66
   257
 43
1.0
 76
     1
 77
     6
 78
     2
 67
     7
 79
     5
170
     0
171
     0
290
     0
174
     0
 93
        1
 44
0.0
173
     0
291
     0
 45
0.0
1001
ACAD
1000
AcDbSavedByObjectVersion
1070
     0
  0
VISUALSTYLE
  5
32
102
{ACAD_REACTORS
330
2A
102
}
102
{ACAD_XDICTIONARY
360
445
102
}
330
2A
100
AcDbVisualStyle
  2
Basic
 70
     7
 71
     1
 72
     0
 73
     1
 90
        0
 40
0.6
 41
30.0
 62
     5
 63
     7
421
 16777215
 74
     0
 91
        4
 64
     7
 65
   257
 75
     1
175
     1
 42
1.0
 92
        8
 66
     7
 43
1.0
 76
     1
 77
     6
 78
     2
 67
     7
 79
     5
170
     0
171
     0
290
     0
174
     0
 93
        1
 44
0.0
173
     0
291
     1
 45
0.0
1001
ACAD
1000
AcDbSavedByObjectVersion
1070
     0
  0
VISUALSTYLE
  5
36
102
{ACAD_REACTORS
330
2A
102
}
102
{ACAD_XDICTIONARY
360
44D
102
}
330
2A
100
AcDbVisualStyle
  2
Brighten
 70
    12
 71
     2
 72
     2
 73
     0
 90
        0
 40
0.6
 41
30.0
 62
     5
 63
     7
421
 16777215
 74
     1
 91
        4
 64
     7
 65
   257
 75
     1
175
     1
 42
1.0
 92
        8
 66
     7
 43
1.0
 76
     1
 77
     6
 78
     2
 67
     7
 79
     5
170
     0
171
     0
290
     0
174
     0
 93
        1
 44
50.0
173
     0
291
     1
 45
0.0
1001
ACAD
1000
AcDbSavedByObjectVersion
1070
     0
  0
VISUALSTYLE
  5
3A
102
{ACAD_REACTORS
330
2A
102
}
102
{ACAD_XDICTIONARY
360
455
102
}
330
2A
100
AcDbVisualStyle
  2
ColorChange
 70
    16
 71
     2
 72
     2
 73
     3
 90
        0
 40
0.6
 41
30.0
 62
     5
 63
     8
421
  8421504
 74
     1
 91
        4
 64
     7
 65
   257
 75
     1
175
     1
 42
1.0
 92
        8
 66
     8
424
  8421504
 43
1.0
 76
     1
 77
     6
 78
     2
 67
     7
 79
     5
170
     0
171
     0
290
     0
174
     0
 93
        1
 44
0.0
173
     0
291
     1
 45
0.0
1001
ACAD
1000
AcDbSavedByObjectVersion
1070
     0
  0
VISUALSTYLE
  5
34
102
{ACAD_REACTORS
330
2A
102
}
102
{ACAD_XDICTIONARY
360
449
102
}
330
2A
100
AcDbVisualStyle
  2
Conceptual
 70
     9
 71
     3
 72
     2
 73
     0
 90
        0
 40
0.6
 41
30.0
 62
     5
 63
     7
421
 16777215
 74
     2
 91
        2
 64
     7
 65
   257
 75
     1
175
     1
 42
179.0
 92
        8
 66
     7
 43
1.0
 76
     1
 77
     6
 78
     2
 67
     7
 79
     3
170
     0
171
     0
290
     0
174
     0
 93
        1
 44
0.0
173
     0
291
     0
 45
0.0
1001
ACAD
1000
AcDbSavedByObjectVersion
1070
     0
  0
VISUALSTYLE
  5
35
102
{ACAD_REACTORS
330
2A
102
}
102
{ACAD_XDICTIONARY
360
44B
102
}
330
2A
100
AcDbVisualStyle
  2
Dim
 70
    11
 71
     2
 72
     2
 73
     0
 90
        0
 40
0.6
 41
30.0
 62
     5
 63
     7
421
 16777215
 74
     1
 91
        4
 64
     7
 65
   257
 75
     1
175
     1
 42
1.0
 92
        8
 66
     7
 43
1.0
 76
     1
 77
     6
 78
     2
 67
     7
 79
     5
170
     0
171
     0
290
     0
174
     0
 93
        1
 44
-50.0
173
     0
291
     1
 45
0.0
1001
ACAD
1000
AcDbSavedByObjectVersion
1070
     0
  0
VISUALSTYLE
  5
3D
102
{ACAD_REACTORS
330
2A
102
}
102
{ACAD_XDICTIONARY
360
45B
102
}
330
2A
100
AcDbVisualStyle
  2
EdgeColorOff
 70
    22
 71
     2
 72
     2
 73
     0
 90
        0
 40
0.6
 41
30.0
 62
     5
 63
     7
421
 16777215
 74
     1
 91
        4
 64
     7
 65
   257
 75
     1
175
     1
 42
1.0
 92
        8
 66
     7
 43
1.0
 76
     1
 77
     6
 78
     2
 67
     7
 79
     5
170
     0
171
     0
290
     0
174
     0
 93
        1
 44
0.0
173
     0
291
     1
 45
0.0
1001
ACAD
1000
AcDbSavedByObjectVersion
1070
     0
  0
VISUALSTYLE
  5
39
102
{ACAD_REACTORS
330
2A
102
}
102
{ACAD_XDICTIONARY
360
453
102
}
330
2A
100
AcDbVisualStyle
  2
Facepattern
 70
    15
 71
     2
 72
     2
 73
     0
 90
        0
 40
0.6
 41
30.0
 62
     5
 63
     7
421
 16777215
 74
     1
 91
        4
 64
     7
 65
   257
 75
     1
175
     1
 42
1.0
 92
        8
 66
     7
 43
1.0
 76
     1
 77
     6
 78
     2
 67
     7
 79
     5
170
     0
171
     0
290
     0
174
     0
 93
        1
 44
0.0
173
     0
291
     1
 45
0.0
1001
ACAD
1000
AcDbSavedByObjectVersion
1070
     0
  0
VISUALSTYLE
  5
2B
102
{ACAD_REACTORS
330
2A
102
}
102
{ACAD_XDICTIONARY
360
437
102
}
330
2A
100
AcDbVisualStyle
  2
Flat
 70
     0
 71
     2
 72
     1
 73
     1
 90
        2
 40
0.6
 41
30.0
 62
     5
 63
     7
421
 16777215
 74
     0
 91
        0
 64
     7
 65
   257
 75
     1
175
     1
 42
1.0
 92
        8
 66
     7
 43
1.0
 76
     1
 77
     6
 78
     2
 67
     7
 79
     5
170
     0
171
     0
290
     0
174
     0
 93
       13
 44
0.0
173
     0
291
     1
 45
0.0
1001
ACAD
1000
AcDbSavedByObjectVersion
1070
     0
  0
VISUALSTYLE
  5
2C
102
{ACAD_REACTORS
330
2A
102
}
102
{ACAD_XDICTIONARY
360
439
102
}
330
2A
100
AcDbVisualStyle
  2
FlatWithEdges
 70
     1
 71
     2
 72
     1
 73
     1
 90
        2
 40
0.6
 41
30.0
 62
     5
 63
     7
421
 16777215
 74
     1
 91
        0
 64
     7
 65
   257
 75
     1
175
     1
 42
1.0
 92
        0
 66
   257
 43
1.0
 76
     1
 77
     6
 78
     2
 67
     7
 79
     5
170
     0
171
     0
290
     0
174
     0
 93
       13
 44
0.0
173
     0
291
     1
 45
0.0
1001
ACAD
1000
AcDbSavedByObjectVersion
1070
     0
  0
VISUALSTYLE
  5
2D
102
{ACAD_REACTORS
330
2A
102
}
102
{ACAD_XDICTIONARY
360
43B
102
}
330
2A
100
AcDbVisualStyle
  2
Gouraud
 70
     2
 71
     2
 72
     2
 73
     1
 90
        2
 40
0.6
 41
30.0
 62
     5
 63
     7
421
 16777215
 74
     0
 91
        0
 64
     7
 65
   257
 75
     1
175
     1
 42
1.0
 92
        0
 66
     7
 43
1.0
 76
     1
 77
     6
 78
     2
 67
     7
 79
     5
170
     0
171
     0
290
     0
174
     0
 93
       13
 44
0.0
173
     0
291
     1
 45
0.0
1001
ACAD
1000
AcDbSavedByObjectVersion
1070
     0
  0
VISUALSTYLE
  5
2E
102
{ACAD_REACTORS
330
2A
102
}
102
{ACAD_XDICTIONARY
360
43D
102
}
330
2A
100
AcDbVisualStyle
  2
GouraudWithEdges
 70
     3
 71
     2
 72
     2
 73
     1
 90
        2
 40
0.6
 41
30.0
 62
     5
 63
     7
421
 16777215
 74
     1
 91
        0
 64
     7
 65
   257
 75
     1
175
     1
 42
1.0
 92
        0
 66
   257
 43
1.0
 76
     1
 77
     6
 78
     2
 67
     7
 79
     5
170
     0
171
     0
290
     0
174
     0
 93
       13
 44
0.0
173
     0
291
     1
 45
0.0
1001
ACAD
1000
AcDbSavedByObjectVersion
1070
     0
  0
VISUALSTYLE
  5
31
102
{ACAD_REACTORS
330
2A
102
}
102
{ACAD_XDICTIONARY
360
443
102
}
330
2A
100
AcDbVisualStyle
  2
Hidden
 70
     6
 71
     1
 72
     2
 73
     2
 90
        0
 40
0.6
 41
30.0
 62
     5
 63
     7
421
 16777215
 74
     2
 91
        2
 64
     7
 65
   257
 75
     2
175
     1
 42
40.0
 92
        0
 66
   257
 43
1.0
 76
     1
 77
     6
 78
     2
 67
     7
 79
     3
170
     0
171
     0
290
     0
174
     0
 93
        1
 44
0.0
173
     0
291
     0
 45
0.0
1001
ACAD
1000
AcDbSavedByObjectVersion
1070
     0
  0
VISUALSTYLE
  5
3B
102
{ACAD_REACTORS
330
2A
102
}
102
{ACAD_XDICTIONARY
360
457
102
}
330
2A
100
AcDbVisualStyle
  2
JitterOff
 70
    20
 71
     2
 72
     2
 73
     0
 90
        0
 40
0.6
 41
30.0
 62
     5
 63
     7
421
 16777215
 74
     1
 91
        4
 64
     7
 65
   257
 75
     1
175
     1
 42
1.0
 92
       10
 66
     7
 43
1.0
 76
     1
 77
     6
 78
     2
 67
     7
 79
     5
170
     0
171
     0
290
     0
174
     0
 93
        1
 44
0.0
173
     0
291
     1
 45
0.0
1001
ACAD
1000
AcDbSavedByObjectVersion
1070
     0
  0
VISUALSTYLE
  5
38
102
{ACAD_REACTORS
330
2A
102
}
102
{ACAD_XDICTIONARY
360
451
102
}
330
2A
100
AcDbVisualStyle
  2
Linepattern
 70
    14
 71
     2
 72
     2
 73
     0
 90
        0
 40
0.6
 41
30.0
 62
     5
 63
     7
421
 16777215
 74
     1
 91
        4
 64
     7
 65
   257
 75
     7
175
     7
 42
1.0
 92
        8
 66
     7
 43
1.0
 76
     1
 77
     6
 78
     2
 67
     7
 79
     5
170
     0
171
     0
290
     0
174
     0
 93
        1
 44
0.0
173
     0
291
     1
 45
0.0
1001
ACAD
1000
AcDbSavedByObjectVersion
1070
     0
  0
VISUALSTYLE
  5
3C
102
{ACAD_REACTORS
330
2A
102
}
102
{ACAD_XDICTIONARY
360
459
102
}
330
2A
100
AcDbVisualStyle
  2
OverhangOff
 70
    21
 71
     2
 72
     2
 73
     0
 90
        0
 40
0.6
 41
30.0
 62
     5
 63
     7
421
 16777215
 74
     1
 91
        4
 64
     7
 65
   257
 75
     1
175
     1
 42
1.0
 92
        9
 66
     7
 43
1.0
 76
     1
 77
     6
 78
     2
 67
     7
 79
     5
170
     0
171
     0
290
     0
174
     0
 93
        1
 44
0.0
173
     0
291
     1
 45
0.0
1001
ACAD
1000
AcDbSavedByObjectVersion
1070
     0
  0
VISUALSTYLE
  5
33
102
{ACAD_REACTORS
330
2A
102
}
102
{ACAD_XDICTIONARY
360
447
102
}
330
2A
100
AcDbVisualStyle
  2
Realistic
 70
     8
 71
     2
 72
     3
 73
     0
 90
        2
 40
0.6
 41
30.0
 62
     5
 63
     7
421
 16777215
 74
     0
 91
        0
 64
     7
 65
   257
 75
     1
175
     1
 42
1.0
 92
        8
 66
   257
 43
1.0
 76
     1
 77
     6
 78
     2
 67
     7
 79
     3
170
     0
171
     0
290
     0
174
     0
 93
       13
 44
0.0
173
     0
291
     0
 45
0.0
1001
ACAD
1000
AcDbSavedByObjectVersion
1070
     0
  0
VISUALSTYLE
  5
42
102
{ACAD_REACTORS
330
2A
102
}
102
{ACAD_XDICTIONARY
360
465
102
}
330
2A
100
AcDbVisualStyle
  2
Shaded
 70
    27
 71
     2
 72
     2
 73
     1
 90
        2
 40
0.6
 41
30.0
 62
     5
 63
     7
421
 16777215
 74
     0
 91
        4
 64
     7
 65
   257
 75
     1
175
     1
 42
1.0
 92
        8
 66
   257
 43
1.0
 76
     1
 77
     6
 78
     2
 67
     8
425
  7895160
 79
     3
170
     0
171
     0
290
     0
174
     0
 93
        5
 44
0.0
173
     0
291
     0
 45
0.0
1001
ACAD
1000
AcDbSavedByObjectVersion
1070
     0
  0
VISUALSTYLE
  5
41
102
{ACAD_REACTORS
330
2A
102
}
102
{ACAD_XDICTIONARY
360
463
102
}
330
2A
100
AcDbVisualStyle
  2
Shaded with edges
 70
    26
 71
     2
 72
     2
 73
     1
 90
        2
 40
0.6
 41
30.0
 62
     5
 63
     7
421
 16777215
 74
     1
 91
       10
 64
     7
 65
   257
 75
     2
175
     1
 42
1.0
 92
        8
 66
   257
 43
1.0
 76
     1
 77
     6
 78
     2
 67
     7
 79
     3
170
     0
171
     0
290
     0
174
     0
 93
        5
 44
0.0
173
     0
291
     0
 45
0.0
1001
ACAD
1000
AcDbSavedByObjectVersion
1070
     0
  0
VISUALSTYLE
  5
3E
102
{ACAD_REACTORS
330
2A
102
}
102
{ACAD_XDICTIONARY
360
45D
102
}
330
2A
100
AcDbVisualStyle
  2
Shades of Gray
 70
    23
 71
     2
 72
     2
 73
     3
 90
        0
 40
0.6
 41
30.0
 62
     5
 63
     7
421
 16777215
 74
     2
 91
        2
 64
     7
 65
     7
 75
     1
175
     1
 42
40.0
 92
        8
 66
     7
 43
1.0
 76
     1
 77
     6
 78
     2
 67
     7
 79
     3
170
     0
171
     0
290
     0
174
     0
 93
        1
 44
0.0
173
     0
291
     0
 45
0.0
1001
ACAD
1000
AcDbSavedByObjectVersion
1070
     0
  0
VISUALSTYLE
  5
3F
102
{ACAD_REACTORS
330
2A
102
}
102
{ACAD_XDICTIONARY
360
45F
102
}
330
2A
100
AcDbVisualStyle
  2
Sketchy
 70
    24
 71
     1
 72
     2
 73
     2
 90
        0
 40
0.6
 41
30.0
 62
     5
 63
     7
421
 16777215
 74
     2
 91
        2
 64
     7
 65
     7
 75
     1
175
     1
 42
40.0
 92
       11
 66
     7
 43
1.0
 76
     1
 77
     6
 78
     2
 67
     7
 79
     6
170
     0
171
     0
290
     0
174
     0
 93
        1
 44
0.0
173
     0
291
     0
 45
0.0
1001
ACAD
1000
AcDbSavedByObjectVersion
1070
     0
  0
VISUALSTYLE
  5
37
102
{ACAD_REACTORS
330
2A
102
}
102
{ACAD_XDICTIONARY
360
44F
102
}
330
2A
100
AcDbVisualStyle
  2
Thicken
 70
    13
 71
     2
 72
     2
 73
     0
 90
        0
 40
0.6
 41
30.0
 62
     5
 63
     7
421
 16777215
 74
     1
 91
        4
 64
     7
 65
   257
 75
     1
175
     1
 42
1.0
 92
       12
 66
     7
 43
1.0
 76
     1
 77
     6
 78
     2
 67
     7
 79
     5
170
     0
171
     0
290
     0
174
     0
 93
        1
 44
0.0
173
     0
291
     1
 45
0.0
1001
ACAD
1000
AcDbSavedByObjectVersion
1070
     0
  0
VISUALSTYLE
  5
30
102
{ACAD_REACTORS
330
2A
102
}
102
{ACAD_XDICTIONARY
360
441
102
}
330
2A
100
AcDbVisualStyle
  2
Wireframe
 70
     5
 71
     0
 72
     2
 73
     0
 90
        0
 40
0.6
 41
30.0
 62
     5
 63
     7
421
 16777215
 74
     1
 91
        4
 64
     7
 65
   257
 75
     1
175
     1
 42
1.0
 92
        0
 66
   257
 43
1.0
 76
     1
 77
     6
 78
     2
 67
     7
 79
     3
170
     0
171
     0
290
     0
174
     0
 93
        1
 44
0.0
173
     0
291
     0
 45
0.0
1001
ACAD
1000
AcDbSavedByObjectVersion
1070
     0
  0
VISUALSTYLE
  5
40
102
{ACAD_REACTORS
330
2A
102
}
102
{ACAD_XDICTIONARY
360
461
102
}
330
2A
100
AcDbVisualStyle
  2
X-Ray
 70
    25
 71
     2
 72
     2
 73
     1
 90
        1
 40
0.5
 41
30.0
 62
     5
 63
     7
421
 16777215
 74
     1
 91
        0
 64
     7
 65
   257
 75
     1
175
     1
 42
1.0
 92
        8
 66
     7
 43
1.0
 76
     1
 77
     6
 78
     2
 67
     7
 79
     3
170
     0
171
     0
290
     0
174
     0
 93
       13
 44
0.0
173
     0
291
     0
 45
0.0
1001
ACAD
1000
AcDbSavedByObjectVersion
1070
     0
  0
DICTIONARYVAR
  5
434
102
{ACAD_REACTORS
330
433
102
}
330
433
100
DictionaryVariables
280
     0
  1
1:1
  0
DICTIONARYVAR
  5
478
102
{ACAD_REACTORS
330
433
102
}
330
433
100
DictionaryVariables
280
     0
  1
3.500000
  0
DICTIONARYVAR
  5
479
102
{ACAD_REACTORS
330
433
102
}
330
433
100
DictionaryVariables
280
     0
  1
acadiso.lin
  0
DICTIONARYVAR
  5
475
102
{ACAD_REACTORS
330
433
102
}
330
433
100
DictionaryVariables
280
     0
  1
Standard
  0
DICTIONARYVAR
  5
474
102
{ACAD_REACTORS
330
433
102
}
330
433
100
DictionaryVariables
280
     0
  1
Standard
  0
DICTIONARYVAR
  5
435
102
{ACAD_REACTORS
330
433
102
}
330
433
100
DictionaryVariables
280
     0
  1
1
  0
DICTIONARYVAR
  5
436
102
{ACAD_REACTORS
330
433
102
}
330
433
100
DictionaryVariables
280
     0
  1
2
  0
DICTIONARY
  5
469
330
45
100
AcDbDictionary
280
     1
281
     1
  3
ACAD_XREC_ROUNDTRIP
360
46A
  0
DICTIONARY
  5
467
330
44
100
AcDbDictionary
280
     1
281
     1
  3
ACAD_XREC_ROUNDTRIP
360
468
  0
DICTIONARY
  5
46B
330
46
100
AcDbDictionary
280
     1
281
     1
  3
ACAD_XREC_ROUNDTRIP
360
46C
  0
DICTIONARY
  5
471
330
6C
100
AcDbDictionary
280
     1
281
     1
  3
ACAD_XREC_ROUNDTRIP
360
472
  0
DICTIONARY
  5
46D
330
6A
100
AcDbDictionary
280
     1
281
     1
  3
ACAD_ROUNDTRIP_2008_TABLESTYLE_CELLSTYLEMAP
360
46F
  3
ACAD_XREC_ROUNDTRIP
360
46E
  0
DICTIONARY
  5
43F
330
2F
100
AcDbDictionary
280
     1
281
     1
  3
ACAD_XREC_ROUNDTRIP
360
440
  0
DICTIONARY
  5
445
330
32
100
AcDbDictionary
280
     1
281
     1
  3
ACAD_XREC_ROUNDTRIP
360
446
  0
DICTIONARY
  5
44D
330
36
100
AcDbDictionary
280
     1
281
     1
  3
ACAD_XREC_ROUNDTRIP
360
44E
  0
DICTIONARY
  5
455
330
3A
100
AcDbDictionary
280
     1
281
     1
  3
ACAD_XREC_ROUNDTRIP
360
456
  0
DICTIONARY
  5
449
330
34
100
AcDbDictionary
280
     1
281
     1
  3
ACAD_XREC_ROUNDTRIP
360
44A
  0
DICTIONARY
  5
44B
330
35
100
AcDbDictionary
280
     1
281
     1
  3
ACAD_XREC_ROUNDTRIP
360
44C
  0
DICTIONARY
  5
45B
330
3D
100
AcDbDictionary
280
     1
281
     1
  3
ACAD_XREC_ROUNDTRIP
360
45C
  0
DICTIONARY
  5
453
330
39
100
AcDbDictionary
280
     1
281
     1
  3
ACAD_XREC_ROUNDTRIP
360
454
  0
DICTIONARY
  5
437
330
2B
100
AcDbDictionary
280
     1
281
     1
  3
ACAD_XREC_ROUNDTRIP
360
438
  0
DICTIONARY
  5
439
330
2C
100
AcDbDictionary
280
     1
281
     1
  3
ACAD_XREC_ROUNDTRIP
360
43A
  0
DICTIONARY
  5
43B
330
2D
100
AcDbDictionary
280
     1
281
     1
  3
ACAD_XREC_ROUNDTRIP
360
43C
  0
DICTIONARY
  5
43D
330
2E
100
AcDbDictionary
280
     1
281
     1
  3
ACAD_XREC_ROUNDTRIP
360
43E
  0
DICTIONARY
  5
443
330
31
100
AcDbDictionary
280
     1
281
     1
  3
ACAD_XREC_ROUNDTRIP
360
444
  0
DICTIONARY
  5
457
330
3B
100
AcDbDictionary
280
     1
281
     1
  3
ACAD_XREC_ROUNDTRIP
360
458
  0
DICTIONARY
  5
451
330
38
100
AcDbDictionary
280
     1
281
     1
  3
ACAD_XREC_ROUNDTRIP
360
452
  0
DICTIONARY
  5
459
330
3C
100
AcDbDictionary
280
     1
281
     1
  3
ACAD_XREC_ROUNDTRIP
360
45A
  0
DICTIONARY
  5
447
330
33
100
AcDbDictionary
280
     1
281
     1
  3
ACAD_XREC_ROUNDTRIP
360
448
  0
DICTIONARY
  5
465
330
42
100
AcDbDictionary
280
     1
281
     1
  3
ACAD_XREC_ROUNDTRIP
360
466
  0
DICTIONARY
  5
463
330
41
100
AcDbDictionary
280
     1
281
     1
  3
ACAD_XREC_ROUNDTRIP
360
464
  0
DICTIONARY
  5
45D
330
3E
100
AcDbDictionary
280
     1
281
     1
  3
ACAD_XREC_ROUNDTRIP
360
45E
  0
DICTIONARY
  5
45F
330
3F
100
AcDbDictionary
280
     1
281
     1
  3
ACAD_XREC_ROUNDTRIP
360
460
  0
DICTIONARY
  5
44F
330
37
100
AcDbDictionary
280
     1
281
     1
  3
ACAD_XREC_ROUNDTRIP
360
450
  0
DICTIONARY
  5
441
330
30
100
AcDbDictionary
280
     1
281
     1
  3
ACAD_XREC_ROUNDTRIP
360
442
  0
DICTIONARY
  5
461
330
40
100
AcDbDictionary
280
     1
281
     1
  3
ACAD_XREC_ROUNDTRIP
360
462
  0
XRECORD
  5
46A
102
{ACAD_REACTORS
330
469
102
}
330
469
100
AcDbXrecord
280
     1
102
MATERIAL
148
0.0
149
0.0
149
0.0
 93
        0
 94
      127
282
     0
 72
     1
 77
     1
171
     1
175
     1
179
     1
273
     0
  0
XRECORD
  5
468
102
{ACAD_REACTORS
330
467
102
}
330
467
100
AcDbXrecord
280
     1
102
MATERIAL
148
0.0
149
0.0
149
0.0
 93
        0
 94
      127
282
     0
 72
     1
 77
     1
171
     1
175
     1
179
     1
273
     0
  0
XRECORD
  5
46C
102
{ACAD_REACTORS
330
46B
102
}
330
46B
100
AcDbXrecord
280
     1
102
MATERIAL
148
0.0
149
0.0
149
0.0
 93
        0
 94
      127
282
     0
 72
     1
 77
     1
171
     1
175
     1
179
     1
273
     0
  0
XRECORD
  5
472
102
{ACAD_REACTORS
330
471
102
}
330
471
100
AcDbXrecord
280
     1
102
ACAD_ROUNDTRIP_2010_MLEADER_STYLE
  0
CELLSTYLEMAP
  5
46F
102
{ACAD_REACTORS
330
46D
102
}
330
46D
100
AcDbCellStyleMap
 90
        3
300
CELLSTYLE
  1
TABLEFORMAT_BEGIN
 90
        5
170
     1
 91
        0
 92
    32768
 62
   257
 93
        1
300
CONTENTFORMAT
  1
CONTENTFORMAT_BEGIN
 90
        0
 91
        0
 92
        4
 93
        0
300

 40
0.0
140
1.0
 94
        5
 62
     0
340
11
144
6.0
309
CONTENTFORMAT_END
171
     1
301
MARGIN
  1
CELLMARGIN_BEGIN
 40
1.5
 40
1.5
 40
1.5
 40
1.5
 40
1.5
 40
1.5
309
CELLMARGIN_END
 94
        6
 95
        1
302
GRIDFORMAT
  1
GRIDFORMAT_BEGIN
 90
        0
 91
        1
 62
     0
 92
       -2
340
14
 93
        0
 40
0.045
309
GRIDFORMAT_END
 95
        2
302
GRIDFORMAT
  1
GRIDFORMAT_BEGIN
 90
        0
 91
        1
 62
     0
 92
       -2
340
14
 93
        0
 40
0.045
309
GRIDFORMAT_END
 95
        4
302
GRIDFORMAT
  1
GRIDFORMAT_BEGIN
 90
        0
 91
        1
 62
     0
 92
       -2
340
14
 93
        0
 40
0.045
309
GRIDFORMAT_END
 95
        8
302
GRIDFORMAT
  1
GRIDFORMAT_BEGIN
 90
        0
 91
        1
 62
     0
 92
       -2
340
14
 93
        0
 40
0.045
309
GRIDFORMAT_END
 95
       16
302
GRIDFORMAT
  1
GRIDFORMAT_BEGIN
 90
        0
 91
        1
 62
     0
 92
       -2
340
14
 93
        0
 40
0.045
309
GRIDFORMAT_END
 95
       32
302
GRIDFORMAT
  1
GRIDFORMAT_BEGIN
 90
        0
 91
        1
 62
     0
 92
       -2
340
14
 93
        0
 40
0.045
309
GRIDFORMAT_END
309
TABLEFORMAT_END
  1
CELLSTYLE_BEGIN
 90
        1
 91
        1
300
_TITLE
309
CELLSTYLE_END
300
CELLSTYLE
  1
TABLEFORMAT_BEGIN
 90
        5
170
     1
 91
        0
 92
        0
 62
   257
 93
        1
300
CONTENTFORMAT
  1
CONTENTFORMAT_BEGIN
 90
        0
 91
        0
 92
        4
 93
        0
300

 40
0.0
140
1.0
 94
        5
 62
     0
340
11
144
4.5
309
CONTENTFORMAT_END
171
     1
301
MARGIN
  1
CELLMARGIN_BEGIN
 40
1.5
 40
1.5
 40
1.5
 40
1.5
 40
1.5
 40
1.5
309
CELLMARGIN_END
 94
        6
 95
        1
302
GRIDFORMAT
  1
GRIDFORMAT_BEGIN
 90
        0
 91
        1
 62
     0
 92
       -2
340
14
 93
        0
 40
0.045
309
GRIDFORMAT_END
 95
        2
302
GRIDFORMAT
  1
GRIDFORMAT_BEGIN
 90
        0
 91
        1
 62
     0
 92
       -2
340
14
 93
        0
 40
0.045
309
GRIDFORMAT_END
 95
        4
302
GRIDFORMAT
  1
GRIDFORMAT_BEGIN
 90
        0
 91
        1
 62
     0
 92
       -2
340
14
 93
        0
 40
0.045
309
GRIDFORMAT_END
 95
        8
302
GRIDFORMAT
  1
GRIDFORMAT_BEGIN
 90
        0
 91
        1
 62
     0
 92
       -2
340
14
 93
        0
 40
0.045
309
GRIDFORMAT_END
 95
       16
302
GRIDFORMAT
  1
GRIDFORMAT_BEGIN
 90
        0
 91
        1
 62
     0
 92
       -2
340
14
 93
        0
 40
0.045
309
GRIDFORMAT_END
 95
       32
302
GRIDFORMAT
  1
GRIDFORMAT_BEGIN
 90
        0
 91
        1
 62
     0
 92
       -2
340
14
 93
        0
 40
0.045
309
GRIDFORMAT_END
309
TABLEFORMAT_END
  1
CELLSTYLE_BEGIN
 90
        2
 91
        1
300
_HEADER
309
CELLSTYLE_END
300
CELLSTYLE
  1
TABLEFORMAT_BEGIN
 90
        5
170
     1
 91
        0
 92
        0
 62
   257
 93
        1
300
CONTENTFORMAT
  1
CONTENTFORMAT_BEGIN
 90
        0
 91
        0
 92
        4
 93
        0
300

 40
0.0
140
1.0
 94
        2
 62
     0
340
11
144
4.5
309
CONTENTFORMAT_END
171
     1
301
MARGIN
  1
CELLMARGIN_BEGIN
 40
1.5
 40
1.5
 40
1.5
 40
1.5
 40
1.5
 40
1.5
309
CELLMARGIN_END
 94
        6
 95
        1
302
GRIDFORMAT
  1
GRIDFORMAT_BEGIN
 90
        0
 91
        1
 62
     0
 92
       -2
340
14
 93
        0
 40
0.045
309
GRIDFORMAT_END
 95
        2
302
GRIDFORMAT
  1
GRIDFORMAT_BEGIN
 90
        0
 91
        1
 62
     0
 92
       -2
340
14
 93
        0
 40
0.045
309
GRIDFORMAT_END
 95
        4
302
GRIDFORMAT
  1
GRIDFORMAT_BEGIN
 90
        0
 91
        1
 62
     0
 92
       -2
340
14
 93
        0
 40
0.045
309
GRIDFORMAT_END
 95
        8
302
GRIDFORMAT
  1
GRIDFORMAT_BEGIN
 90
        0
 91
        1
 62
     0
 92
       -2
340
14
 93
        0
 40
0.045
309
GRIDFORMAT_END
 95
       16
302
GRIDFORMAT
  1
GRIDFORMAT_BEGIN
 90
        0
 91
        1
 62
     0
 92
       -2
340
14
 93
        0
 40
0.045
309
GRIDFORMAT_END
 95
       32
302
GRIDFORMAT
  1
GRIDFORMAT_BEGIN
 90
        0
 91
        1
 62
     0
 92
       -2
340
14
 93
        0
 40
0.045
309
GRIDFORMAT_END
309
TABLEFORMAT_END
  1
CELLSTYLE_BEGIN
 90
        3
 91
        2
300
_DATA
309
CELLSTYLE_END
  0
XRECORD
  5
46E
102
{ACAD_REACTORS
330
46D
102
}
330
46D
100
AcDbXrecord
280
     1
102
ACAD_ROUNDTRIP_PRE2007_TABLESTYLE
 90
        4
 91
        0
  1

 92
        4
 93
        0
  2

 94
        4
 95
        0
  3

  0
XRECORD
  5
440
102
{ACAD_REACTORS
330
43F
102
}
330
43F
100
AcDbXrecord
280
     1
102
RTVSPropertyOp0
 70
     1
102
RTVSPropertyOp1
 70
     1
102
RTVSPropertyOp2
 70
     1
102
RTVSPropertyOp3
 70
     1
102
RTVSPropertyOp4
 70
     1
102
RTVSPropertyOp5
 70
     1
102
RTVSPropertyOp6
 70
     1
102
RTVSPropertyOp7
 70
     1
102
RTVSPropertyOp8
 70
     1
102
RTVSPropertyOp9
 70
     1
102
RTVSPropertyOp10
 70
     1
102
RTVSPropertyOp11
 70
     1
102
RTVSPropertyOp12
 70
     1
102
RTVSPropertyOp13
 70
     1
102
RTVSPropertyOp14
 70
     1
102
RTVSPropertyOp15
 70
     1
102
RTVSPropertyOp16
 70
     1
102
RTVSPropertyOp17
 70
     1
102
RTVSPropertyOp18
 70
     1
102
RTVSPropertyOp19
 70
     1
102
RTVSPropertyOp20
 70
     1
102
RTVSPropertyOp21
 70
     1
102
RTVSPropertyOp22
 70
     1
102
RTVSPropertyOp23
 70
     1
102
RTVSPropertyOp24
 70
     1
102
RTVSPropertyOp25
 70
     1
102
RTVSPropertyOp26
 70
     1
102
RTVSPropertyOp27
 70
     1
102
RTVSPropertyOp28
 70
     1
102
RTVSPropertyOp29
 70
     1
102
RTVSPropertyOp30
 70
     1
102
RTVSPropertyOp31
 70
     1
102
RTVSPropertyOp32
 70
     1
102
RTVSPropertyOp33
 70
     1
102
RTVSPropertyOp34
 70
     1
102
RTVSPropertyOp35
 70
     1
102
RTVSPropertyOp36
 70
     1
102
RTVSPropertyOp37
 70
     1
102
RTVSPropertyOp38
 70
     1
102
RTVSPropertyOp39
 70
     1
102
RTVSPropertyOp40
 70
     1
102
RTVSPropertyOp41
 70
     1
102
RTVSPropertyOp42
 70
     1
102
RTVSPropertyOp43
 70
     1
102
RTVSPropertyOp44
 70
     1
102
RTVSPropertyOp45
 70
     1
102
RTVSPropertyOp46
 70
     1
102
RTVSPropertyOp47
 70
     1
102
RTVSPropertyOp48
 70
     1
102
RTVSPropertyOp49
 70
     1
102
RTVSPropertyOp50
 70
     1
102
RTVSPropertyOp51
 70
     0
102
RTVSPropertyOp52
 70
     0
102
RTVSPropertyOp53
 70
     1
102
RTVSPropertyOp54
 70
     1
102
RTVSPropertyOp55
 70
     1
102
RTVSPropertyOp56
 70
     1
102
RTVSPropertyOp57
 70
     1
102
RTVSPost2010Prop28
280
     1
102
RTVSPost2010PropOp28
 70
     1
102
RTVSPost2010Prop29
280
     1
102
RTVSPost2010PropOp29
 70
     1
102
RTVSPost2010Prop30
280
     0
102
RTVSPost2010PropOp30
 70
     1
102
RTVSPost2010Prop31
280
     0
102
RTVSPost2010PropOp31
 70
     1
102
RTVSPost2010Prop32
280
     0
102
RTVSPost2010PropOp32
 70
     1
102
RTVSPost2010Prop33
280
     0
102
RTVSPost2010PropOp33
 70
     1
102
RTVSPost2010Prop34
280
     0
102
RTVSPost2010PropOp34
 70
     1
102
RTVSPost2010Prop35
280
     0
102
RTVSPost2010PropOp35
 70
     1
102
RTVSPost2010Prop36
280
     0
102
RTVSPost2010PropOp36
 70
     1
102
RTVSPost2010Prop37
 90
       50
102
RTVSPost2010PropOp37
 70
     1
102
RTVSPost2010Prop38
140
0.0
102
RTVSPost2010PropOp38
 70
     1
102
RTVSPost2010Prop39
140
1.0
102
RTVSPost2010PropOp39
 70
     1
102
RTVSPost2010Prop40
 90
        0
102
RTVSPost2010PropOp40
 70
     1
102
RTVSPost2010Prop41ColorIndex
 90
       18
102
RTVSPost2010Prop41ColorRGB
 90
        0
102
RTVSPost2010PropOp41
 70
     1
102
RTVSPost2010Prop42
 90
       50
102
RTVSPost2010PropOp42
 70
     1
102
RTVSPost2010Prop43
 90
        3
102
RTVSPost2010PropOp43
 70
     1
102
RTVSPost2010Prop44ColorIndex
 90
        5
102
RTVSPost2010Prop44ColorRGB
 90
      255
102
RTVSPost2010PropOp44
 70
     1
102
RTVSPost2010Prop45
280
     0
102
RTVSPost2010PropOp45
 70
     1
102
RTVSPost2010Prop46
 90
       50
102
RTVSPost2010PropOp46
 70
     1
102
RTVSPost2010Prop47
 90
       50
102
RTVSPost2010PropOp47
 70
     1
102
RTVSPost2010Prop48
 90
       50
102
RTVSPost2010PropOp48
 70
     1
102
RTVSPost2010Prop49
280
     0
102
RTVSPost2010PropOp49
 70
     1
102
RTVSPost2010Prop50
 90
       50
102
RTVSPost2010PropOp50
 70
     1
102
RTVSPost2010Prop51ColorIndex
 90
      256
102
RTVSPost2010Prop51ColorRGB
 90
-16777216
102
RTVSPost2010PropOp51
 70
     0
102
RTVSPost2010Prop52
140
1.0
102
RTVSPost2010PropOp52
 70
     0
102
RTVSPost2010Prop53
 90
        2
102
RTVSPost2010PropOp53
 70
     1
102
RTVSPost2010Prop54
  1
strokes_ogs.tif
102
RTVSPost2010PropOp54
 70
     1
102
RTVSPost2010Prop55
280
     0
102
RTVSPost2010PropOp55
 70
     1
102
RTVSPost2010Prop56
140
1.0
102
RTVSPost2010PropOp56
 70
     1
102
RTVSPost2010Prop57
140
1.0
102
RTVSPost2010PropOp57
 70
     1
  0
XRECORD
  5
446
102
{ACAD_REACTORS
330
445
102
}
330
445
100
AcDbXrecord
280
     1
102
RTVSPropertyOp0
 70
     1
102
RTVSPropertyOp1
 70
     1
102
RTVSPropertyOp2
 70
     1
102
RTVSPropertyOp3
 70
     1
102
RTVSPropertyOp4
 70
     1
102
RTVSPropertyOp5
 70
     1
102
RTVSPropertyOp6
 70
     1
102
RTVSPropertyOp7
 70
     1
102
RTVSPropertyOp8
 70
     1
102
RTVSPropertyOp9
 70
     1
102
RTVSPropertyOp10
 70
     1
102
RTVSPropertyOp11
 70
     1
102
RTVSPropertyOp12
 70
     1
102
RTVSPropertyOp13
 70
     1
102
RTVSPropertyOp14
 70
     1
102
RTVSPropertyOp15
 70
     1
102
RTVSPropertyOp16
 70
     1
102
RTVSPropertyOp17
 70
     1
102
RTVSPropertyOp18
 70
     1
102
RTVSPropertyOp19
 70
     1
102
RTVSPropertyOp20
 70
     1
102
RTVSPropertyOp21
 70
     1
102
RTVSPropertyOp22
 70
     1
102
RTVSPropertyOp23
 70
     1
102
RTVSPropertyOp24
 70
     1
102
RTVSPropertyOp25
 70
     1
102
RTVSPropertyOp26
 70
     1
102
RTVSPropertyOp27
 70
     1
102
RTVSPropertyOp28
 70
     1
102
RTVSPropertyOp29
 70
     1
102
RTVSPropertyOp30
 70
     1
102
RTVSPropertyOp31
 70
     1
102
RTVSPropertyOp32
 70
     1
102
RTVSPropertyOp33
 70
     1
102
RTVSPropertyOp34
 70
     1
102
RTVSPropertyOp35
 70
     1
102
RTVSPropertyOp36
 70
     1
102
RTVSPropertyOp37
 70
     1
102
RTVSPropertyOp38
 70
     1
102
RTVSPropertyOp39
 70
     1
102
RTVSPropertyOp40
 70
     1
102
RTVSPropertyOp41
 70
     1
102
RTVSPropertyOp42
 70
     1
102
RTVSPropertyOp43
 70
     1
102
RTVSPropertyOp44
 70
     1
102
RTVSPropertyOp45
 70
     1
102
RTVSPropertyOp46
 70
     1
102
RTVSPropertyOp47
 70
     1
102
RTVSPropertyOp48
 70
     1
102
RTVSPropertyOp49
 70
     1
102
RTVSPropertyOp50
 70
     1
102
RTVSPropertyOp51
 70
     0
102
RTVSPropertyOp52
 70
     0
102
RTVSPropertyOp53
 70
     1
102
RTVSPropertyOp54
 70
     1
102
RTVSPropertyOp55
 70
     1
102
RTVSPropertyOp56
 70
     1
102
RTVSPropertyOp57
 70
     1
102
RTVSPost2010Prop28
280
     0
102
RTVSPost2010PropOp28
 70
     1
102
RTVSPost2010Prop29
280
     1
102
RTVSPost2010PropOp29
 70
     1
102
RTVSPost2010Prop30
280
     1
102
RTVSPost2010PropOp30
 70
     1
102
RTVSPost2010Prop31
280
     0
102
RTVSPost2010PropOp31
 70
     1
102
RTVSPost2010Prop32
280
     0
102
RTVSPost2010PropOp32
 70
     1
102
RTVSPost2010Prop33
280
     0
102
RTVSPost2010PropOp33
 70
     1
102
RTVSPost2010Prop34
280
     0
102
RTVSPost2010PropOp34
 70
     1
102
RTVSPost2010Prop35
280
     0
102
RTVSPost2010PropOp35
 70
     1
102
RTVSPost2010Prop36
280
     0
102
RTVSPost2010PropOp36
 70
     1
102
RTVSPost2010Prop37
 90
       50
102
RTVSPost2010PropOp37
 70
     1
102
RTVSPost2010Prop38
140
0.0
102
RTVSPost2010PropOp38
 70
     1
102
RTVSPost2010Prop39
140
1.0
102
RTVSPost2010PropOp39
 70
     1
102
RTVSPost2010Prop40
 90
        0
102
RTVSPost2010PropOp40
 70
     1
102
RTVSPost2010Prop41ColorIndex
 90
       18
102
RTVSPost2010Prop41ColorRGB
 90
        0
102
RTVSPost2010PropOp41
 70
     1
102
RTVSPost2010Prop42
 90
       50
102
RTVSPost2010PropOp42
 70
     1
102
RTVSPost2010Prop43
 90
        3
102
RTVSPost2010PropOp43
 70
     1
102
RTVSPost2010Prop44ColorIndex
 90
        5
102
RTVSPost2010Prop44ColorRGB
 90
      255
102
RTVSPost2010PropOp44
 70
     1
102
RTVSPost2010Prop45
280
     0
102
RTVSPost2010PropOp45
 70
     1
102
RTVSPost2010Prop46
 90
       50
102
RTVSPost2010PropOp46
 70
     1
102
RTVSPost2010Prop47
 90
       50
102
RTVSPost2010PropOp47
 70
     1
102
RTVSPost2010Prop48
 90
       50
102
RTVSPost2010PropOp48
 70
     1
102
RTVSPost2010Prop49
280
     0
102
RTVSPost2010PropOp49
 70
     1
102
RTVSPost2010Prop50
 90
       50
102
RTVSPost2010PropOp50
 70
     1
102
RTVSPost2010Prop51ColorIndex
 90
      256
102
RTVSPost2010Prop51ColorRGB
 90
-16777216
102
RTVSPost2010PropOp51
 70
     0
102
RTVSPost2010Prop52
140
1.0
102
RTVSPost2010PropOp52
 70
     0
102
RTVSPost2010Prop53
 90
        2
102
RTVSPost2010PropOp53
 70
     1
102
RTVSPost2010Prop54
  1
strokes_ogs.tif
102
RTVSPost2010PropOp54
 70
     1
102
RTVSPost2010Prop55
280
     0
102
RTVSPost2010PropOp55
 70
     1
102
RTVSPost2010Prop56
140
1.0
102
RTVSPost2010PropOp56
 70
     1
102
RTVSPost2010Prop57
140
1.0
102
RTVSPost2010PropOp57
 70
     1
  0
XRECORD
  5
44E
102
{ACAD_REACTORS
330
44D
102
}
330
44D
100
AcDbXrecord
280
     1
102
RTVSPropertyOp0
 70
     1
102
RTVSPropertyOp1
 70
     1
102
RTVSPropertyOp2
 70
     1
102
RTVSPropertyOp3
 70
     1
102
RTVSPropertyOp4
 70
     1
102
RTVSPropertyOp5
 70
     1
102
RTVSPropertyOp6
 70
     1
102
RTVSPropertyOp7
 70
     1
102
RTVSPropertyOp8
 70
     1
102
RTVSPropertyOp9
 70
     1
102
RTVSPropertyOp10
 70
     1
102
RTVSPropertyOp11
 70
     1
102
RTVSPropertyOp12
 70
     1
102
RTVSPropertyOp13
 70
     1
102
RTVSPropertyOp14
 70
     1
102
RTVSPropertyOp15
 70
     1
102
RTVSPropertyOp16
 70
     1
102
RTVSPropertyOp17
 70
     1
102
RTVSPropertyOp18
 70
     1
102
RTVSPropertyOp19
 70
     1
102
RTVSPropertyOp20
 70
     1
102
RTVSPropertyOp21
 70
     1
102
RTVSPropertyOp22
 70
     1
102
RTVSPropertyOp23
 70
     1
102
RTVSPropertyOp24
 70
     1
102
RTVSPropertyOp25
 70
     1
102
RTVSPropertyOp26
 70
     1
102
RTVSPropertyOp27
 70
     1
102
RTVSPropertyOp28
 70
     1
102
RTVSPropertyOp29
 70
     1
102
RTVSPropertyOp30
 70
     1
102
RTVSPropertyOp31
 70
     1
102
RTVSPropertyOp32
 70
     1
102
RTVSPropertyOp33
 70
     1
102
RTVSPropertyOp34
 70
     1
102
RTVSPropertyOp35
 70
     1
102
RTVSPropertyOp36
 70
     1
102
RTVSPropertyOp37
 70
     1
102
RTVSPropertyOp38
 70
     1
102
RTVSPropertyOp39
 70
     1
102
RTVSPropertyOp40
 70
     1
102
RTVSPropertyOp41
 70
     1
102
RTVSPropertyOp42
 70
     1
102
RTVSPropertyOp43
 70
     1
102
RTVSPropertyOp44
 70
     1
102
RTVSPropertyOp45
 70
     1
102
RTVSPropertyOp46
 70
     1
102
RTVSPropertyOp47
 70
     1
102
RTVSPropertyOp48
 70
     1
102
RTVSPropertyOp49
 70
     1
102
RTVSPropertyOp50
 70
     1
102
RTVSPropertyOp51
 70
     0
102
RTVSPropertyOp52
 70
     0
102
RTVSPropertyOp53
 70
     1
102
RTVSPropertyOp54
 70
     1
102
RTVSPropertyOp55
 70
     1
102
RTVSPropertyOp56
 70
     1
102
RTVSPropertyOp57
 70
     1
102
RTVSPost2010Prop28
280
     0
102
RTVSPost2010PropOp28
 70
     1
102
RTVSPost2010Prop29
280
     1
102
RTVSPost2010PropOp29
 70
     1
102
RTVSPost2010Prop30
280
     1
102
RTVSPost2010PropOp30
 70
     1
102
RTVSPost2010Prop31
280
     0
102
RTVSPost2010PropOp31
 70
     1
102
RTVSPost2010Prop32
280
     0
102
RTVSPost2010PropOp32
 70
     1
102
RTVSPost2010Prop33
280
     0
102
RTVSPost2010PropOp33
 70
     1
102
RTVSPost2010Prop34
280
     0
102
RTVSPost2010PropOp34
 70
     1
102
RTVSPost2010Prop35
280
     0
102
RTVSPost2010PropOp35
 70
     1
102
RTVSPost2010Prop36
280
     0
102
RTVSPost2010PropOp36
 70
     1
102
RTVSPost2010Prop37
 90
       50
102
RTVSPost2010PropOp37
 70
     1
102
RTVSPost2010Prop38
140
0.0
102
RTVSPost2010PropOp38
 70
     1
102
RTVSPost2010Prop39
140
1.0
102
RTVSPost2010PropOp39
 70
     1
102
RTVSPost2010Prop40
 90
        0
102
RTVSPost2010PropOp40
 70
     1
102
RTVSPost2010Prop41ColorIndex
 90
       18
102
RTVSPost2010Prop41ColorRGB
 90
        0
102
RTVSPost2010PropOp41
 70
     1
102
RTVSPost2010Prop42
 90
       50
102
RTVSPost2010PropOp42
 70
     1
102
RTVSPost2010Prop43
 90
        3
102
RTVSPost2010PropOp43
 70
     1
102
RTVSPost2010Prop44ColorIndex
 90
        5
102
RTVSPost2010Prop44ColorRGB
 90
      255
102
RTVSPost2010PropOp44
 70
     1
102
RTVSPost2010Prop45
280
     0
102
RTVSPost2010PropOp45
 70
     1
102
RTVSPost2010Prop46
 90
       50
102
RTVSPost2010PropOp46
 70
     1
102
RTVSPost2010Prop47
 90
       50
102
RTVSPost2010PropOp47
 70
     1
102
RTVSPost2010Prop48
 90
       50
102
RTVSPost2010PropOp48
 70
     1
102
RTVSPost2010Prop49
280
     0
102
RTVSPost2010PropOp49
 70
     1
102
RTVSPost2010Prop50
 90
       50
102
RTVSPost2010PropOp50
 70
     1
102
RTVSPost2010Prop51ColorIndex
 90
      256
102
RTVSPost2010Prop51ColorRGB
 90
-16777216
102
RTVSPost2010PropOp51
 70
     0
102
RTVSPost2010Prop52
140
1.0
102
RTVSPost2010PropOp52
 70
     0
102
RTVSPost2010Prop53
 90
        2
102
RTVSPost2010PropOp53
 70
     1
102
RTVSPost2010Prop54
  1
strokes_ogs.tif
102
RTVSPost2010PropOp54
 70
     1
102
RTVSPost2010Prop55
280
     0
102
RTVSPost2010PropOp55
 70
     1
102
RTVSPost2010Prop56
140
1.0
102
RTVSPost2010PropOp56
 70
     1
102
RTVSPost2010Prop57
140
1.0
102
RTVSPost2010PropOp57
 70
     1
  0
XRECORD
  5
456
102
{ACAD_REACTORS
330
455
102
}
330
455
100
AcDbXrecord
280
     1
102
RTVSPropertyOp0
 70
     1
102
RTVSPropertyOp1
 70
     1
102
RTVSPropertyOp2
 70
     1
102
RTVSPropertyOp3
 70
     1
102
RTVSPropertyOp4
 70
     1
102
RTVSPropertyOp5
 70
     1
102
RTVSPropertyOp6
 70
     1
102
RTVSPropertyOp7
 70
     1
102
RTVSPropertyOp8
 70
     1
102
RTVSPropertyOp9
 70
     1
102
RTVSPropertyOp10
 70
     1
102
RTVSPropertyOp11
 70
     1
102
RTVSPropertyOp12
 70
     1
102
RTVSPropertyOp13
 70
     1
102
RTVSPropertyOp14
 70
     1
102
RTVSPropertyOp15
 70
     1
102
RTVSPropertyOp16
 70
     1
102
RTVSPropertyOp17
 70
     1
102
RTVSPropertyOp18
 70
     1
102
RTVSPropertyOp19
 70
     1
102
RTVSPropertyOp20
 70
     1
102
RTVSPropertyOp21
 70
     1
102
RTVSPropertyOp22
 70
     1
102
RTVSPropertyOp23
 70
     1
102
RTVSPropertyOp24
 70
     1
102
RTVSPropertyOp25
 70
     1
102
RTVSPropertyOp26
 70
     1
102
RTVSPropertyOp27
 70
     1
102
RTVSPropertyOp28
 70
     1
102
RTVSPropertyOp29
 70
     1
102
RTVSPropertyOp30
 70
     1
102
RTVSPropertyOp31
 70
     1
102
RTVSPropertyOp32
 70
     1
102
RTVSPropertyOp33
 70
     1
102
RTVSPropertyOp34
 70
     1
102
RTVSPropertyOp35
 70
     1
102
RTVSPropertyOp36
 70
     1
102
RTVSPropertyOp37
 70
     1
102
RTVSPropertyOp38
 70
     1
102
RTVSPropertyOp39
 70
     1
102
RTVSPropertyOp40
 70
     1
102
RTVSPropertyOp41
 70
     1
102
RTVSPropertyOp42
 70
     1
102
RTVSPropertyOp43
 70
     1
102
RTVSPropertyOp44
 70
     1
102
RTVSPropertyOp45
 70
     1
102
RTVSPropertyOp46
 70
     1
102
RTVSPropertyOp47
 70
     1
102
RTVSPropertyOp48
 70
     1
102
RTVSPropertyOp49
 70
     1
102
RTVSPropertyOp50
 70
     1
102
RTVSPropertyOp51
 70
     0
102
RTVSPropertyOp52
 70
     0
102
RTVSPropertyOp53
 70
     1
102
RTVSPropertyOp54
 70
     1
102
RTVSPropertyOp55
 70
     1
102
RTVSPropertyOp56
 70
     1
102
RTVSPropertyOp57
 70
     1
102
RTVSPost2010Prop28
280
     0
102
RTVSPost2010PropOp28
 70
     1
102
RTVSPost2010Prop29
280
     1
102
RTVSPost2010PropOp29
 70
     1
102
RTVSPost2010Prop30
280
     1
102
RTVSPost2010PropOp30
 70
     1
102
RTVSPost2010Prop31
280
     0
102
RTVSPost2010PropOp31
 70
     1
102
RTVSPost2010Prop32
280
     0
102
RTVSPost2010PropOp32
 70
     1
102
RTVSPost2010Prop33
280
     0
102
RTVSPost2010PropOp33
 70
     1
102
RTVSPost2010Prop34
280
     0
102
RTVSPost2010PropOp34
 70
     1
102
RTVSPost2010Prop35
280
     0
102
RTVSPost2010PropOp35
 70
     1
102
RTVSPost2010Prop36
280
     0
102
RTVSPost2010PropOp36
 70
     1
102
RTVSPost2010Prop37
 90
       50
102
RTVSPost2010PropOp37
 70
     1
102
RTVSPost2010Prop38
140
0.0
102
RTVSPost2010PropOp38
 70
     1
102
RTVSPost2010Prop39
140
1.0
102
RTVSPost2010PropOp39
 70
     1
102
RTVSPost2010Prop40
 90
        0
102
RTVSPost2010PropOp40
 70
     1
102
RTVSPost2010Prop41ColorIndex
 90
       18
102
RTVSPost2010Prop41ColorRGB
 90
        0
102
RTVSPost2010PropOp41
 70
     1
102
RTVSPost2010Prop42
 90
       50
102
RTVSPost2010PropOp42
 70
     1
102
RTVSPost2010Prop43
 90
        3
102
RTVSPost2010PropOp43
 70
     1
102
RTVSPost2010Prop44ColorIndex
 90
        5
102
RTVSPost2010Prop44ColorRGB
 90
      255
102
RTVSPost2010PropOp44
 70
     1
102
RTVSPost2010Prop45
280
     0
102
RTVSPost2010PropOp45
 70
     1
102
RTVSPost2010Prop46
 90
       50
102
RTVSPost2010PropOp46
 70
     1
102
RTVSPost2010Prop47
 90
       50
102
RTVSPost2010PropOp47
 70
     1
102
RTVSPost2010Prop48
 90
       50
102
RTVSPost2010PropOp48
 70
     1
102
RTVSPost2010Prop49
280
     0
102
RTVSPost2010PropOp49
 70
     1
102
RTVSPost2010Prop50
 90
       50
102
RTVSPost2010PropOp50
 70
     1
102
RTVSPost2010Prop51ColorIndex
 90
      256
102
RTVSPost2010Prop51ColorRGB
 90
-16777216
102
RTVSPost2010PropOp51
 70
     0
102
RTVSPost2010Prop52
140
1.0
102
RTVSPost2010PropOp52
 70
     0
102
RTVSPost2010Prop53
 90
        2
102
RTVSPost2010PropOp53
 70
     1
102
RTVSPost2010Prop54
  1
strokes_ogs.tif
102
RTVSPost2010PropOp54
 70
     1
102
RTVSPost2010Prop55
280
     0
102
RTVSPost2010PropOp55
 70
     1
102
RTVSPost2010Prop56
140
1.0
102
RTVSPost2010PropOp56
 70
     1
102
RTVSPost2010Prop57
140
1.0
102
RTVSPost2010PropOp57
 70
     1
  0
XRECORD
  5
44A
102
{ACAD_REACTORS
330
449
102
}
330
449
100
AcDbXrecord
280
     1
102
RTVSPropertyOp0
 70
     1
102
RTVSPropertyOp1
 70
     1
102
RTVSPropertyOp2
 70
     1
102
RTVSPropertyOp3
 70
     1
102
RTVSPropertyOp4
 70
     1
102
RTVSPropertyOp5
 70
     1
102
RTVSPropertyOp6
 70
     1
102
RTVSPropertyOp7
 70
     1
102
RTVSPropertyOp8
 70
     1
102
RTVSPropertyOp9
 70
     1
102
RTVSPropertyOp10
 70
     1
102
RTVSPropertyOp11
 70
     1
102
RTVSPropertyOp12
 70
     1
102
RTVSPropertyOp13
 70
     1
102
RTVSPropertyOp14
 70
     1
102
RTVSPropertyOp15
 70
     1
102
RTVSPropertyOp16
 70
     1
102
RTVSPropertyOp17
 70
     1
102
RTVSPropertyOp18
 70
     1
102
RTVSPropertyOp19
 70
     1
102
RTVSPropertyOp20
 70
     1
102
RTVSPropertyOp21
 70
     1
102
RTVSPropertyOp22
 70
     1
102
RTVSPropertyOp23
 70
     1
102
RTVSPropertyOp24
 70
     1
102
RTVSPropertyOp25
 70
     1
102
RTVSPropertyOp26
 70
     1
102
RTVSPropertyOp27
 70
     1
102
RTVSPropertyOp28
 70
     1
102
RTVSPropertyOp29
 70
     1
102
RTVSPropertyOp30
 70
     1
102
RTVSPropertyOp31
 70
     1
102
RTVSPropertyOp32
 70
     1
102
RTVSPropertyOp33
 70
     1
102
RTVSPropertyOp34
 70
     1
102
RTVSPropertyOp35
 70
     1
102
RTVSPropertyOp36
 70
     1
102
RTVSPropertyOp37
 70
     1
102
RTVSPropertyOp38
 70
     1
102
RTVSPropertyOp39
 70
     1
102
RTVSPropertyOp40
 70
     1
102
RTVSPropertyOp41
 70
     1
102
RTVSPropertyOp42
 70
     1
102
RTVSPropertyOp43
 70
     1
102
RTVSPropertyOp44
 70
     1
102
RTVSPropertyOp45
 70
     1
102
RTVSPropertyOp46
 70
     1
102
RTVSPropertyOp47
 70
     1
102
RTVSPropertyOp48
 70
     1
102
RTVSPropertyOp49
 70
     1
102
RTVSPropertyOp50
 70
     1
102
RTVSPropertyOp51
 70
     0
102
RTVSPropertyOp52
 70
     0
102
RTVSPropertyOp53
 70
     1
102
RTVSPropertyOp54
 70
     1
102
RTVSPropertyOp55
 70
     1
102
RTVSPropertyOp56
 70
     1
102
RTVSPropertyOp57
 70
     1
102
RTVSPost2010Prop28
280
     0
102
RTVSPost2010PropOp28
 70
     1
102
RTVSPost2010Prop29
280
     1
102
RTVSPost2010PropOp29
 70
     1
102
RTVSPost2010Prop30
280
     1
102
RTVSPost2010PropOp30
 70
     1
102
RTVSPost2010Prop31
280
     0
102
RTVSPost2010PropOp31
 70
     1
102
RTVSPost2010Prop32
280
     0
102
RTVSPost2010PropOp32
 70
     1
102
RTVSPost2010Prop33
280
     0
102
RTVSPost2010PropOp33
 70
     1
102
RTVSPost2010Prop34
280
     0
102
RTVSPost2010PropOp34
 70
     1
102
RTVSPost2010Prop35
280
     0
102
RTVSPost2010PropOp35
 70
     1
102
RTVSPost2010Prop36
280
     0
102
RTVSPost2010PropOp36
 70
     1
102
RTVSPost2010Prop37
 90
       50
102
RTVSPost2010PropOp37
 70
     1
102
RTVSPost2010Prop38
140
0.0
102
RTVSPost2010PropOp38
 70
     1
102
RTVSPost2010Prop39
140
1.0
102
RTVSPost2010PropOp39
 70
     1
102
RTVSPost2010Prop40
 90
        0
102
RTVSPost2010PropOp40
 70
     1
102
RTVSPost2010Prop41ColorIndex
 90
       18
102
RTVSPost2010Prop41ColorRGB
 90
        0
102
RTVSPost2010PropOp41
 70
     1
102
RTVSPost2010Prop42
 90
       50
102
RTVSPost2010PropOp42
 70
     1
102
RTVSPost2010Prop43
 90
        3
102
RTVSPost2010PropOp43
 70
     1
102
RTVSPost2010Prop44ColorIndex
 90
        5
102
RTVSPost2010Prop44ColorRGB
 90
      255
102
RTVSPost2010PropOp44
 70
     1
102
RTVSPost2010Prop45
280
     0
102
RTVSPost2010PropOp45
 70
     1
102
RTVSPost2010Prop46
 90
       50
102
RTVSPost2010PropOp46
 70
     1
102
RTVSPost2010Prop47
 90
       50
102
RTVSPost2010PropOp47
 70
     1
102
RTVSPost2010Prop48
 90
       50
102
RTVSPost2010PropOp48
 70
     1
102
RTVSPost2010Prop49
280
     0
102
RTVSPost2010PropOp49
 70
     1
102
RTVSPost2010Prop50
 90
       50
102
RTVSPost2010PropOp50
 70
     1
102
RTVSPost2010Prop51ColorIndex
 90
      256
102
RTVSPost2010Prop51ColorRGB
 90
-16777216
102
RTVSPost2010PropOp51
 70
     0
102
RTVSPost2010Prop52
140
1.0
102
RTVSPost2010PropOp52
 70
     0
102
RTVSPost2010Prop53
 90
        2
102
RTVSPost2010PropOp53
 70
     1
102
RTVSPost2010Prop54
  1
strokes_ogs.tif
102
RTVSPost2010PropOp54
 70
     1
102
RTVSPost2010Prop55
280
     0
102
RTVSPost2010PropOp55
 70
     1
102
RTVSPost2010Prop56
140
1.0
102
RTVSPost2010PropOp56
 70
     1
102
RTVSPost2010Prop57
140
1.0
102
RTVSPost2010PropOp57
 70
     1
  0
XRECORD
  5
44C
102
{ACAD_REACTORS
330
44B
102
}
330
44B
100
AcDbXrecord
280
     1
102
RTVSPropertyOp0
 70
     1
102
RTVSPropertyOp1
 70
     1
102
RTVSPropertyOp2
 70
     1
102
RTVSPropertyOp3
 70
     1
102
RTVSPropertyOp4
 70
     1
102
RTVSPropertyOp5
 70
     1
102
RTVSPropertyOp6
 70
     1
102
RTVSPropertyOp7
 70
     1
102
RTVSPropertyOp8
 70
     1
102
RTVSPropertyOp9
 70
     1
102
RTVSPropertyOp10
 70
     1
102
RTVSPropertyOp11
 70
     1
102
RTVSPropertyOp12
 70
     1
102
RTVSPropertyOp13
 70
     1
102
RTVSPropertyOp14
 70
     1
102
RTVSPropertyOp15
 70
     1
102
RTVSPropertyOp16
 70
     1
102
RTVSPropertyOp17
 70
     1
102
RTVSPropertyOp18
 70
     1
102
RTVSPropertyOp19
 70
     1
102
RTVSPropertyOp20
 70
     1
102
RTVSPropertyOp21
 70
     1
102
RTVSPropertyOp22
 70
     1
102
RTVSPropertyOp23
 70
     1
102
RTVSPropertyOp24
 70
     1
102
RTVSPropertyOp25
 70
     1
102
RTVSPropertyOp26
 70
     1
102
RTVSPropertyOp27
 70
     1
102
RTVSPropertyOp28
 70
     1
102
RTVSPropertyOp29
 70
     1
102
RTVSPropertyOp30
 70
     1
102
RTVSPropertyOp31
 70
     1
102
RTVSPropertyOp32
 70
     1
102
RTVSPropertyOp33
 70
     1
102
RTVSPropertyOp34
 70
     1
102
RTVSPropertyOp35
 70
     1
102
RTVSPropertyOp36
 70
     1
102
RTVSPropertyOp37
 70
     1
102
RTVSPropertyOp38
 70
     1
102
RTVSPropertyOp39
 70
     1
102
RTVSPropertyOp40
 70
     1
102
RTVSPropertyOp41
 70
     1
102
RTVSPropertyOp42
 70
     1
102
RTVSPropertyOp43
 70
     1
102
RTVSPropertyOp44
 70
     1
102
RTVSPropertyOp45
 70
     1
102
RTVSPropertyOp46
 70
     1
102
RTVSPropertyOp47
 70
     1
102
RTVSPropertyOp48
 70
     1
102
RTVSPropertyOp49
 70
     1
102
RTVSPropertyOp50
 70
     1
102
RTVSPropertyOp51
 70
     0
102
RTVSPropertyOp52
 70
     0
102
RTVSPropertyOp53
 70
     1
102
RTVSPropertyOp54
 70
     1
102
RTVSPropertyOp55
 70
     1
102
RTVSPropertyOp56
 70
     1
102
RTVSPropertyOp57
 70
     1
102
RTVSPost2010Prop28
280
     0
102
RTVSPost2010PropOp28
 70
     1
102
RTVSPost2010Prop29
280
     1
102
RTVSPost2010PropOp29
 70
     1
102
RTVSPost2010Prop30
280
     1
102
RTVSPost2010PropOp30
 70
     1
102
RTVSPost2010Prop31
280
     0
102
RTVSPost2010PropOp31
 70
     1
102
RTVSPost2010Prop32
280
     0
102
RTVSPost2010PropOp32
 70
     1
102
RTVSPost2010Prop33
280
     0
102
RTVSPost2010PropOp33
 70
     1
102
RTVSPost2010Prop34
280
     0
102
RTVSPost2010PropOp34
 70
     1
102
RTVSPost2010Prop35
280
     0
102
RTVSPost2010PropOp35
 70
     1
102
RTVSPost2010Prop36
280
     0
102
RTVSPost2010PropOp36
 70
     1
102
RTVSPost2010Prop37
 90
       50
102
RTVSPost2010PropOp37
 70
     1
102
RTVSPost2010Prop38
140
0.0
102
RTVSPost2010PropOp38
 70
     1
102
RTVSPost2010Prop39
140
1.0
102
RTVSPost2010PropOp39
 70
     1
102
RTVSPost2010Prop40
 90
        0
102
RTVSPost2010PropOp40
 70
     1
102
RTVSPost2010Prop41ColorIndex
 90
       18
102
RTVSPost2010Prop41ColorRGB
 90
        0
102
RTVSPost2010PropOp41
 70
     1
102
RTVSPost2010Prop42
 90
       50
102
RTVSPost2010PropOp42
 70
     1
102
RTVSPost2010Prop43
 90
        3
102
RTVSPost2010PropOp43
 70
     1
102
RTVSPost2010Prop44ColorIndex
 90
        5
102
RTVSPost2010Prop44ColorRGB
 90
      255
102
RTVSPost2010PropOp44
 70
     1
102
RTVSPost2010Prop45
280
     0
102
RTVSPost2010PropOp45
 70
     1
102
RTVSPost2010Prop46
 90
       50
102
RTVSPost2010PropOp46
 70
     1
102
RTVSPost2010Prop47
 90
       50
102
RTVSPost2010PropOp47
 70
     1
102
RTVSPost2010Prop48
 90
       50
102
RTVSPost2010PropOp48
 70
     1
102
RTVSPost2010Prop49
280
     0
102
RTVSPost2010PropOp49
 70
     1
102
RTVSPost2010Prop50
 90
       50
102
RTVSPost2010PropOp50
 70
     1
102
RTVSPost2010Prop51ColorIndex
 90
      256
102
RTVSPost2010Prop51ColorRGB
 90
-16777216
102
RTVSPost2010PropOp51
 70
     0
102
RTVSPost2010Prop52
140
1.0
102
RTVSPost2010PropOp52
 70
     0
102
RTVSPost2010Prop53
 90
        2
102
RTVSPost2010PropOp53
 70
     1
102
RTVSPost2010Prop54
  1
strokes_ogs.tif
102
RTVSPost2010PropOp54
 70
     1
102
RTVSPost2010Prop55
280
     0
102
RTVSPost2010PropOp55
 70
     1
102
RTVSPost2010Prop56
140
1.0
102
RTVSPost2010PropOp56
 70
     1
102
RTVSPost2010Prop57
140
1.0
102
RTVSPost2010PropOp57
 70
     1
  0
XRECORD
  5
45C
102
{ACAD_REACTORS
330
45B
102
}
330
45B
100
AcDbXrecord
280
     1
102
RTVSPropertyOp0
 70
     0
102
RTVSPropertyOp1
 70
     0
102
RTVSPropertyOp2
 70
     0
102
RTVSPropertyOp3
 70
     0
102
RTVSPropertyOp4
 70
     0
102
RTVSPropertyOp5
 70
     0
102
RTVSPropertyOp6
 70
     0
102
RTVSPropertyOp7
 70
     0
102
RTVSPropertyOp8
 70
     0
102
RTVSPropertyOp9
 70
     0
102
RTVSPropertyOp10
 70
     0
102
RTVSPropertyOp11
 70
     0
102
RTVSPropertyOp12
 70
     0
102
RTVSPropertyOp13
 70
     0
102
RTVSPropertyOp14
 70
     2
102
RTVSPropertyOp15
 70
     0
102
RTVSPropertyOp16
 70
     0
102
RTVSPropertyOp17
 70
     0
102
RTVSPropertyOp18
 70
     0
102
RTVSPropertyOp19
 70
     0
102
RTVSPropertyOp20
 70
     0
102
RTVSPropertyOp21
 70
     0
102
RTVSPropertyOp22
 70
     0
102
RTVSPropertyOp23
 70
     0
102
RTVSPropertyOp24
 70
     0
102
RTVSPropertyOp25
 70
     0
102
RTVSPropertyOp26
 70
     0
102
RTVSPropertyOp27
 70
     0
102
RTVSPropertyOp28
 70
     0
102
RTVSPropertyOp29
 70
     0
102
RTVSPropertyOp30
 70
     0
102
RTVSPropertyOp31
 70
     0
102
RTVSPropertyOp32
 70
     0
102
RTVSPropertyOp33
 70
     0
102
RTVSPropertyOp34
 70
     0
102
RTVSPropertyOp35
 70
     0
102
RTVSPropertyOp36
 70
     0
102
RTVSPropertyOp37
 70
     0
102
RTVSPropertyOp38
 70
     0
102
RTVSPropertyOp39
 70
     0
102
RTVSPropertyOp40
 70
     0
102
RTVSPropertyOp41
 70
     0
102
RTVSPropertyOp42
 70
     0
102
RTVSPropertyOp43
 70
     0
102
RTVSPropertyOp44
 70
     0
102
RTVSPropertyOp45
 70
     0
102
RTVSPropertyOp46
 70
     0
102
RTVSPropertyOp47
 70
     0
102
RTVSPropertyOp48
 70
     0
102
RTVSPropertyOp49
 70
     0
102
RTVSPropertyOp50
 70
     0
102
RTVSPropertyOp51
 70
     0
102
RTVSPropertyOp52
 70
     0
102
RTVSPropertyOp53
 70
     0
102
RTVSPropertyOp54
 70
     0
102
RTVSPropertyOp55
 70
     0
102
RTVSPropertyOp56
 70
     0
102
RTVSPropertyOp57
 70
     0
102
RTVSPost2010Prop28
280
     0
102
RTVSPost2010PropOp28
 70
     0
102
RTVSPost2010Prop29
280
     1
102
RTVSPost2010PropOp29
 70
     0
102
RTVSPost2010Prop30
280
     1
102
RTVSPost2010PropOp30
 70
     0
102
RTVSPost2010Prop31
280
     0
102
RTVSPost2010PropOp31
 70
     0
102
RTVSPost2010Prop32
280
     0
102
RTVSPost2010PropOp32
 70
     0
102
RTVSPost2010Prop33
280
     0
102
RTVSPost2010PropOp33
 70
     0
102
RTVSPost2010Prop34
280
     0
102
RTVSPost2010PropOp34
 70
     0
102
RTVSPost2010Prop35
280
     0
102
RTVSPost2010PropOp35
 70
     0
102
RTVSPost2010Prop36
280
     0
102
RTVSPost2010PropOp36
 70
     0
102
RTVSPost2010Prop37
 90
       50
102
RTVSPost2010PropOp37
 70
     0
102
RTVSPost2010Prop38
140
0.0
102
RTVSPost2010PropOp38
 70
     0
102
RTVSPost2010Prop39
140
1.0
102
RTVSPost2010PropOp39
 70
     0
102
RTVSPost2010Prop40
 90
        0
102
RTVSPost2010PropOp40
 70
     0
102
RTVSPost2010Prop41ColorIndex
 90
       18
102
RTVSPost2010Prop41ColorRGB
 90
        0
102
RTVSPost2010PropOp41
 70
     0
102
RTVSPost2010Prop42
 90
       50
102
RTVSPost2010PropOp42
 70
     0
102
RTVSPost2010Prop43
 90
        3
102
RTVSPost2010PropOp43
 70
     0
102
RTVSPost2010Prop44ColorIndex
 90
        5
102
RTVSPost2010Prop44ColorRGB
 90
      255
102
RTVSPost2010PropOp44
 70
     0
102
RTVSPost2010Prop45
280
     0
102
RTVSPost2010PropOp45
 70
     0
102
RTVSPost2010Prop46
 90
       50
102
RTVSPost2010PropOp46
 70
     0
102
RTVSPost2010Prop47
 90
       50
102
RTVSPost2010PropOp47
 70
     0
102
RTVSPost2010Prop48
 90
       50
102
RTVSPost2010PropOp48
 70
     0
102
RTVSPost2010Prop49
280
     0
102
RTVSPost2010PropOp49
 70
     0
102
RTVSPost2010Prop50
 90
       50
102
RTVSPost2010PropOp50
 70
     0
102
RTVSPost2010Prop51ColorIndex
 90
      256
102
RTVSPost2010Prop51ColorRGB
 90
-16777216
102
RTVSPost2010PropOp51
 70
     0
102
RTVSPost2010Prop52
140
1.0
102
RTVSPost2010PropOp52
 70
     0
102
RTVSPost2010Prop53
 90
        2
102
RTVSPost2010PropOp53
 70
     0
102
RTVSPost2010Prop54
  1
strokes_ogs.tif
102
RTVSPost2010PropOp54
 70
     0
102
RTVSPost2010Prop55
280
     0
102
RTVSPost2010PropOp55
 70
     0
102
RTVSPost2010Prop56
140
1.0
102
RTVSPost2010PropOp56
 70
     0
102
RTVSPost2010Prop57
140
1.0
102
RTVSPost2010PropOp57
 70
     0
  0
XRECORD
  5
454
102
{ACAD_REACTORS
330
453
102
}
330
453
100
AcDbXrecord
280
     1
102
RTVSPropertyOp0
 70
     1
102
RTVSPropertyOp1
 70
     1
102
RTVSPropertyOp2
 70
     1
102
RTVSPropertyOp3
 70
     1
102
RTVSPropertyOp4
 70
     1
102
RTVSPropertyOp5
 70
     1
102
RTVSPropertyOp6
 70
     1
102
RTVSPropertyOp7
 70
     1
102
RTVSPropertyOp8
 70
     1
102
RTVSPropertyOp9
 70
     1
102
RTVSPropertyOp10
 70
     1
102
RTVSPropertyOp11
 70
     1
102
RTVSPropertyOp12
 70
     1
102
RTVSPropertyOp13
 70
     1
102
RTVSPropertyOp14
 70
     1
102
RTVSPropertyOp15
 70
     1
102
RTVSPropertyOp16
 70
     1
102
RTVSPropertyOp17
 70
     1
102
RTVSPropertyOp18
 70
     1
102
RTVSPropertyOp19
 70
     1
102
RTVSPropertyOp20
 70
     1
102
RTVSPropertyOp21
 70
     1
102
RTVSPropertyOp22
 70
     1
102
RTVSPropertyOp23
 70
     1
102
RTVSPropertyOp24
 70
     1
102
RTVSPropertyOp25
 70
     1
102
RTVSPropertyOp26
 70
     1
102
RTVSPropertyOp27
 70
     1
102
RTVSPropertyOp28
 70
     1
102
RTVSPropertyOp29
 70
     1
102
RTVSPropertyOp30
 70
     1
102
RTVSPropertyOp31
 70
     1
102
RTVSPropertyOp32
 70
     1
102
RTVSPropertyOp33
 70
     1
102
RTVSPropertyOp34
 70
     1
102
RTVSPropertyOp35
 70
     1
102
RTVSPropertyOp36
 70
     1
102
RTVSPropertyOp37
 70
     1
102
RTVSPropertyOp38
 70
     1
102
RTVSPropertyOp39
 70
     1
102
RTVSPropertyOp40
 70
     1
102
RTVSPropertyOp41
 70
     1
102
RTVSPropertyOp42
 70
     1
102
RTVSPropertyOp43
 70
     1
102
RTVSPropertyOp44
 70
     1
102
RTVSPropertyOp45
 70
     1
102
RTVSPropertyOp46
 70
     1
102
RTVSPropertyOp47
 70
     1
102
RTVSPropertyOp48
 70
     1
102
RTVSPropertyOp49
 70
     1
102
RTVSPropertyOp50
 70
     1
102
RTVSPropertyOp51
 70
     0
102
RTVSPropertyOp52
 70
     0
102
RTVSPropertyOp53
 70
     1
102
RTVSPropertyOp54
 70
     1
102
RTVSPropertyOp55
 70
     1
102
RTVSPropertyOp56
 70
     1
102
RTVSPropertyOp57
 70
     1
102
RTVSPost2010Prop28
280
     0
102
RTVSPost2010PropOp28
 70
     1
102
RTVSPost2010Prop29
280
     1
102
RTVSPost2010PropOp29
 70
     1
102
RTVSPost2010Prop30
280
     1
102
RTVSPost2010PropOp30
 70
     1
102
RTVSPost2010Prop31
280
     0
102
RTVSPost2010PropOp31
 70
     1
102
RTVSPost2010Prop32
280
     0
102
RTVSPost2010PropOp32
 70
     1
102
RTVSPost2010Prop33
280
     0
102
RTVSPost2010PropOp33
 70
     1
102
RTVSPost2010Prop34
280
     0
102
RTVSPost2010PropOp34
 70
     1
102
RTVSPost2010Prop35
280
     0
102
RTVSPost2010PropOp35
 70
     1
102
RTVSPost2010Prop36
280
     0
102
RTVSPost2010PropOp36
 70
     1
102
RTVSPost2010Prop37
 90
       50
102
RTVSPost2010PropOp37
 70
     1
102
RTVSPost2010Prop38
140
0.0
102
RTVSPost2010PropOp38
 70
     1
102
RTVSPost2010Prop39
140
1.0
102
RTVSPost2010PropOp39
 70
     1
102
RTVSPost2010Prop40
 90
        0
102
RTVSPost2010PropOp40
 70
     1
102
RTVSPost2010Prop41ColorIndex
 90
       18
102
RTVSPost2010Prop41ColorRGB
 90
        0
102
RTVSPost2010PropOp41
 70
     1
102
RTVSPost2010Prop42
 90
       50
102
RTVSPost2010PropOp42
 70
     1
102
RTVSPost2010Prop43
 90
        3
102
RTVSPost2010PropOp43
 70
     1
102
RTVSPost2010Prop44ColorIndex
 90
        5
102
RTVSPost2010Prop44ColorRGB
 90
      255
102
RTVSPost2010PropOp44
 70
     1
102
RTVSPost2010Prop45
280
     0
102
RTVSPost2010PropOp45
 70
     1
102
RTVSPost2010Prop46
 90
       50
102
RTVSPost2010PropOp46
 70
     1
102
RTVSPost2010Prop47
 90
       50
102
RTVSPost2010PropOp47
 70
     1
102
RTVSPost2010Prop48
 90
       50
102
RTVSPost2010PropOp48
 70
     1
102
RTVSPost2010Prop49
280
     0
102
RTVSPost2010PropOp49
 70
     1
102
RTVSPost2010Prop50
 90
       50
102
RTVSPost2010PropOp50
 70
     1
102
RTVSPost2010Prop51ColorIndex
 90
      256
102
RTVSPost2010Prop51ColorRGB
 90
-16777216
102
RTVSPost2010PropOp51
 70
     0
102
RTVSPost2010Prop52
140
1.0
102
RTVSPost2010PropOp52
 70
     0
102
RTVSPost2010Prop53
 90
        2
102
RTVSPost2010PropOp53
 70
     1
102
RTVSPost2010Prop54
  1
strokes_ogs.tif
102
RTVSPost2010PropOp54
 70
     1
102
RTVSPost2010Prop55
280
     0
102
RTVSPost2010PropOp55
 70
     1
102
RTVSPost2010Prop56
140
1.0
102
RTVSPost2010PropOp56
 70
     1
102
RTVSPost2010Prop57
140
1.0
102
RTVSPost2010PropOp57
 70
     1
  0
XRECORD
  5
438
102
{ACAD_REACTORS
330
437
102
}
330
437
100
AcDbXrecord
280
     1
102
RTVSPropertyOp0
 70
     1
102
RTVSPropertyOp1
 70
     1
102
RTVSPropertyOp2
 70
     1
102
RTVSPropertyOp3
 70
     1
102
RTVSPropertyOp4
 70
     1
102
RTVSPropertyOp5
 70
     1
102
RTVSPropertyOp6
 70
     1
102
RTVSPropertyOp7
 70
     1
102
RTVSPropertyOp8
 70
     1
102
RTVSPropertyOp9
 70
     1
102
RTVSPropertyOp10
 70
     1
102
RTVSPropertyOp11
 70
     1
102
RTVSPropertyOp12
 70
     1
102
RTVSPropertyOp13
 70
     1
102
RTVSPropertyOp14
 70
     1
102
RTVSPropertyOp15
 70
     1
102
RTVSPropertyOp16
 70
     1
102
RTVSPropertyOp17
 70
     1
102
RTVSPropertyOp18
 70
     1
102
RTVSPropertyOp19
 70
     1
102
RTVSPropertyOp20
 70
     1
102
RTVSPropertyOp21
 70
     1
102
RTVSPropertyOp22
 70
     1
102
RTVSPropertyOp23
 70
     1
102
RTVSPropertyOp24
 70
     1
102
RTVSPropertyOp25
 70
     1
102
RTVSPropertyOp26
 70
     1
102
RTVSPropertyOp27
 70
     1
102
RTVSPropertyOp28
 70
     1
102
RTVSPropertyOp29
 70
     1
102
RTVSPropertyOp30
 70
     1
102
RTVSPropertyOp31
 70
     1
102
RTVSPropertyOp32
 70
     1
102
RTVSPropertyOp33
 70
     1
102
RTVSPropertyOp34
 70
     1
102
RTVSPropertyOp35
 70
     1
102
RTVSPropertyOp36
 70
     1
102
RTVSPropertyOp37
 70
     1
102
RTVSPropertyOp38
 70
     1
102
RTVSPropertyOp39
 70
     1
102
RTVSPropertyOp40
 70
     1
102
RTVSPropertyOp41
 70
     1
102
RTVSPropertyOp42
 70
     1
102
RTVSPropertyOp43
 70
     1
102
RTVSPropertyOp44
 70
     1
102
RTVSPropertyOp45
 70
     1
102
RTVSPropertyOp46
 70
     1
102
RTVSPropertyOp47
 70
     1
102
RTVSPropertyOp48
 70
     1
102
RTVSPropertyOp49
 70
     1
102
RTVSPropertyOp50
 70
     1
102
RTVSPropertyOp51
 70
     0
102
RTVSPropertyOp52
 70
     0
102
RTVSPropertyOp53
 70
     1
102
RTVSPropertyOp54
 70
     1
102
RTVSPropertyOp55
 70
     1
102
RTVSPropertyOp56
 70
     1
102
RTVSPropertyOp57
 70
     1
102
RTVSPost2010Prop28
280
     0
102
RTVSPost2010PropOp28
 70
     1
102
RTVSPost2010Prop29
280
     1
102
RTVSPost2010PropOp29
 70
     1
102
RTVSPost2010Prop30
280
     1
102
RTVSPost2010PropOp30
 70
     1
102
RTVSPost2010Prop31
280
     0
102
RTVSPost2010PropOp31
 70
     1
102
RTVSPost2010Prop32
280
     0
102
RTVSPost2010PropOp32
 70
     1
102
RTVSPost2010Prop33
280
     0
102
RTVSPost2010PropOp33
 70
     1
102
RTVSPost2010Prop34
280
     0
102
RTVSPost2010PropOp34
 70
     1
102
RTVSPost2010Prop35
280
     0
102
RTVSPost2010PropOp35
 70
     1
102
RTVSPost2010Prop36
280
     0
102
RTVSPost2010PropOp36
 70
     1
102
RTVSPost2010Prop37
 90
       50
102
RTVSPost2010PropOp37
 70
     1
102
RTVSPost2010Prop38
140
0.0
102
RTVSPost2010PropOp38
 70
     1
102
RTVSPost2010Prop39
140
1.0
102
RTVSPost2010PropOp39
 70
     1
102
RTVSPost2010Prop40
 90
        0
102
RTVSPost2010PropOp40
 70
     1
102
RTVSPost2010Prop41ColorIndex
 90
       18
102
RTVSPost2010Prop41ColorRGB
 90
        0
102
RTVSPost2010PropOp41
 70
     1
102
RTVSPost2010Prop42
 90
       50
102
RTVSPost2010PropOp42
 70
     1
102
RTVSPost2010Prop43
 90
        3
102
RTVSPost2010PropOp43
 70
     1
102
RTVSPost2010Prop44ColorIndex
 90
        5
102
RTVSPost2010Prop44ColorRGB
 90
      255
102
RTVSPost2010PropOp44
 70
     1
102
RTVSPost2010Prop45
280
     0
102
RTVSPost2010PropOp45
 70
     1
102
RTVSPost2010Prop46
 90
       50
102
RTVSPost2010PropOp46
 70
     1
102
RTVSPost2010Prop47
 90
       50
102
RTVSPost2010PropOp47
 70
     1
102
RTVSPost2010Prop48
 90
       50
102
RTVSPost2010PropOp48
 70
     1
102
RTVSPost2010Prop49
280
     0
102
RTVSPost2010PropOp49
 70
     1
102
RTVSPost2010Prop50
 90
       50
102
RTVSPost2010PropOp50
 70
     1
102
RTVSPost2010Prop51ColorIndex
 90
      256
102
RTVSPost2010Prop51ColorRGB
 90
-16777216
102
RTVSPost2010PropOp51
 70
     0
102
RTVSPost2010Prop52
140
1.0
102
RTVSPost2010PropOp52
 70
     0
102
RTVSPost2010Prop53
 90
        2
102
RTVSPost2010PropOp53
 70
     1
102
RTVSPost2010Prop54
  1
strokes_ogs.tif
102
RTVSPost2010PropOp54
 70
     1
102
RTVSPost2010Prop55
280
     0
102
RTVSPost2010PropOp55
 70
     1
102
RTVSPost2010Prop56
140
1.0
102
RTVSPost2010PropOp56
 70
     1
102
RTVSPost2010Prop57
140
1.0
102
RTVSPost2010PropOp57
 70
     1
  0
XRECORD
  5
43A
102
{ACAD_REACTORS
330
439
102
}
330
439
100
AcDbXrecord
280
     1
102
RTVSPropertyOp0
 70
     1
102
RTVSPropertyOp1
 70
     1
102
RTVSPropertyOp2
 70
     1
102
RTVSPropertyOp3
 70
     1
102
RTVSPropertyOp4
 70
     1
102
RTVSPropertyOp5
 70
     1
102
RTVSPropertyOp6
 70
     1
102
RTVSPropertyOp7
 70
     1
102
RTVSPropertyOp8
 70
     1
102
RTVSPropertyOp9
 70
     1
102
RTVSPropertyOp10
 70
     1
102
RTVSPropertyOp11
 70
     1
102
RTVSPropertyOp12
 70
     1
102
RTVSPropertyOp13
 70
     1
102
RTVSPropertyOp14
 70
     1
102
RTVSPropertyOp15
 70
     1
102
RTVSPropertyOp16
 70
     1
102
RTVSPropertyOp17
 70
     1
102
RTVSPropertyOp18
 70
     1
102
RTVSPropertyOp19
 70
     1
102
RTVSPropertyOp20
 70
     1
102
RTVSPropertyOp21
 70
     1
102
RTVSPropertyOp22
 70
     1
102
RTVSPropertyOp23
 70
     1
102
RTVSPropertyOp24
 70
     1
102
RTVSPropertyOp25
 70
     1
102
RTVSPropertyOp26
 70
     1
102
RTVSPropertyOp27
 70
     1
102
RTVSPropertyOp28
 70
     1
102
RTVSPropertyOp29
 70
     1
102
RTVSPropertyOp30
 70
     1
102
RTVSPropertyOp31
 70
     1
102
RTVSPropertyOp32
 70
     1
102
RTVSPropertyOp33
 70
     1
102
RTVSPropertyOp34
 70
     1
102
RTVSPropertyOp35
 70
     1
102
RTVSPropertyOp36
 70
     1
102
RTVSPropertyOp37
 70
     1
102
RTVSPropertyOp38
 70
     1
102
RTVSPropertyOp39
 70
     1
102
RTVSPropertyOp40
 70
     1
102
RTVSPropertyOp41
 70
     1
102
RTVSPropertyOp42
 70
     1
102
RTVSPropertyOp43
 70
     1
102
RTVSPropertyOp44
 70
     1
102
RTVSPropertyOp45
 70
     1
102
RTVSPropertyOp46
 70
     1
102
RTVSPropertyOp47
 70
     1
102
RTVSPropertyOp48
 70
     1
102
RTVSPropertyOp49
 70
     1
102
RTVSPropertyOp50
 70
     1
102
RTVSPropertyOp51
 70
     0
102
RTVSPropertyOp52
 70
     0
102
RTVSPropertyOp53
 70
     1
102
RTVSPropertyOp54
 70
     1
102
RTVSPropertyOp55
 70
     1
102
RTVSPropertyOp56
 70
     1
102
RTVSPropertyOp57
 70
     1
102
RTVSPost2010Prop28
280
     0
102
RTVSPost2010PropOp28
 70
     1
102
RTVSPost2010Prop29
280
     1
102
RTVSPost2010PropOp29
 70
     1
102
RTVSPost2010Prop30
280
     1
102
RTVSPost2010PropOp30
 70
     1
102
RTVSPost2010Prop31
280
     0
102
RTVSPost2010PropOp31
 70
     1
102
RTVSPost2010Prop32
280
     0
102
RTVSPost2010PropOp32
 70
     1
102
RTVSPost2010Prop33
280
     0
102
RTVSPost2010PropOp33
 70
     1
102
RTVSPost2010Prop34
280
     0
102
RTVSPost2010PropOp34
 70
     1
102
RTVSPost2010Prop35
280
     0
102
RTVSPost2010PropOp35
 70
     1
102
RTVSPost2010Prop36
280
     0
102
RTVSPost2010PropOp36
 70
     1
102
RTVSPost2010Prop37
 90
       50
102
RTVSPost2010PropOp37
 70
     1
102
RTVSPost2010Prop38
140
0.0
102
RTVSPost2010PropOp38
 70
     1
102
RTVSPost2010Prop39
140
1.0
102
RTVSPost2010PropOp39
 70
     1
102
RTVSPost2010Prop40
 90
        0
102
RTVSPost2010PropOp40
 70
     1
102
RTVSPost2010Prop41ColorIndex
 90
       18
102
RTVSPost2010Prop41ColorRGB
 90
        0
102
RTVSPost2010PropOp41
 70
     1
102
RTVSPost2010Prop42
 90
       50
102
RTVSPost2010PropOp42
 70
     1
102
RTVSPost2010Prop43
 90
        3
102
RTVSPost2010PropOp43
 70
     1
102
RTVSPost2010Prop44ColorIndex
 90
        5
102
RTVSPost2010Prop44ColorRGB
 90
      255
102
RTVSPost2010PropOp44
 70
     1
102
RTVSPost2010Prop45
280
     0
102
RTVSPost2010PropOp45
 70
     1
102
RTVSPost2010Prop46
 90
       50
102
RTVSPost2010PropOp46
 70
     1
102
RTVSPost2010Prop47
 90
       50
102
RTVSPost2010PropOp47
 70
     1
102
RTVSPost2010Prop48
 90
       50
102
RTVSPost2010PropOp48
 70
     1
102
RTVSPost2010Prop49
280
     0
102
RTVSPost2010PropOp49
 70
     1
102
RTVSPost2010Prop50
 90
       50
102
RTVSPost2010PropOp50
 70
     1
102
RTVSPost2010Prop51ColorIndex
 90
      256
102
RTVSPost2010Prop51ColorRGB
 90
-16777216
102
RTVSPost2010PropOp51
 70
     0
102
RTVSPost2010Prop52
140
1.0
102
RTVSPost2010PropOp52
 70
     0
102
RTVSPost2010Prop53
 90
        2
102
RTVSPost2010PropOp53
 70
     1
102
RTVSPost2010Prop54
  1
strokes_ogs.tif
102
RTVSPost2010PropOp54
 70
     1
102
RTVSPost2010Prop55
280
     0
102
RTVSPost2010PropOp55
 70
     1
102
RTVSPost2010Prop56
140
1.0
102
RTVSPost2010PropOp56
 70
     1
102
RTVSPost2010Prop57
140
1.0
102
RTVSPost2010PropOp57
 70
     1
  0
XRECORD
  5
43C
102
{ACAD_REACTORS
330
43B
102
}
330
43B
100
AcDbXrecord
280
     1
102
RTVSPropertyOp0
 70
     1
102
RTVSPropertyOp1
 70
     1
102
RTVSPropertyOp2
 70
     1
102
RTVSPropertyOp3
 70
     1
102
RTVSPropertyOp4
 70
     1
102
RTVSPropertyOp5
 70
     1
102
RTVSPropertyOp6
 70
     1
102
RTVSPropertyOp7
 70
     1
102
RTVSPropertyOp8
 70
     1
102
RTVSPropertyOp9
 70
     1
102
RTVSPropertyOp10
 70
     1
102
RTVSPropertyOp11
 70
     1
102
RTVSPropertyOp12
 70
     1
102
RTVSPropertyOp13
 70
     1
102
RTVSPropertyOp14
 70
     1
102
RTVSPropertyOp15
 70
     1
102
RTVSPropertyOp16
 70
     1
102
RTVSPropertyOp17
 70
     1
102
RTVSPropertyOp18
 70
     1
102
RTVSPropertyOp19
 70
     1
102
RTVSPropertyOp20
 70
     1
102
RTVSPropertyOp21
 70
     1
102
RTVSPropertyOp22
 70
     1
102
RTVSPropertyOp23
 70
     1
102
RTVSPropertyOp24
 70
     1
102
RTVSPropertyOp25
 70
     1
102
RTVSPropertyOp26
 70
     1
102
RTVSPropertyOp27
 70
     1
102
RTVSPropertyOp28
 70
     1
102
RTVSPropertyOp29
 70
     1
102
RTVSPropertyOp30
 70
     1
102
RTVSPropertyOp31
 70
     1
102
RTVSPropertyOp32
 70
     1
102
RTVSPropertyOp33
 70
     1
102
RTVSPropertyOp34
 70
     1
102
RTVSPropertyOp35
 70
     1
102
RTVSPropertyOp36
 70
     1
102
RTVSPropertyOp37
 70
     1
102
RTVSPropertyOp38
 70
     1
102
RTVSPropertyOp39
 70
     1
102
RTVSPropertyOp40
 70
     1
102
RTVSPropertyOp41
 70
     1
102
RTVSPropertyOp42
 70
     1
102
RTVSPropertyOp43
 70
     1
102
RTVSPropertyOp44
 70
     1
102
RTVSPropertyOp45
 70
     1
102
RTVSPropertyOp46
 70
     1
102
RTVSPropertyOp47
 70
     1
102
RTVSPropertyOp48
 70
     1
102
RTVSPropertyOp49
 70
     1
102
RTVSPropertyOp50
 70
     1
102
RTVSPropertyOp51
 70
     0
102
RTVSPropertyOp52
 70
     0
102
RTVSPropertyOp53
 70
     1
102
RTVSPropertyOp54
 70
     1
102
RTVSPropertyOp55
 70
     1
102
RTVSPropertyOp56
 70
     1
102
RTVSPropertyOp57
 70
     1
102
RTVSPost2010Prop28
280
     0
102
RTVSPost2010PropOp28
 70
     1
102
RTVSPost2010Prop29
280
     1
102
RTVSPost2010PropOp29
 70
     1
102
RTVSPost2010Prop30
280
     1
102
RTVSPost2010PropOp30
 70
     1
102
RTVSPost2010Prop31
280
     0
102
RTVSPost2010PropOp31
 70
     1
102
RTVSPost2010Prop32
280
     0
102
RTVSPost2010PropOp32
 70
     1
102
RTVSPost2010Prop33
280
     0
102
RTVSPost2010PropOp33
 70
     1
102
RTVSPost2010Prop34
280
     0
102
RTVSPost2010PropOp34
 70
     1
102
RTVSPost2010Prop35
280
     0
102
RTVSPost2010PropOp35
 70
     1
102
RTVSPost2010Prop36
280
     0
102
RTVSPost2010PropOp36
 70
     1
102
RTVSPost2010Prop37
 90
       50
102
RTVSPost2010PropOp37
 70
     1
102
RTVSPost2010Prop38
140
0.0
102
RTVSPost2010PropOp38
 70
     1
102
RTVSPost2010Prop39
140
1.0
102
RTVSPost2010PropOp39
 70
     1
102
RTVSPost2010Prop40
 90
        0
102
RTVSPost2010PropOp40
 70
     1
102
RTVSPost2010Prop41ColorIndex
 90
       18
102
RTVSPost2010Prop41ColorRGB
 90
        0
102
RTVSPost2010PropOp41
 70
     1
102
RTVSPost2010Prop42
 90
       50
102
RTVSPost2010PropOp42
 70
     1
102
RTVSPost2010Prop43
 90
        3
102
RTVSPost2010PropOp43
 70
     1
102
RTVSPost2010Prop44ColorIndex
 90
        5
102
RTVSPost2010Prop44ColorRGB
 90
      255
102
RTVSPost2010PropOp44
 70
     1
102
RTVSPost2010Prop45
280
     0
102
RTVSPost2010PropOp45
 70
     1
102
RTVSPost2010Prop46
 90
       50
102
RTVSPost2010PropOp46
 70
     1
102
RTVSPost2010Prop47
 90
       50
102
RTVSPost2010PropOp47
 70
     1
102
RTVSPost2010Prop48
 90
       50
102
RTVSPost2010PropOp48
 70
     1
102
RTVSPost2010Prop49
280
     0
102
RTVSPost2010PropOp49
 70
     1
102
RTVSPost2010Prop50
 90
       50
102
RTVSPost2010PropOp50
 70
     1
102
RTVSPost2010Prop51ColorIndex
 90
      256
102
RTVSPost2010Prop51ColorRGB
 90
-16777216
102
RTVSPost2010PropOp51
 70
     0
102
RTVSPost2010Prop52
140
1.0
102
RTVSPost2010PropOp52
 70
     0
102
RTVSPost2010Prop53
 90
        2
102
RTVSPost2010PropOp53
 70
     1
102
RTVSPost2010Prop54
  1
strokes_ogs.tif
102
RTVSPost2010PropOp54
 70
     1
102
RTVSPost2010Prop55
280
     0
102
RTVSPost2010PropOp55
 70
     1
102
RTVSPost2010Prop56
140
1.0
102
RTVSPost2010PropOp56
 70
     1
102
RTVSPost2010Prop57
140
1.0
102
RTVSPost2010PropOp57
 70
     1
  0
XRECORD
  5
43E
102
{ACAD_REACTORS
330
43D
102
}
330
43D
100
AcDbXrecord
280
     1
102
RTVSPropertyOp0
 70
     1
102
RTVSPropertyOp1
 70
     1
102
RTVSPropertyOp2
 70
     1
102
RTVSPropertyOp3
 70
     1
102
RTVSPropertyOp4
 70
     1
102
RTVSPropertyOp5
 70
     1
102
RTVSPropertyOp6
 70
     1
102
RTVSPropertyOp7
 70
     1
102
RTVSPropertyOp8
 70
     1
102
RTVSPropertyOp9
 70
     1
102
RTVSPropertyOp10
 70
     1
102
RTVSPropertyOp11
 70
     1
102
RTVSPropertyOp12
 70
     1
102
RTVSPropertyOp13
 70
     1
102
RTVSPropertyOp14
 70
     1
102
RTVSPropertyOp15
 70
     1
102
RTVSPropertyOp16
 70
     1
102
RTVSPropertyOp17
 70
     1
102
RTVSPropertyOp18
 70
     1
102
RTVSPropertyOp19
 70
     1
102
RTVSPropertyOp20
 70
     1
102
RTVSPropertyOp21
 70
     1
102
RTVSPropertyOp22
 70
     1
102
RTVSPropertyOp23
 70
     1
102
RTVSPropertyOp24
 70
     1
102
RTVSPropertyOp25
 70
     1
102
RTVSPropertyOp26
 70
     1
102
RTVSPropertyOp27
 70
     1
102
RTVSPropertyOp28
 70
     1
102
RTVSPropertyOp29
 70
     1
102
RTVSPropertyOp30
 70
     1
102
RTVSPropertyOp31
 70
     1
102
RTVSPropertyOp32
 70
     1
102
RTVSPropertyOp33
 70
     1
102
RTVSPropertyOp34
 70
     1
102
RTVSPropertyOp35
 70
     1
102
RTVSPropertyOp36
 70
     1
102
RTVSPropertyOp37
 70
     1
102
RTVSPropertyOp38
 70
     1
102
RTVSPropertyOp39
 70
     1
102
RTVSPropertyOp40
 70
     1
102
RTVSPropertyOp41
 70
     1
102
RTVSPropertyOp42
 70
     1
102
RTVSPropertyOp43
 70
     1
102
RTVSPropertyOp44
 70
     1
102
RTVSPropertyOp45
 70
     1
102
RTVSPropertyOp46
 70
     1
102
RTVSPropertyOp47
 70
     1
102
RTVSPropertyOp48
 70
     1
102
RTVSPropertyOp49
 70
     1
102
RTVSPropertyOp50
 70
     1
102
RTVSPropertyOp51
 70
     0
102
RTVSPropertyOp52
 70
     0
102
RTVSPropertyOp53
 70
     1
102
RTVSPropertyOp54
 70
     1
102
RTVSPropertyOp55
 70
     1
102
RTVSPropertyOp56
 70
     1
102
RTVSPropertyOp57
 70
     1
102
RTVSPost2010Prop28
280
     0
102
RTVSPost2010PropOp28
 70
     1
102
RTVSPost2010Prop29
280
     1
102
RTVSPost2010PropOp29
 70
     1
102
RTVSPost2010Prop30
280
     1
102
RTVSPost2010PropOp30
 70
     1
102
RTVSPost2010Prop31
280
     0
102
RTVSPost2010PropOp31
 70
     1
102
RTVSPost2010Prop32
280
     0
102
RTVSPost2010PropOp32
 70
     1
102
RTVSPost2010Prop33
280
     0
102
RTVSPost2010PropOp33
 70
     1
102
RTVSPost2010Prop34
280
     0
102
RTVSPost2010PropOp34
 70
     1
102
RTVSPost2010Prop35
280
     0
102
RTVSPost2010PropOp35
 70
     1
102
RTVSPost2010Prop36
280
     0
102
RTVSPost2010PropOp36
 70
     1
102
RTVSPost2010Prop37
 90
       50
102
RTVSPost2010PropOp37
 70
     1
102
RTVSPost2010Prop38
140
0.0
102
RTVSPost2010PropOp38
 70
     1
102
RTVSPost2010Prop39
140
1.0
102
RTVSPost2010PropOp39
 70
     1
102
RTVSPost2010Prop40
 90
        0
102
RTVSPost2010PropOp40
 70
     1
102
RTVSPost2010Prop41ColorIndex
 90
       18
102
RTVSPost2010Prop41ColorRGB
 90
        0
102
RTVSPost2010PropOp41
 70
     1
102
RTVSPost2010Prop42
 90
       50
102
RTVSPost2010PropOp42
 70
     1
102
RTVSPost2010Prop43
 90
        3
102
RTVSPost2010PropOp43
 70
     1
102
RTVSPost2010Prop44ColorIndex
 90
        5
102
RTVSPost2010Prop44ColorRGB
 90
      255
102
RTVSPost2010PropOp44
 70
     1
102
RTVSPost2010Prop45
280
     0
102
RTVSPost2010PropOp45
 70
     1
102
RTVSPost2010Prop46
 90
       50
102
RTVSPost2010PropOp46
 70
     1
102
RTVSPost2010Prop47
 90
       50
102
RTVSPost2010PropOp47
 70
     1
102
RTVSPost2010Prop48
 90
       50
102
RTVSPost2010PropOp48
 70
     1
102
RTVSPost2010Prop49
280
     0
102
RTVSPost2010PropOp49
 70
     1
102
RTVSPost2010Prop50
 90
       50
102
RTVSPost2010PropOp50
 70
     1
102
RTVSPost2010Prop51ColorIndex
 90
      256
102
RTVSPost2010Prop51ColorRGB
 90
-16777216
102
RTVSPost2010PropOp51
 70
     0
102
RTVSPost2010Prop52
140
1.0
102
RTVSPost2010PropOp52
 70
     0
102
RTVSPost2010Prop53
 90
        2
102
RTVSPost2010PropOp53
 70
     1
102
RTVSPost2010Prop54
  1
strokes_ogs.tif
102
RTVSPost2010PropOp54
 70
     1
102
RTVSPost2010Prop55
280
     0
102
RTVSPost2010PropOp55
 70
     1
102
RTVSPost2010Prop56
140
1.0
102
RTVSPost2010PropOp56
 70
     1
102
RTVSPost2010Prop57
140
1.0
102
RTVSPost2010PropOp57
 70
     1
  0
XRECORD
  5
444
102
{ACAD_REACTORS
330
443
102
}
330
443
100
AcDbXrecord
280
     1
102
RTVSPropertyOp0
 70
     1
102
RTVSPropertyOp1
 70
     1
102
RTVSPropertyOp2
 70
     1
102
RTVSPropertyOp3
 70
     1
102
RTVSPropertyOp4
 70
     1
102
RTVSPropertyOp5
 70
     1
102
RTVSPropertyOp6
 70
     1
102
RTVSPropertyOp7
 70
     1
102
RTVSPropertyOp8
 70
     1
102
RTVSPropertyOp9
 70
     1
102
RTVSPropertyOp10
 70
     1
102
RTVSPropertyOp11
 70
     1
102
RTVSPropertyOp12
 70
     1
102
RTVSPropertyOp13
 70
     1
102
RTVSPropertyOp14
 70
     1
102
RTVSPropertyOp15
 70
     1
102
RTVSPropertyOp16
 70
     1
102
RTVSPropertyOp17
 70
     1
102
RTVSPropertyOp18
 70
     1
102
RTVSPropertyOp19
 70
     1
102
RTVSPropertyOp20
 70
     1
102
RTVSPropertyOp21
 70
     1
102
RTVSPropertyOp22
 70
     1
102
RTVSPropertyOp23
 70
     1
102
RTVSPropertyOp24
 70
     1
102
RTVSPropertyOp25
 70
     1
102
RTVSPropertyOp26
 70
     1
102
RTVSPropertyOp27
 70
     1
102
RTVSPropertyOp28
 70
     1
102
RTVSPropertyOp29
 70
     1
102
RTVSPropertyOp30
 70
     1
102
RTVSPropertyOp31
 70
     1
102
RTVSPropertyOp32
 70
     1
102
RTVSPropertyOp33
 70
     1
102
RTVSPropertyOp34
 70
     1
102
RTVSPropertyOp35
 70
     1
102
RTVSPropertyOp36
 70
     1
102
RTVSPropertyOp37
 70
     1
102
RTVSPropertyOp38
 70
     1
102
RTVSPropertyOp39
 70
     1
102
RTVSPropertyOp40
 70
     1
102
RTVSPropertyOp41
 70
     1
102
RTVSPropertyOp42
 70
     1
102
RTVSPropertyOp43
 70
     1
102
RTVSPropertyOp44
 70
     1
102
RTVSPropertyOp45
 70
     1
102
RTVSPropertyOp46
 70
     1
102
RTVSPropertyOp47
 70
     1
102
RTVSPropertyOp48
 70
     1
102
RTVSPropertyOp49
 70
     1
102
RTVSPropertyOp50
 70
     1
102
RTVSPropertyOp51
 70
     0
102
RTVSPropertyOp52
 70
     0
102
RTVSPropertyOp53
 70
     1
102
RTVSPropertyOp54
 70
     1
102
RTVSPropertyOp55
 70
     1
102
RTVSPropertyOp56
 70
     1
102
RTVSPropertyOp57
 70
     1
102
RTVSPost2010Prop28
280
     0
102
RTVSPost2010PropOp28
 70
     1
102
RTVSPost2010Prop29
280
     1
102
RTVSPost2010PropOp29
 70
     1
102
RTVSPost2010Prop30
280
     1
102
RTVSPost2010PropOp30
 70
     1
102
RTVSPost2010Prop31
280
     0
102
RTVSPost2010PropOp31
 70
     1
102
RTVSPost2010Prop32
280
     0
102
RTVSPost2010PropOp32
 70
     1
102
RTVSPost2010Prop33
280
     0
102
RTVSPost2010PropOp33
 70
     1
102
RTVSPost2010Prop34
280
     0
102
RTVSPost2010PropOp34
 70
     1
102
RTVSPost2010Prop35
280
     0
102
RTVSPost2010PropOp35
 70
     1
102
RTVSPost2010Prop36
280
     0
102
RTVSPost2010PropOp36
 70
     1
102
RTVSPost2010Prop37
 90
       50
102
RTVSPost2010PropOp37
 70
     1
102
RTVSPost2010Prop38
140
0.0
102
RTVSPost2010PropOp38
 70
     1
102
RTVSPost2010Prop39
140
1.0
102
RTVSPost2010PropOp39
 70
     1
102
RTVSPost2010Prop40
 90
        0
102
RTVSPost2010PropOp40
 70
     1
102
RTVSPost2010Prop41ColorIndex
 90
       18
102
RTVSPost2010Prop41ColorRGB
 90
        0
102
RTVSPost2010PropOp41
 70
     1
102
RTVSPost2010Prop42
 90
       50
102
RTVSPost2010PropOp42
 70
     1
102
RTVSPost2010Prop43
 90
        3
102
RTVSPost2010PropOp43
 70
     1
102
RTVSPost2010Prop44ColorIndex
 90
        5
102
RTVSPost2010Prop44ColorRGB
 90
      255
102
RTVSPost2010PropOp44
 70
     1
102
RTVSPost2010Prop45
280
     0
102
RTVSPost2010PropOp45
 70
     1
102
RTVSPost2010Prop46
 90
       50
102
RTVSPost2010PropOp46
 70
     1
102
RTVSPost2010Prop47
 90
       50
102
RTVSPost2010PropOp47
 70
     1
102
RTVSPost2010Prop48
 90
       50
102
RTVSPost2010PropOp48
 70
     1
102
RTVSPost2010Prop49
280
     0
102
RTVSPost2010PropOp49
 70
     1
102
RTVSPost2010Prop50
 90
       50
102
RTVSPost2010PropOp50
 70
     1
102
RTVSPost2010Prop51ColorIndex
 90
      256
102
RTVSPost2010Prop51ColorRGB
 90
-16777216
102
RTVSPost2010PropOp51
 70
     0
102
RTVSPost2010Prop52
140
1.0
102
RTVSPost2010PropOp52
 70
     0
102
RTVSPost2010Prop53
 90
        2
102
RTVSPost2010PropOp53
 70
     1
102
RTVSPost2010Prop54
  1
strokes_ogs.tif
102
RTVSPost2010PropOp54
 70
     1
102
RTVSPost2010Prop55
280
     0
102
RTVSPost2010PropOp55
 70
     1
102
RTVSPost2010Prop56
140
1.0
102
RTVSPost2010PropOp56
 70
     1
102
RTVSPost2010Prop57
140
1.0
102
RTVSPost2010PropOp57
 70
     1
  0
XRECORD
  5
458
102
{ACAD_REACTORS
330
457
102
}
330
457
100
AcDbXrecord
280
     1
102
RTVSPropertyOp0
 70
     0
102
RTVSPropertyOp1
 70
     0
102
RTVSPropertyOp2
 70
     0
102
RTVSPropertyOp3
 70
     0
102
RTVSPropertyOp4
 70
     0
102
RTVSPropertyOp5
 70
     0
102
RTVSPropertyOp6
 70
     0
102
RTVSPropertyOp7
 70
     0
102
RTVSPropertyOp8
 70
     0
102
RTVSPropertyOp9
 70
     0
102
RTVSPropertyOp10
 70
     0
102
RTVSPropertyOp11
 70
     0
102
RTVSPropertyOp12
 70
     0
102
RTVSPropertyOp13
 70
     0
102
RTVSPropertyOp14
 70
     2
102
RTVSPropertyOp15
 70
     0
102
RTVSPropertyOp16
 70
     0
102
RTVSPropertyOp17
 70
     0
102
RTVSPropertyOp18
 70
     0
102
RTVSPropertyOp19
 70
     0
102
RTVSPropertyOp20
 70
     0
102
RTVSPropertyOp21
 70
     0
102
RTVSPropertyOp22
 70
     0
102
RTVSPropertyOp23
 70
     0
102
RTVSPropertyOp24
 70
     0
102
RTVSPropertyOp25
 70
     0
102
RTVSPropertyOp26
 70
     0
102
RTVSPropertyOp27
 70
     0
102
RTVSPropertyOp28
 70
     0
102
RTVSPropertyOp29
 70
     0
102
RTVSPropertyOp30
 70
     0
102
RTVSPropertyOp31
 70
     0
102
RTVSPropertyOp32
 70
     0
102
RTVSPropertyOp33
 70
     0
102
RTVSPropertyOp34
 70
     0
102
RTVSPropertyOp35
 70
     0
102
RTVSPropertyOp36
 70
     0
102
RTVSPropertyOp37
 70
     0
102
RTVSPropertyOp38
 70
     0
102
RTVSPropertyOp39
 70
     0
102
RTVSPropertyOp40
 70
     0
102
RTVSPropertyOp41
 70
     0
102
RTVSPropertyOp42
 70
     0
102
RTVSPropertyOp43
 70
     0
102
RTVSPropertyOp44
 70
     0
102
RTVSPropertyOp45
 70
     0
102
RTVSPropertyOp46
 70
     0
102
RTVSPropertyOp47
 70
     0
102
RTVSPropertyOp48
 70
     0
102
RTVSPropertyOp49
 70
     0
102
RTVSPropertyOp50
 70
     0
102
RTVSPropertyOp51
 70
     0
102
RTVSPropertyOp52
 70
     0
102
RTVSPropertyOp53
 70
     0
102
RTVSPropertyOp54
 70
     0
102
RTVSPropertyOp55
 70
     0
102
RTVSPropertyOp56
 70
     0
102
RTVSPropertyOp57
 70
     0
102
RTVSPost2010Prop28
280
     0
102
RTVSPost2010PropOp28
 70
     0
102
RTVSPost2010Prop29
280
     1
102
RTVSPost2010PropOp29
 70
     0
102
RTVSPost2010Prop30
280
     1
102
RTVSPost2010PropOp30
 70
     0
102
RTVSPost2010Prop31
280
     0
102
RTVSPost2010PropOp31
 70
     0
102
RTVSPost2010Prop32
280
     0
102
RTVSPost2010PropOp32
 70
     0
102
RTVSPost2010Prop33
280
     0
102
RTVSPost2010PropOp33
 70
     0
102
RTVSPost2010Prop34
280
     0
102
RTVSPost2010PropOp34
 70
     0
102
RTVSPost2010Prop35
280
     0
102
RTVSPost2010PropOp35
 70
     0
102
RTVSPost2010Prop36
280
     0
102
RTVSPost2010PropOp36
 70
     0
102
RTVSPost2010Prop37
 90
       50
102
RTVSPost2010PropOp37
 70
     0
102
RTVSPost2010Prop38
140
0.0
102
RTVSPost2010PropOp38
 70
     0
102
RTVSPost2010Prop39
140
1.0
102
RTVSPost2010PropOp39
 70
     0
102
RTVSPost2010Prop40
 90
        0
102
RTVSPost2010PropOp40
 70
     0
102
RTVSPost2010Prop41ColorIndex
 90
       18
102
RTVSPost2010Prop41ColorRGB
 90
        0
102
RTVSPost2010PropOp41
 70
     0
102
RTVSPost2010Prop42
 90
       50
102
RTVSPost2010PropOp42
 70
     0
102
RTVSPost2010Prop43
 90
        3
102
RTVSPost2010PropOp43
 70
     0
102
RTVSPost2010Prop44ColorIndex
 90
        5
102
RTVSPost2010Prop44ColorRGB
 90
      255
102
RTVSPost2010PropOp44
 70
     0
102
RTVSPost2010Prop45
280
     0
102
RTVSPost2010PropOp45
 70
     0
102
RTVSPost2010Prop46
 90
       50
102
RTVSPost2010PropOp46
 70
     0
102
RTVSPost2010Prop47
 90
       50
102
RTVSPost2010PropOp47
 70
     0
102
RTVSPost2010Prop48
 90
       50
102
RTVSPost2010PropOp48
 70
     0
102
RTVSPost2010Prop49
280
     0
102
RTVSPost2010PropOp49
 70
     0
102
RTVSPost2010Prop50
 90
       50
102
RTVSPost2010PropOp50
 70
     0
102
RTVSPost2010Prop51ColorIndex
 90
      256
102
RTVSPost2010Prop51ColorRGB
 90
-16777216
102
RTVSPost2010PropOp51
 70
     0
102
RTVSPost2010Prop52
140
1.0
102
RTVSPost2010PropOp52
 70
     0
102
RTVSPost2010Prop53
 90
        2
102
RTVSPost2010PropOp53
 70
     0
102
RTVSPost2010Prop54
  1
strokes_ogs.tif
102
RTVSPost2010PropOp54
 70
     0
102
RTVSPost2010Prop55
280
     0
102
RTVSPost2010PropOp55
 70
     0
102
RTVSPost2010Prop56
140
1.0
102
RTVSPost2010PropOp56
 70
     0
102
RTVSPost2010Prop57
140
1.0
102
RTVSPost2010PropOp57
 70
     0
  0
XRECORD
  5
452
102
{ACAD_REACTORS
330
451
102
}
330
451
100
AcDbXrecord
280
     1
102
RTVSPropertyOp0
 70
     1
102
RTVSPropertyOp1
 70
     1
102
RTVSPropertyOp2
 70
     1
102
RTVSPropertyOp3
 70
     1
102
RTVSPropertyOp4
 70
     1
102
RTVSPropertyOp5
 70
     1
102
RTVSPropertyOp6
 70
     1
102
RTVSPropertyOp7
 70
     1
102
RTVSPropertyOp8
 70
     1
102
RTVSPropertyOp9
 70
     1
102
RTVSPropertyOp10
 70
     1
102
RTVSPropertyOp11
 70
     1
102
RTVSPropertyOp12
 70
     1
102
RTVSPropertyOp13
 70
     1
102
RTVSPropertyOp14
 70
     1
102
RTVSPropertyOp15
 70
     1
102
RTVSPropertyOp16
 70
     1
102
RTVSPropertyOp17
 70
     1
102
RTVSPropertyOp18
 70
     1
102
RTVSPropertyOp19
 70
     1
102
RTVSPropertyOp20
 70
     1
102
RTVSPropertyOp21
 70
     1
102
RTVSPropertyOp22
 70
     1
102
RTVSPropertyOp23
 70
     1
102
RTVSPropertyOp24
 70
     1
102
RTVSPropertyOp25
 70
     1
102
RTVSPropertyOp26
 70
     1
102
RTVSPropertyOp27
 70
     1
102
RTVSPropertyOp28
 70
     1
102
RTVSPropertyOp29
 70
     1
102
RTVSPropertyOp30
 70
     1
102
RTVSPropertyOp31
 70
     1
102
RTVSPropertyOp32
 70
     1
102
RTVSPropertyOp33
 70
     1
102
RTVSPropertyOp34
 70
     1
102
RTVSPropertyOp35
 70
     1
102
RTVSPropertyOp36
 70
     1
102
RTVSPropertyOp37
 70
     1
102
RTVSPropertyOp38
 70
     1
102
RTVSPropertyOp39
 70
     1
102
RTVSPropertyOp40
 70
     1
102
RTVSPropertyOp41
 70
     1
102
RTVSPropertyOp42
 70
     1
102
RTVSPropertyOp43
 70
     1
102
RTVSPropertyOp44
 70
     1
102
RTVSPropertyOp45
 70
     1
102
RTVSPropertyOp46
 70
     1
102
RTVSPropertyOp47
 70
     1
102
RTVSPropertyOp48
 70
     1
102
RTVSPropertyOp49
 70
     1
102
RTVSPropertyOp50
 70
     1
102
RTVSPropertyOp51
 70
     0
102
RTVSPropertyOp52
 70
     0
102
RTVSPropertyOp53
 70
     1
102
RTVSPropertyOp54
 70
     1
102
RTVSPropertyOp55
 70
     1
102
RTVSPropertyOp56
 70
     1
102
RTVSPropertyOp57
 70
     1
102
RTVSPost2010Prop28
280
     0
102
RTVSPost2010PropOp28
 70
     1
102
RTVSPost2010Prop29
280
     1
102
RTVSPost2010PropOp29
 70
     1
102
RTVSPost2010Prop30
280
     1
102
RTVSPost2010PropOp30
 70
     1
102
RTVSPost2010Prop31
280
     0
102
RTVSPost2010PropOp31
 70
     1
102
RTVSPost2010Prop32
280
     0
102
RTVSPost2010PropOp32
 70
     1
102
RTVSPost2010Prop33
280
     0
102
RTVSPost2010PropOp33
 70
     1
102
RTVSPost2010Prop34
280
     0
102
RTVSPost2010PropOp34
 70
     1
102
RTVSPost2010Prop35
280
     0
102
RTVSPost2010PropOp35
 70
     1
102
RTVSPost2010Prop36
280
     0
102
RTVSPost2010PropOp36
 70
     1
102
RTVSPost2010Prop37
 90
       50
102
RTVSPost2010PropOp37
 70
     1
102
RTVSPost2010Prop38
140
0.0
102
RTVSPost2010PropOp38
 70
     1
102
RTVSPost2010Prop39
140
1.0
102
RTVSPost2010PropOp39
 70
     1
102
RTVSPost2010Prop40
 90
        0
102
RTVSPost2010PropOp40
 70
     1
102
RTVSPost2010Prop41ColorIndex
 90
       18
102
RTVSPost2010Prop41ColorRGB
 90
        0
102
RTVSPost2010PropOp41
 70
     1
102
RTVSPost2010Prop42
 90
       50
102
RTVSPost2010PropOp42
 70
     1
102
RTVSPost2010Prop43
 90
        3
102
RTVSPost2010PropOp43
 70
     1
102
RTVSPost2010Prop44ColorIndex
 90
        5
102
RTVSPost2010Prop44ColorRGB
 90
      255
102
RTVSPost2010PropOp44
 70
     1
102
RTVSPost2010Prop45
280
     0
102
RTVSPost2010PropOp45
 70
     1
102
RTVSPost2010Prop46
 90
       50
102
RTVSPost2010PropOp46
 70
     1
102
RTVSPost2010Prop47
 90
       50
102
RTVSPost2010PropOp47
 70
     1
102
RTVSPost2010Prop48
 90
       50
102
RTVSPost2010PropOp48
 70
     1
102
RTVSPost2010Prop49
280
     0
102
RTVSPost2010PropOp49
 70
     1
102
RTVSPost2010Prop50
 90
       50
102
RTVSPost2010PropOp50
 70
     1
102
RTVSPost2010Prop51ColorIndex
 90
      256
102
RTVSPost2010Prop51ColorRGB
 90
-16777216
102
RTVSPost2010PropOp51
 70
     0
102
RTVSPost2010Prop52
140
1.0
102
RTVSPost2010PropOp52
 70
     0
102
RTVSPost2010Prop53
 90
        2
102
RTVSPost2010PropOp53
 70
     1
102
RTVSPost2010Prop54
  1
strokes_ogs.tif
102
RTVSPost2010PropOp54
 70
     1
102
RTVSPost2010Prop55
280
     0
102
RTVSPost2010PropOp55
 70
     1
102
RTVSPost2010Prop56
140
1.0
102
RTVSPost2010PropOp56
 70
     1
102
RTVSPost2010Prop57
140
1.0
102
RTVSPost2010PropOp57
 70
     1
  0
XRECORD
  5
45A
102
{ACAD_REACTORS
330
459
102
}
330
459
100
AcDbXrecord
280
     1
102
RTVSPropertyOp0
 70
     0
102
RTVSPropertyOp1
 70
     0
102
RTVSPropertyOp2
 70
     0
102
RTVSPropertyOp3
 70
     0
102
RTVSPropertyOp4
 70
     0
102
RTVSPropertyOp5
 70
     0
102
RTVSPropertyOp6
 70
     0
102
RTVSPropertyOp7
 70
     0
102
RTVSPropertyOp8
 70
     0
102
RTVSPropertyOp9
 70
     0
102
RTVSPropertyOp10
 70
     0
102
RTVSPropertyOp11
 70
     0
102
RTVSPropertyOp12
 70
     0
102
RTVSPropertyOp13
 70
     0
102
RTVSPropertyOp14
 70
     2
102
RTVSPropertyOp15
 70
     0
102
RTVSPropertyOp16
 70
     0
102
RTVSPropertyOp17
 70
     0
102
RTVSPropertyOp18
 70
     0
102
RTVSPropertyOp19
 70
     0
102
RTVSPropertyOp20
 70
     0
102
RTVSPropertyOp21
 70
     0
102
RTVSPropertyOp22
 70
     0
102
RTVSPropertyOp23
 70
     0
102
RTVSPropertyOp24
 70
     0
102
RTVSPropertyOp25
 70
     0
102
RTVSPropertyOp26
 70
     0
102
RTVSPropertyOp27
 70
     0
102
RTVSPropertyOp28
 70
     0
102
RTVSPropertyOp29
 70
     0
102
RTVSPropertyOp30
 70
     0
102
RTVSPropertyOp31
 70
     0
102
RTVSPropertyOp32
 70
     0
102
RTVSPropertyOp33
 70
     0
102
RTVSPropertyOp34
 70
     0
102
RTVSPropertyOp35
 70
     0
102
RTVSPropertyOp36
 70
     0
102
RTVSPropertyOp37
 70
     0
102
RTVSPropertyOp38
 70
     0
102
RTVSPropertyOp39
 70
     0
102
RTVSPropertyOp40
 70
     0
102
RTVSPropertyOp41
 70
     0
102
RTVSPropertyOp42
 70
     0
102
RTVSPropertyOp43
 70
     0
102
RTVSPropertyOp44
 70
     0
102
RTVSPropertyOp45
 70
     0
102
RTVSPropertyOp46
 70
     0
102
RTVSPropertyOp47
 70
     0
102
RTVSPropertyOp48
 70
     0
102
RTVSPropertyOp49
 70
     0
102
RTVSPropertyOp50
 70
     0
102
RTVSPropertyOp51
 70
     0
102
RTVSPropertyOp52
 70
     0
102
RTVSPropertyOp53
 70
     0
102
RTVSPropertyOp54
 70
     0
102
RTVSPropertyOp55
 70
     0
102
RTVSPropertyOp56
 70
     0
102
RTVSPropertyOp57
 70
     0
102
RTVSPost2010Prop28
280
     0
102
RTVSPost2010PropOp28
 70
     0
102
RTVSPost2010Prop29
280
     1
102
RTVSPost2010PropOp29
 70
     0
102
RTVSPost2010Prop30
280
     1
102
RTVSPost2010PropOp30
 70
     0
102
RTVSPost2010Prop31
280
     0
102
RTVSPost2010PropOp31
 70
     0
102
RTVSPost2010Prop32
280
     0
102
RTVSPost2010PropOp32
 70
     0
102
RTVSPost2010Prop33
280
     0
102
RTVSPost2010PropOp33
 70
     0
102
RTVSPost2010Prop34
280
     0
102
RTVSPost2010PropOp34
 70
     0
102
RTVSPost2010Prop35
280
     0
102
RTVSPost2010PropOp35
 70
     0
102
RTVSPost2010Prop36
280
     0
102
RTVSPost2010PropOp36
 70
     0
102
RTVSPost2010Prop37
 90
       50
102
RTVSPost2010PropOp37
 70
     0
102
RTVSPost2010Prop38
140
0.0
102
RTVSPost2010PropOp38
 70
     0
102
RTVSPost2010Prop39
140
1.0
102
RTVSPost2010PropOp39
 70
     0
102
RTVSPost2010Prop40
 90
        0
102
RTVSPost2010PropOp40
 70
     0
102
RTVSPost2010Prop41ColorIndex
 90
       18
102
RTVSPost2010Prop41ColorRGB
 90
        0
102
RTVSPost2010PropOp41
 70
     0
102
RTVSPost2010Prop42
 90
       50
102
RTVSPost2010PropOp42
 70
     0
102
RTVSPost2010Prop43
 90
        3
102
RTVSPost2010PropOp43
 70
     0
102
RTVSPost2010Prop44ColorIndex
 90
        5
102
RTVSPost2010Prop44ColorRGB
 90
      255
102
RTVSPost2010PropOp44
 70
     0
102
RTVSPost2010Prop45
280
     0
102
RTVSPost2010PropOp45
 70
     0
102
RTVSPost2010Prop46
 90
       50
102
RTVSPost2010PropOp46
 70
     0
102
RTVSPost2010Prop47
 90
       50
102
RTVSPost2010PropOp47
 70
     0
102
RTVSPost2010Prop48
 90
       50
102
RTVSPost2010PropOp48
 70
     0
102
RTVSPost2010Prop49
280
     0
102
RTVSPost2010PropOp49
 70
     0
102
RTVSPost2010Prop50
 90
       50
102
RTVSPost2010PropOp50
 70
     0
102
RTVSPost2010Prop51ColorIndex
 90
      256
102
RTVSPost2010Prop51ColorRGB
 90
-16777216
102
RTVSPost2010PropOp51
 70
     0
102
RTVSPost2010Prop52
140
1.0
102
RTVSPost2010PropOp52
 70
     0
102
RTVSPost2010Prop53
 90
        2
102
RTVSPost2010PropOp53
 70
     0
102
RTVSPost2010Prop54
  1
strokes_ogs.tif
102
RTVSPost2010PropOp54
 70
     0
102
RTVSPost2010Prop55
280
     0
102
RTVSPost2010PropOp55
 70
     0
102
RTVSPost2010Prop56
140
1.0
102
RTVSPost2010PropOp56
 70
     0
102
RTVSPost2010Prop57
140
1.0
102
RTVSPost2010PropOp57
 70
     0
  0
XRECORD
  5
448
102
{ACAD_REACTORS
330
447
102
}
330
447
100
AcDbXrecord
280
     1
102
RTVSPropertyOp0
 70
     1
102
RTVSPropertyOp1
 70
     1
102
RTVSPropertyOp2
 70
     1
102
RTVSPropertyOp3
 70
     1
102
RTVSPropertyOp4
 70
     1
102
RTVSPropertyOp5
 70
     1
102
RTVSPropertyOp6
 70
     1
102
RTVSPropertyOp7
 70
     1
102
RTVSPropertyOp8
 70
     1
102
RTVSPropertyOp9
 70
     1
102
RTVSPropertyOp10
 70
     1
102
RTVSPropertyOp11
 70
     1
102
RTVSPropertyOp12
 70
     1
102
RTVSPropertyOp13
 70
     1
102
RTVSPropertyOp14
 70
     1
102
RTVSPropertyOp15
 70
     1
102
RTVSPropertyOp16
 70
     1
102
RTVSPropertyOp17
 70
     1
102
RTVSPropertyOp18
 70
     1
102
RTVSPropertyOp19
 70
     1
102
RTVSPropertyOp20
 70
     1
102
RTVSPropertyOp21
 70
     1
102
RTVSPropertyOp22
 70
     1
102
RTVSPropertyOp23
 70
     1
102
RTVSPropertyOp24
 70
     1
102
RTVSPropertyOp25
 70
     1
102
RTVSPropertyOp26
 70
     1
102
RTVSPropertyOp27
 70
     1
102
RTVSPropertyOp28
 70
     1
102
RTVSPropertyOp29
 70
     1
102
RTVSPropertyOp30
 70
     1
102
RTVSPropertyOp31
 70
     1
102
RTVSPropertyOp32
 70
     1
102
RTVSPropertyOp33
 70
     1
102
RTVSPropertyOp34
 70
     1
102
RTVSPropertyOp35
 70
     1
102
RTVSPropertyOp36
 70
     1
102
RTVSPropertyOp37
 70
     1
102
RTVSPropertyOp38
 70
     1
102
RTVSPropertyOp39
 70
     1
102
RTVSPropertyOp40
 70
     1
102
RTVSPropertyOp41
 70
     1
102
RTVSPropertyOp42
 70
     1
102
RTVSPropertyOp43
 70
     1
102
RTVSPropertyOp44
 70
     1
102
RTVSPropertyOp45
 70
     1
102
RTVSPropertyOp46
 70
     1
102
RTVSPropertyOp47
 70
     1
102
RTVSPropertyOp48
 70
     1
102
RTVSPropertyOp49
 70
     1
102
RTVSPropertyOp50
 70
     1
102
RTVSPropertyOp51
 70
     0
102
RTVSPropertyOp52
 70
     0
102
RTVSPropertyOp53
 70
     1
102
RTVSPropertyOp54
 70
     1
102
RTVSPropertyOp55
 70
     1
102
RTVSPropertyOp56
 70
     1
102
RTVSPropertyOp57
 70
     1
102
RTVSPost2010Prop28
280
     0
102
RTVSPost2010PropOp28
 70
     1
102
RTVSPost2010Prop29
280
     1
102
RTVSPost2010PropOp29
 70
     1
102
RTVSPost2010Prop30
280
     1
102
RTVSPost2010PropOp30
 70
     1
102
RTVSPost2010Prop31
280
     0
102
RTVSPost2010PropOp31
 70
     1
102
RTVSPost2010Prop32
280
     0
102
RTVSPost2010PropOp32
 70
     1
102
RTVSPost2010Prop33
280
     0
102
RTVSPost2010PropOp33
 70
     1
102
RTVSPost2010Prop34
280
     0
102
RTVSPost2010PropOp34
 70
     1
102
RTVSPost2010Prop35
280
     0
102
RTVSPost2010PropOp35
 70
     1
102
RTVSPost2010Prop36
280
     0
102
RTVSPost2010PropOp36
 70
     1
102
RTVSPost2010Prop37
 90
       50
102
RTVSPost2010PropOp37
 70
     1
102
RTVSPost2010Prop38
140
0.0
102
RTVSPost2010PropOp38
 70
     1
102
RTVSPost2010Prop39
140
1.0
102
RTVSPost2010PropOp39
 70
     1
102
RTVSPost2010Prop40
 90
        0
102
RTVSPost2010PropOp40
 70
     1
102
RTVSPost2010Prop41ColorIndex
 90
       18
102
RTVSPost2010Prop41ColorRGB
 90
        0
102
RTVSPost2010PropOp41
 70
     1
102
RTVSPost2010Prop42
 90
       50
102
RTVSPost2010PropOp42
 70
     1
102
RTVSPost2010Prop43
 90
        3
102
RTVSPost2010PropOp43
 70
     1
102
RTVSPost2010Prop44ColorIndex
 90
        5
102
RTVSPost2010Prop44ColorRGB
 90
      255
102
RTVSPost2010PropOp44
 70
     1
102
RTVSPost2010Prop45
280
     0
102
RTVSPost2010PropOp45
 70
     1
102
RTVSPost2010Prop46
 90
       50
102
RTVSPost2010PropOp46
 70
     1
102
RTVSPost2010Prop47
 90
       50
102
RTVSPost2010PropOp47
 70
     1
102
RTVSPost2010Prop48
 90
       50
102
RTVSPost2010PropOp48
 70
     1
102
RTVSPost2010Prop49
280
     0
102
RTVSPost2010PropOp49
 70
     1
102
RTVSPost2010Prop50
 90
       50
102
RTVSPost2010PropOp50
 70
     1
102
RTVSPost2010Prop51ColorIndex
 90
      256
102
RTVSPost2010Prop51ColorRGB
 90
-16777216
102
RTVSPost2010PropOp51
 70
     0
102
RTVSPost2010Prop52
140
1.0
102
RTVSPost2010PropOp52
 70
     0
102
RTVSPost2010Prop53
 90
        2
102
RTVSPost2010PropOp53
 70
     1
102
RTVSPost2010Prop54
  1
strokes_ogs.tif
102
RTVSPost2010PropOp54
 70
     1
102
RTVSPost2010Prop55
280
     0
102
RTVSPost2010PropOp55
 70
     1
102
RTVSPost2010Prop56
140
1.0
102
RTVSPost2010PropOp56
 70
     1
102
RTVSPost2010Prop57
140
1.0
102
RTVSPost2010PropOp57
 70
     1
  0
XRECORD
  5
466
102
{ACAD_REACTORS
330
465
102
}
330
465
100
AcDbXrecord
280
     1
102
RTVSPropertyOp0
 70
     1
102
RTVSPropertyOp1
 70
     1
102
RTVSPropertyOp2
 70
     1
102
RTVSPropertyOp3
 70
     1
102
RTVSPropertyOp4
 70
     1
102
RTVSPropertyOp5
 70
     1
102
RTVSPropertyOp6
 70
     1
102
RTVSPropertyOp7
 70
     1
102
RTVSPropertyOp8
 70
     1
102
RTVSPropertyOp9
 70
     1
102
RTVSPropertyOp10
 70
     1
102
RTVSPropertyOp11
 70
     1
102
RTVSPropertyOp12
 70
     1
102
RTVSPropertyOp13
 70
     1
102
RTVSPropertyOp14
 70
     1
102
RTVSPropertyOp15
 70
     1
102
RTVSPropertyOp16
 70
     1
102
RTVSPropertyOp17
 70
     1
102
RTVSPropertyOp18
 70
     1
102
RTVSPropertyOp19
 70
     1
102
RTVSPropertyOp20
 70
     1
102
RTVSPropertyOp21
 70
     1
102
RTVSPropertyOp22
 70
     1
102
RTVSPropertyOp23
 70
     1
102
RTVSPropertyOp24
 70
     1
102
RTVSPropertyOp25
 70
     1
102
RTVSPropertyOp26
 70
     1
102
RTVSPropertyOp27
 70
     1
102
RTVSPropertyOp28
 70
     1
102
RTVSPropertyOp29
 70
     1
102
RTVSPropertyOp30
 70
     1
102
RTVSPropertyOp31
 70
     1
102
RTVSPropertyOp32
 70
     1
102
RTVSPropertyOp33
 70
     1
102
RTVSPropertyOp34
 70
     1
102
RTVSPropertyOp35
 70
     1
102
RTVSPropertyOp36
 70
     1
102
RTVSPropertyOp37
 70
     1
102
RTVSPropertyOp38
 70
     1
102
RTVSPropertyOp39
 70
     1
102
RTVSPropertyOp40
 70
     1
102
RTVSPropertyOp41
 70
     1
102
RTVSPropertyOp42
 70
     1
102
RTVSPropertyOp43
 70
     1
102
RTVSPropertyOp44
 70
     1
102
RTVSPropertyOp45
 70
     1
102
RTVSPropertyOp46
 70
     1
102
RTVSPropertyOp47
 70
     1
102
RTVSPropertyOp48
 70
     1
102
RTVSPropertyOp49
 70
     1
102
RTVSPropertyOp50
 70
     1
102
RTVSPropertyOp51
 70
     0
102
RTVSPropertyOp52
 70
     0
102
RTVSPropertyOp53
 70
     1
102
RTVSPropertyOp54
 70
     1
102
RTVSPropertyOp55
 70
     1
102
RTVSPropertyOp56
 70
     1
102
RTVSPropertyOp57
 70
     1
102
RTVSPost2010Prop28
280
     0
102
RTVSPost2010PropOp28
 70
     1
102
RTVSPost2010Prop29
280
     1
102
RTVSPost2010PropOp29
 70
     1
102
RTVSPost2010Prop30
280
     1
102
RTVSPost2010PropOp30
 70
     1
102
RTVSPost2010Prop31
280
     0
102
RTVSPost2010PropOp31
 70
     1
102
RTVSPost2010Prop32
280
     0
102
RTVSPost2010PropOp32
 70
     1
102
RTVSPost2010Prop33
280
     0
102
RTVSPost2010PropOp33
 70
     1
102
RTVSPost2010Prop34
280
     0
102
RTVSPost2010PropOp34
 70
     1
102
RTVSPost2010Prop35
280
     0
102
RTVSPost2010PropOp35
 70
     1
102
RTVSPost2010Prop36
280
     0
102
RTVSPost2010PropOp36
 70
     1
102
RTVSPost2010Prop37
 90
       50
102
RTVSPost2010PropOp37
 70
     1
102
RTVSPost2010Prop38
140
0.0
102
RTVSPost2010PropOp38
 70
     1
102
RTVSPost2010Prop39
140
1.0
102
RTVSPost2010PropOp39
 70
     1
102
RTVSPost2010Prop40
 90
        0
102
RTVSPost2010PropOp40
 70
     1
102
RTVSPost2010Prop41ColorIndex
 90
       18
102
RTVSPost2010Prop41ColorRGB
 90
        0
102
RTVSPost2010PropOp41
 70
     1
102
RTVSPost2010Prop42
 90
       50
102
RTVSPost2010PropOp42
 70
     1
102
RTVSPost2010Prop43
 90
        3
102
RTVSPost2010PropOp43
 70
     1
102
RTVSPost2010Prop44ColorIndex
 90
        5
102
RTVSPost2010Prop44ColorRGB
 90
      255
102
RTVSPost2010PropOp44
 70
     1
102
RTVSPost2010Prop45
280
     0
102
RTVSPost2010PropOp45
 70
     1
102
RTVSPost2010Prop46
 90
       50
102
RTVSPost2010PropOp46
 70
     1
102
RTVSPost2010Prop47
 90
       50
102
RTVSPost2010PropOp47
 70
     1
102
RTVSPost2010Prop48
 90
       50
102
RTVSPost2010PropOp48
 70
     1
102
RTVSPost2010Prop49
280
     0
102
RTVSPost2010PropOp49
 70
     1
102
RTVSPost2010Prop50
 90
       50
102
RTVSPost2010PropOp50
 70
     1
102
RTVSPost2010Prop51ColorIndex
 90
      256
102
RTVSPost2010Prop51ColorRGB
 90
-16777216
102
RTVSPost2010PropOp51
 70
     0
102
RTVSPost2010Prop52
140
1.0
102
RTVSPost2010PropOp52
 70
     0
102
RTVSPost2010Prop53
 90
        2
102
RTVSPost2010PropOp53
 70
     1
102
RTVSPost2010Prop54
  1
strokes_ogs.tif
102
RTVSPost2010PropOp54
 70
     1
102
RTVSPost2010Prop55
280
     0
102
RTVSPost2010PropOp55
 70
     1
102
RTVSPost2010Prop56
140
1.0
102
RTVSPost2010PropOp56
 70
     1
102
RTVSPost2010Prop57
140
1.0
102
RTVSPost2010PropOp57
 70
     1
  0
XRECORD
  5
464
102
{ACAD_REACTORS
330
463
102
}
330
463
100
AcDbXrecord
280
     1
102
RTVSPropertyOp0
 70
     1
102
RTVSPropertyOp1
 70
     1
102
RTVSPropertyOp2
 70
     1
102
RTVSPropertyOp3
 70
     1
102
RTVSPropertyOp4
 70
     1
102
RTVSPropertyOp5
 70
     1
102
RTVSPropertyOp6
 70
     1
102
RTVSPropertyOp7
 70
     1
102
RTVSPropertyOp8
 70
     1
102
RTVSPropertyOp9
 70
     1
102
RTVSPropertyOp10
 70
     1
102
RTVSPropertyOp11
 70
     1
102
RTVSPropertyOp12
 70
     1
102
RTVSPropertyOp13
 70
     1
102
RTVSPropertyOp14
 70
     1
102
RTVSPropertyOp15
 70
     1
102
RTVSPropertyOp16
 70
     1
102
RTVSPropertyOp17
 70
     1
102
RTVSPropertyOp18
 70
     1
102
RTVSPropertyOp19
 70
     1
102
RTVSPropertyOp20
 70
     1
102
RTVSPropertyOp21
 70
     1
102
RTVSPropertyOp22
 70
     1
102
RTVSPropertyOp23
 70
     1
102
RTVSPropertyOp24
 70
     1
102
RTVSPropertyOp25
 70
     1
102
RTVSPropertyOp26
 70
     1
102
RTVSPropertyOp27
 70
     1
102
RTVSPropertyOp28
 70
     1
102
RTVSPropertyOp29
 70
     1
102
RTVSPropertyOp30
 70
     1
102
RTVSPropertyOp31
 70
     1
102
RTVSPropertyOp32
 70
     1
102
RTVSPropertyOp33
 70
     1
102
RTVSPropertyOp34
 70
     1
102
RTVSPropertyOp35
 70
     1
102
RTVSPropertyOp36
 70
     1
102
RTVSPropertyOp37
 70
     1
102
RTVSPropertyOp38
 70
     1
102
RTVSPropertyOp39
 70
     1
102
RTVSPropertyOp40
 70
     1
102
RTVSPropertyOp41
 70
     1
102
RTVSPropertyOp42
 70
     1
102
RTVSPropertyOp43
 70
     1
102
RTVSPropertyOp44
 70
     1
102
RTVSPropertyOp45
 70
     1
102
RTVSPropertyOp46
 70
     1
102
RTVSPropertyOp47
 70
     1
102
RTVSPropertyOp48
 70
     1
102
RTVSPropertyOp49
 70
     1
102
RTVSPropertyOp50
 70
     1
102
RTVSPropertyOp51
 70
     0
102
RTVSPropertyOp52
 70
     0
102
RTVSPropertyOp53
 70
     1
102
RTVSPropertyOp54
 70
     1
102
RTVSPropertyOp55
 70
     1
102
RTVSPropertyOp56
 70
     1
102
RTVSPropertyOp57
 70
     1
102
RTVSPost2010Prop28
280
     0
102
RTVSPost2010PropOp28
 70
     1
102
RTVSPost2010Prop29
280
     1
102
RTVSPost2010PropOp29
 70
     1
102
RTVSPost2010Prop30
280
     1
102
RTVSPost2010PropOp30
 70
     1
102
RTVSPost2010Prop31
280
     0
102
RTVSPost2010PropOp31
 70
     1
102
RTVSPost2010Prop32
280
     0
102
RTVSPost2010PropOp32
 70
     1
102
RTVSPost2010Prop33
280
     0
102
RTVSPost2010PropOp33
 70
     1
102
RTVSPost2010Prop34
280
     0
102
RTVSPost2010PropOp34
 70
     1
102
RTVSPost2010Prop35
280
     0
102
RTVSPost2010PropOp35
 70
     1
102
RTVSPost2010Prop36
280
     0
102
RTVSPost2010PropOp36
 70
     1
102
RTVSPost2010Prop37
 90
       50
102
RTVSPost2010PropOp37
 70
     1
102
RTVSPost2010Prop38
140
0.0
102
RTVSPost2010PropOp38
 70
     1
102
RTVSPost2010Prop39
140
1.0
102
RTVSPost2010PropOp39
 70
     1
102
RTVSPost2010Prop40
 90
        0
102
RTVSPost2010PropOp40
 70
     1
102
RTVSPost2010Prop41ColorIndex
 90
       18
102
RTVSPost2010Prop41ColorRGB
 90
        0
102
RTVSPost2010PropOp41
 70
     1
102
RTVSPost2010Prop42
 90
       50
102
RTVSPost2010PropOp42
 70
     1
102
RTVSPost2010Prop43
 90
        3
102
RTVSPost2010PropOp43
 70
     1
102
RTVSPost2010Prop44ColorIndex
 90
        5
102
RTVSPost2010Prop44ColorRGB
 90
      255
102
RTVSPost2010PropOp44
 70
     1
102
RTVSPost2010Prop45
280
     0
102
RTVSPost2010PropOp45
 70
     1
102
RTVSPost2010Prop46
 90
       50
102
RTVSPost2010PropOp46
 70
     1
102
RTVSPost2010Prop47
 90
       50
102
RTVSPost2010PropOp47
 70
     1
102
RTVSPost2010Prop48
 90
       50
102
RTVSPost2010PropOp48
 70
     1
102
RTVSPost2010Prop49
280
     0
102
RTVSPost2010PropOp49
 70
     1
102
RTVSPost2010Prop50
 90
       50
102
RTVSPost2010PropOp50
 70
     1
102
RTVSPost2010Prop51ColorIndex
 90
      256
102
RTVSPost2010Prop51ColorRGB
 90
-16777216
102
RTVSPost2010PropOp51
 70
     0
102
RTVSPost2010Prop52
140
1.0
102
RTVSPost2010PropOp52
 70
     0
102
RTVSPost2010Prop53
 90
        2
102
RTVSPost2010PropOp53
 70
     1
102
RTVSPost2010Prop54
  1
strokes_ogs.tif
102
RTVSPost2010PropOp54
 70
     1
102
RTVSPost2010Prop55
280
     0
102
RTVSPost2010PropOp55
 70
     1
102
RTVSPost2010Prop56
140
1.0
102
RTVSPost2010PropOp56
 70
     1
102
RTVSPost2010Prop57
140
1.0
102
RTVSPost2010PropOp57
 70
     1
  0
XRECORD
  5
45E
102
{ACAD_REACTORS
330
45D
102
}
330
45D
100
AcDbXrecord
280
     1
102
RTVSPropertyOp0
 70
     1
102
RTVSPropertyOp1
 70
     1
102
RTVSPropertyOp2
 70
     1
102
RTVSPropertyOp3
 70
     1
102
RTVSPropertyOp4
 70
     1
102
RTVSPropertyOp5
 70
     1
102
RTVSPropertyOp6
 70
     1
102
RTVSPropertyOp7
 70
     1
102
RTVSPropertyOp8
 70
     1
102
RTVSPropertyOp9
 70
     1
102
RTVSPropertyOp10
 70
     1
102
RTVSPropertyOp11
 70
     1
102
RTVSPropertyOp12
 70
     1
102
RTVSPropertyOp13
 70
     1
102
RTVSPropertyOp14
 70
     1
102
RTVSPropertyOp15
 70
     1
102
RTVSPropertyOp16
 70
     1
102
RTVSPropertyOp17
 70
     1
102
RTVSPropertyOp18
 70
     1
102
RTVSPropertyOp19
 70
     1
102
RTVSPropertyOp20
 70
     1
102
RTVSPropertyOp21
 70
     1
102
RTVSPropertyOp22
 70
     1
102
RTVSPropertyOp23
 70
     1
102
RTVSPropertyOp24
 70
     1
102
RTVSPropertyOp25
 70
     1
102
RTVSPropertyOp26
 70
     1
102
RTVSPropertyOp27
 70
     1
102
RTVSPropertyOp28
 70
     1
102
RTVSPropertyOp29
 70
     1
102
RTVSPropertyOp30
 70
     1
102
RTVSPropertyOp31
 70
     1
102
RTVSPropertyOp32
 70
     1
102
RTVSPropertyOp33
 70
     1
102
RTVSPropertyOp34
 70
     1
102
RTVSPropertyOp35
 70
     1
102
RTVSPropertyOp36
 70
     1
102
RTVSPropertyOp37
 70
     1
102
RTVSPropertyOp38
 70
     1
102
RTVSPropertyOp39
 70
     1
102
RTVSPropertyOp40
 70
     1
102
RTVSPropertyOp41
 70
     1
102
RTVSPropertyOp42
 70
     1
102
RTVSPropertyOp43
 70
     1
102
RTVSPropertyOp44
 70
     1
102
RTVSPropertyOp45
 70
     1
102
RTVSPropertyOp46
 70
     1
102
RTVSPropertyOp47
 70
     1
102
RTVSPropertyOp48
 70
     1
102
RTVSPropertyOp49
 70
     1
102
RTVSPropertyOp50
 70
     1
102
RTVSPropertyOp51
 70
     0
102
RTVSPropertyOp52
 70
     0
102
RTVSPropertyOp53
 70
     1
102
RTVSPropertyOp54
 70
     1
102
RTVSPropertyOp55
 70
     1
102
RTVSPropertyOp56
 70
     1
102
RTVSPropertyOp57
 70
     1
102
RTVSPost2010Prop28
280
     0
102
RTVSPost2010PropOp28
 70
     1
102
RTVSPost2010Prop29
280
     1
102
RTVSPost2010PropOp29
 70
     1
102
RTVSPost2010Prop30
280
     1
102
RTVSPost2010PropOp30
 70
     1
102
RTVSPost2010Prop31
280
     0
102
RTVSPost2010PropOp31
 70
     1
102
RTVSPost2010Prop32
280
     0
102
RTVSPost2010PropOp32
 70
     1
102
RTVSPost2010Prop33
280
     0
102
RTVSPost2010PropOp33
 70
     1
102
RTVSPost2010Prop34
280
     0
102
RTVSPost2010PropOp34
 70
     1
102
RTVSPost2010Prop35
280
     0
102
RTVSPost2010PropOp35
 70
     1
102
RTVSPost2010Prop36
280
     0
102
RTVSPost2010PropOp36
 70
     1
102
RTVSPost2010Prop37
 90
       50
102
RTVSPost2010PropOp37
 70
     1
102
RTVSPost2010Prop38
140
0.0
102
RTVSPost2010PropOp38
 70
     1
102
RTVSPost2010Prop39
140
1.0
102
RTVSPost2010PropOp39
 70
     1
102
RTVSPost2010Prop40
 90
        0
102
RTVSPost2010PropOp40
 70
     1
102
RTVSPost2010Prop41ColorIndex
 90
       18
102
RTVSPost2010Prop41ColorRGB
 90
        0
102
RTVSPost2010PropOp41
 70
     1
102
RTVSPost2010Prop42
 90
       50
102
RTVSPost2010PropOp42
 70
     1
102
RTVSPost2010Prop43
 90
        3
102
RTVSPost2010PropOp43
 70
     1
102
RTVSPost2010Prop44ColorIndex
 90
        5
102
RTVSPost2010Prop44ColorRGB
 90
      255
102
RTVSPost2010PropOp44
 70
     1
102
RTVSPost2010Prop45
280
     0
102
RTVSPost2010PropOp45
 70
     1
102
RTVSPost2010Prop46
 90
       50
102
RTVSPost2010PropOp46
 70
     1
102
RTVSPost2010Prop47
 90
       50
102
RTVSPost2010PropOp47
 70
     1
102
RTVSPost2010Prop48
 90
       50
102
RTVSPost2010PropOp48
 70
     1
102
RTVSPost2010Prop49
280
     0
102
RTVSPost2010PropOp49
 70
     1
102
RTVSPost2010Prop50
 90
       50
102
RTVSPost2010PropOp50
 70
     1
102
RTVSPost2010Prop51ColorIndex
 90
      256
102
RTVSPost2010Prop51ColorRGB
 90
-16777216
102
RTVSPost2010PropOp51
 70
     0
102
RTVSPost2010Prop52
140
1.0
102
RTVSPost2010PropOp52
 70
     0
102
RTVSPost2010Prop53
 90
        2
102
RTVSPost2010PropOp53
 70
     1
102
RTVSPost2010Prop54
  1
strokes_ogs.tif
102
RTVSPost2010PropOp54
 70
     1
102
RTVSPost2010Prop55
280
     0
102
RTVSPost2010PropOp55
 70
     1
102
RTVSPost2010Prop56
140
1.0
102
RTVSPost2010PropOp56
 70
     1
102
RTVSPost2010Prop57
140
1.0
102
RTVSPost2010PropOp57
 70
     1
  0
XRECORD
  5
460
102
{ACAD_REACTORS
330
45F
102
}
330
45F
100
AcDbXrecord
280
     1
102
RTVSPropertyOp0
 70
     1
102
RTVSPropertyOp1
 70
     1
102
RTVSPropertyOp2
 70
     1
102
RTVSPropertyOp3
 70
     1
102
RTVSPropertyOp4
 70
     1
102
RTVSPropertyOp5
 70
     1
102
RTVSPropertyOp6
 70
     1
102
RTVSPropertyOp7
 70
     1
102
RTVSPropertyOp8
 70
     1
102
RTVSPropertyOp9
 70
     1
102
RTVSPropertyOp10
 70
     1
102
RTVSPropertyOp11
 70
     1
102
RTVSPropertyOp12
 70
     1
102
RTVSPropertyOp13
 70
     1
102
RTVSPropertyOp14
 70
     1
102
RTVSPropertyOp15
 70
     1
102
RTVSPropertyOp16
 70
     1
102
RTVSPropertyOp17
 70
     1
102
RTVSPropertyOp18
 70
     1
102
RTVSPropertyOp19
 70
     1
102
RTVSPropertyOp20
 70
     1
102
RTVSPropertyOp21
 70
     1
102
RTVSPropertyOp22
 70
     1
102
RTVSPropertyOp23
 70
     1
102
RTVSPropertyOp24
 70
     1
102
RTVSPropertyOp25
 70
     1
102
RTVSPropertyOp26
 70
     1
102
RTVSPropertyOp27
 70
     1
102
RTVSPropertyOp28
 70
     1
102
RTVSPropertyOp29
 70
     1
102
RTVSPropertyOp30
 70
     1
102
RTVSPropertyOp31
 70
     1
102
RTVSPropertyOp32
 70
     1
102
RTVSPropertyOp33
 70
     1
102
RTVSPropertyOp34
 70
     1
102
RTVSPropertyOp35
 70
     1
102
RTVSPropertyOp36
 70
     1
102
RTVSPropertyOp37
 70
     1
102
RTVSPropertyOp38
 70
     1
102
RTVSPropertyOp39
 70
     1
102
RTVSPropertyOp40
 70
     1
102
RTVSPropertyOp41
 70
     1
102
RTVSPropertyOp42
 70
     1
102
RTVSPropertyOp43
 70
     1
102
RTVSPropertyOp44
 70
     1
102
RTVSPropertyOp45
 70
     1
102
RTVSPropertyOp46
 70
     1
102
RTVSPropertyOp47
 70
     1
102
RTVSPropertyOp48
 70
     1
102
RTVSPropertyOp49
 70
     1
102
RTVSPropertyOp50
 70
     1
102
RTVSPropertyOp51
 70
     0
102
RTVSPropertyOp52
 70
     0
102
RTVSPropertyOp53
 70
     1
102
RTVSPropertyOp54
 70
     1
102
RTVSPropertyOp55
 70
     1
102
RTVSPropertyOp56
 70
     1
102
RTVSPropertyOp57
 70
     1
102
RTVSPost2010Prop28
280
     0
102
RTVSPost2010PropOp28
 70
     1
102
RTVSPost2010Prop29
280
     1
102
RTVSPost2010PropOp29
 70
     1
102
RTVSPost2010Prop30
280
     1
102
RTVSPost2010PropOp30
 70
     1
102
RTVSPost2010Prop31
280
     0
102
RTVSPost2010PropOp31
 70
     1
102
RTVSPost2010Prop32
280
     0
102
RTVSPost2010PropOp32
 70
     1
102
RTVSPost2010Prop33
280
     0
102
RTVSPost2010PropOp33
 70
     1
102
RTVSPost2010Prop34
280
     0
102
RTVSPost2010PropOp34
 70
     1
102
RTVSPost2010Prop35
280
     0
102
RTVSPost2010PropOp35
 70
     1
102
RTVSPost2010Prop36
280
     0
102
RTVSPost2010PropOp36
 70
     1
102
RTVSPost2010Prop37
 90
       50
102
RTVSPost2010PropOp37
 70
     1
102
RTVSPost2010Prop38
140
0.0
102
RTVSPost2010PropOp38
 70
     1
102
RTVSPost2010Prop39
140
1.0
102
RTVSPost2010PropOp39
 70
     1
102
RTVSPost2010Prop40
 90
        0
102
RTVSPost2010PropOp40
 70
     1
102
RTVSPost2010Prop41ColorIndex
 90
       18
102
RTVSPost2010Prop41ColorRGB
 90
        0
102
RTVSPost2010PropOp41
 70
     1
102
RTVSPost2010Prop42
 90
       50
102
RTVSPost2010PropOp42
 70
     1
102
RTVSPost2010Prop43
 90
        3
102
RTVSPost2010PropOp43
 70
     1
102
RTVSPost2010Prop44ColorIndex
 90
        5
102
RTVSPost2010Prop44ColorRGB
 90
      255
102
RTVSPost2010PropOp44
 70
     1
102
RTVSPost2010Prop45
280
     0
102
RTVSPost2010PropOp45
 70
     1
102
RTVSPost2010Prop46
 90
       50
102
RTVSPost2010PropOp46
 70
     1
102
RTVSPost2010Prop47
 90
       50
102
RTVSPost2010PropOp47
 70
     1
102
RTVSPost2010Prop48
 90
       50
102
RTVSPost2010PropOp48
 70
     1
102
RTVSPost2010Prop49
280
     0
102
RTVSPost2010PropOp49
 70
     1
102
RTVSPost2010Prop50
 90
       50
102
RTVSPost2010PropOp50
 70
     1
102
RTVSPost2010Prop51ColorIndex
 90
      256
102
RTVSPost2010Prop51ColorRGB
 90
-16777216
102
RTVSPost2010PropOp51
 70
     0
102
RTVSPost2010Prop52
140
1.0
102
RTVSPost2010PropOp52
 70
     0
102
RTVSPost2010Prop53
 90
        2
102
RTVSPost2010PropOp53
 70
     1
102
RTVSPost2010Prop54
  1
strokes_ogs.tif
102
RTVSPost2010PropOp54
 70
     1
102
RTVSPost2010Prop55
280
     0
102
RTVSPost2010PropOp55
 70
     1
102
RTVSPost2010Prop56
140
1.0
102
RTVSPost2010PropOp56
 70
     1
102
RTVSPost2010Prop57
140
1.0
102
RTVSPost2010PropOp57
 70
     1
  0
XRECORD
  5
450
102
{ACAD_REACTORS
330
44F
102
}
330
44F
100
AcDbXrecord
280
     1
102
RTVSPropertyOp0
 70
     1
102
RTVSPropertyOp1
 70
     1
102
RTVSPropertyOp2
 70
     1
102
RTVSPropertyOp3
 70
     1
102
RTVSPropertyOp4
 70
     1
102
RTVSPropertyOp5
 70
     1
102
RTVSPropertyOp6
 70
     1
102
RTVSPropertyOp7
 70
     1
102
RTVSPropertyOp8
 70
     1
102
RTVSPropertyOp9
 70
     1
102
RTVSPropertyOp10
 70
     1
102
RTVSPropertyOp11
 70
     1
102
RTVSPropertyOp12
 70
     1
102
RTVSPropertyOp13
 70
     1
102
RTVSPropertyOp14
 70
     1
102
RTVSPropertyOp15
 70
     1
102
RTVSPropertyOp16
 70
     1
102
RTVSPropertyOp17
 70
     1
102
RTVSPropertyOp18
 70
     1
102
RTVSPropertyOp19
 70
     1
102
RTVSPropertyOp20
 70
     1
102
RTVSPropertyOp21
 70
     1
102
RTVSPropertyOp22
 70
     1
102
RTVSPropertyOp23
 70
     1
102
RTVSPropertyOp24
 70
     1
102
RTVSPropertyOp25
 70
     1
102
RTVSPropertyOp26
 70
     1
102
RTVSPropertyOp27
 70
     1
102
RTVSPropertyOp28
 70
     1
102
RTVSPropertyOp29
 70
     1
102
RTVSPropertyOp30
 70
     1
102
RTVSPropertyOp31
 70
     1
102
RTVSPropertyOp32
 70
     1
102
RTVSPropertyOp33
 70
     1
102
RTVSPropertyOp34
 70
     1
102
RTVSPropertyOp35
 70
     1
102
RTVSPropertyOp36
 70
     1
102
RTVSPropertyOp37
 70
     1
102
RTVSPropertyOp38
 70
     1
102
RTVSPropertyOp39
 70
     1
102
RTVSPropertyOp40
 70
     1
102
RTVSPropertyOp41
 70
     1
102
RTVSPropertyOp42
 70
     1
102
RTVSPropertyOp43
 70
     1
102
RTVSPropertyOp44
 70
     1
102
RTVSPropertyOp45
 70
     1
102
RTVSPropertyOp46
 70
     1
102
RTVSPropertyOp47
 70
     1
102
RTVSPropertyOp48
 70
     1
102
RTVSPropertyOp49
 70
     1
102
RTVSPropertyOp50
 70
     1
102
RTVSPropertyOp51
 70
     0
102
RTVSPropertyOp52
 70
     0
102
RTVSPropertyOp53
 70
     1
102
RTVSPropertyOp54
 70
     1
102
RTVSPropertyOp55
 70
     1
102
RTVSPropertyOp56
 70
     1
102
RTVSPropertyOp57
 70
     1
102
RTVSPost2010Prop28
280
     0
102
RTVSPost2010PropOp28
 70
     1
102
RTVSPost2010Prop29
280
     1
102
RTVSPost2010PropOp29
 70
     1
102
RTVSPost2010Prop30
280
     1
102
RTVSPost2010PropOp30
 70
     1
102
RTVSPost2010Prop31
280
     0
102
RTVSPost2010PropOp31
 70
     1
102
RTVSPost2010Prop32
280
     0
102
RTVSPost2010PropOp32
 70
     1
102
RTVSPost2010Prop33
280
     0
102
RTVSPost2010PropOp33
 70
     1
102
RTVSPost2010Prop34
280
     0
102
RTVSPost2010PropOp34
 70
     1
102
RTVSPost2010Prop35
280
     0
102
RTVSPost2010PropOp35
 70
     1
102
RTVSPost2010Prop36
280
     0
102
RTVSPost2010PropOp36
 70
     1
102
RTVSPost2010Prop37
 90
       50
102
RTVSPost2010PropOp37
 70
     1
102
RTVSPost2010Prop38
140
0.0
102
RTVSPost2010PropOp38
 70
     1
102
RTVSPost2010Prop39
140
1.0
102
RTVSPost2010PropOp39
 70
     1
102
RTVSPost2010Prop40
 90
        0
102
RTVSPost2010PropOp40
 70
     1
102
RTVSPost2010Prop41ColorIndex
 90
       18
102
RTVSPost2010Prop41ColorRGB
 90
        0
102
RTVSPost2010PropOp41
 70
     1
102
RTVSPost2010Prop42
 90
       50
102
RTVSPost2010PropOp42
 70
     1
102
RTVSPost2010Prop43
 90
        3
102
RTVSPost2010PropOp43
 70
     1
102
RTVSPost2010Prop44ColorIndex
 90
        5
102
RTVSPost2010Prop44ColorRGB
 90
      255
102
RTVSPost2010PropOp44
 70
     1
102
RTVSPost2010Prop45
280
     0
102
RTVSPost2010PropOp45
 70
     1
102
RTVSPost2010Prop46
 90
       50
102
RTVSPost2010PropOp46
 70
     1
102
RTVSPost2010Prop47
 90
       50
102
RTVSPost2010PropOp47
 70
     1
102
RTVSPost2010Prop48
 90
       50
102
RTVSPost2010PropOp48
 70
     1
102
RTVSPost2010Prop49
280
     0
102
RTVSPost2010PropOp49
 70
     1
102
RTVSPost2010Prop50
 90
       50
102
RTVSPost2010PropOp50
 70
     1
102
RTVSPost2010Prop51ColorIndex
 90
      256
102
RTVSPost2010Prop51ColorRGB
 90
-16777216
102
RTVSPost2010PropOp51
 70
     0
102
RTVSPost2010Prop52
140
1.0
102
RTVSPost2010PropOp52
 70
     0
102
RTVSPost2010Prop53
 90
        2
102
RTVSPost2010PropOp53
 70
     1
102
RTVSPost2010Prop54
  1
strokes_ogs.tif
102
RTVSPost2010PropOp54
 70
     1
102
RTVSPost2010Prop55
280
     0
102
RTVSPost2010PropOp55
 70
     1
102
RTVSPost2010Prop56
140
1.0
102
RTVSPost2010PropOp56
 70
     1
102
RTVSPost2010Prop57
140
1.0
102
RTVSPost2010PropOp57
 70
     1
  0
XRECORD
  5
442
102
{ACAD_REACTORS
330
441
102
}
330
441
100
AcDbXrecord
280
     1
102
RTVSPropertyOp0
 70
     1
102
RTVSPropertyOp1
 70
     1
102
RTVSPropertyOp2
 70
     1
102
RTVSPropertyOp3
 70
     1
102
RTVSPropertyOp4
 70
     1
102
RTVSPropertyOp5
 70
     1
102
RTVSPropertyOp6
 70
     1
102
RTVSPropertyOp7
 70
     1
102
RTVSPropertyOp8
 70
     1
102
RTVSPropertyOp9
 70
     1
102
RTVSPropertyOp10
 70
     1
102
RTVSPropertyOp11
 70
     1
102
RTVSPropertyOp12
 70
     1
102
RTVSPropertyOp13
 70
     1
102
RTVSPropertyOp14
 70
     1
102
RTVSPropertyOp15
 70
     1
102
RTVSPropertyOp16
 70
     1
102
RTVSPropertyOp17
 70
     1
102
RTVSPropertyOp18
 70
     1
102
RTVSPropertyOp19
 70
     1
102
RTVSPropertyOp20
 70
     1
102
RTVSPropertyOp21
 70
     1
102
RTVSPropertyOp22
 70
     1
102
RTVSPropertyOp23
 70
     1
102
RTVSPropertyOp24
 70
     1
102
RTVSPropertyOp25
 70
     1
102
RTVSPropertyOp26
 70
     1
102
RTVSPropertyOp27
 70
     1
102
RTVSPropertyOp28
 70
     1
102
RTVSPropertyOp29
 70
     1
102
RTVSPropertyOp30
 70
     1
102
RTVSPropertyOp31
 70
     1
102
RTVSPropertyOp32
 70
     1
102
RTVSPropertyOp33
 70
     1
102
RTVSPropertyOp34
 70
     1
102
RTVSPropertyOp35
 70
     1
102
RTVSPropertyOp36
 70
     1
102
RTVSPropertyOp37
 70
     1
102
RTVSPropertyOp38
 70
     1
102
RTVSPropertyOp39
 70
     1
102
RTVSPropertyOp40
 70
     1
102
RTVSPropertyOp41
 70
     1
102
RTVSPropertyOp42
 70
     1
102
RTVSPropertyOp43
 70
     1
102
RTVSPropertyOp44
 70
     1
102
RTVSPropertyOp45
 70
     1
102
RTVSPropertyOp46
 70
     1
102
RTVSPropertyOp47
 70
     1
102
RTVSPropertyOp48
 70
     1
102
RTVSPropertyOp49
 70
     1
102
RTVSPropertyOp50
 70
     1
102
RTVSPropertyOp51
 70
     0
102
RTVSPropertyOp52
 70
     0
102
RTVSPropertyOp53
 70
     1
102
RTVSPropertyOp54
 70
     1
102
RTVSPropertyOp55
 70
     1
102
RTVSPropertyOp56
 70
     1
102
RTVSPropertyOp57
 70
     1
102
RTVSPost2010Prop28
280
     0
102
RTVSPost2010PropOp28
 70
     1
102
RTVSPost2010Prop29
280
     1
102
RTVSPost2010PropOp29
 70
     1
102
RTVSPost2010Prop30
280
     1
102
RTVSPost2010PropOp30
 70
     1
102
RTVSPost2010Prop31
280
     0
102
RTVSPost2010PropOp31
 70
     1
102
RTVSPost2010Prop32
280
     0
102
RTVSPost2010PropOp32
 70
     1
102
RTVSPost2010Prop33
280
     0
102
RTVSPost2010PropOp33
 70
     1
102
RTVSPost2010Prop34
280
     0
102
RTVSPost2010PropOp34
 70
     1
102
RTVSPost2010Prop35
280
     0
102
RTVSPost2010PropOp35
 70
     1
102
RTVSPost2010Prop36
280
     0
102
RTVSPost2010PropOp36
 70
     1
102
RTVSPost2010Prop37
 90
       50
102
RTVSPost2010PropOp37
 70
     1
102
RTVSPost2010Prop38
140
0.0
102
RTVSPost2010PropOp38
 70
     1
102
RTVSPost2010Prop39
140
1.0
102
RTVSPost2010PropOp39
 70
     1
102
RTVSPost2010Prop40
 90
        0
102
RTVSPost2010PropOp40
 70
     1
102
RTVSPost2010Prop41ColorIndex
 90
       18
102
RTVSPost2010Prop41ColorRGB
 90
        0
102
RTVSPost2010PropOp41
 70
     1
102
RTVSPost2010Prop42
 90
       50
102
RTVSPost2010PropOp42
 70
     1
102
RTVSPost2010Prop43
 90
        3
102
RTVSPost2010PropOp43
 70
     1
102
RTVSPost2010Prop44ColorIndex
 90
        5
102
RTVSPost2010Prop44ColorRGB
 90
      255
102
RTVSPost2010PropOp44
 70
     1
102
RTVSPost2010Prop45
280
     0
102
RTVSPost2010PropOp45
 70
     1
102
RTVSPost2010Prop46
 90
       50
102
RTVSPost2010PropOp46
 70
     1
102
RTVSPost2010Prop47
 90
       50
102
RTVSPost2010PropOp47
 70
     1
102
RTVSPost2010Prop48
 90
       50
102
RTVSPost2010PropOp48
 70
     1
102
RTVSPost2010Prop49
280
     0
102
RTVSPost2010PropOp49
 70
     1
102
RTVSPost2010Prop50
 90
       50
102
RTVSPost2010PropOp50
 70
     1
102
RTVSPost2010Prop51ColorIndex
 90
      256
102
RTVSPost2010Prop51ColorRGB
 90
-16777216
102
RTVSPost2010PropOp51
 70
     0
102
RTVSPost2010Prop52
140
1.0
102
RTVSPost2010PropOp52
 70
     0
102
RTVSPost2010Prop53
 90
        2
102
RTVSPost2010PropOp53
 70
     1
102
RTVSPost2010Prop54
  1
strokes_ogs.tif
102
RTVSPost2010PropOp54
 70
     1
102
RTVSPost2010Prop55
280
     0
102
RTVSPost2010PropOp55
 70
     1
102
RTVSPost2010Prop56
140
1.0
102
RTVSPost2010PropOp56
 70
     1
102
RTVSPost2010Prop57
140
1.0
102
RTVSPost2010PropOp57
 70
     1
  0
XRECORD
  5
462
102
{ACAD_REACTORS
330
461
102
}
330
461
100
AcDbXrecord
280
     1
102
RTVSPropertyOp0
 70
     1
102
RTVSPropertyOp1
 70
     1
102
RTVSPropertyOp2
 70
     1
102
RTVSPropertyOp3
 70
     1
102
RTVSPropertyOp4
 70
     1
102
RTVSPropertyOp5
 70
     1
102
RTVSPropertyOp6
 70
     1
102
RTVSPropertyOp7
 70
     1
102
RTVSPropertyOp8
 70
     1
102
RTVSPropertyOp9
 70
     1
102
RTVSPropertyOp10
 70
     1
102
RTVSPropertyOp11
 70
     1
102
RTVSPropertyOp12
 70
     1
102
RTVSPropertyOp13
 70
     1
102
RTVSPropertyOp14
 70
     1
102
RTVSPropertyOp15
 70
     1
102
RTVSPropertyOp16
 70
     1
102
RTVSPropertyOp17
 70
     1
102
RTVSPropertyOp18
 70
     1
102
RTVSPropertyOp19
 70
     1
102
RTVSPropertyOp20
 70
     1
102
RTVSPropertyOp21
 70
     1
102
RTVSPropertyOp22
 70
     1
102
RTVSPropertyOp23
 70
     1
102
RTVSPropertyOp24
 70
     1
102
RTVSPropertyOp25
 70
     1
102
RTVSPropertyOp26
 70
     1
102
RTVSPropertyOp27
 70
     1
102
RTVSPropertyOp28
 70
     1
102
RTVSPropertyOp29
 70
     1
102
RTVSPropertyOp30
 70
     1
102
RTVSPropertyOp31
 70
     1
102
RTVSPropertyOp32
 70
     1
102
RTVSPropertyOp33
 70
     1
102
RTVSPropertyOp34
 70
     1
102
RTVSPropertyOp35
 70
     1
102
RTVSPropertyOp36
 70
     1
102
RTVSPropertyOp37
 70
     1
102
RTVSPropertyOp38
 70
     1
102
RTVSPropertyOp39
 70
     1
102
RTVSPropertyOp40
 70
     1
102
RTVSPropertyOp41
 70
     1
102
RTVSPropertyOp42
 70
     1
102
RTVSPropertyOp43
 70
     1
102
RTVSPropertyOp44
 70
     1
102
RTVSPropertyOp45
 70
     1
102
RTVSPropertyOp46
 70
     1
102
RTVSPropertyOp47
 70
     1
102
RTVSPropertyOp48
 70
     1
102
RTVSPropertyOp49
 70
     1
102
RTVSPropertyOp50
 70
     1
102
RTVSPropertyOp51
 70
     0
102
RTVSPropertyOp52
 70
     0
102
RTVSPropertyOp53
 70
     1
102
RTVSPropertyOp54
 70
     1
102
RTVSPropertyOp55
 70
     1
102
RTVSPropertyOp56
 70
     1
102
RTVSPropertyOp57
 70
     1
102
RTVSPost2010Prop28
280
     0
102
RTVSPost2010PropOp28
 70
     1
102
RTVSPost2010Prop29
280
     1
102
RTVSPost2010PropOp29
 70
     1
102
RTVSPost2010Prop30
280
     1
102
RTVSPost2010PropOp30
 70
     1
102
RTVSPost2010Prop31
280
     0
102
RTVSPost2010PropOp31
 70
     1
102
RTVSPost2010Prop32
280
     0
102
RTVSPost2010PropOp32
 70
     1
102
RTVSPost2010Prop33
280
     0
102
RTVSPost2010PropOp33
 70
     1
102
RTVSPost2010Prop34
280
     0
102
RTVSPost2010PropOp34
 70
     1
102
RTVSPost2010Prop35
280
     0
102
RTVSPost2010PropOp35
 70
     1
102
RTVSPost2010Prop36
280
     0
102
RTVSPost2010PropOp36
 70
     1
102
RTVSPost2010Prop37
 90
       50
102
RTVSPost2010PropOp37
 70
     1
102
RTVSPost2010Prop38
140
0.0
102
RTVSPost2010PropOp38
 70
     1
102
RTVSPost2010Prop39
140
1.0
102
RTVSPost2010PropOp39
 70
     1
102
RTVSPost2010Prop40
 90
        0
102
RTVSPost2010PropOp40
 70
     1
102
RTVSPost2010Prop41ColorIndex
 90
       18
102
RTVSPost2010Prop41ColorRGB
 90
        0
102
RTVSPost2010PropOp41
 70
     1
102
RTVSPost2010Prop42
 90
       50
102
RTVSPost2010PropOp42
 70
     1
102
RTVSPost2010Prop43
 90
        3
102
RTVSPost2010PropOp43
 70
     1
102
RTVSPost2010Prop44ColorIndex
 90
        5
102
RTVSPost2010Prop44ColorRGB
 90
      255
102
RTVSPost2010PropOp44
 70
     1
102
RTVSPost2010Prop45
280
     0
102
RTVSPost2010PropOp45
 70
     1
102
RTVSPost2010Prop46
 90
       50
102
RTVSPost2010PropOp46
 70
     1
102
RTVSPost2010Prop47
 90
       50
102
RTVSPost2010PropOp47
 70
     1
102
RTVSPost2010Prop48
 90
       50
102
RTVSPost2010PropOp48
 70
     1
102
RTVSPost2010Prop49
280
     0
102
RTVSPost2010PropOp49
 70
     1
102
RTVSPost2010Prop50
 90
       50
102
RTVSPost2010PropOp50
 70
     1
102
RTVSPost2010Prop51ColorIndex
 90
      256
102
RTVSPost2010Prop51ColorRGB
 90
-16777216
102
RTVSPost2010PropOp51
 70
     0
102
RTVSPost2010Prop52
140
1.0
102
RTVSPost2010PropOp52
 70
     0
102
RTVSPost2010Prop53
 90
        2
102
RTVSPost2010PropOp53
 70
     1
102
RTVSPost2010Prop54
  1
strokes_ogs.tif
102
RTVSPost2010PropOp54
 70
     1
102
RTVSPost2010Prop55
280
     0
102
RTVSPost2010PropOp55
 70
     1
102
RTVSPost2010Prop56
140
1.0
102
RTVSPost2010PropOp56
 70
     1
102
RTVSPost2010Prop57
140
1.0
102
RTVSPost2010PropOp57
 70
     1
  0
ENDSEC
  0
EOF
